  0
SECTION
  2
HEADER
  9
$ACADVER
  1
AC1009
  9
$INSBASE
 10
0
 20
0
 30
0
  9
$EXTMIN
 10
0
 20
0
  9
$EXTMAX
 10
2970
 20
2100
  9
$LIMMIN
 10
0
 20
0
  9
$LIMMAX
 10
2970
 20
2100
  9
$LTSCALE
 40
10
  0
ENDSEC
  0
SECTION
  2
TABLES
  0
TABLE
  2
LTYPE
 70
     9
  0
LTYPE
  2
CONTINUOUS
 70
    64
  3
実線
 72
    65
 73
     0
 40
0.0
  0
LTYPE
  2
DASHED1
 70
    64
  3
--  --  --  --  --  --  --  --  
 72
    65
 73
     2
 40
2.5
 49
1.25
 49
-1.25
  0
LTYPE
  2
DASHED2
 70
    64
  3
----    ----    ----    ----    
 72
    65
 73
     2
 40
5.0
 49
2.5
 49
-2.5
  0
LTYPE
  2
DASHED3
 70
    64
  3
------  ------  ------  ------  
 72
    65
 73
     2
 40
5.0
 49
3.75
 49
-1.25
  0
LTYPE
  2
CENTER1
 70
    64
  3
----- - ----- - ----- - ----- - 
 72
    65
 73
     4
 40
10.0
 49
6.25
 49
-1.25
 49
1.25
 49
-1.25
  0
LTYPE
  2
CENTER2
 70
    64
  3
----------  --  ----------  --  
 72
    65
 73
     4
 40
20.0
 49
12.5
 49
-2.5
 49
2.5
 49
-2.5
  0
LTYPE
  2
PHANTOM1
 70
    64
  3
--- - - --- - - --- - - --- - - 
 72
    65
 73
     6
 40
10.0
 49
3.25
 49
-1.25
 49
1.25
 49
-1.25
 49
1.25
 49
-1.25
  0
LTYPE
  2
PHANTOM2
 70
    64
  3
--------  -  -  --------  -  -  
 72
    65
 73
     6
 40
20.0
 49
10.0
 49
-2.5
 49
1.25
 49
-2.5
 49
1.25
 49
-2.5
  0
LTYPE
  2
DOT
 70
    64
  3
-   -   -   -   -   -   -   -   
 72
    65
 73
     2
 40
2.5
 49
0.625
 49
-1.875
  0
LTYPE
  2
DUMMY
 70
    64
  3
ダミー
 72
    65
 73
     0
 40
0.0
  0
LTYPE
  2
RAND1
 70
    64
  3
ランダム線1
 72
    65
 73
     4
 40
10.0
 49
1.0
 49
-2.0
 49
3.0
 49
-4.0
  0
LTYPE
  2
RAND2
 70
    64
  3
ランダム線2
 72
    65
 73
     4
 40
14.0
 49
2.0
 49
-3.0
 49
4.0
 49
-5.0
  0
LTYPE
  2
RAND3
 70
    64
  3
ランダム線3
 72
    65
 73
     4
 40
18.0
 49
3.0
 49
-4.0
 49
5.0
 49
-6.0
  0
LTYPE
  2
RAND4
 70
    64
  3
ランダム線4
 72
    65
 73
     4
 40
22.0
 49
4.0
 49
-5.0
 49
6.0
 49
-7.0
  0
LTYPE
  2
RAND5
 70
    64
  3
ランダム線5
 72
    65
 73
     4
 40
26.0
 49
5.0
 49
-6.0
 49
7.0
 49
-8.0
  0
LTYPE
  2
LONG1
 70
    64
  3
----------  --  ----------  --  
 72
    65
 73
     4
 40
40.0
 49
32.5
 49
-2.5
 49
2.5
 49
-2.5
  0
LTYPE
  2
LONG2
 70
    64
  3
--------  -  -  --------  -  -  
 72
    65
 73
     6
 40
40.0
 49
30.0
 49
-2.5
 49
1.25
 49
-2.5
 49
1.25
 49
-2.5
  0
LTYPE
  2
LONG3
 70
    64
  3
+++++++++++++++..+++++++++++++++
 72
    65
 73
     2
 40
40.0
 49
37.5
 49
-2.5
  0
LTYPE
  2
LONG4
 70
    64
  3
+++++++++++++++..+++++++++++++++
 72
    65
 73
     2
 40
80.0
 49
75.0
 49
-5.0
  0
LTYPE
  2
LONG5
 70
    64
  3
----------  --  ----------  --  
 72
    65
 73
     4
 40
60.0
 49
37.5
 49
-7.5
 49
7.5
 49
-7.5
  0
LTYPE
  2
dashed
 70
   64
  3
-------   -------------   ------
 72
   65
 73
    2
 40
7.5
 49
6
 49
-1.5
  0
LTYPE
  2
dashed_spaced
 70
   64
  3
----        --------        ----
 72
   65
 73
    2
 40
12
 49
6
 49
-6
  0
LTYPE
  2
long_dashed_dotted
 70
   64
  3
------------- --- --------------
 72
   65
 73
    4
 40
15.25
 49
12
 49
-1.5
 49
0.25
 49
-1.5
  0
LTYPE
  2
long_dashed_double-dotted
 70
   64
  3
----------- --- --- ------------
 72
   65
 73
    6
 40
17
 49
12
 49
-1.5
 49
0.25
 49
-1.5
 49
0.25
 49
-1.5
  0
LTYPE
  2
long_dashed_triplicate-dotted
 70
   64
  3
--------- --- --- --- ----------
 72
   65
 73
    8
 40
18.75
 49
12
 49
-1.5
 49
0.25
 49
-1.5
 49
0.25
 49
-1.5
 49
0.25
 49
-1.5
  0
LTYPE
  2
dotted
 70
   64
  3
   -       -       -       -    
 72
   65
 73
    2
 40
1.75
 49
0.25
 49
-1.5
  0
LTYPE
  2
chain
 70
   64
  3
-------------- -- --------------
 72
   65
 73
    4
 40
18.5
 49
12
 49
-1.5
 49
3.5
 49
-1.5
  0
LTYPE
  2
chain_double_dash
 70
   64
  3
------------ -- -- -------------
 72
   65
 73
    6
 40
23.5
 49
12
 49
-1.5
 49
3.5
 49
-1.5
 49
3.5
 49
-1.5
  0
LTYPE
  2
dashed_dotted
 70
   64
  3
-----------     -     ----------
 72
   65
 73
    4
 40
9.25
 49
6
 49
-1.5
 49
0.25
 49
-1.5
  0
LTYPE
  2
double-dashed_dotted
 70
   64
  3
------   -----------   -   -----
 72
   65
 73
    6
 40
16.75
 49
6
 49
-1.5
 49
6
 49
-1.5
 49
0.25
 49
-1.5
  0
LTYPE
  2
dashed_double-dotted
 70
   64
  3
---------    -    -    ---------
 72
   65
 73
    6
 40
11
 49
6
 49
-1.5
 49
0.25
 49
-1.5
 49
0.25
 49
-1.5
  0
LTYPE
  2
double-dashed_double-dotted
 70
   64
  3
-----   ---------   -   -   ----
 72
   65
 73
    8
 40
18.5
 49
6
 49
-1.5
 49
6
 49
-1.5
 49
0.25
 49
-1.5
 49
0.25
 49
-1.5
  0
LTYPE
  2
dashed_triplicate-dotted
 70
   64
  3
-------    -    -    -    ------
 72
   65
 73
    8
 40
12.75
 49
6
 49
-1.5
 49
0.25
 49
-1.5
 49
0.25
 49
-1.5
 49
0.25
 49
-1.5
  0
LTYPE
  2
double-dashed_triplicate-dotted
 70
   64
  3
-----  ---------  -  -  -  -----
 72
   65
 73
   10
 40
20.25
 49
6
 49
-1.5
 49
6
 49
-1.5
 49
0.25
 49
-1.5
 49
0.25
 49
-1.5
 49
0.25
 49
-1.5
  0
LTYPE
  2
undefined
 70
   64
  3
--------------------------------
 72
   65
 73
    0
 40
0
  0
ENDTAB
  0
TABLE
  2
STYLE
  5
3
100
AcDbSymbolTable
 70
     1
  0
STYLE
  5
10
100
AcDbSymbolTableRecord
100
AcDbTextStyleTableRecord
  2
STANDARD
 70
     0
 40
0.0
 41
1.0
 50
0.0
 71
     0
 42
0.2
  3
txt
  4
bigfont.shx
  0
STYLE
  5
26
100
AcDbSymbolTableRecord
100
AcDbTextStyleTableRecord
  2
TATEGAKI
 70
    68
 40
0.0
 41
1.0
 50
0.0
 71
     0
 42
1.0
  3
txt
  4
bigfont.shx
  0
ENDTAB
  0
TABLE
  2
LAYER
 70
   13
  0
LAYER
  2
_0-0_計極細
 70
   64
 62
    7
  6
CONTINUOUS
  0
LAYER
  2
_0-1_計細線
 70
   64
 62
    7
  6
CONTINUOUS
  0
LAYER
  2
_0-5_寸法線
 70
   64
 62
    7
  6
CONTINUOUS
  0
LAYER
  2
_0-7_枠細線
 70
   64
 62
    7
  6
CONTINUOUS
  0
LAYER
  2
_0-8_枠中線
 70
   64
 62
    7
  6
CONTINUOUS
  0
LAYER
  2
_0-a_極細1
 70
   64
 62
    7
  6
CONTINUOUS
  0
LAYER
  2
_0-d_寸法1
 70
   64
 62
    7
  6
CONTINUOUS
  0
LAYER
  2
_0-e_極細4
 70
   64
 62
    7
  6
CONTINUOUS
  0
LAYER
  2
_1-1_寸法4
 70
   64
 62
    7
  6
CONTINUOUS
  0
LAYER
  2
_1-2_極細2
 70
   64
 62
    7
  6
CONTINUOUS
  0
LAYER
  2
_1-3_細線2
 70
   64
 62
    7
  6
CONTINUOUS
  0
LAYER
  2
_1-5_寸法2
 70
   64
 62
    7
  6
CONTINUOUS
  0
LAYER
  2
ADD_LINE
 70
   64
 62
    7
  6
CONTINUOUS
  0
ENDTAB
  0
ENDSEC
  0
SECTION
  2
BLOCKS
  0
ENDSEC
  0
SECTION
  2
ENTITIES
  0
LINE
  8
_0-8_枠中線
  6
CONTINUOUS
 62
    5
 10
120
 20
120
 11
120
 21
1920
  0
LINE
  8
_0-8_枠中線
  6
CONTINUOUS
 62
    5
 10
120
 20
1920
 11
2850
 21
1920
  0
LINE
  8
_0-8_枠中線
  6
CONTINUOUS
 62
    5
 10
2850
 20
1920
 11
2850
 21
120
  0
LINE
  8
_0-8_枠中線
  6
CONTINUOUS
 62
    5
 10
2850
 20
120
 11
120
 21
120
  0
LINE
  8
_0-7_枠細線
  6
CONTINUOUS
 62
    5
 10
2370
 20
360
 11
2370
 21
200
  0
TEXT
  8
_0-7_枠細線
 62
    5
 10
1875
 20
195
 40
35
 41
1
 50
0
  1
備考
  7
TATEGAKI
  0
TEXT
  8
_0-7_枠細線
 62
    5
 10
1875
 20
275
 40
35
 41
1
 50
0
  1
品番
  7
TATEGAKI
  0
TEXT
  8
_0-7_枠細線
 62
    5
 10
1875
 20
355
 40
35
 41
1
 50
0
  1
品名
  7
TATEGAKI
  0
LINE
  8
_0-7_枠細線
  6
CONTINUOUS
 62
    5
 10
2370
 20
280
 11
1850
 21
280
  0
LINE
  8
_0-7_枠細線
  6
CONTINUOUS
 62
    5
 10
1900
 20
360
 11
1900
 21
120
  0
LINE
  8
_0-8_枠中線
  6
CONTINUOUS
 62
    5
 10
2850
 20
360
 11
1850
 21
360
  0
LINE
  8
_0-8_枠中線
  6
CONTINUOUS
 62
    5
 10
1850
 20
360
 11
1850
 21
120
  0
LINE
  8
_0-7_枠細線
  6
CONTINUOUS
 62
    5
 10
2490
 20
360
 11
2490
 21
120
  0
TEXT
  8
_0-7_枠細線
 62
    5
 10
2385
 20
320
 40
30
 41
1
 50
0
  1
縮　尺
  0
LINE
  8
_0-7_枠細線
  6
CONTINUOUS
 62
    5
 10
2370
 20
310
 11
2490
 21
310
  0
LINE
  8
_0-7_枠細線
  6
CONTINUOUS
 62
    5
 10
2490
 20
200
 11
1850
 21
200
  0
LINE
  8
_0-7_枠細線
  6
CONTINUOUS
 62
    5
 10
2850
 20
180
 11
2490
 21
180
  0
LINE
  8
_0-7_枠細線
  6
CONTINUOUS
 62
    5
 10
2490
 20
240
 11
2850
 21
240
  0
LINE
  8
_0-7_枠細線
  6
CONTINUOUS
 62
    5
 10
2850
 20
280
 11
2490
 21
280
  0
TEXT
  8
_0-7_枠細線
 62
    5
 10
2505
 20
120
 40
30
 41
1
 50
0
  1
年月日
  0
TEXT
  8
_0-7_枠細線
 62
    5
 10
2505
 20
150
 40
30
 41
1
 50
0
  1
作　成
  0
TEXT
  8
_0-7_枠細線
 62
    5
 10
2512.5
 20
245
 40
30
 41
1
 50
0
  1
承 認
  0
LINE
  8
_0-7_枠細線
  6
CONTINUOUS
 62
    5
 10
2610
 20
280
 11
2610
 21
120
  0
TEXT
  8
_0-7_枠細線
 62
    5
 10
2632.5
 20
245
 40
30
 41
1
 50
0
  1
検 図
  0
LINE
  8
_0-7_枠細線
  6
CONTINUOUS
 62
    5
 10
2730
 20
280
 11
2730
 21
180
  0
TEXT
  8
_0-7_枠細線
 62
    5
 10
2752.5
 20
245
 40
30
 41
1
 50
0
  1
設 計
  0
LINE
  8
_0-7_枠細線
  6
CONTINUOUS
 62
    5
 10
2850
 20
1885
 11
1780
 21
1885
  0
TEXT
  8
_0-7_枠細線
 62
    5
 10
1790
 20
1889.9999999999991
 40
25
 41
1
 50
0
  1
記号
  0
TEXT
  8
_0-7_枠細線
 62
    5
 10
1993.75
 20
1890
 40
25
 41
1
 50
0
  1
訂　 正　 記　 事
  0
TEXT
  8
_0-7_枠細線
 62
    5
 10
2362.5
 20
1890
 40
25
 41
1
 50
0
  1
訂 正 年 月 日
  0
TEXT
  8
_0-7_枠細線
 62
    5
 10
2612.5
 20
1890
 40
25
 41
1
 50
0
  1
備　　　　　考
  0
LINE
  8
_0-7_枠細線
  6
CONTINUOUS
 62
    5
 10
2850
 20
1850
 11
1780
 21
1850
  0
LINE
  8
_0-7_枠細線
  6
CONTINUOUS
 62
    5
 10
2550
 20
1850
 11
2550
 21
1919.9999999999989
  0
LINE
  8
_0-7_枠細線
  6
CONTINUOUS
 62
    5
 10
2350
 20
1850
 11
2350
 21
1920
  0
LINE
  8
_0-7_枠細線
  6
CONTINUOUS
 62
    5
 10
1850
 20
1850
 11
1850
 21
1919.9999999999989
  0
LINE
  8
_0-7_枠細線
  6
CONTINUOUS
 62
    5
 10
1780
 20
1850
 11
1780
 21
1919.9999999999989
  0
TEXT
  8
_0-7_枠細線
 62
    5
 10
2750
 20
190
 40
40
 41
1
 50
0
  1
藤戸
  0
TEXT
  8
_0-7_枠細線
 62
    5
 10
2510
 20
190
 40
40
 41
1
 50
0
  1
大野
  0
TEXT
  8
_0-7_枠細線
 62
    5
 10
2630
 20
190
 40
40
 41
1
 50
0
  1
深川
  0
TEXT
  8
_0-7_枠細線
 62
    5
 10
2620
 20
135
 40
30
 41
0.6666666666666666
 50
0
  1
２０１５年０４月０１日
  0
TEXT
  8
_0-7_枠細線
 62
    5
 10
2509.9999999999991
 20
295
 40
50
 41
0.8
 50
0
  1
株式会社シマブン
  0
TEXT
  8
_0-7_枠細線
 62
    5
 10
1930.9999999999993
 20
140
 40
40.000000000000007
 41
0.5999999999999997
 50
0
  1
表面形状については記号表参照のこと
  0
LINE
  8
_0-0_計極細
  6
CONTINUOUS
 62
    2
 10
572.02174142651279
 20
1528.83196239718
 11
572.0217437074873
 21
1523.3319623971804
  0
LINE
  8
_0-0_計極細
  6
CONTINUOUS
 62
    2
 10
578.92174139630902
 20
1528.83196239718
 11
578.92174370748785
 21
1523.3319623971804
  0
LINE
  8
_0-0_計極細
  6
CONTINUOUS
 62
    2
 10
572.02174371673959
 20
1513.3319623971804
 11
572.02174371673959
 21
1507.8319623971802
  0
LINE
  8
_0-0_計極細
  6
CONTINUOUS
 62
    2
 10
578.92174371686201
 20
1513.3319623971804
 11
578.92174371686201
 21
1507.8319623971802
  0
LINE
  8
_0-0_計極細
  6
CONTINUOUS
 62
    2
 10
572.02174371673959
 20
1492.3319623971806
 11
572.02174371673959
 21
1497.8319623971802
  0
LINE
  8
_0-0_計極細
  6
CONTINUOUS
 62
    2
 10
578.92174371686201
 20
1492.3319623971806
 11
578.92174371686201
 21
1497.8319623971802
  0
LINE
  8
_0-0_計極細
  6
CONTINUOUS
 62
    2
 10
572.02174371673959
 20
1476.8319623971811
 11
572.02174371673959
 21
1482.3319623971806
  0
LINE
  8
_0-0_計極細
  6
CONTINUOUS
 62
    2
 10
578.92174371686201
 20
1476.8319623971811
 11
578.92174371686201
 21
1482.3319623971806
  0
LINE
  8
_0-0_計極細
  6
CONTINUOUS
 62
    2
 10
572.02174142651279
 20
1430.3319623971797
 11
572.0217437074873
 21
1435.8319623971793
  0
LINE
  8
_0-0_計極細
  6
CONTINUOUS
 62
    2
 10
578.92174139630902
 20
1430.3319623971797
 11
578.92174370748785
 21
1435.8319623971793
  0
LINE
  8
_0-0_計極細
  6
CONTINUOUS
 62
    2
 10
572.02174371673959
 20
1445.8319623971793
 11
572.02174371673959
 21
1451.3319623971793
  0
LINE
  8
_0-0_計極細
  6
CONTINUOUS
 62
    2
 10
578.92174371686201
 20
1445.8319623971793
 11
578.92174371686201
 21
1451.3319623971793
  0
LINE
  8
_0-0_計極細
  6
CONTINUOUS
 62
    2
 10
572.02174371673959
 20
1466.8319623971788
 11
572.02174371673959
 21
1461.3319623971793
  0
LINE
  8
_0-0_計極細
  6
CONTINUOUS
 62
    2
 10
578.92174371686201
 20
1466.8319623971788
 11
578.92174371686201
 21
1461.3319623971793
  0
ARC
  8
_0-1_計細線
  6
CONTINUOUS
 62
    3
 10
2305.0875024426859
 20
1493.7817672851847
 40
0.501740082747087
 50
330.00000000003996
 51
20.189990999990084
  0
ARC
  8
_0-1_計細線
  6
CONTINUOUS
 62
    3
 10
2305.0875024426859
 20
1465.3821575091756
 40
0.501740082747087
 50
339.81000900000919
 51
29.999999999959307
  0
LINE
  8
_0-1_計細線
  6
CONTINUOUS
 62
    3
 10
2267.7763089164846
 20
1481.8398018008995
 11
2266.4727408210692
 21
1484.0976412046186
  0
LINE
  8
_0-1_計細線
  6
CONTINUOUS
 62
    3
 10
2267.7763089164846
 20
1481.8398018008995
 11
2247.6364175607378
 21
1516.7231135222059
  0
LINE
  8
_0-1_計細線
  6
CONTINUOUS
 62
    3
 10
2267.7763089164846
 20
1481.8398018008995
 11
2270.3834390864113
 21
1481.8398018008995
  0
LINE
  8
_0-1_計細線
  6
CONTINUOUS
 62
    3
 10
2263.8656166720484
 20
1479.5819623971793
 11
2243.7257253162979
 21
1514.4652741184882
  0
ARC
  8
_0-1_計細線
  6
CONTINUOUS
 62
    3
 10
2234.8679684574936
 20
1453.2405026871195
 40
0.501740082747087
 50
219.81000899998574
 51
269.99999999999977
  0
LINE
  8
_0-1_計細線
  6
CONTINUOUS
 62
    3
 10
2267.7763089164846
 20
1477.3241229934602
 11
2247.6364175607378
 21
1442.440811272153
  0
LINE
  8
_0-1_計細線
  6
CONTINUOUS
 62
    3
 10
2263.8656166720484
 20
1479.5819623971793
 11
2243.7257253162979
 21
1444.6986506758722
  0
ARC
  8
_0-1_計細線
  6
CONTINUOUS
 62
    3
 10
2266.4727408210692
 20
1479.5819623971793
 40
46.4111412917104
 50
89.999999999999915
 51
269.99999999999977
  0
ARC
  8
_0-1_計細線
  6
CONTINUOUS
 62
    3
 10
2266.4727408210692
 20
1479.5819623971793
 40
57.198598227560836
 50
89.999999999999915
 51
269.99999999999977
  0
CIRCLE
  8
_0-1_計細線
  6
CONTINUOUS
 62
    3
 10
2266.4727408210692
 20
1479.5819623971793
 40
58.202084413960065
  0
LINE
  8
_0-1_計細線
  6
CONTINUOUS
 62
    3
 10
2267.7763089164846
 20
1481.8398018008995
 11
2308.0560856070751
 21
1481.8398018008995
  0
LINE
  8
_0-1_計細線
  6
CONTINUOUS
 62
    3
 10
2267.7763089164846
 20
1477.3241229934602
 11
2308.0560856070751
 21
1477.3241229934602
  0
ARC
  8
_0-1_計細線
  6
CONTINUOUS
 62
    3
 10
2266.4727408210692
 20
1479.5819623971793
 40
46.4111412917104
 50
269.99999999999977
 51
89.999999999999545
  0
ARC
  8
_0-1_計細線
  6
CONTINUOUS
 62
    3
 10
2266.4727408210692
 20
1479.5819623971793
 40
57.198598227560836
 50
269.99999999999977
 51
89.999999999999545
  0
ARC
  8
_0-1_計細線
  6
CONTINUOUS
 62
    3
 10
2266.4727408210692
 20
1479.5819623971793
 40
41.644595453350377
 50
89.999999999999915
 51
116.89207624474167
  0
ARC
  8
_0-1_計細線
  6
CONTINUOUS
 62
    3
 10
2266.4727408210692
 20
1479.5819623971793
 40
41.644595453350377
 50
123.10791868694014
 51
236.89208131305782
  0
ARC
  8
_0-1_計細線
  6
CONTINUOUS
 62
    3
 10
2266.4727408210692
 20
1479.5819623971793
 40
41.644595453350377
 50
243.10792375525659
 51
269.99999999999977
  0
ARC
  8
_0-1_計細線
  6
CONTINUOUS
 62
    3
 10
2266.4727408210692
 20
1479.5819623971793
 40
41.644595453350377
 50
269.99999999999977
 51
356.8920785890931
  0
ARC
  8
_0-1_計細線
  6
CONTINUOUS
 62
    3
 10
2266.4727408210692
 20
1479.5819623971793
 40
41.644595453350377
 50
3.1079214109077964
 51
89.999999999999915
  0
ARC
  8
_0-0_計極細
  6
CONTINUOUS
 62
    2
 10
2266.4727408210692
 20
1479.5819623971793
 40
50.153133796808191
 50
269.99999999999977
 51
89.999999999999545
  0
ARC
  8
_0-0_計極細
  6
CONTINUOUS
 62
    2
 10
2266.4727408210692
 20
1479.5819623971793
 40
50.153133796808191
 50
89.999999999999915
 51
269.99999999999977
  0
ARC
  8
_0-0_計極細
  6
CONTINUOUS
 62
    2
 10
2252.8577397765621
 20
1450.480920167588
 40
0.501740082747087
 50
149.99997568607938
 51
210.00002243784951
  0
ARC
  8
_0-0_計極細
  6
CONTINUOUS
 62
    2
 10
2266.7624246270179
 20
1473.5610573205931
 40
1.0034861863992508
 50
29.999999999951111
 51
149.99999999997101
  0
ARC
  8
_0-0_計極細
  6
CONTINUOUS
 62
    2
 10
2266.7624246270179
 20
1473.5610573205931
 40
1.0034861863992508
 50
29.999999999951111
 51
106.77865499997519
  0
ARC
  8
_0-0_計極細
  6
CONTINUOUS
 62
    2
 10
2261.1136476095971
 20
1476.8223829107128
 40
1.0034861863992508
 50
329.99999999995163
 51
89.999999999999545
  0
ARC
  8
_0-0_計極細
  6
CONTINUOUS
 62
    2
 10
2225.9775245210312
 20
1486.8607231962724
 40
0.501740082747087
 50
89.993779916795503
 51
169.8086801233749
  0
ARC
  8
_0-0_計極細
  6
CONTINUOUS
 62
    2
 10
2225.9759588155985
 20
1472.3101998635182
 40
0.501740082747087
 50
190.17882981053808
 51
269.99383436904543
  0
ARC
  8
_0-0_計極細
  6
CONTINUOUS
 62
    2
 10
2225.9242265249923
 20
1482.3450487938135
 40
1.0034861863992508
 50
176.10042624738318
 51
269.99385985774035
  0
ARC
  8
_0-0_計極細
  6
CONTINUOUS
 62
    2
 10
2266.4727408210692
 20
1479.5819623971793
 40
37.630656728658437
 50
317.45760300000074
 51
327.38710799999916
  0
ARC
  8
_0-0_計極細
  6
CONTINUOUS
 62
    2
 10
2266.4727408210692
 20
1479.5819623971793
 40
37.630656728658437
 50
32.612892000001082
 51
42.54239699999939
  0
LINE
  8
_0-0_計極細
  6
CONTINUOUS
 62
    2
 10
2301.6469585920568
 20
1460.3030243419539
 11
2292.6888693710562
 21
1475.8188967243154
  0
LINE
  8
_0-0_計極細
  6
CONTINUOUS
 62
    2
 10
2300.2401319745777
 20
1455.7153294888931
 11
2287.9091317296725
 21
1477.0732499416338
  0
LINE
  8
_0-0_計極細
  6
CONTINUOUS
 62
    2
 10
2295.6181962343462
 20
1451.6789448300756
 11
2281.6809931212574
 21
1475.8188967243154
  0
LINE
  8
_0-0_計極細
  6
CONTINUOUS
 62
    2
 10
2301.6469585920568
 20
1498.860900452406
 11
2292.6888693710562
 21
1483.3450280700456
  0
LINE
  8
_0-0_計極細
  6
CONTINUOUS
 62
    2
 10
2300.2401319745777
 20
1503.4485953054664
 11
2287.9091317296725
 21
1482.0906748527254
  0
LINE
  8
_0-0_計極細
  6
CONTINUOUS
 62
    2
 10
2295.6181962343462
 20
1507.4849739433798
 11
2281.6809931212574
 21
1483.3450280700456
  0
LINE
  8
_0-0_計極細
  6
CONTINUOUS
 62
    2
 10
2264.4657744691758
 20
1452.5623260020079
 11
2264.4657744691758
 21
1460.4797379059519
  0
LINE
  8
_0-0_計極細
  6
CONTINUOUS
 62
    2
 10
2264.9675145519232
 20
1452.5297348428282
 11
2264.9675145519232
 21
1459.610698529913
  0
ARC
  8
_0-0_計極細
  6
CONTINUOUS
 62
    2
 10
2266.4727408210692
 20
1479.5819623971793
 40
37.630656728658437
 50
213.59599499999973
 51
225.50677599999941
  0
LINE
  8
_0-0_計極細
  6
CONTINUOUS
 62
    2
 10
2293.4550777092918
 20
1448.4011942109098
 11
2276.9012554798737
 21
1477.0732499416338
  0
LINE
  8
_0-0_計極細
  6
CONTINUOUS
 62
    2
 10
2288.2672250591031
 20
1445.3450068776538
 11
2270.6731168714578
 21
1475.8188967243154
  0
LINE
  8
_0-0_計極細
  6
CONTINUOUS
 62
    2
 10
2270.2581560935796
 20
1438.40522739371
 11
2257.9271558486744
 21
1459.7631478464509
  0
LINE
  8
_0-0_計極細
  6
CONTINUOUS
 62
    2
 10
2276.0647350121526
 20
1440.3897478114777
 11
2262.1275318990629
 21
1464.5296997057167
  0
LINE
  8
_0-0_計極細
  6
CONTINUOUS
 62
    2
 10
2279.9849162029932
 20
1440.6241898133519
 11
2263.4310939735751
 21
1469.296251564982
  0
LINE
  8
_0-0_計極細
  6
CONTINUOUS
 62
    2
 10
2285.225572190704
 20
1443.5889135775869
 11
2267.6314700239636
 21
1474.0627974033418
  0
LINE
  8
_0-0_計極細
  6
CONTINUOUS
 62
    2
 10
2234.8679684574936
 20
1452.7387626043724
 11
2248.0780027808651
 21
1452.7387626043724
  0
ARC
  8
_0-0_計極細
  6
CONTINUOUS
 62
    2
 10
2244.6018332348976
 20
1448.2230837969328
 40
1.0034861863992508
 50
329.99999999997061
 51
89.999999999999545
  0
ARC
  8
_0-0_計極細
  6
CONTINUOUS
 62
    2
 10
2266.4727408210692
 20
1479.5819623971793
 40
37.630656728658437
 50
233.77152299999938
 51
236.31964599999873
  0
ARC
  8
_0-0_計極細
  6
CONTINUOUS
 62
    2
 10
2240.6208529445958
 20
1448.2230837969328
 40
1.0034861863992508
 50
89.999999999999915
 51
230.49822999997428
  0
LINE
  8
_0-0_計極細
  6
CONTINUOUS
 62
    2
 10
2240.6208529445958
 20
1449.226563962427
 11
2244.6018332348976
 21
1449.226563962427
  0
ARC
  8
_0-0_計極細
  6
CONTINUOUS
 62
    2
 10
2266.4727408210692
 20
1479.5819623971793
 40
37.630656728658437
 50
272.61289199999942
 51
282.54239699999982
  0
ARC
  8
_0-0_計極細
  6
CONTINUOUS
 62
    2
 10
2270.6926787920511
 20
1438.6561004455357
 40
0.501740082747087
 50
210.00000000000426
 51
275.88706199997517
  0
LINE
  8
_0-0_計極細
  6
CONTINUOUS
 62
    2
 10
2265.5816829951646
 20
1439.4807236048266
 11
2256.623593774164
 21
1454.9966020080919
  0
LINE
  8
_0-0_計極細
  6
CONTINUOUS
 62
    2
 10
2259.0282348854598
 20
1438.7898247472895
 11
2252.4232177237755
 21
1450.2300501488273
  0
ARC
  8
_0-0_計極細
  6
CONTINUOUS
 62
    2
 10
2266.4727408210692
 20
1479.5819623971793
 40
37.630656728658437
 50
254.49322399999932
 51
266.40400499999907
  0
ARC
  8
_0-0_計極細
  6
CONTINUOUS
 62
    2
 10
2248.0780027808651
 20
1453.2405026871195
 40
0.501740082747087
 50
269.99999999999977
 51
329.99999999989114
  0
ARC
  8
_0-0_計極細
  6
CONTINUOUS
 62
    2
 10
2252.2411034079232
 20
1441.514127750911
 40
1.0034861863992508
 50
249.50177000005806
 51
29.999999999976708
  0
LINE
  8
_0-0_計極細
  6
CONTINUOUS
 62
    2
 10
2253.110142783964
 20
1442.0158678336586
 11
2251.119655649265
 21
1445.46349828956
  0
ARC
  8
_0-0_計極細
  6
CONTINUOUS
 62
    2
 10
2255.7545483772192
 20
1454.4948559044406
 40
1.0034861863992508
 50
29.999999999977071
 51
149.99999999999699
  0
ARC
  8
_0-0_計極細
  6
CONTINUOUS
 62
    2
 10
2266.4727408210692
 20
1479.5819623971793
 40
27.094072844634091
 50
244.78019200000111
 51
249.77896100000117
  0
ARC
  8
_0-0_計極細
  6
CONTINUOUS
 62
    2
 10
2266.4727408210692
 20
1479.5819623971793
 40
37.630656728658437
 50
243.68035399999945
 51
246.22847699999838
  0
ARC
  8
_0-0_計極細
  6
CONTINUOUS
 62
    2
 10
2250.2506102523203
 20
1444.9617582068149
 40
1.0034861863992508
 50
29.999999999977071
 51
150.00000000002294
  0
ARC
  8
_0-0_計極細
  6
CONTINUOUS
 62
    2
 10
2264.7126436191265
 20
1438.9789835220811
 40
1.0034861863992508
 50
267.5178359999677
 51
30.000000000002665
  0
ARC
  8
_0-0_計極細
  6
CONTINUOUS
 62
    2
 10
2259.4627575839313
 20
1439.0406977991152
 40
0.501740082747087
 50
210.00000000010814
 51
260.18999100005101
  0
ARC
  8
_0-0_計極細
  6
CONTINUOUS
 62
    2
 10
2266.4727408210692
 20
1479.5819623971793
 40
27.094072844634091
 50
260.29098299999907
 51
275.37568199999987
  0
ARC
  8
_0-0_計極細
  6
CONTINUOUS
 62
    2
 10
2266.4727408210692
 20
1479.5819623971793
 40
37.630656728658437
 50
288.07291800000053
 51
297.3252259999997
  0
ARC
  8
_0-0_計極細
  6
CONTINUOUS
 62
    2
 10
2266.4727408210692
 20
1479.5819623971793
 40
27.094072844634091
 50
283.31934900000118
 51
296.2837799999993
  0
ARC
  8
_0-0_計極細
  6
CONTINUOUS
 62
    2
 10
2280.4194328805588
 20
1440.8750628651778
 40
0.501740082747087
 50
210.00000000010814
 51
289.81487200010849
  0
ARC
  8
_0-0_計極細
  6
CONTINUOUS
 62
    2
 10
2275.1956896152087
 20
1439.8880077287313
 40
1.0034861863992508
 50
282.39403400005705
 51
30.000000000002665
  0
ARC
  8
_0-0_計極細
  6
CONTINUOUS
 62
    2
 10
2266.4727408210692
 20
1479.5819623971793
 40
37.630656728658437
 50
302.67477399999865
 51
311.92708199999919
  0
ARC
  8
_0-0_計極細
  6
CONTINUOUS
 62
    2
 10
2289.1362644351411
 20
1445.8467529813065
 40
1.0034861863992508
 50
210.00000000002515
 51
303.89345000001418
  0
ARC
  8
_0-0_計極細
  6
CONTINUOUS
 62
    2
 10
2293.0205550108194
 20
1448.1503211590839
 40
0.501740082747087
 50
310.18512800003361
 51
29.999999999907399
  0
ARC
  8
_0-0_計極細
  6
CONTINUOUS
 62
    2
 10
2284.3565328146651
 20
1443.0871674739342
 40
1.0034861863992508
 50
296.10655000002453
 51
29.999999999999204
  0
LINE
  8
_0-0_計極細
  6
CONTINUOUS
 62
    2
 10
2232.1895808759864
 20
1458.7596676809583
 11
2250.1057713597966
 21
1458.7596676809583
  0
ARC
  8
_0-0_計極細
  6
CONTINUOUS
 62
    2
 10
2244.6018332348976
 20
1510.9408409974276
 40
1.0034861863992508
 50
269.99999999999977
 51
30.000000000051159
  0
LINE
  8
_0-0_計極細
  6
CONTINUOUS
 62
    2
 10
2234.8679684574936
 20
1506.425162189988
 11
2248.0780027808651
 21
1506.425162189988
  0
LINE
  8
_0-0_計極細
  6
CONTINUOUS
 62
    2
 10
2232.1895808759864
 20
1500.4042571134014
 11
2250.1057713597966
 21
1500.4042571134014
  0
LINE
  8
_0-0_計極細
  6
CONTINUOUS
 62
    2
 10
2228.9199404159572
 20
1496.8920644923628
 11
2253.581940905764
 21
1496.8920644923628
  0
LINE
  8
_0-0_計極細
  6
CONTINUOUS
 62
    2
 10
2227.7352972376129
 20
1490.8711594157776
 11
2255.6097094846973
 21
1490.8711594157776
  0
LINE
  8
_0-0_計極細
  6
CONTINUOUS
 62
    2
 10
2225.9782405927326
 20
1487.3589667947372
 11
2259.0858790306629
 21
1487.3589667947372
  0
LINE
  8
_0-0_計極細
  6
CONTINUOUS
 62
    2
 10
2225.9254312343055
 20
1481.3380617181519
 11
2261.1136476095971
 21
1481.3380617181519
  0
LINE
  8
_0-0_計極細
  6
CONTINUOUS
 62
    2
 10
2228.9199404159572
 20
1462.2718603019975
 11
2253.581940905764
 21
1462.2718603019975
  0
LINE
  8
_0-0_計極細
  6
CONTINUOUS
 62
    2
 10
2227.7352972376129
 20
1468.2927653785832
 11
2255.6097094846973
 21
1468.2927653785832
  0
LINE
  8
_0-0_計極細
  6
CONTINUOUS
 62
    2
 10
2225.9782405927326
 20
1471.8049579996232
 11
2259.0858790306629
 21
1471.8049579996232
  0
LINE
  8
_0-0_計極細
  6
CONTINUOUS
 62
    2
 10
2225.9254312343055
 20
1477.825863076207
 11
2261.1136476095971
 21
1477.825863076207
  0
ARC
  8
_0-0_計極細
  6
CONTINUOUS
 62
    2
 10
2266.4727408210692
 20
1479.5819623971793
 40
27.094072844634091
 50
140.2909829999995
 51
155.37568200000004
  0
ARC
  8
_0-0_計極細
  6
CONTINUOUS
 62
    2
 10
2266.4727408210692
 20
1479.5819623971793
 40
37.630656728658437
 50
152.61289200000007
 51
162.54239699999968
  0
ARC
  8
_0-0_計極細
  6
CONTINUOUS
 62
    2
 10
2227.7352972376129
 20
1491.8746456021781
 40
1.0034861863992508
 50
162.39403400002107
 51
269.99999999999977
  0
ARC
  8
_0-0_計極細
  6
CONTINUOUS
 62
    2
 10
2232.1895808759864
 20
1457.7561814945577
 40
1.0034861863992508
 50
89.999999999999915
 51
212.4821639999854
  0
ARC
  8
_0-0_計極細
  6
CONTINUOUS
 62
    2
 10
2266.4727408210692
 20
1479.5819623971793
 40
37.630656728658437
 50
168.07291799999925
 51
177.32522600000016
  0
ARC
  8
_0-0_計極細
  6
CONTINUOUS
 62
    2
 10
2266.4727408210692
 20
1479.5819623971793
 40
37.630656728658437
 50
182.67477399999882
 51
191.9270819999997
  0
ARC
  8
_0-0_計極細
  6
CONTINUOUS
 62
    2
 10
2266.4727408210692
 20
1479.5819623971793
 40
37.630656728658437
 50
197.4576029999993
 51
207.38710799999896
  0
ARC
  8
_0-0_計極細
  6
CONTINUOUS
 62
    2
 10
2225.9254312343055
 20
1476.8223829107137
 40
1.0034861863992508
 50
89.999999999999915
 51
183.89344999999844
  0
ARC
  8
_0-0_計極細
  6
CONTINUOUS
 62
    2
 10
2227.7352972376129
 20
1467.2892791921843
 40
1.0034861863992508
 50
89.999999999999915
 51
197.60596600000332
  0
ARC
  8
_0-0_計極細
  6
CONTINUOUS
 62
    2
 10
2228.9199404159572
 20
1462.7736003847438
 40
0.501740082747087
 50
204.11293800002809
 51
269.99999999999977
  0
ARC
  8
_0-0_計極細
  6
CONTINUOUS
 62
    2
 10
2266.4727408210692
 20
1479.5819623971793
 40
27.094072844634091
 50
163.31934899999951
 51
176.28377999999955
  0
ARC
  8
_0-0_計極細
  6
CONTINUOUS
 62
    2
 10
2266.4727408210692
 20
1479.5819623971793
 40
27.094072844634091
 50
183.71621999999911
 51
196.68065099999922
  0
ARC
  8
_0-0_計極細
  6
CONTINUOUS
 62
    2
 10
2266.4727408210692
 20
1479.5819623971793
 40
27.094072844634091
 50
204.62431799999874
 51
219.70901699999865
  0
ARC
  8
_0-0_計極細
  6
CONTINUOUS
 62
    2
 10
2228.9199404159572
 20
1496.3903244096171
 40
0.501740082747087
 50
89.999999999999915
 51
155.88706199997156
  0
ARC
  8
_0-0_計極細
  6
CONTINUOUS
 62
    2
 10
2232.1895808759864
 20
1501.4077432998024
 40
1.0034861863992508
 50
147.5178360000142
 51
269.99999999999977
  0
ARC
  8
_0-0_計極細
  6
CONTINUOUS
 62
    2
 10
2266.4727408210692
 20
1479.5819623971793
 40
37.630656728658437
 50
123.68035400000058
 51
126.22847700000025
  0
ARC
  8
_0-0_計極細
  6
CONTINUOUS
 62
    2
 10
2266.4727408210692
 20
1479.5819623971793
 40
37.630656728658437
 50
134.49322399999971
 51
146.40400499999933
  0
ARC
  8
_0-0_計極細
  6
CONTINUOUS
 62
    2
 10
2234.8679684574936
 20
1505.9234221072415
 40
0.501740082747087
 50
89.999999999999915
 51
140.18999100005377
  0
ARC
  8
_0-0_計極細
  6
CONTINUOUS
 62
    2
 10
2240.6208529445958
 20
1510.9408409974276
 40
1.0034861863992508
 50
129.50177000002535
 51
269.99999999999977
  0
LINE
  8
_0-0_計極細
  6
CONTINUOUS
 62
    2
 10
2240.6208529445958
 20
1509.9373608319333
 11
2244.6018332348976
 21
1509.9373608319333
  0
ARC
  8
_0-0_計極細
  6
CONTINUOUS
 62
    2
 10
2266.4727408210692
 20
1479.5819623971793
 40
37.630656728658437
 50
77.457603000000148
 51
87.387108000000282
  0
ARC
  8
_0-0_計極細
  6
CONTINUOUS
 62
    2
 10
2266.4727408210692
 20
1479.5819623971793
 40
37.630656728658437
 50
77.457603000000148
 51
87.387108000000282
  0
ARC
  8
_0-0_計極細
  6
CONTINUOUS
 62
    2
 10
2271.5421622684025
 20
1476.3206368070619
 40
1.0034861863992508
 50
89.999999999999915
 51
209.9999999999992
  0
ARC
  8
_0-0_計極細
  6
CONTINUOUS
 62
    2
 10
2271.5421622684025
 20
1482.8432879873001
 40
1.0034861863992508
 50
150.00000000000043
 51
269.99999999999977
  0
ARC
  8
_0-0_計極細
  6
CONTINUOUS
 62
    2
 10
2270.6926787920511
 20
1520.5078243488219
 40
0.501740082747087
 50
84.112938000024442
 51
150.00000000004033
  0
LINE
  8
_0-0_計極細
  6
CONTINUOUS
 62
    2
 10
2276.0647350121526
 20
1518.7741709619754
 11
2262.1275318990629
 21
1494.6342250886437
  0
LINE
  8
_0-0_計極細
  6
CONTINUOUS
 62
    2
 10
2279.9849162029932
 20
1518.5397289601042
 11
2263.4310939735751
 21
1489.8676732293784
  0
LINE
  8
_0-0_計極細
  6
CONTINUOUS
 62
    2
 10
2285.225572190704
 20
1515.5750112167734
 11
2267.6314700239636
 21
1485.1011273910185
  0
LINE
  8
_0-0_計極細
  6
CONTINUOUS
 62
    2
 10
2264.4657744691758
 20
1487.5738107505849
 11
2264.4657744691758
 21
1491.6597956254236
  0
LINE
  8
_0-0_計極細
  6
CONTINUOUS
 62
    2
 10
2264.9675145519232
 20
1486.704771374546
 11
2264.9675145519232
 21
1492.5288410223666
  0
ARC
  8
_0-0_計極細
  6
CONTINUOUS
 62
    2
 10
2255.6097094846973
 20
1491.8746456021781
 40
1.0034861863992508
 50
269.99999999999977
 51
29.999999999999204
  0
LINE
  8
_0-0_計極細
  6
CONTINUOUS
 62
    2
 10
2267.9779670902162
 20
1485.7012851881482
 11
2267.9779670902162
 21
1497.7430953413179
  0
LINE
  8
_0-0_計極細
  6
CONTINUOUS
 62
    2
 10
2268.4797131938676
 20
1486.5703305850909
 11
2268.4797131938676
 21
1498.612140738263
  0
ARC
  8
_0-0_計極細
  6
CONTINUOUS
 62
    2
 10
2255.6097094846973
 20
1467.2892791921843
 40
1.0034861863992508
 50
329.9999999999776
 51
89.999999999999545
  0
ARC
  8
_0-0_計極細
  6
CONTINUOUS
 62
    2
 10
2253.581940905764
 20
1462.7736003847438
 40
0.501740082747087
 50
269.99999999999977
 51
329.999999999995
  0
ARC
  8
_0-0_計極細
  6
CONTINUOUS
 62
    2
 10
2266.4727408210692
 20
1479.5819623971793
 40
27.094072844634091
 50
230.22103899999877
 51
235.21980799999864
  0
ARC
  8
_0-0_計極細
  6
CONTINUOUS
 62
    2
 10
2250.1057713597966
 20
1457.7561814945577
 40
1.0034861863992508
 50
330.00000000000011
 51
89.999999999999545
  0
ARC
  8
_0-0_計極細
  6
CONTINUOUS
 62
    2
 10
2258.3616785471468
 20
1460.014020898278
 40
0.501740082747087
 50
149.9999999999884
 51
210.00000000005619
  0
LINE
  8
_0-0_計極細
  6
CONTINUOUS
 62
    2
 10
2264.4657744691758
 20
1467.5041291689367
 11
2264.4657744691758
 21
1471.5901140437754
  0
LINE
  8
_0-0_計極細
  6
CONTINUOUS
 62
    2
 10
2264.9675145519232
 20
1466.635083771992
 11
2264.9675145519232
 21
1472.4591534198139
  0
ARC
  8
_0-0_計極細
  6
CONTINUOUS
 62
    2
 10
2259.0858790306629
 20
1472.3067041032746
 40
0.501740082747087
 50
269.99999999999977
 51
330.00000000003996
  0
ARC
  8
_0-0_計極細
  6
CONTINUOUS
 62
    2
 10
2263.8656166720484
 20
1469.5471185959022
 40
0.501740082747087
 50
150.00000000009922
 51
209.99999999985545
  0
ARC
  8
_0-0_計極細
  6
CONTINUOUS
 62
    2
 10
2261.2584865021181
 20
1464.0279596229695
 40
1.0034861863992508
 50
29.999999999999559
 51
150.00000000000043
  0
ARC
  8
_0-0_計極細
  6
CONTINUOUS
 62
    2
 10
2263.8656166720484
 20
1489.6168061984574
 40
0.501740082747087
 50
150.00000000009922
 51
209.99999999985545
  0
ARC
  8
_0-0_計極細
  6
CONTINUOUS
 62
    2
 10
2266.7624246270179
 20
1485.6028674737659
 40
1.0034861863992508
 50
210.00000000005113
 51
330.00000000002603
  0
ARC
  8
_0-0_計極細
  6
CONTINUOUS
 62
    2
 10
2259.0858790306629
 20
1486.8572206910844
 40
0.501740082747087
 50
29.99999999995967
 51
89.999999999999901
  0
ARC
  8
_0-0_計極細
  6
CONTINUOUS
 62
    2
 10
2261.1136476095971
 20
1482.3415418836466
 40
1.0034861863992508
 50
269.99999999999977
 51
30.000000000002665
  0
LINE
  8
_0-0_計極細
  6
CONTINUOUS
 62
    2
 10
2267.9779670902162
 20
1461.4208294530417
 11
2267.9779670902162
 21
1473.4626396062138
  0
LINE
  8
_0-0_計極細
  6
CONTINUOUS
 62
    2
 10
2268.4797131938676
 20
1460.551784056099
 11
2268.4797131938676
 21
1472.5935942092688
  0
ARC
  8
_0-0_計極細
  6
CONTINUOUS
 62
    2
 10
2266.7624246270179
 20
1485.6028674737659
 40
1.0034861863992508
 50
253.22134500003193
 51
330.00000000002603
  0
LINE
  8
_0-0_計極細
  6
CONTINUOUS
 62
    2
 10
2265.5816829951646
 20
1519.6831951686293
 11
2256.623593774164
 21
1504.167322786268
  0
ARC
  8
_0-0_計極細
  6
CONTINUOUS
 62
    2
 10
2266.4727408210692
 20
1479.5819623971793
 40
37.630656728658437
 50
93.595995000000485
 51
105.50677600000017
  0
LINE
  8
_0-0_計極細
  6
CONTINUOUS
 62
    2
 10
2259.0282348854598
 20
1520.3741000470732
 11
2252.4232177237755
 21
1508.9338746455328
  0
LINE
  8
_0-0_計極細
  6
CONTINUOUS
 62
    2
 10
2270.2581560935796
 20
1520.7586974006492
 11
2257.9271558486744
 21
1499.4007769479076
  0
ARC
  8
_0-0_計極細
  6
CONTINUOUS
 62
    2
 10
2258.3616785471468
 20
1499.1499038960824
 40
0.501740082747087
 50
149.9999999999884
 51
210.00000000001123
  0
ARC
  8
_0-0_計極細
  6
CONTINUOUS
 62
    2
 10
2266.4727408210692
 20
1479.5819623971793
 40
27.094072844634091
 50
110.2210389999981
 51
115.21980799999808
  0
ARC
  8
_0-0_計極細
  6
CONTINUOUS
 62
    2
 10
2255.7545483772192
 20
1504.6690688899212
 40
1.0034861863992508
 50
210.00000000000267
 51
330.00000000002257
  0
ARC
  8
_0-0_計極細
  6
CONTINUOUS
 62
    2
 10
2252.8577404222469
 20
1508.6830015937066
 40
0.501740082747087
 50
149.99999999999537
 51
209.9999999999593
  0
ARC
  8
_0-0_計極細
  6
CONTINUOUS
 62
    2
 10
2266.4727408210692
 20
1479.5819623971793
 40
37.630656728658437
 50
113.77152300000098
 51
116.31964599999986
  0
ARC
  8
_0-0_計極細
  6
CONTINUOUS
 62
    2
 10
2252.2411034079232
 20
1517.6497970434493
 40
1.0034861863992508
 50
330.00000000002257
 51
110.49822999994124
  0
ARC
  8
_0-0_計極細
  6
CONTINUOUS
 62
    2
 10
2250.2506102523203
 20
1514.2021665875448
 40
1.0034861863992508
 50
209.9999999999992
 51
330.00000000000011
  0
LINE
  8
_0-0_計極細
  6
CONTINUOUS
 62
    2
 10
2253.110142783964
 20
1517.1480569607022
 11
2251.119655649265
 21
1513.7004265047999
  0
ARC
  8
_0-0_計極細
  6
CONTINUOUS
 62
    2
 10
2266.4727408210692
 20
1479.5819623971793
 40
27.094072844634091
 50
124.78019199999984
 51
129.77896100000024
  0
ARC
  8
_0-0_計極細
  6
CONTINUOUS
 62
    2
 10
2248.0780027808651
 20
1505.9234221072415
 40
0.501740082747087
 50
30.000000000063526
 51
89.999999999999915
  0
ARC
  8
_0-0_計極細
  6
CONTINUOUS
 62
    2
 10
2250.1057713597966
 20
1501.4077432998024
 40
1.0034861863992508
 50
269.99999999999977
 51
29.999999999999204
  0
ARC
  8
_0-0_計極細
  6
CONTINUOUS
 62
    2
 10
2253.581940905764
 20
1496.3903244096171
 40
0.501740082747087
 50
29.99999999995967
 51
89.999999999999901
  0
LINE
  8
_0-0_計極細
  6
CONTINUOUS
 62
    2
 10
2264.9675145519232
 20
1499.5532262644474
 11
2264.9675145519232
 21
1506.6341899515326
  0
LINE
  8
_0-0_計極細
  6
CONTINUOUS
 62
    2
 10
2264.4657744691758
 20
1498.6841868884089
 11
2264.4657744691758
 21
1506.6015987923524
  0
ARC
  8
_0-0_計極細
  6
CONTINUOUS
 62
    2
 10
2264.7126436191265
 20
1520.1849412722827
 40
1.0034861863992508
 50
329.99999999997414
 51
92.482164000031602
  0
ARC
  8
_0-0_計極細
  6
CONTINUOUS
 62
    2
 10
2266.4727408210692
 20
1479.5819623971793
 40
27.094072844634091
 50
84.624317999999832
 51
99.709017000000401
  0
ARC
  8
_0-0_計極細
  6
CONTINUOUS
 62
    2
 10
2259.4627575839313
 20
1520.1232269952479
 40
0.501740082747087
 50
99.810008999948636
 51
149.99999999993648
  0
ARC
  8
_0-0_計極細
  6
CONTINUOUS
 62
    2
 10
2261.2584865021181
 20
1495.1359651713897
 40
1.0034861863992508
 50
209.9999999999992
 51
330.00000000000011
  0
ARC
  8
_0-0_計極細
  6
CONTINUOUS
 62
    2
 10
2266.4727408210692
 20
1479.5819623971793
 40
27.094072844634091
 50
84.624317999999832
 51
89.999999999999915
  0
ARC
  8
_0-0_計極細
  6
CONTINUOUS
 62
    2
 10
2266.4727408210692
 20
1479.5819623971793
 40
27.094072844634091
 50
20.290983000001571
 51
35.37568200000068
  0
LINE
  8
_0-0_計極細
  6
CONTINUOUS
 62
    2
 10
2293.4550777092918
 20
1510.7627305834521
 11
2276.9012554798737
 21
1482.0906748527254
  0
LINE
  8
_0-0_計極細
  6
CONTINUOUS
 62
    2
 10
2288.2672250591031
 20
1513.8189179167061
 11
2270.6731168714578
 21
1483.3450280700456
  0
ARC
  8
_0-0_計極細
  6
CONTINUOUS
 62
    2
 10
2266.4727408210692
 20
1479.5819623971793
 40
27.094072844634091
 50
303.71622000000156
 51
316.68065099999922
  0
ARC
  8
_0-0_計極細
  6
CONTINUOUS
 62
    2
 10
2282.5500324972945
 20
1476.3206368070619
 40
1.0034861863992508
 50
89.999999999999915
 51
210.00000000002515
  0
ARC
  8
_0-0_計極細
  6
CONTINUOUS
 62
    2
 10
2276.4667327814022
 20
1476.8223829107137
 40
0.501740082747087
 50
30.0000000001085
 51
89.999999999999915
  0
ARC
  8
_0-0_計極細
  6
CONTINUOUS
 62
    2
 10
2282.5500324972945
 20
1482.8432879873001
 40
1.0034861863992508
 50
149.99999999997448
 51
269.99999999999977
  0
ARC
  8
_0-0_計極細
  6
CONTINUOUS
 62
    2
 10
2276.4667327814022
 20
1482.3415418836466
 40
0.501740082747087
 50
269.99999999999977
 51
329.99999999989114
  0
ARC
  8
_0-0_計極細
  6
CONTINUOUS
 62
    2
 10
2266.4727408210692
 20
1479.5819623971793
 40
27.094072844634091
 50
324.62431799999973
 51
339.7090169999999
  0
ARC
  8
_0-0_計極細
  6
CONTINUOUS
 62
    2
 10
2266.4727408210692
 20
1479.5819623971793
 40
27.094072844634091
 50
350.22103899999934
 51
355.21980800000068
  0
ARC
  8
_0-0_計極細
  6
CONTINUOUS
 62
    2
 10
2266.4727408210692
 20
1479.5819623971793
 40
27.094072844634091
 50
4.7801919999998796
 51
9.778961000001221
  0
ARC
  8
_0-0_計極細
  6
CONTINUOUS
 62
    2
 10
2293.5579087470942
 20
1476.3206368070619
 40
1.0034861863992508
 50
89.999999999999915
 51
210.00000000002515
  0
ARC
  8
_0-0_計極細
  6
CONTINUOUS
 62
    2
 10
2287.474609031201
 20
1476.8223829107137
 40
0.501740082747087
 50
30.000000000056566
 51
89.999999999999915
  0
ARC
  8
_0-0_計極細
  6
CONTINUOUS
 62
    2
 10
2293.5579087470942
 20
1482.8432879873001
 40
1.0034861863992508
 50
149.99999999997448
 51
269.99999999999977
  0
ARC
  8
_0-0_計極細
  6
CONTINUOUS
 62
    2
 10
2287.474609031201
 20
1482.3415418836466
 40
0.501740082747087
 50
269.99999999999977
 51
329.9999999999431
  0
ARC
  8
_0-0_計極細
  6
CONTINUOUS
 62
    2
 10
2266.4727408210692
 20
1479.5819623971793
 40
27.094072844634091
 50
43.319349000001104
 51
56.28377999999919
  0
ARC
  8
_0-0_計極細
  6
CONTINUOUS
 62
    2
 10
2266.4727408210692
 20
1479.5819623971793
 40
37.630656728658437
 50
62.674774000000312
 51
71.927081999999317
  0
ARC
  8
_0-0_計極細
  6
CONTINUOUS
 62
    2
 10
2266.4727408210692
 20
1479.5819623971793
 40
27.094072844634091
 50
63.716220000000746
 51
76.680650999998889
  0
ARC
  8
_0-0_計極細
  6
CONTINUOUS
 62
    2
 10
2280.4194328805588
 20
1518.2888619291821
 40
0.501740082747087
 50
70.185127999891137
 51
149.99999999993648
  0
ARC
  8
_0-0_計極細
  6
CONTINUOUS
 62
    2
 10
2275.1956896152087
 20
1519.2759170656291
 40
1.0034861863992508
 50
329.99999999999665
 51
77.605965999942228
  0
ARC
  8
_0-0_計極細
  6
CONTINUOUS
 62
    2
 10
2266.4727408210692
 20
1479.5819623971793
 40
37.630656728658437
 50
48.072918000001373
 51
57.325226000001372
  0
ARC
  8
_0-0_計極細
  6
CONTINUOUS
 62
    2
 10
2289.1362644351411
 20
1513.3171718130543
 40
1.0034861863992508
 50
56.106549999971008
 51
149.99999999999699
  0
ARC
  8
_0-0_計極細
  6
CONTINUOUS
 62
    2
 10
2293.0205550108194
 20
1511.0135976143724
 40
0.501740082747087
 50
330.00000000009186
 51
49.814871999965682
  0
ARC
  8
_0-0_計極細
  6
CONTINUOUS
 62
    2
 10
2284.3565328146651
 20
1516.0767573204248
 40
1.0034861863992508
 50
330.00000000000011
 51
63.893449999974756
  0
ARC
  8
_0-0_計極細
  6
CONTINUOUS
 62
    2
 10
2296.4872416312892
 20
1452.1806909337283
 40
1.0034861863992508
 50
210.00000000002515
 51
317.6059660000256
  0
ARC
  8
_0-0_計極細
  6
CONTINUOUS
 62
    2
 10
2299.8056152970094
 20
1455.4644564370674
 40
0.501740082747087
 50
324.11293799996702
 51
29.999999999959307
  0
ARC
  8
_0-0_計極細
  6
CONTINUOUS
 62
    2
 10
2266.4727408210692
 20
1479.5819623971793
 40
37.630656728658437
 50
14.493223999999607
 51
26.404005000000534
  0
LINE
  8
_0-0_計極細
  6
CONTINUOUS
 62
    2
 10
2305.5220251411574
 20
1493.5309002542645
 11
2298.9170079794721
 21
1482.0906748527254
  0
ARC
  8
_0-0_計極細
  6
CONTINUOUS
 62
    2
 10
2306.5562781524986
 20
1472.8730063511578
 40
1.0034861863992508
 50
209.99999999997672
 51
350.4982300000064
  0
ARC
  8
_0-0_計極細
  6
CONTINUOUS
 62
    2
 10
2306.5562781524986
 20
1486.2909184432031
 40
1.0034861863992508
 50
9.5017699999932326
 51
150.00000000000043
  0
ARC
  8
_0-0_計極細
  6
CONTINUOUS
 62
    2
 10
2266.4727408210692
 20
1479.5819623971793
 40
37.630656728658437
 50
3.6803540000001762
 51
6.228477000000372
  0
ARC
  8
_0-0_計極細
  6
CONTINUOUS
 62
    2
 10
2266.4727408210692
 20
1479.5819623971793
 40
37.630656728658437
 50
353.77152300000063
 51
356.31964600000015
  0
ARC
  8
_0-0_計極細
  6
CONTINUOUS
 62
    2
 10
2266.4727408210692
 20
1479.5819623971793
 40
37.630656728658437
 50
333.59599499999973
 51
345.50677600000074
  0
ARC
  8
_0-0_計極細
  6
CONTINUOUS
 62
    2
 10
2302.5160039890015
 20
1460.8047644247008
 40
1.0034861863992508
 50
209.99999999997672
 51
332.48216400001218
  0
ARC
  8
_0-0_計極細
  6
CONTINUOUS
 62
    2
 10
2304.5657849968929
 20
1476.3206368070619
 40
1.0034861863992508
 50
89.999999999999915
 51
210.00000000002515
  0
ARC
  8
_0-0_計極細
  6
CONTINUOUS
 62
    2
 10
2298.4824852809998
 20
1476.8223829107137
 40
0.501740082747087
 50
30.000000000004636
 51
89.999999999999915
  0
LINE
  8
_0-0_計極細
  6
CONTINUOUS
 62
    2
 10
2305.6872327555539
 20
1472.3712662684111
 11
2303.6967456208549
 21
1475.8188967243154
  0
LINE
  8
_0-0_計極細
  6
CONTINUOUS
 62
    2
 10
2305.5220251411574
 20
1465.6330245400968
 11
2298.9170079794721
 21
1477.0732499416338
  0
ARC
  8
_0-0_計極細
  6
CONTINUOUS
 62
    2
 10
2304.5657849968929
 20
1482.8432879873001
 40
1.0034861863992508
 50
149.99999999997448
 51
269.99999999999977
  0
ARC
  8
_0-0_計極細
  6
CONTINUOUS
 62
    2
 10
2298.4824852809998
 20
1482.3415418836466
 40
0.501740082747087
 50
269.99999999999977
 51
329.999999999995
  0
LINE
  8
_0-0_計極細
  6
CONTINUOUS
 62
    2
 10
2305.6872327555539
 20
1486.7926585259493
 11
2303.6967456208549
 21
1483.3450280700456
  0
ARC
  8
_0-0_計極細
  6
CONTINUOUS
 62
    2
 10
2296.4872416312892
 20
1506.983233860632
 40
1.0034861863992508
 50
42.394033999974049
 51
149.99999999997448
  0
ARC
  8
_0-0_計極細
  6
CONTINUOUS
 62
    2
 10
2299.8056152970094
 20
1503.6994683572925
 40
0.501740082747087
 50
330.00000000003996
 51
35.887062000032259
  0
ARC
  8
_0-0_計極細
  6
CONTINUOUS
 62
    2
 10
2302.5160039890015
 20
1498.3591603696595
 40
1.0034861863992508
 50
27.517836000010465
 51
150.00000000000043
  0
LINE
  8
_0-0_計極細
  6
CONTINUOUS
 62
    2
 10
2267.9779670902162
 20
1452.5297337054619
 11
2267.9779670902162
 21
1454.3964453555552
  0
LINE
  8
_0-0_計極細
  6
CONTINUOUS
 62
    2
 10
2268.4797131938676
 20
1452.5623242573902
 11
2268.4797131938676
 21
1453.5273953239969
  0
LINE
  8
_0-0_計極細
  6
CONTINUOUS
 62
    2
 10
2267.9779670902162
 20
1504.7674769114028
 11
2267.9779670902162
 21
1506.6341910888973
  0
LINE
  8
_0-0_計極細
  6
CONTINUOUS
 62
    2
 10
2268.4797131938676
 20
1505.6365267262054
 11
2268.4797131938676
 21
1506.601600536969
  0
LINE
  8
_0-0_計極細
  6
CENTER2
 62
    2
 10
541.30028444966138
 20
1479.5819623971793
 11
2356.3290050762935
 21
1479.5819623971793
  0
LINE
  8
_0-1_計細線
  6
CONTINUOUS
 62
    3
 10
550.47174370748689
 20
1551.58196239718
 11
550.47174370748689
 21
1407.5819623971793
  0
LINE
  8
_0-1_計細線
  6
CONTINUOUS
 62
    3
 10
550.47174370748689
 20
1407.5819623971793
 11
2346.4717437074869
 21
1407.5819623971793
  0
LINE
  8
_0-1_計細線
  6
CONTINUOUS
 62
    3
 10
2346.4717437074869
 20
1407.5819623971793
 11
2346.4717437074869
 21
1551.58196239718
  0
LINE
  8
_0-1_計細線
  6
CONTINUOUS
 62
    3
 10
2346.4717437074869
 20
1551.58196239718
 11
550.47174370748689
 21
1551.58196239718
  0
LINE
  8
_0-1_計細線
  6
CONTINUOUS
 62
    3
 10
561.47174370748701
 20
1540.5819623971797
 11
561.47174370748701
 21
1418.5819623971793
  0
LINE
  8
_0-1_計細線
  6
CONTINUOUS
 62
    3
 10
561.47174370748701
 20
1418.5819623971793
 11
2335.4717437074869
 21
1418.5819623971793
  0
LINE
  8
_0-1_計細線
  6
CONTINUOUS
 62
    3
 10
2335.4717437074869
 20
1418.5819623971793
 11
2335.4717437074869
 21
1540.5819623971797
  0
LINE
  8
_0-1_計細線
  6
CONTINUOUS
 62
    3
 10
2335.4717437074869
 20
1540.5819623971797
 11
561.47174370748701
 21
1540.5819623971797
  0
ARC
  8
_0-0_計極細
  6
CONTINUOUS
 62
    2
 10
2140.049711824965
 20
1508.5819623970949
 40
54.312365187078854
 50
327.72737804884258
 51
33.846056193751515
  0
ARC
  8
_0-0_計極細
  6
CONTINUOUS
 62
    2
 10
2231.893775590017
 20
1450.5819623972707
 40
54.312365187078854
 50
147.72737804884292
 51
213.84605619376094
  0
LINE
  8
_0-1_計細線
  6
CONTINUOUS
 62
    3
 10
562.97174370748689
 20
1538.8319623971802
 11
562.97174370748689
 21
1528.83196239718
  0
LINE
  8
_0-1_計細線
  6
CONTINUOUS
 62
    3
 10
2185.1581424362093
 20
1538.8319623971802
 11
562.97174370748689
 21
1538.8319623971802
  0
LINE
  8
_0-1_計細線
  6
CONTINUOUS
 62
    3
 10
562.97174370748689
 20
1528.83196239718
 11
2190.4458477106782
 21
1528.83196239718
  0
LINE
  8
_0-1_計細線
  6
CONTINUOUS
 62
    3
 10
562.97174370748689
 20
1523.3319623971797
 11
562.97174370748689
 21
1513.3319623971797
  0
LINE
  8
_0-1_計細線
  6
CONTINUOUS
 62
    3
 10
2192.3208368579335
 20
1523.3319623971797
 11
562.97174370748689
 21
1523.3319623971797
  0
LINE
  8
_0-1_計細線
  6
CONTINUOUS
 62
    3
 10
562.97174370748689
 20
1513.3319623971797
 11
2194.1539677778364
 21
1513.3319623971797
  0
LINE
  8
_0-1_計細線
  6
CONTINUOUS
 62
    3
 10
562.97174370748689
 20
1507.8319623971797
 11
562.97174370748689
 21
1497.8319623971797
  0
LINE
  8
_0-1_計細線
  6
CONTINUOUS
 62
    3
 10
2194.3568983863652
 20
1507.8319623971797
 11
562.97174370748689
 21
1507.8319623971797
  0
LINE
  8
_0-1_計細線
  6
CONTINUOUS
 62
    3
 10
562.97174370748689
 20
1497.8319623971797
 11
2193.287579102087
 21
1497.8319623971797
  0
LINE
  8
_0-1_計細線
  6
CONTINUOUS
 62
    3
 10
562.97174370748689
 20
1492.3319623971797
 11
562.97174370748689
 21
1482.3319623971793
  0
LINE
  8
_0-1_計細線
  6
CONTINUOUS
 62
    3
 10
2191.8741318624079
 20
1492.3319623971797
 11
562.97174370748689
 21
1492.3319623971797
  0
LINE
  8
_0-1_計細線
  6
CONTINUOUS
 62
    3
 10
562.97174370748689
 20
1482.3319623971793
 11
2187.5972723535442
 21
1482.3319623971793
  0
LINE
  8
_0-1_計細線
  6
CONTINUOUS
 62
    3
 10
562.97174370748689
 20
1476.8319623971795
 11
562.97174370748689
 21
1466.8319623971795
  0
LINE
  8
_0-1_計細線
  6
CONTINUOUS
 62
    3
 10
2184.3462150614296
 20
1476.8319623971795
 11
562.97174370748689
 21
1476.8319623971795
  0
LINE
  8
_0-1_計細線
  6
CONTINUOUS
 62
    3
 10
562.97174370748689
 20
1466.8319623971795
 11
2180.0693555525713
 21
1466.8319623971795
  0
LINE
  8
_0-1_計細線
  6
CONTINUOUS
 62
    3
 10
562.97174370748689
 20
1461.3319623971793
 11
562.97174370748689
 21
1451.3319623971788
  0
LINE
  8
_0-1_計細線
  6
CONTINUOUS
 62
    3
 10
2178.6559083128932
 20
1461.3319623971793
 11
562.97174370748689
 21
1461.3319623971793
  0
LINE
  8
_0-1_計細線
  6
CONTINUOUS
 62
    3
 10
562.97174370748689
 20
1451.3319623971788
 11
2177.5865890286168
 21
1451.3319623971788
  0
LINE
  8
_0-1_計細線
  6
CONTINUOUS
 62
    3
 10
562.97174370748689
 20
1445.8319623971788
 11
562.97174370748689
 21
1435.8319623971788
  0
LINE
  8
_0-1_計細線
  6
CONTINUOUS
 62
    3
 10
2177.7895196371474
 20
1445.8319623971788
 11
562.97174370748689
 21
1445.8319623971788
  0
LINE
  8
_0-1_計細線
  6
CONTINUOUS
 62
    3
 10
562.97174370748689
 20
1435.8319623971788
 11
2179.6226505570512
 21
1435.8319623971788
  0
LINE
  8
_0-1_計細線
  6
CONTINUOUS
 62
    3
 10
562.97174370748689
 20
1430.3319623971788
 11
562.97174370748689
 21
1420.3319623971786
  0
LINE
  8
_0-1_計細線
  6
CONTINUOUS
 62
    3
 10
2181.4976397043083
 20
1430.3319623971788
 11
562.97174370748689
 21
1430.3319623971788
  0
LINE
  8
_0-1_計細線
  6
CONTINUOUS
 62
    3
 10
562.97174370748689
 20
1420.3319623971786
 11
2186.7853449787772
 21
1420.3319623971786
  0
LINE
  8
_0-5_寸法線
  6
CONTINUOUS
 62
    7
 10
530.47174370748689
 20
1551.58196239718
 11
370.47174370748735
 21
1551.58196239718
  0
LINE
  8
_0-5_寸法線
  6
CONTINUOUS
 62
    7
 10
380.47174370748735
 20
1551.58196239718
 11
385.6481246095376
 21
1532.2634458713983
  0
LINE
  8
_0-5_寸法線
  6
CONTINUOUS
 62
    7
 10
380.47174370748735
 20
1551.58196239718
 11
375.29536280543681
 21
1532.2634458713983
  0
LINE
  8
_0-5_寸法線
  6
CONTINUOUS
 62
    7
 10
530.47174370748689
 20
1407.5819623971793
 11
370.47174370748735
 21
1407.5819623971793
  0
LINE
  8
_0-5_寸法線
  6
CONTINUOUS
 62
    7
 10
380.47174370748735
 20
1407.5819623971793
 11
375.29536280543698
 21
1426.9004789229607
  0
LINE
  8
_0-5_寸法線
  6
CONTINUOUS
 62
    7
 10
380.47174370748735
 20
1407.5819623971793
 11
385.64812460953772
 21
1426.9004789229607
  0
LINE
  8
_0-5_寸法線
  6
CONTINUOUS
 62
    7
 10
380.47174370748735
 20
1551.58196239718
 11
380.47174370748735
 21
1407.5819623971793
  0
TEXT
  8
_0-5_寸法線
 62
    7
 10
380.47174370748735
 20
1457.0819623971793
 40
30
 41
1
 50
90
  1
144
  0
LINE
  8
_0-5_寸法線
  6
CONTINUOUS
 62
    7
 10
530.47174370748689
 20
1407.5819623971793
 11
440.47174370748689
 21
1407.5819623971793
  0
LINE
  8
_0-5_寸法線
  6
CONTINUOUS
 62
    7
 10
450.47174370748689
 20
1407.5819623971793
 11
455.64812460953732
 21
1388.2634458713981
  0
LINE
  8
_0-5_寸法線
  6
CONTINUOUS
 62
    7
 10
450.47174370748689
 20
1407.5819623971793
 11
445.29536280543653
 21
1388.2634458713981
  0
LINE
  8
_0-5_寸法線
  6
CONTINUOUS
 62
    7
 10
530.47174370748689
 20
1418.5819623971793
 11
440.47174370748689
 21
1418.5819623971793
  0
LINE
  8
_0-5_寸法線
  6
CONTINUOUS
 62
    7
 10
450.47174370748689
 20
1346.856004286632
 11
450.47174370748689
 21
1418.5819623971793
  0
TEXT
  8
_0-5_寸法線
 62
    7
 10
450.47174370748678
 20
1346.856004286632
 40
30
 41
1
 50
89.99999999999973
  1
11
  0
LINE
  8
_0-5_寸法線
  6
CONTINUOUS
 62
    7
 10
450.47174370748689
 20
1418.5819623971793
 11
445.29536280543653
 21
1437.9004789229609
  0
LINE
  8
_0-5_寸法線
  6
CONTINUOUS
 62
    7
 10
450.47174370748689
 20
1418.5819623971793
 11
455.64812460953732
 21
1437.9004789229609
  0
LINE
  8
_0-5_寸法線
  6
CONTINUOUS
 62
    7
 10
530.47174370748689
 20
1540.58196239718
 11
440.47174370748689
 21
1540.5819623971806
  0
LINE
  8
_0-5_寸法線
  6
CONTINUOUS
 62
    7
 10
450.47174370748689
 20
1540.5819623971806
 11
455.64812460953732
 21
1521.263445871399
  0
LINE
  8
_0-5_寸法線
  6
CONTINUOUS
 62
    7
 10
450.47174370748689
 20
1540.5819623971806
 11
445.29536280543653
 21
1521.263445871399
  0
LINE
  8
_0-5_寸法線
  6
CONTINUOUS
 62
    7
 10
450.47174370748689
 20
1418.5819623971793
 11
450.47174370748689
 21
1540.5819623971806
  0
TEXT
  8
_0-5_寸法線
 62
    7
 10
450.47174370748678
 20
1457.0819623971797
 40
30
 41
1
 50
89.999999999999645
  1
122
  0
LINE
  8
_0-5_寸法線
  6
CONTINUOUS
 62
    7
 10
530.47174370748689
 20
1551.58196239718
 11
440.47174370748689
 21
1551.5819623971806
  0
LINE
  8
_0-5_寸法線
  6
CONTINUOUS
 62
    7
 10
450.47174370748689
 20
1551.5819623971806
 11
445.29536280543653
 21
1570.9004789229618
  0
LINE
  8
_0-5_寸法線
  6
CONTINUOUS
 62
    7
 10
450.47174370748689
 20
1551.5819623971806
 11
455.64812460953732
 21
1570.9004789229618
  0
LINE
  8
_0-5_寸法線
  6
CONTINUOUS
 62
    7
 10
450.47174370748689
 20
1540.5819623971806
 11
450.47174370748689
 21
1605.4790331125619
  0
TEXT
  8
_0-5_寸法線
 62
    7
 10
450.47174370748689
 20
1575.4790331125616
 40
30
 41
1
 50
89.99999999999973
  1
11
  0
LINE
  8
_0-5_寸法線
  6
CONTINUOUS
 62
    7
 10
550.47174370748689
 20
1571.58196239718
 11
550.47174370748689
 21
1801.58196239718
  0
LINE
  8
_0-5_寸法線
  6
CONTINUOUS
 62
    7
 10
550.47174370748689
 20
1791.58196239718
 11
569.79026023326821
 21
1796.7583432992301
  0
LINE
  8
_0-5_寸法線
  6
CONTINUOUS
 62
    7
 10
550.47174370748689
 20
1791.58196239718
 11
569.79026023326821
 21
1786.4055814951294
  0
LINE
  8
_0-5_寸法線
  6
CONTINUOUS
 62
    7
 10
2346.4717437074869
 20
1571.58196239718
 11
2346.4717437074869
 21
1801.58196239718
  0
LINE
  8
_0-5_寸法線
  6
CONTINUOUS
 62
    7
 10
2346.4717437074869
 20
1791.58196239718
 11
2327.1532271817059
 21
1786.4055814951294
  0
LINE
  8
_0-5_寸法線
  6
CONTINUOUS
 62
    7
 10
2346.4717437074869
 20
1791.58196239718
 11
2327.1532271817059
 21
1796.7583432992301
  0
LINE
  8
_0-5_寸法線
  6
CONTINUOUS
 62
    7
 10
550.47174370748689
 20
1791.58196239718
 11
2346.4717437074869
 21
1791.58196239718
  0
TEXT
  8
_0-5_寸法線
 62
    7
 10
1418.4717437074871
 20
1791.58196239718
 40
30
 41
1
 50
0
  1
1796
  0
LINE
  8
_0-5_寸法線
  6
CONTINUOUS
 62
    7
 10
2333.9717437074869
 20
1571.58196239718
 11
2333.9717437074869
 21
1661.58196239718
  0
LINE
  8
_0-5_寸法線
  6
CONTINUOUS
 62
    7
 10
2333.9717437074869
 20
1651.58196239718
 11
2314.6532271817059
 21
1646.4055814951294
  0
LINE
  8
_0-5_寸法線
  6
CONTINUOUS
 62
    7
 10
2333.9717437074869
 20
1651.58196239718
 11
2314.6532271817059
 21
1656.7583432992301
  0
LINE
  8
_0-5_寸法線
  6
CONTINUOUS
 62
    7
 10
562.97174370748712
 20
1571.5819623971797
 11
562.97174370748735
 21
1661.58196239718
  0
LINE
  8
_0-5_寸法線
  6
CONTINUOUS
 62
    7
 10
562.97174370748735
 20
1651.58196239718
 11
582.29026023326867
 21
1656.7583432992301
  0
LINE
  8
_0-5_寸法線
  6
CONTINUOUS
 62
    7
 10
562.97174370748735
 20
1651.58196239718
 11
582.29026023326867
 21
1646.4055814951294
  0
LINE
  8
_0-5_寸法線
  6
CONTINUOUS
 62
    7
 10
2333.9717437074869
 20
1651.58196239718
 11
562.97174370748735
 21
1651.58196239718
  0
TEXT
  8
_0-5_寸法線
 62
    7
 10
1418.4717437074871
 20
1651.58196239718
 40
30
 41
1
 50
0
  1
1771
  0
LINE
  8
_0-5_寸法線
  6
CONTINUOUS
 62
    7
 10
550.47174370748689
 20
1571.58196239718
 11
550.47174370748735
 21
1731.58196239718
  0
LINE
  8
_0-5_寸法線
  6
CONTINUOUS
 62
    7
 10
550.47174370748735
 20
1721.58196239718
 11
531.15322718170603
 21
1716.4055814951294
  0
LINE
  8
_0-5_寸法線
  6
CONTINUOUS
 62
    7
 10
550.47174370748735
 20
1721.58196239718
 11
531.15322718170603
 21
1726.7583432992301
  0
LINE
  8
_0-5_寸法線
  6
CONTINUOUS
 62
    7
 10
561.47174370748701
 20
1571.5819623971797
 11
561.47174370748735
 21
1731.58196239718
  0
LINE
  8
_0-5_寸法線
  6
CONTINUOUS
 62
    7
 10
492.2820109427721
 20
1721.58196239718
 11
561.47174370748735
 21
1721.58196239718
  0
TEXT
  8
_0-5_寸法線
 62
    7
 10
492.2820109427721
 20
1721.58196239718
 40
30
 41
1
 50
0
  1
11
  0
LINE
  8
_0-5_寸法線
  6
CONTINUOUS
 62
    7
 10
561.47174370748735
 20
1721.58196239718
 11
580.7902602332689
 21
1726.7583432992301
  0
LINE
  8
_0-5_寸法線
  6
CONTINUOUS
 62
    7
 10
561.47174370748735
 20
1721.58196239718
 11
580.79026023326855
 21
1716.4055814951291
  0
LINE
  8
_0-5_寸法線
  6
CONTINUOUS
 62
    7
 10
2335.4717437074869
 20
1571.58196239718
 11
2335.4717437074873
 21
1731.58196239718
  0
LINE
  8
_0-5_寸法線
  6
CONTINUOUS
 62
    7
 10
2335.4717437074873
 20
1721.58196239718
 11
2316.1532271817059
 21
1716.4055814951294
  0
LINE
  8
_0-5_寸法線
  6
CONTINUOUS
 62
    7
 10
2335.4717437074873
 20
1721.58196239718
 11
2316.1532271817059
 21
1726.7583432992301
  0
LINE
  8
_0-5_寸法線
  6
CONTINUOUS
 62
    7
 10
561.47174370748735
 20
1721.58196239718
 11
2335.4717437074873
 21
1721.58196239718
  0
TEXT
  8
_0-5_寸法線
 62
    7
 10
1418.4717437074869
 20
1721.58196239718
 40
30
 41
1
 50
0
  1
1774
  0
LINE
  8
_0-5_寸法線
  6
CONTINUOUS
 62
    7
 10
2346.4717437074869
 20
1571.58196239718
 11
2346.4717437074878
 21
1731.58196239718
  0
LINE
  8
_0-5_寸法線
  6
CONTINUOUS
 62
    7
 10
2346.4717437074878
 20
1721.58196239718
 11
2365.7902602332688
 21
1726.7583432992301
  0
LINE
  8
_0-5_寸法線
  6
CONTINUOUS
 62
    7
 10
2346.4717437074878
 20
1721.58196239718
 11
2365.7902602332688
 21
1716.4055814951291
  0
LINE
  8
_0-5_寸法線
  6
CONTINUOUS
 62
    7
 10
2335.4717437074873
 20
1721.58196239718
 11
2400.5679780693231
 21
1721.58196239718
  0
TEXT
  8
_0-5_寸法線
 62
    7
 10
2370.5679780693231
 20
1721.58196239718
 40
30
 41
1
 50
0
  1
11
  0
LINE
  8
_0-5_寸法線
  6
CONTINUOUS
 62
    7
 10
550.47174370748689
 20
1387.5819623971793
 11
550.47174370748689
 21
1297.5819623971793
  0
LINE
  8
_0-5_寸法線
  6
CONTINUOUS
 62
    7
 10
550.47174370748689
 20
1307.5819623971793
 11
569.79026023326821
 21
1312.7583432992296
  0
LINE
  8
_0-5_寸法線
  6
CONTINUOUS
 62
    7
 10
550.47174370748689
 20
1307.5819623971793
 11
569.79026023326821
 21
1302.4055814951291
  0
LINE
  8
_0-5_寸法線
  6
CONTINUOUS
 62
    7
 10
2266.4717437074869
 20
1387.5819623971793
 11
2266.4717437074869
 21
1297.5819623971793
  0
LINE
  8
_0-5_寸法線
  6
CONTINUOUS
 62
    7
 10
2266.4717437074869
 20
1307.5819623971793
 11
2247.1532271817059
 21
1302.4055814951291
  0
LINE
  8
_0-5_寸法線
  6
CONTINUOUS
 62
    7
 10
2266.4717437074869
 20
1307.5819623971793
 11
2247.1532271817059
 21
1312.7583432992296
  0
LINE
  8
_0-5_寸法線
  6
CONTINUOUS
 62
    7
 10
550.47174370748689
 20
1307.5819623971793
 11
2266.4717437074869
 21
1307.5819623971793
  0
TEXT
  8
_0-5_寸法線
 62
    7
 10
1378.4717437074867
 20
1307.5819623971793
 40
30
 41
1
 50
0
  1
1716
  0
LINE
  8
_0-5_寸法線
  6
CONTINUOUS
 62
    7
 10
2266.4717437074869
 20
1307.5819623971793
 11
2285.7902602332683
 21
1312.7583432992296
  0
LINE
  8
_0-5_寸法線
  6
CONTINUOUS
 62
    7
 10
2266.4717437074869
 20
1307.5819623971793
 11
2285.7902602332683
 21
1302.4055814951289
  0
LINE
  8
_0-5_寸法線
  6
CONTINUOUS
 62
    7
 10
2346.4717437074869
 20
1387.5819623971793
 11
2346.4717437074869
 21
1297.5819623971793
  0
LINE
  8
_0-5_寸法線
  6
CONTINUOUS
 62
    7
 10
2346.4717437074869
 20
1307.5819623971793
 11
2327.1532271817059
 21
1302.4055814951291
  0
LINE
  8
_0-5_寸法線
  6
CONTINUOUS
 62
    7
 10
2346.4717437074869
 20
1307.5819623971793
 11
2327.1532271817059
 21
1312.7583432992296
  0
LINE
  8
_0-5_寸法線
  6
CONTINUOUS
 62
    7
 10
2266.4717437074869
 20
1307.5819623971793
 11
2346.4717437074869
 21
1307.5819623971793
  0
TEXT
  8
_0-5_寸法線
 62
    7
 10
2291.471743707486
 20
1307.5819623971793
 40
30
 41
1
 50
0
  1
80
  0
LINE
  8
_0-1_計細線
  6
CONTINUOUS
 62
    3
 10
2524.4717437074869
 20
1417.5819623971793
 11
2559.4717437074869
 21
1417.5819623971793
  0
LINE
  8
_0-1_計細線
  6
CONTINUOUS
 62
    3
 10
2559.4717437074869
 20
1417.5819623971793
 11
2559.4717437074869
 21
1416.3819623971804
  0
LINE
  8
_0-1_計細線
  6
CONTINUOUS
 62
    3
 10
2559.4717437074869
 20
1416.3819623971804
 11
2524.4717437074869
 21
1416.3819623971804
  0
LINE
  8
_0-1_計細線
  6
CONTINUOUS
 62
    3
 10
2524.4717437074869
 20
1416.3819623971804
 11
2524.4717437074869
 21
1417.5819623971793
  0
LINE
  8
_0-1_計細線
  6
CONTINUOUS
 62
    3
 10
2526.4717437074869
 20
1416.3819623971804
 11
2526.4717437074869
 21
1417.5819623971793
  0
LINE
  8
_0-1_計細線
  6
CONTINUOUS
 62
    3
 10
2536.4717437074869
 20
1416.3819623971804
 11
2536.4717437074869
 21
1417.5819623971793
  0
LINE
  8
_0-1_計細線
  6
CONTINUOUS
 62
    3
 10
2538.4717437074869
 20
1416.3819623971804
 11
2538.4717437074869
 21
1417.5819623971793
  0
LINE
  8
_0-1_計細線
  6
CONTINUOUS
 62
    3
 10
2540.4717437074869
 20
1416.3819623971804
 11
2540.4717437074869
 21
1417.5819623971793
  0
LINE
  8
_0-1_計細線
  6
CONTINUOUS
 62
    3
 10
2542.4717437074869
 20
1416.3819623971804
 11
2542.4717437074869
 21
1417.5819623971793
  0
LINE
  8
_0-1_計細線
  6
CONTINUOUS
 62
    3
 10
2556.4717437074869
 20
1416.3819623971804
 11
2556.4717437074869
 21
1417.5819623971793
  0
ARC
  8
_0-1_計細線
  6
CONTINUOUS
 62
    3
 10
2535.4717437074869
 20
1540.5819623971795
 40
1
 50
0
 51
89.999999999999915
  0
LINE
  8
_0-1_計細線
  6
CONTINUOUS
 62
    3
 10
2524.4717437074869
 20
1542.7819623971791
 11
2559.4717437074869
 21
1542.7819623971791
  0
LINE
  8
_0-1_計細線
  6
CONTINUOUS
 62
    3
 10
2559.4717437074869
 20
1542.7819623971791
 11
2559.4717437074869
 21
1541.5819623971793
  0
LINE
  8
_0-1_計細線
  6
CONTINUOUS
 62
    3
 10
2559.4717437074869
 20
1541.5819623971793
 11
2524.4717437074869
 21
1541.5819623971793
  0
LINE
  8
_0-1_計細線
  6
CONTINUOUS
 62
    3
 10
2524.4717437074869
 20
1541.5819623971793
 11
2524.4717437074869
 21
1542.7819623971791
  0
LINE
  8
_0-1_計細線
  6
CONTINUOUS
 62
    3
 10
2526.4717437074869
 20
1541.5819623971793
 11
2526.4717437074869
 21
1542.7819623971791
  0
LINE
  8
_0-1_計細線
  6
CONTINUOUS
 62
    3
 10
2536.4717437074869
 20
1541.5819623971793
 11
2536.4717437074869
 21
1542.7819623971791
  0
LINE
  8
_0-1_計細線
  6
CONTINUOUS
 62
    3
 10
2538.4717437074869
 20
1541.5819623971793
 11
2538.4717437074869
 21
1542.7819623971791
  0
LINE
  8
_0-1_計細線
  6
CONTINUOUS
 62
    3
 10
2540.4717437074869
 20
1541.5819623971793
 11
2540.4717437074869
 21
1542.7819623971791
  0
LINE
  8
_0-1_計細線
  6
CONTINUOUS
 62
    3
 10
2542.4717437074869
 20
1541.5819623971793
 11
2542.4717437074869
 21
1542.7819623971791
  0
LINE
  8
_0-1_計細線
  6
CONTINUOUS
 62
    3
 10
2556.4717437074869
 20
1541.5819623971793
 11
2556.4717437074869
 21
1542.7819623971791
  0
LINE
  8
_0-1_計細線
  6
CONTINUOUS
 62
    3
 10
2524.4717437074869
 20
1551.5819623971793
 11
2517.4717437074869
 21
1551.5819623971793
  0
ARC
  8
_0-1_計細線
  6
CONTINUOUS
 62
    3
 10
2517.4717437074869
 20
1550.5819623971795
 40
1
 50
89.999999999999915
 51
179.99999999999983
  0
LINE
  8
_0-1_計細線
  6
CONTINUOUS
 62
    3
 10
2516.4717437074869
 20
1550.5819623971795
 11
2516.4717437074869
 21
1408.5819623971793
  0
ARC
  8
_0-1_計細線
  6
CONTINUOUS
 62
    3
 10
2517.4717437074869
 20
1408.5819623971793
 40
1
 50
179.99999999999983
 51
269.99999999994753
  0
LINE
  8
_0-1_計細線
  6
CONTINUOUS
 62
    3
 10
2524.4717437074869
 20
1407.5819623971793
 11
2524.4717437074869
 21
1551.5819623971793
  0
LINE
  8
_0-1_計細線
  6
CONTINUOUS
 62
    3
 10
2524.4717437074869
 20
1407.5819623971793
 11
2517.471743707486
 21
1407.5819623971793
  0
LINE
  8
_0-0_計極細
  6
CENTER2
 62
    2
 10
2477.2294373217492
 20
1479.5819623971793
 11
2592.4524589044813
 21
1479.5819623971793
  0
LINE
  8
_0-5_寸法線
  6
CONTINUOUS
 62
    7
 10
2516.4717437074869
 20
1571.5819623971793
 11
2516.4717437074869
 21
1661.58196239718
  0
LINE
  8
_0-5_寸法線
  6
CONTINUOUS
 62
    7
 10
2516.4717437074869
 20
1651.58196239718
 11
2497.1532271817059
 21
1646.4055814951294
  0
LINE
  8
_0-5_寸法線
  6
CONTINUOUS
 62
    7
 10
2516.4717437074869
 20
1651.58196239718
 11
2497.1532271817059
 21
1656.7583432992301
  0
LINE
  8
_0-5_寸法線
  6
CONTINUOUS
 62
    7
 10
2536.4717437074869
 20
1562.7819623971791
 11
2536.4717437074869
 21
1661.58196239718
  0
CIRCLE
  8
_0-5_寸法線
  6
CONTINUOUS
 62
    1
 10
2536.4717437074869
 20
1651.58196239718
 40
3.0000000000000004
  0
LINE
  8
_0-5_寸法線
  6
CONTINUOUS
 62
    7
 10
2462.7697517684901
 20
1651.58196239718
 11
2536.4717437074869
 21
1651.58196239718
  0
TEXT
  8
_0-5_寸法線
 62
    7
 10
2462.7697517684901
 20
1651.58196239718
 40
30
 41
1
 50
0
  1
20
  0
LINE
  8
_0-5_寸法線
  6
CONTINUOUS
 62
    7
 10
2559.4717437074869
 20
1562.7819623971791
 11
2559.4717437074869
 21
1661.58196239718
  0
LINE
  8
_0-5_寸法線
  6
CONTINUOUS
 62
    7
 10
2559.4717437074869
 20
1651.58196239718
 11
2578.7902602332683
 21
1656.7583432992301
  0
LINE
  8
_0-5_寸法線
  6
CONTINUOUS
 62
    7
 10
2559.4717437074869
 20
1651.58196239718
 11
2578.7902602332683
 21
1646.4055814951291
  0
LINE
  8
_0-5_寸法線
  6
CONTINUOUS
 62
    7
 10
2536.4717437074869
 20
1651.58196239718
 11
2617.3982317600976
 21
1651.58196239718
  0
TEXT
  8
_0-5_寸法線
 62
    7
 10
2587.398231760098
 20
1651.58196239718
 40
30
 41
1
 50
0
  1
23
  0
LINE
  8
_0-5_寸法線
  6
CONTINUOUS
 62
    7
 10
2516.4717437074869
 20
1571.5819623971802
 11
2516.4717437074883
 21
1731.58196239718
  0
LINE
  8
_0-5_寸法線
  6
CONTINUOUS
 62
    7
 10
2516.4717437074883
 20
1721.58196239718
 11
2535.7902602332697
 21
1726.7583432992301
  0
LINE
  8
_0-5_寸法線
  6
CONTINUOUS
 62
    7
 10
2516.4717437074883
 20
1721.58196239718
 11
2535.7902602332697
 21
1716.4055814951294
  0
LINE
  8
_0-5_寸法線
  6
CONTINUOUS
 62
    7
 10
2559.4717437074869
 20
1562.7819623971791
 11
2559.4717437074869
 21
1731.58196239718
  0
LINE
  8
_0-5_寸法線
  6
CONTINUOUS
 62
    7
 10
2559.4717437074869
 20
1721.58196239718
 11
2540.1532271817055
 21
1716.4055814951294
  0
LINE
  8
_0-5_寸法線
  6
CONTINUOUS
 62
    7
 10
2559.4717437074869
 20
1721.58196239718
 11
2540.1532271817055
 21
1726.7583432992301
  0
LINE
  8
_0-5_寸法線
  6
CONTINUOUS
 62
    7
 10
2516.4717437074883
 20
1721.58196239718
 11
2559.4717437074869
 21
1721.58196239718
  0
TEXT
  8
_0-5_寸法線
 62
    7
 10
2522.9717437074873
 20
1721.58196239718
 40
30
 41
1
 50
0
  1
43
  0
LINE
  8
_0-5_寸法線
  6
CONTINUOUS
 62
    7
 10
701.72301064862381
 20
1440.6488182745134
 11
711.7230107010447
 21
1423.3283102290898
  0
LINE
  8
_0-5_寸法線
  6
CONTINUOUS
 62
    7
 10
701.72301064862381
 20
1440.6488182745134
 11
701.72301070915421
 21
1420.6488182745134
  0
LINE
  8
_0-5_寸法線
  6
CONTINUOUS
 62
    7
 10
701.72301064862381
 20
1440.6488182745134
 11
723.69252622127533
 21
1358.6574709322965
  0
LINE
  8
_0-5_寸法線
  6
CONTINUOUS
 62
    7
 10
723.69252622127533
 20
1358.6574709322965
 11
795.69252622127567
 21
1358.6574709322965
  0
TEXT
  8
_0-5_寸法線
 62
    7
 10
723.69252622127533
 20
1358.6574709322965
 40
30
 41
0.7999999999999998
 50
0
  1
上フタ
  0
LINE
  8
_0-5_寸法線
  6
CONTINUOUS
 62
    7
 10
889.90117835619003
 20
1413.2687904577244
 11
899.90117840861103
 21
1395.9482824123008
  0
LINE
  8
_0-5_寸法線
  6
CONTINUOUS
 62
    7
 10
889.90117835619003
 20
1413.2687904577244
 11
889.90117841672043
 21
1393.2687904577244
  0
LINE
  8
_0-5_寸法線
  6
CONTINUOUS
 62
    7
 10
889.90117835619003
 20
1413.2687904577244
 11
904.53423749777539
 21
1358.6574709322965
  0
LINE
  8
_0-5_寸法線
  6
CONTINUOUS
 62
    7
 10
904.53423749777539
 20
1358.6574709322965
 11
1048.5342374977756
 21
1358.6574709322965
  0
TEXT
  8
_0-5_寸法線
 62
    7
 10
904.53423749777539
 20
1358.6574709322965
 40
30
 41
0.7999999999999998
 50
0
  1
排水ユニット
  0
LINE
  8
_0-7_枠細線
  6
CONTINUOUS
 62
    5
 10
1830
 20
1852.8846679434937
 11
1815
 21
1882.8846679434937
  0
LINE
  8
_0-7_枠細線
  6
CONTINUOUS
 62
    5
 10
1800
 20
1852.8846679434937
 11
1830
 21
1852.8846679434937
  0
LINE
  8
_0-7_枠細線
  6
CONTINUOUS
 62
    5
 10
1815
 20
1882.8846679434937
 11
1800
 21
1852.8846679434937
  0
TEXT
  8
_0-7_枠細線
 62
    5
 10
1804.7303025362964
 20
1852.2706634527333
 40
25
 41
0.8
 50
0
  1
１
  0
TEXT
  8
_0-7_枠細線
 62
    5
 10
1877.7007407407405
 20
1855
 40
25
 41
1
 50
0
  1
排水穴位置変更
  0
TEXT
  8
_0-7_枠細線
 62
    5
 10
2360
 20
1855
 40
25
 41
0.7199999999999999
 50
0
  1
２０２２．０２．１５
  0
LINE
  8
_0-1_計細線
  6
CONTINUOUS
 62
    3
 10
2536.4717437074869
 20
1540.5819623971795
 11
2536.4717437074869
 21
1418.5819623971793
  0
ARC
  8
_0-1_計細線
  6
CONTINUOUS
 62
    3
 10
2535.4717437074869
 20
1418.5819623971793
 40
1
 50
269.99999999999977
 51
359.99999999999966
  0
ARC
  8
_0-1_計細線
  6
CONTINUOUS
 62
    3
 10
2538.9717437074878
 20
1536.5819623971793
 40
1.5000000000000002
 50
0
 51
89.999999999999915
  0
LINE
  8
_0-1_計細線
  6
CONTINUOUS
 62
    3
 10
2536.9717437074878
 20
1538.0819623971795
 11
2538.9717437074878
 21
1538.0819623971795
  0
ARC
  8
_0-1_計細線
  6
CONTINUOUS
 62
    3
 10
2536.9717437074878
 20
1538.5819623971793
 40
0.5
 50
179.99999999999983
 51
269.99999999999977
  0
LINE
  8
_0-1_計細線
  6
CONTINUOUS
 62
    3
 10
2536.9717437074878
 20
1421.0819623971793
 11
2538.9717437074878
 21
1421.0819623971793
  0
ARC
  8
_0-1_計細線
  6
CONTINUOUS
 62
    3
 10
2536.9717437074878
 20
1420.5819623971795
 40
0.5
 50
89.999999999999915
 51
179.99999999999983
  0
LINE
  8
_0-1_計細線
  6
CONTINUOUS
 62
    3
 10
2540.4717437074878
 20
1536.5819623971793
 11
2540.4717437074878
 21
1422.5819623971793
  0
ARC
  8
_0-1_計細線
  6
CONTINUOUS
 62
    3
 10
2538.9717437074878
 20
1422.5819623971793
 40
1.5000000000000002
 50
269.99999999999977
 51
359.99999999999966
  0
TEXT
  8
_0-7_枠細線
 62
    5
 10
2374
 20
235
 40
40
 41
0.6999999999999998
 50
0
  1
１：１０
  0
ARC
  8
_0-1_計細線
  6
CONTINUOUS
 62
    3
 10
2345.4717437074869
 20
1106.5819623971793
 40
1
 50
0
 51
89.999999999999915
  0
LINE
  8
_0-1_計細線
  6
CONTINUOUS
 62
    3
 10
2346.4717437074869
 20
1099.5819623971793
 11
2346.4717437074869
 21
1106.5819623971793
  0
LINE
  8
_0-1_計細線
  6
CONTINUOUS
 62
    3
 10
2345.4717437074878
 20
1099.5819623971793
 11
2346.4717437074869
 21
1099.5819623971793
  0
ARC
  8
_0-1_計細線
  6
CONTINUOUS
 62
    3
 10
2325.4717437074869
 20
1087.0819623971784
 40
1.5000000000000002
 50
89.999999999999915
 51
179.99999999999983
  0
LINE
  8
_0-1_計細線
  6
CONTINUOUS
 62
    3
 10
2323.9717437074869
 20
1087.0819623971784
 11
2323.9717437074869
 21
1085.0819623971784
  0
ARC
  8
_0-1_計細線
  6
CONTINUOUS
 62
    3
 10
2323.4717437074869
 20
1085.0819623971784
 40
1.5000000000000002
 50
269.99999999999977
 51
359.99999999999966
  0
LINE
  8
_0-1_計細線
  6
CONTINUOUS
 62
    3
 10
2324.9717437074869
 20
1087.0819623971784
 11
2324.9717437074869
 21
1085.0819623971784
  0
LINE
  8
_0-1_計細線
  6
CONTINUOUS
 62
    3
 10
2323.4717437074869
 20
1083.5819623971784
 11
2317.4717437074869
 21
1083.5819623971784
  0
ARC
  8
_0-1_計細線
  6
CONTINUOUS
 62
    3
 10
2325.4717437074869
 20
1087.0819623971784
 40
0.5
 50
89.999999999999915
 51
179.99999999999983
  0
ARC
  8
_0-1_計細線
  6
CONTINUOUS
 62
    3
 10
2323.4717437074869
 20
1085.0819623971784
 40
0.5
 50
269.99999999999977
 51
359.99999999999966
  0
LINE
  8
_0-1_計細線
  6
CONTINUOUS
 62
    3
 10
2323.4717437074869
 20
1084.5819623971784
 11
2317.4717437074869
 21
1084.5819623971784
  0
LINE
  8
_0-1_計細線
  6
CONTINUOUS
 62
    3
 10
2317.4717437074869
 20
1084.5819623971784
 11
2317.4717437074869
 21
1083.5819623971784
  0
LINE
  8
_0-1_計細線
  6
CONTINUOUS
 62
    3
 10
2335.4717437074869
 20
1088.5819623971784
 11
2325.4717437074869
 21
1088.5819623971784
  0
LINE
  8
_0-1_計細線
  6
CONTINUOUS
 62
    3
 10
2335.4717437074869
 20
1106.5819623971793
 11
2335.4717437074869
 21
1088.5819623971784
  0
ARC
  8
_0-1_計細線
  6
CONTINUOUS
 62
    3
 10
551.47174370748701
 20
1106.5819623971793
 40
1
 50
89.999999999999915
 51
179.99999999999983
  0
LINE
  8
_0-1_計細線
  6
CONTINUOUS
 62
    3
 10
550.47174370748689
 20
1099.5819623971793
 11
550.47174370748689
 21
1106.5819623971793
  0
LINE
  8
_0-1_計細線
  6
CONTINUOUS
 62
    3
 10
550.47174370748689
 20
1099.5819623971811
 11
2266.4717437074869
 21
1099.5819623971811
  0
LINE
  8
_0-1_計細線
  6
CONTINUOUS
 62
    3
 10
561.47174370748701
 20
1088.5819623971793
 11
561.47174370748701
 21
1099.5819623971811
  0
ARC
  8
_0-1_計細線
  6
CONTINUOUS
 62
    3
 10
562.47174370748689
 20
1088.5819623971793
 40
1
 50
179.99999999999983
 51
269.99999999999977
  0
LINE
  8
_0-1_計細線
  6
CONTINUOUS
 62
    3
 10
2325.4717437074869
 20
1087.5819623971793
 11
2335.4717437074869
 21
1087.5819623971793
  0
LINE
  8
_0-1_計細線
  6
CONTINUOUS
 62
    3
 10
2336.4717437074869
 20
1099.5819623971793
 11
2345.4717437074878
 21
1099.5819623971793
  0
LINE
  8
_0-1_計細線
  6
CONTINUOUS
 62
    3
 10
2345.4717437074878
 20
1099.5819623971793
 11
2345.4717437074878
 21
1106.5819623971795
  0
LINE
  8
_0-1_計細線
  6
CONTINUOUS
 62
    3
 10
2345.4717437074878
 20
1106.5819623971795
 11
2336.4717437074869
 21
1106.5819623971795
  0
LINE
  8
_0-1_計細線
  6
CONTINUOUS
 62
    3
 10
2336.4717437074869
 20
1106.5819623971795
 11
2336.4717437074869
 21
1088.5819623971793
  0
ARC
  8
_0-1_計細線
  6
CONTINUOUS
 62
    3
 10
2335.4717437074869
 20
1088.5819623971793
 40
1
 50
269.99999999999977
 51
359.99999999999966
  0
LINE
  8
_0-1_計細線
  6
CONTINUOUS
 62
    3
 10
2345.4717437074869
 20
1107.5819623971793
 11
2336.4717437074869
 21
1107.5819623971793
  0
LINE
  8
_0-1_計細線
  6
CONTINUOUS
 62
    3
 10
2336.4717437074869
 20
1107.5819623971793
 11
551.47174370748871
 21
1107.5819623971793
  0
ARC
  8
_0-1_計細線
  6
CONTINUOUS
 62
    3
 10
2336.4717437074869
 20
1106.5819623971793
 40
1
 50
89.999999999999915
 51
179.99999999999983
  0
LINE
  8
_0-0_計極細
  6
CENTER1
 62
    2
 10
586.47174370748712
 20
1059.7864818240105
 11
586.47174370748712
 21
1104.840181901548
  0
LINE
  8
_0-1_計細線
  6
CONTINUOUS
 62
    3
 10
580.47174386056781
 20
1099.5693635497491
 11
578.47174386056793
 21
1097.5693635497491
  0
LINE
  8
_0-1_計細線
  6
CONTINUOUS
 62
    3
 10
578.47174386056793
 20
1087.5693635497491
 11
578.47174386056793
 21
1097.5693635497491
  0
LINE
  8
_0-1_計細線
  6
CONTINUOUS
 62
    3
 10
594.47174355440643
 20
1087.5693635497491
 11
594.47174355440643
 21
1097.5693635497491
  0
LINE
  8
_0-1_計細線
  6
CONTINUOUS
 62
    3
 10
580.47174386056781
 20
1083.5693635497491
 11
578.47174386056793
 21
1081.5693635497491
  0
LINE
  8
_0-1_計細線
  6
CONTINUOUS
 62
    3
 10
580.47174386056781
 20
1085.5693635497491
 11
580.47174386056781
 21
1083.5693635497491
  0
LINE
  8
_0-1_計細線
  6
CONTINUOUS
 62
    3
 10
578.47174386056793
 20
1087.5693635497491
 11
580.47174386056781
 21
1085.5693635497491
  0
LINE
  8
_0-1_計細線
  6
CONTINUOUS
 62
    3
 10
592.47174355440643
 20
1083.5693635497491
 11
594.47174355440643
 21
1081.5693635497491
  0
LINE
  8
_0-1_計細線
  6
CONTINUOUS
 62
    3
 10
592.47174355440643
 20
1085.5693635497491
 11
592.47174355440643
 21
1083.5693635497491
  0
LINE
  8
_0-1_計細線
  6
CONTINUOUS
 62
    3
 10
594.47174355440643
 20
1087.5693635497491
 11
592.47174355440643
 21
1085.5693635497491
  0
LINE
  8
_0-1_計細線
  6
CONTINUOUS
 62
    3
 10
578.47174386056793
 20
1081.5693635497491
 11
578.47174386056793
 21
1067.5693635497491
  0
ARC
  8
_0-1_計細線
  6
CONTINUOUS
 62
    3
 10
581.47174386056781
 20
1067.5693635497491
 40
3.0000000000000004
 50
179.99999999999983
 51
269.99999999999977
  0
LINE
  8
_0-1_計細線
  6
CONTINUOUS
 62
    3
 10
581.47174386056781
 20
1064.5693635497491
 11
591.47174355440654
 21
1064.5693635497491
  0
LINE
  8
_0-1_計細線
  6
CONTINUOUS
 62
    3
 10
594.47174355440643
 20
1081.5693635497491
 11
594.47174355440643
 21
1067.5693635497491
  0
ARC
  8
_0-1_計細線
  6
CONTINUOUS
 62
    3
 10
591.47174355440654
 20
1067.5693635497491
 40
3.0000000000000004
 50
269.99999999999977
 51
359.99999999999966
  0
LINE
  8
_0-1_計細線
  6
CONTINUOUS
 62
    3
 10
580.47174386056781
 20
1099.5693635497491
 11
592.47174355440643
 21
1099.5693635497491
  0
LINE
  8
_0-1_計細線
  6
CONTINUOUS
 62
    3
 10
594.47174355440643
 20
1097.5693635497491
 11
592.47174355440643
 21
1099.5693635497491
  0
LINE
  8
_0-5_寸法線
  6
CONTINUOUS
 62
    7
 10
586.47174370748712
 20
1064.5693635497491
 11
596.47174370748701
 21
1047.2488554740603
  0
LINE
  8
_0-5_寸法線
  6
CONTINUOUS
 62
    7
 10
586.47174370748712
 20
1064.5693635497491
 11
586.47174370748701
 21
1044.5693635497491
  0
LINE
  8
_0-5_寸法線
  6
CONTINUOUS
 62
    7
 10
586.47174370748712
 20
1064.5693635497491
 11
602.54869525335403
 21
1004.5693635497491
  0
LINE
  8
_0-5_寸法線
  6
CONTINUOUS
 62
    7
 10
602.54869525335403
 20
1004.5693635497491
 11
698.54869525335403
 21
1004.5693635497491
  0
TEXT
  8
_0-5_寸法線
 62
    7
 10
602.54869525335403
 20
1004.5693635497491
 40
30
 41
0.8000000000000001
 50
0
  1
アンカー
  0
LINE
  8
_0-1_計細線
  6
CONTINUOUS
 62
    3
 10
562.47174370748689
 20
1087.5819623971793
 11
578.47174386056793
 21
1087.5819623971793
  0
LINE
  8
_0-0_計極細
  6
CENTER1
 62
    2
 10
1017.4717437074872
 20
1059.7864818240105
 11
1017.4717437074872
 21
1104.840181901548
  0
LINE
  8
_0-1_計細線
  6
CONTINUOUS
 62
    3
 10
1011.4717438605679
 20
1099.5693635497491
 11
1009.4717438605678
 21
1097.5693635497491
  0
LINE
  8
_0-1_計細線
  6
CONTINUOUS
 62
    3
 10
1009.4717438605678
 20
1087.5693635497491
 11
1009.4717438605678
 21
1097.5693635497491
  0
LINE
  8
_0-1_計細線
  6
CONTINUOUS
 62
    3
 10
1025.4717435544064
 20
1087.5693635497491
 11
1025.4717435544064
 21
1097.5693635497491
  0
LINE
  8
_0-1_計細線
  6
CONTINUOUS
 62
    3
 10
1011.4717438605679
 20
1083.5693635497491
 11
1009.4717438605678
 21
1081.5693635497491
  0
LINE
  8
_0-1_計細線
  6
CONTINUOUS
 62
    3
 10
1011.4717438605679
 20
1085.5693635497491
 11
1011.4717438605679
 21
1083.5693635497491
  0
LINE
  8
_0-1_計細線
  6
CONTINUOUS
 62
    3
 10
1009.4717438605678
 20
1087.5693635497491
 11
1011.4717438605679
 21
1085.5693635497491
  0
LINE
  8
_0-1_計細線
  6
CONTINUOUS
 62
    3
 10
1023.4717435544064
 20
1083.5693635497491
 11
1025.4717435544064
 21
1081.5693635497491
  0
LINE
  8
_0-1_計細線
  6
CONTINUOUS
 62
    3
 10
1023.4717435544064
 20
1085.5693635497491
 11
1023.4717435544064
 21
1083.5693635497491
  0
LINE
  8
_0-1_計細線
  6
CONTINUOUS
 62
    3
 10
1025.4717435544064
 20
1087.5693635497491
 11
1023.4717435544064
 21
1085.5693635497491
  0
LINE
  8
_0-1_計細線
  6
CONTINUOUS
 62
    3
 10
1009.4717438605678
 20
1081.5693635497491
 11
1009.4717438605678
 21
1067.5693635497491
  0
ARC
  8
_0-1_計細線
  6
CONTINUOUS
 62
    3
 10
1012.4717438605678
 20
1067.5693635497491
 40
3.0000000000000004
 50
179.99999999999983
 51
269.99999999999977
  0
LINE
  8
_0-1_計細線
  6
CONTINUOUS
 62
    3
 10
1012.4717438605678
 20
1064.5693635497491
 11
1022.4717435544064
 21
1064.5693635497491
  0
LINE
  8
_0-1_計細線
  6
CONTINUOUS
 62
    3
 10
1025.4717435544064
 20
1081.5693635497491
 11
1025.4717435544064
 21
1067.5693635497491
  0
ARC
  8
_0-1_計細線
  6
CONTINUOUS
 62
    3
 10
1022.4717435544064
 20
1067.5693635497491
 40
3.0000000000000004
 50
269.99999999999977
 51
359.99999999999966
  0
LINE
  8
_0-1_計細線
  6
CONTINUOUS
 62
    3
 10
1011.4717438605679
 20
1099.5693635497491
 11
1023.4717435544064
 21
1099.5693635497491
  0
LINE
  8
_0-1_計細線
  6
CONTINUOUS
 62
    3
 10
1025.4717435544064
 20
1097.5693635497491
 11
1023.4717435544064
 21
1099.5693635497491
  0
LINE
  8
_0-1_計細線
  6
CONTINUOUS
 62
    3
 10
594.47174355440643
 20
1087.5819623971793
 11
1009.4717438605678
 21
1087.5819623971793
  0
LINE
  8
_0-0_計極細
  6
CENTER1
 62
    2
 10
1448.4717437074871
 20
1059.7864818240105
 11
1448.4717437074871
 21
1104.840181901548
  0
LINE
  8
_0-1_計細線
  6
CONTINUOUS
 62
    3
 10
1442.471743860568
 20
1099.5693635497491
 11
1440.4717438605678
 21
1097.5693635497491
  0
LINE
  8
_0-1_計細線
  6
CONTINUOUS
 62
    3
 10
1440.4717438605678
 20
1087.5693635497491
 11
1440.4717438605678
 21
1097.5693635497491
  0
LINE
  8
_0-1_計細線
  6
CONTINUOUS
 62
    3
 10
1456.4717435544067
 20
1087.5693635497491
 11
1456.4717435544067
 21
1097.5693635497491
  0
LINE
  8
_0-1_計細線
  6
CONTINUOUS
 62
    3
 10
1442.471743860568
 20
1083.5693635497491
 11
1440.4717438605678
 21
1081.5693635497491
  0
LINE
  8
_0-1_計細線
  6
CONTINUOUS
 62
    3
 10
1442.471743860568
 20
1085.5693635497491
 11
1442.471743860568
 21
1083.5693635497491
  0
LINE
  8
_0-1_計細線
  6
CONTINUOUS
 62
    3
 10
1440.4717438605678
 20
1087.5693635497491
 11
1442.471743860568
 21
1085.5693635497491
  0
LINE
  8
_0-1_計細線
  6
CONTINUOUS
 62
    3
 10
1454.4717435544064
 20
1083.5693635497491
 11
1456.4717435544067
 21
1081.5693635497491
  0
LINE
  8
_0-1_計細線
  6
CONTINUOUS
 62
    3
 10
1454.4717435544064
 20
1085.5693635497491
 11
1454.4717435544064
 21
1083.5693635497491
  0
LINE
  8
_0-1_計細線
  6
CONTINUOUS
 62
    3
 10
1456.4717435544067
 20
1087.5693635497491
 11
1454.4717435544064
 21
1085.5693635497491
  0
LINE
  8
_0-1_計細線
  6
CONTINUOUS
 62
    3
 10
1440.4717438605678
 20
1081.5693635497491
 11
1440.4717438605678
 21
1067.5693635497491
  0
ARC
  8
_0-1_計細線
  6
CONTINUOUS
 62
    3
 10
1443.471743860568
 20
1067.5693635497491
 40
3.0000000000000004
 50
179.99999999999983
 51
269.99999999999977
  0
LINE
  8
_0-1_計細線
  6
CONTINUOUS
 62
    3
 10
1443.471743860568
 20
1064.5693635497491
 11
1453.4717435544064
 21
1064.5693635497491
  0
LINE
  8
_0-1_計細線
  6
CONTINUOUS
 62
    3
 10
1456.4717435544067
 20
1081.5693635497491
 11
1456.4717435544067
 21
1067.5693635497491
  0
ARC
  8
_0-1_計細線
  6
CONTINUOUS
 62
    3
 10
1453.4717435544064
 20
1067.5693635497491
 40
3.0000000000000004
 50
269.99999999999977
 51
359.99999999999966
  0
LINE
  8
_0-1_計細線
  6
CONTINUOUS
 62
    3
 10
1442.471743860568
 20
1099.5693635497491
 11
1454.4717435544064
 21
1099.5693635497491
  0
LINE
  8
_0-1_計細線
  6
CONTINUOUS
 62
    3
 10
1456.4717435544067
 20
1097.5693635497491
 11
1454.4717435544064
 21
1099.5693635497491
  0
LINE
  8
_0-1_計細線
  6
CONTINUOUS
 62
    3
 10
1025.4717435544064
 20
1087.5819623971793
 11
1440.4717438605678
 21
1087.5819623971793
  0
LINE
  8
_0-0_計極細
  6
CENTER1
 62
    2
 10
1879.4717437074871
 20
1059.7864818240105
 11
1879.4717437074871
 21
1104.840181901548
  0
LINE
  8
_0-1_計細線
  6
CONTINUOUS
 62
    3
 10
1873.471743860568
 20
1099.5693635497491
 11
1871.471743860568
 21
1097.5693635497491
  0
LINE
  8
_0-1_計細線
  6
CONTINUOUS
 62
    3
 10
1871.471743860568
 20
1087.5693635497491
 11
1871.471743860568
 21
1097.5693635497491
  0
LINE
  8
_0-1_計細線
  6
CONTINUOUS
 62
    3
 10
1887.4717435544064
 20
1087.5693635497491
 11
1887.4717435544064
 21
1097.5693635497491
  0
LINE
  8
_0-1_計細線
  6
CONTINUOUS
 62
    3
 10
1873.471743860568
 20
1083.5693635497491
 11
1871.471743860568
 21
1081.5693635497491
  0
LINE
  8
_0-1_計細線
  6
CONTINUOUS
 62
    3
 10
1873.471743860568
 20
1085.5693635497491
 11
1873.471743860568
 21
1083.5693635497491
  0
LINE
  8
_0-1_計細線
  6
CONTINUOUS
 62
    3
 10
1871.471743860568
 20
1087.5693635497491
 11
1873.471743860568
 21
1085.5693635497491
  0
LINE
  8
_0-1_計細線
  6
CONTINUOUS
 62
    3
 10
1885.4717435544067
 20
1083.5693635497491
 11
1887.4717435544064
 21
1081.5693635497491
  0
LINE
  8
_0-1_計細線
  6
CONTINUOUS
 62
    3
 10
1885.4717435544067
 20
1085.5693635497491
 11
1885.4717435544067
 21
1083.5693635497491
  0
LINE
  8
_0-1_計細線
  6
CONTINUOUS
 62
    3
 10
1887.4717435544064
 20
1087.5693635497491
 11
1885.4717435544067
 21
1085.5693635497491
  0
LINE
  8
_0-1_計細線
  6
CONTINUOUS
 62
    3
 10
1871.471743860568
 20
1081.5693635497491
 11
1871.471743860568
 21
1067.5693635497491
  0
ARC
  8
_0-1_計細線
  6
CONTINUOUS
 62
    3
 10
1874.4717438605678
 20
1067.5693635497491
 40
3.0000000000000004
 50
179.99999999999983
 51
269.99999999999977
  0
LINE
  8
_0-1_計細線
  6
CONTINUOUS
 62
    3
 10
1874.4717438605678
 20
1064.5693635497491
 11
1884.4717435544067
 21
1064.5693635497491
  0
LINE
  8
_0-1_計細線
  6
CONTINUOUS
 62
    3
 10
1887.4717435544064
 20
1081.5693635497491
 11
1887.4717435544064
 21
1067.5693635497491
  0
ARC
  8
_0-1_計細線
  6
CONTINUOUS
 62
    3
 10
1884.4717435544067
 20
1067.5693635497491
 40
3.0000000000000004
 50
269.99999999999977
 51
359.99999999999966
  0
LINE
  8
_0-1_計細線
  6
CONTINUOUS
 62
    3
 10
1873.471743860568
 20
1099.5693635497491
 11
1885.4717435544067
 21
1099.5693635497491
  0
LINE
  8
_0-1_計細線
  6
CONTINUOUS
 62
    3
 10
1887.4717435544064
 20
1097.5693635497491
 11
1885.4717435544067
 21
1099.5693635497491
  0
LINE
  8
_0-1_計細線
  6
CONTINUOUS
 62
    3
 10
1887.4717435544064
 20
1087.5819623971793
 11
2266.4717437074869
 21
1087.5819623971793
  0
LINE
  8
_0-1_計細線
  6
CONTINUOUS
 62
    3
 10
1456.4717435544067
 20
1087.5819623971793
 11
1871.471743860568
 21
1087.5819623971793
  0
LINE
  8
_0-0_計極細
  6
DASHED2
 62
    2
 10
2310.4717437074869
 20
1059.7864818240105
 11
2310.4717437074869
 21
1104.840181901548
  0
LINE
  8
_0-1_計細線
  6
DASHED2
 62
    3
 10
2318.4717435544062
 20
1097.5693635497491
 11
2316.4717435544062
 21
1099.5693635497491
  0
LINE
  8
_0-1_計細線
  6
DASHED2
 62
    3
 10
2304.4717438605676
 20
1099.5693635497491
 11
2316.4717435544062
 21
1099.5693635497491
  0
ARC
  8
_0-1_計細線
  6
DASHED2
 62
    3
 10
2315.4717435544062
 20
1067.5693635497491
 40
3.0000000000000004
 50
269.99999999999977
 51
359.99999999999966
  0
LINE
  8
_0-1_計細線
  6
DASHED2
 62
    3
 10
2318.4717435544062
 20
1081.5693635497491
 11
2318.4717435544062
 21
1067.5693635497491
  0
LINE
  8
_0-1_計細線
  6
DASHED2
 62
    3
 10
2305.4717438605676
 20
1064.5693635497491
 11
2315.4717435544062
 21
1064.5693635497491
  0
ARC
  8
_0-1_計細線
  6
DASHED2
 62
    3
 10
2305.4717438605676
 20
1067.5693635497491
 40
3.0000000000000004
 50
179.99999999999983
 51
269.99999999999977
  0
LINE
  8
_0-1_計細線
  6
DASHED2
 62
    3
 10
2302.4717438605676
 20
1081.5693635497491
 11
2302.4717438605676
 21
1067.5693635497491
  0
LINE
  8
_0-1_計細線
  6
DASHED2
 62
    3
 10
2318.4717435544062
 20
1087.5693635497491
 11
2316.4717435544062
 21
1085.5693635497491
  0
LINE
  8
_0-1_計細線
  6
DASHED2
 62
    3
 10
2316.4717435544062
 20
1085.5693635497491
 11
2316.4717435544062
 21
1083.5693635497491
  0
LINE
  8
_0-1_計細線
  6
DASHED2
 62
    3
 10
2316.4717435544062
 20
1083.5693635497491
 11
2318.4717435544062
 21
1081.5693635497491
  0
LINE
  8
_0-1_計細線
  6
DASHED2
 62
    3
 10
2302.4717438605676
 20
1087.5693635497491
 11
2304.4717438605676
 21
1085.5693635497491
  0
LINE
  8
_0-1_計細線
  6
DASHED2
 62
    3
 10
2304.4717438605676
 20
1085.5693635497491
 11
2304.4717438605676
 21
1083.5693635497491
  0
LINE
  8
_0-1_計細線
  6
DASHED2
 62
    3
 10
2304.4717438605676
 20
1083.5693635497491
 11
2302.4717438605676
 21
1081.5693635497491
  0
LINE
  8
_0-1_計細線
  6
DASHED2
 62
    3
 10
2318.4717435544062
 20
1087.5693635497491
 11
2318.4717435544062
 21
1097.5693635497491
  0
LINE
  8
_0-1_計細線
  6
DASHED2
 62
    3
 10
2302.4717438605676
 20
1087.5693635497491
 11
2302.4717438605676
 21
1097.5693635497491
  0
LINE
  8
_0-1_計細線
  6
DASHED2
 62
    3
 10
2304.4717438605676
 20
1099.5693635497491
 11
2302.4717438605676
 21
1097.5693635497491
  0
LINE
  8
_0-1_計細線
  6
CONTINUOUS
 62
    3
 10
2266.4717437074869
 20
1100.5819623971784
 11
2333.9717437074869
 21
1100.5819623971784
  0
LINE
  8
_0-1_計細線
  6
CONTINUOUS
 62
    3
 10
2266.4717437074869
 20
1106.5819623971793
 11
2333.9717437074869
 21
1106.5819623971793
  0
LINE
  8
_0-1_計細線
  6
CONTINUOUS
 62
    3
 10
2266.4717437074869
 20
1088.5819623971793
 11
2333.9717437074869
 21
1088.5819623971793
  0
LINE
  8
_0-1_計細線
  6
CONTINUOUS
 62
    3
 10
2333.9717437074869
 20
1106.5819623971793
 11
2333.9717437074869
 21
1088.5819623971793
  0
LINE
  8
_0-5_寸法線
  6
CONTINUOUS
 62
    7
 10
550.47174370748735
 20
1127.5819623971793
 11
550.4717437074894
 21
1217.5819623971793
  0
LINE
  8
_0-5_寸法線
  6
CONTINUOUS
 62
    7
 10
550.47174370748917
 20
1207.5819623971793
 11
569.79026023327049
 21
1212.7583432992296
  0
LINE
  8
_0-5_寸法線
  6
CONTINUOUS
 62
    7
 10
550.47174370748917
 20
1207.5819623971793
 11
569.79026023327049
 21
1202.4055814951289
  0
LINE
  8
_0-5_寸法線
  6
CONTINUOUS
 62
    7
 10
586.47174370748758
 20
1127.5819623971793
 11
586.47174370748962
 21
1217.5819623971793
  0
LINE
  8
_0-5_寸法線
  6
CONTINUOUS
 62
    7
 10
586.4717437074894
 20
1207.5819623971793
 11
567.15322718170796
 21
1202.4055814951289
  0
LINE
  8
_0-5_寸法線
  6
CONTINUOUS
 62
    7
 10
586.4717437074894
 20
1207.5819623971793
 11
567.15322718170808
 21
1212.7583432992296
  0
LINE
  8
_0-5_寸法線
  6
CONTINUOUS
 62
    7
 10
550.47174370748917
 20
1207.5819623971793
 11
586.4717437074894
 21
1207.5819623971793
  0
TEXT
  8
_0-5_寸法線
 62
    7
 10
553.47174370749053
 20
1207.5819623971793
 40
30
 41
1
 50
0
  1
36
  0
LINE
  8
_0-5_寸法線
  6
CONTINUOUS
 62
    7
 10
586.4717437074894
 20
1207.5819623971793
 11
605.79026023327083
 21
1212.7583432992296
  0
LINE
  8
_0-5_寸法線
  6
CONTINUOUS
 62
    7
 10
586.4717437074894
 20
1207.5819623971793
 11
605.79026023327071
 21
1202.4055814951289
  0
LINE
  8
_0-5_寸法線
  6
CONTINUOUS
 62
    7
 10
2310.4717437074873
 20
1127.5819623971793
 11
2310.4717437074892
 21
1217.5819623971793
  0
LINE
  8
_0-5_寸法線
  6
CONTINUOUS
 62
    7
 10
2310.4717437074892
 20
1207.5819623971793
 11
2291.1532271817077
 21
1202.4055814951289
  0
LINE
  8
_0-5_寸法線
  6
CONTINUOUS
 62
    7
 10
2310.4717437074892
 20
1207.5819623971793
 11
2291.1532271817077
 21
1212.7583432992296
  0
LINE
  8
_0-5_寸法線
  6
CONTINUOUS
 62
    7
 10
586.4717437074894
 20
1207.5819623971793
 11
2310.4717437074892
 21
1207.5819623971793
  0
TEXT
  8
_0-5_寸法線
 62
    7
 10
1373.4717437074912
 20
1207.5819623971793
 40
30
 41
1
 50
0
  1
4@431=1724
  0
LINE
  8
_0-5_寸法線
  6
CONTINUOUS
 62
    7
 10
2310.4717437074892
 20
1207.5819623971793
 11
2329.7902602332706
 21
1212.7583432992296
  0
LINE
  8
_0-5_寸法線
  6
CONTINUOUS
 62
    7
 10
2310.4717437074892
 20
1207.5819623971793
 11
2329.7902602332706
 21
1202.4055814951289
  0
LINE
  8
_0-5_寸法線
  6
CONTINUOUS
 62
    7
 10
2346.4717437074878
 20
1127.5819623971793
 11
2346.4717437074892
 21
1217.5819623971793
  0
LINE
  8
_0-5_寸法線
  6
CONTINUOUS
 62
    7
 10
2346.4717437074892
 20
1207.5819623971793
 11
2327.1532271817077
 21
1202.4055814951289
  0
LINE
  8
_0-5_寸法線
  6
CONTINUOUS
 62
    7
 10
2346.4717437074892
 20
1207.5819623971793
 11
2327.1532271817077
 21
1212.7583432992296
  0
LINE
  8
_0-5_寸法線
  6
CONTINUOUS
 62
    7
 10
2310.4717437074892
 20
1207.5819623971793
 11
2346.4717437074892
 21
1207.5819623971793
  0
TEXT
  8
_0-5_寸法線
 62
    7
 10
2313.4717437074905
 20
1207.581962397179
 40
30
 41
1
 50
0
  1
36
  0
LINE
  8
_0-0_計極細
  6
CENTER2
 62
    2
 10
2266.4717437074869
 20
1571.7873267792788
 11
2266.4717437074869
 21
931.41797191716591
  0
LINE
  8
_0-7_枠細線
  6
CONTINUOUS
 62
    5
 10
2654.942907199716
 20
660.63857392225259
 11
2654.942907199716
 21
450.63857392225316
  0
TEXT
  8
_0-7_枠細線
 62
    5
 10
2472.9429071997179
 20
620.63857392225259
 40
30.000000000000004
 41
0.8
 50
0
  1
ノンスリップ
  0
LINE
  8
_0-7_枠細線
  6
CONTINUOUS
 62
    5
 10
2454.7983238753959
 20
515.14411722273564
 11
2644.559297189754
 21
515.14411722273564
  0
LINE
  8
_0-7_枠細線
  6
CONTINUOUS
 62
    5
 10
2447.3279372094748
 20
548.47745055273606
 11
2637.0889105238343
 21
548.47745055273606
  0
ARC
  8
_0-7_枠細線
  6
CONTINUOUS
 62
    5
 10
2476.6095738732147
 20
525.14411722173577
 40
6.6666666659999994
 50
51.317813000001465
 51
203.57817800000373
  0
ARC
  8
_0-7_枠細線
  6
CONTINUOUS
 62
    5
 10
2484.9429072057146
 20
535.55244722069517
 40
6.6666666659999994
 50
231.31781300000716
 51
308.68218699999511
  0
LINE
  8
_0-7_枠細線
  6
CONTINUOUS
 62
    5
 10
2470.4994738738269
 20
522.47745055533585
 11
2499.3863405376032
 21
522.47745055533585
  0
ARC
  8
_0-7_枠細線
  6
CONTINUOUS
 62
    5
 10
2493.2762405382155
 20
525.14411722173577
 40
6.6666666659999994
 50
336.4218219999924
 51
128.68218700000429
  0
ARC
  8
_0-7_枠細線
  6
CONTINUOUS
 62
    5
 10
2536.6095738672157
 20
538.47745055373593
 40
6.6666666659999994
 50
156.42182200000036
 51
308.68218699998903
  0
ARC
  8
_0-7_枠細線
  6
CONTINUOUS
 62
    5
 10
2544.9429071997147
 20
528.06912055477653
 40
6.6666666659999994
 50
51.317813000001465
 51
128.68218699999852
  0
ARC
  8
_0-7_枠細線
  6
CONTINUOUS
 62
    5
 10
2553.276240532216
 20
538.47745055373593
 40
6.6666666659999994
 50
231.31781299999807
 51
23.578178000003977
  0
LINE
  8
_0-7_枠細線
  6
CONTINUOUS
 62
    5
 10
2530.499473867827
 20
541.14411722013585
 11
2559.3863405316033
 21
541.14411722013585
  0
LINE
  8
_0-7_枠細線
  6
CONTINUOUS
 62
    5
 10
2590.4994738618275
 20
522.47745055533585
 11
2619.3863405256034
 21
522.47745055533585
  0
ARC
  8
_0-7_枠細線
  6
CONTINUOUS
 62
    5
 10
2596.6095738612148
 20
525.14411722173577
 40
6.6666666659999994
 50
51.317813000001465
 51
203.57817800000373
  0
ARC
  8
_0-7_枠細線
  6
CONTINUOUS
 62
    5
 10
2604.9429071937152
 20
535.55244722069517
 40
6.6666666659999994
 50
231.31781300000111
 51
308.68218699999204
  0
ARC
  8
_0-7_枠細線
  6
CONTINUOUS
 62
    5
 10
2613.2762405262151
 20
525.14411722173577
 40
6.6666666659999994
 50
336.42182199999553
 51
128.68218699999818
  0
ARC
  8
_0-7_枠細線
  6
CONTINUOUS
 62
    5
 10
2536.6095738672157
 20
538.47745055373593
 40
12.43333333209006
 50
151.14636799999636
 51
308.68218700000415
  0
LINE
  8
_0-7_枠細線
  6
CONTINUOUS
 62
    5
 10
2446.5953972095494
 20
544.4774505531359
 11
2525.7197738683026
 21
544.4774505531359
  0
LINE
  8
_0-7_枠細線
  6
CONTINUOUS
 62
    5
 10
2504.1660438704585
 20
519.14411722233581
 11
2585.7197738623058
 21
519.14411722233581
  0
ARC
  8
_0-7_枠細線
  6
CONTINUOUS
 62
    5
 10
2438.383703877038
 20
520.21729388889469
 40
17.180713331615152
 50
317.56162900000061
 51
42.438371000003109
  0
ARC
  8
_0-7_枠細線
  6
CONTINUOUS
 62
    5
 10
2476.6095738732147
 20
525.14411722173577
 40
12.43333333209006
 50
51.317812999992242
 51
208.85363199999873
  0
ARC
  8
_0-7_枠細線
  6
CONTINUOUS
 62
    5
 10
2463.7425605411672
 20
543.40427388657645
 40
17.180713331615152
 50
137.56162899999856
 51
222.43837100000107
  0
LINE
  8
_0-7_枠細線
  6
CONTINUOUS
 62
    5
 10
2455.5308672086562
 20
519.14411722233581
 11
2465.7197738743025
 21
519.14411722233581
  0
ARC
  8
_0-7_枠細線
  6
CONTINUOUS
 62
    5
 10
2484.9429072057146
 20
535.55244722069517
 40
0.899999999909939
 50
231.31781300006065
 51
308.68218699998386
  0
ARC
  8
_0-7_枠細線
  6
CONTINUOUS
 62
    5
 10
2493.2762405382155
 20
525.14411722173577
 40
12.43333333209006
 50
331.14636800000056
 51
128.6821870000058
  0
ARC
  8
_0-7_枠細線
  6
CONTINUOUS
 62
    5
 10
2628.144677191397
 20
520.21729388889469
 40
17.180713331615152
 50
317.56162899999754
 51
42.438371000003109
  0
ARC
  8
_0-7_枠細線
  6
CONTINUOUS
 62
    5
 10
2653.5035338555276
 20
543.40427388657645
 40
17.180713331615152
 50
137.56162900000368
 51
222.438370999998
  0
LINE
  8
_0-7_枠細線
  6
CONTINUOUS
 62
    5
 10
2624.1660438584586
 20
519.14411722233581
 11
2645.2918405230148
 21
519.14411722233581
  0
LINE
  8
_0-7_枠細線
  6
CONTINUOUS
 62
    5
 10
2564.1660438644594
 20
544.4774505531359
 11
2636.3563705239085
 21
544.4774505531359
  0
ARC
  8
_0-7_枠細線
  6
CONTINUOUS
 62
    5
 10
2596.6095738612148
 20
525.14411722173577
 40
12.43333333209006
 50
51.317812999990608
 51
208.85363200000532
  0
ARC
  8
_0-7_枠細線
  6
CONTINUOUS
 62
    5
 10
2544.9429071997147
 20
528.06912055477653
 40
0.899999999909939
 50
51.317812999970606
 51
128.68218700000679
  0
ARC
  8
_0-7_枠細線
  6
CONTINUOUS
 62
    5
 10
2553.276240532216
 20
538.47745055373593
 40
12.43333333209006
 50
231.31781299998696
 51
28.853631999996409
  0
ARC
  8
_0-7_枠細線
  6
CONTINUOUS
 62
    5
 10
2604.9429071937152
 20
535.55244722069517
 40
0.899999999909939
 50
231.31781299999287
 51
308.68218699996123
  0
ARC
  8
_0-7_枠細線
  6
CONTINUOUS
 62
    5
 10
2613.2762405262151
 20
525.14411722173577
 40
12.43333333209006
 50
331.14636800000056
 51
128.68218700000412
  0
LINE
  8
_0-7_枠細線
  6
CENTER1
 62
    5
 10
2484.9429072057146
 20
551.27702721912215
 11
2484.9429072057146
 21
512.58073055632565
  0
LINE
  8
_0-7_枠細線
  6
CENTER1
 62
    5
 10
2604.9429071937152
 20
551.27702721912215
 11
2604.9429071937152
 21
512.58073055632565
  0
LINE
  8
_0-7_枠細線
  6
CENTER1
 62
    5
 10
2544.9429071997147
 20
551.27702721912215
 11
2544.9429071997147
 21
512.58073055632565
  0
LINE
  8
_0-7_枠細線
  6
CONTINUOUS
 62
    5
 10
2484.9429072057146
 20
505.14411722273564
 11
2484.9429072057146
 21
455.14411722273564
  0
LINE
  8
_0-7_枠細線
  6
CONTINUOUS
 62
    5
 10
2484.9429072057146
 20
465.14411722273564
 11
2504.2614237314961
 21
470.32049812478613
  0
LINE
  8
_0-7_枠細線
  6
CONTINUOUS
 62
    5
 10
2484.9429072057146
 20
465.14411722273564
 11
2504.2614237314961
 21
459.96773632068528
  0
LINE
  8
_0-7_枠細線
  6
CONTINUOUS
 62
    5
 10
2544.9429071997147
 20
505.14411722273564
 11
2544.9429071997147
 21
455.14411722273564
  0
LINE
  8
_0-7_枠細線
  6
CONTINUOUS
 62
    5
 10
2544.9429071997147
 20
465.14411722273564
 11
2525.6243906739332
 21
459.96773632068533
  0
LINE
  8
_0-7_枠細線
  6
CONTINUOUS
 62
    5
 10
2544.9429071997147
 20
465.14411722273564
 11
2525.6243906739332
 21
470.32049812478618
  0
LINE
  8
_0-7_枠細線
  6
CONTINUOUS
 62
    5
 10
2484.9429072057146
 20
465.14411722273564
 11
2544.9429071997147
 21
465.14411722273564
  0
TEXT
  8
_0-7_枠細線
 62
    5
 10
2499.9429072027151
 20
465.14411722273564
 40
30
 41
1
 50
0
  1
18
  0
LINE
  8
_0-7_枠細線
  6
CONTINUOUS
 62
    5
 10
2544.9429071997147
 20
465.14411722273564
 11
2564.2614237254966
 21
470.32049812478596
  0
LINE
  8
_0-7_枠細線
  6
CONTINUOUS
 62
    5
 10
2544.9429071997147
 20
465.14411722273564
 11
2564.2614237254966
 21
459.96773632068511
  0
LINE
  8
_0-7_枠細線
  6
CONTINUOUS
 62
    5
 10
2604.9429071937152
 20
505.14411722273564
 11
2604.9429071937152
 21
455.14411722273564
  0
LINE
  8
_0-7_枠細線
  6
CONTINUOUS
 62
    5
 10
2604.9429071937152
 20
465.14411722273564
 11
2585.6243906679338
 21
459.96773632068533
  0
LINE
  8
_0-7_枠細線
  6
CONTINUOUS
 62
    5
 10
2604.9429071937152
 20
465.14411722273564
 11
2585.6243906679338
 21
470.32049812478618
  0
LINE
  8
_0-7_枠細線
  6
CONTINUOUS
 62
    5
 10
2544.9429071997147
 20
465.14411722273564
 11
2604.9429071937152
 21
465.14411722273564
  0
TEXT
  8
_0-7_枠細線
 62
    5
 10
2559.9429071967152
 20
465.14411722273564
 40
30
 41
1
 50
0
  1
18
  0
TEXT
  8
_0-7_枠細線
 62
    5
 10
2496.9429071997165
 20
570.63857392225316
 40
30.000000000000004
 41
0.7999999999999997
 50
0
  1
品番－Ｄ
  0
LINE
  8
_0-7_枠細線
  6
CONTINUOUS
 62
    5
 10
2434.9429071997156
 20
660.63857392225259
 11
2434.9429071997156
 21
450.63857392225316
  0
TEXT
  8
_0-7_枠細線
 62
    5
 10
2276.9429071997147
 20
620.63857392225316
 40
30.000000000000004
 41
0.8
 50
0
  1
プレーン
  0
LINE
  8
_0-7_枠細線
  6
CONTINUOUS
 62
    5
 10
2233.7976122088285
 20
515.14411722273564
 11
2423.5585855231875
 21
515.14411722273564
  0
LINE
  8
_0-7_枠細線
  6
CONTINUOUS
 62
    5
 10
2226.3272255429083
 20
548.47745055273606
 11
2416.0881988572683
 21
548.47745055273606
  0
ARC
  8
_0-7_枠細線
  6
CONTINUOUS
 62
    5
 10
2407.1439655248278
 20
520.21729388889469
 40
17.180713331615152
 50
317.56162900000447
 51
42.438370999996238
  0
ARC
  8
_0-7_枠細線
  6
CONTINUOUS
 62
    5
 10
2217.3829922104715
 20
520.21729388889469
 40
17.180713331615344
 50
317.56162899999958
 51
42.438371000002498
  0
LINE
  8
_0-7_枠細線
  6
CONTINUOUS
 62
    5
 10
2225.5946855429829
 20
544.4774505531359
 11
2415.355658857342
 21
544.4774505531359
  0
LINE
  8
_0-7_枠細線
  6
CONTINUOUS
 62
    5
 10
2234.5301555420892
 20
519.14411722233581
 11
2424.2911288564474
 21
519.14411722233581
  0
ARC
  8
_0-7_枠細線
  6
CONTINUOUS
 62
    5
 10
2242.7418488746034
 20
543.40427388657645
 40
17.180713331615344
 50
137.56162899999856
 51
222.43837100000312
  0
ARC
  8
_0-7_枠細線
  6
CONTINUOUS
 62
    5
 10
2432.5028221889602
 20
543.40427388657645
 40
17.180713331615152
 50
137.56162899999958
 51
222.43837100000005
  0
TEXT
  8
_0-7_枠細線
 62
    5
 10
2276.9429071997174
 20
570.63857392225316
 40
30.000000000000004
 41
0.7999999999999997
 50
0
  1
品番－Ｆ
  0
TEXT
  8
_0-7_枠細線
 62
    5
 10
2116.9429071997156
 20
620.63857392225259
 40
30.000000000000004
 41
0.8
 50
0
  1
タ イ プ
  0
LINE
  8
_0-7_枠細線
  6
CONTINUOUS
 62
    5
 10
2114.9429071997147
 20
560.63857392225316
 11
2654.942907199716
 21
560.63857392225316
  0
LINE
  8
_0-7_枠細線
  6
CONTINUOUS
 62
    5
 10
2114.9429071997147
 20
610.63857392225259
 11
2654.942907199716
 21
610.63857392225259
  0
LINE
  8
_0-7_枠細線
  6
CONTINUOUS
 62
    5
 10
2114.9429071997147
 20
660.63857392225259
 11
2654.942907199716
 21
660.63857392225259
  0
LINE
  8
_0-7_枠細線
  6
CONTINUOUS
 62
    5
 10
2114.9429071997147
 20
450.63857392225316
 11
2654.942907199716
 21
450.63857392225316
  0
LINE
  8
_0-7_枠細線
  6
CONTINUOUS
 62
    5
 10
2214.942907199716
 20
660.63857392225259
 11
2214.942907199716
 21
450.63857392225316
  0
LINE
  8
_0-7_枠細線
  6
CONTINUOUS
 62
    5
 10
2114.9429071997147
 20
660.63857392225259
 11
2114.9429071997147
 21
450.63857392225316
  0
TEXT
  8
_0-7_枠細線
 62
    5
 10
2116.9429071997156
 20
490.63857392225316
 40
30.000000000000004
 41
0.8
 50
0
  1
表面形状
  0
TEXT
  8
_0-7_枠細線
 62
    5
 10
2116.9429071997156
 20
570.63857392225316
 40
30.000000000000004
 41
0.8
 50
0
  1
記　　号
  0
TEXT
  8
_0-7_枠細線
 62
    5
 10
2118.0615087558635
 20
665.63857392225316
 40
35.000000000000007
 41
0.7999999999999996
 50
0
  1
記号表
  0
LINE
  8
_1-2_極細2
  6
CONTINUOUS
 62
    2
 10
1782.4749279905532
 20
460.16760725389275
 11
1752.4749279905539
 21
460.16760725389275
  0
LINE
  8
_1-2_極細2
  6
CONTINUOUS
 62
    2
 10
1309.1415946572201
 20
460.16760725389275
 11
1339.1415946572197
 21
460.16760725389275
  0
LINE
  8
_1-2_極細2
  6
CONTINUOUS
 62
    2
 10
1785.8082613238857
 20
436.83427392055904
 11
1785.8082613238867
 21
463.5009405872259
  0
LINE
  8
_1-2_極細2
  6
CONTINUOUS
 62
    2
 10
1305.8082613238867
 20
436.83427392055961
 11
1305.8082613238867
 21
463.5009405872259
  0
LINE
  8
_1-2_極細2
  6
CONTINUOUS
 62
    2
 10
1305.8082613238867
 20
463.5009405872259
 11
1342.4749279905532
 21
463.5009405872259
  0
LINE
  8
_1-2_極細2
  6
CONTINUOUS
 62
    2
 10
1749.1415946572204
 20
463.5009405872259
 11
1785.8082613238867
 21
463.5009405872259
  0
LINE
  8
_1-2_極細2
  6
CONTINUOUS
 62
    2
 10
1342.4749279905532
 20
400.16760725389219
 11
1342.4749279905532
 21
463.5009405872259
  0
LINE
  8
_1-2_極細2
  6
CONTINUOUS
 62
    2
 10
1309.1415946572201
 20
436.83427392055961
 11
1309.1415946572201
 21
460.16760725389275
  0
LINE
  8
_1-2_極細2
  6
CONTINUOUS
 62
    2
 10
1305.8082613238867
 20
436.83427392055961
 11
1309.1415946572201
 21
436.83427392055961
  0
LINE
  8
_1-2_極細2
  6
CONTINUOUS
 62
    2
 10
1782.4749279905529
 20
436.83427392055904
 11
1782.4749279905532
 21
460.16760725389275
  0
LINE
  8
_1-2_極細2
  6
CONTINUOUS
 62
    2
 10
1782.4749279905529
 20
436.83427392055904
 11
1785.8082613238857
 21
436.83427392055904
  0
LINE
  8
_1-2_極細2
  6
CONTINUOUS
 62
    2
 10
1749.1415946572204
 20
400.16760725389219
 11
1342.4749279905532
 21
400.16760725389219
  0
LINE
  8
_1-2_極細2
  6
CONTINUOUS
 62
    2
 10
1749.1415946572204
 20
400.16760725389219
 11
1749.1415946572204
 21
463.5009405872259
  0
LINE
  8
_1-2_極細2
  6
CONTINUOUS
 62
    2
 10
1752.4749279905539
 20
460.16760725389275
 11
1752.4749279905539
 21
396.83427392055904
  0
LINE
  8
_1-2_極細2
  6
CONTINUOUS
 62
    2
 10
1752.4749279905539
 20
396.83427392055904
 11
1339.1415946572197
 21
396.83427392055904
  0
LINE
  8
_1-2_極細2
  6
CONTINUOUS
 62
    2
 10
1339.1415946572197
 20
460.16760725389275
 11
1339.1415946572197
 21
396.83427392055904
  0
LINE
  8
_1-3_細線2
  6
CONTINUOUS
 62
    4
 10
1713.9749279905532
 20
432.11760772323629
 11
1713.9749279905532
 21
418.88427438990249
  0
LINE
  8
_1-3_細線2
  6
CONTINUOUS
 62
    4
 10
1584.3082613238869
 20
456.16760772323602
 11
1558.9749279905552
 21
456.16760772323602
  0
LINE
  8
_1-3_細線2
  6
CONTINUOUS
 62
    4
 10
1558.9749279905552
 20
456.16760772323602
 11
1558.9749279905552
 21
406.83427438990265
  0
LINE
  8
_1-3_細線2
  6
CONTINUOUS
 62
    4
 10
1713.9749279905532
 20
456.16760772323602
 11
1713.9749279905532
 21
406.83427438990265
  0
LINE
  8
_1-3_細線2
  6
CONTINUOUS
 62
    4
 10
1635.974927990552
 20
456.16760772323602
 11
1610.6415946572204
 21
456.16760772323602
  0
LINE
  8
_1-3_細線2
  6
CONTINUOUS
 62
    4
 10
1687.6415946572185
 20
456.16760772323602
 11
1662.3082613238855
 21
456.16760772323602
  0
LINE
  8
_1-3_細線2
  6
CONTINUOUS
 62
    4
 10
1739.3082613238857
 20
456.16760772323602
 11
1713.9749279905532
 21
456.16760772323602
  0
LINE
  8
_1-3_細線2
  6
CONTINUOUS
 62
    4
 10
1662.3082613238855
 20
456.16760772323602
 11
1662.3082613238855
 21
406.83427438990265
  0
LINE
  8
_1-3_細線2
  6
CONTINUOUS
 62
    4
 10
1610.6415946572204
 20
456.16760772323602
 11
1610.6415946572204
 21
406.83427438990265
  0
LINE
  8
_1-3_細線2
  6
CONTINUOUS
 62
    4
 10
1507.3082613238873
 20
456.16760772323602
 11
1532.6415946572206
 21
456.16760772323602
  0
LINE
  8
_1-3_細線2
  6
CONTINUOUS
 62
    4
 10
1532.6415946572206
 20
456.16760772323602
 11
1532.6415946572206
 21
406.83427438990265
  0
LINE
  8
_1-3_細線2
  6
CONTINUOUS
 62
    4
 10
1455.6415946572213
 20
456.16760772323602
 11
1480.9749279905552
 21
456.16760772323602
  0
LINE
  8
_1-3_細線2
  6
CONTINUOUS
 62
    4
 10
1480.9749279905552
 20
456.16760772323602
 11
1480.9749279905552
 21
406.83427438990265
  0
LINE
  8
_1-3_細線2
  6
CONTINUOUS
 62
    4
 10
1377.6415946572231
 20
456.16760772323602
 11
1377.6415946572231
 21
406.83427438990265
  0
LINE
  8
_1-3_細線2
  6
CONTINUOUS
 62
    4
 10
1403.9749279905552
 20
456.16760772323602
 11
1429.3082613238892
 21
456.16760772323602
  0
LINE
  8
_1-3_細線2
  6
CONTINUOUS
 62
    4
 10
1352.3082613238901
 20
456.16760772323602
 11
1377.6415946572231
 21
456.16760772323602
  0
LINE
  8
_1-3_細線2
  6
CONTINUOUS
 62
    4
 10
1429.3082613238892
 20
456.16760772323602
 11
1429.3082613238892
 21
406.83427438990265
  0
ARC
  8
_1-3_細線2
  6
CONTINUOUS
 62
    4
 10
1739.3082613238869
 20
456.16760772323602
 40
3.9999999999999996
 50
0
 51
89.999999999999915
  0
LINE
  8
_1-3_細線2
  6
CONTINUOUS
 62
    4
 10
1709.9749279905523
 20
456.16760772323602
 11
1709.9749279905523
 21
406.83427438990265
  0
LINE
  8
_1-3_細線2
  6
CONTINUOUS
 62
    4
 10
1739.3082613238869
 20
460.16760772323636
 11
1713.9749279905527
 21
460.16760772323636
  0
ARC
  8
_1-3_細線2
  6
CONTINUOUS
 62
    4
 10
1713.9749279905527
 20
456.16760772323602
 40
3.9999999999999996
 50
89.999999999999915
 51
179.99999999999983
  0
ARC
  8
_1-3_細線2
  6
CONTINUOUS
 62
    4
 10
1687.6415946572195
 20
456.16760772323602
 40
3.9999999999999996
 50
0
 51
89.999999999999915
  0
LINE
  8
_1-3_細線2
  6
CONTINUOUS
 62
    4
 10
1658.3082613238867
 20
456.16760772323602
 11
1658.3082613238867
 21
406.83427438990265
  0
LINE
  8
_1-3_細線2
  6
CONTINUOUS
 62
    4
 10
1687.6415946572195
 20
460.16760772323636
 11
1662.3082613238876
 21
460.16760772323636
  0
ARC
  8
_1-3_細線2
  6
CONTINUOUS
 62
    4
 10
1662.3082613238876
 20
456.16760772323602
 40
3.9999999999999996
 50
89.999999999999915
 51
179.99999999999983
  0
ARC
  8
_1-3_細線2
  6
CONTINUOUS
 62
    4
 10
1635.9749279905532
 20
456.16760772323602
 40
3.9999999999999996
 50
0
 51
89.999999999999915
  0
LINE
  8
_1-3_細線2
  6
CONTINUOUS
 62
    4
 10
1606.6415946572195
 20
456.16760772323602
 11
1606.6415946572195
 21
406.83427438990265
  0
LINE
  8
_1-3_細線2
  6
CONTINUOUS
 62
    4
 10
1635.9749279905532
 20
460.16760772323636
 11
1610.6415946572199
 21
460.16760772323636
  0
ARC
  8
_1-3_細線2
  6
CONTINUOUS
 62
    4
 10
1610.6415946572199
 20
456.16760772323602
 40
3.9999999999999996
 50
89.999999999999915
 51
179.99999999999983
  0
ARC
  8
_1-3_細線2
  6
CONTINUOUS
 62
    4
 10
1584.308261323888
 20
456.16760772323602
 40
3.9999999999999996
 50
0
 51
89.999999999999915
  0
LINE
  8
_1-3_細線2
  6
CONTINUOUS
 62
    4
 10
1554.9749279905543
 20
456.16760772323602
 11
1554.9749279905543
 21
406.83427438990265
  0
LINE
  8
_1-3_細線2
  6
CONTINUOUS
 62
    4
 10
1584.308261323888
 20
460.16760772323636
 11
1558.9749279905548
 21
460.16760772323636
  0
ARC
  8
_1-3_細線2
  6
CONTINUOUS
 62
    4
 10
1558.9749279905548
 20
456.16760772323602
 40
3.9999999999999996
 50
89.999999999999915
 51
179.99999999999983
  0
LINE
  8
_1-3_細線2
  6
CONTINUOUS
 62
    4
 10
1536.6415946572215
 20
456.16760772323602
 11
1536.6415946572215
 21
406.83427438990265
  0
ARC
  8
_1-3_細線2
  6
CONTINUOUS
 62
    4
 10
1532.6415946572206
 20
456.16760772323602
 40
3.9999999999999996
 50
0
 51
89.999999999999915
  0
LINE
  8
_1-3_細線2
  6
CONTINUOUS
 62
    4
 10
1507.3082613238867
 20
460.16760772323636
 11
1532.6415946572206
 21
460.16760772323636
  0
ARC
  8
_1-3_細線2
  6
CONTINUOUS
 62
    4
 10
1507.3082613238867
 20
456.16760772323602
 40
3.9999999999999996
 50
89.999999999999915
 51
179.99999999999983
  0
LINE
  8
_1-3_細線2
  6
CONTINUOUS
 62
    4
 10
1484.9749279905552
 20
456.16760772323602
 11
1484.9749279905552
 21
406.83427438990265
  0
ARC
  8
_1-3_細線2
  6
CONTINUOUS
 62
    4
 10
1480.9749279905552
 20
456.16760772323602
 40
3.9999999999999996
 50
0
 51
89.999999999999915
  0
LINE
  8
_1-3_細線2
  6
CONTINUOUS
 62
    4
 10
1455.6415946572206
 20
460.16760772323636
 11
1480.9749279905552
 21
460.16760772323636
  0
ARC
  8
_1-3_細線2
  6
CONTINUOUS
 62
    4
 10
1455.641594657221
 20
456.16760772323602
 40
3.9999999999999996
 50
90.000000000006509
 51
179.99999999999983
  0
LINE
  8
_1-3_細線2
  6
CONTINUOUS
 62
    4
 10
1433.3082613238892
 20
456.16760772323602
 11
1433.3082613238892
 21
406.83427438990265
  0
ARC
  8
_1-3_細線2
  6
CONTINUOUS
 62
    4
 10
1429.3082613238892
 20
456.16760772323602
 40
3.9999999999999996
 50
0
 51
89.999999999999915
  0
LINE
  8
_1-3_細線2
  6
CONTINUOUS
 62
    4
 10
1403.974927990555
 20
460.16760772323636
 11
1429.3082613238892
 21
460.16760772323636
  0
ARC
  8
_1-3_細線2
  6
CONTINUOUS
 62
    4
 10
1403.974927990555
 20
456.16760772323602
 40
3.9999999999999996
 50
89.999999999999915
 51
179.99999999999983
  0
LINE
  8
_1-3_細線2
  6
CONTINUOUS
 62
    4
 10
1381.6415946572215
 20
456.16760772323602
 11
1381.6415946572215
 21
406.83427438990265
  0
ARC
  8
_1-3_細線2
  6
CONTINUOUS
 62
    4
 10
1377.6415946572217
 20
456.16760772323602
 40
3.9999999999999996
 50
0
 51
89.999999999999915
  0
LINE
  8
_1-3_細線2
  6
CONTINUOUS
 62
    4
 10
1352.3082613238889
 20
460.16760772323636
 11
1377.6415946572217
 21
460.16760772323636
  0
ARC
  8
_1-3_細線2
  6
CONTINUOUS
 62
    4
 10
1352.3082613238889
 20
456.16760772323602
 40
3.9999999999999996
 50
89.999999999999915
 51
179.99999999999983
  0
LINE
  8
_1-3_細線2
  6
CONTINUOUS
 62
    4
 10
1377.6415946572231
 20
406.83427438990265
 11
1381.6415946572215
 21
406.83427438990265
  0
LINE
  8
_1-3_細線2
  6
CONTINUOUS
 62
    4
 10
1429.3082613238892
 20
406.83427438990265
 11
1433.3082613238892
 21
406.83427438990265
  0
LINE
  8
_1-3_細線2
  6
CONTINUOUS
 62
    4
 10
1480.9749279905552
 20
406.83427438990265
 11
1484.9749279905552
 21
406.83427438990265
  0
LINE
  8
_1-3_細線2
  6
CONTINUOUS
 62
    4
 10
1532.6415946572206
 20
406.83427438990265
 11
1536.6415946572215
 21
406.83427438990265
  0
LINE
  8
_1-3_細線2
  6
CONTINUOUS
 62
    4
 10
1554.9749279905543
 20
406.83427438990265
 11
1558.9749279905552
 21
406.83427438990265
  0
LINE
  8
_1-3_細線2
  6
CONTINUOUS
 62
    4
 10
1606.6415946572195
 20
406.83427438990265
 11
1610.6415946572204
 21
406.83427438990265
  0
LINE
  8
_1-3_細線2
  6
CONTINUOUS
 62
    4
 10
1658.3082613238867
 20
406.83427438990265
 11
1662.3082613238855
 21
406.83427438990265
  0
LINE
  8
_1-3_細線2
  6
CONTINUOUS
 62
    4
 10
1709.9749279905523
 20
406.83427438990265
 11
1713.9749279905532
 21
406.83427438990265
  0
LINE
  8
_1-3_細線2
  6
CONTINUOUS
 62
    4
 10
1588.3082613238878
 20
440.16760725389219
 11
1584.3082613238869
 21
440.16760725389219
  0
LINE
  8
_1-3_細線2
  6
CONTINUOUS
 62
    4
 10
1743.3082613238867
 20
440.16760725389219
 11
1739.3082613238857
 21
440.16760725389219
  0
LINE
  8
_1-3_細線2
  6
CONTINUOUS
 62
    4
 10
1691.6415946572195
 20
440.16760725389219
 11
1687.6415946572185
 21
440.16760725389219
  0
LINE
  8
_1-3_細線2
  6
CONTINUOUS
 62
    4
 10
1639.9749279905529
 20
440.16760725389219
 11
1635.974927990552
 21
440.16760725389219
  0
LINE
  8
_1-3_細線2
  6
CONTINUOUS
 62
    4
 10
1503.3082613238867
 20
440.16760725389219
 11
1507.3082613238876
 21
440.16760725389219
  0
LINE
  8
_1-3_細線2
  6
CONTINUOUS
 62
    4
 10
1451.6415946572213
 20
440.16760725389219
 11
1455.6415946572222
 21
440.16760725389219
  0
LINE
  8
_1-3_細線2
  6
CONTINUOUS
 62
    4
 10
1348.3082613238892
 20
440.16760725389219
 11
1352.3082613238901
 21
440.16760725389219
  0
LINE
  8
_1-3_細線2
  6
CONTINUOUS
 62
    4
 10
1399.9749279905552
 20
440.16760725389219
 11
1403.9749279905561
 21
440.16760725389219
  0
LINE
  8
_1-3_細線2
  6
CONTINUOUS
 62
    4
 10
1584.3082613238869
 20
456.16760772323602
 11
1584.3082613238869
 21
440.16760725389219
  0
LINE
  8
_1-3_細線2
  6
CONTINUOUS
 62
    4
 10
1687.6415946572185
 20
456.16760772323602
 11
1687.6415946572185
 21
440.16760725389219
  0
LINE
  8
_1-3_細線2
  6
CONTINUOUS
 62
    4
 10
1739.3082613238857
 20
456.16760772323602
 11
1739.3082613238857
 21
440.16760725389219
  0
LINE
  8
_1-3_細線2
  6
CONTINUOUS
 62
    4
 10
1635.974927990552
 20
456.16760772323602
 11
1635.974927990552
 21
440.16760725389219
  0
LINE
  8
_1-3_細線2
  6
CONTINUOUS
 62
    4
 10
1507.3082613238873
 20
456.16760772323602
 11
1507.3082613238876
 21
440.16760725389219
  0
LINE
  8
_1-3_細線2
  6
CONTINUOUS
 62
    4
 10
1455.6415946572213
 20
456.16760772323602
 11
1455.6415946572222
 21
440.16760725389219
  0
LINE
  8
_1-3_細線2
  6
CONTINUOUS
 62
    4
 10
1352.3082613238901
 20
456.16760772323602
 11
1352.3082613238901
 21
440.16760725389219
  0
LINE
  8
_1-3_細線2
  6
CONTINUOUS
 62
    4
 10
1403.9749279905552
 20
456.16760772323602
 11
1403.9749279905561
 21
440.16760725389219
  0
LINE
  8
_1-3_細線2
  6
CONTINUOUS
 62
    4
 10
1743.3082613238867
 20
456.16760772323602
 11
1743.3082613238867
 21
440.16760725389219
  0
LINE
  8
_1-3_細線2
  6
CONTINUOUS
 62
    4
 10
1691.6415946572195
 20
456.16760772323602
 11
1691.6415946572195
 21
440.16760725389219
  0
LINE
  8
_1-3_細線2
  6
CONTINUOUS
 62
    4
 10
1639.9749279905529
 20
456.16760772323602
 11
1639.9749279905529
 21
440.16760725389219
  0
LINE
  8
_1-3_細線2
  6
CONTINUOUS
 62
    4
 10
1588.3082613238878
 20
456.16760772323602
 11
1588.3082613238878
 21
440.16760725389219
  0
LINE
  8
_1-3_細線2
  6
CONTINUOUS
 62
    4
 10
1503.3082613238867
 20
456.16760772323602
 11
1503.3082613238867
 21
440.16760725389219
  0
LINE
  8
_1-3_細線2
  6
CONTINUOUS
 62
    4
 10
1451.6415946572213
 20
456.16760772323602
 11
1451.6415946572213
 21
440.16760725389219
  0
LINE
  8
_1-3_細線2
  6
CONTINUOUS
 62
    4
 10
1399.9749279905552
 20
456.16760772323602
 11
1399.9749279905552
 21
440.16760725389219
  0
LINE
  8
_1-3_細線2
  6
CONTINUOUS
 62
    4
 10
1348.3082613238892
 20
456.16760772323602
 11
1348.3082613238892
 21
440.16760725389219
  0
ARC
  8
_1-3_細線2
  6
CONTINUOUS
 62
    4
 10
1361.6524346572226
 20
407.50094058722681
 40
0.6666666666666669
 50
179.99999999999983
 51
269.99999999999977
  0
LINE
  8
_1-3_細線2
  6
CONTINUOUS
 62
    4
 10
1364.3082613238901
 20
406.83427392055961
 11
1361.6524346572226
 21
406.83427392055961
  0
ARC
  8
_1-3_細線2
  6
CONTINUOUS
 62
    4
 10
1361.6524346572226
 20
439.50094058722613
 40
0.6666666666666669
 50
89.999999999999915
 51
179.99999999999983
  0
LINE
  8
_1-3_細線2
  6
CONTINUOUS
 62
    4
 10
1364.3082613238901
 20
440.16760725389332
 11
1361.6524346572226
 21
440.16760725389332
  0
LINE
  8
_1-3_細線2
  6
CONTINUOUS
 62
    4
 10
1360.9857679905545
 20
421.83427392055961
 11
1360.9857679905545
 21
407.50094058722681
  0
LINE
  8
_1-3_細線2
  6
CONTINUOUS
 62
    4
 10
1360.9857679905545
 20
439.50094058722613
 11
1360.9857679905545
 21
421.83427392055961
  0
ARC
  8
_1-3_細線2
  6
CONTINUOUS
 62
    4
 10
1365.9749279905566
 20
453.5009405872259
 40
1.6666666666666663
 50
89.999999999999915
 51
179.99999999999983
  0
LINE
  8
_1-3_細線2
  6
CONTINUOUS
 62
    4
 10
1375.9749279905566
 20
455.16760725389219
 11
1365.9749279905566
 21
455.16760725389219
  0
ARC
  8
_1-3_細線2
  6
CONTINUOUS
 62
    4
 10
1375.9749279905566
 20
453.5009405872259
 40
1.6666666666666663
 50
0
 51
89.999999999999915
  0
LINE
  8
_1-3_細線2
  6
CONTINUOUS
 62
    4
 10
1364.3082613238901
 20
453.5009405872259
 11
1364.3082613238901
 21
401.83427392055904
  0
ARC
  8
_1-3_細線2
  6
CONTINUOUS
 62
    4
 10
1365.9749279905566
 20
401.83427392055904
 40
1.6666666666666663
 50
179.99999999999983
 51
269.99999999999977
  0
LINE
  8
_1-3_細線2
  6
CONTINUOUS
 62
    4
 10
1365.9749279905566
 20
400.16760725389219
 11
1375.9749279905566
 21
400.16760725389219
  0
LINE
  8
_1-3_細線2
  6
CONTINUOUS
 62
    4
 10
1377.6415946572231
 20
401.83427392055904
 11
1377.6415946572231
 21
453.5009405872259
  0
ARC
  8
_1-3_細線2
  6
CONTINUOUS
 62
    4
 10
1375.9749279905566
 20
401.83427392055904
 40
1.6666666666666663
 50
269.99999999999977
 51
359.99999999999966
  0
LINE
  8
_1-3_細線2
  6
CONTINUOUS
 62
    4
 10
1381.6415946572229
 20
412.00094058722556
 11
1429.3082613238892
 21
412.00094058722556
  0
LINE
  8
_1-3_細線2
  6
CONTINUOUS
 62
    4
 10
1381.6415946572229
 20
435.00094058722567
 11
1429.3082613238892
 21
435.00094058722567
  0
LINE
  8
_1-3_細線2
  6
CONTINUOUS
 62
    4
 10
1433.3082613238903
 20
412.00094058722556
 11
1480.9749279905566
 21
412.00094058722556
  0
LINE
  8
_1-3_細線2
  6
CONTINUOUS
 62
    4
 10
1433.3082613238903
 20
435.00094058722567
 11
1480.9749279905566
 21
435.00094058722567
  0
LINE
  8
_1-3_細線2
  6
CONTINUOUS
 62
    4
 10
1484.9749279905564
 20
412.00094058722556
 11
1532.6415946572226
 21
412.00094058722556
  0
LINE
  8
_1-3_細線2
  6
CONTINUOUS
 62
    4
 10
1484.9749279905564
 20
435.00094058722567
 11
1532.6415946572226
 21
435.00094058722567
  0
LINE
  8
_1-3_細線2
  6
CONTINUOUS
 62
    4
 10
1536.641594657222
 20
435.00094058722567
 11
1554.9749279905543
 21
435.00094058722567
  0
LINE
  8
_1-3_細線2
  6
CONTINUOUS
 62
    4
 10
1536.641594657222
 20
412.00094058722556
 11
1554.9749279905543
 21
412.00094058722556
  0
ARC
  8
_1-3_細線2
  6
CONTINUOUS
 62
    4
 10
1729.9640883307193
 20
407.50094058722681
 40
0.6666666666666669
 50
269.99999999999977
 51
359.99999999999966
  0
LINE
  8
_1-3_細線2
  6
CONTINUOUS
 62
    4
 10
1727.3082616640522
 20
406.83427392055961
 11
1729.9640883307193
 21
406.83427392055961
  0
ARC
  8
_1-3_細線2
  6
CONTINUOUS
 62
    4
 10
1729.9640883307193
 20
439.50094058722613
 40
0.6666666666666669
 50
0
 51
89.999999999999915
  0
LINE
  8
_1-3_細線2
  6
CONTINUOUS
 62
    4
 10
1727.3082616640522
 20
440.16760725389332
 11
1729.9640883307193
 21
440.16760725389332
  0
LINE
  8
_1-3_細線2
  6
CONTINUOUS
 62
    4
 10
1730.6307549973872
 20
421.83427392055961
 11
1730.6307549973872
 21
407.50094058722681
  0
LINE
  8
_1-3_細線2
  6
CONTINUOUS
 62
    4
 10
1730.6307549973872
 20
439.50094058722613
 11
1730.6307549973872
 21
421.83427392055961
  0
ARC
  8
_1-3_細線2
  6
CONTINUOUS
 62
    4
 10
1725.6415949973853
 20
453.5009405872259
 40
1.6666666666666663
 50
0
 51
89.999999999999915
  0
LINE
  8
_1-3_細線2
  6
CONTINUOUS
 62
    4
 10
1715.6415949973853
 20
455.16760725389219
 11
1725.6415949973853
 21
455.16760725389219
  0
ARC
  8
_1-3_細線2
  6
CONTINUOUS
 62
    4
 10
1715.6415949973853
 20
453.5009405872259
 40
1.6666666666666663
 50
89.999999999999915
 51
179.99999999999983
  0
LINE
  8
_1-3_細線2
  6
CONTINUOUS
 62
    4
 10
1727.3082616640522
 20
453.5009405872259
 11
1727.3082616640522
 21
401.83427392055904
  0
ARC
  8
_1-3_細線2
  6
CONTINUOUS
 62
    4
 10
1725.6415949973853
 20
401.83427392055904
 40
1.6666666666666663
 50
269.99999999999977
 51
359.99999999999966
  0
LINE
  8
_1-3_細線2
  6
CONTINUOUS
 62
    4
 10
1725.6415949973853
 20
400.16760725389219
 11
1715.6415949973853
 21
400.16760725389219
  0
LINE
  8
_1-3_細線2
  6
CONTINUOUS
 62
    4
 10
1713.9749283307187
 20
401.83427392055904
 11
1713.9749283307187
 21
453.5009405872259
  0
ARC
  8
_1-3_細線2
  6
CONTINUOUS
 62
    4
 10
1715.6415949973853
 20
401.83427392055904
 40
1.6666666666666663
 50
179.99999999999983
 51
269.99999999999977
  0
LINE
  8
_1-3_細線2
  6
CONTINUOUS
 62
    4
 10
1709.9749283307187
 20
412.00094058722556
 11
1662.3082616640527
 21
412.00094058722556
  0
LINE
  8
_1-3_細線2
  6
CONTINUOUS
 62
    4
 10
1709.9749283307187
 20
435.00094058722567
 11
1662.3082616640527
 21
435.00094058722567
  0
LINE
  8
_1-3_細線2
  6
CONTINUOUS
 62
    4
 10
1658.3082616640513
 20
412.00094058722556
 11
1610.6415949973853
 21
412.00094058722556
  0
LINE
  8
_1-3_細線2
  6
CONTINUOUS
 62
    4
 10
1658.3082616640513
 20
435.00094058722567
 11
1610.6415949973853
 21
435.00094058722567
  0
LINE
  8
_1-3_細線2
  6
CONTINUOUS
 62
    4
 10
1606.6415949973853
 20
412.00094058722556
 11
1558.9749283307196
 21
412.00094058722556
  0
LINE
  8
_1-3_細線2
  6
CONTINUOUS
 62
    4
 10
1606.6415949973853
 20
435.00094058722567
 11
1558.9749283307196
 21
435.00094058722567
  0
LINE
  8
_1-2_極細2
  6
CENTER1
 62
    2
 10
1346.8085700496208
 20
423.5009405872259
 11
1746.1199357718601
 21
423.5009405872259
  0
LINE
  8
_1-2_極細2
  6
CONTINUOUS
 62
    2
 10
1360.9857679905545
 20
423.5009405872259
 11
1350.9707146572212
 21
423.5009405872259
  0
LINE
  8
_1-3_細線2
  6
CONTINUOUS
 62
    4
 10
1360.9857679905545
 20
411.83427392056075
 11
1350.9706746572228
 21
411.83427392056075
  0
ARC
  8
_1-3_細線2
  6
CONTINUOUS
 62
    4
 10
1350.9706746572228
 20
412.50094058722681
 40
0.6666666666666669
 50
179.99999999999983
 51
269.99999999999977
  0
ARC
  8
_1-2_極細2
  6
CONTINUOUS
 62
    2
 10
1376.1639413238881
 20
417.66712058722788
 40
25.859853333333334
 50
166.96197800000505
 51
193.03566999999961
  0
ARC
  8
_1-3_細線2
  6
CONTINUOUS
 62
    4
 10
1350.9706746572228
 20
434.50094058722726
 40
0.6666666666666669
 50
89.999999999999915
 51
179.99999999999983
  0
ARC
  8
_1-2_極細2
  6
CONTINUOUS
 62
    2
 10
1376.1639413238881
 20
429.33475392055954
 40
25.859853333333334
 50
166.96433000000002
 51
193.0380219999995
  0
LINE
  8
_1-3_細線2
  6
CONTINUOUS
 62
    4
 10
1360.9857679905545
 20
435.16760725389332
 11
1350.9706746572228
 21
435.16760725389332
  0
LINE
  8
_1-3_細線2
  6
CONTINUOUS
 62
    4
 10
1350.3040079905552
 20
412.50094058722681
 11
1350.3040079905552
 21
434.50094058722726
  0
LINE
  8
_1-2_極細2
  6
CONTINUOUS
 62
    2
 10
1730.6307549973872
 20
423.5009405872259
 11
1740.6458083307211
 21
423.5009405872259
  0
LINE
  8
_1-3_細線2
  6
CONTINUOUS
 62
    4
 10
1730.6307549973872
 20
411.83427392056075
 11
1740.6458483307188
 21
411.83427392056075
  0
ARC
  8
_1-3_細線2
  6
CONTINUOUS
 62
    4
 10
1740.6458483307188
 20
412.50094058722681
 40
0.6666666666666669
 50
269.99999999999977
 51
359.99999999999966
  0
ARC
  8
_1-2_極細2
  6
CONTINUOUS
 62
    2
 10
1715.4525816640535
 20
417.66712058722788
 40
25.859853333333334
 50
346.96432999999968
 51
13.038021999994573
  0
ARC
  8
_1-3_細線2
  6
CONTINUOUS
 62
    4
 10
1740.6458483307188
 20
434.50094058722726
 40
0.6666666666666669
 50
0
 51
89.999999999999915
  0
ARC
  8
_1-2_極細2
  6
CONTINUOUS
 62
    2
 10
1715.4525816640535
 20
429.33475392055954
 40
25.859853333333334
 50
346.96197799999976
 51
13.035669999999625
  0
LINE
  8
_1-3_細線2
  6
CONTINUOUS
 62
    4
 10
1730.6307549973872
 20
435.16760725389332
 11
1740.6458483307188
 21
435.16760725389332
  0
LINE
  8
_1-3_細線2
  6
CONTINUOUS
 62
    4
 10
1741.3125149973871
 20
412.50094058722681
 11
1741.3125149973871
 21
434.50094058722726
  0
LINE
  8
_1-2_極細2
  6
CENTER1
 62
    2
 10
1545.8082613238867
 20
493.66113756229566
 11
1545.8082613238867
 21
375.66970128398196
  0
LINE
  8
_1-5_寸法2
  6
CONTINUOUS
 62
    7
 10
1305.8082613238867
 20
483.5009405872259
 11
1305.8082613238867
 21
713.50094058722584
  0
LINE
  8
_1-5_寸法2
  6
CONTINUOUS
 62
    7
 10
1305.8082613238867
 20
703.50094058722584
 11
1325.1267778496683
 21
708.67732148927632
  0
LINE
  8
_1-5_寸法2
  6
CONTINUOUS
 62
    7
 10
1305.8082613238867
 20
703.50094058722584
 11
1325.1267778496683
 21
698.32455968517547
  0
LINE
  8
_1-5_寸法2
  6
CONTINUOUS
 62
    7
 10
1785.8082613238867
 20
483.5009405872259
 11
1785.8082613238867
 21
713.50094058722584
  0
LINE
  8
_1-5_寸法2
  6
CONTINUOUS
 62
    7
 10
1785.8082613238867
 20
703.50094058722584
 11
1766.4897447981052
 21
698.32455968517547
  0
LINE
  8
_1-5_寸法2
  6
CONTINUOUS
 62
    7
 10
1785.8082613238867
 20
703.50094058722584
 11
1766.4897447981052
 21
708.67732148927632
  0
LINE
  8
_1-5_寸法2
  6
CONTINUOUS
 62
    7
 10
1305.8082613238867
 20
703.50094058722584
 11
1785.8082613238867
 21
703.50094058722584
  0
TEXT
  8
_1-5_寸法2
 62
    7
 10
1523.3082613238867
 20
703.50094058722584
 40
30
 41
1
 50
0
  1
144
  0
LINE
  8
_1-5_寸法2
  6
CONTINUOUS
 62
    7
 10
1749.1415946572204
 20
483.5009405872259
 11
1749.1415946572213
 21
643.50094058722584
  0
LINE
  8
_1-5_寸法2
  6
CONTINUOUS
 62
    7
 10
1749.1415946572213
 20
633.50094058722584
 11
1768.4601111830025
 21
638.67732148927621
  0
LINE
  8
_1-5_寸法2
  6
CONTINUOUS
 62
    7
 10
1749.1415946572213
 20
633.50094058722584
 11
1768.4601111830025
 21
628.32455968517547
  0
LINE
  8
_1-5_寸法2
  6
CONTINUOUS
 62
    7
 10
1785.8082613238867
 20
483.5009405872259
 11
1785.8082613238878
 21
643.50094058722584
  0
LINE
  8
_1-5_寸法2
  6
CONTINUOUS
 62
    7
 10
1785.8082613238878
 20
633.50094058722584
 11
1766.4897447981061
 21
628.32455968517547
  0
LINE
  8
_1-5_寸法2
  6
CONTINUOUS
 62
    7
 10
1785.8082613238878
 20
633.50094058722584
 11
1766.4897447981061
 21
638.67732148927632
  0
LINE
  8
_1-5_寸法2
  6
CONTINUOUS
 62
    7
 10
1749.1415946572213
 20
633.50094058722584
 11
1785.8082613238878
 21
633.50094058722584
  0
TEXT
  8
_1-5_寸法2
 62
    7
 10
1752.4749279905543
 20
633.50094058722584
 40
30
 41
1
 50
0
  1
11
  0
LINE
  8
_1-5_寸法2
  6
CONTINUOUS
 62
    7
 10
1348.3082613238892
 20
483.5009405872259
 11
1348.3082613238894
 21
643.50094058722584
  0
LINE
  8
_1-5_寸法2
  6
CONTINUOUS
 62
    7
 10
1348.3082613238894
 20
633.50094058722584
 11
1367.6267778496708
 21
638.67732148927621
  0
LINE
  8
_1-5_寸法2
  6
CONTINUOUS
 62
    7
 10
1348.3082613238894
 20
633.50094058722584
 11
1367.6267778496708
 21
628.32455968517547
  0
LINE
  8
_1-5_寸法2
  6
CONTINUOUS
 62
    7
 10
1743.3082613238869
 20
483.5009405872259
 11
1743.3082613238878
 21
643.50094058722584
  0
LINE
  8
_1-5_寸法2
  6
CONTINUOUS
 62
    7
 10
1743.3082613238878
 20
633.50094058722584
 11
1723.9897447981066
 21
628.32455968517547
  0
LINE
  8
_1-5_寸法2
  6
CONTINUOUS
 62
    7
 10
1743.3082613238878
 20
633.50094058722584
 11
1723.9897447981066
 21
638.67732148927632
  0
LINE
  8
_1-5_寸法2
  6
CONTINUOUS
 62
    7
 10
1348.3082613238894
 20
633.50094058722584
 11
1743.3082613238878
 21
633.50094058722584
  0
TEXT
  8
_1-5_寸法2
 62
    7
 10
1508.3082613238887
 20
633.50094058722584
 40
30
 41
1
 50
0
  1
118.5
  0
LINE
  8
_1-5_寸法2
  6
CONTINUOUS
 62
    7
 10
1305.8082613238867
 20
483.5009405872259
 11
1305.8082613238876
 21
643.50094058722584
  0
LINE
  8
_1-5_寸法2
  6
CONTINUOUS
 62
    7
 10
1305.8082613238876
 20
633.50094058722584
 11
1325.126777849669
 21
638.67732148927621
  0
LINE
  8
_1-5_寸法2
  6
CONTINUOUS
 62
    7
 10
1305.8082613238876
 20
633.50094058722584
 11
1325.126777849669
 21
628.32455968517547
  0
LINE
  8
_1-5_寸法2
  6
CONTINUOUS
 62
    7
 10
1342.4749279905532
 20
483.5009405872259
 11
1342.4749279905539
 21
643.50094058722584
  0
LINE
  8
_1-5_寸法2
  6
CONTINUOUS
 62
    7
 10
1342.4749279905539
 20
633.50094058722584
 11
1323.1564114647722
 21
628.32455968517547
  0
LINE
  8
_1-5_寸法2
  6
CONTINUOUS
 62
    7
 10
1342.4749279905539
 20
633.50094058722584
 11
1323.1564114647722
 21
638.67732148927632
  0
LINE
  8
_1-5_寸法2
  6
CONTINUOUS
 62
    7
 10
1305.8082613238876
 20
633.50094058722584
 11
1342.4749279905539
 21
633.50094058722584
  0
TEXT
  8
_1-5_寸法2
 62
    7
 10
1309.1415946572213
 20
633.50094058722584
 40
30
 41
1
 50
0
  1
11
  0
LINE
  8
_1-5_寸法2
  6
CONTINUOUS
 62
    7
 10
1484.9749279905552
 20
483.5009405872259
 11
1484.9749279905554
 21
573.50094058722584
  0
LINE
  8
_1-5_寸法2
  6
CONTINUOUS
 62
    7
 10
1484.9749279905554
 20
563.50094058722584
 11
1465.6564114647742
 21
558.32455968517547
  0
LINE
  8
_1-5_寸法2
  6
CONTINUOUS
 62
    7
 10
1484.9749279905554
 20
563.50094058722584
 11
1465.6564114647742
 21
568.67732148927632
  0
LINE
  8
_1-5_寸法2
  6
CONTINUOUS
 62
    7
 10
1503.3082613238869
 20
483.5009405872259
 11
1503.3082613238876
 21
573.50094058722584
  0
LINE
  8
_1-5_寸法2
  6
CONTINUOUS
 62
    7
 10
1417.5781650026374
 20
563.50094058722584
 11
1503.3082613238876
 21
563.50094058722584
  0
TEXT
  8
_1-5_寸法2
 62
    7
 10
1417.5781650026374
 20
563.50094058722584
 40
30
 41
1
 50
0
  1
5.5
  0
LINE
  8
_1-5_寸法2
  6
CONTINUOUS
 62
    7
 10
1503.3082613238876
 20
563.50094058722584
 11
1522.626777849669
 21
568.67732148927621
  0
LINE
  8
_1-5_寸法2
  6
CONTINUOUS
 62
    7
 10
1503.3082613238876
 20
563.50094058722584
 11
1522.626777849669
 21
558.32455968517536
  0
LINE
  8
_1-5_寸法2
  6
CONTINUOUS
 62
    7
 10
1536.6415946572215
 20
483.5009405872259
 11
1536.6415946572215
 21
573.50094058722584
  0
LINE
  8
_1-5_寸法2
  6
CONTINUOUS
 62
    7
 10
1536.6415946572215
 20
563.50094058722584
 11
1517.3230781314398
 21
558.32455968517547
  0
LINE
  8
_1-5_寸法2
  6
CONTINUOUS
 62
    7
 10
1536.6415946572215
 20
563.50094058722584
 11
1517.3230781314398
 21
568.67732148927632
  0
LINE
  8
_1-5_寸法2
  6
CONTINUOUS
 62
    7
 10
1503.3082613238876
 20
563.50094058722584
 11
1536.6415946572215
 21
563.50094058722584
  0
TEXT
  8
_1-5_寸法2
 62
    7
 10
1504.974927990555
 20
563.50094058722584
 40
30
 41
1
 50
0
  1
10
  0
LINE
  8
_1-5_寸法2
  6
CONTINUOUS
 62
    7
 10
1285.8082613238867
 20
463.50094058722607
 11
1195.8082613238867
 21
463.50094058722652
  0
LINE
  8
_1-5_寸法2
  6
CONTINUOUS
 62
    7
 10
1205.8082613238867
 20
463.50094058722647
 11
1210.984642225937
 21
444.18242406144515
  0
LINE
  8
_1-5_寸法2
  6
CONTINUOUS
 62
    7
 10
1205.8082613238867
 20
463.50094058722647
 11
1200.6318804218363
 21
444.18242406144515
  0
LINE
  8
_1-5_寸法2
  6
CONTINUOUS
 62
    7
 10
1319.1415946572197
 20
396.83427392055904
 11
1195.8082613238867
 21
396.83427392055961
  0
LINE
  8
_1-5_寸法2
  6
CONTINUOUS
 62
    7
 10
1205.8082613238867
 20
396.83427392055961
 11
1200.6318804218363
 21
416.15279044634099
  0
LINE
  8
_1-5_寸法2
  6
CONTINUOUS
 62
    7
 10
1205.8082613238867
 20
396.83427392055961
 11
1210.984642225937
 21
416.15279044634099
  0
LINE
  8
_1-5_寸法2
  6
CONTINUOUS
 62
    7
 10
1205.8082613238867
 20
463.50094058722647
 11
1205.8082613238867
 21
396.83427392055961
  0
TEXT
  8
_1-5_寸法2
 62
    7
 10
1205.8082613238867
 20
415.16760725389275
 40
30
 41
1
 50
90
  1
20
  0
LINE
  8
_1-5_寸法2
  6
CONTINUOUS
 62
    7
 10
1805.8082613238857
 20
436.83427392055881
 11
1895.8082613238867
 21
436.83427392055785
  0
LINE
  8
_1-5_寸法2
  6
CONTINUOUS
 62
    7
 10
1885.8082613238867
 20
436.83427392055791
 11
1880.6318804218361
 21
456.15279044633928
  0
LINE
  8
_1-5_寸法2
  6
CONTINUOUS
 62
    7
 10
1885.8082613238867
 20
436.83427392055791
 11
1890.984642225937
 21
456.15279044633928
  0
LINE
  8
_1-5_寸法2
  6
CONTINUOUS
 62
    7
 10
1805.8082613238857
 20
463.50094058722567
 11
1895.8082613238867
 21
463.5009405872247
  0
LINE
  8
_1-5_寸法2
  6
CONTINUOUS
 62
    7
 10
1885.8082613238867
 20
463.50094058722476
 11
1890.984642225937
 21
444.18242406144344
  0
LINE
  8
_1-5_寸法2
  6
CONTINUOUS
 62
    7
 10
1885.8082613238867
 20
463.50094058722476
 11
1880.6318804218361
 21
444.18242406144344
  0
LINE
  8
_1-5_寸法2
  6
CONTINUOUS
 62
    7
 10
1885.8082613238867
 20
436.83427392055791
 11
1885.8082613238867
 21
463.50094058722476
  0
TEXT
  8
_1-5_寸法2
 62
    7
 10
1885.8082613238867
 20
442.66760725389162
 40
30
 41
1
 50
90
  1
8
  0
TEXT
  8
_0-7_枠細線
 62
    5
 10
1445.8082613238869
 20
302.14973189060072
 40
50
 41
0.8
 50
0
  1
断面詳細図
  0
TEXT
  8
_0-7_枠細線
 62
    5
 10
1675.706200822224
 20
306.0956516510272
 40
40
 41
0.6
 50
0
  1
Ｓ＝１：３
  0
TEXT
  8
_0-7_枠細線
 62
    5
 10
1921.0000000000002
 20
299.06069690229828
 40
40
 41
0.6
 50
0
  1
排水ユニット ＳＵＳグレーチング 浅型
  0
ARC
  8
_0-1_計細線
  6
CONTINUOUS
 62
    3
 10
2209.4717437074869
 20
1085.0819623971784
 40
1.5000000000000002
 50
179.99999999999983
 51
269.99999999999977
  0
LINE
  8
_0-1_計細線
  6
CONTINUOUS
 62
    3
 10
2207.9717437074869
 20
1087.0819623971784
 11
2207.9717437074869
 21
1085.0819623971784
  0
ARC
  8
_0-1_計細線
  6
CONTINUOUS
 62
    3
 10
2207.4717437074869
 20
1087.0819623971784
 40
0.5
 50
0
 51
89.999999999999915
  0
LINE
  8
_0-1_計細線
  6
CONTINUOUS
 62
    3
 10
2209.4717437074869
 20
1083.5819623971784
 11
2266.4717437074869
 21
1083.5819623971784
  0
LINE
  8
_0-1_計細線
  6
CONTINUOUS
 62
    3
 10
2266.4717437074869
 20
1062.6023703971796
 11
2214.5533757074882
 21
1062.6023703971796
  0
LINE
  8
_0-1_計細線
  6
CONTINUOUS
 62
    3
 10
2266.4717437074869
 20
1058.3606103971806
 11
2217.0023517074878
 21
1058.3606103971806
  0
ARC
  8
_0-1_計細線
  6
CONTINUOUS
 62
    3
 10
2212.1043917074858
 20
1058.3606103971806
 40
4.8979599999999994
 50
0
 51
59.999999999989242
  0
LINE
  8
_0-1_計細線
  6
CONTINUOUS
 62
    3
 10
2214.5533757074882
 20
1062.6023703971796
 11
2214.5533757074882
 21
1080.2350183971803
  0
LINE
  8
_0-1_計細線
  6
CONTINUOUS
 62
    3
 10
2266.4717437074869
 20
1080.2350183971803
 11
2210.7329677074868
 21
1080.2350183971803
  0
LINE
  8
_0-1_計細線
  6
CONTINUOUS
 62
    3
 10
2318.3901117074874
 20
1070.4391063971807
 11
2322.2105197074889
 21
1070.4391063971807
  0
ARC
  8
_0-1_計細線
  6
CONTINUOUS
 62
    3
 10
2320.8390877074871
 20
1058.3606103971806
 40
4.8979599999999994
 50
119.99999999999233
 51
179.99999999999983
  0
LINE
  8
_0-1_計細線
  6
CONTINUOUS
 62
    3
 10
2318.3901117074874
 20
1062.6023703971796
 11
2318.3901117074874
 21
1070.4391063971807
  0
LINE
  8
_0-0_計極細
  6
CONTINUOUS
 62
    2
 10
2313.9819437074875
 20
1065.5411463971805
 11
2313.9819437074875
 21
1068.3888823971802
  0
LINE
  8
_0-0_計極細
  6
CONTINUOUS
 62
    2
 10
2315.4307597074876
 20
1064.7574743971791
 11
2313.9819437074875
 21
1065.5411463971805
  0
LINE
  8
_0-0_計極細
  6
CONTINUOUS
 62
    2
 10
2266.4717437074869
 20
1064.7574743971791
 11
2290.9615277074881
 21
1064.7574743971791
  0
LINE
  8
_0-0_計極細
  6
CONTINUOUS
 62
    2
 10
2322.2105197074889
 20
1084.153386397179
 11
2315.4307597074876
 21
1083.3697143971795
  0
ARC
  8
_0-0_計極細
  6
CONTINUOUS
 62
    2
 10
2303.9411277074869
 20
1058.684002397179
 40
0.9795920000000001
 50
0
 51
89.999999999999915
  0
ARC
  8
_0-0_計極細
  6
CONTINUOUS
 62
    2
 10
2303.9411277074869
 20
1058.684002397179
 40
0.9795920000000001
 50
89.999999999999915
 51
179.99999999999983
  0
LINE
  8
_0-0_計極細
  6
CONTINUOUS
 62
    2
 10
2303.9411277074869
 20
1059.6635943971805
 11
2292.9207197074866
 21
1059.6635943971805
  0
LINE
  8
_0-0_計極細
  6
CONTINUOUS
 62
    2
 10
2293.4665117074874
 20
1068.3888823971802
 11
2303.204775707487
 21
1068.3888823971802
  0
LINE
  8
_0-0_計極細
  6
CONTINUOUS
 62
    2
 10
2266.4717437074869
 20
1085.5317383971806
 11
2315.4307597074876
 21
1085.5317383971806
  0
LINE
  8
_0-0_計極細
  6
CONTINUOUS
 62
    2
 10
2305.9003117074863
 20
1072.3072503971807
 11
2309.8676557074868
 21
1072.3072503971807
  0
LINE
  8
_0-0_計極細
  6
CONTINUOUS
 62
    2
 10
2312.7488557074867
 20
1083.08275439718
 11
2311.5819437074879
 21
1083.08275439718
  0
LINE
  8
_0-0_計極細
  6
CONTINUOUS
 62
    2
 10
2309.8676557074868
 20
1071.03377839718
 11
2309.8676557074868
 21
1081.3684743971799
  0
ARC
  8
_0-0_計極細
  6
CONTINUOUS
 62
    2
 10
2311.5819437074879
 20
1081.3684743971799
 40
1.7142880000000003
 50
89.999999999999915
 51
179.99999999999983
  0
ARC
  8
_0-0_計極細
  6
CONTINUOUS
 62
    2
 10
2315.4307597074876
 20
1083.8174503971795
 40
1.7142880000000003
 50
89.999999999999915
 51
175.84901000001699
  0
ARC
  8
_0-0_計極細
  6
CONTINUOUS
 62
    2
 10
2312.7488557074867
 20
1084.0623463971797
 40
0.9795920000000001
 50
269.99999999999977
 51
356.64911199995925
  0
LINE
  8
_0-0_計極細
  6
CONTINUOUS
 62
    2
 10
2315.527447707489
 20
1084.8528743971792
 11
2322.2105197074889
 21
1085.8047463971807
  0
ARC
  8
_0-0_計極細
  6
CONTINUOUS
 62
    2
 10
2315.4307597074876
 20
1083.8174503971795
 40
1.0285679999999999
 50
89.999999999999915
 51
175.84901000002131
  0
ARC
  8
_0-0_計極細
  6
CONTINUOUS
 62
    2
 10
2312.7488557074867
 20
1084.0623463971797
 40
1.6653040000000003
 50
269.99999999999977
 51
356.64911199998164
  0
LINE
  8
_0-0_計極細
  6
CONTINUOUS
 62
    2
 10
2312.7488557074867
 20
1082.3970423971796
 11
2311.5819437074879
 21
1082.3970423971796
  0
ARC
  8
_0-0_計極細
  6
CONTINUOUS
 62
    2
 10
2311.5819437074879
 20
1081.3684743971799
 40
1.0285679999999999
 50
89.999999999999915
 51
179.99999999999983
  0
LINE
  8
_0-0_計極細
  6
CONTINUOUS
 62
    2
 10
2310.5533757074882
 20
1070.3480663971795
 11
2310.5533757074882
 21
1081.3684743971799
  0
LINE
  8
_0-0_計極細
  6
CONTINUOUS
 62
    2
 10
2315.4307597074876
 20
1069.8376983971802
 11
2315.4307597074876
 21
1084.8391063971803
  0
LINE
  8
_0-0_計極細
  6
CONTINUOUS
 62
    2
 10
2315.4307597074876
 20
1069.8376983971802
 11
2313.9819437074875
 21
1068.3888823971802
  0
LINE
  8
_0-0_計極細
  6
CONTINUOUS
 62
    2
 10
2308.5941917074888
 20
1066.4296983971808
 11
2308.5941917074888
 21
1072.3072503971807
  0
LINE
  8
_0-0_計極細
  6
CONTINUOUS
 62
    2
 10
2306.3901117074874
 20
1068.4876023971801
 11
2306.3901117074874
 21
1072.3072503971807
  0
LINE
  8
_0-0_計極細
  6
CONTINUOUS
 62
    2
 10
2308.5941917074888
 20
1070.3480663971795
 11
2310.5533757074882
 21
1070.3480663971795
  0
LINE
  8
_0-0_計極細
  6
CONTINUOUS
 62
    2
 10
2308.5941917074888
 20
1071.03377839718
 11
2309.8676557074868
 21
1071.03377839718
  0
LINE
  8
_0-0_計極細
  6
CONTINUOUS
 62
    2
 10
2307.7809517074875
 20
1066.4296983971808
 11
2308.5941917074888
 21
1066.4296983971808
  0
LINE
  8
_0-0_計極細
  6
CONTINUOUS
 62
    2
 10
2308.5941917074888
 20
1068.3888823971802
 11
2313.9819437074875
 21
1068.3888823971802
  0
LINE
  8
_0-0_計極細
  6
CONTINUOUS
 62
    2
 10
2295.6501677074884
 20
1066.7235783971801
 11
2300.5481277074869
 21
1066.7235783971801
  0
LINE
  8
_0-0_計極細
  6
CONTINUOUS
 62
    2
 10
2295.6501677074884
 20
1066.7235783971801
 11
2295.6501677074884
 21
1068.3888823971802
  0
LINE
  8
_0-0_計極細
  6
CONTINUOUS
 62
    2
 10
2300.5481277074869
 20
1066.7235783971801
 11
2300.5481277074869
 21
1068.3888823971802
  0
LINE
  8
_0-0_計極細
  6
CONTINUOUS
 62
    2
 10
2297.1195597074875
 20
1066.7235783971801
 11
2297.1195597074875
 21
1068.3888823971802
  0
LINE
  8
_0-0_計極細
  6
CONTINUOUS
 62
    2
 10
2309.8676557074868
 20
1083.08275439718
 11
2311.777863707488
 21
1083.08275439718
  0
LINE
  8
_0-0_計極細
  6
CONTINUOUS
 62
    2
 10
2309.8676557074868
 20
1080.14398639718
 11
2309.8676557074868
 21
1083.08275439718
  0
LINE
  8
_0-0_計極細
  6
CONTINUOUS
 62
    2
 10
2308.7901117074871
 20
1079.6541863971806
 11
2308.7901117074871
 21
1080.6337783971803
  0
ARC
  8
_0-0_計極細
  6
CONTINUOUS
 62
    2
 10
2309.3778637074865
 20
1080.14398639718
 40
0.489792
 50
269.99999999999977
 51
359.99999999999966
  0
LINE
  8
_0-0_計極細
  6
CONTINUOUS
 62
    2
 10
2266.6676557074879
 20
1080.6337783971803
 11
2308.7901117074871
 21
1080.6337783971803
  0
LINE
  8
_0-0_計極細
  6
CONTINUOUS
 62
    2
 10
2266.6676557074879
 20
1079.6541863971806
 11
2309.3778637074865
 21
1079.6541863971806
  0
LINE
  8
_0-0_計極細
  6
CONTINUOUS
 62
    2
 10
2266.4717437074869
 20
1078.5826183971794
 11
2309.7207197074877
 21
1078.5826183971794
  0
LINE
  8
_0-0_計極細
  6
CONTINUOUS
 62
    2
 10
2305.4105197074878
 20
1078.5826183971794
 11
2305.4105197074878
 21
1078.0928263971791
  0
LINE
  8
_0-0_計極細
  6
CONTINUOUS
 62
    2
 10
2308.9370477074881
 20
1077.1132343971794
 11
2309.7207197074877
 21
1078.5826183971794
  0
LINE
  8
_0-0_計極細
  6
CONTINUOUS
 62
    2
 10
2304.9207197074866
 20
1075.3499703971802
 11
2305.4105197074878
 21
1075.8397623971805
  0
LINE
  8
_0-0_計極細
  6
CONTINUOUS
 62
    2
 10
2305.4105197074878
 20
1074.860170397179
 11
2304.9207197074866
 21
1075.3499703971802
  0
LINE
  8
_0-0_計極細
  6
CONTINUOUS
 62
    2
 10
2305.4105197074878
 20
1077.1132343971794
 11
2304.9207197074866
 21
1077.6030263971797
  0
LINE
  8
_0-0_計極細
  6
CONTINUOUS
 62
    2
 10
2304.9207197074866
 20
1077.6030263971797
 11
2305.4105197074878
 21
1078.0928263971791
  0
LINE
  8
_0-0_計極細
  6
CONTINUOUS
 62
    2
 10
2266.4717437074869
 20
1077.6030263971797
 11
2304.9207197074866
 21
1077.6030263971797
  0
LINE
  8
_0-0_計極細
  6
CONTINUOUS
 62
    2
 10
2266.4717437074869
 20
1075.3499703971802
 11
2304.9207197074866
 21
1075.3499703971802
  0
LINE
  8
_0-0_計極細
  6
CONTINUOUS
 62
    2
 10
2266.4717437074869
 20
1074.3703783971805
 11
2308.9370477074881
 21
1074.3703783971805
  0
LINE
  8
_0-0_計極細
  6
CONTINUOUS
 62
    2
 10
2308.9370477074881
 20
1077.1132343971794
 11
2308.9370477074881
 21
1074.3703783971805
  0
LINE
  8
_0-0_計極細
  6
CONTINUOUS
 62
    2
 10
2305.4105197074878
 20
1074.860170397179
 11
2305.4105197074878
 21
1074.3703783971805
  0
LINE
  8
_0-0_計極細
  6
CONTINUOUS
 62
    2
 10
2305.4105197074878
 20
1077.1132343971794
 11
2305.4105197074878
 21
1075.8397623971805
  0
ARC
  8
_0-0_計極細
  6
CONTINUOUS
 62
    2
 10
2298.7982717074883
 20
1065.9154343971795
 40
5.8775520000000006
 50
55.166294000021374
 51
179.99999999999983
  0
ARC
  8
_0-0_計極細
  6
CONTINUOUS
 62
    2
 10
2300.2676557074883
 20
1068.4876023971801
 40
2.9387760000000003
 50
0
 51
50.029503000032648
  0
LINE
  8
_0-0_計極細
  6
CONTINUOUS
 62
    2
 10
2303.2064317074874
 20
1065.5488263971793
 11
2303.2064317074874
 21
1068.4876023971801
  0
LINE
  8
_0-0_計極細
  6
CONTINUOUS
 62
    2
 10
2306.1452077074864
 20
1065.5488263971793
 11
2303.2064317074874
 21
1065.5488263971793
  0
ARC
  8
_0-0_計極細
  6
CONTINUOUS
 62
    2
 10
2306.1452077074864
 20
1067.5080103971804
 40
1.9591840000000003
 50
269.99999999999977
 51
359.99999999999966
  0
LINE
  8
_0-0_計極細
  6
CONTINUOUS
 62
    2
 10
2308.1043917074876
 20
1067.5080103971804
 11
2308.1043917074876
 21
1068.4876023971801
  0
LINE
  8
_0-0_計極細
  6
CONTINUOUS
 62
    2
 10
2308.1043917074876
 20
1068.4876023971801
 11
2305.9003117074863
 21
1068.4876023971801
  0
LINE
  8
_0-0_計極細
  6
CONTINUOUS
 62
    2
 10
2309.0839837074873
 20
1072.7978103971791
 11
2266.4717437074869
 21
1072.7978103971791
  0
LINE
  8
_0-0_計極細
  6
CONTINUOUS
 62
    2
 10
2309.0839837074873
 20
1072.7978103971791
 11
2309.0839837074873
 21
1074.2671943971791
  0
LINE
  8
_0-0_計極細
  6
CONTINUOUS
 62
    2
 10
2309.0839837074873
 20
1074.2671943971791
 11
2266.4717437074869
 21
1074.2671943971791
  0
LINE
  8
_0-0_計極細
  6
CONTINUOUS
 62
    2
 10
2309.0839837074873
 20
1078.7733143971791
 11
2266.4717437074869
 21
1078.7733143971791
  0
LINE
  8
_0-0_計極細
  6
CONTINUOUS
 62
    2
 10
2309.0839837074873
 20
1078.7733143971791
 11
2309.0839837074873
 21
1079.6541863971806
  0
LINE
  8
_0-0_計極細
  6
CONTINUOUS
 62
    2
 10
2305.9003117074863
 20
1068.4876023971801
 11
2305.9003117074863
 21
1072.7978103971791
  0
LINE
  8
_0-0_計極細
  6
CONTINUOUS
 62
    2
 10
2292.9207197074866
 20
1065.5411463971805
 11
2313.9819437074875
 21
1065.5411463971805
  0
LINE
  8
_0-0_計極細
  6
CONTINUOUS
 62
    2
 10
2292.9207197074866
 20
1064.7574743971791
 11
2315.4307597074876
 21
1064.7574743971791
  0
LINE
  8
_0-0_計極細
  6
CONTINUOUS
 62
    2
 10
2266.4717437074869
 20
1086.5113303971802
 11
2322.2105197074889
 21
1086.5113303971802
  0
LINE
  8
_0-1_計細線
  6
CONTINUOUS
 62
    3
 10
2322.2105197074889
 20
1070.4391063971807
 11
2322.2105197074889
 21
1086.5113303971802
  0
LINE
  8
_0-0_計極細
  6
CONTINUOUS
 62
    2
 10
2315.4307597074876
 20
1085.5317383971806
 11
2322.2105197074889
 21
1086.497379101228
  0
LINE
  8
_0-0_計極細
  6
CONTINUOUS
 62
    2
 10
2304.9207197074866
 20
1001.9178983971789
 11
2304.9207197074866
 21
1028.3668743971784
  0
LINE
  8
_0-0_計極細
  6
CONTINUOUS
 62
    2
 10
2293.1656157074867
 20
990.16279439717891
 11
2290.9615357074872
 21
990.16279439717891
  0
ARC
  8
_0-0_計極細
  6
CONTINUOUS
 62
    2
 10
2293.1656157074867
 20
1001.9178983971789
 40
11.755104000000001
 50
269.99999999999977
 51
359.99999999999966
  0
LINE
  8
_0-0_計極細
  6
CONTINUOUS
 62
    2
 10
2313.4921517074872
 20
1035.2903143971789
 11
2313.4921517074872
 21
1064.7574743971791
  0
LINE
  8
_0-0_計極細
  6
CONTINUOUS
 62
    2
 10
2266.4717437074869
 20
990.16279439717891
 11
2293.1656157074867
 21
990.16279439717891
  0
LINE
  8
_0-0_計極細
  6
CONTINUOUS
 62
    2
 10
2304.9207197074866
 20
1001.9178983971789
 11
2304.9207197074866
 21
1058.684002397179
  0
LINE
  8
_0-0_計極細
  6
CONTINUOUS
 62
    2
 10
2302.9615357074872
 20
1001.9178983971789
 11
2302.9615357074872
 21
1058.684002397179
  0
LINE
  8
_0-0_計極細
  6
CONTINUOUS
 62
    2
 10
2266.4717437074869
 20
992.12197839717828
 11
2293.1656157074867
 21
992.12197839717828
  0
ARC
  8
_0-0_計極細
  6
CONTINUOUS
 62
    2
 10
2293.1656157074867
 20
1001.9178983971789
 40
9.7959199999999989
 50
269.99999999999977
 51
359.99999999999966
  0
LINE
  8
_0-0_計極細
  6
CONTINUOUS
 62
    2
 10
2291.9411277074869
 20
1008.9786423971792
 11
2266.4717437074869
 21
1008.9786423971792
  0
ARC
  8
_0-0_計極細
  6
CONTINUOUS
 62
    2
 10
2291.9411277074869
 20
1009.9582343971788
 40
0.9795920000000001
 50
269.99999999999977
 51
359.99999999999966
  0
LINE
  8
_0-0_計極細
  6
CONTINUOUS
 62
    2
 10
2292.9207197074866
 20
1009.9582343971788
 11
2292.9207197074866
 21
1065.9154343971795
  0
LINE
  8
_0-0_計極細
  6
CONTINUOUS
 62
    2
 10
2290.9615277074881
 20
1009.9582343971788
 11
2290.9615277074881
 21
1064.7574743971791
  0
ARC
  8
_0-0_計極細
  6
CONTINUOUS
 62
    2
 10
2291.9411197074878
 20
1009.9582343971788
 40
0.9795920000000001
 50
179.99999999999983
 51
269.99999999999977
  0
LINE
  8
_0-0_計極細
  6
CONTINUOUS
 62
    2
 10
2313.5645277074873
 20
1035.2903143971789
 11
2307.9318717074875
 21
1035.2903143971789
  0
ARC
  8
_0-0_計極細
  6
CONTINUOUS
 62
    2
 10
2307.9318717074875
 20
1032.351538397178
 40
2.9387760000000003
 50
89.999999999999915
 51
179.99999999999983
  0
LINE
  8
_0-0_計極細
  6
CONTINUOUS
 62
    2
 10
2292.9124237074866
 20
1009.8311063971788
 11
2292.9124397074884
 21
1009.8311143971796
  0
LINE
  8
_0-0_計極細
  6
CENTER1
 62
    2
 10
2242.1309245488228
 20
998.58196239717927
 11
2372.4823319562274
 21
998.58196239717927
  0
LINE
  8
_0-1_計細線
  6
CONTINUOUS
 62
    3
 10
2225.0023517074878
 20
969.51133039718025
 11
2318.0023517074878
 21
969.51133039718025
  0
LINE
  8
_0-1_計細線
  6
CONTINUOUS
 62
    3
 10
2217.0023517074878
 20
977.51133039718025
 11
2217.0023517074878
 21
1058.3606103971806
  0
ARC
  8
_0-1_計細線
  6
CONTINUOUS
 62
    3
 10
2225.0023517074878
 20
977.51133039718025
 40
8
 50
179.99999999999983
 51
269.99999999999977
  0
LINE
  8
_0-1_計細線
  6
CONTINUOUS
 62
    3
 10
2318.0023517074878
 20
969.51133039718025
 11
2353.4717437074869
 21
971.08196239717927
  0
LINE
  8
_0-0_計極細
  6
CONTINUOUS
 62
    2
 10
2304.9930957074866
 20
1025.3175501102951
 11
2353.4717437074869
 21
1024.1221875534857
  0
LINE
  8
_0-1_計細線
  6
CONTINUOUS
 62
    3
 10
2353.4717437074869
 20
971.08196239717927
 11
2353.4717437074869
 21
1026.0819623971793
  0
LINE
  8
_0-1_計細線
  6
CONTINUOUS
 62
    3
 10
2315.9411277074869
 20
1027.007374110296
 11
2353.4717437074869
 21
1026.0819623971793
  0
LINE
  8
_0-1_計細線
  6
CONTINUOUS
 62
    3
 10
2315.9411277074869
 20
1027.007374110296
 11
2315.9411277074869
 21
1058.3606103971806
  0
LINE
  8
_0-0_計極細
  6
CONTINUOUS
 62
    2
 10
2316.3301299723207
 20
971.4713303971813
 11
2353.4717437074869
 21
973.04388310117884
  0
LINE
  8
_0-1_計細線
  6
CONTINUOUS
 62
    3
 10
2210.7329677074868
 20
1080.2350183971803
 11
2210.7329677074868
 21
1083.5819623971788
  0
LINE
  8
_0-5_寸法線
  6
CONTINUOUS
 62
    7
 10
2266.4717437074869
 20
951.56359439717846
 11
2266.471743707486
 21
789.51133039718025
  0
LINE
  8
_0-5_寸法線
  6
CONTINUOUS
 62
    7
 10
2266.471743707486
 20
799.51133039718025
 11
2285.7902602332674
 21
804.68771129923073
  0
LINE
  8
_0-5_寸法線
  6
CONTINUOUS
 62
    7
 10
2266.471743707486
 20
799.51133039718025
 11
2285.7902602332674
 21
794.33494949512988
  0
LINE
  8
_0-5_寸法線
  6
CONTINUOUS
 62
    7
 10
2351.6962317074867
 20
951.56359439717846
 11
2351.6962317074858
 21
789.51133039718025
  0
LINE
  8
_0-5_寸法線
  6
CONTINUOUS
 62
    7
 10
2351.6962317074858
 20
799.51133039718025
 11
2332.3777151817048
 21
794.33494949512988
  0
LINE
  8
_0-5_寸法線
  6
CONTINUOUS
 62
    7
 10
2351.6962317074858
 20
799.51133039718025
 11
2332.3777151817048
 21
804.68771129923084
  0
LINE
  8
_0-5_寸法線
  6
CONTINUOUS
 62
    7
 10
2266.471743707486
 20
799.51133039718025
 11
2351.6962317074858
 21
799.51133039718025
  0
TEXT
  8
_0-5_寸法線
 62
    7
 10
2294.0839877074859
 20
799.51133039718025
 40
30
 41
1
 50
0
  1
87
  0
LINE
  8
_0-5_寸法線
  6
CONTINUOUS
 62
    7
 10
2266.4717437074869
 20
951.56359439717846
 11
2266.4717437074869
 21
859.51133039718025
  0
LINE
  8
_0-5_寸法線
  6
CONTINUOUS
 62
    7
 10
2266.4717437074869
 20
869.51133039718025
 11
2285.7902602332683
 21
874.68771129923073
  0
LINE
  8
_0-5_寸法線
  6
CONTINUOUS
 62
    7
 10
2266.4717437074869
 20
869.51133039718025
 11
2285.7902602332683
 21
864.33494949512988
  0
LINE
  8
_0-5_寸法線
  6
CONTINUOUS
 62
    7
 10
2315.9411277074869
 20
951.56359439717846
 11
2315.9411277074869
 21
859.51133039718025
  0
LINE
  8
_0-5_寸法線
  6
CONTINUOUS
 62
    7
 10
2315.9411277074869
 20
869.51133039718025
 11
2296.6226111817055
 21
864.33494949512988
  0
LINE
  8
_0-5_寸法線
  6
CONTINUOUS
 62
    7
 10
2315.9411277074869
 20
869.51133039718025
 11
2296.6226111817055
 21
874.68771129923084
  0
LINE
  8
_0-5_寸法線
  6
CONTINUOUS
 62
    7
 10
2266.4717437074869
 20
869.51133039718025
 11
2315.9411277074869
 21
869.51133039718025
  0
TEXT
  8
_0-5_寸法線
 62
    7
 10
2276.2064357074869
 20
869.51133039718025
 40
30
 41
1
 50
0
  1
51
  0
LINE
  8
_0-5_寸法線
  6
CONTINUOUS
 62
    7
 10
2315.9411277074869
 20
869.51133039718025
 11
2335.2596442332688
 21
874.68771129923061
  0
LINE
  8
_0-5_寸法線
  6
CONTINUOUS
 62
    7
 10
2315.9411277074869
 20
869.51133039718025
 11
2335.2596442332688
 21
864.33494949512976
  0
LINE
  8
_0-5_寸法線
  6
CONTINUOUS
 62
    7
 10
2351.6962317074867
 20
952.445226397179
 11
2351.6962317074867
 21
859.51133039718025
  0
LINE
  8
_0-5_寸法線
  6
CONTINUOUS
 62
    7
 10
2351.6962317074867
 20
869.51133039718025
 11
2332.3777151817053
 21
864.33494949512988
  0
LINE
  8
_0-5_寸法線
  6
CONTINUOUS
 62
    7
 10
2351.6962317074867
 20
869.51133039718025
 11
2332.3777151817053
 21
874.68771129923084
  0
LINE
  8
_0-5_寸法線
  6
CONTINUOUS
 62
    7
 10
2315.9411277074869
 20
869.51133039718025
 11
2351.6962317074867
 21
869.51133039718025
  0
TEXT
  8
_0-5_寸法線
 62
    7
 10
2318.8186797074868
 20
869.51133039718025
 40
30
 41
1
 50
0
  1
36
  0
LINE
  8
_0-5_寸法線
  6
CONTINUOUS
 62
    7
 10
2373.4717437074869
 20
971.08196239717927
 11
2673.4717437074869
 21
971.08196239717927
  0
LINE
  8
_0-5_寸法線
  6
CONTINUOUS
 62
    7
 10
2663.4717437074869
 20
971.08196239717927
 11
2658.2953628054365
 21
990.40047892296059
  0
LINE
  8
_0-5_寸法線
  6
CONTINUOUS
 62
    7
 10
2663.4717437074869
 20
971.08196239717927
 11
2668.6481246095373
 21
990.40047892296059
  0
LINE
  8
_0-5_寸法線
  6
CONTINUOUS
 62
    7
 10
2366.4717437074869
 20
1107.5819623971793
 11
2673.4717437074869
 21
1107.5819623971793
  0
LINE
  8
_0-5_寸法線
  6
CONTINUOUS
 62
    7
 10
2663.4717437074869
 20
1107.5819623971793
 11
2668.6481246095373
 21
1088.2634458713978
  0
LINE
  8
_0-5_寸法線
  6
CONTINUOUS
 62
    7
 10
2663.4717437074869
 20
1107.5819623971793
 11
2658.2953628054365
 21
1088.2634458713978
  0
LINE
  8
_0-5_寸法線
  6
CONTINUOUS
 62
    7
 10
2663.4717437074869
 20
971.08196239717927
 11
2663.4717437074869
 21
1107.5819623971793
  0
TEXT
  8
_0-5_寸法線
 62
    7
 10
2663.4717437074869
 20
1001.8319623971804
 40
30
 41
1
 50
90
  1
136.5
  0
LINE
  8
_0-5_寸法線
  6
CONTINUOUS
 62
    7
 10
2373.4717437074869
 20
971.08196239717927
 11
2603.4717437074869
 21
971.08196239717927
  0
LINE
  8
_0-5_寸法線
  6
CONTINUOUS
 62
    7
 10
2593.4717437074869
 20
971.08196239717927
 11
2588.2953628054365
 21
990.40047892296059
  0
LINE
  8
_0-5_寸法線
  6
CONTINUOUS
 62
    7
 10
2593.4717437074869
 20
971.08196239717927
 11
2598.6481246095373
 21
990.40047892296059
  0
LINE
  8
_0-5_寸法線
  6
CONTINUOUS
 62
    7
 10
2355.1717437074876
 20
1087.5819623971793
 11
2603.4717437074869
 21
1087.5819623971793
  0
LINE
  8
_0-5_寸法線
  6
CONTINUOUS
 62
    7
 10
2593.4717437074869
 20
1087.5819623971793
 11
2598.6481246095373
 21
1068.2634458713978
  0
LINE
  8
_0-5_寸法線
  6
CONTINUOUS
 62
    7
 10
2593.4717437074869
 20
1087.5819623971793
 11
2588.2953628054365
 21
1068.2634458713978
  0
LINE
  8
_0-5_寸法線
  6
CONTINUOUS
 62
    7
 10
2593.4717437074869
 20
971.08196239717927
 11
2593.4717437074869
 21
1087.5819623971793
  0
TEXT
  8
_0-5_寸法線
 62
    7
 10
2593.4717437074869
 20
991.8319623971804
 40
30
 41
1
 50
90
  1
116.5
  0
LINE
  8
_0-5_寸法線
  6
CONTINUOUS
 62
    7
 10
2366.4717437074869
 20
1107.5819623971793
 11
2603.4717437074869
 21
1107.5819623971793
  0
LINE
  8
_0-5_寸法線
  6
CONTINUOUS
 62
    7
 10
2593.4717437074869
 20
1107.5819623971793
 11
2588.2953628054365
 21
1126.9004789229607
  0
LINE
  8
_0-5_寸法線
  6
CONTINUOUS
 62
    7
 10
2593.4717437074869
 20
1107.5819623971793
 11
2598.6481246095373
 21
1126.9004789229607
  0
LINE
  8
_0-5_寸法線
  6
CONTINUOUS
 62
    7
 10
2593.4717437074869
 20
1087.5819623971793
 11
2593.4717437074869
 21
1157.5819623971793
  0
TEXT
  8
_0-5_寸法線
 62
    7
 10
2593.4717437074869
 20
1120.9571579864692
 40
30
 41
1
 50
90
  1
20
  0
LINE
  8
_0-5_寸法線
  6
CONTINUOUS
 62
    7
 10
2373.4717437074869
 20
971.08196239717927
 11
2533.4717437074869
 21
971.08196239717927
  0
LINE
  8
_0-5_寸法線
  6
CONTINUOUS
 62
    7
 10
2523.4717437074869
 20
971.08196239717927
 11
2518.2953628054365
 21
990.40047892296059
  0
LINE
  8
_0-5_寸法線
  6
CONTINUOUS
 62
    7
 10
2523.4717437074869
 20
971.08196239717927
 11
2528.6481246095373
 21
990.40047892296059
  0
LINE
  8
_0-5_寸法線
  6
CONTINUOUS
 62
    7
 10
2373.4717437074869
 20
1026.0819623971793
 11
2533.4717437074869
 21
1026.0819623971793
  0
LINE
  8
_0-5_寸法線
  6
CONTINUOUS
 62
    7
 10
2523.4717437074869
 20
1026.0819623971793
 11
2528.6481246095373
 21
1006.7634458713979
  0
LINE
  8
_0-5_寸法線
  6
CONTINUOUS
 62
    7
 10
2523.4717437074869
 20
1026.0819623971793
 11
2518.2953628054365
 21
1006.7634458713979
  0
LINE
  8
_0-5_寸法線
  6
CONTINUOUS
 62
    7
 10
2523.4717437074869
 20
971.08196239717927
 11
2523.4717437074869
 21
1026.0819623971793
  0
TEXT
  8
_0-5_寸法線
 62
    7
 10
2523.4717437074869
 20
961.08196239717927
 40
30
 41
1
 50
90
  1
VU-50
  0
LINE
  8
_0-5_寸法線
  6
CONTINUOUS
 62
    7
 10
2373.4717437074869
 20
971.08196239717927
 11
2463.4717437074869
 21
971.08196239717927
  0
LINE
  8
_0-5_寸法線
  6
CONTINUOUS
 62
    7
 10
2453.4717437074869
 20
971.08196239717927
 11
2458.6481246095373
 21
951.76344587139795
  0
LINE
  8
_0-5_寸法線
  6
CONTINUOUS
 62
    7
 10
2453.4717437074869
 20
971.08196239717927
 11
2448.2953628054365
 21
951.76344587139795
  0
LINE
  8
_0-5_寸法線
  6
CONTINUOUS
 62
    7
 10
2373.4717437074869
 20
998.58196239717927
 11
2463.4717437074869
 21
998.58196239717927
  0
LINE
  8
_0-5_寸法線
  6
CONTINUOUS
 62
    7
 10
2453.4717437074869
 20
921.08196239717927
 11
2453.4717437074869
 21
998.58196239717927
  0
TEXT
  8
_0-5_寸法線
 62
    7
 10
2453.4717437074869
 20
918.47999880448924
 40
30
 41
1
 50
90
  1
28
  0
LINE
  8
_0-5_寸法線
  6
CONTINUOUS
 62
    7
 10
2453.4717437074869
 20
998.58196239717927
 11
2448.2953628054365
 21
1017.9004789229606
  0
LINE
  8
_0-5_寸法線
  6
CONTINUOUS
 62
    7
 10
2453.4717437074869
 20
998.58196239717927
 11
2458.6481246095373
 21
1017.9004789229606
  0
LINE
  8
_0-5_寸法線
  6
CONTINUOUS
 62
    7
 10
2355.1717437074876
 20
1087.5819623971793
 11
2463.4717437074869
 21
1087.5819623971793
  0
LINE
  8
_0-5_寸法線
  6
CONTINUOUS
 62
    7
 10
2453.4717437074869
 20
1087.5819623971793
 11
2458.6481246095373
 21
1068.2634458713978
  0
LINE
  8
_0-5_寸法線
  6
CONTINUOUS
 62
    7
 10
2453.4717437074869
 20
1087.5819623971793
 11
2448.2953628054365
 21
1068.2634458713978
  0
LINE
  8
_0-5_寸法線
  6
CONTINUOUS
 62
    7
 10
2453.4717437074869
 20
998.58196239717927
 11
2453.4717437074869
 21
1087.5819623971793
  0
TEXT
  8
_0-5_寸法線
 62
    7
 10
2453.4717437074869
 20
1007.3908601712897
 40
30
 41
1
 50
90
  1
88.5
  0
LINE
  8
_0-5_寸法線
  6
CONTINUOUS
 62
    7
 10
2223.3469508314683
 20
1038.5072907880212
 11
2219.363521023025
 21
1018.9079977660471
  0
LINE
  8
_0-5_寸法線
  6
CONTINUOUS
 62
    7
 10
2223.3469508314683
 20
1038.5072907880212
 11
2210.097552912177
 21
1023.5255200389984
  0
LINE
  8
_0-5_寸法線
  6
CONTINUOUS
 62
    7
 10
2223.3469508314683
 20
1038.5072907880212
 11
2182.6959720500599
 21
956.93309345934335
  0
LINE
  8
_0-5_寸法線
  6
CONTINUOUS
 62
    7
 10
2182.6959720500599
 20
956.93309345934335
 11
1918.6959720500602
 21
956.93309345934335
  0
TEXT
  8
_0-5_寸法線
 62
    7
 10
1918.6959720500602
 20
957.00453012859907
 40
30
 41
0.7999999999999997
 50
0
  1
横引き排水トラップ一式
  0
LINE
  8
_0-a_極細1
  6
CONTINUOUS
 62
    7
 10
873.82517043211033
 20
779.03564182510365
 11
897.82516803211161
 21
779.03564182510365
  0
LINE
  8
_0-a_極細1
  6
CONTINUOUS
 62
    7
 10
873.82517043211033
 20
780.36897502510385
 11
897.82516803211161
 21
780.36897502510385
  0
LINE
  8
_0-a_極細1
  6
CONTINUOUS
 62
    7
 10
873.61032556620125
 20
781.70230822510348
 11
897.82516803211161
 21
781.70230822510348
  0
LINE
  8
_0-a_極細1
  6
CONTINUOUS
 62
    7
 10
872.27699236620106
 20
783.03564142510368
 11
897.82516803211161
 21
783.03564142510368
  0
LINE
  8
_0-a_極細1
  6
CONTINUOUS
 62
    7
 10
870.94365916620086
 20
784.36897462510376
 11
897.82516803211161
 21
784.36897462510376
  0
LINE
  8
_0-a_極細1
  6
CONTINUOUS
 62
    7
 10
871.373348898019
 20
785.70230782510396
 11
897.82516803211161
 21
785.70230782510396
  0
LINE
  8
_0-a_極細1
  6
CONTINUOUS
 62
    7
 10
872.7066820980192
 20
787.03564102510416
 11
897.82516803211161
 21
787.03564102510416
  0
LINE
  8
_0-a_極細1
  6
CONTINUOUS
 62
    7
 10
873.82517043211033
 20
788.3689742251039
 11
897.82516803211161
 21
788.3689742251039
  0
LINE
  8
_0-a_極細1
  6
CONTINUOUS
 62
    7
 10
873.82517043211033
 20
789.7023074251041
 11
897.82516803211161
 21
789.7023074251041
  0
LINE
  8
_0-a_極細1
  6
CONTINUOUS
 62
    7
 10
873.82517043211033
 20
791.03564062510429
 11
897.82516803211161
 21
791.03564062510429
  0
LINE
  8
_0-a_極細1
  6
CONTINUOUS
 62
    7
 10
873.82517043211033
 20
792.36897382510392
 11
897.82516803211161
 21
792.36897382510392
  0
LINE
  8
_0-a_極細1
  6
CONTINUOUS
 62
    7
 10
873.82517043211033
 20
793.70230702510412
 11
897.82516803211161
 21
793.70230702510412
  0
LINE
  8
_0-a_極細1
  6
CONTINUOUS
 62
    7
 10
873.82517043211033
 20
795.03564022510432
 11
897.82516803211161
 21
795.03564022510432
  0
LINE
  8
_0-a_極細1
  6
CONTINUOUS
 62
    7
 10
873.82517043211033
 20
796.36897342510395
 11
897.82516803211161
 21
796.36897342510395
  0
LINE
  8
_0-a_極細1
  6
CONTINUOUS
 62
    7
 10
872.94365896620002
 20
797.70230662510414
 11
898.29530748059699
 21
797.70230662510414
  0
LINE
  8
_0-a_極細1
  6
CONTINUOUS
 62
    7
 10
871.61032576619982
 20
799.03563982510434
 11
899.0064185205963
 21
799.03563982510434
  0
LINE
  8
_0-a_極細1
  6
CONTINUOUS
 62
    7
 10
870.70668229802004
 20
800.36897302510454
 11
899.7175295605964
 21
800.36897302510454
  0
LINE
  8
_0-a_極細1
  6
CONTINUOUS
 62
    7
 10
872.04001549802024
 20
801.70230622510417
 11
900.42864060059651
 21
801.70230622510417
  0
LINE
  8
_0-a_極細1
  6
CONTINUOUS
 62
    7
 10
873.3733486980201
 20
803.03563942510493
 11
901.13975164059661
 21
803.03563942510493
  0
LINE
  8
_0-a_極細1
  6
CONTINUOUS
 62
    7
 10
873.82517043211033
 20
804.36897262510445
 11
901.85086268059672
 21
804.36897262510445
  0
LINE
  8
_0-a_極細1
  6
CONTINUOUS
 62
    7
 10
873.82517043211033
 20
805.70230582510465
 11
902.56197372059569
 21
805.70230582510465
  0
LINE
  8
_0-a_極細1
  6
CONTINUOUS
 62
    7
 10
941.21227828787164
 20
746.50051478569583
 11
941.21227828787164
 21
849.40014047686361
  0
LINE
  8
_0-a_極細1
  6
CONTINUOUS
 62
    7
 10
939.87894508787224
 20
745.16718158569574
 11
939.87894508787224
 21
849.11173015993199
  0
LINE
  8
_0-a_極細1
  6
CONTINUOUS
 62
    7
 10
938.54561188787238
 20
743.83384838569611
 11
938.54561188787238
 21
848.52447512361312
  0
LINE
  8
_0-a_極細1
  6
CONTINUOUS
 62
    7
 10
937.21227868787219
 20
742.50051518569592
 11
937.21227868787219
 21
847.53595336612364
  0
LINE
  8
_0-a_極細1
  6
CONTINUOUS
 62
    7
 10
935.87894548787199
 20
741.16718198569629
 11
935.87894548787199
 21
845.80914836650379
  0
LINE
  8
_0-a_極細1
  6
CONTINUOUS
 62
    7
 10
934.54561228787179
 20
739.83384878569609
 11
934.54561228787179
 21
840.61216495261419
  0
LINE
  8
_0-a_極細1
  6
CONTINUOUS
 62
    7
 10
933.21227908787159
 20
738.50051558569589
 11
933.21227908787159
 21
837.85042982087475
  0
LINE
  8
_0-a_極細1
  6
CONTINUOUS
 62
    7
 10
931.8789458878714
 20
737.44673442993474
 11
931.8789458878714
 21
836.19914905796566
  0
LINE
  8
_0-a_極細1
  6
CONTINUOUS
 62
    7
 10
930.5456126878712
 20
737.44673442993474
 11
930.5456126878712
 21
835.03097871539069
  0
LINE
  8
_0-a_極細1
  6
CONTINUOUS
 62
    7
 10
929.212279487871
 20
737.44673442993474
 11
929.212279487871
 21
834.17409298158589
  0
LINE
  8
_0-a_極細1
  6
CONTINUOUS
 62
    7
 10
927.8789462878708
 20
737.44673442993474
 11
927.8789462878708
 21
833.55244775721019
  0
LINE
  8
_0-a_極細1
  6
CONTINUOUS
 62
    7
 10
926.54561308787174
 20
737.44673442993474
 11
926.54561308787174
 21
833.12604172053511
  0
LINE
  8
_0-a_極細1
  6
CONTINUOUS
 62
    7
 10
925.21227988787155
 20
737.44673442993474
 11
925.21227988787155
 21
832.87263430132555
  0
LINE
  8
_0-a_極細1
  6
CONTINUOUS
 62
    7
 10
923.87894668787135
 20
737.44673442993474
 11
923.87894668787135
 21
832.780614504357
  0
LINE
  8
_0-a_極細1
  6
CONTINUOUS
 62
    7
 10
922.54561348787115
 20
737.44673442993474
 11
922.54561348787115
 21
832.78005822993521
  0
LINE
  8
_0-a_極細1
  6
CONTINUOUS
 62
    7
 10
921.21228028787095
 20
737.44673442993474
 11
921.21228028787095
 21
832.78005822993521
  0
LINE
  8
_0-a_極細1
  6
CONTINUOUS
 62
    7
 10
919.87894708787155
 20
737.44673442993474
 11
919.87894708787155
 21
832.78005822993521
  0
LINE
  8
_0-a_極細1
  6
CONTINUOUS
 62
    7
 10
918.54561388787135
 20
737.44673442993474
 11
918.54561388787135
 21
832.78005822993521
  0
LINE
  8
_0-a_極細1
  6
CONTINUOUS
 62
    7
 10
917.21228068787116
 20
737.44673442993474
 11
917.21228068787116
 21
832.78005822993521
  0
LINE
  8
_0-a_極細1
  6
CONTINUOUS
 62
    7
 10
915.8789474878713
 20
737.44673442993474
 11
915.8789474878713
 21
832.78005822993521
  0
LINE
  8
_0-a_極細1
  6
CONTINUOUS
 62
    7
 10
914.5456142878711
 20
737.44673442993474
 11
914.5456142878711
 21
832.66211799841074
  0
LINE
  8
_0-a_極細1
  6
CONTINUOUS
 62
    7
 10
913.21228108787091
 20
737.44673442993474
 11
913.21228108787091
 21
832.27411940262925
  0
LINE
  8
_0-a_極細1
  6
CONTINUOUS
 62
    7
 10
911.87894788787071
 20
737.44673442993474
 11
911.87894788787071
 21
831.56169805561433
  0
LINE
  8
_0-a_極細1
  6
CONTINUOUS
 62
    7
 10
910.54561468787165
 20
737.44673442993474
 11
910.54561468787165
 21
830.37639722163135
  0
LINE
  8
_0-a_極細1
  6
CONTINUOUS
 62
    7
 10
909.21228148787031
 20
737.44673442993474
 11
909.21228148787031
 21
828.07565156788428
  0
LINE
  8
_0-a_極細1
  6
CONTINUOUS
 62
    7
 10
907.87894828787125
 20
737.44673442993474
 11
907.87894828787125
 21
750.78006642993444
  0
LINE
  8
_0-a_極細1
  6
CONTINUOUS
 62
    7
 10
906.54561508787106
 20
737.44673442993474
 11
906.54561508787106
 21
750.78006642993444
  0
LINE
  8
_0-a_極細1
  6
CONTINUOUS
 62
    7
 10
905.21228188787086
 20
737.44673442993474
 11
905.21228188787086
 21
750.78006642993444
  0
LINE
  8
_0-a_極細1
  6
CONTINUOUS
 62
    7
 10
903.87894868787066
 20
737.44673442993474
 11
903.87894868787066
 21
750.78006642993444
  0
LINE
  8
_0-a_極細1
  6
CONTINUOUS
 62
    7
 10
902.54561548787126
 20
737.44673442993474
 11
902.54561548787126
 21
750.78006642993444
  0
LINE
  8
_0-a_極細1
  6
CONTINUOUS
 62
    7
 10
901.21228228787027
 20
737.44673442993474
 11
901.21228228787027
 21
750.78006642993444
  0
LINE
  8
_0-a_極細1
  6
CONTINUOUS
 62
    7
 10
899.87894908787086
 20
737.44673442993474
 11
899.87894908787086
 21
750.78006642993444
  0
LINE
  8
_0-a_極細1
  6
CONTINUOUS
 62
    7
 10
898.54561588787101
 20
737.44673442993474
 11
898.54561588787101
 21
750.78006642993444
  0
LINE
  8
_0-a_極細1
  6
CONTINUOUS
 62
    7
 10
897.21228268787047
 20
737.44673442993474
 11
897.21228268787047
 21
750.78006642993444
  0
LINE
  8
_0-a_極細1
  6
CONTINUOUS
 62
    7
 10
895.87894948787061
 20
737.44673442993474
 11
895.87894948787061
 21
750.78006642993444
  0
LINE
  8
_0-a_極細1
  6
CONTINUOUS
 62
    7
 10
894.54561628787235
 20
724.1134024299339
 11
894.54561628787235
 21
764.1133984299347
  0
LINE
  8
_0-a_極細1
  6
CONTINUOUS
 62
    7
 10
893.21228308787215
 20
724.1134024299339
 11
893.21228308787215
 21
764.1133984299347
  0
LINE
  8
_0-a_極細1
  6
CONTINUOUS
 62
    7
 10
891.8789498878723
 20
724.1134024299339
 11
891.8789498878723
 21
728.73594399446404
  0
LINE
  8
_0-a_極細1
  6
CONTINUOUS
 62
    7
 10
891.8789498878723
 20
738.11859436274858
 11
891.8789498878723
 21
764.1133984299347
  0
LINE
  8
_0-a_極細1
  6
CONTINUOUS
 62
    7
 10
890.5456166878721
 20
724.1134024299339
 11
890.5456166878721
 21
725.09513120792576
  0
LINE
  8
_0-a_極細1
  6
CONTINUOUS
 62
    7
 10
890.5456166878721
 20
738.11859436274858
 11
890.5456166878721
 21
764.1133984299347
  0
LINE
  8
_0-a_極細1
  6
CONTINUOUS
 62
    7
 10
889.2122834878719
 20
738.11859436274858
 11
889.2122834878719
 21
764.1133984299347
  0
LINE
  8
_0-a_極細1
  6
CONTINUOUS
 62
    7
 10
887.8789502878717
 20
738.11859436274858
 11
887.8789502878717
 21
764.1133984299347
  0
LINE
  8
_0-a_極細1
  6
CONTINUOUS
 62
    7
 10
886.54561708787151
 20
738.11859436274858
 11
886.54561708787151
 21
764.1133984299347
  0
LINE
  8
_0-a_極細1
  6
CONTINUOUS
 62
    7
 10
885.21228388787131
 20
738.11859436274858
 11
885.21228388787131
 21
764.1133984299347
  0
LINE
  8
_0-a_極細1
  6
CONTINUOUS
 62
    7
 10
883.87895068787225
 20
738.11859436274858
 11
883.87895068787225
 21
764.1133984299347
  0
LINE
  8
_0-a_極細1
  6
CONTINUOUS
 62
    7
 10
882.54561748787205
 20
738.11859436274858
 11
882.54561748787205
 21
764.1133984299347
  0
LINE
  8
_0-a_極細1
  6
CONTINUOUS
 62
    7
 10
881.21228428787185
 20
738.11859436274858
 11
881.21228428787185
 21
764.1133984299347
  0
LINE
  8
_0-a_極細1
  6
CONTINUOUS
 62
    7
 10
879.87895108787166
 20
738.11859436274858
 11
879.87895108787166
 21
764.1133984299347
  0
LINE
  8
_0-a_極細1
  6
CONTINUOUS
 62
    7
 10
878.54561788787146
 20
738.11859436274858
 11
878.54561788787146
 21
764.1133984299347
  0
LINE
  8
_0-a_極細1
  6
CONTINUOUS
 62
    7
 10
877.21228468787126
 20
738.11859436274858
 11
877.21228468787126
 21
764.1133984299347
  0
LINE
  8
_0-a_極細1
  6
CONTINUOUS
 62
    7
 10
858.82517193211038
 20
718.11859636274903
 11
858.82517193211038
 21
737.44673442993474
  0
ARC
  8
_0-a_極細1
  6
CONTINUOUS
 62
    7
 10
838.82517393211083
 20
738.11859436274858
 40
19.999997999999998
 50
358.07490068720563
 51
50.029499419965092
  0
LINE
  8
_0-a_極細1
  6
CONTINUOUS
 62
    7
 10
942.01849694611064
 20
840.36896902510364
 11
950.40448338957378
 21
840.36896902510364
  0
LINE
  8
_0-a_極細1
  6
CONTINUOUS
 62
    7
 10
942.01849694611064
 20
841.70230222510384
 11
961.93948223607345
 21
841.70230222510384
  0
LINE
  8
_0-a_極細1
  6
CONTINUOUS
 62
    7
 10
942.01849694611064
 20
843.03563542510346
 11
973.47448108257277
 21
843.03563542510346
  0
LINE
  8
_0-a_極細1
  6
CONTINUOUS
 62
    7
 10
942.01849694611064
 20
844.36896862510366
 11
985.00947992907322
 21
844.36896862510366
  0
LINE
  8
_0-a_極細1
  6
CONTINUOUS
 62
    7
 10
942.01849694611064
 20
845.70230182510375
 11
988.1584923321102
 21
845.70230182510375
  0
LINE
  8
_0-a_極細1
  6
CONTINUOUS
 62
    7
 10
942.01849694611064
 20
847.03563502510394
 11
988.1584923321102
 21
847.03563502510394
  0
LINE
  8
_0-a_極細1
  6
CONTINUOUS
 62
    7
 10
942.01849694611064
 20
848.36896822510414
 11
988.1584923321102
 21
848.36896822510414
  0
LINE
  8
_0-a_極細1
  6
CONTINUOUS
 62
    7
 10
944.14357813686729
 20
849.70230142510388
 11
988.1584923321102
 21
849.70230142510388
  0
LINE
  8
_0-a_極細1
  6
CONTINUOUS
 62
    7
 10
953.50490548586799
 20
851.03563462510408
 11
988.1584923321102
 21
851.03563462510408
  0
LINE
  8
_0-a_極細1
  6
CONTINUOUS
 62
    7
 10
962.86623283486756
 20
852.36896782510428
 11
988.1584923321102
 21
852.36896782510428
  0
LINE
  8
_0-a_極細1
  6
CONTINUOUS
 62
    7
 10
972.22756018386792
 20
853.70230102510448
 11
988.1584923321102
 21
853.70230102510448
  0
LINE
  8
_0-a_極細1
  6
CONTINUOUS
 62
    7
 10
981.58888753286749
 20
855.0356342251041
 11
988.1584923321102
 21
855.0356342251041
  0
LINE
  8
_0-a_極細1
  6
CONTINUOUS
 62
    7
 10
988.1584923321102
 20
856.06629590131092
 11
988.1584923321102
 21
860.6851022038984
  0
LINE
  8
_0-a_極細1
  6
CONTINUOUS
 62
    7
 10
942.01849694611064
 20
854.11338942993495
 11
988.1584923321102
 21
860.6851022038984
  0
LINE
  8
_0-a_極細1
  6
CONTINUOUS
 62
    7
 10
898.82516793211028
 20
808.11858736274928
 11
898.82516793211028
 21
814.11339342993472
  0
LINE
  8
_0-a_極細1
  6
CONTINUOUS
 62
    7
 10
898.82516793211028
 20
767.45192476274838
 11
898.82516793211028
 21
777.45192376274815
  0
LINE
  8
_0-a_極細1
  6
CONTINUOUS
 62
    7
 10
873.82517043211033
 20
796.8207951591944
 11
873.82517043211033
 21
788.15412935919483
  0
LINE
  8
_0-a_極細1
  6
CONTINUOUS
 62
    7
 10
873.82517043211033
 20
781.48746335919429
 11
873.82517043211033
 21
778.15413035919505
  0
LINE
  8
_0-a_極細1
  6
CONTINUOUS
 62
    7
 10
897.82516803211161
 20
796.8207951591944
 11
897.82516803211161
 21
778.15413035919505
  0
LINE
  8
_0-a_極細1
  6
CONTINUOUS
 62
    7
 10
870.49183743211063
 20
800.15412815919478
 11
873.82517043211033
 21
803.48746115919482
  0
LINE
  8
_0-a_極細1
  6
CONTINUOUS
 62
    7
 10
873.82517043211033
 20
796.8207951591944
 11
870.49183743211063
 21
800.15412815919478
  0
LINE
  8
_0-a_極細1
  6
CONTINUOUS
 62
    7
 10
873.82517043211033
 20
781.48746335919429
 11
870.49183743211063
 21
784.82079635919479
  0
LINE
  8
_0-a_極細1
  6
CONTINUOUS
 62
    7
 10
870.49183743211063
 20
784.82079635919479
 11
873.82517043211033
 21
788.15412935919483
  0
LINE
  8
_0-a_極細1
  6
CONTINUOUS
 62
    7
 10
897.82516803211161
 20
796.8207951591944
 11
903.15850083211092
 21
806.82079415919418
  0
LINE
  8
_0-a_極細1
  6
CONTINUOUS
 62
    7
 10
873.82517043211033
 20
806.82079415919418
 11
873.82517043211033
 21
803.48746115919482
  0
ARC
  8
_0-a_極細1
  6
CONTINUOUS
 62
    7
 10
915.15849963211076
 20
847.4467234299351
 40
3.3333330000000005
 50
24.054548999992409
 51
89.999999999999915
  0
ARC
  8
_0-a_極細1
  6
CONTINUOUS
 62
    7
 10
917.15849943211106
 20
838.78005762993496
 40
1.3333331999999243
 50
269.99999999999977
 51
359.99999999999966
  0
ARC
  8
_0-a_極細1
  6
CONTINUOUS
 62
    7
 10
915.15849963211076
 20
847.4467234299351
 40
3.3333330000000005
 50
0
 51
24.054548999992409
  0
LINE
  8
_0-a_極細1
  6
CONTINUOUS
 62
    7
 10
904.15850073211027
 20
817.44672642993453
 11
904.15850073211254
 21
837.44672442993476
  0
LINE
  8
_0-a_極細1
  6
CONTINUOUS
 62
    7
 10
904.15850073211254
 20
837.44672442993476
 11
917.15849943211106
 21
837.44672442993476
  0
LINE
  8
_0-a_極細1
  6
CONTINUOUS
 62
    7
 10
918.49183263211091
 20
838.78005762993496
 11
918.49183263211091
 21
847.4467234299351
  0
LINE
  8
_0-a_極細1
  6
CONTINUOUS
 62
    7
 10
895.49183493211012
 20
737.44673442993474
 11
932.15849793210987
 21
737.44673442993474
  0
LINE
  8
_0-a_極細1
  6
CONTINUOUS
 62
    7
 10
889.95727548556624
 20
724.1134024299339
 11
895.49183493211012
 21
724.1134024299339
  0
LINE
  8
_0-a_極細1
  6
CONTINUOUS
 62
    7
 10
895.49183493211012
 20
755.44673262993513
 11
904.15850073211027
 21
755.44673262993513
  0
LINE
  8
_0-a_極細1
  6
CONTINUOUS
 62
    7
 10
895.49183493211012
 20
750.78006642993444
 11
908.82516693210982
 21
750.78006642993444
  0
LINE
  8
_0-a_極細1
  6
CONTINUOUS
 62
    7
 10
895.49183493211012
 20
724.1134024299339
 11
895.49183493211012
 21
764.1133984299347
  0
LINE
  8
_0-a_極細1
  6
CONTINUOUS
 62
    7
 10
942.01849694611064
 20
747.30673344393438
 11
932.15849793210987
 21
737.44673442993474
  0
LINE
  8
_0-a_極細1
  6
CONTINUOUS
 62
    7
 10
908.82516693210982
 20
750.78006642993444
 11
908.82516693211096
 21
825.78005892993417
  0
ARC
  8
_0-a_極細1
  6
CONTINUOUS
 62
    7
 10
915.82516623211052
 20
825.78005892993417
 40
6.9999993000000771
 50
89.999999999999915
 51
179.99999999999983
  0
LINE
  8
_0-a_極細1
  6
CONTINUOUS
 62
    7
 10
923.76665877129562
 20
832.78005822993521
 11
915.82516623211052
 21
832.78005822993521
  0
ARC
  8
_0-a_極細1
  6
CONTINUOUS
 62
    7
 10
923.76665877129562
 20
844.11339042993461
 40
11.333332199999923
 50
269.99999999999977
 51
356.64911199999887
  0
ARC
  8
_0-a_極細1
  6
CONTINUOUS
 62
    7
 10
923.76665877129562
 20
844.11339042993461
 40
6.6666660000000011
 50
269.99999999999977
 51
356.64911199999938
  0
ARC
  8
_0-a_極細1
  6
CONTINUOUS
 62
    7
 10
942.01849694611064
 20
842.44672392993436
 40
11.666665500000002
 50
89.999999999999915
 51
175.84900999999778
  0
ARC
  8
_0-a_極細1
  6
CONTINUOUS
 62
    7
 10
915.82516623211052
 20
825.78005892993417
 40
11.666665500000002
 50
89.999999999999915
 51
179.99999999999983
  0
LINE
  8
_0-a_極細1
  6
CONTINUOUS
 62
    7
 10
918.82516593211096
 20
837.44672442993476
 11
918.82516593211096
 21
854.11338942993495
  0
LINE
  8
_0-a_極細1
  6
CONTINUOUS
 62
    7
 10
904.15850073211027
 20
755.44673262993513
 11
904.15850073211027
 21
825.78005892993417
  0
LINE
  8
_0-a_極細1
  6
CONTINUOUS
 62
    7
 10
923.76665877129562
 20
837.44672442993476
 11
915.82516623211052
 21
837.44672442993476
  0
LINE
  8
_0-a_極細1
  6
CONTINUOUS
 62
    7
 10
877.15850343211082
 20
764.1133984299347
 11
904.15850073211027
 21
764.1133984299347
  0
LINE
  8
_0-a_極細1
  6
CONTINUOUS
 62
    7
 10
988.1584923321102
 20
844.73296370131095
 11
942.01849694611064
 21
839.39963090131073
  0
LINE
  8
_0-a_極細1
  6
CONTINUOUS
 62
    7
 10
942.01849694610837
 20
712.73297690131074
 11
932.15849793210987
 21
718.06630970131039
  0
LINE
  8
_0-a_極細1
  6
CONTINUOUS
 62
    7
 10
932.15849793210987
 20
718.06630970131039
 11
932.15849793210987
 21
737.44673442993474
  0
LINE
  8
_0-a_極細1
  6
CONTINUOUS
 62
    7
 10
988.1584923321102
 20
755.10124599781761
 11
988.1584923321102
 21
860.59014878225923
  0
LINE
  8
_0-a_極細1
  6
CONTINUOUS
 62
    7
 10
962.15849493210976
 20
751.39963970131078
 11
988.1584923321102
 21
751.39963970131078
  0
LINE
  8
_0-a_極細1
  6
CONTINUOUS
 62
    7
 10
988.1584923321102
 20
751.39963970131078
 11
988.1584923321102
 21
755.10124599781761
  0
LINE
  8
_0-a_極細1
  6
CONTINUOUS
 62
    7
 10
962.15849493210976
 20
698.06631170131027
 11
962.15849493210976
 21
751.39963970131078
  0
LINE
  8
_0-a_極細1
  6
CONTINUOUS
 62
    7
 10
942.01849694611064
 20
849.39962625963858
 11
988.1584923321102
 21
855.97134257747246
  0
LINE
  8
_0-a_極細1
  6
CONTINUOUS
 62
    7
 10
942.01849694611064
 20
747.30673344393438
 11
942.01849694611064
 21
849.4467232299354
  0
ARC
  8
_0-a_極細1
  6
CONTINUOUS
 62
    7
 10
942.01849694611064
 20
842.44672392993436
 40
6.9999993000000771
 50
89.999999999999915
 51
175.84900999999735
  0
LINE
  8
_0-a_極細1
  6
CONTINUOUS
 62
    7
 10
878.82516993210993
 20
718.11859636274903
 11
858.82517193211038
 21
718.11859636274903
  0
ARC
  8
_0-a_極細1
  6
CONTINUOUS
 62
    7
 10
878.82516993210993
 20
731.4519283627493
 40
13.333332000000002
 50
269.99999999999977
 51
359.99999999999966
  0
LINE
  8
_0-a_極細1
  6
CONTINUOUS
 62
    7
 10
892.15850193211077
 20
731.4519283627493
 11
892.15850193211077
 21
738.11859436274858
  0
LINE
  8
_0-a_極細1
  6
CONTINUOUS
 62
    7
 10
892.15850193211077
 20
738.11859436274858
 11
877.15850343211082
 21
738.11859436274858
  0
LINE
  8
_0-a_極細1
  6
CONTINUOUS
 62
    7
 10
898.82516793211028
 20
767.45192476274838
 11
877.15850343211082
 21
767.45192476274838
  0
LINE
  8
_0-a_極細1
  6
CONTINUOUS
 62
    7
 10
877.15850343211082
 20
738.11859436274858
 11
877.15850343211082
 21
767.45192476274894
  0
LINE
  8
_0-a_極細1
  6
CONTINUOUS
 62
    7
 10
896.82516813211146
 20
814.11339342993472
 11
896.82516813211146
 21
820.78005942993457
  0
ARC
  8
_0-a_極細1
  6
CONTINUOUS
 62
    7
 10
900.82516773211057
 20
817.44672642993453
 40
3.3333330000000005
 50
269.99999999999977
 51
359.99999999999966
  0
CIRCLE
  8
_0-a_極細1
  6
CONTINUOUS
 62
    7
 10
905.65969962275767
 20
796.88766116454246
 40
124.1013462770983
  0
ARC
  8
_0-a_極細1
  6
CONTINUOUS
 62
    7
 10
978.82515993210995
 20
669.19880125472889
 40
33.333330000000004
 50
120.00000000000082
 51
161.13978923390184
  0
LINE
  8
_0-a_極細1
  6
CONTINUOUS
 62
    7
 10
928.82516493211017
 20
674.96758338901998
 11
928.82516493211017
 21
712.73297690131074
  0
LINE
  8
_0-a_極細1
  6
CONTINUOUS
 62
    7
 10
959.52003980549443
 20
696.37274513090972
 11
962.1584949321109
 21
699.01120025752505
  0
LINE
  8
_0-a_極細1
  6
CONTINUOUS
 62
    7
 10
928.82516493211051
 20
675.10595973053682
 11
962.1584949321109
 21
708.43928973053664
  0
LINE
  8
_0-a_極細1
  6
CONTINUOUS
 62
    7
 10
928.82516493211017
 20
679.82000446704262
 11
962.1584949321109
 21
713.15333446704301
  0
LINE
  8
_0-a_極細1
  6
CONTINUOUS
 62
    7
 10
928.82516493211017
 20
684.53404920354842
 11
962.1584949321109
 21
717.86737920354869
  0
LINE
  8
_0-a_極細1
  6
CONTINUOUS
 62
    7
 10
928.82516493211017
 20
689.24809394005422
 11
962.1584949321109
 21
722.58142394005461
  0
LINE
  8
_0-a_極細1
  6
CONTINUOUS
 62
    7
 10
928.82516493211017
 20
693.96213867656002
 11
962.1584949321109
 21
727.2954686765604
  0
LINE
  8
_0-a_極細1
  6
CONTINUOUS
 62
    7
 10
986.2626659568607
 20
751.39963970131078
 11
988.1584923321102
 21
753.29546607656027
  0
LINE
  8
_0-a_極細1
  6
CONTINUOUS
 62
    7
 10
928.82516493211017
 20
698.67618341306581
 11
962.1584949321109
 21
732.0095134130662
  0
LINE
  8
_0-a_極細1
  6
CONTINUOUS
 62
    7
 10
981.54862122035547
 20
751.39963970131078
 11
988.1584923321102
 21
758.00951081306607
  0
LINE
  8
_0-a_極細1
  6
CONTINUOUS
 62
    7
 10
928.82516493211017
 20
703.3902281495715
 11
938.16791368384906
 21
712.73297690131074
  0
LINE
  8
_0-a_極細1
  6
CONTINUOUS
 62
    7
 10
939.51958837003099
 20
714.08465158749266
 11
962.1584949321109
 21
736.72355814957189
  0
LINE
  8
_0-a_極細1
  6
CONTINUOUS
 62
    7
 10
976.8345764838491
 20
751.39963970131078
 11
988.1584923321102
 21
762.72355554957244
  0
LINE
  8
_0-a_極細1
  6
CONTINUOUS
 62
    7
 10
928.82516493211017
 20
708.10427288607741
 11
933.45386894734384
 21
712.73297690131119
  0
LINE
  8
_0-a_極細1
  6
CONTINUOUS
 62
    7
 10
936.46032019745826
 20
715.7394281514263
 11
962.1584949321109
 21
741.4376028860778
  0
LINE
  8
_0-a_極細1
  6
CONTINUOUS
 62
    7
 10
972.12053174734274
 20
751.39963970131021
 11
988.1584923321102
 21
767.43760028607824
  0
LINE
  8
_0-a_極細1
  6
CONTINUOUS
 62
    7
 10
933.40105202488667
 20
717.39420471535993
 11
962.1584949321109
 21
746.1516476225836
  0
LINE
  8
_0-a_極細1
  6
CONTINUOUS
 62
    7
 10
967.40648701083637
 20
751.39963970131021
 11
988.1584923321102
 21
772.15164502258347
  0
LINE
  8
_0-a_極細1
  6
CONTINUOUS
 62
    7
 10
932.15849793211066
 20
720.86569535908893
 11
962.1584949321109
 21
750.86569235908939
  0
LINE
  8
_0-a_極細1
  6
CONTINUOUS
 62
    7
 10
962.69244227433194
 20
751.39963970131021
 11
988.1584923321102
 21
776.86568975908926
  0
LINE
  8
_0-a_極細1
  6
CONTINUOUS
 62
    7
 10
932.15849793211066
 20
725.57974009559473
 11
988.1584923321102
 21
781.57973449559506
  0
LINE
  8
_0-a_極細1
  6
CONTINUOUS
 62
    7
 10
932.15849793211066
 20
730.29378483210053
 11
988.1584923321102
 21
786.29377923210143
  0
LINE
  8
_0-a_極細1
  6
CONTINUOUS
 62
    7
 10
932.15849793211066
 20
735.00782956860633
 11
988.1584923321102
 21
791.00782396860711
  0
LINE
  8
_0-a_極細1
  6
CONTINUOUS
 62
    7
 10
942.01849694611064
 20
749.58187331911347
 11
988.1584923321102
 21
795.72186870511302
  0
LINE
  8
_0-a_極細1
  6
CONTINUOUS
 62
    7
 10
942.01849694611064
 20
754.2959180556187
 11
988.1584923321102
 21
800.43591344161825
  0
LINE
  8
_0-a_極細1
  6
CONTINUOUS
 62
    7
 10
942.01849694611064
 20
759.0099627921245
 11
988.1584923321102
 21
805.14995817812405
  0
LINE
  8
_0-a_極細1
  6
CONTINUOUS
 62
    7
 10
942.01849694611064
 20
763.7240075286303
 11
988.1584923321102
 21
809.86400291462985
  0
LINE
  8
_0-a_極細1
  6
CONTINUOUS
 62
    7
 10
942.01849694611064
 20
768.43805226513666
 11
988.1584923321102
 21
814.57804765113565
  0
LINE
  8
_0-a_極細1
  6
CONTINUOUS
 62
    7
 10
942.01849694611064
 20
773.15209700164246
 11
988.1584923321102
 21
819.29209238764145
  0
LINE
  8
_0-a_極細1
  6
CONTINUOUS
 62
    7
 10
942.01849694611064
 20
777.86614173814769
 11
988.1584923321102
 21
824.00613712414781
  0
LINE
  8
_0-a_極細1
  6
CONTINUOUS
 62
    7
 10
942.01849694611064
 20
782.58018647465394
 11
988.1584923321102
 21
828.7201818606535
  0
LINE
  8
_0-a_極細1
  6
CONTINUOUS
 62
    7
 10
942.01849694611064
 20
787.29423121115985
 11
988.1584923321102
 21
833.43422659715884
  0
LINE
  8
_0-a_極細1
  6
CONTINUOUS
 62
    7
 10
942.01849694611064
 20
792.00827594766565
 11
988.1584923321102
 21
838.14827133366464
  0
LINE
  8
_0-a_極細1
  6
CONTINUOUS
 62
    7
 10
942.01849694611064
 20
796.72232068417077
 11
988.1584923321102
 21
842.86231607017044
  0
LINE
  8
_0-a_極細1
  6
CONTINUOUS
 62
    7
 10
942.01849694611064
 20
801.43636542067668
 11
984.94347005368604
 21
844.36133852825208
  0
LINE
  8
_0-a_極細1
  6
CONTINUOUS
 62
    7
 10
942.01849694611064
 20
806.15041015718248
 11
979.61331099122071
 21
843.74522420229141
  0
LINE
  8
_0-a_極細1
  6
CONTINUOUS
 62
    7
 10
942.01849694611064
 20
810.86445489368828
 11
974.28315192875391
 21
843.12910987633074
  0
LINE
  8
_0-a_極細1
  6
CONTINUOUS
 62
    7
 10
942.01849694611064
 20
815.57849963019407
 11
968.95299286628779
 21
842.51299555037065
  0
LINE
  8
_0-a_極細1
  6
CONTINUOUS
 62
    7
 10
942.01849694611064
 20
820.29254436669987
 11
963.62283380382098
 21
841.89688122440998
  0
LINE
  8
_0-a_極細1
  6
CONTINUOUS
 62
    7
 10
942.01849694611064
 20
825.00658910320567
 11
958.29267474135452
 21
841.28076689844931
  0
LINE
  8
_0-a_極細1
  6
CONTINUOUS
 62
    7
 10
942.01849694611064
 20
829.72063383971147
 11
952.96251567888839
 21
840.66465257248854
  0
LINE
  8
_0-a_極細1
  6
CONTINUOUS
 62
    7
 10
942.01849694611064
 20
834.43467857621715
 11
947.63235661642193
 21
840.04853824652798
  0
LINE
  8
_0-a_極細1
  6
CONTINUOUS
 62
    7
 10
942.01849694611064
 20
839.14872331272306
 11
942.30219755395547
 21
839.43242392056732
  0
LINE
  8
_0-a_極細1
  6
CONTINUOUS
 62
    7
 10
934.65415676260614
 20
676.22090682452722
 11
962.1584949321109
 21
703.72524499403085
  0
LINE
  8
_0-a_極細1
  6
CONTINUOUS
 62
    7
 10
941.10236227489497
 20
677.95506760030946
 11
951.65121605592867
 21
688.50392138134396
  0
LINE
  8
_0-a_極細1
  6
CONTINUOUS
 62
    7
 10
814.45041684767966
 20
712.73297690131074
 11
942.01849694610837
 21
712.73297690131074
  0
LINE
  8
_0-a_極細1
  6
CONTINUOUS
 62
    7
 10
809.80387715329118
 20
718.06630970131039
 11
932.15849793210987
 21
718.06630970131039
  0
LINE
  8
_0-a_極細1
  6
CONTINUOUS
 62
    7
 10
796.71971441659355
 20
737.44673442993474
 11
858.82517193211038
 21
737.44673442993474
  0
LINE
  8
_0-a_極細1
  6
CONTINUOUS
 62
    7
 10
799.21238559079961
 20
860.6851022038984
 11
988.1584923321102
 21
860.6851022038984
  0
LINE
  8
_0-a_極細1
  6
CONTINUOUS
 62
    7
 10
795.539945844047
 20
854.11338942993541
 11
942.01849694611064
 21
854.11338942993495
  0
LINE
  8
_0-a_極細1
  6
CONTINUOUS
 62
    7
 10
793.87081877878836
 20
850.78005642993492
 11
915.15849963211076
 21
850.78005642993446
  0
LINE
  8
_0-a_極細1
  6
CONTINUOUS
 62
    7
 10
783.87999091512359
 20
820.78005942993502
 11
896.82516813211146
 21
820.78005942993457
  0
LINE
  8
_0-a_極細1
  6
CONTINUOUS
 62
    7
 10
782.75966587292737
 20
814.11339342993472
 11
900.82516773211057
 21
814.11339342993472
  0
LINE
  8
_0-a_極細1
  6
CONTINUOUS
 62
    7
 10
898.82516793211028
 20
808.11858736274928
 11
782.06758642568184
 21
808.11858736274928
  0
LINE
  8
_0-a_極細1
  6
CONTINUOUS
 62
    7
 10
781.95651851289676
 20
806.82079415919475
 11
903.15850083211092
 21
806.82079415919418
  0
LINE
  8
_0-a_極細1
  6
CONTINUOUS
 62
    7
 10
781.60134907286067
 20
800.15412815919478
 11
870.49183743211063
 21
800.15412815919478
  0
LINE
  8
_0-a_極細1
  6
CONTINUOUS
 62
    7
 10
782.14640106119441
 20
784.82079635919479
 11
870.49183743211063
 21
784.82079635919479
  0
LINE
  8
_0-a_極細1
  6
CONTINUOUS
 62
    7
 10
782.98044721488986
 20
778.15413035919505
 11
897.82516803211161
 21
778.15413035919505
  0
LINE
  8
_0-a_極細1
  6
CONTINUOUS
 62
    7
 10
898.82516793211028
 20
777.45192376274815
 11
783.08973487022615
 21
777.45192376274815
  0
LINE
  8
_0-a_極細1
  6
CONTINUOUS
 62
    7
 10
877.15850343211082
 20
767.45192476274894
 11
785.099832460122
 21
767.45192476274894
  0
LINE
  8
_0-d_寸法1
  6
CONTINUOUS
 62
    7
 10
974.86913486989829
 20
848.07310451103547
 11
983.03296599374391
 21
866.33103049898182
  0
LINE
  8
_0-d_寸法1
  6
CONTINUOUS
 62
    7
 10
974.86913486989829
 20
848.07310451103547
 11
991.06818300932787
 21
859.80301667509036
  0
LINE
  8
_0-d_寸法1
  6
CONTINUOUS
 62
    7
 10
974.86913486989829
 20
848.07310451103547
 11
1015.7850103945102
 21
898.43573364941676
  0
LINE
  8
_0-d_寸法1
  6
CONTINUOUS
 62
    7
 10
1015.7850103945102
 20
898.43573364941676
 11
1103.7850103945102
 21
898.43573364941676
  0
TEXT
  8
_0-d_寸法1
 62
    7
 10
1015.7850103945102
 20
898.43573364941676
 40
30
 41
0.7333333333333333
 50
0
  1
パッキン
  0
LINE
  8
_0-a_極細1
  6
CONTINUOUS
 62
    7
 10
839.87895508787255
 20
726.11340222993476
 11
839.87895508787255
 21
737.44673442993474
  0
LINE
  8
_0-a_極細1
  6
CONTINUOUS
 62
    7
 10
838.54562188787236
 20
726.11340222993476
 11
838.54562188787236
 21
737.44673442993474
  0
LINE
  8
_0-a_極細1
  6
CONTINUOUS
 62
    7
 10
837.21228868787216
 20
726.11340222993476
 11
837.21228868787216
 21
737.44673442993474
  0
LINE
  8
_0-a_極細1
  6
CONTINUOUS
 62
    7
 10
835.87895548787196
 20
726.11340222993476
 11
835.87895548787196
 21
737.44673442993474
  0
LINE
  8
_0-a_極細1
  6
CONTINUOUS
 62
    7
 10
834.54562228787177
 20
726.11340222993476
 11
834.54562228787177
 21
737.44673442993474
  0
LINE
  8
_0-a_極細1
  6
CONTINUOUS
 62
    7
 10
833.21228908787157
 20
726.11340222993476
 11
833.21228908787157
 21
737.44673442993474
  0
LINE
  8
_0-a_極細1
  6
CONTINUOUS
 62
    7
 10
831.87895588787217
 20
726.11340222993476
 11
831.87895588787217
 21
737.44673442993474
  0
LINE
  8
_0-a_極細1
  6
CONTINUOUS
 62
    7
 10
830.54562268787231
 20
726.11340222993476
 11
830.54562268787231
 21
737.44673442993474
  0
LINE
  8
_0-a_極細1
  6
CONTINUOUS
 62
    7
 10
829.21228948787211
 20
726.11340222993476
 11
829.21228948787211
 21
737.44673442993474
  0
LINE
  8
_0-a_極細1
  6
CONTINUOUS
 62
    7
 10
827.87895628787192
 20
726.11340222993476
 11
827.87895628787192
 21
737.44673442993474
  0
LINE
  8
_0-a_極細1
  6
CONTINUOUS
 62
    7
 10
826.54562308787172
 20
726.11340222993476
 11
826.54562308787172
 21
737.44673442993474
  0
LINE
  8
_0-a_極細1
  6
CONTINUOUS
 62
    7
 10
825.21228988787152
 20
726.11340222993476
 11
825.21228988787152
 21
737.44673442993474
  0
LINE
  8
_0-a_極細1
  6
CONTINUOUS
 62
    7
 10
823.87895668787132
 20
726.11340222993476
 11
823.87895668787132
 21
737.44673442993474
  0
LINE
  8
_0-a_極細1
  6
CONTINUOUS
 62
    7
 10
822.54562348787113
 20
726.11340222993476
 11
822.54562348787113
 21
737.44673442993474
  0
LINE
  8
_0-a_極細1
  6
CONTINUOUS
 62
    7
 10
821.21229028787093
 20
726.11340222993476
 11
821.21229028787093
 21
737.44673442993474
  0
LINE
  8
_0-a_極細1
  6
CONTINUOUS
 62
    7
 10
819.87895708787187
 20
726.11340222993476
 11
819.87895708787187
 21
737.44673442993474
  0
LINE
  8
_0-a_極細1
  6
CONTINUOUS
 62
    7
 10
818.54562388787167
 20
726.11340222993476
 11
818.54562388787167
 21
737.44673442993474
  0
LINE
  8
_0-a_極細1
  6
CONTINUOUS
 62
    7
 10
817.21229068787147
 20
726.11340222993476
 11
817.21229068787147
 21
737.44673442993474
  0
LINE
  8
_0-a_極細1
  6
CONTINUOUS
 62
    7
 10
815.87895748787128
 20
726.11340222993476
 11
815.87895748787128
 21
737.44673442993474
  0
LINE
  8
_0-a_極細1
  6
CONTINUOUS
 62
    7
 10
814.54562428787108
 20
726.11340222993476
 11
814.54562428787108
 21
737.44673442993474
  0
LINE
  8
_0-a_極細1
  6
CONTINUOUS
 62
    7
 10
813.21229108787088
 20
726.11340222993476
 11
813.21229108787088
 21
737.44673442993474
  0
LINE
  8
_0-a_極細1
  6
CONTINUOUS
 62
    7
 10
811.87895788787148
 20
726.11340222993476
 11
811.87895788787148
 21
737.44673442993474
  0
LINE
  8
_0-a_極細1
  6
CONTINUOUS
 62
    7
 10
810.54562468787162
 20
726.11340222993476
 11
810.54562468787162
 21
737.44673442993474
  0
LINE
  8
_0-a_極細1
  6
CONTINUOUS
 62
    7
 10
809.21229148787108
 20
726.11340222993476
 11
809.21229148787108
 21
737.44673442993474
  0
LINE
  8
_0-a_極細1
  6
CONTINUOUS
 62
    7
 10
807.87895828787123
 20
726.11340222993476
 11
807.87895828787123
 21
737.44673442993474
  0
LINE
  8
_0-a_極細1
  6
CONTINUOUS
 62
    7
 10
840.73392707456856
 20
726.11340222993476
 11
840.73392707456856
 21
737.44673442993474
  0
LINE
  8
_0-a_極細1
  6
CONTINUOUS
 62
    7
 10
807.40059707456817
 20
726.11340222993476
 11
807.40059707456817
 21
737.44673442993474
  0
LINE
  8
_0-a_極細1
  6
CONTINUOUS
 62
    7
 10
807.40059707456817
 20
726.11340222993476
 11
840.73392707456856
 21
726.11340222993476
  0
ARC
  8
_0-a_極細1
  6
CONTINUOUS
 62
    7
 10
828.82517493211049
 20
720.61356944658485
 40
39.999995999999996
 50
55.166292356155729
 51
148.68484545273029
  0
LINE
  8
_0-a_極細1
  6
CONTINUOUS
 62
    7
 10
858.73874735812842
 20
737.44673442993474
 11
858.73874735812842
 21
739.97588093369075
  0
LINE
  8
_0-a_極細1
  6
CONTINUOUS
 62
    7
 10
856.7387473581291
 20
737.44673442993474
 11
856.7387473581291
 21
747.01262646920497
  0
LINE
  8
_0-a_極細1
  6
CONTINUOUS
 62
    7
 10
854.73874735812865
 20
737.44673442993474
 11
854.73874735812865
 21
750.23297015412766
  0
LINE
  8
_0-a_極細1
  6
CONTINUOUS
 62
    7
 10
852.73874735812933
 20
737.44673442993474
 11
852.73874735812933
 21
752.48565371805228
  0
LINE
  8
_0-a_極細1
  6
CONTINUOUS
 62
    7
 10
850.73874735812888
 20
737.44673442993474
 11
850.73874735812888
 21
754.07690794604821
  0
LINE
  8
_0-a_極細1
  6
CONTINUOUS
 62
    7
 10
848.73874735812842
 20
737.44673442993474
 11
848.73874735812842
 21
755.30433642043192
  0
LINE
  8
_0-a_極細1
  6
CONTINUOUS
 62
    7
 10
846.7387473581291
 20
737.44673442993474
 11
846.7387473581291
 21
756.37812736273759
  0
LINE
  8
_0-a_極細1
  6
CONTINUOUS
 62
    7
 10
844.73874735812865
 20
737.44673442993474
 11
844.73874735812865
 21
757.31176957468222
  0
LINE
  8
_0-a_極細1
  6
CONTINUOUS
 62
    7
 10
842.73874735812899
 20
737.44673442993474
 11
842.73874735812899
 21
758.11573181551978
  0
LINE
  8
_0-a_極細1
  6
CONTINUOUS
 62
    7
 10
840.73874735812888
 20
737.44673442993474
 11
840.73874735812888
 21
758.79820604365136
  0
LINE
  8
_0-a_極細1
  6
CONTINUOUS
 62
    7
 10
838.73874735812842
 20
737.44673442993474
 11
838.73874735812842
 21
759.36561147992961
  0
LINE
  8
_0-a_極細1
  6
CONTINUOUS
 62
    7
 10
836.7387473581291
 20
737.44673442993474
 11
836.7387473581291
 21
759.82294398199656
  0
LINE
  8
_0-a_極細1
  6
CONTINUOUS
 62
    7
 10
834.73874735812865
 20
737.44673442993474
 11
834.73874735812865
 21
760.17402117760355
  0
LINE
  8
_0-a_極細1
  6
CONTINUOUS
 62
    7
 10
832.73874735812899
 20
737.44673442993474
 11
832.73874735812899
 21
760.42165444029365
  0
LINE
  8
_0-a_極細1
  6
CONTINUOUS
 62
    7
 10
830.73874735812888
 20
737.44673442993474
 11
830.73874735812888
 21
760.56776723067799
  0
LINE
  8
_0-a_極細1
  6
CONTINUOUS
 62
    7
 10
828.73874735812842
 20
737.44673442993474
 11
828.73874735812842
 21
760.61347207489746
  0
LINE
  8
_0-a_極細1
  6
CONTINUOUS
 62
    7
 10
826.73874735812797
 20
737.44673442993474
 11
826.73874735812797
 21
760.55911362836525
  0
LINE
  8
_0-a_極細1
  6
CONTINUOUS
 62
    7
 10
824.73874735812865
 20
737.44673442993474
 11
824.73874735812865
 21
760.40428180113611
  0
LINE
  8
_0-a_極細1
  6
CONTINUOUS
 62
    7
 10
822.73874735812819
 20
737.44673442993474
 11
822.73874735812819
 21
760.14779612912776
  0
LINE
  8
_0-a_極細1
  6
CONTINUOUS
 62
    7
 10
820.73874735812888
 20
737.44673442993474
 11
820.73874735812888
 21
759.78765997962444
  0
LINE
  8
_0-a_極細1
  6
CONTINUOUS
 62
    7
 10
818.73874735812842
 20
737.44673442993474
 11
818.73874735812842
 21
759.32098034934143
  0
LINE
  8
_0-a_極細1
  6
CONTINUOUS
 62
    7
 10
816.73874735812797
 20
737.44673442993474
 11
816.73874735812797
 21
758.74384545527562
  0
LINE
  8
_0-a_極細1
  6
CONTINUOUS
 62
    7
 10
814.73874735812865
 20
737.44673442993474
 11
814.73874735812865
 21
758.05114733569212
  0
LINE
  8
_0-a_極細1
  6
CONTINUOUS
 62
    7
 10
812.73874735812819
 20
737.44673442993474
 11
812.73874735812819
 21
757.2363291447158
  0
LINE
  8
_0-a_極細1
  6
CONTINUOUS
 62
    7
 10
810.73874735812853
 20
737.44673442993474
 11
810.73874735812853
 21
756.29102475958518
  0
LINE
  8
_0-a_極細1
  6
CONTINUOUS
 62
    7
 10
808.73874735812842
 20
737.44673442993474
 11
808.73874735812842
 21
755.20453802676798
  0
LINE
  8
_0-a_極細1
  6
CONTINUOUS
 62
    7
 10
806.73874735812797
 20
737.44673442993474
 11
806.73874735812797
 21
753.96307314632963
  0
LINE
  8
_0-a_極細1
  6
CONTINUOUS
 62
    7
 10
804.73874735812865
 20
737.44673442993474
 11
804.73874735812865
 21
752.54856101889231
  0
LINE
  8
_0-a_極細1
  6
CONTINUOUS
 62
    7
 10
802.73874735812819
 20
737.44673442993474
 11
802.73874735812819
 21
750.93679448000444
  0
LINE
  8
_0-a_極細1
  6
CONTINUOUS
 62
    7
 10
800.73874735812853
 20
737.44673442993474
 11
800.73874735812853
 21
749.09430444643135
  0
LINE
  8
_0-a_極細1
  6
CONTINUOUS
 62
    7
 10
798.73874735812842
 20
737.44673442993474
 11
798.73874735812842
 21
746.97275296648058
  0
LINE
  8
_0-a_極細1
  6
CONTINUOUS
 62
    7
 10
796.73874735812797
 20
737.44673442993474
 11
796.73874735812797
 21
744.49789161698834
  0
LINE
  8
_0-a_極細1
  6
CONTINUOUS
 62
    7
 10
794.73874735812751
 20
741.2307972886822
 11
794.73874735812751
 21
741.54476948967101
  0
LINE
  8
_0-d_寸法1
  6
CONTINUOUS
 62
    7
 10
888.79537025525815
 20
787.18065446558569
 11
902.93743504293855
 21
773.03844800615911
  0
LINE
  8
_0-d_寸法1
  6
CONTINUOUS
 62
    7
 10
888.79537025525815
 20
787.18065446558569
 11
893.97165439364142
 21
767.86211201231754
  0
LINE
  8
_0-d_寸法1
  6
CONTINUOUS
 62
    7
 10
888.79537025525815
 20
787.18065446558569
 11
969.57646409262452
 21
647.26207715186081
  0
LINE
  8
_0-d_寸法1
  6
CONTINUOUS
 62
    7
 10
969.57646409262452
 20
647.26207715186081
 11
1189.5764640926245
 21
647.26207715186081
  0
TEXT
  8
_0-d_寸法1
 62
    7
 10
969.57646409262452
 20
647.26207715186081
 40
30
 41
0.7333333333333333
 50
0
  1
防臭インナーパッキン
  0
LINE
  8
_0-d_寸法1
  6
CONTINUOUS
 62
    7
 10
973.4951401575986
 20
760.90123000180017
 11
987.63793193401057
 21
746.75975056119501
  0
LINE
  8
_0-d_寸法1
  6
CONTINUOUS
 62
    7
 10
973.4951401575986
 20
760.90123000180017
 11
978.67241739610233
 21
741.5829536709349
  0
LINE
  8
_0-d_寸法1
  6
CONTINUOUS
 62
    7
 10
973.4951401575986
 20
760.90123000180017
 11
1012.7516345142249
 21
692.91427236708603
  0
LINE
  8
_0-d_寸法1
  6
CONTINUOUS
 62
    7
 10
1012.7516345142249
 20
692.91427236708603
 11
1166.7516345142249
 21
692.91427236708603
  0
TEXT
  8
_0-d_寸法1
 62
    7
 10
1012.7516345142249
 20
692.91427236708603
 40
30
 41
0.7333333333333333
 50
0
  1
ロックフランジ
  0
TEXT
  8
_0-7_枠細線
 62
    5
 10
808.24258022511822
 20
576.17127249333726
 40
50
 41
0.8
 50
0
  1
Ｃ部拡大図
  0
ARC
  8
_0-e_極細4
  6
CONTINUOUS
 62
    6
 10
438.84379926983013
 20
616.85109362147409
 40
1.25
 50
179.99999999999983
 51
269.99999999999977
  0
LINE
  8
_0-e_極細4
  6
CONTINUOUS
 62
    6
 10
440.3437992698299
 20
615.60109362147409
 11
440.3437992698299
 21
618.10109362147409
  0
ARC
  8
_0-e_極細4
  6
CONTINUOUS
 62
    6
 10
657.8437992698299
 20
616.85109362147409
 40
1.25
 50
269.99999999999977
 51
359.99999999999966
  0
LINE
  8
_0-e_極細4
  6
CONTINUOUS
 62
    6
 10
656.34379926983013
 20
615.60109362147409
 11
656.34379926983013
 21
618.10109362147409
  0
LINE
  8
_0-e_極細4
  6
CONTINUOUS
 62
    6
 10
480.84379926983058
 20
433.10299932146461
 11
480.84379926983058
 21
580.53865612147411
  0
ARC
  8
_0-e_極細4
  6
CONTINUOUS
 62
    6
 10
483.34379926982945
 20
433.10299932146461
 40
2.5
 50
179.99999999999983
 51
270.00045836623457
  0
LINE
  8
_0-e_極細4
  6
CONTINUOUS
 62
    6
 10
483.34379926982945
 20
430.60299932146461
 11
548.34379926983058
 21
430.60299932146461
  0
LINE
  8
_0-e_極細4
  6
CONTINUOUS
 62
    6
 10
450.21879926983058
 20
417.58339182146483
 11
450.21879926983058
 21
485.083391821465
  0
LINE
  8
_0-e_極細4
  6
CONTINUOUS
 62
    6
 10
480.21879926983058
 20
387.58339182146483
 11
485.84379926983058
 21
387.58339182146483
  0
ARC
  8
_0-e_極細4
  6
CONTINUOUS
 62
    6
 10
480.21879926983058
 20
417.58339182146483
 40
30
 50
179.99999999999983
 51
269.99999999999977
  0
LINE
  8
_0-e_極細4
  6
CONTINUOUS
 62
    6
 10
428.34379926983058
 20
509.88730932146467
 11
428.34379926983058
 21
577.58343362147434
  0
LINE
  8
_0-e_極細4
  6
CONTINUOUS
 62
    6
 10
548.34379926983058
 20
387.58339182146483
 11
546.01621426983013
 21
387.58339182146483
  0
LINE
  8
_0-e_極細4
  6
CONTINUOUS
 62
    6
 10
546.01621426983013
 20
387.58339182146483
 11
480.21879926983058
 21
387.58339182146483
  0
LINE
  8
_0-e_極細4
  6
CONTINUOUS
 62
    6
 10
450.21879926983058
 20
417.58339182146483
 11
450.21879926983058
 21
562.08343362147411
  0
LINE
  8
_0-e_極細4
  6
CONTINUOUS
 62
    6
 10
455.21879926983058
 20
417.58339182146483
 11
455.21879926983058
 21
562.08343362147411
  0
LINE
  8
_0-e_極細4
  6
CONTINUOUS
 62
    6
 10
548.34379926983058
 20
392.58339182146483
 11
480.21879926983058
 21
392.58339182146483
  0
ARC
  8
_0-e_極細4
  6
CONTINUOUS
 62
    6
 10
480.21879926983058
 20
417.58339182146483
 40
25
 50
179.99999999999983
 51
269.99999999999977
  0
LINE
  8
_0-e_極細4
  6
CONTINUOUS
 62
    6
 10
447.71879926982945
 20
598.10304112147401
 11
548.34379926983058
 21
598.10304112147401
  0
LINE
  8
_0-e_極細4
  6
CONTINUOUS
 62
    6
 10
447.71879926982945
 20
587.10304112147446
 11
447.71879926982945
 21
598.10304112147401
  0
LINE
  8
_0-e_極細4
  6
CONTINUOUS
 62
    6
 10
439.59379926983058
 20
598.10304112147401
 11
447.71879926982945
 21
598.10304112147401
  0
LINE
  8
_0-e_極細4
  6
CONTINUOUS
 62
    6
 10
442.09379926983058
 20
587.10304112147446
 11
447.71879926982945
 21
587.10304112147446
  0
LINE
  8
_0-e_極細4
  6
CONTINUOUS
 62
    6
 10
442.09379926983058
 20
584.60304112147446
 11
442.09379926983058
 21
587.10304112147446
  0
ARC
  8
_0-e_極細4
  6
CONTINUOUS
 62
    6
 10
447.09379926983058
 20
584.60304112147446
 40
5
 50
179.99999999999983
 51
269.99999999999977
  0
LINE
  8
_0-e_極細4
  6
CONTINUOUS
 62
    6
 10
447.09379926983058
 20
579.60304112147446
 11
454.59379926983058
 21
579.60304112147446
  0
ARC
  8
_0-e_極細4
  6
CONTINUOUS
 62
    6
 10
423.39629926982991
 20
626.22609362147409
 40
2.6250000000000284
 50
4.1509900000016975
 51
89.999999999999915
  0
LINE
  8
_0-e_極細4
  6
CONTINUOUS
 62
    6
 10
423.39629926982991
 20
590.54859362147431
 11
423.39629926982991
 21
628.85109362147409
  0
LINE
  8
_0-e_極細4
  6
CONTINUOUS
 62
    6
 10
423.39629926982991
 20
628.8334322558469
 11
406.09379926983036
 21
631.29782612147415
  0
LINE
  8
_0-e_極細4
  6
CONTINUOUS
 62
    6
 10
415.84379926983058
 20
572.08343362147366
 11
415.84379926983058
 21
592.08343362147411
  0
ARC
  8
_0-e_極細4
  6
CONTINUOUS
 62
    6
 10
409.59379926983058
 20
561.25811612147436
 40
12.5
 50
0
 51
60.000000000000107
  0
LINE
  8
_0-e_極細4
  6
CONTINUOUS
 62
    6
 10
406.09379926983036
 20
592.08343362147411
 11
406.09379926983036
 21
593.47153612147417
  0
LINE
  8
_0-e_極細4
  6
CONTINUOUS
 62
    6
 10
415.84379926983058
 20
592.08343362147411
 11
406.09379926983036
 21
592.08343362147411
  0
LINE
  8
_0-e_極細4
  6
CONTINUOUS
 62
    6
 10
406.09379926983036
 20
593.47153612147417
 11
406.09379926983036
 21
633.02987862147438
  0
LINE
  8
_0-e_極細4
  6
CONTINUOUS
 62
    6
 10
427.09379926983058
 20
579.58343362147366
 11
427.09379926983058
 21
586.85109362147364
  0
LINE
  8
_0-e_極細4
  6
CONTINUOUS
 62
    6
 10
423.39629926982991
 20
577.58343362147434
 11
427.09379926983058
 21
579.58343362147366
  0
LINE
  8
_0-e_極細4
  6
CONTINUOUS
 62
    6
 10
406.09379926983036
 20
627.08343362147411
 11
423.39629926982991
 21
625.08343362147434
  0
ARC
  8
_0-e_極細4
  6
CONTINUOUS
 62
    6
 10
452.71879926983058
 20
562.08343362147411
 40
2.5
 50
89.999999999999915
 51
179.99999999999983
  0
ARC
  8
_0-e_極細4
  6
CONTINUOUS
 62
    6
 10
452.71879926983058
 20
562.08343362147411
 40
2.5
 50
0
 51
89.999999999999915
  0
LINE
  8
_0-e_極細4
  6
CONTINUOUS
 62
    6
 10
548.34379926982945
 20
630.60109362147409
 11
423.39629926982991
 21
630.60109362147409
  0
LINE
  8
_0-e_極細4
  6
CONTINUOUS
 62
    6
 10
447.71879926982945
 20
596.85109362147409
 11
437.59379926983013
 21
596.85109362147409
  0
LINE
  8
_0-e_極細4
  6
CONTINUOUS
 62
    6
 10
430.24073926982976
 20
624.35109362147409
 11
433.21879926983013
 21
624.35109362147409
  0
LINE
  8
_0-e_極細4
  6
CONTINUOUS
 62
    6
 10
437.59379926983013
 20
593.60109362147432
 11
437.59379926983013
 21
619.97609362147409
  0
LINE
  8
_0-e_極細4
  6
CONTINUOUS
 62
    6
 10
432.09379926982945
 20
624.35109362147409
 11
432.09379926982945
 21
630.60109362147409
  0
ARC
  8
_0-e_極細4
  6
CONTINUOUS
 62
    6
 10
433.21879926983013
 20
619.97609362147409
 40
4.3749999999999982
 50
0
 51
89.999999999999915
  0
ARC
  8
_0-e_極細4
  6
CONTINUOUS
 62
    6
 10
423.39629926982991
 20
626.22609362147409
 40
4.3749999999999982
 50
4.1509899999967477
 51
89.999999999999915
  0
ARC
  8
_0-e_極細4
  6
CONTINUOUS
 62
    6
 10
430.24073926982976
 20
626.85109362147409
 40
2.5
 50
183.35088799999644
 51
269.99999999999977
  0
ARC
  8
_0-e_極細4
  6
CONTINUOUS
 62
    6
 10
430.24073926982976
 20
626.85109362147409
 40
4.2499999999999716
 50
183.35088800000065
 51
269.99999999999977
  0
LINE
  8
_0-e_極細4
  6
CONTINUOUS
 62
    6
 10
430.24073926982976
 20
622.60109362147409
 11
433.21879926983013
 21
622.60109362147409
  0
ARC
  8
_0-e_極細4
  6
CONTINUOUS
 62
    6
 10
433.21879926983013
 20
619.97609362147409
 40
2.6250000000000284
 50
0
 51
89.999999999999915
  0
LINE
  8
_0-e_極細4
  6
CONTINUOUS
 62
    6
 10
435.84379926983058
 20
591.85109362147409
 11
435.84379926982945
 21
619.97609362147409
  0
LINE
  8
_0-e_極細4
  6
CONTINUOUS
 62
    6
 10
423.39629926982991
 20
590.54859362147431
 11
427.09379926983058
 21
586.85109362147364
  0
LINE
  8
_0-e_極細4
  6
CONTINUOUS
 62
    6
 10
440.84379926983058
 20
581.85109362147409
 11
440.84379926983058
 21
596.85109362147409
  0
LINE
  8
_0-e_極細4
  6
CONTINUOUS
 62
    6
 10
440.84379926983058
 20
591.85109362147409
 11
435.84379926983058
 21
591.85109362147409
  0
LINE
  8
_0-e_極細4
  6
CONTINUOUS
 62
    6
 10
440.84379926983058
 20
593.60109362147432
 11
437.59379926983013
 21
593.60109362147432
  0
LINE
  8
_0-e_極細4
  6
CONTINUOUS
 62
    6
 10
442.91925926983038
 20
581.85109362147409
 11
440.84379926983058
 21
581.85109362147409
  0
LINE
  8
_0-e_極細4
  6
CONTINUOUS
 62
    6
 10
440.84379926983058
 20
586.85109362147364
 11
427.09379926983058
 21
586.85109362147364
  0
LINE
  8
_0-e_極細4
  6
CONTINUOUS
 62
    6
 10
473.87801676983042
 20
582.60109362147409
 11
461.37801676983042
 21
582.60109362147409
  0
LINE
  8
_0-e_極細4
  6
CONTINUOUS
 62
    6
 10
473.87801676983042
 20
582.60109362147409
 11
473.87801676983042
 21
586.85109362147364
  0
LINE
  8
_0-e_極細4
  6
CONTINUOUS
 62
    6
 10
461.37801676983042
 20
582.60109362147409
 11
461.37801676983042
 21
586.85109362147364
  0
LINE
  8
_0-e_極細4
  6
CONTINUOUS
 62
    6
 10
432.2187992698299
 20
624.85109362147432
 11
432.2187992698299
 21
628.10109362147409
  0
LINE
  8
_0-e_極細4
  6
CONTINUOUS
 62
    6
 10
548.34379926982945
 20
629.35109362147409
 11
433.4687992698299
 21
629.35109362147409
  0
LINE
  8
_0-e_極細4
  6
CONTINUOUS
 62
    6
 10
437.59379926983013
 20
624.35109362147409
 11
432.71879926982945
 21
624.35109362147409
  0
LINE
  8
_0-e_極細4
  6
CONTINUOUS
 62
    6
 10
437.59379926983013
 20
616.85109362147409
 11
437.59379926983013
 21
624.35109362147409
  0
ARC
  8
_0-e_極細4
  6
CONTINUOUS
 62
    6
 10
433.4687992698299
 20
628.10109362147409
 40
1.25
 50
155.94545099998982
 51
179.99999999999983
  0
ARC
  8
_0-e_極細4
  6
CONTINUOUS
 62
    6
 10
432.71879926982945
 20
624.85109362147432
 40
0.4999999999999715
 50
179.99999999999983
 51
269.99999999999977
  0
ARC
  8
_0-e_極細4
  6
CONTINUOUS
 62
    6
 10
433.4687992698299
 20
628.10109362147409
 40
1.25
 50
89.999999999999915
 51
155.94545099998982
  0
LINE
  8
_0-e_極細4
  6
CONTINUOUS
 62
    6
 10
547.8437992698299
 20
618.10109362147409
 11
440.3437992698299
 21
618.10109362147409
  0
LINE
  8
_0-e_極細4
  6
CONTINUOUS
 62
    6
 10
547.8437992698299
 20
615.60109362147409
 11
438.84379926983013
 21
615.60109362147409
  0
LINE
  8
_0-e_極細4
  6
CONTINUOUS
 62
    6
 10
548.34379926983058
 20
612.86636862147452
 11
437.96879926983036
 21
612.86636862147384
  0
LINE
  8
_0-e_極細4
  6
CONTINUOUS
 62
    6
 10
448.96879926983058
 20
612.86636862147384
 11
448.96879926983058
 21
611.61636862147384
  0
LINE
  8
_0-e_極細4
  6
CONTINUOUS
 62
    6
 10
439.96879926982967
 20
609.11636862147384
 11
437.96879926983036
 21
612.86636862147384
  0
LINE
  8
_0-e_極細4
  6
CONTINUOUS
 62
    6
 10
450.21879926983058
 20
604.61636862147407
 11
448.96879926983058
 21
605.86636862147407
  0
LINE
  8
_0-e_極細4
  6
CONTINUOUS
 62
    6
 10
448.96879926983058
 20
603.36636862147407
 11
450.21879926983058
 21
604.61636862147407
  0
LINE
  8
_0-e_極細4
  6
CONTINUOUS
 62
    6
 10
448.96879926983058
 20
609.11636862147384
 11
450.21879926983058
 21
610.36636862147384
  0
LINE
  8
_0-e_極細4
  6
CONTINUOUS
 62
    6
 10
450.21879926983058
 20
610.36636862147384
 11
448.96879926983058
 21
611.61636862147384
  0
LINE
  8
_0-e_極細4
  6
CONTINUOUS
 62
    6
 10
548.34379926983058
 20
610.36636862147452
 11
450.21879926983058
 21
610.36636862147384
  0
LINE
  8
_0-e_極細4
  6
CONTINUOUS
 62
    6
 10
548.34379926983058
 20
604.61636862147407
 11
450.21879926983058
 21
604.61636862147407
  0
LINE
  8
_0-e_極細4
  6
CONTINUOUS
 62
    6
 10
548.34379926983058
 20
602.11636862147407
 11
439.96879926982967
 21
602.11636862147407
  0
LINE
  8
_0-e_極細4
  6
CONTINUOUS
 62
    6
 10
439.96879926982967
 20
609.11636862147384
 11
439.96879926982967
 21
602.11636862147407
  0
LINE
  8
_0-e_極細4
  6
CONTINUOUS
 62
    6
 10
448.96879926983058
 20
603.36636862147407
 11
448.96879926983058
 21
602.11636862147407
  0
LINE
  8
_0-e_極細4
  6
CONTINUOUS
 62
    6
 10
448.96879926983058
 20
609.11636862147384
 11
448.96879926983058
 21
605.86636862147407
  0
LINE
  8
_0-e_極細4
  6
CONTINUOUS
 62
    6
 10
439.59379926983058
 20
598.10304112147401
 11
439.59379926983058
 21
601.85304112147401
  0
LINE
  8
_0-e_極細4
  6
CONTINUOUS
 62
    6
 10
439.59379926983058
 20
601.85304112147401
 11
548.34379926983058
 21
601.85304112147401
  0
LINE
  8
_0-e_極細4
  6
CONTINUOUS
 62
    6
 10
439.59379926983058
 20
613.35304112147446
 11
548.34379926983058
 21
613.35304112147446
  0
LINE
  8
_0-e_極細4
  6
CONTINUOUS
 62
    6
 10
439.59379926983058
 20
613.35304112147446
 11
439.59379926983058
 21
615.60109362147409
  0
LINE
  8
_0-e_極細4
  6
CONTINUOUS
 62
    6
 10
480.84379926983058
 20
579.58343362147366
 11
427.09379926983058
 21
579.58343362147366
  0
LINE
  8
_0-e_極細4
  6
CONTINUOUS
 62
    6
 10
480.84379926983058
 20
576.84427362147426
 11
480.84379926983058
 21
580.53865612147411
  0
LINE
  8
_0-e_極細4
  6
CONTINUOUS
 62
    6
 10
423.39629926982991
 20
630.60109362147409
 11
406.09379926983036
 21
633.06548615814995
  0
LINE
  8
_0-e_極細4
  6
CONTINUOUS
 62
    6
 10
452.71879926983058
 20
564.58343362147366
 11
480.84379926983058
 21
564.58343362147366
  0
LINE
  8
_0-e_極細4
  6
CONTINUOUS
 62
    6
 10
480.84379926983058
 20
577.58343362147434
 11
423.39629926982991
 21
577.58343362147434
  0
LINE
  8
_0-e_極細4
  6
CONTINUOUS
 62
    6
 10
406.09379926983036
 20
631.33343362147434
 11
406.09379926983036
 21
633.06548615814995
  0
LINE
  8
_0-e_極細4
  6
CONTINUOUS
 62
    6
 10
666.15629927929047
 20
507.40691746853344
 11
646.46879926982945
 21
507.40691746853344
  0
LINE
  8
_0-e_極細4
  6
CONTINUOUS
 62
    6
 10
615.84379926982945
 20
433.10299932146461
 11
615.84379926982945
 21
580.53865612147411
  0
ARC
  8
_0-e_極細4
  6
CONTINUOUS
 62
    6
 10
613.34379926982945
 20
433.10299932146461
 40
2.5
 50
269.99954163376469
 51
359.99999999999966
  0
LINE
  8
_0-e_極細4
  6
CONTINUOUS
 62
    6
 10
613.34379926982945
 20
430.60299932146461
 11
548.34379926982945
 21
430.60299932146461
  0
LINE
  8
_0-e_極細4
  6
CONTINUOUS
 62
    6
 10
646.46879926982945
 20
417.58339182146483
 11
646.46879926982945
 21
485.083391821465
  0
LINE
  8
_0-e_極細4
  6
CONTINUOUS
 62
    6
 10
616.46879926982945
 20
387.58339182146483
 11
610.84379926982945
 21
387.58339182146483
  0
ARC
  8
_0-e_極細4
  6
CONTINUOUS
 62
    6
 10
616.46879926982945
 20
417.58339182146483
 40
30
 50
269.99999999999977
 51
359.99999999999966
  0
LINE
  8
_0-e_極細4
  6
CONTINUOUS
 62
    6
 10
548.34379926982945
 20
387.58339182146483
 11
550.6713842698299
 21
387.58339182146483
  0
LINE
  8
_0-e_極細4
  6
CONTINUOUS
 62
    6
 10
550.6713842698299
 20
387.58339182146483
 11
616.46879926982945
 21
387.58339182146483
  0
LINE
  8
_0-e_極細4
  6
CONTINUOUS
 62
    6
 10
646.46879926982945
 20
417.58339182146483
 11
646.46879926982945
 21
562.08343362147411
  0
LINE
  8
_0-e_極細4
  6
CONTINUOUS
 62
    6
 10
641.46879926983058
 20
417.58339182146483
 11
641.46879926983058
 21
562.08343362147411
  0
LINE
  8
_0-e_極細4
  6
CONTINUOUS
 62
    6
 10
548.34379926982945
 20
392.58339182146483
 11
616.46879926982945
 21
392.58339182146483
  0
ARC
  8
_0-e_極細4
  6
CONTINUOUS
 62
    6
 10
616.46879926982945
 20
417.58339182146483
 40
25
 50
269.99999999999977
 51
359.99999999999966
  0
LINE
  8
_0-e_極細4
  6
CONTINUOUS
 62
    6
 10
648.96879926983058
 20
598.10304112147401
 11
548.34379926982945
 21
598.10304112147401
  0
LINE
  8
_0-e_極細4
  6
CONTINUOUS
 62
    6
 10
648.96879926983058
 20
587.10304112147446
 11
648.96879926983058
 21
598.10304112147401
  0
LINE
  8
_0-e_極細4
  6
CONTINUOUS
 62
    6
 10
657.09379926983058
 20
598.10304112147401
 11
648.96879926983058
 21
598.10304112147401
  0
LINE
  8
_0-e_極細4
  6
CONTINUOUS
 62
    6
 10
654.59379926983058
 20
587.10304112147446
 11
648.96879926983058
 21
587.10304112147446
  0
LINE
  8
_0-e_極細4
  6
CONTINUOUS
 62
    6
 10
654.59379926983058
 20
584.60304112147446
 11
654.59379926983058
 21
587.10304112147446
  0
ARC
  8
_0-e_極細4
  6
CONTINUOUS
 62
    6
 10
649.59379926983058
 20
584.60304112147446
 40
5
 50
269.99999999999977
 51
359.99999999999966
  0
LINE
  8
_0-e_極細4
  6
CONTINUOUS
 62
    6
 10
649.59379926983058
 20
579.60304112147446
 11
642.09379926983058
 21
579.60304112147446
  0
ARC
  8
_0-e_極細4
  6
CONTINUOUS
 62
    6
 10
673.29129926983012
 20
626.22609362147409
 40
2.6250000000000284
 50
89.999999999999915
 51
175.84900999999832
  0
LINE
  8
_0-e_極細4
  6
CONTINUOUS
 62
    6
 10
673.29129926983012
 20
590.54859362147431
 11
673.29129926983012
 21
628.85109362147409
  0
LINE
  8
_0-e_極細4
  6
CONTINUOUS
 62
    6
 10
673.29129926983012
 20
628.8334322558469
 11
690.59379926982967
 21
631.29782612147415
  0
LINE
  8
_0-e_極細4
  6
CONTINUOUS
 62
    6
 10
680.84379926982945
 20
572.08343362147366
 11
680.84379926982945
 21
592.08343362147411
  0
ARC
  8
_0-e_極細4
  6
CONTINUOUS
 62
    6
 10
687.09379926982945
 20
561.25811612147436
 40
12.5
 50
119.99999999999989
 51
179.99999999999983
  0
LINE
  8
_0-e_極細4
  6
CONTINUOUS
 62
    6
 10
690.59379926982967
 20
592.08343362147411
 11
690.59379926982967
 21
593.47153612147417
  0
LINE
  8
_0-e_極細4
  6
CONTINUOUS
 62
    6
 10
680.84379926982945
 20
592.08343362147411
 11
690.59379926982967
 21
592.08343362147411
  0
LINE
  8
_0-e_極細4
  6
CONTINUOUS
 62
    6
 10
690.59379926982967
 20
593.47153612147417
 11
690.59379926982967
 21
633.02987862147438
  0
LINE
  8
_0-e_極細4
  6
CONTINUOUS
 62
    6
 10
669.59379926983058
 20
579.58343362147366
 11
669.59379926983058
 21
586.85109362147364
  0
LINE
  8
_0-e_極細4
  6
CONTINUOUS
 62
    6
 10
673.29129926982898
 20
577.58343362147434
 11
669.59379926983058
 21
579.58343362147366
  0
LINE
  8
_0-e_極細4
  6
CONTINUOUS
 62
    6
 10
690.59379926982967
 20
627.08343362147411
 11
673.29129926983012
 21
625.08343362147434
  0
ARC
  8
_0-e_極細4
  6
CONTINUOUS
 62
    6
 10
643.96879926983058
 20
562.08343362147411
 40
2.5
 50
0
 51
89.999999999999915
  0
ARC
  8
_0-e_極細4
  6
CONTINUOUS
 62
    6
 10
643.96879926983058
 20
562.08343362147411
 40
2.5
 50
89.999999999999915
 51
179.99999999999983
  0
LINE
  8
_0-e_極細4
  6
CONTINUOUS
 62
    6
 10
548.34379926982945
 20
630.60109362147409
 11
673.29129926983012
 21
630.60109362147409
  0
LINE
  8
_0-e_極細4
  6
CONTINUOUS
 62
    6
 10
648.96879926983058
 20
596.85109362147409
 11
659.0937992698299
 21
596.85109362147409
  0
LINE
  8
_0-e_極細4
  6
CONTINUOUS
 62
    6
 10
666.44685926983027
 20
624.35109362147409
 11
663.4687992698299
 21
624.35109362147409
  0
LINE
  8
_0-e_極細4
  6
CONTINUOUS
 62
    6
 10
659.0937992698299
 20
593.60109362147432
 11
659.0937992698299
 21
619.97609362147409
  0
LINE
  8
_0-e_極細4
  6
CONTINUOUS
 62
    6
 10
664.59379926983058
 20
624.35109362147409
 11
664.59379926983058
 21
630.60109362147409
  0
ARC
  8
_0-e_極細4
  6
CONTINUOUS
 62
    6
 10
663.4687992698299
 20
619.97609362147409
 40
4.3749999999999982
 50
89.999999999999915
 51
179.99999999999983
  0
ARC
  8
_0-e_極細4
  6
CONTINUOUS
 62
    6
 10
673.29129926983012
 20
626.22609362147409
 40
4.3749999999999982
 50
89.999999999999915
 51
175.84901000000218
  0
ARC
  8
_0-e_極細4
  6
CONTINUOUS
 62
    6
 10
666.44685926983027
 20
626.85109362147409
 40
2.5
 50
269.99999999999977
 51
356.64911200000284
  0
ARC
  8
_0-e_極細4
  6
CONTINUOUS
 62
    6
 10
666.44685926983027
 20
626.85109362147409
 40
4.2499999999999716
 50
269.99999999999977
 51
356.64911199999864
  0
LINE
  8
_0-e_極細4
  6
CONTINUOUS
 62
    6
 10
666.44685926983027
 20
622.60109362147409
 11
663.4687992698299
 21
622.60109362147409
  0
ARC
  8
_0-e_極細4
  6
CONTINUOUS
 62
    6
 10
663.4687992698299
 20
619.97609362147409
 40
2.6250000000000284
 50
89.999999999999915
 51
179.99999999999983
  0
LINE
  8
_0-e_極細4
  6
CONTINUOUS
 62
    6
 10
660.84379926983058
 20
591.85109362147409
 11
660.84379926983058
 21
619.97609362147409
  0
LINE
  8
_0-e_極細4
  6
CONTINUOUS
 62
    6
 10
673.29129926983012
 20
590.54859362147431
 11
669.59379926983058
 21
586.85109362147364
  0
LINE
  8
_0-e_極細4
  6
CONTINUOUS
 62
    6
 10
655.84379926982945
 20
581.85109362147409
 11
655.84379926982945
 21
596.85109362147409
  0
LINE
  8
_0-e_極細4
  6
CONTINUOUS
 62
    6
 10
655.84379926982945
 20
591.85109362147409
 11
660.84379926983058
 21
591.85109362147409
  0
LINE
  8
_0-e_極細4
  6
CONTINUOUS
 62
    6
 10
655.84379926982945
 20
593.60109362147432
 11
659.0937992698299
 21
593.60109362147432
  0
LINE
  8
_0-e_極細4
  6
CONTINUOUS
 62
    6
 10
653.76833926982965
 20
581.85109362147409
 11
655.84379926982945
 21
581.85109362147409
  0
LINE
  8
_0-e_極細4
  6
CONTINUOUS
 62
    6
 10
655.84379926982945
 20
586.85109362147364
 11
669.59379926983058
 21
586.85109362147364
  0
LINE
  8
_0-e_極細4
  6
CONTINUOUS
 62
    6
 10
622.80958176982961
 20
582.60109362147409
 11
635.30958176982961
 21
582.60109362147409
  0
LINE
  8
_0-e_極細4
  6
CONTINUOUS
 62
    6
 10
622.80958176982961
 20
582.60109362147409
 11
622.80958176982961
 21
586.85109362147364
  0
LINE
  8
_0-e_極細4
  6
CONTINUOUS
 62
    6
 10
635.30958176982961
 20
582.60109362147409
 11
635.30958176982961
 21
586.85109362147364
  0
LINE
  8
_0-e_極細4
  6
CONTINUOUS
 62
    6
 10
664.46879926983013
 20
624.85109362147432
 11
664.46879926983013
 21
628.10109362147409
  0
LINE
  8
_0-e_極細4
  6
CONTINUOUS
 62
    6
 10
548.34379926982945
 20
629.35109362147409
 11
663.21879926983013
 21
629.35109362147409
  0
LINE
  8
_0-e_極細4
  6
CONTINUOUS
 62
    6
 10
659.0937992698299
 20
624.35109362147409
 11
663.96879926983058
 21
624.35109362147409
  0
LINE
  8
_0-e_極細4
  6
CONTINUOUS
 62
    6
 10
659.0937992698299
 20
616.85109362147409
 11
659.0937992698299
 21
624.35109362147409
  0
ARC
  8
_0-e_極細4
  6
CONTINUOUS
 62
    6
 10
663.21879926983013
 20
628.10109362147409
 40
1.25
 50
0
 51
24.054549000010187
  0
ARC
  8
_0-e_極細4
  6
CONTINUOUS
 62
    6
 10
663.96879926983058
 20
624.85109362147432
 40
0.4999999999999715
 50
269.99999999999977
 51
359.99999999999966
  0
ARC
  8
_0-e_極細4
  6
CONTINUOUS
 62
    6
 10
663.21879926983013
 20
628.10109362147409
 40
1.25
 50
24.054549000010187
 51
89.999999999999901
  0
LINE
  8
_0-e_極細4
  6
CONTINUOUS
 62
    6
 10
548.84379926983013
 20
618.10109362147409
 11
656.34379926983013
 21
618.10109362147409
  0
LINE
  8
_0-e_極細4
  6
CONTINUOUS
 62
    6
 10
548.84379926983013
 20
615.60109362147409
 11
657.8437992698299
 21
615.60109362147409
  0
LINE
  8
_0-e_極細4
  6
CONTINUOUS
 62
    6
 10
548.34379926982945
 20
612.86636862147452
 11
658.71879926982967
 21
612.86636862147384
  0
LINE
  8
_0-e_極細4
  6
CONTINUOUS
 62
    6
 10
647.71879926983058
 20
612.86636862147384
 11
647.71879926983058
 21
611.61636862147384
  0
LINE
  8
_0-e_極細4
  6
CONTINUOUS
 62
    6
 10
656.71879926983036
 20
609.11636862147384
 11
658.71879926982967
 21
612.86636862147384
  0
LINE
  8
_0-e_極細4
  6
CONTINUOUS
 62
    6
 10
646.46879926982945
 20
604.61636862147407
 11
647.71879926983058
 21
605.86636862147407
  0
LINE
  8
_0-e_極細4
  6
CONTINUOUS
 62
    6
 10
647.71879926983058
 20
603.36636862147407
 11
646.46879926982945
 21
604.61636862147407
  0
LINE
  8
_0-e_極細4
  6
CONTINUOUS
 62
    6
 10
647.71879926983058
 20
609.11636862147384
 11
646.46879926982945
 21
610.36636862147384
  0
LINE
  8
_0-e_極細4
  6
CONTINUOUS
 62
    6
 10
646.46879926982945
 20
610.36636862147384
 11
647.71879926983058
 21
611.61636862147384
  0
LINE
  8
_0-e_極細4
  6
CONTINUOUS
 62
    6
 10
548.34379926982945
 20
610.36636862147452
 11
646.46879926982945
 21
610.36636862147384
  0
LINE
  8
_0-e_極細4
  6
CONTINUOUS
 62
    6
 10
548.34379926982945
 20
604.61636862147407
 11
646.46879926982945
 21
604.61636862147407
  0
LINE
  8
_0-e_極細4
  6
CONTINUOUS
 62
    6
 10
548.34379926982945
 20
602.11636862147407
 11
656.71879926983036
 21
602.11636862147407
  0
LINE
  8
_0-e_極細4
  6
CONTINUOUS
 62
    6
 10
656.71879926983036
 20
609.11636862147384
 11
656.71879926983036
 21
602.11636862147407
  0
LINE
  8
_0-e_極細4
  6
CONTINUOUS
 62
    6
 10
647.71879926983058
 20
603.36636862147407
 11
647.71879926983058
 21
602.11636862147407
  0
LINE
  8
_0-e_極細4
  6
CONTINUOUS
 62
    6
 10
647.71879926983058
 20
609.11636862147384
 11
647.71879926983058
 21
605.86636862147407
  0
LINE
  8
_0-e_極細4
  6
CONTINUOUS
 62
    6
 10
657.09379926983058
 20
598.10304112147401
 11
657.09379926983058
 21
601.85304112147401
  0
LINE
  8
_0-e_極細4
  6
CONTINUOUS
 62
    6
 10
657.09379926983058
 20
601.85304112147401
 11
548.34379926982945
 21
601.85304112147401
  0
LINE
  8
_0-e_極細4
  6
CONTINUOUS
 62
    6
 10
657.09379926983058
 20
613.35304112147446
 11
548.34379926982945
 21
613.35304112147446
  0
LINE
  8
_0-e_極細4
  6
CONTINUOUS
 62
    6
 10
657.09379926983058
 20
613.35304112147446
 11
657.09379926983058
 21
615.60109362147409
  0
LINE
  8
_0-e_極細4
  6
CONTINUOUS
 62
    6
 10
615.84379926982945
 20
579.58343362147366
 11
669.59379926983058
 21
579.58343362147366
  0
LINE
  8
_0-e_極細4
  6
CONTINUOUS
 62
    6
 10
615.84379926982945
 20
576.84427362147426
 11
615.84379926982945
 21
580.53865612147411
  0
LINE
  8
_0-e_極細4
  6
CONTINUOUS
 62
    6
 10
673.29129926983012
 20
630.60109362147409
 11
690.59379926982967
 21
633.06548615814995
  0
LINE
  8
_0-e_極細4
  6
CONTINUOUS
 62
    6
 10
643.96879926983058
 20
564.58343362147366
 11
615.84379926982945
 21
564.58343362147366
  0
LINE
  8
_0-e_極細4
  6
CONTINUOUS
 62
    6
 10
615.84379926982945
 20
577.58343362147434
 11
673.29129926982898
 21
577.58343362147434
  0
LINE
  8
_0-e_極細4
  6
CONTINUOUS
 62
    6
 10
690.59379926982967
 20
631.33343362147434
 11
690.59379926982967
 21
633.06548615814995
  0
LINE
  8
_0-e_極細4
  6
CONTINUOUS
 62
    6
 10
406.09379926983036
 20
633.06548615814995
 11
690.59379926982967
 21
633.06548615814995
  0
LINE
  8
_0-e_極細4
  6
CONTINUOUS
 62
    6
 10
673.29129926983012
 20
625.68476126623318
 11
678.49353505655256
 21
625.68476126623318
  0
LINE
  8
_0-e_極細4
  6
CONTINUOUS
 62
    6
 10
673.29129926983012
 20
627.18476126623364
 11
690.59379926982967
 21
627.18476126623364
  0
LINE
  8
_0-e_極細4
  6
CONTINUOUS
 62
    6
 10
673.29129926983012
 20
628.68476126623341
 11
690.59379926982967
 21
628.68476126623341
  0
LINE
  8
_0-e_極細4
  6
CONTINUOUS
 62
    6
 10
682.778975135417
 20
630.18476126623318
 11
690.59379926982967
 21
630.18476126623318
  0
LINE
  8
_0-e_極細4
  6
CONTINUOUS
 62
    6
 10
418.19406348310747
 20
625.68476126623318
 11
423.39629926982991
 21
625.68476126623318
  0
LINE
  8
_0-e_極細4
  6
CONTINUOUS
 62
    6
 10
406.09379926983036
 20
627.18476126623364
 11
423.39629926982991
 21
627.18476126623364
  0
LINE
  8
_0-e_極細4
  6
CONTINUOUS
 62
    6
 10
406.09379926983036
 20
628.68476126623341
 11
423.39629926982991
 21
628.68476126623341
  0
LINE
  8
_0-e_極細4
  6
CONTINUOUS
 62
    6
 10
406.09379926983036
 20
630.18476126623318
 11
413.90862340424303
 21
630.18476126623318
  0
ARC
  8
_0-e_極細4
  6
CONTINUOUS
 62
    6
 10
630.84379926983058
 20
580.53865612147411
 40
15
 50
155.11305268293316
 51
179.99999999999983
  0
ARC
  8
_0-e_極細4
  6
CONTINUOUS
 62
    6
 10
630.84379926983058
 20
580.53865612147411
 40
15
 50
55.166292356156568
 51
155.11305268293316
  0
ARC
  8
_0-e_極細4
  6
CONTINUOUS
 62
    6
 10
634.59379926983058
 20
587.10304112147446
 40
7.5
 50
358.07490068719875
 51
50.029499419963869
  0
LINE
  8
_0-e_極細4
  6
CONTINUOUS
 62
    6
 10
617.23670065151293
 20
586.85109362147364
 11
642.09379926983058
 21
586.85109362147364
  0
LINE
  8
_0-e_極細4
  6
CONTINUOUS
 62
    6
 10
642.09379926983058
 20
579.60304112147446
 11
642.09379926983058
 21
586.85109362147364
  0
LINE
  8
_0-e_極細4
  6
CONTINUOUS
 62
    6
 10
640.62086119566754
 20
586.85109362147364
 11
640.62086119566754
 21
591.56673068753071
  0
LINE
  8
_0-e_極細4
  6
CONTINUOUS
 62
    6
 10
639.12086119566663
 20
586.85109362147364
 11
639.12086119566663
 21
593.0482622653883
  0
LINE
  8
_0-e_極細4
  6
CONTINUOUS
 62
    6
 10
637.62086119566686
 20
586.85109362147364
 11
637.62086119566686
 21
593.92041354168464
  0
LINE
  8
_0-e_極細4
  6
CONTINUOUS
 62
    6
 10
636.12086119566823
 20
586.85109362147364
 11
636.12086119566823
 21
594.5797606873864
  0
LINE
  8
_0-e_極細4
  6
CONTINUOUS
 62
    6
 10
634.62086119566732
 20
586.85109362147364
 11
634.62086119566732
 21
595.05532940457806
  0
LINE
  8
_0-e_極細4
  6
CONTINUOUS
 62
    6
 10
633.12086119566641
 20
586.85109362147364
 11
633.12086119566641
 21
595.36481506389441
  0
LINE
  8
_0-e_極細4
  6
CONTINUOUS
 62
    6
 10
631.62086119566663
 20
586.85109362147364
 11
631.62086119566663
 21
595.51851509155176
  0
LINE
  8
_0-e_極細4
  6
CONTINUOUS
 62
    6
 10
630.12086119566686
 20
586.85109362147364
 11
630.12086119566686
 21
595.52122467766389
  0
LINE
  8
_0-e_極細4
  6
CONTINUOUS
 62
    6
 10
628.62086119566709
 20
586.85109362147364
 11
628.62086119566709
 21
595.3730265603715
  0
LINE
  8
_0-e_極細4
  6
CONTINUOUS
 62
    6
 10
627.12086119566732
 20
586.85109362147364
 11
627.12086119566732
 21
595.06930414886619
  0
LINE
  8
_0-e_極細4
  6
CONTINUOUS
 62
    6
 10
625.62086119566641
 20
586.85109362147364
 11
625.62086119566641
 21
594.59998315250027
  0
LINE
  8
_0-e_極細4
  6
CONTINUOUS
 62
    6
 10
624.12086119566663
 20
586.85109362147364
 11
624.12086119566663
 21
593.94768679676781
  0
LINE
  8
_0-e_極細4
  6
CONTINUOUS
 62
    6
 10
622.62086119566686
 20
586.85109362147364
 11
622.62086119566686
 21
593.08390579728689
  0
LINE
  8
_0-e_極細4
  6
CONTINUOUS
 62
    6
 10
621.12086119566595
 20
586.85109362147364
 11
621.12086119566595
 21
591.9607607964449
  0
LINE
  8
_0-e_極細4
  6
CONTINUOUS
 62
    6
 10
619.62086119566732
 20
586.85109362147364
 11
619.62086119566732
 21
590.49082477878164
  0
LINE
  8
_0-e_極細4
  6
CONTINUOUS
 62
    6
 10
618.12086119566641
 20
586.85109362147364
 11
618.12086119566641
 21
588.48389663142802
  0
ARC
  8
_0-e_極細4
  6
CONTINUOUS
 62
    6
 10
462.09379926983058
 20
587.10304112147446
 40
7.5
 50
129.97050058004243
 51
181.92509931280023
  0
LINE
  8
_0-e_極細4
  6
CONTINUOUS
 62
    6
 10
454.59379926983058
 20
579.60304112147446
 11
454.59379926983058
 21
586.85109362147364
  0
ARC
  8
_0-e_極細4
  6
CONTINUOUS
 62
    6
 10
465.84379926983058
 20
580.53865612147411
 40
15
 50
24.886947317068667
 51
124.83370764384701
  0
LINE
  8
_0-e_極細4
  6
CONTINUOUS
 62
    6
 10
479.4508978881471
 20
586.85109362147364
 11
454.59379926983058
 21
586.85109362147364
  0
ARC
  8
_0-e_極細4
  6
CONTINUOUS
 62
    6
 10
465.84379926983058
 20
580.53865612147411
 40
15
 50
0
 51
24.886947317068667
  0
LINE
  8
_0-e_極細4
  6
CONTINUOUS
 62
    6
 10
478.62086119566709
 20
586.85109362147364
 11
478.62086119566709
 21
588.39656223845759
  0
LINE
  8
_0-e_極細4
  6
CONTINUOUS
 62
    6
 10
477.12086119566732
 20
586.85109362147364
 11
477.12086119566732
 21
590.42945357773851
  0
LINE
  8
_0-e_極細4
  6
CONTINUOUS
 62
    6
 10
475.62086119566754
 20
586.85109362147364
 11
475.62086119566754
 21
591.91446642660617
  0
LINE
  8
_0-e_極細4
  6
CONTINUOUS
 62
    6
 10
474.12086119566663
 20
586.85109362147364
 11
474.12086119566663
 21
593.04826226538898
  0
LINE
  8
_0-e_極細4
  6
CONTINUOUS
 62
    6
 10
472.62086119566686
 20
586.85109362147364
 11
472.62086119566686
 21
593.92041354168532
  0
LINE
  8
_0-e_極細4
  6
CONTINUOUS
 62
    6
 10
471.12086119566709
 20
586.85109362147364
 11
471.12086119566709
 21
594.5797606873864
  0
LINE
  8
_0-e_極細4
  6
CONTINUOUS
 62
    6
 10
469.62086119566732
 20
586.85109362147364
 11
469.62086119566732
 21
595.05532940457874
  0
LINE
  8
_0-e_極細4
  6
CONTINUOUS
 62
    6
 10
468.12086119566641
 20
586.85109362147364
 11
468.12086119566641
 21
595.36481506389441
  0
LINE
  8
_0-e_極細4
  6
CONTINUOUS
 62
    6
 10
466.62086119566663
 20
586.85109362147364
 11
466.62086119566663
 21
595.51851509155176
  0
LINE
  8
_0-e_極細4
  6
CONTINUOUS
 62
    6
 10
465.12086119566686
 20
586.85109362147364
 11
465.12086119566686
 21
595.52122467766389
  0
LINE
  8
_0-e_極細4
  6
CONTINUOUS
 62
    6
 10
463.62086119566709
 20
586.85109362147364
 11
463.62086119566709
 21
595.3730265603715
  0
LINE
  8
_0-e_極細4
  6
CONTINUOUS
 62
    6
 10
462.12086119566618
 20
586.85109362147364
 11
462.12086119566618
 21
595.06930414886574
  0
LINE
  8
_0-e_極細4
  6
CONTINUOUS
 62
    6
 10
460.62086119566641
 20
586.85109362147364
 11
460.62086119566641
 21
594.59998315249982
  0
LINE
  8
_0-e_極細4
  6
CONTINUOUS
 62
    6
 10
459.12086119566663
 20
586.85109362147364
 11
459.12086119566663
 21
593.94768679676781
  0
LINE
  8
_0-e_極細4
  6
CONTINUOUS
 62
    6
 10
457.62086119566686
 20
586.85109362147364
 11
457.62086119566686
 21
593.08390579728643
  0
LINE
  8
_0-e_極細4
  6
CONTINUOUS
 62
    6
 10
456.12086119566595
 20
586.85109362147364
 11
456.12086119566595
 21
591.63889944842913
  0
LINE
  8
_0-e_極細4
  6
CONTINUOUS
 62
    6
 10
454.62086119566618
 20
586.85109362147364
 11
454.62086119566618
 21
587.73959162199299
  0
LINE
  8
_0-e_極細4
  6
CONTINUOUS
 62
    6
 10
634.62086119566732
 20
582.60109362147409
 11
634.62086119566732
 21
586.85109362147364
  0
LINE
  8
_0-e_極細4
  6
CONTINUOUS
 62
    6
 10
633.12086119566754
 20
582.60109362147409
 11
633.12086119566754
 21
586.85109362147364
  0
LINE
  8
_0-e_極細4
  6
CONTINUOUS
 62
    6
 10
631.62086119566663
 20
582.60109362147409
 11
631.62086119566663
 21
586.85109362147364
  0
LINE
  8
_0-e_極細4
  6
CONTINUOUS
 62
    6
 10
630.12086119566686
 20
582.60109362147409
 11
630.12086119566686
 21
586.85109362147364
  0
LINE
  8
_0-e_極細4
  6
CONTINUOUS
 62
    6
 10
628.62086119566823
 20
582.60109362147409
 11
628.62086119566823
 21
586.85109362147364
  0
LINE
  8
_0-e_極細4
  6
CONTINUOUS
 62
    6
 10
627.12086119566732
 20
582.60109362147409
 11
627.12086119566732
 21
586.85109362147364
  0
LINE
  8
_0-e_極細4
  6
CONTINUOUS
 62
    6
 10
625.62086119566641
 20
582.60109362147409
 11
625.62086119566641
 21
586.85109362147364
  0
LINE
  8
_0-e_極細4
  6
CONTINUOUS
 62
    6
 10
624.12086119566663
 20
582.60109362147409
 11
624.12086119566663
 21
586.85109362147364
  0
LINE
  8
_0-e_極細4
  6
CONTINUOUS
 62
    6
 10
472.62086119566686
 20
582.60109362147409
 11
472.62086119566686
 21
586.85109362147364
  0
LINE
  8
_0-e_極細4
  6
CONTINUOUS
 62
    6
 10
471.12086119566709
 20
582.60109362147409
 11
471.12086119566709
 21
586.85109362147364
  0
LINE
  8
_0-e_極細4
  6
CONTINUOUS
 62
    6
 10
469.62086119566732
 20
582.60109362147409
 11
469.62086119566732
 21
586.85109362147364
  0
LINE
  8
_0-e_極細4
  6
CONTINUOUS
 62
    6
 10
468.12086119566754
 20
582.60109362147409
 11
468.12086119566754
 21
586.85109362147364
  0
LINE
  8
_0-e_極細4
  6
CONTINUOUS
 62
    6
 10
466.62086119566663
 20
582.60109362147409
 11
466.62086119566663
 21
586.85109362147364
  0
LINE
  8
_0-e_極細4
  6
CONTINUOUS
 62
    6
 10
465.12086119566686
 20
582.60109362147409
 11
465.12086119566686
 21
586.85109362147364
  0
LINE
  8
_0-e_極細4
  6
CONTINUOUS
 62
    6
 10
463.62086119566709
 20
582.60109362147409
 11
463.62086119566709
 21
586.85109362147364
  0
LINE
  8
_0-e_極細4
  6
CONTINUOUS
 62
    6
 10
462.12086119566732
 20
582.60109362147409
 11
462.12086119566732
 21
586.85109362147364
  0
LINE
  8
_0-e_極細4
  6
CONTINUOUS
 62
    6
 10
447.12086119566732
 20
587.10304112147446
 11
447.12086119566732
 21
596.85109362147409
  0
LINE
  8
_0-e_極細4
  6
CONTINUOUS
 62
    6
 10
445.62086119566754
 20
587.10304112147446
 11
445.62086119566754
 21
596.85109362147409
  0
LINE
  8
_0-e_極細4
  6
CONTINUOUS
 62
    6
 10
444.12086119566663
 20
587.10304112147446
 11
444.12086119566663
 21
596.85109362147409
  0
LINE
  8
_0-e_極細4
  6
CONTINUOUS
 62
    6
 10
442.62086119566686
 20
581.85109362147409
 11
442.62086119566686
 21
582.36857810215588
  0
LINE
  8
_0-e_極細4
  6
CONTINUOUS
 62
    6
 10
442.62086119566686
 20
587.10304112147446
 11
442.62086119566686
 21
596.85109362147409
  0
LINE
  8
_0-e_極細4
  6
CONTINUOUS
 62
    6
 10
441.12086119566709
 20
581.85109362147409
 11
441.12086119566709
 21
596.85109362147409
  0
LINE
  8
_0-e_極細4
  6
CONTINUOUS
 62
    6
 10
655.62086119566754
 20
581.85109362147409
 11
655.62086119566754
 21
596.85109362147409
  0
LINE
  8
_0-e_極細4
  6
CONTINUOUS
 62
    6
 10
654.12086119566663
 20
581.85109362147409
 11
654.12086119566663
 21
582.48037526938356
  0
LINE
  8
_0-e_極細4
  6
CONTINUOUS
 62
    6
 10
654.12086119566663
 20
587.10304112147446
 11
654.12086119566663
 21
596.85109362147409
  0
LINE
  8
_0-e_極細4
  6
CONTINUOUS
 62
    6
 10
652.62086119566686
 20
587.10304112147446
 11
652.62086119566686
 21
596.85109362147409
  0
LINE
  8
_0-e_極細4
  6
CONTINUOUS
 62
    6
 10
651.12086119566823
 20
587.10304112147446
 11
651.12086119566823
 21
596.85109362147409
  0
LINE
  8
_0-e_極細4
  6
CONTINUOUS
 62
    6
 10
649.62086119566732
 20
587.10304112147446
 11
649.62086119566732
 21
596.85109362147409
  0
LINE
  8
_0-e_極細4
  6
CONTINUOUS
 62
    6
 10
672.12086119566732
 20
589.37815554731151
 11
672.12086119566732
 21
628.57571055079484
  0
LINE
  8
_0-e_極細4
  6
CONTINUOUS
 62
    6
 10
670.62086119566754
 20
587.87815554731174
 11
670.62086119566754
 21
626.05096368008526
  0
LINE
  8
_0-e_極細4
  6
CONTINUOUS
 62
    6
 10
669.12086119566663
 20
586.85109362147364
 11
669.12086119566663
 21
623.54772962387733
  0
LINE
  8
_0-e_極細4
  6
CONTINUOUS
 62
    6
 10
667.62086119566686
 20
586.85109362147364
 11
667.62086119566686
 21
622.76646151097361
  0
LINE
  8
_0-e_極細4
  6
CONTINUOUS
 62
    6
 10
666.12086119566823
 20
586.85109362147364
 11
666.12086119566823
 21
622.60109362147409
  0
LINE
  8
_0-e_極細4
  6
CONTINUOUS
 62
    6
 10
664.62086119566732
 20
586.85109362147364
 11
664.62086119566732
 21
622.60109362147409
  0
LINE
  8
_0-e_極細4
  6
CONTINUOUS
 62
    6
 10
663.12086119566641
 20
586.85109362147364
 11
663.12086119566641
 21
622.57793222072428
  0
LINE
  8
_0-e_極細4
  6
CONTINUOUS
 62
    6
 10
661.62086119566663
 20
586.85109362147364
 11
661.62086119566663
 21
621.84042993074308
  0
LINE
  8
_0-e_極細4
  6
CONTINUOUS
 62
    6
 10
660.12086119566686
 20
586.85109362147364
 11
660.12086119566686
 21
591.85109362147409
  0
LINE
  8
_0-e_極細4
  6
CONTINUOUS
 62
    6
 10
658.62086119566709
 20
586.85109362147364
 11
658.62086119566709
 21
591.85109362147409
  0
LINE
  8
_0-e_極細4
  6
CONTINUOUS
 62
    6
 10
657.12086119566732
 20
586.85109362147364
 11
657.12086119566732
 21
591.85109362147409
  0
LINE
  8
_0-e_極細4
  6
CONTINUOUS
 62
    6
 10
439.62086119566732
 20
586.85109362147364
 11
439.62086119566732
 21
591.85109362147409
  0
LINE
  8
_0-e_極細4
  6
CONTINUOUS
 62
    6
 10
438.12086119566754
 20
586.85109362147364
 11
438.12086119566754
 21
591.85109362147409
  0
LINE
  8
_0-e_極細4
  6
CONTINUOUS
 62
    6
 10
436.62086119566663
 20
586.85109362147364
 11
436.62086119566663
 21
591.85109362147409
  0
LINE
  8
_0-e_極細4
  6
CONTINUOUS
 62
    6
 10
435.12086119566686
 20
586.85109362147364
 11
435.12086119566686
 21
621.7851777627684
  0
LINE
  8
_0-e_極細4
  6
CONTINUOUS
 62
    6
 10
433.62086119566709
 20
586.85109362147364
 11
433.62086119566709
 21
622.57011968298366
  0
LINE
  8
_0-e_極細4
  6
CONTINUOUS
 62
    6
 10
432.12086119566732
 20
586.85109362147364
 11
432.12086119566732
 21
622.60109362147409
  0
LINE
  8
_0-e_極細4
  6
CONTINUOUS
 62
    6
 10
430.62086119566641
 20
586.85109362147364
 11
430.62086119566641
 21
622.60109362147409
  0
LINE
  8
_0-e_極細4
  6
CONTINUOUS
 62
    6
 10
429.12086119566663
 20
586.85109362147364
 11
429.12086119566663
 21
622.75129202883454
  0
LINE
  8
_0-e_極細4
  6
CONTINUOUS
 62
    6
 10
427.62086119566686
 20
586.85109362147364
 11
427.62086119566686
 21
623.50464193699986
  0
LINE
  8
_0-e_極細4
  6
CONTINUOUS
 62
    6
 10
426.12086119566709
 20
587.82403169563759
 11
426.12086119566709
 21
625.80749185162654
  0
LINE
  8
_0-e_極細4
  6
CONTINUOUS
 62
    6
 10
424.62086119566618
 20
589.32403169563736
 11
424.62086119566618
 21
628.54796206946821
  0
LINE
  8
_0-e_極細4
  6
CONTINUOUS
 62
    6
 10
647.71879926983058
 20
603.18476126623318
 11
656.71879926983036
 21
603.18476126623318
  0
LINE
  8
_0-e_極細4
  6
CONTINUOUS
 62
    6
 10
646.53719191458902
 20
604.68476126623364
 11
656.71879926983036
 21
604.68476126623364
  0
LINE
  8
_0-e_極細4
  6
CONTINUOUS
 62
    6
 10
647.71879926983058
 20
606.18476126623341
 11
656.71879926983036
 21
606.18476126623341
  0
LINE
  8
_0-e_極細4
  6
CONTINUOUS
 62
    6
 10
647.71879926983058
 20
607.68476126623318
 11
656.71879926983036
 21
607.68476126623318
  0
LINE
  8
_0-e_極細4
  6
CONTINUOUS
 62
    6
 10
647.65040662506988
 20
609.18476126623341
 11
656.75527534703531
 21
609.18476126623341
  0
LINE
  8
_0-e_極細4
  6
CONTINUOUS
 62
    6
 10
646.78719191458879
 20
610.68476126623318
 11
657.55527534703572
 21
610.68476126623318
  0
LINE
  8
_0-e_極細4
  6
CONTINUOUS
 62
    6
 10
647.71879926983058
 20
612.18476126623295
 11
658.35527534703499
 21
612.18476126623295
  0
LINE
  8
_0-e_極細4
  6
CONTINUOUS
 62
    6
 10
439.96879926982967
 20
603.18476126623318
 11
448.96879926983058
 21
603.18476126623318
  0
LINE
  8
_0-e_極細4
  6
CONTINUOUS
 62
    6
 10
439.96879926982967
 20
604.68476126623364
 11
450.15040662507101
 21
604.68476126623364
  0
LINE
  8
_0-e_極細4
  6
CONTINUOUS
 62
    6
 10
439.96879926982967
 20
606.18476126623341
 11
448.96879926983058
 21
606.18476126623341
  0
LINE
  8
_0-e_極細4
  6
CONTINUOUS
 62
    6
 10
439.96879926982967
 20
607.68476126623318
 11
448.96879926983058
 21
607.68476126623318
  0
LINE
  8
_0-e_極細4
  6
CONTINUOUS
 62
    6
 10
439.93232319262472
 20
609.18476126623341
 11
449.03719191458902
 21
609.18476126623341
  0
LINE
  8
_0-e_極細4
  6
CONTINUOUS
 62
    6
 10
439.13232319262545
 20
610.68476126623318
 11
449.90040662507124
 21
610.68476126623318
  0
LINE
  8
_0-e_極細4
  6
CONTINUOUS
 62
    6
 10
438.33232319262504
 20
612.18476126623295
 11
448.96879926983058
 21
612.18476126623295
  0
CIRCLE
  8
_1-1_寸法4
  6
CONTINUOUS
 62
    7
 10
659.0937992698299
 20
607.70523433828453
 40
50
  0
LINE
  8
_0-e_極細4
  6
CONTINUOUS
 62
    6
 10
674.92031926982929
 20
347.21807362147058
 11
764.30807926982891
 21
349.42215362147192
  0
LINE
  8
_0-e_極細4
  6
CONTINUOUS
 62
    6
 10
764.30807926982891
 20
349.42215362147192
 11
764.30807926982891
 21
484.1160336214719
  0
LINE
  8
_0-e_極細4
  6
CONTINUOUS
 62
    6
 10
674.59379926982945
 20
486.32816479315039
 11
764.30807926982891
 21
484.1160336214719
  0
LINE
  8
_0-e_極細4
  6
CONTINUOUS
 62
    6
 10
674.59379926982945
 20
486.32816479315039
 11
674.59379926982945
 21
561.25811612147436
  0
LINE
  8
_0-e_極細4
  6
CONTINUOUS
 62
    6
 10
422.09379926983058
 20
367.21807362147058
 11
422.09379926983058
 21
561.25811612147436
  0
LINE
  8
_0-e_極細4
  6
CONTINUOUS
 62
    6
 10
442.09379926983058
 20
347.21807362147058
 11
674.92031926982929
 21
347.21807362147058
  0
ARC
  8
_0-e_極細4
  6
CONTINUOUS
 62
    6
 10
442.09379926983058
 20
367.21807362147058
 40
20
 50
179.99999999999983
 51
269.99999999999977
  0
LINE
  8
_0-e_極細4
  6
CONTINUOUS
 62
    6
 10
443.34379926983058
 20
352.11603362147355
 11
674.92031926982929
 21
352.11603362147355
  0
LINE
  8
_0-e_極細4
  6
CONTINUOUS
 62
    6
 10
428.34379926983058
 20
367.11603362147355
 11
428.34379926983058
 21
509.88730932146467
  0
ARC
  8
_0-e_極細4
  6
CONTINUOUS
 62
    6
 10
443.34379926983058
 20
367.11603362147355
 40
15
 50
179.99999999999983
 51
269.99999999999977
  0
LINE
  8
_0-e_極細4
  6
CENTER2
 62
    6
 10
548.34379926982945
 20
660.72396858551599
 11
548.34379926982945
 21
298.50556438385365
  0
LINE
  8
_0-e_極細4
  6
CONTINUOUS
 62
    6
 10
668.34379926983058
 20
509.88730932146467
 11
668.34379926983058
 21
577.58343362147434
  0
ARC
  8
_0-e_極細4
  6
CONTINUOUS
 62
    6
 10
665.84379926983058
 20
509.88730932146467
 40
2.5
 50
277.18075599997627
 51
359.99999999999966
  0
LINE
  8
_0-e_極細4
  6
CONTINUOUS
 62
    6
 10
543.99303097012546
 20
347.21807362147058
 11
548.34379926983058
 21
351.56884192117514
  0
LINE
  8
_0-e_極細4
  6
CONTINUOUS
 62
    6
 10
538.68973011122659
 20
347.21807362147058
 11
543.58769011122956
 21
352.11603362147355
  0
LINE
  8
_0-e_極細4
  6
CONTINUOUS
 62
    6
 10
533.38642925232773
 20
347.21807362147058
 11
538.2843892523307
 21
352.11603362147355
  0
LINE
  8
_0-e_極細4
  6
CONTINUOUS
 62
    6
 10
528.08312839342773
 20
347.21807362147058
 11
532.9810883934307
 21
352.11603362147355
  0
LINE
  8
_0-e_極細4
  6
CONTINUOUS
 62
    6
 10
522.77982753452886
 20
347.21807362147058
 11
527.67778753453183
 21
352.11603362147355
  0
LINE
  8
_0-e_極細4
  6
CONTINUOUS
 62
    6
 10
517.47652667563
 20
347.21807362147058
 11
522.37448667563297
 21
352.11603362147355
  0
LINE
  8
_0-e_極細4
  6
CONTINUOUS
 62
    6
 10
512.17322581673113
 20
347.21807362147058
 11
517.0711858167341
 21
352.11603362147355
  0
LINE
  8
_0-e_極細4
  6
CONTINUOUS
 62
    6
 10
506.86992495783227
 20
347.21807362147058
 11
511.76788495783524
 21
352.11603362147355
  0
LINE
  8
_0-e_極細4
  6
CONTINUOUS
 62
    6
 10
501.56662409893227
 20
347.21807362147058
 11
506.46458409893523
 21
352.11603362147355
  0
LINE
  8
_0-e_極細4
  6
CONTINUOUS
 62
    6
 10
496.2633232400334
 20
347.21807362147058
 11
501.16128324003637
 21
352.11603362147355
  0
LINE
  8
_0-e_極細4
  6
CONTINUOUS
 62
    6
 10
490.96002238113454
 20
347.21807362147058
 11
495.8579823811375
 21
352.11603362147355
  0
LINE
  8
_0-e_極細4
  6
CONTINUOUS
 62
    6
 10
485.65672152223567
 20
347.21807362147058
 11
490.55468152223864
 21
352.11603362147355
  0
LINE
  8
_0-e_極細4
  6
CONTINUOUS
 62
    6
 10
480.35342066333567
 20
347.21807362147058
 11
485.25138066333977
 21
352.11603362147355
  0
LINE
  8
_0-e_極細4
  6
CONTINUOUS
 62
    6
 10
475.0501198044368
 20
347.21807362147058
 11
479.94807980443977
 21
352.11603362147355
  0
LINE
  8
_0-e_極細4
  6
CONTINUOUS
 62
    6
 10
469.74681894553794
 20
347.21807362147058
 11
474.64477894554091
 21
352.11603362147355
  0
LINE
  8
_0-e_極細4
  6
CONTINUOUS
 62
    6
 10
464.44351808663907
 20
347.21807362147058
 11
469.34147808664204
 21
352.11603362147355
  0
LINE
  8
_0-e_極細4
  6
CONTINUOUS
 62
    6
 10
459.14021722774021
 20
347.21807362147058
 11
464.03817722774318
 21
352.11603362147355
  0
LINE
  8
_0-e_極細4
  6
CONTINUOUS
 62
    6
 10
453.83691636884021
 20
347.21807362147058
 11
458.73487636884431
 21
352.11603362147355
  0
LINE
  8
_0-e_極細4
  6
CONTINUOUS
 62
    6
 10
448.53361550994134
 20
347.21807362147058
 11
453.43157550994431
 21
352.11603362147355
  0
LINE
  8
_0-e_極細4
  6
CONTINUOUS
 62
    6
 10
443.23031465104248
 20
347.21807362147058
 11
448.12827465104544
 21
352.11603362147355
  0
LINE
  8
_0-e_極細4
  6
CONTINUOUS
 62
    6
 10
438.29173214040009
 20
347.58279196972705
 11
442.83365133272707
 21
352.12471116205506
  0
LINE
  8
_0-e_極細4
  6
CONTINUOUS
 62
    6
 10
434.2331997491284
 20
348.8275604373548
 11
438.37022289869321
 21
352.96458358692007
  0
LINE
  8
_0-e_極細4
  6
CONTINUOUS
 62
    6
 10
430.80852194395459
 20
350.70618349108042
 11
434.8529064736091
 21
354.75056802073436
  0
LINE
  8
_0-e_極細4
  6
CONTINUOUS
 62
    6
 10
427.91337160069941
 20
353.11433400672468
 11
432.04691739306111
 21
357.24787979908569
  0
LINE
  8
_0-e_極細4
  6
CONTINUOUS
 62
    6
 10
425.5198597750076
 20
356.02412303993117
 11
429.91945758259715
 21
360.42372084752071
  0
LINE
  8
_0-e_極細4
  6
CONTINUOUS
 62
    6
 10
423.65762003115958
 20
359.46518415498201
 11
428.59185082304077
 21
364.3994149468632
  0
LINE
  8
_0-e_極細4
  6
CONTINUOUS
 62
    6
 10
422.43400362220439
 20
363.54486860492625
 11
428.34379926983058
 21
369.45466425255245
  0
LINE
  8
_0-e_極細4
  6
CONTINUOUS
 62
    6
 10
422.09379926983058
 20
368.50796511145177
 11
428.34379926983058
 21
374.75796511145177
  0
LINE
  8
_0-e_極細4
  6
CONTINUOUS
 62
    6
 10
422.09379926983058
 20
373.81126597035075
 11
428.34379926983058
 21
380.06126597035075
  0
LINE
  8
_0-e_極細4
  6
CONTINUOUS
 62
    6
 10
422.09379926983058
 20
379.11456682924961
 11
428.34379926983058
 21
385.36456682924961
  0
LINE
  8
_0-e_極細4
  6
CONTINUOUS
 62
    6
 10
422.09379926983058
 20
384.41786768814904
 11
428.34379926983058
 21
390.66786768814904
  0
LINE
  8
_0-e_極細4
  6
CONTINUOUS
 62
    6
 10
422.09379926983058
 20
389.72116854704836
 11
428.34379926983058
 21
395.97116854704791
  0
LINE
  8
_0-e_極細4
  6
CONTINUOUS
 62
    6
 10
422.09379926983058
 20
395.02446940594734
 11
428.34379926983058
 21
401.27446940594734
  0
LINE
  8
_0-e_極細4
  6
CONTINUOUS
 62
    6
 10
422.09379926983058
 20
400.32777026484621
 11
428.34379926983058
 21
406.57777026484621
  0
LINE
  8
_0-e_極細4
  6
CONTINUOUS
 62
    6
 10
422.09379926983058
 20
405.63107112374564
 11
428.34379926983058
 21
411.88107112374564
  0
LINE
  8
_0-e_極細4
  6
CONTINUOUS
 62
    6
 10
422.09379926983058
 20
410.93437198264451
 11
428.34379926983058
 21
417.18437198264451
  0
LINE
  8
_0-e_極細4
  6
CONTINUOUS
 62
    6
 10
422.09379926983058
 20
416.23767284154377
 11
428.34379926983058
 21
422.48767284154377
  0
LINE
  8
_0-e_極細4
  6
CONTINUOUS
 62
    6
 10
422.09379926983058
 20
421.54097370044281
 11
428.34379926983058
 21
427.79097370044281
  0
LINE
  8
_0-e_極細4
  6
CONTINUOUS
 62
    6
 10
422.09379926983058
 20
426.84427455934167
 11
428.34379926983058
 21
433.09427455934167
  0
LINE
  8
_0-e_極細4
  6
CONTINUOUS
 62
    6
 10
422.09379926983058
 20
432.1475754182411
 11
428.34379926983058
 21
438.3975754182411
  0
LINE
  8
_0-e_極細4
  6
CONTINUOUS
 62
    6
 10
422.09379926983058
 20
437.45087627713997
 11
428.34379926983058
 21
443.70087627713997
  0
LINE
  8
_0-e_極細4
  6
CONTINUOUS
 62
    6
 10
422.09379926983058
 20
442.75417713603923
 11
428.34379926983058
 21
449.00417713603923
  0
LINE
  8
_0-e_極細4
  6
CONTINUOUS
 62
    6
 10
422.09379926983058
 20
448.05747799493827
 11
428.34379926983058
 21
454.30747799493827
  0
LINE
  8
_0-e_極細4
  6
CONTINUOUS
 62
    6
 10
422.09379926983058
 20
453.36077885383713
 11
428.34379926983058
 21
459.61077885383713
  0
LINE
  8
_0-e_極細4
  6
CONTINUOUS
 62
    6
 10
422.09379926983058
 20
458.66407971273657
 11
428.34379926983058
 21
464.91407971273657
  0
LINE
  8
_0-e_極細4
  6
CONTINUOUS
 62
    6
 10
422.09379926983058
 20
463.96738057163583
 11
428.34379926983058
 21
470.2173805716356
  0
LINE
  8
_0-e_極細4
  6
CONTINUOUS
 62
    6
 10
422.09379926983058
 20
469.27068143053447
 11
428.34379926983058
 21
475.52068143053447
  0
LINE
  8
_0-e_極細4
  6
CONTINUOUS
 62
    6
 10
422.09379926983058
 20
474.5739822894339
 11
428.34379926983058
 21
480.8239822894339
  0
LINE
  8
_0-e_極細4
  6
CONTINUOUS
 62
    6
 10
422.09379926983058
 20
479.87728314833333
 11
428.34379926983058
 21
486.12728314833276
  0
LINE
  8
_0-e_極細4
  6
CONTINUOUS
 62
    6
 10
422.09379926983058
 20
485.1805840072322
 11
428.34379926983058
 21
491.4305840072322
  0
LINE
  8
_0-e_極細4
  6
CONTINUOUS
 62
    6
 10
422.09379926983058
 20
490.48388486613106
 11
428.34379926983058
 21
496.73388486613106
  0
LINE
  8
_0-e_極細4
  6
CONTINUOUS
 62
    6
 10
422.09379926983058
 20
495.7871857250305
 11
428.34379926983058
 21
502.03718572502993
  0
LINE
  8
_0-e_極細4
  6
CONTINUOUS
 62
    6
 10
422.09379926983058
 20
501.09048658392936
 11
428.34379926983058
 21
507.34048658392936
  0
LINE
  8
_0-e_極細4
  6
CONTINUOUS
 62
    6
 10
422.09379926983058
 20
506.3937874428288
 11
428.34379926983058
 21
512.64378744282817
  0
LINE
  8
_0-e_極細4
  6
CONTINUOUS
 62
    6
 10
422.09379926983058
 20
511.69708830172766
 11
428.34379926983058
 21
517.94708830172772
  0
LINE
  8
_0-e_極細4
  6
CONTINUOUS
 62
    6
 10
422.09379926983058
 20
517.00038916062704
 11
428.34379926983058
 21
523.25038916062658
  0
LINE
  8
_0-e_極細4
  6
CONTINUOUS
 62
    6
 10
422.09379926983058
 20
522.3036900195259
 11
428.34379926983058
 21
528.5536900195259
  0
LINE
  8
_0-e_極細4
  6
CONTINUOUS
 62
    6
 10
422.09379926983058
 20
527.60699087842477
 11
428.34379926983058
 21
533.85699087842477
  0
LINE
  8
_0-e_極細4
  6
CONTINUOUS
 62
    6
 10
422.09379926983058
 20
532.91029173732431
 11
428.34379926983058
 21
539.16029173732431
  0
LINE
  8
_0-e_極細4
  6
CONTINUOUS
 62
    6
 10
422.09379926983058
 20
538.21359259622318
 11
428.34379926983058
 21
544.46359259622318
  0
LINE
  8
_0-e_極細4
  6
CONTINUOUS
 62
    6
 10
422.09379926983058
 20
543.5168934551225
 11
428.34379926983058
 21
549.76689345512204
  0
LINE
  8
_0-e_極細4
  6
CONTINUOUS
 62
    6
 10
422.09379926983058
 20
548.82019431402136
 11
428.34379926983058
 21
555.07019431402136
  0
LINE
  8
_0-e_極細4
  6
CONTINUOUS
 62
    6
 10
422.09379926983058
 20
554.12349517292023
 11
428.34379926983058
 21
560.37349517292023
  0
LINE
  8
_0-e_極細4
  6
CONTINUOUS
 62
    6
 10
422.09379926983058
 20
559.42679603181978
 11
428.34379926983058
 21
565.67679603181978
  0
LINE
  8
_0-e_極細4
  6
CONTINUOUS
 62
    6
 10
421.70706655897345
 20
564.34336417986151
 11
428.34379926983058
 21
570.98009689071864
  0
LINE
  8
_0-e_極細4
  6
CONTINUOUS
 62
    6
 10
420.09656459566838
 20
568.03616307545531
 11
428.34379926983058
 21
576.28339774961751
  0
LINE
  8
_0-e_極細4
  6
CONTINUOUS
 62
    6
 10
417.60803114679345
 20
570.85093048547969
 11
424.34053428278742
 21
577.58343362147434
  0
LINE
  8
_0-e_極細4
  6
CONTINUOUS
 62
    6
 10
425.45303503443063
 20
578.69593437311755
 11
427.09379926983058
 21
580.33669860851683
  0
LINE
  8
_0-e_極細4
  6
CONTINUOUS
 62
    6
 10
415.84379926983058
 20
574.38999946741569
 11
427.09379926983058
 21
585.63999946741569
  0
LINE
  8
_0-e_極細4
  6
CONTINUOUS
 62
    6
 10
415.84379926983058
 20
579.69330032631524
 11
425.04769591741035
 21
588.89719697389432
  0
LINE
  8
_0-e_極細4
  6
CONTINUOUS
 62
    6
 10
415.84379926983058
 20
584.9966011852141
 11
423.39629926982991
 21
592.54910118521389
  0
LINE
  8
_0-e_極細4
  6
CONTINUOUS
 62
    6
 10
415.84379926983058
 20
590.29990204411342
 11
423.39629926982991
 21
597.85240204411275
  0
LINE
  8
_0-e_極細4
  6
CONTINUOUS
 62
    6
 10
412.32402998829241
 20
592.08343362147411
 11
423.39629926982991
 21
603.1557029030123
  0
LINE
  8
_0-e_極細4
  6
CONTINUOUS
 62
    6
 10
407.02072912939354
 20
592.08343362147411
 11
423.39629926982991
 21
608.45900376191116
  0
LINE
  8
_0-e_極細4
  6
CONTINUOUS
 62
    6
 10
406.09379926983036
 20
596.45980462081047
 11
423.39629926982991
 21
613.76230462081048
  0
LINE
  8
_0-e_極細4
  6
CONTINUOUS
 62
    6
 10
406.09379926983036
 20
601.76310547970934
 11
423.39629926982991
 21
619.06560547970935
  0
LINE
  8
_0-e_極細4
  6
CONTINUOUS
 62
    6
 10
406.09379926983036
 20
607.0664063386082
 11
423.39629926982991
 21
624.36890633860889
  0
LINE
  8
_0-e_極細4
  6
CONTINUOUS
 62
    6
 10
406.09379926983036
 20
612.36970719750752
 11
419.282984683672
 21
625.55889261134917
  0
LINE
  8
_0-e_極細4
  6
CONTINUOUS
 62
    6
 10
406.09379926983036
 20
617.67300805640707
 11
414.52917750267954
 21
626.10838628925626
  0
LINE
  8
_0-e_極細4
  6
CONTINUOUS
 62
    6
 10
406.09379926983036
 20
622.97630891530594
 11
409.77537032168823
 21
626.65787996716313
  0
LINE
  8
_0-e_極細4
  6
CONTINUOUS
 62
    6
 10
674.79957926982945
 20
352.11455362147274
 11
764.30807926982891
 21
354.32161076978628
  0
LINE
  8
_0-e_極細4
  6
CONTINUOUS
 62
    6
 10
646.46879926982945
 20
482.1222192348236
 11
764.30807926982891
 21
479.21659647419034
  0
LINE
  8
_0-e_極細4
  6
CONTINUOUS
 62
    6
 10
763.61536558722617
 20
349.40507302370861
 11
764.30807926982891
 21
350.0977867063109
  0
LINE
  8
_0-e_極細4
  6
CONTINUOUS
 62
    6
 10
758.17799262495794
 20
349.27100092033925
 11
763.20131235296014
 21
354.294320648341
  0
LINE
  8
_0-e_極細4
  6
CONTINUOUS
 62
    6
 10
752.74061966268971
 20
349.13692881696943
 11
757.76393939069192
 21
354.16024854497164
  0
LINE
  8
_0-e_極細4
  6
CONTINUOUS
 62
    6
 10
747.30324670042148
 20
349.00285671360007
 11
752.32656642842369
 21
354.02617644160227
  0
LINE
  8
_0-e_極細4
  6
CONTINUOUS
 62
    6
 10
741.86587373815212
 20
348.8687846102307
 11
746.88919346615546
 21
353.89210433823337
  0
LINE
  8
_0-e_極細4
  6
CONTINUOUS
 62
    6
 10
736.42850077588389
 20
348.73471250686134
 11
741.45182050388723
 21
353.75803223486412
  0
LINE
  8
_0-e_極細4
  6
CONTINUOUS
 62
    6
 10
730.99112781361566
 20
348.60064040349141
 11
736.01444754161901
 21
353.62396013149475
  0
LINE
  8
_0-e_極細4
  6
CONTINUOUS
 62
    6
 10
725.5537548513463
 20
348.46656830012205
 11
730.57707457935078
 21
353.48988802812539
  0
LINE
  8
_0-e_極細4
  6
CONTINUOUS
 62
    6
 10
720.11638188907807
 20
348.33249619675269
 11
725.13970161708141
 21
353.3558159247566
  0
LINE
  8
_0-e_極細4
  6
CONTINUOUS
 62
    6
 10
714.67900892680984
 20
348.19842409338332
 11
719.70232865481319
 21
353.22174382138724
  0
LINE
  8
_0-e_極細4
  6
CONTINUOUS
 62
    6
 10
709.24163596454048
 20
348.06435199001396
 11
714.26495569254496
 21
353.08767171801833
  0
LINE
  8
_0-e_極細4
  6
CONTINUOUS
 62
    6
 10
703.80426300227225
 20
347.93027988664448
 11
708.82758273027673
 21
352.95359961464908
  0
LINE
  8
_0-e_極細4
  6
CONTINUOUS
 62
    6
 10
698.36689004000402
 20
347.79620778327512
 11
703.3902097680085
 21
352.81952751127972
  0
LINE
  8
_0-e_極細4
  6
CONTINUOUS
 62
    6
 10
692.9295170777358
 20
347.6621356799053
 11
697.95283680574028
 21
352.68545540791035
  0
LINE
  8
_0-e_極細4
  6
CONTINUOUS
 62
    6
 10
687.49214411546757
 20
347.52806357653594
 11
692.51546384347205
 21
352.55138330454156
  0
LINE
  8
_0-e_極細4
  6
CONTINUOUS
 62
    6
 10
682.0547711531982
 20
347.39399147316658
 11
687.07809088120382
 21
352.4173112011722
  0
LINE
  8
_0-e_極細4
  6
CONTINUOUS
 62
    6
 10
676.61739819092998
 20
347.25991936979665
 11
681.64071791893559
 21
352.28323909780329
  0
LINE
  8
_0-e_極細4
  6
CONTINUOUS
 62
    6
 10
671.27225158370391
 20
347.21807362147058
 11
676.20334495666737
 21
352.14916699443393
  0
LINE
  8
_0-e_極細4
  6
CONTINUOUS
 62
    6
 10
665.96895072480504
 20
347.21807362147058
 11
670.86691072480801
 21
352.11603362147355
  0
LINE
  8
_0-e_極細4
  6
CONTINUOUS
 62
    6
 10
660.66564986590618
 20
347.21807362147058
 11
665.56360986590914
 21
352.11603362147355
  0
LINE
  8
_0-e_極細4
  6
CONTINUOUS
 62
    6
 10
655.36234900700731
 20
347.21807362147058
 11
660.26030900701028
 21
352.11603362147355
  0
LINE
  8
_0-e_極細4
  6
CONTINUOUS
 62
    6
 10
650.05904814810731
 20
347.21807362147058
 11
654.95700814811028
 21
352.11603362147355
  0
LINE
  8
_0-e_極細4
  6
CONTINUOUS
 62
    6
 10
644.75574728920844
 20
347.21807362147058
 11
649.65370728921141
 21
352.11603362147355
  0
LINE
  8
_0-e_極細4
  6
CONTINUOUS
 62
    6
 10
639.45244643030958
 20
347.21807362147058
 11
644.35040643031255
 21
352.11603362147355
  0
LINE
  8
_0-e_極細4
  6
CONTINUOUS
 62
    6
 10
634.14914557141071
 20
347.21807362147058
 11
639.04710557141368
 21
352.11603362147355
  0
LINE
  8
_0-e_極細4
  6
CONTINUOUS
 62
    6
 10
628.84584471251185
 20
347.21807362147058
 11
633.74380471251482
 21
352.11603362147355
  0
LINE
  8
_0-e_極細4
  6
CONTINUOUS
 62
    6
 10
623.54254385361185
 20
347.21807362147058
 11
628.44050385361481
 21
352.11603362147355
  0
LINE
  8
_0-e_極細4
  6
CONTINUOUS
 62
    6
 10
618.23924299471298
 20
347.21807362147058
 11
623.13720299471595
 21
352.11603362147355
  0
LINE
  8
_0-e_極細4
  6
CONTINUOUS
 62
    6
 10
612.93594213581412
 20
347.21807362147058
 11
617.83390213581708
 21
352.11603362147355
  0
LINE
  8
_0-e_極細4
  6
CONTINUOUS
 62
    6
 10
607.63264127691525
 20
347.21807362147058
 11
612.53060127691822
 21
352.11603362147355
  0
LINE
  8
_0-e_極細4
  6
CONTINUOUS
 62
    6
 10
602.32934041801525
 20
347.21807362147058
 11
607.22730041801822
 21
352.11603362147355
  0
LINE
  8
_0-e_極細4
  6
CONTINUOUS
 62
    6
 10
597.02603955911638
 20
347.21807362147058
 11
601.92399955911935
 21
352.11603362147355
  0
LINE
  8
_0-e_極細4
  6
CONTINUOUS
 62
    6
 10
591.72273870021752
 20
347.21807362147058
 11
596.62069870022049
 21
352.11603362147355
  0
LINE
  8
_0-e_極細4
  6
CONTINUOUS
 62
    6
 10
586.41943784131865
 20
347.21807362147058
 11
591.31739784132162
 21
352.11603362147355
  0
LINE
  8
_0-e_極細4
  6
CONTINUOUS
 62
    6
 10
581.11613698241979
 20
347.21807362147058
 11
586.01409698242276
 21
352.11603362147355
  0
LINE
  8
_0-e_極細4
  6
CONTINUOUS
 62
    6
 10
575.81283612351979
 20
347.21807362147058
 11
580.71079612352275
 21
352.11603362147355
  0
LINE
  8
_0-e_極細4
  6
CONTINUOUS
 62
    6
 10
570.50953526462092
 20
347.21807362147058
 11
575.40749526462389
 21
352.11603362147355
  0
LINE
  8
_0-e_極細4
  6
CONTINUOUS
 62
    6
 10
565.20623440572206
 20
347.21807362147058
 11
570.10419440572502
 21
352.11603362147355
  0
LINE
  8
_0-e_極細4
  6
CONTINUOUS
 62
    6
 10
559.90293354682319
 20
347.21807362147058
 11
564.80089354682616
 21
352.11603362147355
  0
LINE
  8
_0-e_極細4
  6
CONTINUOUS
 62
    6
 10
554.59963268792319
 20
347.21807362147058
 11
559.49759268792616
 21
352.11603362147355
  0
LINE
  8
_0-e_極細4
  6
CONTINUOUS
 62
    6
 10
549.29633182902433
 20
347.21807362147058
 11
554.19429182902729
 21
352.11603362147355
  0
LINE
  8
_0-e_極細4
  6
CONTINUOUS
 62
    6
 10
548.34379926983058
 20
351.56884192117514
 11
548.89099097012843
 21
352.11603362147355
  0
LINE
  8
_0-e_極細4
  6
CONTINUOUS
 62
    6
 10
760.92771882342061
 20
479.29994773238008
 11
764.30807926982891
 21
482.68030817878895
  0
LINE
  8
_0-e_極細4
  6
CONTINUOUS
 62
    6
 10
755.75203736152969
 20
479.42756712938859
 11
760.53357377800137
 21
484.2091035458597
  0
LINE
  8
_0-e_極細4
  6
CONTINUOUS
 62
    6
 10
750.57635589963877
 20
479.55518652639654
 11
755.35789235940467
 21
484.33672298616244
  0
LINE
  8
_0-e_極細4
  6
CONTINUOUS
 62
    6
 10
745.40067443774785
 20
479.68280592340449
 11
750.18221094080911
 21
484.46434242646518
  0
LINE
  8
_0-e_極細4
  6
CONTINUOUS
 62
    6
 10
740.22499297585694
 20
479.81042532041243
 11
745.00652952221242
 21
484.59196186676792
  0
LINE
  8
_0-e_極細4
  6
CONTINUOUS
 62
    6
 10
735.04931151396602
 20
479.93804471742038
 11
739.83084810361572
 21
484.71958130707065
  0
LINE
  8
_0-e_極細4
  6
CONTINUOUS
 62
    6
 10
729.8736300520751
 20
480.06566411442833
 11
734.65516668501903
 21
484.84720074737339
  0
LINE
  8
_0-e_極細4
  6
CONTINUOUS
 62
    6
 10
724.69794859018305
 20
480.19328351143628
 11
729.47948526642233
 21
484.97482018767613
  0
LINE
  8
_0-e_極細4
  6
CONTINUOUS
 62
    6
 10
719.52226712829213
 20
480.32090290844479
 11
724.30380384782677
 21
485.1024396279783
  0
LINE
  8
_0-e_極細4
  6
CONTINUOUS
 62
    6
 10
714.34658566640121
 20
480.44852230545274
 11
719.12812242923007
 21
485.23005906828104
  0
LINE
  8
_0-e_極細4
  6
CONTINUOUS
 62
    6
 10
709.17090420451029
 20
480.57614170246069
 11
713.95244101063338
 21
485.35767850858377
  0
LINE
  8
_0-e_極細4
  6
CONTINUOUS
 62
    6
 10
703.99522274261938
 20
480.70376109946864
 11
708.77675959203668
 21
485.48529794888651
  0
LINE
  8
_0-e_極細4
  6
CONTINUOUS
 62
    6
 10
698.81954128072846
 20
480.83138049647658
 11
703.60107817343999
 21
485.61291738918925
  0
LINE
  8
_0-e_極細4
  6
CONTINUOUS
 62
    6
 10
693.6438598188364
 20
480.95899989348453
 11
698.42539675484443
 21
485.74053682949142
  0
LINE
  8
_0-e_極細4
  6
CONTINUOUS
 62
    6
 10
688.46817835694549
 20
481.08661929049248
 11
693.24971533624773
 21
485.86815626979416
  0
LINE
  8
_0-e_極細4
  6
CONTINUOUS
 62
    6
 10
683.29249689505457
 20
481.21423868750043
 11
688.07403391765104
 21
485.99577571009689
  0
LINE
  8
_0-e_極細4
  6
CONTINUOUS
 62
    6
 10
678.11681543316365
 20
481.34185808450894
 11
682.89835249905434
 21
486.12339515039963
  0
LINE
  8
_0-e_極細4
  6
CONTINUOUS
 62
    6
 10
672.94113397127273
 20
481.46947748151632
 11
677.72267108045764
 21
486.25101459070237
  0
LINE
  8
_0-e_極細4
  6
CONTINUOUS
 62
    6
 10
667.76545250938182
 20
481.59709687852484
 11
674.59379926982945
 21
488.42544363897304
  0
LINE
  8
_0-e_極細4
  6
CONTINUOUS
 62
    6
 10
662.58977104748976
 20
481.72471627553278
 11
674.59379926982945
 21
493.7287444978719
  0
LINE
  8
_0-e_極細4
  6
CONTINUOUS
 62
    6
 10
657.41408958559998
 20
481.85233567254073
 11
674.59379926982945
 21
499.03204535677077
  0
LINE
  8
_0-e_極細4
  6
CONTINUOUS
 62
    6
 10
652.23840812370793
 20
481.97995506954868
 11
674.59379926982945
 21
504.3353462156702
  0
LINE
  8
_0-e_極細4
  6
CONTINUOUS
 62
    6
 10
647.06272666181701
 20
482.10757446655663
 11
674.59379926982945
 21
509.63864707456906
  0
LINE
  8
_0-e_極細4
  6
CONTINUOUS
 62
    6
 10
646.46879926982945
 20
486.8169479334685
 11
674.59379926982945
 21
514.94194793346855
  0
LINE
  8
_0-e_極細4
  6
CONTINUOUS
 62
    6
 10
646.46879926982945
 20
492.12024879236736
 11
661.75546794599552
 21
507.40691746853344
  0
LINE
  8
_0-e_極細4
  6
CONTINUOUS
 62
    6
 10
668.34379926983058
 20
513.99524879236787
 11
674.59379926982945
 21
520.24524879236742
  0
LINE
  8
_0-e_極細4
  6
CONTINUOUS
 62
    6
 10
646.46879926982945
 20
497.42354965126623
 11
656.45216708709665
 21
507.40691746853344
  0
LINE
  8
_0-e_極細4
  6
CONTINUOUS
 62
    6
 10
668.34379926983058
 20
519.29854965126674
 11
674.59379926982945
 21
525.54854965126628
  0
LINE
  8
_0-e_極細4
  6
CONTINUOUS
 62
    6
 10
646.46879926982945
 20
502.72685051016566
 11
651.14886622819779
 21
507.40691746853344
  0
LINE
  8
_0-e_極細4
  6
CONTINUOUS
 62
    6
 10
668.34379926983058
 20
524.60185051016629
 11
674.59379926982945
 21
530.8518505101656
  0
LINE
  8
_0-e_極細4
  6
CONTINUOUS
 62
    6
 10
668.34379926983058
 20
529.90515136906515
 11
674.59379926982945
 21
536.15515136906447
  0
LINE
  8
_0-e_極細4
  6
CONTINUOUS
 62
    6
 10
668.34379926983058
 20
535.20845222796402
 11
674.59379926982945
 21
541.45845222796402
  0
LINE
  8
_0-e_極細4
  6
CONTINUOUS
 62
    6
 10
668.34379926983058
 20
540.51175308686334
 11
674.59379926982945
 21
546.76175308686288
  0
LINE
  8
_0-e_極細4
  6
CONTINUOUS
 62
    6
 10
668.34379926983058
 20
545.81505394576288
 11
674.59379926982945
 21
552.0650539457622
  0
LINE
  8
_0-e_極細4
  6
CONTINUOUS
 62
    6
 10
668.34379926983058
 20
551.11835480466175
 11
674.59379926982945
 21
557.36835480466107
  0
LINE
  8
_0-e_極細4
  6
CONTINUOUS
 62
    6
 10
668.34379926983058
 20
556.42165566356061
 11
671.08707052205671
 21
559.16492691578719
  0
LINE
  8
_0-e_極細4
  6
CONTINUOUS
 62
    6
 10
671.08707052205671
 20
559.16492691578719
 11
674.68465805576341
 21
562.76251444949389
  0
LINE
  8
_0-e_極細4
  6
CONTINUOUS
 62
    6
 10
668.34379926983058
 20
561.72495652245993
 11
680.84379926982945
 21
574.22495652245948
  0
LINE
  8
_0-e_極細4
  6
CONTINUOUS
 62
    6
 10
668.34379926983058
 20
567.0282573813588
 11
680.84379926982945
 21
579.5282573813588
  0
LINE
  8
_0-e_極細4
  6
CONTINUOUS
 62
    6
 10
668.34379926983058
 20
572.33155824025835
 11
680.84379926982945
 21
584.83155824025766
  0
LINE
  8
_0-e_極細4
  6
CONTINUOUS
 62
    6
 10
688.0956746510459
 20
592.08343362147411
 11
690.59379926983081
 21
594.58155824025857
  0
LINE
  8
_0-e_極細4
  6
CONTINUOUS
 62
    6
 10
670.04715237141238
 20
579.33821220073946
 11
680.84379926982945
 21
590.13485909915721
  0
LINE
  8
_0-e_極細4
  6
CONTINUOUS
 62
    6
 10
682.79237379214703
 20
592.08343362147411
 11
690.59379926983081
 21
599.88485909915744
  0
LINE
  8
_0-e_極細4
  6
CONTINUOUS
 62
    6
 10
669.59379926983058
 20
584.18815995805653
 11
690.59379926983081
 21
605.1881599580563
  0
LINE
  8
_0-e_極細4
  6
CONTINUOUS
 62
    6
 10
673.29129926983012
 20
593.18896081695561
 11
690.59379926983081
 21
610.49146081695562
  0
LINE
  8
_0-e_極細4
  6
CONTINUOUS
 62
    6
 10
673.29129926983012
 20
598.49226167585448
 11
690.59379926983081
 21
615.79476167585449
  0
LINE
  8
_0-e_極細4
  6
CONTINUOUS
 62
    6
 10
673.29129926983012
 20
603.79556253475334
 11
690.59379926983081
 21
621.09806253475404
  0
LINE
  8
_0-e_極細4
  6
CONTINUOUS
 62
    6
 10
673.29129926983012
 20
609.09886339365266
 11
690.59379926983081
 21
626.4013633936529
  0
LINE
  8
_0-e_極細4
  6
CONTINUOUS
 62
    6
 10
673.29129926983012
 20
614.40216425255221
 11
685.36858489347208
 21
626.47944987619348
  0
LINE
  8
_0-e_極細4
  6
CONTINUOUS
 62
    6
 10
673.29129926983012
 20
619.70546511145108
 11
679.37215534855466
 21
625.78632119017493
  0
LINE
  8
_0-e_極細4
  6
CONTINUOUS
 62
    6
 10
673.29129926983012
 20
625.00876597034994
 11
673.37572580363724
 21
625.09319250415638
  0
TEXT
  8
_0-7_枠細線
 62
    5
 10
429.9889226540833
 20
231.82910531609011
 40
50
 41
0.8
 50
0
  1
排水部詳細図
  0
TEXT
  8
_0-7_枠細線
 62
    5
 10
701.15123064022009
 20
235.57696964525448
 40
40
 41
0.6000000000000002
 50
0
  1
Ｓ＝１：４
  0
LINE
  8
_1-1_寸法4
  6
CONTINUOUS
 62
    7
 10
435.52486496056883
 20
381.8969630556627
 11
423.38978844452072
 21
365.99916704647785
  0
LINE
  8
_1-1_寸法4
  6
CONTINUOUS
 62
    7
 10
435.52486496056883
 20
381.8969630556627
 11
417.06668241621071
 21
374.19660610554985
  0
LINE
  8
_1-1_寸法4
  6
CONTINUOUS
 62
    7
 10
435.52486496056883
 20
381.8969630556627
 11
392.27689504623413
 21
348.53758126497269
  0
LINE
  8
_1-1_寸法4
  6
CONTINUOUS
 62
    7
 10
392.27689504623413
 20
348.53758126497269
 11
248.27689504623407
 21
348.53758126497269
  0
TEXT
  8
_1-1_寸法4
 62
    7
 10
248.27689504623422
 20
348.53758126497326
 40
30
 41
0.7999999999999998
 50
-0.0000000000002261
  1
トラップ本体
  0
LINE
  8
_1-1_寸法4
  6
CONTINUOUS
 62
    7
 10
510.00267174908925
 20
492.22323989321097
 11
497.97314346014986
 21
476.245428743194
  0
LINE
  8
_1-1_寸法4
  6
CONTINUOUS
 62
    7
 10
510.00267174908925
 20
492.22323989321097
 11
491.59588908031566
 21
484.40081368489575
  0
LINE
  8
_1-1_寸法4
  6
CONTINUOUS
 62
    7
 10
510.00267174908925
 20
492.22323989321097
 11
392.27689504623413
 21
400.165387264
  0
LINE
  8
_1-1_寸法4
  6
CONTINUOUS
 62
    7
 10
392.27689504623413
 20
400.165387264
 11
200.27689504623424
 21
400.165387264
  0
TEXT
  8
_1-1_寸法4
 62
    7
 10
200.27689504623424
 20
400.16538726400057
 40
30
 41
0.7999999999999998
 50
-0.0000000000001696
  1
防臭インナー１号
  0
LINE
  8
_1-1_寸法4
  6
CONTINUOUS
 62
    7
 10
464.31076574386236
 20
531.9202551269816
 11
452.2894198667467
 21
515.93628680548045
  0
LINE
  8
_1-1_寸法4
  6
CONTINUOUS
 62
    7
 10
464.31076574386236
 20
531.9202551269816
 11
445.90799066585021
 21
524.0884054458337
  0
LINE
  8
_1-1_寸法4
  6
CONTINUOUS
 62
    7
 10
464.31076574386236
 20
531.9202551269816
 11
392.27689504623413
 21
475.53257651199999
  0
LINE
  8
_1-1_寸法4
  6
CONTINUOUS
 62
    7
 10
392.27689504623413
 20
475.53257651199999
 11
200.27689504623424
 21
475.53257651199999
  0
TEXT
  8
_1-1_寸法4
 62
    7
 10
200.27689504623424
 20
475.53257651199999
 40
30
 41
0.7999999999999998
 50
-0.0000000000001696
  1
防臭インナー２号
  0
LINE
  8
_1-1_寸法4
  6
CONTINUOUS
 62
    7
 10
490.82840280915332
 20
622.68202575110899
 11
475.1003251566766
 21
635.03627900080642
  0
LINE
  8
_1-1_寸法4
  6
CONTINUOUS
 62
    7
 10
490.82840280915332
 20
622.68202575110899
 11
483.38461463426285
 21
641.24516173637187
  0
LINE
  8
_1-1_寸法4
  6
CONTINUOUS
 62
    7
 10
490.82840280915332
 20
622.68202575110899
 11
458.89647543430328
 21
665.28765082359314
  0
LINE
  8
_1-1_寸法4
  6
CONTINUOUS
 62
    7
 10
458.89647543430328
 20
665.28765082359314
 11
314.89647543430323
 21
665.28765082359314
  0
TEXT
  8
_1-1_寸法4
 62
    7
 10
314.89647543430323
 20
665.28765082359359
 40
30
 41
0.7999999999999998
 50
-0.0000000000001696
  1
ストレーナー
  0
TEXT
  8
_1-1_寸法4
 62
    7
 10
682.30498484577777
 20
655.93132405978895
 40
30
 41
0.8000000000000001
 50
0
  1
Ｃ部
  0
TEXT
  8
_0-7_枠細線
 62
    5
 10
1930.9999999999995
 20
220
 40
40
 41
0.6
 50
0
  1
ＨＳＡＹ－１５Ｌ１８００
  0
LINE
  8
_0-7_枠細線
  6
CONTINUOUS
 62
    5
 10
2339.7411904658284
 20
1344.3603023313174
 11
2324.7411904658284
 21
1374.3603023313174
  0
LINE
  8
_0-7_枠細線
  6
CONTINUOUS
 62
    5
 10
2309.7411904658284
 20
1344.3603023313174
 11
2339.7411904658284
 21
1344.3603023313174
  0
LINE
  8
_0-7_枠細線
  6
CONTINUOUS
 62
    5
 10
2324.7411904658284
 20
1374.3603023313174
 11
2309.7411904658284
 21
1344.3603023313174
  0
TEXT
  8
_0-7_枠細線
 62
    5
 10
2314.471493002126
 20
1343.7462978405565
 40
25
 41
0.8
 50
0
  1
１
  0
LINE
  8
_0-0_計極細
  6
CONTINUOUS
 62
    2
 10
863.02174374706601
 20
1528.83196239718
 11
863.02174602804041
 21
1523.3319623971804
  0
LINE
  8
_0-0_計極細
  6
CONTINUOUS
 62
    2
 10
869.92174371686224
 20
1528.83196239718
 11
869.92174602804096
 21
1523.3319623971804
  0
LINE
  8
_0-0_計極細
  6
CONTINUOUS
 62
    2
 10
863.0217460372927
 20
1513.3319623971804
 11
863.0217460372927
 21
1507.8319623971802
  0
LINE
  8
_0-0_計極細
  6
CONTINUOUS
 62
    2
 10
869.92174603741523
 20
1513.3319623971804
 11
869.92174603741523
 21
1507.8319623971802
  0
LINE
  8
_0-0_計極細
  6
CONTINUOUS
 62
    2
 10
863.0217460372927
 20
1492.3319623971806
 11
863.0217460372927
 21
1497.8319623971802
  0
LINE
  8
_0-0_計極細
  6
CONTINUOUS
 62
    2
 10
869.92174603741523
 20
1492.3319623971806
 11
869.92174603741523
 21
1497.8319623971802
  0
LINE
  8
_0-0_計極細
  6
CONTINUOUS
 62
    2
 10
863.0217460372927
 20
1476.8319623971811
 11
863.0217460372927
 21
1482.3319623971806
  0
LINE
  8
_0-0_計極細
  6
CONTINUOUS
 62
    2
 10
869.92174603741523
 20
1476.8319623971811
 11
869.92174603741523
 21
1482.3319623971806
  0
LINE
  8
_0-0_計極細
  6
CONTINUOUS
 62
    2
 10
863.02174374706601
 20
1430.3319623971797
 11
863.02174602804041
 21
1435.8319623971793
  0
LINE
  8
_0-0_計極細
  6
CONTINUOUS
 62
    2
 10
869.92174371686224
 20
1430.3319623971797
 11
869.92174602804096
 21
1435.8319623971793
  0
LINE
  8
_0-0_計極細
  6
CONTINUOUS
 62
    2
 10
863.0217460372927
 20
1445.8319623971793
 11
863.0217460372927
 21
1451.3319623971793
  0
LINE
  8
_0-0_計極細
  6
CONTINUOUS
 62
    2
 10
869.92174603741523
 20
1445.8319623971793
 11
869.92174603741523
 21
1451.3319623971793
  0
LINE
  8
_0-0_計極細
  6
CONTINUOUS
 62
    2
 10
863.0217460372927
 20
1466.8319623971788
 11
863.0217460372927
 21
1461.3319623971793
  0
LINE
  8
_0-0_計極細
  6
CONTINUOUS
 62
    2
 10
869.92174603741523
 20
1466.8319623971788
 11
869.92174603741523
 21
1461.3319623971793
  0
LINE
  8
_0-0_計極細
  6
CONTINUOUS
 62
    2
 10
1154.021743747066
 20
1528.83196239718
 11
1154.0217460280405
 21
1523.3319623971804
  0
LINE
  8
_0-0_計極細
  6
CONTINUOUS
 62
    2
 10
1160.9217437168622
 20
1528.83196239718
 11
1160.9217460280411
 21
1523.3319623971804
  0
LINE
  8
_0-0_計極細
  6
CONTINUOUS
 62
    2
 10
1154.0217460372928
 20
1513.3319623971804
 11
1154.0217460372928
 21
1507.8319623971802
  0
LINE
  8
_0-0_計極細
  6
CONTINUOUS
 62
    2
 10
1160.9217460374152
 20
1513.3319623971804
 11
1160.9217460374152
 21
1507.8319623971802
  0
LINE
  8
_0-0_計極細
  6
CONTINUOUS
 62
    2
 10
1154.0217460372928
 20
1492.3319623971806
 11
1154.0217460372928
 21
1497.8319623971802
  0
LINE
  8
_0-0_計極細
  6
CONTINUOUS
 62
    2
 10
1160.9217460374152
 20
1492.3319623971806
 11
1160.9217460374152
 21
1497.8319623971802
  0
LINE
  8
_0-0_計極細
  6
CONTINUOUS
 62
    2
 10
1154.0217460372928
 20
1476.8319623971811
 11
1154.0217460372928
 21
1482.3319623971806
  0
LINE
  8
_0-0_計極細
  6
CONTINUOUS
 62
    2
 10
1160.9217460374152
 20
1476.8319623971811
 11
1160.9217460374152
 21
1482.3319623971806
  0
LINE
  8
_0-0_計極細
  6
CONTINUOUS
 62
    2
 10
1154.021743747066
 20
1430.3319623971797
 11
1154.0217460280405
 21
1435.8319623971793
  0
LINE
  8
_0-0_計極細
  6
CONTINUOUS
 62
    2
 10
1160.9217437168622
 20
1430.3319623971797
 11
1160.9217460280411
 21
1435.8319623971793
  0
LINE
  8
_0-0_計極細
  6
CONTINUOUS
 62
    2
 10
1154.0217460372928
 20
1445.8319623971793
 11
1154.0217460372928
 21
1451.3319623971793
  0
LINE
  8
_0-0_計極細
  6
CONTINUOUS
 62
    2
 10
1160.9217460374152
 20
1445.8319623971793
 11
1160.9217460374152
 21
1451.3319623971793
  0
LINE
  8
_0-0_計極細
  6
CONTINUOUS
 62
    2
 10
1154.0217460372928
 20
1466.8319623971788
 11
1154.0217460372928
 21
1461.3319623971793
  0
LINE
  8
_0-0_計極細
  6
CONTINUOUS
 62
    2
 10
1160.9217460374152
 20
1466.8319623971788
 11
1160.9217460374152
 21
1461.3319623971793
  0
LINE
  8
_0-0_計極細
  6
CONTINUOUS
 62
    2
 10
1445.021743747066
 20
1528.83196239718
 11
1445.0217460280405
 21
1523.3319623971804
  0
LINE
  8
_0-0_計極細
  6
CONTINUOUS
 62
    2
 10
1451.9217437168622
 20
1528.83196239718
 11
1451.9217460280411
 21
1523.3319623971804
  0
LINE
  8
_0-0_計極細
  6
CONTINUOUS
 62
    2
 10
1445.0217460372928
 20
1513.3319623971804
 11
1445.0217460372928
 21
1507.8319623971802
  0
LINE
  8
_0-0_計極細
  6
CONTINUOUS
 62
    2
 10
1451.9217460374152
 20
1513.3319623971804
 11
1451.9217460374152
 21
1507.8319623971802
  0
LINE
  8
_0-0_計極細
  6
CONTINUOUS
 62
    2
 10
1445.0217460372928
 20
1492.3319623971806
 11
1445.0217460372928
 21
1497.8319623971802
  0
LINE
  8
_0-0_計極細
  6
CONTINUOUS
 62
    2
 10
1451.9217460374152
 20
1492.3319623971806
 11
1451.9217460374152
 21
1497.8319623971802
  0
LINE
  8
_0-0_計極細
  6
CONTINUOUS
 62
    2
 10
1445.0217460372928
 20
1476.8319623971811
 11
1445.0217460372928
 21
1482.3319623971806
  0
LINE
  8
_0-0_計極細
  6
CONTINUOUS
 62
    2
 10
1451.9217460374152
 20
1476.8319623971811
 11
1451.9217460374152
 21
1482.3319623971806
  0
LINE
  8
_0-0_計極細
  6
CONTINUOUS
 62
    2
 10
1445.021743747066
 20
1430.3319623971797
 11
1445.0217460280405
 21
1435.8319623971793
  0
LINE
  8
_0-0_計極細
  6
CONTINUOUS
 62
    2
 10
1451.9217437168622
 20
1430.3319623971797
 11
1451.9217460280411
 21
1435.8319623971793
  0
LINE
  8
_0-0_計極細
  6
CONTINUOUS
 62
    2
 10
1445.0217460372928
 20
1445.8319623971793
 11
1445.0217460372928
 21
1451.3319623971793
  0
LINE
  8
_0-0_計極細
  6
CONTINUOUS
 62
    2
 10
1451.9217460374152
 20
1445.8319623971793
 11
1451.9217460374152
 21
1451.3319623971793
  0
LINE
  8
_0-0_計極細
  6
CONTINUOUS
 62
    2
 10
1445.0217460372928
 20
1466.8319623971788
 11
1445.0217460372928
 21
1461.3319623971793
  0
LINE
  8
_0-0_計極細
  6
CONTINUOUS
 62
    2
 10
1451.9217460374152
 20
1466.8319623971788
 11
1451.9217460374152
 21
1461.3319623971793
  0
LINE
  8
_0-0_計極細
  6
CONTINUOUS
 62
    2
 10
1736.021743747066
 20
1528.83196239718
 11
1736.0217460280408
 21
1523.3319623971804
  0
LINE
  8
_0-0_計極細
  6
CONTINUOUS
 62
    2
 10
1742.9217437168622
 20
1528.83196239718
 11
1742.9217460280413
 21
1523.3319623971804
  0
LINE
  8
_0-0_計極細
  6
CONTINUOUS
 62
    2
 10
1736.0217460372928
 20
1513.3319623971804
 11
1736.0217460372928
 21
1507.8319623971802
  0
LINE
  8
_0-0_計極細
  6
CONTINUOUS
 62
    2
 10
1742.9217460374152
 20
1513.3319623971804
 11
1742.9217460374152
 21
1507.8319623971802
  0
LINE
  8
_0-0_計極細
  6
CONTINUOUS
 62
    2
 10
1736.0217460372928
 20
1492.3319623971806
 11
1736.0217460372928
 21
1497.8319623971802
  0
LINE
  8
_0-0_計極細
  6
CONTINUOUS
 62
    2
 10
1742.9217460374152
 20
1492.3319623971806
 11
1742.9217460374152
 21
1497.8319623971802
  0
LINE
  8
_0-0_計極細
  6
CONTINUOUS
 62
    2
 10
1736.0217460372928
 20
1476.8319623971811
 11
1736.0217460372928
 21
1482.3319623971806
  0
LINE
  8
_0-0_計極細
  6
CONTINUOUS
 62
    2
 10
1742.9217460374152
 20
1476.8319623971811
 11
1742.9217460374152
 21
1482.3319623971806
  0
LINE
  8
_0-0_計極細
  6
CONTINUOUS
 62
    2
 10
1736.021743747066
 20
1430.3319623971797
 11
1736.0217460280408
 21
1435.8319623971793
  0
LINE
  8
_0-0_計極細
  6
CONTINUOUS
 62
    2
 10
1742.9217437168622
 20
1430.3319623971797
 11
1742.9217460280413
 21
1435.8319623971793
  0
LINE
  8
_0-0_計極細
  6
CONTINUOUS
 62
    2
 10
1736.0217460372928
 20
1445.8319623971793
 11
1736.0217460372928
 21
1451.3319623971793
  0
LINE
  8
_0-0_計極細
  6
CONTINUOUS
 62
    2
 10
1742.9217460374152
 20
1445.8319623971793
 11
1742.9217460374152
 21
1451.3319623971793
  0
LINE
  8
_0-0_計極細
  6
CONTINUOUS
 62
    2
 10
1736.0217460372928
 20
1466.8319623971788
 11
1736.0217460372928
 21
1461.3319623971793
  0
LINE
  8
_0-0_計極細
  6
CONTINUOUS
 62
    2
 10
1742.9217460374152
 20
1466.8319623971788
 11
1742.9217460374152
 21
1461.3319623971793
  0
LINE
  8
_0-0_計極細
  6
CONTINUOUS
 62
    2
 10
2027.021743747066
 20
1528.83196239718
 11
2027.0217460280405
 21
1523.3319623971804
  0
LINE
  8
_0-0_計極細
  6
CONTINUOUS
 62
    2
 10
2033.9217437168622
 20
1528.83196239718
 11
2033.9217460280411
 21
1523.3319623971804
  0
LINE
  8
_0-0_計極細
  6
CONTINUOUS
 62
    2
 10
2027.021746037293
 20
1513.3319623971804
 11
2027.021746037293
 21
1507.8319623971802
  0
LINE
  8
_0-0_計極細
  6
CONTINUOUS
 62
    2
 10
2033.9217460374152
 20
1513.3319623971804
 11
2033.9217460374152
 21
1507.8319623971802
  0
LINE
  8
_0-0_計極細
  6
CONTINUOUS
 62
    2
 10
2027.021746037293
 20
1492.3319623971806
 11
2027.021746037293
 21
1497.8319623971802
  0
LINE
  8
_0-0_計極細
  6
CONTINUOUS
 62
    2
 10
2033.9217460374152
 20
1492.3319623971806
 11
2033.9217460374152
 21
1497.8319623971802
  0
LINE
  8
_0-0_計極細
  6
CONTINUOUS
 62
    2
 10
2027.021746037293
 20
1476.8319623971811
 11
2027.021746037293
 21
1482.3319623971806
  0
LINE
  8
_0-0_計極細
  6
CONTINUOUS
 62
    2
 10
2033.9217460374152
 20
1476.8319623971811
 11
2033.9217460374152
 21
1482.3319623971806
  0
LINE
  8
_0-0_計極細
  6
CONTINUOUS
 62
    2
 10
2027.021743747066
 20
1430.3319623971797
 11
2027.0217460280405
 21
1435.8319623971793
  0
LINE
  8
_0-0_計極細
  6
CONTINUOUS
 62
    2
 10
2033.9217437168622
 20
1430.3319623971797
 11
2033.9217460280411
 21
1435.8319623971793
  0
LINE
  8
_0-0_計極細
  6
CONTINUOUS
 62
    2
 10
2027.021746037293
 20
1445.8319623971793
 11
2027.021746037293
 21
1451.3319623971793
  0
LINE
  8
_0-0_計極細
  6
CONTINUOUS
 62
    2
 10
2033.9217460374152
 20
1445.8319623971793
 11
2033.9217460374152
 21
1451.3319623971793
  0
LINE
  8
_0-0_計極細
  6
CONTINUOUS
 62
    2
 10
2027.021746037293
 20
1466.8319623971788
 11
2027.021746037293
 21
1461.3319623971793
  0
LINE
  8
_0-0_計極細
  6
CONTINUOUS
 62
    2
 10
2033.9217460374152
 20
1466.8319623971788
 11
2033.9217460374152
 21
1461.3319623971793
  0
LINE
  8
_0-0_計極細
  6
CONTINUOUS
 62
    2
 10
2266.4717437074869
 20
971.47133039718028
 11
2316.3301299723198
 21
971.47133039718028
  0
ENDSEC
  0
EOF
