  0
SECTION
  2
HEADER
  9
$ACADVER
  1
AC1009
  9
$INSBASE
 10
0
 20
0
 30
0
  9
$EXTMIN
 10
0
 20
0
  9
$EXTMAX
 10
2970
 20
2100
  9
$LIMMIN
 10
0
 20
0
  9
$LIMMAX
 10
2970
 20
2100
  9
$LTSCALE
 40
10
  0
ENDSEC
  0
SECTION
  2
TABLES
  0
TABLE
  2
LTYPE
 70
     9
  0
LTYPE
  2
CONTINUOUS
 70
    64
  3
実線
 72
    65
 73
     0
 40
0.0
  0
LTYPE
  2
DASHED1
 70
    64
  3
--  --  --  --  --  --  --  --  
 72
    65
 73
     2
 40
2.5
 49
1.25
 49
-1.25
  0
LTYPE
  2
DASHED2
 70
    64
  3
----    ----    ----    ----    
 72
    65
 73
     2
 40
5.0
 49
2.5
 49
-2.5
  0
LTYPE
  2
DASHED3
 70
    64
  3
------  ------  ------  ------  
 72
    65
 73
     2
 40
5.0
 49
3.75
 49
-1.25
  0
LTYPE
  2
CENTER1
 70
    64
  3
----- - ----- - ----- - ----- - 
 72
    65
 73
     4
 40
10.0
 49
6.25
 49
-1.25
 49
1.25
 49
-1.25
  0
LTYPE
  2
CENTER2
 70
    64
  3
----------  --  ----------  --  
 72
    65
 73
     4
 40
20.0
 49
12.5
 49
-2.5
 49
2.5
 49
-2.5
  0
LTYPE
  2
PHANTOM1
 70
    64
  3
--- - - --- - - --- - - --- - - 
 72
    65
 73
     6
 40
10.0
 49
3.25
 49
-1.25
 49
1.25
 49
-1.25
 49
1.25
 49
-1.25
  0
LTYPE
  2
PHANTOM2
 70
    64
  3
--------  -  -  --------  -  -  
 72
    65
 73
     6
 40
20.0
 49
10.0
 49
-2.5
 49
1.25
 49
-2.5
 49
1.25
 49
-2.5
  0
LTYPE
  2
DOT
 70
    64
  3
-   -   -   -   -   -   -   -   
 72
    65
 73
     2
 40
2.5
 49
0.625
 49
-1.875
  0
LTYPE
  2
DUMMY
 70
    64
  3
ダミー
 72
    65
 73
     0
 40
0.0
  0
LTYPE
  2
RAND1
 70
    64
  3
ランダム線1
 72
    65
 73
     4
 40
10.0
 49
1.0
 49
-2.0
 49
3.0
 49
-4.0
  0
LTYPE
  2
RAND2
 70
    64
  3
ランダム線2
 72
    65
 73
     4
 40
14.0
 49
2.0
 49
-3.0
 49
4.0
 49
-5.0
  0
LTYPE
  2
RAND3
 70
    64
  3
ランダム線3
 72
    65
 73
     4
 40
18.0
 49
3.0
 49
-4.0
 49
5.0
 49
-6.0
  0
LTYPE
  2
RAND4
 70
    64
  3
ランダム線4
 72
    65
 73
     4
 40
22.0
 49
4.0
 49
-5.0
 49
6.0
 49
-7.0
  0
LTYPE
  2
RAND5
 70
    64
  3
ランダム線5
 72
    65
 73
     4
 40
26.0
 49
5.0
 49
-6.0
 49
7.0
 49
-8.0
  0
LTYPE
  2
LONG1
 70
    64
  3
----------  --  ----------  --  
 72
    65
 73
     4
 40
40.0
 49
32.5
 49
-2.5
 49
2.5
 49
-2.5
  0
LTYPE
  2
LONG2
 70
    64
  3
--------  -  -  --------  -  -  
 72
    65
 73
     6
 40
40.0
 49
30.0
 49
-2.5
 49
1.25
 49
-2.5
 49
1.25
 49
-2.5
  0
LTYPE
  2
LONG3
 70
    64
  3
+++++++++++++++..+++++++++++++++
 72
    65
 73
     2
 40
40.0
 49
37.5
 49
-2.5
  0
LTYPE
  2
LONG4
 70
    64
  3
+++++++++++++++..+++++++++++++++
 72
    65
 73
     2
 40
80.0
 49
75.0
 49
-5.0
  0
LTYPE
  2
LONG5
 70
    64
  3
----------  --  ----------  --  
 72
    65
 73
     4
 40
60.0
 49
37.5
 49
-7.5
 49
7.5
 49
-7.5
  0
LTYPE
  2
dashed
 70
   64
  3
-------   -------------   ------
 72
   65
 73
    2
 40
7.5
 49
6
 49
-1.5
  0
LTYPE
  2
dashed_spaced
 70
   64
  3
----        --------        ----
 72
   65
 73
    2
 40
12
 49
6
 49
-6
  0
LTYPE
  2
long_dashed_dotted
 70
   64
  3
------------- --- --------------
 72
   65
 73
    4
 40
15.25
 49
12
 49
-1.5
 49
0.25
 49
-1.5
  0
LTYPE
  2
long_dashed_double-dotted
 70
   64
  3
----------- --- --- ------------
 72
   65
 73
    6
 40
17
 49
12
 49
-1.5
 49
0.25
 49
-1.5
 49
0.25
 49
-1.5
  0
LTYPE
  2
long_dashed_triplicate-dotted
 70
   64
  3
--------- --- --- --- ----------
 72
   65
 73
    8
 40
18.75
 49
12
 49
-1.5
 49
0.25
 49
-1.5
 49
0.25
 49
-1.5
 49
0.25
 49
-1.5
  0
LTYPE
  2
dotted
 70
   64
  3
   -       -       -       -    
 72
   65
 73
    2
 40
1.75
 49
0.25
 49
-1.5
  0
LTYPE
  2
chain
 70
   64
  3
-------------- -- --------------
 72
   65
 73
    4
 40
18.5
 49
12
 49
-1.5
 49
3.5
 49
-1.5
  0
LTYPE
  2
chain_double_dash
 70
   64
  3
------------ -- -- -------------
 72
   65
 73
    6
 40
23.5
 49
12
 49
-1.5
 49
3.5
 49
-1.5
 49
3.5
 49
-1.5
  0
LTYPE
  2
dashed_dotted
 70
   64
  3
-----------     -     ----------
 72
   65
 73
    4
 40
9.25
 49
6
 49
-1.5
 49
0.25
 49
-1.5
  0
LTYPE
  2
double-dashed_dotted
 70
   64
  3
------   -----------   -   -----
 72
   65
 73
    6
 40
16.75
 49
6
 49
-1.5
 49
6
 49
-1.5
 49
0.25
 49
-1.5
  0
LTYPE
  2
dashed_double-dotted
 70
   64
  3
---------    -    -    ---------
 72
   65
 73
    6
 40
11
 49
6
 49
-1.5
 49
0.25
 49
-1.5
 49
0.25
 49
-1.5
  0
LTYPE
  2
double-dashed_double-dotted
 70
   64
  3
-----   ---------   -   -   ----
 72
   65
 73
    8
 40
18.5
 49
6
 49
-1.5
 49
6
 49
-1.5
 49
0.25
 49
-1.5
 49
0.25
 49
-1.5
  0
LTYPE
  2
dashed_triplicate-dotted
 70
   64
  3
-------    -    -    -    ------
 72
   65
 73
    8
 40
12.75
 49
6
 49
-1.5
 49
0.25
 49
-1.5
 49
0.25
 49
-1.5
 49
0.25
 49
-1.5
  0
LTYPE
  2
double-dashed_triplicate-dotted
 70
   64
  3
-----  ---------  -  -  -  -----
 72
   65
 73
   10
 40
20.25
 49
6
 49
-1.5
 49
6
 49
-1.5
 49
0.25
 49
-1.5
 49
0.25
 49
-1.5
 49
0.25
 49
-1.5
  0
LTYPE
  2
undefined
 70
   64
  3
--------------------------------
 72
   65
 73
    0
 40
0
  0
ENDTAB
  0
TABLE
  2
STYLE
  5
3
100
AcDbSymbolTable
 70
     1
  0
STYLE
  5
10
100
AcDbSymbolTableRecord
100
AcDbTextStyleTableRecord
  2
STANDARD
 70
     0
 40
0.0
 41
1.0
 50
0.0
 71
     0
 42
0.2
  3
txt
  4
bigfont.shx
  0
STYLE
  5
26
100
AcDbSymbolTableRecord
100
AcDbTextStyleTableRecord
  2
TATEGAKI
 70
    68
 40
0.0
 41
1.0
 50
0.0
 71
     0
 42
1.0
  3
txt
  4
bigfont.shx
  0
ENDTAB
  0
TABLE
  2
LAYER
 70
   13
  0
LAYER
  2
_0-0_計極細
 70
   64
 62
    7
  6
CONTINUOUS
  0
LAYER
  2
_0-1_計細線
 70
   64
 62
    7
  6
CONTINUOUS
  0
LAYER
  2
_0-5_寸法線
 70
   64
 62
    7
  6
CONTINUOUS
  0
LAYER
  2
_0-7_枠細線
 70
   64
 62
    7
  6
CONTINUOUS
  0
LAYER
  2
_0-8_枠中線
 70
   64
 62
    7
  6
CONTINUOUS
  0
LAYER
  2
_0-a_極細1
 70
   64
 62
    7
  6
CONTINUOUS
  0
LAYER
  2
_0-d_寸法1
 70
   64
 62
    7
  6
CONTINUOUS
  0
LAYER
  2
_0-e_極細4
 70
   64
 62
    7
  6
CONTINUOUS
  0
LAYER
  2
_1-1_寸法4
 70
   64
 62
    7
  6
CONTINUOUS
  0
LAYER
  2
_1-2_極細2
 70
   64
 62
    7
  6
CONTINUOUS
  0
LAYER
  2
_1-3_細線2
 70
   64
 62
    7
  6
CONTINUOUS
  0
LAYER
  2
_1-5_寸法2
 70
   64
 62
    7
  6
CONTINUOUS
  0
LAYER
  2
ADD_LINE
 70
   64
 62
    7
  6
CONTINUOUS
  0
ENDTAB
  0
ENDSEC
  0
SECTION
  2
BLOCKS
  0
ENDSEC
  0
SECTION
  2
ENTITIES
  0
LINE
  8
_0-8_枠中線
  6
CONTINUOUS
 62
    5
 10
120
 20
120
 11
120
 21
1920
  0
LINE
  8
_0-8_枠中線
  6
CONTINUOUS
 62
    5
 10
120
 20
1920
 11
2850
 21
1920
  0
LINE
  8
_0-8_枠中線
  6
CONTINUOUS
 62
    5
 10
2850
 20
1920
 11
2850
 21
120
  0
LINE
  8
_0-8_枠中線
  6
CONTINUOUS
 62
    5
 10
2850
 20
120
 11
120
 21
120
  0
LINE
  8
_0-7_枠細線
  6
CONTINUOUS
 62
    5
 10
2370
 20
360
 11
2370
 21
200
  0
TEXT
  8
_0-7_枠細線
 62
    5
 10
1875
 20
195
 40
35
 41
1
 50
0
  1
備考
  7
TATEGAKI
  0
TEXT
  8
_0-7_枠細線
 62
    5
 10
1875
 20
275
 40
35
 41
1
 50
0
  1
品番
  7
TATEGAKI
  0
TEXT
  8
_0-7_枠細線
 62
    5
 10
1875
 20
355
 40
35
 41
1
 50
0
  1
品名
  7
TATEGAKI
  0
LINE
  8
_0-7_枠細線
  6
CONTINUOUS
 62
    5
 10
2370
 20
280
 11
1850
 21
280
  0
LINE
  8
_0-7_枠細線
  6
CONTINUOUS
 62
    5
 10
1900
 20
360
 11
1900
 21
120
  0
LINE
  8
_0-8_枠中線
  6
CONTINUOUS
 62
    5
 10
2850
 20
360
 11
1850
 21
360
  0
LINE
  8
_0-8_枠中線
  6
CONTINUOUS
 62
    5
 10
1850
 20
360
 11
1850
 21
120
  0
LINE
  8
_0-7_枠細線
  6
CONTINUOUS
 62
    5
 10
2490
 20
360
 11
2490
 21
120
  0
TEXT
  8
_0-7_枠細線
 62
    5
 10
2385
 20
320
 40
30
 41
1
 50
0
  1
縮　尺
  0
LINE
  8
_0-7_枠細線
  6
CONTINUOUS
 62
    5
 10
2370
 20
310
 11
2490
 21
310
  0
LINE
  8
_0-7_枠細線
  6
CONTINUOUS
 62
    5
 10
2490
 20
200
 11
1850
 21
200
  0
LINE
  8
_0-7_枠細線
  6
CONTINUOUS
 62
    5
 10
2850
 20
180
 11
2490
 21
180
  0
LINE
  8
_0-7_枠細線
  6
CONTINUOUS
 62
    5
 10
2490
 20
240
 11
2850
 21
240
  0
LINE
  8
_0-7_枠細線
  6
CONTINUOUS
 62
    5
 10
2850
 20
280
 11
2490
 21
280
  0
TEXT
  8
_0-7_枠細線
 62
    5
 10
2505
 20
120
 40
30
 41
1
 50
0
  1
年月日
  0
TEXT
  8
_0-7_枠細線
 62
    5
 10
2505
 20
150
 40
30
 41
1
 50
0
  1
作　成
  0
TEXT
  8
_0-7_枠細線
 62
    5
 10
2512.5
 20
245
 40
30
 41
1
 50
0
  1
承 認
  0
LINE
  8
_0-7_枠細線
  6
CONTINUOUS
 62
    5
 10
2610
 20
280
 11
2610
 21
120
  0
TEXT
  8
_0-7_枠細線
 62
    5
 10
2632.5
 20
245
 40
30
 41
1
 50
0
  1
検 図
  0
LINE
  8
_0-7_枠細線
  6
CONTINUOUS
 62
    5
 10
2730
 20
280
 11
2730
 21
180
  0
TEXT
  8
_0-7_枠細線
 62
    5
 10
2752.5
 20
245
 40
30
 41
1
 50
0
  1
設 計
  0
LINE
  8
_0-7_枠細線
  6
CONTINUOUS
 62
    5
 10
2850
 20
1885
 11
1780
 21
1885
  0
TEXT
  8
_0-7_枠細線
 62
    5
 10
1790
 20
1889.9999999999991
 40
25
 41
1
 50
0
  1
記号
  0
TEXT
  8
_0-7_枠細線
 62
    5
 10
1993.75
 20
1890
 40
25
 41
1
 50
0
  1
訂　 正　 記　 事
  0
TEXT
  8
_0-7_枠細線
 62
    5
 10
2362.5
 20
1890
 40
25
 41
1
 50
0
  1
訂 正 年 月 日
  0
TEXT
  8
_0-7_枠細線
 62
    5
 10
2612.5
 20
1890
 40
25
 41
1
 50
0
  1
備　　　　　考
  0
LINE
  8
_0-7_枠細線
  6
CONTINUOUS
 62
    5
 10
2850
 20
1850
 11
1780
 21
1850
  0
LINE
  8
_0-7_枠細線
  6
CONTINUOUS
 62
    5
 10
2550
 20
1850
 11
2550
 21
1919.9999999999989
  0
LINE
  8
_0-7_枠細線
  6
CONTINUOUS
 62
    5
 10
2350
 20
1850
 11
2350
 21
1920
  0
LINE
  8
_0-7_枠細線
  6
CONTINUOUS
 62
    5
 10
1850
 20
1850
 11
1850
 21
1919.9999999999989
  0
LINE
  8
_0-7_枠細線
  6
CONTINUOUS
 62
    5
 10
1780
 20
1850
 11
1780
 21
1919.9999999999989
  0
TEXT
  8
_0-7_枠細線
 62
    5
 10
2750
 20
190
 40
40
 41
1
 50
0
  1
藤戸
  0
TEXT
  8
_0-7_枠細線
 62
    5
 10
2510
 20
190
 40
40
 41
1
 50
0
  1
大野
  0
TEXT
  8
_0-7_枠細線
 62
    5
 10
2630
 20
190
 40
40
 41
1
 50
0
  1
深川
  0
TEXT
  8
_0-7_枠細線
 62
    5
 10
2620
 20
135
 40
30
 41
0.6666666666666666
 50
0
  1
２０１５年０４月０１日
  0
TEXT
  8
_0-7_枠細線
 62
    5
 10
2509.9999999999991
 20
295
 40
50
 41
0.8
 50
0
  1
株式会社シマブン
  0
TEXT
  8
_0-7_枠細線
 62
    5
 10
1930.9999999999993
 20
140
 40
40.000000000000007
 41
0.5999999999999997
 50
0
  1
表面形状については記号表参照のこと
  0
LINE
  8
_0-7_枠細線
  6
CONTINUOUS
 62
    5
 10
1830
 20
1852.8846679434937
 11
1815
 21
1882.8846679434937
  0
LINE
  8
_0-7_枠細線
  6
CONTINUOUS
 62
    5
 10
1800
 20
1852.8846679434937
 11
1830
 21
1852.8846679434937
  0
LINE
  8
_0-7_枠細線
  6
CONTINUOUS
 62
    5
 10
1815
 20
1882.8846679434937
 11
1800
 21
1852.8846679434937
  0
TEXT
  8
_0-7_枠細線
 62
    5
 10
1804.7303025362964
 20
1852.2706634527333
 40
25
 41
0.8
 50
0
  1
１
  0
TEXT
  8
_0-7_枠細線
 62
    5
 10
1877.7007407407405
 20
1855
 40
25
 41
1
 50
0
  1
排水穴位置変更
  0
TEXT
  8
_0-7_枠細線
 62
    5
 10
2360
 20
1855
 40
25
 41
0.7199999999999999
 50
0
  1
２０２２．０２．１５
  0
TEXT
  8
_0-7_枠細線
 62
    5
 10
2374
 20
235
 40
40
 41
0.6999999999999998
 50
0
  1
１：１０
  0
TEXT
  8
_0-7_枠細線
 62
    5
 10
1921.0000000000002
 20
299.06069690229828
 40
40
 41
0.6
 50
0
  1
排水ユニット ＳＵＳグレーチング 浅型
  0
ARC
  8
_0-1_計細線
  6
CONTINUOUS
 62
    3
 10
2406.2835423622464
 20
1493.7817672851847
 40
0.501740082747087
 50
330.00000000003996
 51
20.189990999990084
  0
ARC
  8
_0-1_計細線
  6
CONTINUOUS
 62
    3
 10
2406.2835423622464
 20
1465.3821575091756
 40
0.501740082747087
 50
339.81000900000919
 51
29.999999999959307
  0
LINE
  8
_0-1_計細線
  6
CONTINUOUS
 62
    3
 10
2368.9723488360451
 20
1481.8398018008995
 11
2367.6687807406297
 21
1484.0976412046186
  0
LINE
  8
_0-1_計細線
  6
CONTINUOUS
 62
    3
 10
2368.9723488360451
 20
1481.8398018008995
 11
2348.8324574802982
 21
1516.7231135222059
  0
LINE
  8
_0-1_計細線
  6
CONTINUOUS
 62
    3
 10
2368.9723488360451
 20
1481.8398018008995
 11
2371.5794790059717
 21
1481.8398018008995
  0
LINE
  8
_0-1_計細線
  6
CONTINUOUS
 62
    3
 10
2365.0616565916089
 20
1479.5819623971793
 11
2344.9217652358584
 21
1514.4652741184882
  0
ARC
  8
_0-1_計細線
  6
CONTINUOUS
 62
    3
 10
2336.0640083770541
 20
1453.2405026871195
 40
0.501740082747087
 50
219.81000899998574
 51
269.99999999999977
  0
LINE
  8
_0-1_計細線
  6
CONTINUOUS
 62
    3
 10
2368.9723488360451
 20
1477.3241229934602
 11
2348.8324574802982
 21
1442.440811272153
  0
LINE
  8
_0-1_計細線
  6
CONTINUOUS
 62
    3
 10
2365.0616565916089
 20
1479.5819623971793
 11
2344.9217652358584
 21
1444.6986506758722
  0
ARC
  8
_0-1_計細線
  6
CONTINUOUS
 62
    3
 10
2367.6687807406297
 20
1479.5819623971793
 40
46.4111412917104
 50
89.999999999999915
 51
269.99999999999977
  0
ARC
  8
_0-1_計細線
  6
CONTINUOUS
 62
    3
 10
2367.6687807406297
 20
1479.5819623971793
 40
57.198598227560836
 50
89.999999999999915
 51
269.99999999999977
  0
CIRCLE
  8
_0-1_計細線
  6
CONTINUOUS
 62
    3
 10
2367.6687807406297
 20
1479.5819623971793
 40
58.202084413960065
  0
LINE
  8
_0-1_計細線
  6
CONTINUOUS
 62
    3
 10
2368.9723488360451
 20
1481.8398018008995
 11
2409.2521255266356
 21
1481.8398018008995
  0
LINE
  8
_0-1_計細線
  6
CONTINUOUS
 62
    3
 10
2368.9723488360451
 20
1477.3241229934602
 11
2409.2521255266356
 21
1477.3241229934602
  0
ARC
  8
_0-1_計細線
  6
CONTINUOUS
 62
    3
 10
2367.6687807406297
 20
1479.5819623971793
 40
46.4111412917104
 50
269.99999999999977
 51
89.999999999999545
  0
ARC
  8
_0-1_計細線
  6
CONTINUOUS
 62
    3
 10
2367.6687807406297
 20
1479.5819623971793
 40
57.198598227560836
 50
269.99999999999977
 51
89.999999999999545
  0
ARC
  8
_0-1_計細線
  6
CONTINUOUS
 62
    3
 10
2367.6687807406297
 20
1479.5819623971793
 40
41.644595453350377
 50
89.999999999999915
 51
116.89207624474167
  0
ARC
  8
_0-1_計細線
  6
CONTINUOUS
 62
    3
 10
2367.6687807406297
 20
1479.5819623971793
 40
41.644595453350377
 50
123.10791868694014
 51
236.89208131305782
  0
ARC
  8
_0-1_計細線
  6
CONTINUOUS
 62
    3
 10
2367.6687807406297
 20
1479.5819623971793
 40
41.644595453350377
 50
243.10792375525659
 51
269.99999999999977
  0
ARC
  8
_0-1_計細線
  6
CONTINUOUS
 62
    3
 10
2367.6687807406297
 20
1479.5819623971793
 40
41.644595453350377
 50
269.99999999999977
 51
356.8920785890931
  0
ARC
  8
_0-1_計細線
  6
CONTINUOUS
 62
    3
 10
2367.6687807406297
 20
1479.5819623971793
 40
41.644595453350377
 50
3.1079214109077964
 51
89.999999999999915
  0
ARC
  8
_0-0_計極細
  6
CONTINUOUS
 62
    2
 10
2367.6687807406297
 20
1479.5819623971793
 40
50.153133796808191
 50
269.99999999999977
 51
89.999999999999545
  0
ARC
  8
_0-0_計極細
  6
CONTINUOUS
 62
    2
 10
2367.6687807406297
 20
1479.5819623971793
 40
50.153133796808191
 50
89.999999999999915
 51
269.99999999999977
  0
ARC
  8
_0-0_計極細
  6
CONTINUOUS
 62
    2
 10
2354.0537796961225
 20
1450.480920167588
 40
0.501740082747087
 50
149.99997568607938
 51
210.00002243784951
  0
ARC
  8
_0-0_計極細
  6
CONTINUOUS
 62
    2
 10
2367.9584645465784
 20
1473.5610573205931
 40
1.0034861863992508
 50
29.999999999951111
 51
149.99999999997101
  0
ARC
  8
_0-0_計極細
  6
CONTINUOUS
 62
    2
 10
2367.9584645465784
 20
1473.5610573205931
 40
1.0034861863992508
 50
29.999999999951111
 51
106.77865499997519
  0
ARC
  8
_0-0_計極細
  6
CONTINUOUS
 62
    2
 10
2362.3096875291576
 20
1476.8223829107128
 40
1.0034861863992508
 50
329.99999999995163
 51
89.999999999999545
  0
ARC
  8
_0-0_計極細
  6
CONTINUOUS
 62
    2
 10
2327.1735644405917
 20
1486.8607231962724
 40
0.501740082747087
 50
89.993779916795503
 51
169.8086801233749
  0
ARC
  8
_0-0_計極細
  6
CONTINUOUS
 62
    2
 10
2327.1719987351589
 20
1472.3101998635182
 40
0.501740082747087
 50
190.17882981053808
 51
269.99383436904543
  0
ARC
  8
_0-0_計極細
  6
CONTINUOUS
 62
    2
 10
2327.1202664445527
 20
1482.3450487938135
 40
1.0034861863992508
 50
176.10042624738318
 51
269.99385985774035
  0
ARC
  8
_0-0_計極細
  6
CONTINUOUS
 62
    2
 10
2367.6687807406297
 20
1479.5819623971793
 40
37.630656728658437
 50
317.45760300000074
 51
327.38710799999916
  0
ARC
  8
_0-0_計極細
  6
CONTINUOUS
 62
    2
 10
2367.6687807406297
 20
1479.5819623971793
 40
37.630656728658437
 50
32.612892000001082
 51
42.54239699999939
  0
LINE
  8
_0-0_計極細
  6
CONTINUOUS
 62
    2
 10
2402.8429985116172
 20
1460.3030243419539
 11
2393.8849092906166
 21
1475.8188967243154
  0
LINE
  8
_0-0_計極細
  6
CONTINUOUS
 62
    2
 10
2401.4361718941382
 20
1455.7153294888931
 11
2389.1051716492329
 21
1477.0732499416338
  0
LINE
  8
_0-0_計極細
  6
CONTINUOUS
 62
    2
 10
2396.8142361539067
 20
1451.6789448300756
 11
2382.8770330408179
 21
1475.8188967243154
  0
LINE
  8
_0-0_計極細
  6
CONTINUOUS
 62
    2
 10
2402.8429985116172
 20
1498.860900452406
 11
2393.8849092906166
 21
1483.3450280700456
  0
LINE
  8
_0-0_計極細
  6
CONTINUOUS
 62
    2
 10
2401.4361718941382
 20
1503.4485953054664
 11
2389.1051716492329
 21
1482.0906748527254
  0
LINE
  8
_0-0_計極細
  6
CONTINUOUS
 62
    2
 10
2396.8142361539067
 20
1507.4849739433798
 11
2382.8770330408179
 21
1483.3450280700456
  0
LINE
  8
_0-0_計極細
  6
CONTINUOUS
 62
    2
 10
2365.6618143887363
 20
1452.5623260020079
 11
2365.6618143887363
 21
1460.4797379059519
  0
LINE
  8
_0-0_計極細
  6
CONTINUOUS
 62
    2
 10
2366.1635544714836
 20
1452.5297348428282
 11
2366.1635544714836
 21
1459.610698529913
  0
ARC
  8
_0-0_計極細
  6
CONTINUOUS
 62
    2
 10
2367.6687807406297
 20
1479.5819623971793
 40
37.630656728658437
 50
213.59599499999973
 51
225.50677599999941
  0
LINE
  8
_0-0_計極細
  6
CONTINUOUS
 62
    2
 10
2394.6511176288523
 20
1448.4011942109098
 11
2378.0972953994342
 21
1477.0732499416338
  0
LINE
  8
_0-0_計極細
  6
CONTINUOUS
 62
    2
 10
2389.4632649786636
 20
1445.3450068776538
 11
2371.8691567910182
 21
1475.8188967243154
  0
LINE
  8
_0-0_計極細
  6
CONTINUOUS
 62
    2
 10
2371.4541960131401
 20
1438.40522739371
 11
2359.1231957682348
 21
1459.7631478464509
  0
LINE
  8
_0-0_計極細
  6
CONTINUOUS
 62
    2
 10
2377.2607749317131
 20
1440.3897478114777
 11
2363.3235718186233
 21
1464.5296997057167
  0
LINE
  8
_0-0_計極細
  6
CONTINUOUS
 62
    2
 10
2381.1809561225537
 20
1440.6241898133519
 11
2364.6271338931356
 21
1469.296251564982
  0
LINE
  8
_0-0_計極細
  6
CONTINUOUS
 62
    2
 10
2386.4216121102645
 20
1443.5889135775869
 11
2368.8275099435241
 21
1474.0627974033418
  0
LINE
  8
_0-0_計極細
  6
CONTINUOUS
 62
    2
 10
2336.0640083770541
 20
1452.7387626043724
 11
2349.2740427004255
 21
1452.7387626043724
  0
ARC
  8
_0-0_計極細
  6
CONTINUOUS
 62
    2
 10
2345.7978731544581
 20
1448.2230837969328
 40
1.0034861863992508
 50
329.99999999997061
 51
89.999999999999545
  0
ARC
  8
_0-0_計極細
  6
CONTINUOUS
 62
    2
 10
2367.6687807406297
 20
1479.5819623971793
 40
37.630656728658437
 50
233.77152299999938
 51
236.31964599999873
  0
ARC
  8
_0-0_計極細
  6
CONTINUOUS
 62
    2
 10
2341.8168928641562
 20
1448.2230837969328
 40
1.0034861863992508
 50
89.999999999999915
 51
230.49822999997428
  0
LINE
  8
_0-0_計極細
  6
CONTINUOUS
 62
    2
 10
2341.8168928641562
 20
1449.226563962427
 11
2345.7978731544581
 21
1449.226563962427
  0
ARC
  8
_0-0_計極細
  6
CONTINUOUS
 62
    2
 10
2367.6687807406297
 20
1479.5819623971793
 40
37.630656728658437
 50
272.61289199999942
 51
282.54239699999982
  0
ARC
  8
_0-0_計極細
  6
CONTINUOUS
 62
    2
 10
2371.8887187116115
 20
1438.6561004455357
 40
0.501740082747087
 50
210.00000000000426
 51
275.88706199997517
  0
LINE
  8
_0-0_計極細
  6
CONTINUOUS
 62
    2
 10
2366.777722914725
 20
1439.4807236048266
 11
2357.8196336937244
 21
1454.9966020080919
  0
LINE
  8
_0-0_計極細
  6
CONTINUOUS
 62
    2
 10
2360.2242748050203
 20
1438.7898247472895
 11
2353.6192576433359
 21
1450.2300501488273
  0
ARC
  8
_0-0_計極細
  6
CONTINUOUS
 62
    2
 10
2367.6687807406297
 20
1479.5819623971793
 40
37.630656728658437
 50
254.49322399999932
 51
266.40400499999907
  0
ARC
  8
_0-0_計極細
  6
CONTINUOUS
 62
    2
 10
2349.2740427004255
 20
1453.2405026871195
 40
0.501740082747087
 50
269.99999999999977
 51
329.99999999989114
  0
ARC
  8
_0-0_計極細
  6
CONTINUOUS
 62
    2
 10
2353.4371433274837
 20
1441.514127750911
 40
1.0034861863992508
 50
249.50177000005806
 51
29.999999999976708
  0
LINE
  8
_0-0_計極細
  6
CONTINUOUS
 62
    2
 10
2354.3061827035244
 20
1442.0158678336586
 11
2352.3156955688255
 21
1445.46349828956
  0
ARC
  8
_0-0_計極細
  6
CONTINUOUS
 62
    2
 10
2356.9505882967796
 20
1454.4948559044406
 40
1.0034861863992508
 50
29.999999999977071
 51
149.99999999999699
  0
ARC
  8
_0-0_計極細
  6
CONTINUOUS
 62
    2
 10
2367.6687807406297
 20
1479.5819623971793
 40
27.094072844634091
 50
244.78019200000111
 51
249.77896100000117
  0
ARC
  8
_0-0_計極細
  6
CONTINUOUS
 62
    2
 10
2367.6687807406297
 20
1479.5819623971793
 40
37.630656728658437
 50
243.68035399999945
 51
246.22847699999838
  0
ARC
  8
_0-0_計極細
  6
CONTINUOUS
 62
    2
 10
2351.4466501718807
 20
1444.9617582068149
 40
1.0034861863992508
 50
29.999999999977071
 51
150.00000000002294
  0
ARC
  8
_0-0_計極細
  6
CONTINUOUS
 62
    2
 10
2365.908683538687
 20
1438.9789835220811
 40
1.0034861863992508
 50
267.5178359999677
 51
30.000000000002665
  0
ARC
  8
_0-0_計極細
  6
CONTINUOUS
 62
    2
 10
2360.6587975034918
 20
1439.0406977991152
 40
0.501740082747087
 50
210.00000000010814
 51
260.18999100005101
  0
ARC
  8
_0-0_計極細
  6
CONTINUOUS
 62
    2
 10
2367.6687807406297
 20
1479.5819623971793
 40
27.094072844634091
 50
260.29098299999907
 51
275.37568199999987
  0
ARC
  8
_0-0_計極細
  6
CONTINUOUS
 62
    2
 10
2367.6687807406297
 20
1479.5819623971793
 40
37.630656728658437
 50
288.07291800000053
 51
297.3252259999997
  0
ARC
  8
_0-0_計極細
  6
CONTINUOUS
 62
    2
 10
2367.6687807406297
 20
1479.5819623971793
 40
27.094072844634091
 50
283.31934900000118
 51
296.2837799999993
  0
ARC
  8
_0-0_計極細
  6
CONTINUOUS
 62
    2
 10
2381.6154728001193
 20
1440.8750628651778
 40
0.501740082747087
 50
210.00000000010814
 51
289.81487200010849
  0
ARC
  8
_0-0_計極細
  6
CONTINUOUS
 62
    2
 10
2376.3917295347692
 20
1439.8880077287313
 40
1.0034861863992508
 50
282.39403400005705
 51
30.000000000002665
  0
ARC
  8
_0-0_計極細
  6
CONTINUOUS
 62
    2
 10
2367.6687807406297
 20
1479.5819623971793
 40
37.630656728658437
 50
302.67477399999865
 51
311.92708199999919
  0
ARC
  8
_0-0_計極細
  6
CONTINUOUS
 62
    2
 10
2390.3323043547016
 20
1445.8467529813065
 40
1.0034861863992508
 50
210.00000000002515
 51
303.89345000001418
  0
ARC
  8
_0-0_計極細
  6
CONTINUOUS
 62
    2
 10
2394.2165949303799
 20
1448.1503211590839
 40
0.501740082747087
 50
310.18512800003361
 51
29.999999999907399
  0
ARC
  8
_0-0_計極細
  6
CONTINUOUS
 62
    2
 10
2385.5525727342256
 20
1443.0871674739342
 40
1.0034861863992508
 50
296.10655000002453
 51
29.999999999999204
  0
LINE
  8
_0-0_計極細
  6
CONTINUOUS
 62
    2
 10
2333.3856207955469
 20
1458.7596676809583
 11
2351.301811279357
 21
1458.7596676809583
  0
ARC
  8
_0-0_計極細
  6
CONTINUOUS
 62
    2
 10
2345.7978731544581
 20
1510.9408409974276
 40
1.0034861863992508
 50
269.99999999999977
 51
30.000000000051159
  0
LINE
  8
_0-0_計極細
  6
CONTINUOUS
 62
    2
 10
2336.0640083770541
 20
1506.425162189988
 11
2349.2740427004255
 21
1506.425162189988
  0
LINE
  8
_0-0_計極細
  6
CONTINUOUS
 62
    2
 10
2333.3856207955469
 20
1500.4042571134014
 11
2351.301811279357
 21
1500.4042571134014
  0
LINE
  8
_0-0_計極細
  6
CONTINUOUS
 62
    2
 10
2330.1159803355176
 20
1496.8920644923628
 11
2354.7779808253244
 21
1496.8920644923628
  0
LINE
  8
_0-0_計極細
  6
CONTINUOUS
 62
    2
 10
2328.9313371571734
 20
1490.8711594157776
 11
2356.8057494042578
 21
1490.8711594157776
  0
LINE
  8
_0-0_計極細
  6
CONTINUOUS
 62
    2
 10
2327.1742805122931
 20
1487.3589667947372
 11
2360.2819189502234
 21
1487.3589667947372
  0
LINE
  8
_0-0_計極細
  6
CONTINUOUS
 62
    2
 10
2327.121471153866
 20
1481.3380617181519
 11
2362.3096875291576
 21
1481.3380617181519
  0
LINE
  8
_0-0_計極細
  6
CONTINUOUS
 62
    2
 10
2330.1159803355176
 20
1462.2718603019975
 11
2354.7779808253244
 21
1462.2718603019975
  0
LINE
  8
_0-0_計極細
  6
CONTINUOUS
 62
    2
 10
2328.9313371571734
 20
1468.2927653785832
 11
2356.8057494042578
 21
1468.2927653785832
  0
LINE
  8
_0-0_計極細
  6
CONTINUOUS
 62
    2
 10
2327.1742805122931
 20
1471.8049579996232
 11
2360.2819189502234
 21
1471.8049579996232
  0
LINE
  8
_0-0_計極細
  6
CONTINUOUS
 62
    2
 10
2327.121471153866
 20
1477.825863076207
 11
2362.3096875291576
 21
1477.825863076207
  0
ARC
  8
_0-0_計極細
  6
CONTINUOUS
 62
    2
 10
2367.6687807406297
 20
1479.5819623971793
 40
27.094072844634091
 50
140.2909829999995
 51
155.37568200000004
  0
ARC
  8
_0-0_計極細
  6
CONTINUOUS
 62
    2
 10
2367.6687807406297
 20
1479.5819623971793
 40
37.630656728658437
 50
152.61289200000007
 51
162.54239699999968
  0
ARC
  8
_0-0_計極細
  6
CONTINUOUS
 62
    2
 10
2328.9313371571734
 20
1491.8746456021781
 40
1.0034861863992508
 50
162.39403400002107
 51
269.99999999999977
  0
ARC
  8
_0-0_計極細
  6
CONTINUOUS
 62
    2
 10
2333.3856207955469
 20
1457.7561814945577
 40
1.0034861863992508
 50
89.999999999999915
 51
212.4821639999854
  0
ARC
  8
_0-0_計極細
  6
CONTINUOUS
 62
    2
 10
2367.6687807406297
 20
1479.5819623971793
 40
37.630656728658437
 50
168.07291799999925
 51
177.32522600000016
  0
ARC
  8
_0-0_計極細
  6
CONTINUOUS
 62
    2
 10
2367.6687807406297
 20
1479.5819623971793
 40
37.630656728658437
 50
182.67477399999882
 51
191.9270819999997
  0
ARC
  8
_0-0_計極細
  6
CONTINUOUS
 62
    2
 10
2367.6687807406297
 20
1479.5819623971793
 40
37.630656728658437
 50
197.4576029999993
 51
207.38710799999896
  0
ARC
  8
_0-0_計極細
  6
CONTINUOUS
 62
    2
 10
2327.121471153866
 20
1476.8223829107137
 40
1.0034861863992508
 50
89.999999999999915
 51
183.89344999999844
  0
ARC
  8
_0-0_計極細
  6
CONTINUOUS
 62
    2
 10
2328.9313371571734
 20
1467.2892791921843
 40
1.0034861863992508
 50
89.999999999999915
 51
197.60596600000332
  0
ARC
  8
_0-0_計極細
  6
CONTINUOUS
 62
    2
 10
2330.1159803355176
 20
1462.7736003847438
 40
0.501740082747087
 50
204.11293800002809
 51
269.99999999999977
  0
ARC
  8
_0-0_計極細
  6
CONTINUOUS
 62
    2
 10
2367.6687807406297
 20
1479.5819623971793
 40
27.094072844634091
 50
163.31934899999951
 51
176.28377999999955
  0
ARC
  8
_0-0_計極細
  6
CONTINUOUS
 62
    2
 10
2367.6687807406297
 20
1479.5819623971793
 40
27.094072844634091
 50
183.71621999999911
 51
196.68065099999922
  0
ARC
  8
_0-0_計極細
  6
CONTINUOUS
 62
    2
 10
2367.6687807406297
 20
1479.5819623971793
 40
27.094072844634091
 50
204.62431799999874
 51
219.70901699999865
  0
ARC
  8
_0-0_計極細
  6
CONTINUOUS
 62
    2
 10
2330.1159803355176
 20
1496.3903244096171
 40
0.501740082747087
 50
89.999999999999915
 51
155.88706199997156
  0
ARC
  8
_0-0_計極細
  6
CONTINUOUS
 62
    2
 10
2333.3856207955469
 20
1501.4077432998024
 40
1.0034861863992508
 50
147.5178360000142
 51
269.99999999999977
  0
ARC
  8
_0-0_計極細
  6
CONTINUOUS
 62
    2
 10
2367.6687807406297
 20
1479.5819623971793
 40
37.630656728658437
 50
123.68035400000058
 51
126.22847700000025
  0
ARC
  8
_0-0_計極細
  6
CONTINUOUS
 62
    2
 10
2367.6687807406297
 20
1479.5819623971793
 40
37.630656728658437
 50
134.49322399999971
 51
146.40400499999933
  0
ARC
  8
_0-0_計極細
  6
CONTINUOUS
 62
    2
 10
2336.0640083770541
 20
1505.9234221072415
 40
0.501740082747087
 50
89.999999999999915
 51
140.18999100005377
  0
ARC
  8
_0-0_計極細
  6
CONTINUOUS
 62
    2
 10
2341.8168928641562
 20
1510.9408409974276
 40
1.0034861863992508
 50
129.50177000002535
 51
269.99999999999977
  0
LINE
  8
_0-0_計極細
  6
CONTINUOUS
 62
    2
 10
2341.8168928641562
 20
1509.9373608319333
 11
2345.7978731544581
 21
1509.9373608319333
  0
ARC
  8
_0-0_計極細
  6
CONTINUOUS
 62
    2
 10
2367.6687807406297
 20
1479.5819623971793
 40
37.630656728658437
 50
77.457603000000148
 51
87.387108000000282
  0
ARC
  8
_0-0_計極細
  6
CONTINUOUS
 62
    2
 10
2367.6687807406297
 20
1479.5819623971793
 40
37.630656728658437
 50
77.457603000000148
 51
87.387108000000282
  0
ARC
  8
_0-0_計極細
  6
CONTINUOUS
 62
    2
 10
2372.738202187963
 20
1476.3206368070619
 40
1.0034861863992508
 50
89.999999999999915
 51
209.9999999999992
  0
ARC
  8
_0-0_計極細
  6
CONTINUOUS
 62
    2
 10
2372.738202187963
 20
1482.8432879873001
 40
1.0034861863992508
 50
150.00000000000043
 51
269.99999999999977
  0
ARC
  8
_0-0_計極細
  6
CONTINUOUS
 62
    2
 10
2371.8887187116115
 20
1520.5078243488219
 40
0.501740082747087
 50
84.112938000024442
 51
150.00000000004033
  0
LINE
  8
_0-0_計極細
  6
CONTINUOUS
 62
    2
 10
2377.2607749317131
 20
1518.7741709619754
 11
2363.3235718186233
 21
1494.6342250886437
  0
LINE
  8
_0-0_計極細
  6
CONTINUOUS
 62
    2
 10
2381.1809561225537
 20
1518.5397289601042
 11
2364.6271338931356
 21
1489.8676732293784
  0
LINE
  8
_0-0_計極細
  6
CONTINUOUS
 62
    2
 10
2386.4216121102645
 20
1515.5750112167734
 11
2368.8275099435241
 21
1485.1011273910185
  0
LINE
  8
_0-0_計極細
  6
CONTINUOUS
 62
    2
 10
2365.6618143887363
 20
1487.5738107505849
 11
2365.6618143887363
 21
1491.6597956254236
  0
LINE
  8
_0-0_計極細
  6
CONTINUOUS
 62
    2
 10
2366.1635544714836
 20
1486.704771374546
 11
2366.1635544714836
 21
1492.5288410223666
  0
ARC
  8
_0-0_計極細
  6
CONTINUOUS
 62
    2
 10
2356.8057494042578
 20
1491.8746456021781
 40
1.0034861863992508
 50
269.99999999999977
 51
29.999999999999204
  0
LINE
  8
_0-0_計極細
  6
CONTINUOUS
 62
    2
 10
2369.1740070097767
 20
1485.7012851881482
 11
2369.1740070097767
 21
1497.7430953413179
  0
LINE
  8
_0-0_計極細
  6
CONTINUOUS
 62
    2
 10
2369.6757531134281
 20
1486.5703305850909
 11
2369.6757531134281
 21
1498.612140738263
  0
ARC
  8
_0-0_計極細
  6
CONTINUOUS
 62
    2
 10
2356.8057494042578
 20
1467.2892791921843
 40
1.0034861863992508
 50
329.9999999999776
 51
89.999999999999545
  0
ARC
  8
_0-0_計極細
  6
CONTINUOUS
 62
    2
 10
2354.7779808253244
 20
1462.7736003847438
 40
0.501740082747087
 50
269.99999999999977
 51
329.999999999995
  0
ARC
  8
_0-0_計極細
  6
CONTINUOUS
 62
    2
 10
2367.6687807406297
 20
1479.5819623971793
 40
27.094072844634091
 50
230.22103899999877
 51
235.21980799999864
  0
ARC
  8
_0-0_計極細
  6
CONTINUOUS
 62
    2
 10
2351.301811279357
 20
1457.7561814945577
 40
1.0034861863992508
 50
330.00000000000011
 51
89.999999999999545
  0
ARC
  8
_0-0_計極細
  6
CONTINUOUS
 62
    2
 10
2359.5577184667072
 20
1460.014020898278
 40
0.501740082747087
 50
149.9999999999884
 51
210.00000000005619
  0
LINE
  8
_0-0_計極細
  6
CONTINUOUS
 62
    2
 10
2365.6618143887363
 20
1467.5041291689367
 11
2365.6618143887363
 21
1471.5901140437754
  0
LINE
  8
_0-0_計極細
  6
CONTINUOUS
 62
    2
 10
2366.1635544714836
 20
1466.635083771992
 11
2366.1635544714836
 21
1472.4591534198139
  0
ARC
  8
_0-0_計極細
  6
CONTINUOUS
 62
    2
 10
2360.2819189502234
 20
1472.3067041032746
 40
0.501740082747087
 50
269.99999999999977
 51
330.00000000003996
  0
ARC
  8
_0-0_計極細
  6
CONTINUOUS
 62
    2
 10
2365.0616565916089
 20
1469.5471185959022
 40
0.501740082747087
 50
150.00000000009922
 51
209.99999999985545
  0
ARC
  8
_0-0_計極細
  6
CONTINUOUS
 62
    2
 10
2362.4545264216786
 20
1464.0279596229695
 40
1.0034861863992508
 50
29.999999999999559
 51
150.00000000000043
  0
ARC
  8
_0-0_計極細
  6
CONTINUOUS
 62
    2
 10
2365.0616565916089
 20
1489.6168061984574
 40
0.501740082747087
 50
150.00000000009922
 51
209.99999999985545
  0
ARC
  8
_0-0_計極細
  6
CONTINUOUS
 62
    2
 10
2367.9584645465784
 20
1485.6028674737659
 40
1.0034861863992508
 50
210.00000000005113
 51
330.00000000002603
  0
ARC
  8
_0-0_計極細
  6
CONTINUOUS
 62
    2
 10
2360.2819189502234
 20
1486.8572206910844
 40
0.501740082747087
 50
29.99999999995967
 51
89.999999999999901
  0
ARC
  8
_0-0_計極細
  6
CONTINUOUS
 62
    2
 10
2362.3096875291576
 20
1482.3415418836466
 40
1.0034861863992508
 50
269.99999999999977
 51
30.000000000002665
  0
LINE
  8
_0-0_計極細
  6
CONTINUOUS
 62
    2
 10
2369.1740070097767
 20
1461.4208294530417
 11
2369.1740070097767
 21
1473.4626396062138
  0
LINE
  8
_0-0_計極細
  6
CONTINUOUS
 62
    2
 10
2369.6757531134281
 20
1460.551784056099
 11
2369.6757531134281
 21
1472.5935942092688
  0
ARC
  8
_0-0_計極細
  6
CONTINUOUS
 62
    2
 10
2367.9584645465784
 20
1485.6028674737659
 40
1.0034861863992508
 50
253.22134500003193
 51
330.00000000002603
  0
LINE
  8
_0-0_計極細
  6
CONTINUOUS
 62
    2
 10
2366.777722914725
 20
1519.6831951686293
 11
2357.8196336937244
 21
1504.167322786268
  0
ARC
  8
_0-0_計極細
  6
CONTINUOUS
 62
    2
 10
2367.6687807406297
 20
1479.5819623971793
 40
37.630656728658437
 50
93.595995000000485
 51
105.50677600000017
  0
LINE
  8
_0-0_計極細
  6
CONTINUOUS
 62
    2
 10
2360.2242748050203
 20
1520.3741000470732
 11
2353.6192576433359
 21
1508.9338746455328
  0
LINE
  8
_0-0_計極細
  6
CONTINUOUS
 62
    2
 10
2371.4541960131401
 20
1520.7586974006492
 11
2359.1231957682348
 21
1499.4007769479076
  0
ARC
  8
_0-0_計極細
  6
CONTINUOUS
 62
    2
 10
2359.5577184667072
 20
1499.1499038960824
 40
0.501740082747087
 50
149.9999999999884
 51
210.00000000001123
  0
ARC
  8
_0-0_計極細
  6
CONTINUOUS
 62
    2
 10
2367.6687807406297
 20
1479.5819623971793
 40
27.094072844634091
 50
110.2210389999981
 51
115.21980799999808
  0
ARC
  8
_0-0_計極細
  6
CONTINUOUS
 62
    2
 10
2356.9505882967796
 20
1504.6690688899212
 40
1.0034861863992508
 50
210.00000000000267
 51
330.00000000002257
  0
ARC
  8
_0-0_計極細
  6
CONTINUOUS
 62
    2
 10
2354.0537803418074
 20
1508.6830015937066
 40
0.501740082747087
 50
149.99999999999537
 51
209.9999999999593
  0
ARC
  8
_0-0_計極細
  6
CONTINUOUS
 62
    2
 10
2367.6687807406297
 20
1479.5819623971793
 40
37.630656728658437
 50
113.77152300000098
 51
116.31964599999986
  0
ARC
  8
_0-0_計極細
  6
CONTINUOUS
 62
    2
 10
2353.4371433274837
 20
1517.6497970434493
 40
1.0034861863992508
 50
330.00000000002257
 51
110.49822999994124
  0
ARC
  8
_0-0_計極細
  6
CONTINUOUS
 62
    2
 10
2351.4466501718807
 20
1514.2021665875448
 40
1.0034861863992508
 50
209.9999999999992
 51
330.00000000000011
  0
LINE
  8
_0-0_計極細
  6
CONTINUOUS
 62
    2
 10
2354.3061827035244
 20
1517.1480569607022
 11
2352.3156955688255
 21
1513.7004265047999
  0
ARC
  8
_0-0_計極細
  6
CONTINUOUS
 62
    2
 10
2367.6687807406297
 20
1479.5819623971793
 40
27.094072844634091
 50
124.78019199999984
 51
129.77896100000024
  0
ARC
  8
_0-0_計極細
  6
CONTINUOUS
 62
    2
 10
2349.2740427004255
 20
1505.9234221072415
 40
0.501740082747087
 50
30.000000000063526
 51
89.999999999999915
  0
ARC
  8
_0-0_計極細
  6
CONTINUOUS
 62
    2
 10
2351.301811279357
 20
1501.4077432998024
 40
1.0034861863992508
 50
269.99999999999977
 51
29.999999999999204
  0
ARC
  8
_0-0_計極細
  6
CONTINUOUS
 62
    2
 10
2354.7779808253244
 20
1496.3903244096171
 40
0.501740082747087
 50
29.99999999995967
 51
89.999999999999901
  0
LINE
  8
_0-0_計極細
  6
CONTINUOUS
 62
    2
 10
2366.1635544714836
 20
1499.5532262644474
 11
2366.1635544714836
 21
1506.6341899515326
  0
LINE
  8
_0-0_計極細
  6
CONTINUOUS
 62
    2
 10
2365.6618143887363
 20
1498.6841868884089
 11
2365.6618143887363
 21
1506.6015987923524
  0
ARC
  8
_0-0_計極細
  6
CONTINUOUS
 62
    2
 10
2365.908683538687
 20
1520.1849412722827
 40
1.0034861863992508
 50
329.99999999997414
 51
92.482164000031602
  0
ARC
  8
_0-0_計極細
  6
CONTINUOUS
 62
    2
 10
2367.6687807406297
 20
1479.5819623971793
 40
27.094072844634091
 50
84.624317999999832
 51
99.709017000000401
  0
ARC
  8
_0-0_計極細
  6
CONTINUOUS
 62
    2
 10
2360.6587975034918
 20
1520.1232269952479
 40
0.501740082747087
 50
99.810008999948636
 51
149.99999999993648
  0
ARC
  8
_0-0_計極細
  6
CONTINUOUS
 62
    2
 10
2362.4545264216786
 20
1495.1359651713897
 40
1.0034861863992508
 50
209.9999999999992
 51
330.00000000000011
  0
ARC
  8
_0-0_計極細
  6
CONTINUOUS
 62
    2
 10
2367.6687807406297
 20
1479.5819623971793
 40
27.094072844634091
 50
84.624317999999832
 51
89.999999999999915
  0
ARC
  8
_0-0_計極細
  6
CONTINUOUS
 62
    2
 10
2367.6687807406297
 20
1479.5819623971793
 40
27.094072844634091
 50
20.290983000001571
 51
35.37568200000068
  0
LINE
  8
_0-0_計極細
  6
CONTINUOUS
 62
    2
 10
2394.6511176288523
 20
1510.7627305834521
 11
2378.0972953994342
 21
1482.0906748527254
  0
LINE
  8
_0-0_計極細
  6
CONTINUOUS
 62
    2
 10
2389.4632649786636
 20
1513.8189179167061
 11
2371.8691567910182
 21
1483.3450280700456
  0
ARC
  8
_0-0_計極細
  6
CONTINUOUS
 62
    2
 10
2367.6687807406297
 20
1479.5819623971793
 40
27.094072844634091
 50
303.71622000000156
 51
316.68065099999922
  0
ARC
  8
_0-0_計極細
  6
CONTINUOUS
 62
    2
 10
2383.746072416855
 20
1476.3206368070619
 40
1.0034861863992508
 50
89.999999999999915
 51
210.00000000002515
  0
ARC
  8
_0-0_計極細
  6
CONTINUOUS
 62
    2
 10
2377.6627727009627
 20
1476.8223829107137
 40
0.501740082747087
 50
30.0000000001085
 51
89.999999999999915
  0
ARC
  8
_0-0_計極細
  6
CONTINUOUS
 62
    2
 10
2383.746072416855
 20
1482.8432879873001
 40
1.0034861863992508
 50
149.99999999997448
 51
269.99999999999977
  0
ARC
  8
_0-0_計極細
  6
CONTINUOUS
 62
    2
 10
2377.6627727009627
 20
1482.3415418836466
 40
0.501740082747087
 50
269.99999999999977
 51
329.99999999989114
  0
ARC
  8
_0-0_計極細
  6
CONTINUOUS
 62
    2
 10
2367.6687807406297
 20
1479.5819623971793
 40
27.094072844634091
 50
324.62431799999973
 51
339.7090169999999
  0
ARC
  8
_0-0_計極細
  6
CONTINUOUS
 62
    2
 10
2367.6687807406297
 20
1479.5819623971793
 40
27.094072844634091
 50
350.22103899999934
 51
355.21980800000068
  0
ARC
  8
_0-0_計極細
  6
CONTINUOUS
 62
    2
 10
2367.6687807406297
 20
1479.5819623971793
 40
27.094072844634091
 50
4.7801919999998796
 51
9.778961000001221
  0
ARC
  8
_0-0_計極細
  6
CONTINUOUS
 62
    2
 10
2394.7539486666547
 20
1476.3206368070619
 40
1.0034861863992508
 50
89.999999999999915
 51
210.00000000002515
  0
ARC
  8
_0-0_計極細
  6
CONTINUOUS
 62
    2
 10
2388.6706489507615
 20
1476.8223829107137
 40
0.501740082747087
 50
30.000000000056566
 51
89.999999999999915
  0
ARC
  8
_0-0_計極細
  6
CONTINUOUS
 62
    2
 10
2394.7539486666547
 20
1482.8432879873001
 40
1.0034861863992508
 50
149.99999999997448
 51
269.99999999999977
  0
ARC
  8
_0-0_計極細
  6
CONTINUOUS
 62
    2
 10
2388.6706489507615
 20
1482.3415418836466
 40
0.501740082747087
 50
269.99999999999977
 51
329.9999999999431
  0
ARC
  8
_0-0_計極細
  6
CONTINUOUS
 62
    2
 10
2367.6687807406297
 20
1479.5819623971793
 40
27.094072844634091
 50
43.319349000001104
 51
56.28377999999919
  0
ARC
  8
_0-0_計極細
  6
CONTINUOUS
 62
    2
 10
2367.6687807406297
 20
1479.5819623971793
 40
37.630656728658437
 50
62.674774000000312
 51
71.927081999999317
  0
ARC
  8
_0-0_計極細
  6
CONTINUOUS
 62
    2
 10
2367.6687807406297
 20
1479.5819623971793
 40
27.094072844634091
 50
63.716220000000746
 51
76.680650999998889
  0
ARC
  8
_0-0_計極細
  6
CONTINUOUS
 62
    2
 10
2381.6154728001193
 20
1518.2888619291821
 40
0.501740082747087
 50
70.185127999891137
 51
149.99999999993648
  0
ARC
  8
_0-0_計極細
  6
CONTINUOUS
 62
    2
 10
2376.3917295347692
 20
1519.2759170656291
 40
1.0034861863992508
 50
329.99999999999665
 51
77.605965999942228
  0
ARC
  8
_0-0_計極細
  6
CONTINUOUS
 62
    2
 10
2367.6687807406297
 20
1479.5819623971793
 40
37.630656728658437
 50
48.072918000001373
 51
57.325226000001372
  0
ARC
  8
_0-0_計極細
  6
CONTINUOUS
 62
    2
 10
2390.3323043547016
 20
1513.3171718130543
 40
1.0034861863992508
 50
56.106549999971008
 51
149.99999999999699
  0
ARC
  8
_0-0_計極細
  6
CONTINUOUS
 62
    2
 10
2394.2165949303799
 20
1511.0135976143724
 40
0.501740082747087
 50
330.00000000009186
 51
49.814871999965682
  0
ARC
  8
_0-0_計極細
  6
CONTINUOUS
 62
    2
 10
2385.5525727342256
 20
1516.0767573204248
 40
1.0034861863992508
 50
330.00000000000011
 51
63.893449999974756
  0
ARC
  8
_0-0_計極細
  6
CONTINUOUS
 62
    2
 10
2397.6832815508496
 20
1452.1806909337283
 40
1.0034861863992508
 50
210.00000000002515
 51
317.6059660000256
  0
ARC
  8
_0-0_計極細
  6
CONTINUOUS
 62
    2
 10
2401.0016552165698
 20
1455.4644564370674
 40
0.501740082747087
 50
324.11293799996702
 51
29.999999999959307
  0
ARC
  8
_0-0_計極細
  6
CONTINUOUS
 62
    2
 10
2367.6687807406297
 20
1479.5819623971793
 40
37.630656728658437
 50
14.493223999999607
 51
26.404005000000534
  0
LINE
  8
_0-0_計極細
  6
CONTINUOUS
 62
    2
 10
2406.7180650607179
 20
1493.5309002542645
 11
2400.1130478990326
 21
1482.0906748527254
  0
ARC
  8
_0-0_計極細
  6
CONTINUOUS
 62
    2
 10
2407.7523180720591
 20
1472.8730063511578
 40
1.0034861863992508
 50
209.99999999997672
 51
350.4982300000064
  0
ARC
  8
_0-0_計極細
  6
CONTINUOUS
 62
    2
 10
2407.7523180720591
 20
1486.2909184432031
 40
1.0034861863992508
 50
9.5017699999932326
 51
150.00000000000043
  0
ARC
  8
_0-0_計極細
  6
CONTINUOUS
 62
    2
 10
2367.6687807406297
 20
1479.5819623971793
 40
37.630656728658437
 50
3.6803540000001762
 51
6.228477000000372
  0
ARC
  8
_0-0_計極細
  6
CONTINUOUS
 62
    2
 10
2367.6687807406297
 20
1479.5819623971793
 40
37.630656728658437
 50
353.77152300000063
 51
356.31964600000015
  0
ARC
  8
_0-0_計極細
  6
CONTINUOUS
 62
    2
 10
2367.6687807406297
 20
1479.5819623971793
 40
37.630656728658437
 50
333.59599499999973
 51
345.50677600000074
  0
ARC
  8
_0-0_計極細
  6
CONTINUOUS
 62
    2
 10
2403.712043908562
 20
1460.8047644247008
 40
1.0034861863992508
 50
209.99999999997672
 51
332.48216400001218
  0
ARC
  8
_0-0_計極細
  6
CONTINUOUS
 62
    2
 10
2405.7618249164534
 20
1476.3206368070619
 40
1.0034861863992508
 50
89.999999999999915
 51
210.00000000002515
  0
ARC
  8
_0-0_計極細
  6
CONTINUOUS
 62
    2
 10
2399.6785252005602
 20
1476.8223829107137
 40
0.501740082747087
 50
30.000000000004636
 51
89.999999999999915
  0
LINE
  8
_0-0_計極細
  6
CONTINUOUS
 62
    2
 10
2406.8832726751143
 20
1472.3712662684111
 11
2404.8927855404154
 21
1475.8188967243154
  0
LINE
  8
_0-0_計極細
  6
CONTINUOUS
 62
    2
 10
2406.7180650607179
 20
1465.6330245400968
 11
2400.1130478990326
 21
1477.0732499416338
  0
ARC
  8
_0-0_計極細
  6
CONTINUOUS
 62
    2
 10
2405.7618249164534
 20
1482.8432879873001
 40
1.0034861863992508
 50
149.99999999997448
 51
269.99999999999977
  0
ARC
  8
_0-0_計極細
  6
CONTINUOUS
 62
    2
 10
2399.6785252005602
 20
1482.3415418836466
 40
0.501740082747087
 50
269.99999999999977
 51
329.999999999995
  0
LINE
  8
_0-0_計極細
  6
CONTINUOUS
 62
    2
 10
2406.8832726751143
 20
1486.7926585259493
 11
2404.8927855404154
 21
1483.3450280700456
  0
ARC
  8
_0-0_計極細
  6
CONTINUOUS
 62
    2
 10
2397.6832815508496
 20
1506.983233860632
 40
1.0034861863992508
 50
42.394033999974049
 51
149.99999999997448
  0
ARC
  8
_0-0_計極細
  6
CONTINUOUS
 62
    2
 10
2401.0016552165698
 20
1503.6994683572925
 40
0.501740082747087
 50
330.00000000003996
 51
35.887062000032259
  0
ARC
  8
_0-0_計極細
  6
CONTINUOUS
 62
    2
 10
2403.712043908562
 20
1498.3591603696595
 40
1.0034861863992508
 50
27.517836000010465
 51
150.00000000000043
  0
LINE
  8
_0-0_計極細
  6
CONTINUOUS
 62
    2
 10
2369.1740070097767
 20
1452.5297337054619
 11
2369.1740070097767
 21
1454.3964453555552
  0
LINE
  8
_0-0_計極細
  6
CONTINUOUS
 62
    2
 10
2369.6757531134281
 20
1452.5623242573902
 11
2369.6757531134281
 21
1453.5273953239969
  0
LINE
  8
_0-0_計極細
  6
CONTINUOUS
 62
    2
 10
2369.1740070097767
 20
1504.7674769114028
 11
2369.1740070097767
 21
1506.6341910888973
  0
LINE
  8
_0-0_計極細
  6
CONTINUOUS
 62
    2
 10
2369.6757531134281
 20
1505.6365267262054
 11
2369.6757531134281
 21
1506.601600536969
  0
LINE
  8
_0-0_計極細
  6
CENTER2
 62
    2
 10
642.49632436922207
 20
1479.5819623971793
 11
2457.5250449958539
 21
1479.5819623971793
  0
LINE
  8
_0-1_計細線
  6
CONTINUOUS
 62
    3
 10
651.66778362704758
 20
1551.58196239718
 11
651.66778362704758
 21
1407.5819623971793
  0
LINE
  8
_0-1_計細線
  6
CONTINUOUS
 62
    3
 10
651.66778362704758
 20
1407.5819623971793
 11
2447.6677836270474
 21
1407.5819623971793
  0
LINE
  8
_0-1_計細線
  6
CONTINUOUS
 62
    3
 10
2447.6677836270474
 20
1407.5819623971793
 11
2447.6677836270474
 21
1551.58196239718
  0
LINE
  8
_0-1_計細線
  6
CONTINUOUS
 62
    3
 10
2447.6677836270474
 20
1551.58196239718
 11
651.66778362704758
 21
1551.58196239718
  0
LINE
  8
_0-1_計細線
  6
CONTINUOUS
 62
    3
 10
662.66778362704758
 20
1540.5819623971797
 11
662.66778362704758
 21
1418.5819623971793
  0
LINE
  8
_0-1_計細線
  6
CONTINUOUS
 62
    3
 10
662.66778362704758
 20
1418.5819623971793
 11
2436.6677836270474
 21
1418.5819623971793
  0
LINE
  8
_0-1_計細線
  6
CONTINUOUS
 62
    3
 10
2436.6677836270474
 20
1418.5819623971793
 11
2436.6677836270474
 21
1540.5819623971797
  0
LINE
  8
_0-1_計細線
  6
CONTINUOUS
 62
    3
 10
2436.6677836270474
 20
1540.5819623971797
 11
662.66778362704758
 21
1540.5819623971797
  0
LINE
  8
_0-5_寸法線
  6
CONTINUOUS
 62
    7
 10
631.66778362704758
 20
1551.58196239718
 11
471.66778362704804
 21
1551.58196239718
  0
LINE
  8
_0-5_寸法線
  6
CONTINUOUS
 62
    7
 10
481.66778362704804
 20
1551.58196239718
 11
486.84416452909829
 21
1532.2634458713983
  0
LINE
  8
_0-5_寸法線
  6
CONTINUOUS
 62
    7
 10
481.66778362704804
 20
1551.58196239718
 11
476.4914027249975
 21
1532.2634458713983
  0
LINE
  8
_0-5_寸法線
  6
CONTINUOUS
 62
    7
 10
631.66778362704758
 20
1407.5819623971793
 11
471.66778362704804
 21
1407.5819623971793
  0
LINE
  8
_0-5_寸法線
  6
CONTINUOUS
 62
    7
 10
481.66778362704804
 20
1407.5819623971793
 11
476.49140272499767
 21
1426.9004789229607
  0
LINE
  8
_0-5_寸法線
  6
CONTINUOUS
 62
    7
 10
481.66778362704804
 20
1407.5819623971793
 11
486.84416452909841
 21
1426.9004789229607
  0
LINE
  8
_0-5_寸法線
  6
CONTINUOUS
 62
    7
 10
481.66778362704804
 20
1551.58196239718
 11
481.66778362704804
 21
1407.5819623971793
  0
TEXT
  8
_0-5_寸法線
 62
    7
 10
481.66778362704804
 20
1457.0819623971793
 40
30
 41
1
 50
90
  1
144
  0
LINE
  8
_0-5_寸法線
  6
CONTINUOUS
 62
    7
 10
631.66778362704758
 20
1407.5819623971793
 11
541.66778362704758
 21
1407.5819623971793
  0
LINE
  8
_0-5_寸法線
  6
CONTINUOUS
 62
    7
 10
551.66778362704758
 20
1407.5819623971793
 11
556.84416452909795
 21
1388.2634458713981
  0
LINE
  8
_0-5_寸法線
  6
CONTINUOUS
 62
    7
 10
551.66778362704758
 20
1407.5819623971793
 11
546.49140272499722
 21
1388.2634458713981
  0
LINE
  8
_0-5_寸法線
  6
CONTINUOUS
 62
    7
 10
631.66778362704758
 20
1418.5819623971793
 11
541.66778362704758
 21
1418.5819623971793
  0
LINE
  8
_0-5_寸法線
  6
CONTINUOUS
 62
    7
 10
551.66778362704758
 20
1346.856004286632
 11
551.66778362704758
 21
1418.5819623971793
  0
TEXT
  8
_0-5_寸法線
 62
    7
 10
551.66778362704758
 20
1346.856004286632
 40
30
 41
1
 50
90
  1
11
  0
LINE
  8
_0-5_寸法線
  6
CONTINUOUS
 62
    7
 10
551.66778362704758
 20
1418.5819623971793
 11
546.49140272499722
 21
1437.9004789229609
  0
LINE
  8
_0-5_寸法線
  6
CONTINUOUS
 62
    7
 10
551.66778362704758
 20
1418.5819623971793
 11
556.84416452909795
 21
1437.9004789229609
  0
LINE
  8
_0-5_寸法線
  6
CONTINUOUS
 62
    7
 10
631.66778362704758
 20
1540.58196239718
 11
541.66778362704758
 21
1540.5819623971806
  0
LINE
  8
_0-5_寸法線
  6
CONTINUOUS
 62
    7
 10
551.66778362704758
 20
1540.5819623971806
 11
556.84416452909795
 21
1521.263445871399
  0
LINE
  8
_0-5_寸法線
  6
CONTINUOUS
 62
    7
 10
551.66778362704758
 20
1540.5819623971806
 11
546.49140272499722
 21
1521.263445871399
  0
LINE
  8
_0-5_寸法線
  6
CONTINUOUS
 62
    7
 10
551.66778362704758
 20
1418.5819623971793
 11
551.66778362704758
 21
1540.5819623971806
  0
TEXT
  8
_0-5_寸法線
 62
    7
 10
551.66778362704758
 20
1457.0819623971797
 40
30
 41
1
 50
90
  1
122
  0
LINE
  8
_0-5_寸法線
  6
CONTINUOUS
 62
    7
 10
631.66778362704758
 20
1551.58196239718
 11
541.66778362704758
 21
1551.5819623971806
  0
LINE
  8
_0-5_寸法線
  6
CONTINUOUS
 62
    7
 10
551.66778362704758
 20
1551.5819623971806
 11
546.49140272499722
 21
1570.9004789229618
  0
LINE
  8
_0-5_寸法線
  6
CONTINUOUS
 62
    7
 10
551.66778362704758
 20
1551.5819623971806
 11
556.84416452909795
 21
1570.9004789229618
  0
LINE
  8
_0-5_寸法線
  6
CONTINUOUS
 62
    7
 10
551.66778362704758
 20
1540.5819623971806
 11
551.66778362704758
 21
1605.4790331125619
  0
TEXT
  8
_0-5_寸法線
 62
    7
 10
551.66778362704758
 20
1575.4790331125616
 40
30
 41
1
 50
90
  1
11
  0
LINE
  8
_0-5_寸法線
  6
CONTINUOUS
 62
    7
 10
651.66778362704758
 20
1571.58196239718
 11
651.66778362704758
 21
1801.58196239718
  0
LINE
  8
_0-5_寸法線
  6
CONTINUOUS
 62
    7
 10
651.66778362704758
 20
1791.58196239718
 11
670.9863001528289
 21
1796.7583432992301
  0
LINE
  8
_0-5_寸法線
  6
CONTINUOUS
 62
    7
 10
651.66778362704758
 20
1791.58196239718
 11
670.9863001528289
 21
1786.4055814951294
  0
LINE
  8
_0-5_寸法線
  6
CONTINUOUS
 62
    7
 10
2447.6677836270474
 20
1571.58196239718
 11
2447.6677836270474
 21
1801.58196239718
  0
LINE
  8
_0-5_寸法線
  6
CONTINUOUS
 62
    7
 10
2447.6677836270474
 20
1791.58196239718
 11
2428.3492671012659
 21
1786.4055814951294
  0
LINE
  8
_0-5_寸法線
  6
CONTINUOUS
 62
    7
 10
2447.6677836270474
 20
1791.58196239718
 11
2428.3492671012659
 21
1796.7583432992301
  0
LINE
  8
_0-5_寸法線
  6
CONTINUOUS
 62
    7
 10
651.66778362704758
 20
1791.58196239718
 11
2447.6677836270474
 21
1791.58196239718
  0
TEXT
  8
_0-5_寸法線
 62
    7
 10
1519.6677836270478
 20
1791.58196239718
 40
30
 41
1
 50
0
  1
1796
  0
LINE
  8
_0-5_寸法線
  6
CONTINUOUS
 62
    7
 10
2435.1677836270474
 20
1571.58196239718
 11
2435.1677836270474
 21
1661.58196239718
  0
LINE
  8
_0-5_寸法線
  6
CONTINUOUS
 62
    7
 10
2435.1677836270474
 20
1651.58196239718
 11
2415.8492671012659
 21
1646.4055814951294
  0
LINE
  8
_0-5_寸法線
  6
CONTINUOUS
 62
    7
 10
2435.1677836270474
 20
1651.58196239718
 11
2415.8492671012659
 21
1656.7583432992301
  0
LINE
  8
_0-5_寸法線
  6
CONTINUOUS
 62
    7
 10
664.16778362704781
 20
1571.5819623971797
 11
664.16778362704804
 21
1661.58196239718
  0
LINE
  8
_0-5_寸法線
  6
CONTINUOUS
 62
    7
 10
664.16778362704804
 20
1651.58196239718
 11
683.48630015282936
 21
1656.7583432992301
  0
LINE
  8
_0-5_寸法線
  6
CONTINUOUS
 62
    7
 10
664.16778362704804
 20
1651.58196239718
 11
683.48630015282936
 21
1646.4055814951294
  0
LINE
  8
_0-5_寸法線
  6
CONTINUOUS
 62
    7
 10
2435.1677836270474
 20
1651.58196239718
 11
664.16778362704804
 21
1651.58196239718
  0
TEXT
  8
_0-5_寸法線
 62
    7
 10
1519.6677836270478
 20
1651.58196239718
 40
30
 41
1
 50
0
  1
1771
  0
LINE
  8
_0-5_寸法線
  6
CONTINUOUS
 62
    7
 10
651.66778362704758
 20
1571.58196239718
 11
651.66778362704804
 21
1731.58196239718
  0
LINE
  8
_0-5_寸法線
  6
CONTINUOUS
 62
    7
 10
651.66778362704804
 20
1721.58196239718
 11
632.34926710126672
 21
1716.4055814951294
  0
LINE
  8
_0-5_寸法線
  6
CONTINUOUS
 62
    7
 10
651.66778362704804
 20
1721.58196239718
 11
632.34926710126672
 21
1726.7583432992301
  0
LINE
  8
_0-5_寸法線
  6
CONTINUOUS
 62
    7
 10
662.66778362704758
 20
1571.5819623971797
 11
662.66778362704815
 21
1731.58196239718
  0
LINE
  8
_0-5_寸法線
  6
CONTINUOUS
 62
    7
 10
593.47805086233302
 20
1721.58196239718
 11
662.66778362704815
 21
1721.58196239718
  0
TEXT
  8
_0-5_寸法線
 62
    7
 10
593.47805086233279
 20
1721.58196239718
 40
30
 41
1
 50
0
  1
11
  0
LINE
  8
_0-5_寸法線
  6
CONTINUOUS
 62
    7
 10
662.66778362704815
 20
1721.58196239718
 11
681.98630015282947
 21
1726.7583432992301
  0
LINE
  8
_0-5_寸法線
  6
CONTINUOUS
 62
    7
 10
662.66778362704815
 20
1721.58196239718
 11
681.98630015282947
 21
1716.4055814951291
  0
LINE
  8
_0-5_寸法線
  6
CONTINUOUS
 62
    7
 10
2436.6677836270474
 20
1571.58196239718
 11
2436.6677836270483
 21
1731.58196239718
  0
LINE
  8
_0-5_寸法線
  6
CONTINUOUS
 62
    7
 10
2436.6677836270483
 20
1721.58196239718
 11
2417.3492671012668
 21
1716.4055814951294
  0
LINE
  8
_0-5_寸法線
  6
CONTINUOUS
 62
    7
 10
2436.6677836270483
 20
1721.58196239718
 11
2417.3492671012668
 21
1726.7583432992301
  0
LINE
  8
_0-5_寸法線
  6
CONTINUOUS
 62
    7
 10
662.66778362704815
 20
1721.58196239718
 11
2436.6677836270483
 21
1721.58196239718
  0
TEXT
  8
_0-5_寸法線
 62
    7
 10
1519.6677836270476
 20
1721.58196239718
 40
30
 41
1
 50
0
  1
1774
  0
LINE
  8
_0-5_寸法線
  6
CONTINUOUS
 62
    7
 10
2447.6677836270474
 20
1571.58196239718
 11
2447.6677836270483
 21
1731.58196239718
  0
LINE
  8
_0-5_寸法線
  6
CONTINUOUS
 62
    7
 10
2447.6677836270483
 20
1721.58196239718
 11
2466.9863001528297
 21
1726.7583432992301
  0
LINE
  8
_0-5_寸法線
  6
CONTINUOUS
 62
    7
 10
2447.6677836270483
 20
1721.58196239718
 11
2466.9863001528297
 21
1716.4055814951291
  0
LINE
  8
_0-5_寸法線
  6
CONTINUOUS
 62
    7
 10
2436.6677836270483
 20
1721.58196239718
 11
2501.7640179888845
 21
1721.58196239718
  0
TEXT
  8
_0-5_寸法線
 62
    7
 10
2471.764017988884
 20
1721.58196239718
 40
30
 41
1
 50
0
  1
11
  0
LINE
  8
_0-5_寸法線
  6
CONTINUOUS
 62
    7
 10
651.66778362704758
 20
1387.5819623971793
 11
651.66778362704758
 21
1297.5819623971793
  0
LINE
  8
_0-5_寸法線
  6
CONTINUOUS
 62
    7
 10
651.66778362704758
 20
1307.5819623971793
 11
670.9863001528289
 21
1312.7583432992296
  0
LINE
  8
_0-5_寸法線
  6
CONTINUOUS
 62
    7
 10
651.66778362704758
 20
1307.5819623971793
 11
670.9863001528289
 21
1302.4055814951291
  0
LINE
  8
_0-5_寸法線
  6
CONTINUOUS
 62
    7
 10
2367.6677836270474
 20
1387.5819623971793
 11
2367.6677836270474
 21
1297.5819623971793
  0
LINE
  8
_0-5_寸法線
  6
CONTINUOUS
 62
    7
 10
2367.6677836270474
 20
1307.5819623971793
 11
2348.3492671012659
 21
1302.4055814951291
  0
LINE
  8
_0-5_寸法線
  6
CONTINUOUS
 62
    7
 10
2367.6677836270474
 20
1307.5819623971793
 11
2348.3492671012659
 21
1312.7583432992296
  0
LINE
  8
_0-5_寸法線
  6
CONTINUOUS
 62
    7
 10
651.66778362704758
 20
1307.5819623971793
 11
2367.6677836270474
 21
1307.5819623971793
  0
TEXT
  8
_0-5_寸法線
 62
    7
 10
1479.6677836270474
 20
1307.5819623971793
 40
30
 41
1
 50
0
  1
1716
  0
LINE
  8
_0-5_寸法線
  6
CONTINUOUS
 62
    7
 10
2367.6677836270474
 20
1307.5819623971793
 11
2386.9863001528292
 21
1312.7583432992296
  0
LINE
  8
_0-5_寸法線
  6
CONTINUOUS
 62
    7
 10
2367.6677836270474
 20
1307.5819623971793
 11
2386.9863001528292
 21
1302.4055814951289
  0
LINE
  8
_0-5_寸法線
  6
CONTINUOUS
 62
    7
 10
2447.6677836270474
 20
1387.5819623971793
 11
2447.6677836270474
 21
1297.5819623971793
  0
LINE
  8
_0-5_寸法線
  6
CONTINUOUS
 62
    7
 10
2447.6677836270474
 20
1307.5819623971793
 11
2428.3492671012659
 21
1302.4055814951291
  0
LINE
  8
_0-5_寸法線
  6
CONTINUOUS
 62
    7
 10
2447.6677836270474
 20
1307.5819623971793
 11
2428.3492671012659
 21
1312.7583432992296
  0
LINE
  8
_0-5_寸法線
  6
CONTINUOUS
 62
    7
 10
2367.6677836270474
 20
1307.5819623971793
 11
2447.6677836270474
 21
1307.5819623971793
  0
TEXT
  8
_0-5_寸法線
 62
    7
 10
2392.6677836270464
 20
1307.5819623971793
 40
30
 41
1
 50
0
  1
80
  0
ARC
  8
_0-1_計細線
  6
CONTINUOUS
 62
    3
 10
2446.6677836270474
 20
1106.5819623971793
 40
1
 50
0
 51
89.999999999999915
  0
LINE
  8
_0-1_計細線
  6
CONTINUOUS
 62
    3
 10
2447.6677836270474
 20
1099.5819623971793
 11
2447.6677836270474
 21
1106.5819623971793
  0
LINE
  8
_0-1_計細線
  6
CONTINUOUS
 62
    3
 10
2446.6677836270483
 20
1099.5819623971793
 11
2447.6677836270474
 21
1099.5819623971793
  0
ARC
  8
_0-1_計細線
  6
CONTINUOUS
 62
    3
 10
2426.6677836270474
 20
1087.0819623971784
 40
1.5000000000000002
 50
89.999999999999915
 51
179.99999999999983
  0
LINE
  8
_0-1_計細線
  6
CONTINUOUS
 62
    3
 10
2425.1677836270474
 20
1087.0819623971784
 11
2425.1677836270474
 21
1085.0819623971784
  0
ARC
  8
_0-1_計細線
  6
CONTINUOUS
 62
    3
 10
2424.6677836270474
 20
1085.0819623971784
 40
1.5000000000000002
 50
269.99999999999977
 51
359.99999999999966
  0
LINE
  8
_0-1_計細線
  6
CONTINUOUS
 62
    3
 10
2426.1677836270474
 20
1087.0819623971784
 11
2426.1677836270474
 21
1085.0819623971784
  0
LINE
  8
_0-1_計細線
  6
CONTINUOUS
 62
    3
 10
2424.6677836270474
 20
1083.5819623971784
 11
2418.6677836270474
 21
1083.5819623971784
  0
ARC
  8
_0-1_計細線
  6
CONTINUOUS
 62
    3
 10
2426.6677836270474
 20
1087.0819623971784
 40
0.5
 50
89.999999999999915
 51
179.99999999999983
  0
ARC
  8
_0-1_計細線
  6
CONTINUOUS
 62
    3
 10
2424.6677836270474
 20
1085.0819623971784
 40
0.5
 50
269.99999999999977
 51
359.99999999999966
  0
LINE
  8
_0-1_計細線
  6
CONTINUOUS
 62
    3
 10
2424.6677836270474
 20
1084.5819623971784
 11
2418.6677836270474
 21
1084.5819623971784
  0
LINE
  8
_0-1_計細線
  6
CONTINUOUS
 62
    3
 10
2418.6677836270474
 20
1084.5819623971784
 11
2418.6677836270474
 21
1083.5819623971784
  0
LINE
  8
_0-1_計細線
  6
CONTINUOUS
 62
    3
 10
2436.6677836270474
 20
1088.5819623971784
 11
2426.6677836270474
 21
1088.5819623971784
  0
LINE
  8
_0-1_計細線
  6
CONTINUOUS
 62
    3
 10
2436.6677836270474
 20
1106.5819623971793
 11
2436.6677836270474
 21
1088.5819623971784
  0
ARC
  8
_0-1_計細線
  6
CONTINUOUS
 62
    3
 10
652.66778362704758
 20
1106.5819623971793
 40
1
 50
89.999999999999915
 51
179.99999999999983
  0
LINE
  8
_0-1_計細線
  6
CONTINUOUS
 62
    3
 10
651.66778362704758
 20
1099.5819623971793
 11
651.66778362704758
 21
1106.5819623971793
  0
LINE
  8
_0-1_計細線
  6
CONTINUOUS
 62
    3
 10
651.66778362704758
 20
1099.5819623971811
 11
2367.6677836270474
 21
1099.5819623971811
  0
LINE
  8
_0-1_計細線
  6
CONTINUOUS
 62
    3
 10
662.66778362704758
 20
1088.5819623971793
 11
662.66778362704758
 21
1099.5819623971811
  0
ARC
  8
_0-1_計細線
  6
CONTINUOUS
 62
    3
 10
663.66778362704758
 20
1088.5819623971793
 40
1
 50
179.99999999999983
 51
269.99999999999977
  0
LINE
  8
_0-1_計細線
  6
CONTINUOUS
 62
    3
 10
2426.6677836270474
 20
1087.5819623971793
 11
2436.6677836270474
 21
1087.5819623971793
  0
LINE
  8
_0-1_計細線
  6
CONTINUOUS
 62
    3
 10
2437.6677836270474
 20
1099.5819623971793
 11
2446.6677836270483
 21
1099.5819623971793
  0
LINE
  8
_0-1_計細線
  6
CONTINUOUS
 62
    3
 10
2446.6677836270483
 20
1099.5819623971793
 11
2446.6677836270483
 21
1106.5819623971795
  0
LINE
  8
_0-1_計細線
  6
CONTINUOUS
 62
    3
 10
2446.6677836270483
 20
1106.5819623971795
 11
2437.6677836270474
 21
1106.5819623971795
  0
LINE
  8
_0-1_計細線
  6
CONTINUOUS
 62
    3
 10
2437.6677836270474
 20
1106.5819623971795
 11
2437.6677836270474
 21
1088.5819623971793
  0
ARC
  8
_0-1_計細線
  6
CONTINUOUS
 62
    3
 10
2436.6677836270474
 20
1088.5819623971793
 40
1
 50
269.99999999999977
 51
359.99999999999966
  0
LINE
  8
_0-1_計細線
  6
CONTINUOUS
 62
    3
 10
2446.6677836270474
 20
1107.5819623971793
 11
2437.6677836270474
 21
1107.5819623971793
  0
LINE
  8
_0-1_計細線
  6
CONTINUOUS
 62
    3
 10
2437.6677836270474
 20
1107.5819623971793
 11
652.6677836270494
 21
1107.5819623971793
  0
ARC
  8
_0-1_計細線
  6
CONTINUOUS
 62
    3
 10
2437.6677836270474
 20
1106.5819623971793
 40
1
 50
89.999999999999915
 51
179.99999999999983
  0
LINE
  8
_0-0_計極細
  6
CENTER1
 62
    2
 10
687.66778362704781
 20
1059.7864818240105
 11
687.66778362704781
 21
1104.840181901548
  0
LINE
  8
_0-1_計細線
  6
CONTINUOUS
 62
    3
 10
681.6677837801285
 20
1099.5693635497491
 11
679.6677837801285
 21
1097.5693635497491
  0
LINE
  8
_0-1_計細線
  6
CONTINUOUS
 62
    3
 10
679.6677837801285
 20
1087.5693635497491
 11
679.6677837801285
 21
1097.5693635497491
  0
LINE
  8
_0-1_計細線
  6
CONTINUOUS
 62
    3
 10
695.66778347396723
 20
1087.5693635497491
 11
695.66778347396723
 21
1097.5693635497491
  0
LINE
  8
_0-1_計細線
  6
CONTINUOUS
 62
    3
 10
681.6677837801285
 20
1083.5693635497491
 11
679.6677837801285
 21
1081.5693635497491
  0
LINE
  8
_0-1_計細線
  6
CONTINUOUS
 62
    3
 10
681.6677837801285
 20
1085.5693635497491
 11
681.6677837801285
 21
1083.5693635497491
  0
LINE
  8
_0-1_計細線
  6
CONTINUOUS
 62
    3
 10
679.6677837801285
 20
1087.5693635497491
 11
681.6677837801285
 21
1085.5693635497491
  0
LINE
  8
_0-1_計細線
  6
CONTINUOUS
 62
    3
 10
693.66778347396712
 20
1083.5693635497491
 11
695.66778347396723
 21
1081.5693635497491
  0
LINE
  8
_0-1_計細線
  6
CONTINUOUS
 62
    3
 10
693.66778347396712
 20
1085.5693635497491
 11
693.66778347396712
 21
1083.5693635497491
  0
LINE
  8
_0-1_計細線
  6
CONTINUOUS
 62
    3
 10
695.66778347396723
 20
1087.5693635497491
 11
693.66778347396712
 21
1085.5693635497491
  0
LINE
  8
_0-1_計細線
  6
CONTINUOUS
 62
    3
 10
679.6677837801285
 20
1081.5693635497491
 11
679.6677837801285
 21
1067.5693635497491
  0
ARC
  8
_0-1_計細線
  6
CONTINUOUS
 62
    3
 10
682.66778378012862
 20
1067.5693635497491
 40
3.0000000000000004
 50
179.99999999999983
 51
269.99999999999977
  0
LINE
  8
_0-1_計細線
  6
CONTINUOUS
 62
    3
 10
682.66778378012862
 20
1064.5693635497491
 11
692.66778347396712
 21
1064.5693635497491
  0
LINE
  8
_0-1_計細線
  6
CONTINUOUS
 62
    3
 10
695.66778347396723
 20
1081.5693635497491
 11
695.66778347396723
 21
1067.5693635497491
  0
ARC
  8
_0-1_計細線
  6
CONTINUOUS
 62
    3
 10
692.66778347396712
 20
1067.5693635497491
 40
3.0000000000000004
 50
269.99999999999977
 51
359.99999999999966
  0
LINE
  8
_0-1_計細線
  6
CONTINUOUS
 62
    3
 10
681.6677837801285
 20
1099.5693635497491
 11
693.66778347396712
 21
1099.5693635497491
  0
LINE
  8
_0-1_計細線
  6
CONTINUOUS
 62
    3
 10
695.66778347396723
 20
1097.5693635497491
 11
693.66778347396712
 21
1099.5693635497491
  0
LINE
  8
_0-5_寸法線
  6
CONTINUOUS
 62
    7
 10
687.66778362704781
 20
1064.5693635497491
 11
697.6677836270477
 21
1047.2488554740603
  0
LINE
  8
_0-5_寸法線
  6
CONTINUOUS
 62
    7
 10
687.66778362704781
 20
1064.5693635497491
 11
687.6677836270477
 21
1044.5693635497491
  0
LINE
  8
_0-5_寸法線
  6
CONTINUOUS
 62
    7
 10
687.66778362704781
 20
1064.5693635497491
 11
703.74473517291472
 21
1004.5693635497491
  0
LINE
  8
_0-5_寸法線
  6
CONTINUOUS
 62
    7
 10
703.74473517291472
 20
1004.5693635497491
 11
799.74473517291472
 21
1004.5693635497491
  0
TEXT
  8
_0-5_寸法線
 62
    7
 10
703.74473517291472
 20
1004.5693635497491
 40
30
 41
0.8000000000000001
 50
0
  1
アンカー
  0
LINE
  8
_0-1_計細線
  6
CONTINUOUS
 62
    3
 10
663.66778362704758
 20
1087.5819623971793
 11
679.6677837801285
 21
1087.5819623971793
  0
LINE
  8
_0-0_計極細
  6
CENTER1
 62
    2
 10
1118.6677836270478
 20
1059.7864818240105
 11
1118.6677836270478
 21
1104.840181901548
  0
LINE
  8
_0-1_計細線
  6
CONTINUOUS
 62
    3
 10
1112.6677837801285
 20
1099.5693635497491
 11
1110.6677837801285
 21
1097.5693635497491
  0
LINE
  8
_0-1_計細線
  6
CONTINUOUS
 62
    3
 10
1110.6677837801285
 20
1087.5693635497491
 11
1110.6677837801285
 21
1097.5693635497491
  0
LINE
  8
_0-1_計細線
  6
CONTINUOUS
 62
    3
 10
1126.6677834739671
 20
1087.5693635497491
 11
1126.6677834739671
 21
1097.5693635497491
  0
LINE
  8
_0-1_計細線
  6
CONTINUOUS
 62
    3
 10
1112.6677837801285
 20
1083.5693635497491
 11
1110.6677837801285
 21
1081.5693635497491
  0
LINE
  8
_0-1_計細線
  6
CONTINUOUS
 62
    3
 10
1112.6677837801285
 20
1085.5693635497491
 11
1112.6677837801285
 21
1083.5693635497491
  0
LINE
  8
_0-1_計細線
  6
CONTINUOUS
 62
    3
 10
1110.6677837801285
 20
1087.5693635497491
 11
1112.6677837801285
 21
1085.5693635497491
  0
LINE
  8
_0-1_計細線
  6
CONTINUOUS
 62
    3
 10
1124.6677834739671
 20
1083.5693635497491
 11
1126.6677834739671
 21
1081.5693635497491
  0
LINE
  8
_0-1_計細線
  6
CONTINUOUS
 62
    3
 10
1124.6677834739671
 20
1085.5693635497491
 11
1124.6677834739671
 21
1083.5693635497491
  0
LINE
  8
_0-1_計細線
  6
CONTINUOUS
 62
    3
 10
1126.6677834739671
 20
1087.5693635497491
 11
1124.6677834739671
 21
1085.5693635497491
  0
LINE
  8
_0-1_計細線
  6
CONTINUOUS
 62
    3
 10
1110.6677837801285
 20
1081.5693635497491
 11
1110.6677837801285
 21
1067.5693635497491
  0
ARC
  8
_0-1_計細線
  6
CONTINUOUS
 62
    3
 10
1113.6677837801285
 20
1067.5693635497491
 40
3.0000000000000004
 50
179.99999999999983
 51
269.99999999999977
  0
LINE
  8
_0-1_計細線
  6
CONTINUOUS
 62
    3
 10
1113.6677837801285
 20
1064.5693635497491
 11
1123.6677834739671
 21
1064.5693635497491
  0
LINE
  8
_0-1_計細線
  6
CONTINUOUS
 62
    3
 10
1126.6677834739671
 20
1081.5693635497491
 11
1126.6677834739671
 21
1067.5693635497491
  0
ARC
  8
_0-1_計細線
  6
CONTINUOUS
 62
    3
 10
1123.6677834739671
 20
1067.5693635497491
 40
3.0000000000000004
 50
269.99999999999977
 51
359.99999999999966
  0
LINE
  8
_0-1_計細線
  6
CONTINUOUS
 62
    3
 10
1112.6677837801285
 20
1099.5693635497491
 11
1124.6677834739671
 21
1099.5693635497491
  0
LINE
  8
_0-1_計細線
  6
CONTINUOUS
 62
    3
 10
1126.6677834739671
 20
1097.5693635497491
 11
1124.6677834739671
 21
1099.5693635497491
  0
LINE
  8
_0-1_計細線
  6
CONTINUOUS
 62
    3
 10
695.66778347396723
 20
1087.5819623971793
 11
1110.6677837801285
 21
1087.5819623971793
  0
LINE
  8
_0-0_計極細
  6
CENTER1
 62
    2
 10
1549.6677836270478
 20
1059.7864818240105
 11
1549.6677836270478
 21
1104.840181901548
  0
LINE
  8
_0-1_計細線
  6
CONTINUOUS
 62
    3
 10
1543.6677837801287
 20
1099.5693635497491
 11
1541.6677837801285
 21
1097.5693635497491
  0
LINE
  8
_0-1_計細線
  6
CONTINUOUS
 62
    3
 10
1541.6677837801285
 20
1087.5693635497491
 11
1541.6677837801285
 21
1097.5693635497491
  0
LINE
  8
_0-1_計細線
  6
CONTINUOUS
 62
    3
 10
1557.6677834739671
 20
1087.5693635497491
 11
1557.6677834739671
 21
1097.5693635497491
  0
LINE
  8
_0-1_計細線
  6
CONTINUOUS
 62
    3
 10
1543.6677837801287
 20
1083.5693635497491
 11
1541.6677837801285
 21
1081.5693635497491
  0
LINE
  8
_0-1_計細線
  6
CONTINUOUS
 62
    3
 10
1543.6677837801287
 20
1085.5693635497491
 11
1543.6677837801287
 21
1083.5693635497491
  0
LINE
  8
_0-1_計細線
  6
CONTINUOUS
 62
    3
 10
1541.6677837801285
 20
1087.5693635497491
 11
1543.6677837801287
 21
1085.5693635497491
  0
LINE
  8
_0-1_計細線
  6
CONTINUOUS
 62
    3
 10
1555.6677834739673
 20
1083.5693635497491
 11
1557.6677834739671
 21
1081.5693635497491
  0
LINE
  8
_0-1_計細線
  6
CONTINUOUS
 62
    3
 10
1555.6677834739673
 20
1085.5693635497491
 11
1555.6677834739673
 21
1083.5693635497491
  0
LINE
  8
_0-1_計細線
  6
CONTINUOUS
 62
    3
 10
1557.6677834739671
 20
1087.5693635497491
 11
1555.6677834739673
 21
1085.5693635497491
  0
LINE
  8
_0-1_計細線
  6
CONTINUOUS
 62
    3
 10
1541.6677837801285
 20
1081.5693635497491
 11
1541.6677837801285
 21
1067.5693635497491
  0
ARC
  8
_0-1_計細線
  6
CONTINUOUS
 62
    3
 10
1544.6677837801285
 20
1067.5693635497491
 40
3.0000000000000004
 50
179.99999999999983
 51
269.99999999999977
  0
LINE
  8
_0-1_計細線
  6
CONTINUOUS
 62
    3
 10
1544.6677837801285
 20
1064.5693635497491
 11
1554.6677834739671
 21
1064.5693635497491
  0
LINE
  8
_0-1_計細線
  6
CONTINUOUS
 62
    3
 10
1557.6677834739671
 20
1081.5693635497491
 11
1557.6677834739671
 21
1067.5693635497491
  0
ARC
  8
_0-1_計細線
  6
CONTINUOUS
 62
    3
 10
1554.6677834739671
 20
1067.5693635497491
 40
3.0000000000000004
 50
269.99999999999977
 51
359.99999999999966
  0
LINE
  8
_0-1_計細線
  6
CONTINUOUS
 62
    3
 10
1543.6677837801287
 20
1099.5693635497491
 11
1555.6677834739673
 21
1099.5693635497491
  0
LINE
  8
_0-1_計細線
  6
CONTINUOUS
 62
    3
 10
1557.6677834739671
 20
1097.5693635497491
 11
1555.6677834739673
 21
1099.5693635497491
  0
LINE
  8
_0-1_計細線
  6
CONTINUOUS
 62
    3
 10
1126.6677834739671
 20
1087.5819623971793
 11
1541.6677837801285
 21
1087.5819623971793
  0
LINE
  8
_0-0_計極細
  6
CENTER1
 62
    2
 10
1980.6677836270478
 20
1059.7864818240105
 11
1980.6677836270478
 21
1104.840181901548
  0
LINE
  8
_0-1_計細線
  6
CONTINUOUS
 62
    3
 10
1974.6677837801285
 20
1099.5693635497491
 11
1972.6677837801287
 21
1097.5693635497491
  0
LINE
  8
_0-1_計細線
  6
CONTINUOUS
 62
    3
 10
1972.6677837801287
 20
1087.5693635497491
 11
1972.6677837801287
 21
1097.5693635497491
  0
LINE
  8
_0-1_計細線
  6
CONTINUOUS
 62
    3
 10
1988.6677834739671
 20
1087.5693635497491
 11
1988.6677834739671
 21
1097.5693635497491
  0
LINE
  8
_0-1_計細線
  6
CONTINUOUS
 62
    3
 10
1974.6677837801285
 20
1083.5693635497491
 11
1972.6677837801287
 21
1081.5693635497491
  0
LINE
  8
_0-1_計細線
  6
CONTINUOUS
 62
    3
 10
1974.6677837801285
 20
1085.5693635497491
 11
1974.6677837801285
 21
1083.5693635497491
  0
LINE
  8
_0-1_計細線
  6
CONTINUOUS
 62
    3
 10
1972.6677837801287
 20
1087.5693635497491
 11
1974.6677837801285
 21
1085.5693635497491
  0
LINE
  8
_0-1_計細線
  6
CONTINUOUS
 62
    3
 10
1986.6677834739673
 20
1083.5693635497491
 11
1988.6677834739671
 21
1081.5693635497491
  0
LINE
  8
_0-1_計細線
  6
CONTINUOUS
 62
    3
 10
1986.6677834739673
 20
1085.5693635497491
 11
1986.6677834739673
 21
1083.5693635497491
  0
LINE
  8
_0-1_計細線
  6
CONTINUOUS
 62
    3
 10
1988.6677834739671
 20
1087.5693635497491
 11
1986.6677834739673
 21
1085.5693635497491
  0
LINE
  8
_0-1_計細線
  6
CONTINUOUS
 62
    3
 10
1972.6677837801287
 20
1081.5693635497491
 11
1972.6677837801287
 21
1067.5693635497491
  0
ARC
  8
_0-1_計細線
  6
CONTINUOUS
 62
    3
 10
1975.6677837801285
 20
1067.5693635497491
 40
3.0000000000000004
 50
179.99999999999983
 51
269.99999999999977
  0
LINE
  8
_0-1_計細線
  6
CONTINUOUS
 62
    3
 10
1975.6677837801285
 20
1064.5693635497491
 11
1985.6677834739673
 21
1064.5693635497491
  0
LINE
  8
_0-1_計細線
  6
CONTINUOUS
 62
    3
 10
1988.6677834739671
 20
1081.5693635497491
 11
1988.6677834739671
 21
1067.5693635497491
  0
ARC
  8
_0-1_計細線
  6
CONTINUOUS
 62
    3
 10
1985.6677834739673
 20
1067.5693635497491
 40
3.0000000000000004
 50
269.99999999999977
 51
359.99999999999966
  0
LINE
  8
_0-1_計細線
  6
CONTINUOUS
 62
    3
 10
1974.6677837801285
 20
1099.5693635497491
 11
1986.6677834739673
 21
1099.5693635497491
  0
LINE
  8
_0-1_計細線
  6
CONTINUOUS
 62
    3
 10
1988.6677834739671
 20
1097.5693635497491
 11
1986.6677834739673
 21
1099.5693635497491
  0
LINE
  8
_0-1_計細線
  6
CONTINUOUS
 62
    3
 10
1988.6677834739671
 20
1087.5819623971793
 11
2367.6677836270474
 21
1087.5819623971793
  0
LINE
  8
_0-1_計細線
  6
CONTINUOUS
 62
    3
 10
1557.6677834739671
 20
1087.5819623971793
 11
1972.6677837801287
 21
1087.5819623971793
  0
LINE
  8
_0-0_計極細
  6
DASHED2
 62
    2
 10
2411.6677836270474
 20
1059.7864818240105
 11
2411.6677836270474
 21
1104.840181901548
  0
LINE
  8
_0-1_計細線
  6
DASHED2
 62
    3
 10
2419.6677834739667
 20
1097.5693635497491
 11
2417.6677834739667
 21
1099.5693635497491
  0
LINE
  8
_0-1_計細線
  6
DASHED2
 62
    3
 10
2405.667783780128
 20
1099.5693635497491
 11
2417.6677834739667
 21
1099.5693635497491
  0
ARC
  8
_0-1_計細線
  6
DASHED2
 62
    3
 10
2416.6677834739667
 20
1067.5693635497491
 40
3.0000000000000004
 50
269.99999999999977
 51
359.99999999999966
  0
LINE
  8
_0-1_計細線
  6
DASHED2
 62
    3
 10
2419.6677834739667
 20
1081.5693635497491
 11
2419.6677834739667
 21
1067.5693635497491
  0
LINE
  8
_0-1_計細線
  6
DASHED2
 62
    3
 10
2406.667783780128
 20
1064.5693635497491
 11
2416.6677834739667
 21
1064.5693635497491
  0
ARC
  8
_0-1_計細線
  6
DASHED2
 62
    3
 10
2406.667783780128
 20
1067.5693635497491
 40
3.0000000000000004
 50
179.99999999999983
 51
269.99999999999977
  0
LINE
  8
_0-1_計細線
  6
DASHED2
 62
    3
 10
2403.667783780128
 20
1081.5693635497491
 11
2403.667783780128
 21
1067.5693635497491
  0
LINE
  8
_0-1_計細線
  6
DASHED2
 62
    3
 10
2419.6677834739667
 20
1087.5693635497491
 11
2417.6677834739667
 21
1085.5693635497491
  0
LINE
  8
_0-1_計細線
  6
DASHED2
 62
    3
 10
2417.6677834739667
 20
1085.5693635497491
 11
2417.6677834739667
 21
1083.5693635497491
  0
LINE
  8
_0-1_計細線
  6
DASHED2
 62
    3
 10
2417.6677834739667
 20
1083.5693635497491
 11
2419.6677834739667
 21
1081.5693635497491
  0
LINE
  8
_0-1_計細線
  6
DASHED2
 62
    3
 10
2403.667783780128
 20
1087.5693635497491
 11
2405.667783780128
 21
1085.5693635497491
  0
LINE
  8
_0-1_計細線
  6
DASHED2
 62
    3
 10
2405.667783780128
 20
1085.5693635497491
 11
2405.667783780128
 21
1083.5693635497491
  0
LINE
  8
_0-1_計細線
  6
DASHED2
 62
    3
 10
2405.667783780128
 20
1083.5693635497491
 11
2403.667783780128
 21
1081.5693635497491
  0
LINE
  8
_0-1_計細線
  6
DASHED2
 62
    3
 10
2419.6677834739667
 20
1087.5693635497491
 11
2419.6677834739667
 21
1097.5693635497491
  0
LINE
  8
_0-1_計細線
  6
DASHED2
 62
    3
 10
2403.667783780128
 20
1087.5693635497491
 11
2403.667783780128
 21
1097.5693635497491
  0
LINE
  8
_0-1_計細線
  6
DASHED2
 62
    3
 10
2405.667783780128
 20
1099.5693635497491
 11
2403.667783780128
 21
1097.5693635497491
  0
LINE
  8
_0-1_計細線
  6
CONTINUOUS
 62
    3
 10
2367.6677836270474
 20
1100.5819623971784
 11
2435.1677836270474
 21
1100.5819623971784
  0
LINE
  8
_0-1_計細線
  6
CONTINUOUS
 62
    3
 10
2367.6677836270474
 20
1106.5819623971793
 11
2435.1677836270474
 21
1106.5819623971793
  0
LINE
  8
_0-1_計細線
  6
CONTINUOUS
 62
    3
 10
2367.6677836270474
 20
1088.5819623971793
 11
2435.1677836270474
 21
1088.5819623971793
  0
LINE
  8
_0-1_計細線
  6
CONTINUOUS
 62
    3
 10
2435.1677836270474
 20
1106.5819623971793
 11
2435.1677836270474
 21
1088.5819623971793
  0
LINE
  8
_0-5_寸法線
  6
CONTINUOUS
 62
    7
 10
651.66778362704804
 20
1127.5819623971793
 11
651.6677836270502
 21
1217.5819623971793
  0
LINE
  8
_0-5_寸法線
  6
CONTINUOUS
 62
    7
 10
651.66778362704986
 20
1207.5819623971793
 11
670.98630015283118
 21
1212.7583432992296
  0
LINE
  8
_0-5_寸法線
  6
CONTINUOUS
 62
    7
 10
651.66778362704986
 20
1207.5819623971793
 11
670.98630015283118
 21
1202.4055814951289
  0
LINE
  8
_0-5_寸法線
  6
CONTINUOUS
 62
    7
 10
687.66778362704827
 20
1127.5819623971793
 11
687.66778362705043
 21
1217.5819623971793
  0
LINE
  8
_0-5_寸法線
  6
CONTINUOUS
 62
    7
 10
687.66778362705008
 20
1207.5819623971793
 11
668.34926710126865
 21
1202.4055814951289
  0
LINE
  8
_0-5_寸法線
  6
CONTINUOUS
 62
    7
 10
687.66778362705008
 20
1207.5819623971793
 11
668.34926710126877
 21
1212.7583432992296
  0
LINE
  8
_0-5_寸法線
  6
CONTINUOUS
 62
    7
 10
651.66778362704986
 20
1207.5819623971793
 11
687.66778362705008
 21
1207.5819623971793
  0
TEXT
  8
_0-5_寸法線
 62
    7
 10
654.66778362705122
 20
1207.5819623971793
 40
30
 41
1
 50
0
  1
36
  0
LINE
  8
_0-5_寸法線
  6
CONTINUOUS
 62
    7
 10
687.66778362705008
 20
1207.5819623971793
 11
706.98630015283152
 21
1212.7583432992296
  0
LINE
  8
_0-5_寸法線
  6
CONTINUOUS
 62
    7
 10
687.66778362705008
 20
1207.5819623971793
 11
706.9863001528314
 21
1202.4055814951289
  0
LINE
  8
_0-5_寸法線
  6
CONTINUOUS
 62
    7
 10
2411.6677836270483
 20
1127.5819623971793
 11
2411.6677836270505
 21
1217.5819623971793
  0
LINE
  8
_0-5_寸法線
  6
CONTINUOUS
 62
    7
 10
2411.6677836270501
 20
1207.5819623971793
 11
2392.3492671012687
 21
1202.4055814951289
  0
LINE
  8
_0-5_寸法線
  6
CONTINUOUS
 62
    7
 10
2411.6677836270501
 20
1207.5819623971793
 11
2392.3492671012687
 21
1212.7583432992296
  0
LINE
  8
_0-5_寸法線
  6
CONTINUOUS
 62
    7
 10
687.66778362705008
 20
1207.5819623971793
 11
2411.6677836270501
 21
1207.5819623971793
  0
TEXT
  8
_0-5_寸法線
 62
    7
 10
1474.6677836270519
 20
1207.5819623971793
 40
30
 41
1
 50
0
  1
4@431=1724
  0
LINE
  8
_0-5_寸法線
  6
CONTINUOUS
 62
    7
 10
2411.6677836270501
 20
1207.5819623971793
 11
2430.9863001528315
 21
1212.7583432992296
  0
LINE
  8
_0-5_寸法線
  6
CONTINUOUS
 62
    7
 10
2411.6677836270501
 20
1207.5819623971793
 11
2430.9863001528315
 21
1202.4055814951289
  0
LINE
  8
_0-5_寸法線
  6
CONTINUOUS
 62
    7
 10
2447.6677836270478
 20
1127.5819623971793
 11
2447.6677836270505
 21
1217.5819623971793
  0
LINE
  8
_0-5_寸法線
  6
CONTINUOUS
 62
    7
 10
2447.6677836270501
 20
1207.5819623971793
 11
2428.3492671012687
 21
1202.4055814951289
  0
LINE
  8
_0-5_寸法線
  6
CONTINUOUS
 62
    7
 10
2447.6677836270501
 20
1207.5819623971793
 11
2428.3492671012687
 21
1212.7583432992296
  0
LINE
  8
_0-5_寸法線
  6
CONTINUOUS
 62
    7
 10
2411.6677836270501
 20
1207.5819623971793
 11
2447.6677836270501
 21
1207.5819623971793
  0
TEXT
  8
_0-5_寸法線
 62
    7
 10
2414.667783627051
 20
1207.581962397179
 40
30
 41
1
 50
0
  1
36
  0
LINE
  8
_0-0_計極細
  6
CENTER2
 62
    2
 10
2367.6677836270474
 20
1571.7873267792788
 11
2367.6677836270474
 21
931.41797191716591
  0
LINE
  8
_0-1_計細線
  6
CONTINUOUS
 62
    3
 10
2610.861673168763
 20
1417.5819623971793
 11
2645.861673168763
 21
1417.5819623971793
  0
LINE
  8
_0-1_計細線
  6
CONTINUOUS
 62
    3
 10
2645.861673168763
 20
1417.5819623971793
 11
2645.861673168763
 21
1416.3819623971804
  0
LINE
  8
_0-1_計細線
  6
CONTINUOUS
 62
    3
 10
2645.861673168763
 20
1416.3819623971804
 11
2610.861673168763
 21
1416.3819623971804
  0
LINE
  8
_0-1_計細線
  6
CONTINUOUS
 62
    3
 10
2610.861673168763
 20
1416.3819623971804
 11
2610.861673168763
 21
1417.5819623971793
  0
LINE
  8
_0-1_計細線
  6
CONTINUOUS
 62
    3
 10
2612.861673168763
 20
1416.3819623971804
 11
2612.861673168763
 21
1417.5819623971793
  0
LINE
  8
_0-1_計細線
  6
CONTINUOUS
 62
    3
 10
2622.861673168763
 20
1416.3819623971804
 11
2622.861673168763
 21
1417.5819623971793
  0
LINE
  8
_0-1_計細線
  6
CONTINUOUS
 62
    3
 10
2624.8616731687634
 20
1416.3819623971804
 11
2624.8616731687634
 21
1417.5819623971793
  0
LINE
  8
_0-1_計細線
  6
CONTINUOUS
 62
    3
 10
2626.8616731687634
 20
1416.3819623971804
 11
2626.8616731687634
 21
1417.5819623971793
  0
LINE
  8
_0-1_計細線
  6
CONTINUOUS
 62
    3
 10
2628.861673168763
 20
1416.3819623971804
 11
2628.861673168763
 21
1417.5819623971793
  0
LINE
  8
_0-1_計細線
  6
CONTINUOUS
 62
    3
 10
2642.861673168763
 20
1416.3819623971804
 11
2642.861673168763
 21
1417.5819623971793
  0
ARC
  8
_0-1_計細線
  6
CONTINUOUS
 62
    3
 10
2621.8616731687634
 20
1540.5819623971795
 40
1
 50
0
 51
89.999999999999915
  0
LINE
  8
_0-1_計細線
  6
CONTINUOUS
 62
    3
 10
2610.861673168763
 20
1542.7819623971791
 11
2645.861673168763
 21
1542.7819623971791
  0
LINE
  8
_0-1_計細線
  6
CONTINUOUS
 62
    3
 10
2645.861673168763
 20
1542.7819623971791
 11
2645.861673168763
 21
1541.5819623971793
  0
LINE
  8
_0-1_計細線
  6
CONTINUOUS
 62
    3
 10
2645.861673168763
 20
1541.5819623971793
 11
2610.861673168763
 21
1541.5819623971793
  0
LINE
  8
_0-1_計細線
  6
CONTINUOUS
 62
    3
 10
2610.861673168763
 20
1541.5819623971793
 11
2610.861673168763
 21
1542.7819623971791
  0
LINE
  8
_0-1_計細線
  6
CONTINUOUS
 62
    3
 10
2612.861673168763
 20
1541.5819623971793
 11
2612.861673168763
 21
1542.7819623971791
  0
LINE
  8
_0-1_計細線
  6
CONTINUOUS
 62
    3
 10
2622.861673168763
 20
1541.5819623971793
 11
2622.861673168763
 21
1542.7819623971791
  0
LINE
  8
_0-1_計細線
  6
CONTINUOUS
 62
    3
 10
2624.8616731687634
 20
1541.5819623971793
 11
2624.8616731687634
 21
1542.7819623971791
  0
LINE
  8
_0-1_計細線
  6
CONTINUOUS
 62
    3
 10
2626.8616731687634
 20
1541.5819623971793
 11
2626.8616731687634
 21
1542.7819623971791
  0
LINE
  8
_0-1_計細線
  6
CONTINUOUS
 62
    3
 10
2628.861673168763
 20
1541.5819623971793
 11
2628.861673168763
 21
1542.7819623971791
  0
LINE
  8
_0-1_計細線
  6
CONTINUOUS
 62
    3
 10
2642.861673168763
 20
1541.5819623971793
 11
2642.861673168763
 21
1542.7819623971791
  0
LINE
  8
_0-1_計細線
  6
CONTINUOUS
 62
    3
 10
2610.861673168763
 20
1551.5819623971793
 11
2603.861673168763
 21
1551.5819623971793
  0
ARC
  8
_0-1_計細線
  6
CONTINUOUS
 62
    3
 10
2603.861673168763
 20
1550.5819623971795
 40
1
 50
89.999999999999915
 51
179.99999999999983
  0
LINE
  8
_0-1_計細線
  6
CONTINUOUS
 62
    3
 10
2602.861673168763
 20
1550.5819623971795
 11
2602.861673168763
 21
1408.5819623971793
  0
ARC
  8
_0-1_計細線
  6
CONTINUOUS
 62
    3
 10
2603.861673168763
 20
1408.5819623971793
 40
1
 50
179.99999999999983
 51
269.99999999994753
  0
LINE
  8
_0-1_計細線
  6
CONTINUOUS
 62
    3
 10
2610.861673168763
 20
1407.5819623971793
 11
2610.861673168763
 21
1551.5819623971793
  0
LINE
  8
_0-1_計細線
  6
CONTINUOUS
 62
    3
 10
2610.861673168763
 20
1407.5819623971793
 11
2603.8616731687621
 21
1407.5819623971793
  0
LINE
  8
_0-0_計極細
  6
CENTER2
 62
    2
 10
2563.6193667830253
 20
1479.5819623971793
 11
2678.8423883657579
 21
1479.5819623971793
  0
LINE
  8
_0-5_寸法線
  6
CONTINUOUS
 62
    7
 10
2602.861673168763
 20
1571.5819623971793
 11
2602.861673168763
 21
1661.58196239718
  0
LINE
  8
_0-5_寸法線
  6
CONTINUOUS
 62
    7
 10
2602.861673168763
 20
1651.58196239718
 11
2583.5431566429816
 21
1646.4055814951294
  0
LINE
  8
_0-5_寸法線
  6
CONTINUOUS
 62
    7
 10
2602.861673168763
 20
1651.58196239718
 11
2583.5431566429816
 21
1656.7583432992301
  0
LINE
  8
_0-5_寸法線
  6
CONTINUOUS
 62
    7
 10
2622.861673168763
 20
1562.7819623971791
 11
2622.861673168763
 21
1661.58196239718
  0
CIRCLE
  8
_0-5_寸法線
  6
CONTINUOUS
 62
    1
 10
2622.861673168763
 20
1651.58196239718
 40
3.0000000000000004
  0
LINE
  8
_0-5_寸法線
  6
CONTINUOUS
 62
    7
 10
2549.1596812297662
 20
1651.58196239718
 11
2622.861673168763
 21
1651.58196239718
  0
TEXT
  8
_0-5_寸法線
 62
    7
 10
2549.1596812297662
 20
1651.58196239718
 40
30
 41
1
 50
0
  1
20
  0
LINE
  8
_0-5_寸法線
  6
CONTINUOUS
 62
    7
 10
2645.861673168763
 20
1562.7819623971791
 11
2645.861673168763
 21
1661.58196239718
  0
LINE
  8
_0-5_寸法線
  6
CONTINUOUS
 62
    7
 10
2645.861673168763
 20
1651.58196239718
 11
2665.1801896945444
 21
1656.7583432992301
  0
LINE
  8
_0-5_寸法線
  6
CONTINUOUS
 62
    7
 10
2645.861673168763
 20
1651.58196239718
 11
2665.1801896945444
 21
1646.4055814951291
  0
LINE
  8
_0-5_寸法線
  6
CONTINUOUS
 62
    7
 10
2622.861673168763
 20
1651.58196239718
 11
2703.7881612213737
 21
1651.58196239718
  0
TEXT
  8
_0-5_寸法線
 62
    7
 10
2673.7881612213737
 20
1651.58196239718
 40
30
 41
1
 50
0
  1
23
  0
LINE
  8
_0-5_寸法線
  6
CONTINUOUS
 62
    7
 10
2602.861673168763
 20
1571.5819623971802
 11
2602.8616731687653
 21
1731.58196239718
  0
LINE
  8
_0-5_寸法線
  6
CONTINUOUS
 62
    7
 10
2602.8616731687653
 20
1721.58196239718
 11
2622.1801896945462
 21
1726.7583432992301
  0
LINE
  8
_0-5_寸法線
  6
CONTINUOUS
 62
    7
 10
2602.8616731687653
 20
1721.58196239718
 11
2622.1801896945462
 21
1716.4055814951294
  0
LINE
  8
_0-5_寸法線
  6
CONTINUOUS
 62
    7
 10
2645.861673168763
 20
1562.7819623971791
 11
2645.861673168763
 21
1731.58196239718
  0
LINE
  8
_0-5_寸法線
  6
CONTINUOUS
 62
    7
 10
2645.861673168763
 20
1721.58196239718
 11
2626.5431566429816
 21
1716.4055814951294
  0
LINE
  8
_0-5_寸法線
  6
CONTINUOUS
 62
    7
 10
2645.861673168763
 20
1721.58196239718
 11
2626.5431566429816
 21
1726.7583432992301
  0
LINE
  8
_0-5_寸法線
  6
CONTINUOUS
 62
    7
 10
2602.8616731687653
 20
1721.58196239718
 11
2645.861673168763
 21
1721.58196239718
  0
TEXT
  8
_0-5_寸法線
 62
    7
 10
2609.3616731687639
 20
1721.58196239718
 40
30
 41
1
 50
0
  1
43
  0
LINE
  8
_0-1_計細線
  6
CONTINUOUS
 62
    3
 10
2622.861673168763
 20
1540.5819623971795
 11
2622.861673168763
 21
1418.5819623971793
  0
ARC
  8
_0-1_計細線
  6
CONTINUOUS
 62
    3
 10
2621.8616731687634
 20
1418.5819623971793
 40
1
 50
269.99999999999977
 51
359.99999999999966
  0
ARC
  8
_0-1_計細線
  6
CONTINUOUS
 62
    3
 10
2625.3616731687639
 20
1536.5819623971793
 40
1.5000000000000002
 50
0
 51
89.999999999999915
  0
LINE
  8
_0-1_計細線
  6
CONTINUOUS
 62
    3
 10
2623.3616731687644
 20
1538.0819623971795
 11
2625.3616731687639
 21
1538.0819623971795
  0
ARC
  8
_0-1_計細線
  6
CONTINUOUS
 62
    3
 10
2623.3616731687644
 20
1538.5819623971793
 40
0.5
 50
179.99999999999983
 51
269.99999999999977
  0
LINE
  8
_0-1_計細線
  6
CONTINUOUS
 62
    3
 10
2623.3616731687644
 20
1421.0819623971793
 11
2625.3616731687639
 21
1421.0819623971793
  0
ARC
  8
_0-1_計細線
  6
CONTINUOUS
 62
    3
 10
2623.3616731687644
 20
1420.5819623971795
 40
0.5
 50
89.999999999999915
 51
179.99999999999983
  0
LINE
  8
_0-1_計細線
  6
CONTINUOUS
 62
    3
 10
2626.8616731687639
 20
1536.5819623971793
 11
2626.8616731687639
 21
1422.5819623971793
  0
ARC
  8
_0-1_計細線
  6
CONTINUOUS
 62
    3
 10
2625.3616731687639
 20
1422.5819623971793
 40
1.5000000000000002
 50
269.99999999999977
 51
359.99999999999966
  0
ARC
  8
_0-0_計極細
  6
CONTINUOUS
 62
    2
 10
2241.2457517445255
 20
1508.5819623970949
 40
54.312365187078854
 50
327.72737804884258
 51
33.846056193751515
  0
ARC
  8
_0-0_計極細
  6
CONTINUOUS
 62
    2
 10
2333.0898155095774
 20
1450.5819623972707
 40
54.312365187078854
 50
147.72737804884292
 51
213.84605619376094
  0
LINE
  8
_0-0_計極細
  6
CONTINUOUS
 62
    2
 10
711.16778174699743
 20
1461.3319642572285
 11
711.16778174699743
 21
1466.8319640372233
  0
LINE
  8
_0-0_計極細
  6
CONTINUOUS
 62
    2
 10
711.16778174699743
 20
1482.3319634172074
 11
711.16778174699743
 21
1476.831963637213
  0
LINE
  8
_0-0_計極細
  6
CONTINUOUS
 62
    2
 10
700.21778435233489
 20
1482.3319623971811
 11
700.21778435233489
 21
1480.7319634812177
  0
LINE
  8
_0-0_計極細
  6
CONTINUOUS
 62
    2
 10
700.21778435233489
 20
1479.7319635212173
 11
700.21778435233489
 21
1476.8319623971809
  0
LINE
  8
_0-0_計極細
  6
CONTINUOUS
 62
    2
 10
707.11778435245719
 20
1482.3319623971811
 11
707.11778435245719
 21
1480.7319634812177
  0
LINE
  8
_0-0_計極細
  6
CONTINUOUS
 62
    2
 10
707.11778435245719
 20
1479.7319635212173
 11
707.11778435245719
 21
1476.8319623971809
  0
LINE
  8
_0-0_計極細
  6
CONTINUOUS
 62
    2
 10
700.21778435233489
 20
1461.3319623971811
 11
700.21778435233489
 21
1462.9319641932182
  0
LINE
  8
_0-0_計極細
  6
CONTINUOUS
 62
    2
 10
700.21778435233489
 20
1463.9319641532184
 11
700.21778435233489
 21
1466.8319623971809
  0
LINE
  8
_0-0_計極細
  6
CONTINUOUS
 62
    2
 10
707.11778435245719
 20
1461.3319623971811
 11
707.11778435245719
 21
1462.9319641932182
  0
LINE
  8
_0-0_計極細
  6
CONTINUOUS
 62
    2
 10
707.11778435245719
 20
1463.9319641532184
 11
707.11778435245719
 21
1466.8319623971809
  0
LINE
  8
_0-0_計極細
  6
CONTINUOUS
 62
    2
 10
667.6677835070052
 20
1461.9319642332177
 11
676.66778314700639
 21
1461.9319642332177
  0
LINE
  8
_0-0_計極細
  6
CONTINUOUS
 62
    2
 10
667.6677835070052
 20
1461.9319642332177
 11
667.6677835070052
 21
1462.9319641932182
  0
LINE
  8
_0-0_計極細
  6
CONTINUOUS
 62
    2
 10
676.66778314700639
 20
1461.9319642332177
 11
676.66778314700639
 21
1462.9319641932182
  0
LINE
  8
_0-0_計極細
  6
CONTINUOUS
 62
    2
 10
667.6677835070052
 20
1481.7319634412179
 11
676.66778314700639
 21
1481.7319634412179
  0
LINE
  8
_0-0_計極細
  6
CONTINUOUS
 62
    2
 10
667.6677835070052
 20
1481.7319634412179
 11
667.6677835070052
 21
1480.7319634812177
  0
LINE
  8
_0-0_計極細
  6
CONTINUOUS
 62
    2
 10
676.66778314700639
 20
1481.7319634412179
 11
676.66778314700639
 21
1480.7319634812177
  0
LINE
  8
_0-1_計細線
  6
CONTINUOUS
 62
    3
 10
708.66778186700571
 20
1479.7319635212173
 11
708.66778186700571
 21
1480.7319634812177
  0
LINE
  8
_0-1_計細線
  6
CONTINUOUS
 62
    3
 10
695.86778237900648
 20
1479.7319635212173
 11
708.66778186700571
 21
1479.7319635212173
  0
LINE
  8
_0-1_計細線
  6
CONTINUOUS
 62
    3
 10
708.66778186700571
 20
1480.7319634812177
 11
666.66778354700568
 21
1480.7319634812177
  0
LINE
  8
_0-1_計細線
  6
CONTINUOUS
 62
    3
 10
666.66778354700568
 20
1462.9319641932182
 11
708.66778186700571
 21
1462.9319641932182
  0
LINE
  8
_0-1_計細線
  6
CONTINUOUS
 62
    3
 10
708.66778186700571
 20
1463.9319641532184
 11
695.86778237900648
 21
1463.9319641532184
  0
LINE
  8
_0-1_計細線
  6
CONTINUOUS
 62
    3
 10
708.66778186700571
 20
1462.9319641932182
 11
708.66778186700571
 21
1463.9319641532184
  0
LINE
  8
_0-1_計細線
  6
CONTINUOUS
 62
    3
 10
695.86778237900648
 20
1462.9319641932182
 11
695.86778237900648
 21
1480.7319634812177
  0
LINE
  8
_0-1_計細線
  6
CONTINUOUS
 62
    3
 10
666.66778354700568
 20
1480.7319634812177
 11
666.66778354700568
 21
1462.9319641932182
  0
LINE
  8
_0-1_計細線
  6
CONTINUOUS
 62
    3
 10
698.16778226700649
 20
1476.831963637213
 11
698.16778226700649
 21
1466.8319640372233
  0
LINE
  8
_0-0_計極細
  6
CONTINUOUS
 62
    2
 10
671.16778334700598
 20
1482.3319634172074
 11
671.16778334700598
 21
1481.7319634412179
  0
LINE
  8
_0-0_計極細
  6
CONTINUOUS
 62
    2
 10
671.16778334700598
 20
1461.9319642332177
 11
671.16778334700598
 21
1461.3319642572285
  0
LINE
  8
_0-0_計極細
  6
CONTINUOUS
 62
    2
 10
711.16778174699743
 20
1497.8319627971907
 11
711.16778174699743
 21
1492.3319630171973
  0
LINE
  8
_0-0_計極細
  6
CONTINUOUS
 62
    2
 10
671.16778334700598
 20
1497.8319627971907
 11
671.16778334700598
 21
1492.3319630171973
  0
LINE
  8
_0-0_計極細
  6
CONTINUOUS
 62
    2
 10
707.11778203190488
 20
1497.83196239718
 11
707.11778434308303
 21
1492.3319623971811
  0
LINE
  8
_0-0_計極細
  6
CONTINUOUS
 62
    2
 10
700.2177820621082
 20
1497.83196239718
 11
700.21778434308317
 21
1492.3319623971811
  0
LINE
  8
_0-0_計極細
  6
CONTINUOUS
 62
    2
 10
711.16778174699743
 20
1513.331962797191
 11
711.16778174699743
 21
1507.831963017197
  0
LINE
  8
_0-0_計極細
  6
CONTINUOUS
 62
    2
 10
671.16778334700598
 20
1513.331962797191
 11
671.16778334700598
 21
1507.831963017197
  0
LINE
  8
_0-0_計極細
  6
CONTINUOUS
 62
    2
 10
707.11778203190488
 20
1513.3319623971802
 11
707.11778434308303
 21
1507.8319623971809
  0
LINE
  8
_0-0_計極細
  6
CONTINUOUS
 62
    2
 10
700.2177820621082
 20
1513.3319623971802
 11
700.21778434308317
 21
1507.8319623971809
  0
LINE
  8
_0-0_計極細
  6
CONTINUOUS
 62
    2
 10
711.16778174699743
 20
1528.8319627971905
 11
711.16778174699743
 21
1523.3319630171966
  0
LINE
  8
_0-0_計極細
  6
CONTINUOUS
 62
    2
 10
671.16778334700598
 20
1528.8319627971905
 11
671.16778334700598
 21
1523.3319630171966
  0
LINE
  8
_0-0_計極細
  6
CONTINUOUS
 62
    2
 10
707.11778203190488
 20
1528.83196239718
 11
707.11778434308303
 21
1523.3319623971802
  0
LINE
  8
_0-0_計極細
  6
CONTINUOUS
 62
    2
 10
700.2177820621082
 20
1528.83196239718
 11
700.21778434308317
 21
1523.3319623971802
  0
LINE
  8
_0-0_計極細
  6
CONTINUOUS
 62
    2
 10
711.16778174699743
 20
1451.3319627971921
 11
711.16778174699743
 21
1445.8319630171986
  0
LINE
  8
_0-0_計極細
  6
CONTINUOUS
 62
    2
 10
671.16778334700598
 20
1451.3319627971921
 11
671.16778334700598
 21
1445.8319630171986
  0
LINE
  8
_0-0_計極細
  6
CONTINUOUS
 62
    2
 10
707.11778203190488
 20
1451.331962397182
 11
707.11778434308303
 21
1445.8319623971818
  0
LINE
  8
_0-0_計極細
  6
CONTINUOUS
 62
    2
 10
700.2177820621082
 20
1451.331962397182
 11
700.21778434308317
 21
1445.8319623971818
  0
LINE
  8
_0-0_計極細
  6
CONTINUOUS
 62
    2
 10
711.16778174699743
 20
1435.8319627971925
 11
711.16778174699743
 21
1430.3319630171991
  0
LINE
  8
_0-0_計極細
  6
CONTINUOUS
 62
    2
 10
671.16778334700598
 20
1435.8319627971925
 11
671.16778334700598
 21
1430.3319630171991
  0
LINE
  8
_0-0_計極細
  6
CONTINUOUS
 62
    2
 10
707.11778203190488
 20
1435.8319623971818
 11
707.11778434308303
 21
1430.3319623971829
  0
LINE
  8
_0-0_計極細
  6
CONTINUOUS
 62
    2
 10
700.2177820621082
 20
1435.8319623971818
 11
700.21778434308317
 21
1430.3319623971829
  0
LINE
  8
_0-0_計極細
  6
CONTINUOUS
 62
    2
 10
989.11777973582844
 20
1528.831962397179
 11
989.11778204700681
 21
1523.3319623971802
  0
LINE
  8
_0-0_計極細
  6
CONTINUOUS
 62
    2
 10
982.21777976603175
 20
1528.831962397179
 11
982.21778204700672
 21
1523.3319623971802
  0
LINE
  8
_0-0_計極細
  6
CONTINUOUS
 62
    2
 10
993.16778174699891
 20
1528.8319613571527
 11
993.16778174699891
 21
1523.3319615771586
  0
LINE
  8
_0-0_計極細
  6
CONTINUOUS
 62
    2
 10
978.16778234701451
 20
1528.8319613571527
 11
978.16778234701451
 21
1523.3319615771586
  0
LINE
  8
_0-0_計極細
  6
CONTINUOUS
 62
    2
 10
989.11777973582844
 20
1513.3319623971802
 11
989.11778204700681
 21
1507.83196239718
  0
LINE
  8
_0-0_計極細
  6
CONTINUOUS
 62
    2
 10
982.21777976603175
 20
1513.3319623971802
 11
982.21778204700672
 21
1507.83196239718
  0
LINE
  8
_0-0_計極細
  6
CONTINUOUS
 62
    2
 10
993.16778174699891
 20
1513.3319613571532
 11
993.16778174699891
 21
1507.8319615771597
  0
LINE
  8
_0-0_計極細
  6
CONTINUOUS
 62
    2
 10
978.16778234701451
 20
1513.3319613571532
 11
978.16778234701451
 21
1507.8319615771597
  0
LINE
  8
_0-0_計極細
  6
CONTINUOUS
 62
    2
 10
989.11777973582844
 20
1497.83196239718
 11
989.11778204700681
 21
1492.3319623971802
  0
LINE
  8
_0-0_計極細
  6
CONTINUOUS
 62
    2
 10
982.21777976603175
 20
1497.83196239718
 11
982.21778204700672
 21
1492.3319623971802
  0
LINE
  8
_0-0_計極細
  6
CONTINUOUS
 62
    2
 10
993.16778174699891
 20
1497.8319613571532
 11
993.16778174699891
 21
1492.3319615771595
  0
LINE
  8
_0-0_計極細
  6
CONTINUOUS
 62
    2
 10
978.16778234701451
 20
1497.8319613571532
 11
978.16778234701451
 21
1492.3319615771595
  0
LINE
  8
_0-0_計極細
  6
CONTINUOUS
 62
    2
 10
989.11777973582844
 20
1482.3319623971802
 11
989.11778204700681
 21
1476.8319623971809
  0
LINE
  8
_0-0_計極細
  6
CONTINUOUS
 62
    2
 10
982.21777976603175
 20
1482.3319623971802
 11
982.21778204700672
 21
1476.8319623971809
  0
LINE
  8
_0-0_計極細
  6
CONTINUOUS
 62
    2
 10
993.16778174699891
 20
1482.3319613571537
 11
993.16778174699891
 21
1476.8319615771597
  0
LINE
  8
_0-0_計極細
  6
CONTINUOUS
 62
    2
 10
978.16778234701451
 20
1482.3319613571537
 11
978.16778234701451
 21
1476.8319615771597
  0
LINE
  8
_0-0_計極細
  6
CONTINUOUS
 62
    2
 10
989.11777973582844
 20
1466.8319623971809
 11
989.11778204700681
 21
1461.3319623971811
  0
LINE
  8
_0-0_計極細
  6
CONTINUOUS
 62
    2
 10
982.21777976603175
 20
1466.8319623971809
 11
982.21778204700672
 21
1461.3319623971811
  0
LINE
  8
_0-0_計極細
  6
CONTINUOUS
 62
    2
 10
993.16778174699891
 20
1466.8319613571541
 11
993.16778174699891
 21
1461.3319615771604
  0
LINE
  8
_0-0_計極細
  6
CONTINUOUS
 62
    2
 10
978.16778234701451
 20
1466.8319613571541
 11
978.16778234701451
 21
1461.3319615771604
  0
LINE
  8
_0-0_計極細
  6
CONTINUOUS
 62
    2
 10
989.11777973582844
 20
1451.3319623971811
 11
989.11778204700681
 21
1445.8319623971818
  0
LINE
  8
_0-0_計極細
  6
CONTINUOUS
 62
    2
 10
982.21777976603175
 20
1451.3319623971811
 11
982.21778204700672
 21
1445.8319623971818
  0
LINE
  8
_0-0_計極細
  6
CONTINUOUS
 62
    2
 10
993.16778174699891
 20
1451.3319613571546
 11
993.16778174699891
 21
1445.8319615771607
  0
LINE
  8
_0-0_計極細
  6
CONTINUOUS
 62
    2
 10
978.16778234701451
 20
1451.3319613571546
 11
978.16778234701451
 21
1445.8319615771607
  0
LINE
  8
_0-0_計極細
  6
CONTINUOUS
 62
    2
 10
989.11777973582844
 20
1435.8319623971818
 11
989.11778204700681
 21
1430.331962397182
  0
LINE
  8
_0-0_計極細
  6
CONTINUOUS
 62
    2
 10
982.21777976603175
 20
1435.8319623971818
 11
982.21778204700672
 21
1430.331962397182
  0
LINE
  8
_0-0_計極細
  6
CONTINUOUS
 62
    2
 10
993.16778174699891
 20
1435.831961357155
 11
993.16778174699891
 21
1430.3319615771613
  0
LINE
  8
_0-0_計極細
  6
CONTINUOUS
 62
    2
 10
978.16778234701451
 20
1435.831961357155
 11
978.16778234701451
 21
1430.3319615771613
  0
LINE
  8
_0-0_計極細
  6
CONTINUOUS
 62
    2
 10
1271.1177820319049
 20
1528.831962397179
 11
1271.1177843430833
 21
1523.3319623971802
  0
LINE
  8
_0-0_計極細
  6
CONTINUOUS
 62
    2
 10
1264.2177820621082
 20
1528.831962397179
 11
1264.2177843430832
 21
1523.3319623971802
  0
LINE
  8
_0-0_計極細
  6
CONTINUOUS
 62
    2
 10
1275.1677840430752
 20
1528.8319613571527
 11
1275.1677840430752
 21
1523.3319615771586
  0
LINE
  8
_0-0_計極細
  6
CONTINUOUS
 62
    2
 10
1260.1677846430907
 20
1528.8319613571527
 11
1260.1677846430907
 21
1523.3319615771586
  0
LINE
  8
_0-0_計極細
  6
CONTINUOUS
 62
    2
 10
1271.1177820319049
 20
1513.3319623971802
 11
1271.1177843430833
 21
1507.83196239718
  0
LINE
  8
_0-0_計極細
  6
CONTINUOUS
 62
    2
 10
1264.2177820621082
 20
1513.3319623971802
 11
1264.2177843430832
 21
1507.83196239718
  0
LINE
  8
_0-0_計極細
  6
CONTINUOUS
 62
    2
 10
1275.1677840430752
 20
1513.3319613571532
 11
1275.1677840430752
 21
1507.8319615771597
  0
LINE
  8
_0-0_計極細
  6
CONTINUOUS
 62
    2
 10
1260.1677846430907
 20
1513.3319613571532
 11
1260.1677846430907
 21
1507.8319615771597
  0
LINE
  8
_0-0_計極細
  6
CONTINUOUS
 62
    2
 10
1271.1177820319049
 20
1497.83196239718
 11
1271.1177843430833
 21
1492.3319623971802
  0
LINE
  8
_0-0_計極細
  6
CONTINUOUS
 62
    2
 10
1264.2177820621082
 20
1497.83196239718
 11
1264.2177843430832
 21
1492.3319623971802
  0
LINE
  8
_0-0_計極細
  6
CONTINUOUS
 62
    2
 10
1275.1677840430752
 20
1497.8319613571532
 11
1275.1677840430752
 21
1492.3319615771595
  0
LINE
  8
_0-0_計極細
  6
CONTINUOUS
 62
    2
 10
1260.1677846430907
 20
1497.8319613571532
 11
1260.1677846430907
 21
1492.3319615771595
  0
LINE
  8
_0-0_計極細
  6
CONTINUOUS
 62
    2
 10
1271.1177820319049
 20
1482.3319623971802
 11
1271.1177843430833
 21
1476.8319623971809
  0
LINE
  8
_0-0_計極細
  6
CONTINUOUS
 62
    2
 10
1264.2177820621082
 20
1482.3319623971802
 11
1264.2177843430832
 21
1476.8319623971809
  0
LINE
  8
_0-0_計極細
  6
CONTINUOUS
 62
    2
 10
1275.1677840430752
 20
1482.3319613571537
 11
1275.1677840430752
 21
1476.8319615771597
  0
LINE
  8
_0-0_計極細
  6
CONTINUOUS
 62
    2
 10
1260.1677846430907
 20
1482.3319613571537
 11
1260.1677846430907
 21
1476.8319615771597
  0
LINE
  8
_0-0_計極細
  6
CONTINUOUS
 62
    2
 10
1271.1177820319049
 20
1466.8319623971809
 11
1271.1177843430833
 21
1461.3319623971811
  0
LINE
  8
_0-0_計極細
  6
CONTINUOUS
 62
    2
 10
1264.2177820621082
 20
1466.8319623971809
 11
1264.2177843430832
 21
1461.3319623971811
  0
LINE
  8
_0-0_計極細
  6
CONTINUOUS
 62
    2
 10
1275.1677840430752
 20
1466.8319613571541
 11
1275.1677840430752
 21
1461.3319615771604
  0
LINE
  8
_0-0_計極細
  6
CONTINUOUS
 62
    2
 10
1260.1677846430907
 20
1466.8319613571541
 11
1260.1677846430907
 21
1461.3319615771604
  0
LINE
  8
_0-0_計極細
  6
CONTINUOUS
 62
    2
 10
1271.1177820319049
 20
1451.3319623971811
 11
1271.1177843430833
 21
1445.8319623971818
  0
LINE
  8
_0-0_計極細
  6
CONTINUOUS
 62
    2
 10
1264.2177820621082
 20
1451.3319623971811
 11
1264.2177843430832
 21
1445.8319623971818
  0
LINE
  8
_0-0_計極細
  6
CONTINUOUS
 62
    2
 10
1275.1677840430752
 20
1451.3319613571546
 11
1275.1677840430752
 21
1445.8319615771607
  0
LINE
  8
_0-0_計極細
  6
CONTINUOUS
 62
    2
 10
1260.1677846430907
 20
1451.3319613571546
 11
1260.1677846430907
 21
1445.8319615771607
  0
LINE
  8
_0-0_計極細
  6
CONTINUOUS
 62
    2
 10
1271.1177820319049
 20
1435.8319623971818
 11
1271.1177843430833
 21
1430.331962397182
  0
LINE
  8
_0-0_計極細
  6
CONTINUOUS
 62
    2
 10
1264.2177820621082
 20
1435.8319623971818
 11
1264.2177843430832
 21
1430.331962397182
  0
LINE
  8
_0-0_計極細
  6
CONTINUOUS
 62
    2
 10
1275.1677840430752
 20
1435.831961357155
 11
1275.1677840430752
 21
1430.3319615771613
  0
LINE
  8
_0-0_計極細
  6
CONTINUOUS
 62
    2
 10
1260.1677846430907
 20
1435.831961357155
 11
1260.1677846430907
 21
1430.3319615771613
  0
LINE
  8
_0-1_計細線
  6
CONTINUOUS
 62
    3
 10
664.16778362704758
 20
1492.331962397179
 11
664.16778362704758
 21
1482.331962397179
  0
LINE
  8
_0-1_計細線
  6
CONTINUOUS
 62
    3
 10
664.16778362704758
 20
1482.331962397179
 11
2288.7933122731074
 21
1482.331962397179
  0
LINE
  8
_0-1_計細線
  6
CONTINUOUS
 62
    3
 10
2293.0701717819702
 20
1492.331962397179
 11
664.16778362704758
 21
1492.331962397179
  0
LINE
  8
_0-1_計細線
  6
CONTINUOUS
 62
    3
 10
664.16778362704758
 20
1507.831962397179
 11
664.16778362704758
 21
1497.831962397179
  0
LINE
  8
_0-1_計細線
  6
CONTINUOUS
 62
    3
 10
664.16778362704758
 20
1497.831962397179
 11
2294.4836190216465
 21
1497.831962397179
  0
LINE
  8
_0-1_計細線
  6
CONTINUOUS
 62
    3
 10
2295.5529383059265
 20
1507.831962397179
 11
664.16778362704758
 21
1507.831962397179
  0
LINE
  8
_0-1_計細線
  6
CONTINUOUS
 62
    3
 10
664.16778362704758
 20
1523.3319623971793
 11
664.16778362704758
 21
1513.3319623971793
  0
LINE
  8
_0-1_計細線
  6
CONTINUOUS
 62
    3
 10
664.16778362704758
 20
1513.3319623971793
 11
2295.350007697396
 21
1513.3319623971793
  0
LINE
  8
_0-1_計細線
  6
CONTINUOUS
 62
    3
 10
2293.5168767774903
 20
1523.3319623971793
 11
664.16778362704758
 21
1523.3319623971793
  0
LINE
  8
_0-1_計細線
  6
CONTINUOUS
 62
    3
 10
664.16778362704758
 20
1538.8319623971802
 11
664.16778362704758
 21
1528.831962397179
  0
LINE
  8
_0-1_計細線
  6
CONTINUOUS
 62
    3
 10
664.16778362704758
 20
1528.831962397179
 11
2291.6418876302396
 21
1528.831962397179
  0
LINE
  8
_0-1_計細線
  6
CONTINUOUS
 62
    3
 10
2286.3541823557698
 20
1538.8319623971802
 11
664.16778362704758
 21
1538.8319623971802
  0
LINE
  8
_0-1_計細線
  6
CONTINUOUS
 62
    3
 10
664.16778362704758
 20
1430.3319623971784
 11
664.16778362704758
 21
1420.3319623971784
  0
LINE
  8
_0-1_計細線
  6
CONTINUOUS
 62
    3
 10
664.16778362704758
 20
1420.3319623971784
 11
2287.9813848983376
 21
1420.3319623971784
  0
LINE
  8
_0-1_計細線
  6
CONTINUOUS
 62
    3
 10
2282.6936796238715
 20
1430.3319623971784
 11
664.16778362704758
 21
1430.3319623971784
  0
LINE
  8
_0-1_計細線
  6
CONTINUOUS
 62
    3
 10
664.16778362704758
 20
1445.8319623971781
 11
664.16778362704758
 21
1435.8319623971781
  0
LINE
  8
_0-1_計細線
  6
CONTINUOUS
 62
    3
 10
664.16778362704758
 20
1435.8319623971781
 11
2280.8186904766135
 21
1435.8319623971781
  0
LINE
  8
_0-1_計細線
  6
CONTINUOUS
 62
    3
 10
2278.9855595567014
 20
1445.8319623971781
 11
664.16778362704758
 21
1445.8319623971781
  0
LINE
  8
_0-1_計細線
  6
CONTINUOUS
 62
    3
 10
664.16778362704758
 20
1461.331962397179
 11
664.16778362704758
 21
1451.3319623971781
  0
LINE
  8
_0-1_計細線
  6
CONTINUOUS
 62
    3
 10
664.16778362704758
 20
1451.3319623971781
 11
2278.7826289481754
 21
1451.3319623971781
  0
LINE
  8
_0-1_計細線
  6
CONTINUOUS
 62
    3
 10
2279.8519482324527
 20
1461.331962397179
 11
664.16778362704758
 21
1461.331962397179
  0
LINE
  8
_0-1_計細線
  6
CONTINUOUS
 62
    3
 10
698.16778226700649
 20
1466.8319623971793
 11
2281.2653954721281
 21
1466.8319623971793
  0
LINE
  8
_0-1_計細線
  6
CONTINUOUS
 62
    3
 10
2285.5422549809882
 20
1476.8319623971793
 11
698.16778226700649
 21
1476.8319623971793
  0
LINE
  8
_0-0_計極細
  6
CONTINUOUS
 62
    2
 10
2110.2177846643463
 20
1528.831962397179
 11
2110.2177823531683
 21
1523.3319623971802
  0
LINE
  8
_0-0_計極細
  6
CONTINUOUS
 62
    2
 10
2117.1177846341429
 20
1528.831962397179
 11
2117.117782353168
 21
1523.3319623971802
  0
LINE
  8
_0-0_計極細
  6
CONTINUOUS
 62
    2
 10
2106.1677826531759
 20
1528.8319613571527
 11
2106.1677826531759
 21
1523.3319615771586
  0
LINE
  8
_0-0_計極細
  6
CONTINUOUS
 62
    2
 10
2121.1677820531604
 20
1528.8319613571527
 11
2121.1677820531604
 21
1523.3319615771586
  0
LINE
  8
_0-0_計極細
  6
CONTINUOUS
 62
    2
 10
2110.2177846643463
 20
1513.3319623971802
 11
2110.2177823531683
 21
1507.83196239718
  0
LINE
  8
_0-0_計極細
  6
CONTINUOUS
 62
    2
 10
2117.1177846341429
 20
1513.3319623971802
 11
2117.117782353168
 21
1507.83196239718
  0
LINE
  8
_0-0_計極細
  6
CONTINUOUS
 62
    2
 10
2106.1677826531759
 20
1513.3319613571532
 11
2106.1677826531759
 21
1507.8319615771597
  0
LINE
  8
_0-0_計極細
  6
CONTINUOUS
 62
    2
 10
2121.1677820531604
 20
1513.3319613571532
 11
2121.1677820531604
 21
1507.8319615771597
  0
LINE
  8
_0-0_計極細
  6
CONTINUOUS
 62
    2
 10
2110.2177846643463
 20
1497.83196239718
 11
2110.2177823531683
 21
1492.3319623971802
  0
LINE
  8
_0-0_計極細
  6
CONTINUOUS
 62
    2
 10
2117.1177846341429
 20
1497.83196239718
 11
2117.117782353168
 21
1492.3319623971802
  0
LINE
  8
_0-0_計極細
  6
CONTINUOUS
 62
    2
 10
2106.1677826531759
 20
1497.8319613571532
 11
2106.1677826531759
 21
1492.3319615771595
  0
LINE
  8
_0-0_計極細
  6
CONTINUOUS
 62
    2
 10
2121.1677820531604
 20
1497.8319613571532
 11
2121.1677820531604
 21
1492.3319615771595
  0
LINE
  8
_0-0_計極細
  6
CONTINUOUS
 62
    2
 10
2110.2177846643463
 20
1482.3319623971802
 11
2110.2177823531683
 21
1476.8319623971809
  0
LINE
  8
_0-0_計極細
  6
CONTINUOUS
 62
    2
 10
2117.1177846341429
 20
1482.3319623971802
 11
2117.117782353168
 21
1476.8319623971809
  0
LINE
  8
_0-0_計極細
  6
CONTINUOUS
 62
    2
 10
2106.1677826531759
 20
1482.3319613571537
 11
2106.1677826531759
 21
1476.8319615771597
  0
LINE
  8
_0-0_計極細
  6
CONTINUOUS
 62
    2
 10
2121.1677820531604
 20
1482.3319613571537
 11
2121.1677820531604
 21
1476.8319615771597
  0
LINE
  8
_0-0_計極細
  6
CONTINUOUS
 62
    2
 10
2110.2177846643463
 20
1466.8319623971809
 11
2110.2177823531683
 21
1461.3319623971811
  0
LINE
  8
_0-0_計極細
  6
CONTINUOUS
 62
    2
 10
2117.1177846341429
 20
1466.8319623971809
 11
2117.117782353168
 21
1461.3319623971811
  0
LINE
  8
_0-0_計極細
  6
CONTINUOUS
 62
    2
 10
2106.1677826531759
 20
1466.8319613571541
 11
2106.1677826531759
 21
1461.3319615771604
  0
LINE
  8
_0-0_計極細
  6
CONTINUOUS
 62
    2
 10
2121.1677820531604
 20
1466.8319613571541
 11
2121.1677820531604
 21
1461.3319615771604
  0
LINE
  8
_0-0_計極細
  6
CONTINUOUS
 62
    2
 10
2110.2177846643463
 20
1451.3319623971811
 11
2110.2177823531683
 21
1445.8319623971818
  0
LINE
  8
_0-0_計極細
  6
CONTINUOUS
 62
    2
 10
2117.1177846341429
 20
1451.3319623971811
 11
2117.117782353168
 21
1445.8319623971818
  0
LINE
  8
_0-0_計極細
  6
CONTINUOUS
 62
    2
 10
2106.1677826531759
 20
1451.3319613571546
 11
2106.1677826531759
 21
1445.8319615771607
  0
LINE
  8
_0-0_計極細
  6
CONTINUOUS
 62
    2
 10
2121.1677820531604
 20
1451.3319613571546
 11
2121.1677820531604
 21
1445.8319615771607
  0
LINE
  8
_0-0_計極細
  6
CONTINUOUS
 62
    2
 10
2110.2177846643463
 20
1435.8319623971818
 11
2110.2177823531683
 21
1430.331962397182
  0
LINE
  8
_0-0_計極細
  6
CONTINUOUS
 62
    2
 10
2117.1177846341429
 20
1435.8319623971818
 11
2117.117782353168
 21
1430.331962397182
  0
LINE
  8
_0-0_計極細
  6
CONTINUOUS
 62
    2
 10
2106.1677826531759
 20
1435.831961357155
 11
2106.1677826531759
 21
1430.3319615771613
  0
LINE
  8
_0-0_計極細
  6
CONTINUOUS
 62
    2
 10
2121.1677820531604
 20
1435.831961357155
 11
2121.1677820531604
 21
1430.3319615771613
  0
LINE
  8
_0-0_計極細
  6
CONTINUOUS
 62
    2
 10
1828.2177823682698
 20
1528.831962397179
 11
1828.2177800570914
 21
1523.3319623971802
  0
LINE
  8
_0-0_計極細
  6
CONTINUOUS
 62
    2
 10
1835.1177823380667
 20
1528.831962397179
 11
1835.1177800570917
 21
1523.3319623971802
  0
LINE
  8
_0-0_計極細
  6
CONTINUOUS
 62
    2
 10
1824.1677803570997
 20
1528.8319613571527
 11
1824.1677803570997
 21
1523.3319615771586
  0
LINE
  8
_0-0_計極細
  6
CONTINUOUS
 62
    2
 10
1839.1677797570842
 20
1528.8319613571527
 11
1839.1677797570842
 21
1523.3319615771586
  0
LINE
  8
_0-0_計極細
  6
CONTINUOUS
 62
    2
 10
1828.2177823682698
 20
1513.3319623971802
 11
1828.2177800570914
 21
1507.83196239718
  0
LINE
  8
_0-0_計極細
  6
CONTINUOUS
 62
    2
 10
1835.1177823380667
 20
1513.3319623971802
 11
1835.1177800570917
 21
1507.83196239718
  0
LINE
  8
_0-0_計極細
  6
CONTINUOUS
 62
    2
 10
1824.1677803570997
 20
1513.3319613571532
 11
1824.1677803570997
 21
1507.8319615771597
  0
LINE
  8
_0-0_計極細
  6
CONTINUOUS
 62
    2
 10
1839.1677797570842
 20
1513.3319613571532
 11
1839.1677797570842
 21
1507.8319615771597
  0
LINE
  8
_0-0_計極細
  6
CONTINUOUS
 62
    2
 10
1828.2177823682698
 20
1497.83196239718
 11
1828.2177800570914
 21
1492.3319623971802
  0
LINE
  8
_0-0_計極細
  6
CONTINUOUS
 62
    2
 10
1835.1177823380667
 20
1497.83196239718
 11
1835.1177800570917
 21
1492.3319623971802
  0
LINE
  8
_0-0_計極細
  6
CONTINUOUS
 62
    2
 10
1824.1677803570997
 20
1497.8319613571532
 11
1824.1677803570997
 21
1492.3319615771595
  0
LINE
  8
_0-0_計極細
  6
CONTINUOUS
 62
    2
 10
1839.1677797570842
 20
1497.8319613571532
 11
1839.1677797570842
 21
1492.3319615771595
  0
LINE
  8
_0-0_計極細
  6
CONTINUOUS
 62
    2
 10
1828.2177823682698
 20
1482.3319623971802
 11
1828.2177800570914
 21
1476.8319623971809
  0
LINE
  8
_0-0_計極細
  6
CONTINUOUS
 62
    2
 10
1835.1177823380667
 20
1482.3319623971802
 11
1835.1177800570917
 21
1476.8319623971809
  0
LINE
  8
_0-0_計極細
  6
CONTINUOUS
 62
    2
 10
1824.1677803570997
 20
1482.3319613571537
 11
1824.1677803570997
 21
1476.8319615771597
  0
LINE
  8
_0-0_計極細
  6
CONTINUOUS
 62
    2
 10
1839.1677797570842
 20
1482.3319613571537
 11
1839.1677797570842
 21
1476.8319615771597
  0
LINE
  8
_0-0_計極細
  6
CONTINUOUS
 62
    2
 10
1828.2177823682698
 20
1466.8319623971809
 11
1828.2177800570914
 21
1461.3319623971811
  0
LINE
  8
_0-0_計極細
  6
CONTINUOUS
 62
    2
 10
1835.1177823380667
 20
1466.8319623971809
 11
1835.1177800570917
 21
1461.3319623971811
  0
LINE
  8
_0-0_計極細
  6
CONTINUOUS
 62
    2
 10
1824.1677803570997
 20
1466.8319613571541
 11
1824.1677803570997
 21
1461.3319615771604
  0
LINE
  8
_0-0_計極細
  6
CONTINUOUS
 62
    2
 10
1839.1677797570842
 20
1466.8319613571541
 11
1839.1677797570842
 21
1461.3319615771604
  0
LINE
  8
_0-0_計極細
  6
CONTINUOUS
 62
    2
 10
1828.2177823682698
 20
1451.3319623971811
 11
1828.2177800570914
 21
1445.8319623971818
  0
LINE
  8
_0-0_計極細
  6
CONTINUOUS
 62
    2
 10
1835.1177823380667
 20
1451.3319623971811
 11
1835.1177800570917
 21
1445.8319623971818
  0
LINE
  8
_0-0_計極細
  6
CONTINUOUS
 62
    2
 10
1824.1677803570997
 20
1451.3319613571546
 11
1824.1677803570997
 21
1445.8319615771607
  0
LINE
  8
_0-0_計極細
  6
CONTINUOUS
 62
    2
 10
1839.1677797570842
 20
1451.3319613571546
 11
1839.1677797570842
 21
1445.8319615771607
  0
LINE
  8
_0-0_計極細
  6
CONTINUOUS
 62
    2
 10
1828.2177823682698
 20
1435.8319623971818
 11
1828.2177800570914
 21
1430.331962397182
  0
LINE
  8
_0-0_計極細
  6
CONTINUOUS
 62
    2
 10
1835.1177823380667
 20
1435.8319623971818
 11
1835.1177800570917
 21
1430.331962397182
  0
LINE
  8
_0-0_計極細
  6
CONTINUOUS
 62
    2
 10
1824.1677803570997
 20
1435.831961357155
 11
1824.1677803570997
 21
1430.3319615771613
  0
LINE
  8
_0-0_計極細
  6
CONTINUOUS
 62
    2
 10
1839.1677797570842
 20
1435.831961357155
 11
1839.1677797570842
 21
1430.3319615771613
  0
LINE
  8
_0-0_計極細
  6
CONTINUOUS
 62
    2
 10
1546.2177845112656
 20
1528.831962397179
 11
1546.2177822000872
 21
1523.3319623971802
  0
LINE
  8
_0-0_計極細
  6
CONTINUOUS
 62
    2
 10
1553.1177844810622
 20
1528.831962397179
 11
1553.117782200087
 21
1523.3319623971802
  0
LINE
  8
_0-0_計極細
  6
CONTINUOUS
 62
    2
 10
1542.167782500095
 20
1528.8319613571527
 11
1542.167782500095
 21
1523.3319615771586
  0
LINE
  8
_0-0_計極細
  6
CONTINUOUS
 62
    2
 10
1557.1677819000797
 20
1528.8319613571527
 11
1557.1677819000797
 21
1523.3319615771586
  0
LINE
  8
_0-0_計極細
  6
CONTINUOUS
 62
    2
 10
1546.2177845112656
 20
1513.3319623971802
 11
1546.2177822000872
 21
1507.83196239718
  0
LINE
  8
_0-0_計極細
  6
CONTINUOUS
 62
    2
 10
1553.1177844810622
 20
1513.3319623971802
 11
1553.117782200087
 21
1507.83196239718
  0
LINE
  8
_0-0_計極細
  6
CONTINUOUS
 62
    2
 10
1542.167782500095
 20
1513.3319613571532
 11
1542.167782500095
 21
1507.8319615771597
  0
LINE
  8
_0-0_計極細
  6
CONTINUOUS
 62
    2
 10
1557.1677819000797
 20
1513.3319613571532
 11
1557.1677819000797
 21
1507.8319615771597
  0
LINE
  8
_0-0_計極細
  6
CONTINUOUS
 62
    2
 10
1546.2177845112656
 20
1497.83196239718
 11
1546.2177822000872
 21
1492.3319623971802
  0
LINE
  8
_0-0_計極細
  6
CONTINUOUS
 62
    2
 10
1553.1177844810622
 20
1497.83196239718
 11
1553.117782200087
 21
1492.3319623971802
  0
LINE
  8
_0-0_計極細
  6
CONTINUOUS
 62
    2
 10
1542.167782500095
 20
1497.8319613571532
 11
1542.167782500095
 21
1492.3319615771595
  0
LINE
  8
_0-0_計極細
  6
CONTINUOUS
 62
    2
 10
1557.1677819000797
 20
1497.8319613571532
 11
1557.1677819000797
 21
1492.3319615771595
  0
LINE
  8
_0-0_計極細
  6
CONTINUOUS
 62
    2
 10
1546.2177845112656
 20
1482.3319623971802
 11
1546.2177822000872
 21
1476.8319623971809
  0
LINE
  8
_0-0_計極細
  6
CONTINUOUS
 62
    2
 10
1553.1177844810622
 20
1482.3319623971802
 11
1553.117782200087
 21
1476.8319623971809
  0
LINE
  8
_0-0_計極細
  6
CONTINUOUS
 62
    2
 10
1542.167782500095
 20
1482.3319613571537
 11
1542.167782500095
 21
1476.8319615771597
  0
LINE
  8
_0-0_計極細
  6
CONTINUOUS
 62
    2
 10
1557.1677819000797
 20
1482.3319613571537
 11
1557.1677819000797
 21
1476.8319615771597
  0
LINE
  8
_0-0_計極細
  6
CONTINUOUS
 62
    2
 10
1546.2177845112656
 20
1466.8319623971809
 11
1546.2177822000872
 21
1461.3319623971811
  0
LINE
  8
_0-0_計極細
  6
CONTINUOUS
 62
    2
 10
1553.1177844810622
 20
1466.8319623971809
 11
1553.117782200087
 21
1461.3319623971811
  0
LINE
  8
_0-0_計極細
  6
CONTINUOUS
 62
    2
 10
1542.167782500095
 20
1466.8319613571541
 11
1542.167782500095
 21
1461.3319615771604
  0
LINE
  8
_0-0_計極細
  6
CONTINUOUS
 62
    2
 10
1557.1677819000797
 20
1466.8319613571541
 11
1557.1677819000797
 21
1461.3319615771604
  0
LINE
  8
_0-0_計極細
  6
CONTINUOUS
 62
    2
 10
1546.2177845112656
 20
1451.3319623971811
 11
1546.2177822000872
 21
1445.8319623971818
  0
LINE
  8
_0-0_計極細
  6
CONTINUOUS
 62
    2
 10
1553.1177844810622
 20
1451.3319623971811
 11
1553.117782200087
 21
1445.8319623971818
  0
LINE
  8
_0-0_計極細
  6
CONTINUOUS
 62
    2
 10
1542.167782500095
 20
1451.3319613571546
 11
1542.167782500095
 21
1445.8319615771607
  0
LINE
  8
_0-0_計極細
  6
CONTINUOUS
 62
    2
 10
1557.1677819000797
 20
1451.3319613571546
 11
1557.1677819000797
 21
1445.8319615771607
  0
LINE
  8
_0-0_計極細
  6
CONTINUOUS
 62
    2
 10
1546.2177845112656
 20
1435.8319623971818
 11
1546.2177822000872
 21
1430.331962397182
  0
LINE
  8
_0-0_計極細
  6
CONTINUOUS
 62
    2
 10
1553.1177844810622
 20
1435.8319623971818
 11
1553.117782200087
 21
1430.331962397182
  0
LINE
  8
_0-0_計極細
  6
CONTINUOUS
 62
    2
 10
1542.167782500095
 20
1435.831961357155
 11
1542.167782500095
 21
1430.3319615771613
  0
LINE
  8
_0-0_計極細
  6
CONTINUOUS
 62
    2
 10
1557.1677819000797
 20
1435.831961357155
 11
1557.1677819000797
 21
1430.3319615771613
  0
CIRCLE
  8
_0-5_寸法線
  6
CONTINUOUS
 62
    7
 10
683.17384341263801
 20
1471.8319638372179
 40
35.999998559961114
  0
TEXT
  8
_0-5_寸法線
 62
    7
 10
577.38089860543084
 20
1449.3070713806812
 40
30
 41
1
 50
0
  1
Ａ部
  0
LINE
  8
_0-5_寸法線
  6
CONTINUOUS
 62
    7
 10
877.49797732102434
 20
1440.6488182745134
 11
887.49797737344522
 21
1423.3283102290898
  0
LINE
  8
_0-5_寸法線
  6
CONTINUOUS
 62
    7
 10
877.49797732102434
 20
1440.6488182745134
 11
877.49797738155485
 21
1420.6488182745134
  0
LINE
  8
_0-5_寸法線
  6
CONTINUOUS
 62
    7
 10
877.49797732102434
 20
1440.6488182745134
 11
899.46749289367585
 21
1358.6574709322965
  0
LINE
  8
_0-5_寸法線
  6
CONTINUOUS
 62
    7
 10
899.46749289367585
 20
1358.6574709322965
 11
971.46749289367585
 21
1358.6574709322965
  0
TEXT
  8
_0-5_寸法線
 62
    7
 10
899.46749289367585
 20
1358.6574709322965
 40
30
 41
0.7999999999999998
 50
0
  1
上フタ
  0
LINE
  8
_0-5_寸法線
  6
CONTINUOUS
 62
    7
 10
1065.6761450285906
 20
1413.2687904577244
 11
1075.6761450810113
 21
1395.9482824123008
  0
LINE
  8
_0-5_寸法線
  6
CONTINUOUS
 62
    7
 10
1065.6761450285906
 20
1413.2687904577244
 11
1065.6761450891211
 21
1393.2687904577244
  0
LINE
  8
_0-5_寸法線
  6
CONTINUOUS
 62
    7
 10
1065.6761450285906
 20
1413.2687904577244
 11
1080.3092041701759
 21
1358.6574709322965
  0
LINE
  8
_0-5_寸法線
  6
CONTINUOUS
 62
    7
 10
1080.3092041701759
 20
1358.6574709322965
 11
1224.3092041701761
 21
1358.6574709322965
  0
TEXT
  8
_0-5_寸法線
 62
    7
 10
1080.3092041701759
 20
1358.6574709322965
 40
30
 41
0.7999999999999998
 50
0
  1
排水ユニット
  0
LINE
  8
_0-5_寸法線
  6
CONTINUOUS
 62
    7
 10
683.17384341263801
 20
1471.8319638372179
 11
693.17384343759772
 21
1454.5114557759396
  0
LINE
  8
_0-5_寸法線
  6
CONTINUOUS
 62
    7
 10
683.17384341263801
 20
1471.8319638372179
 11
683.17384344145898
 21
1451.8319638372179
  0
LINE
  8
_0-5_寸法線
  6
CONTINUOUS
 62
    7
 10
683.17384341263801
 20
1471.8319638372179
 11
713.4988575651123
 21
1358.6574709322965
  0
LINE
  8
_0-5_寸法線
  6
CONTINUOUS
 62
    7
 10
713.4988575651123
 20
1358.6574709322965
 11
809.49885756511208
 21
1358.6574709322965
  0
TEXT
  8
_0-5_寸法線
 62
    7
 10
713.4988575651123
 20
1358.6574709322965
 40
30
 41
0.7999999999999998
 50
0
  1
取外し具
  0
ARC
  8
_0-1_計細線
  6
CONTINUOUS
 62
    3
 10
2310.6677836270474
 20
1085.0945612446085
 40
1.5000000000000002
 50
179.99999999999983
 51
269.99999999999977
  0
LINE
  8
_0-1_計細線
  6
CONTINUOUS
 62
    3
 10
2309.1677836270474
 20
1087.0945612446085
 11
2309.1677836270474
 21
1085.0945612446085
  0
ARC
  8
_0-1_計細線
  6
CONTINUOUS
 62
    3
 10
2308.6677836270474
 20
1087.0945612446085
 40
0.5
 50
0
 51
89.999999999999915
  0
LINE
  8
_0-1_計細線
  6
CONTINUOUS
 62
    3
 10
2310.6677836270474
 20
1083.5945612446085
 11
2367.6677836270474
 21
1083.5945612446085
  0
LINE
  8
_0-1_計細線
  6
CONTINUOUS
 62
    3
 10
2367.6677836270474
 20
1062.6149692446097
 11
2315.7494156270486
 21
1062.6149692446097
  0
LINE
  8
_0-1_計細線
  6
CONTINUOUS
 62
    3
 10
2367.6677836270474
 20
1058.3732092446107
 11
2318.1983916270483
 21
1058.3732092446107
  0
ARC
  8
_0-1_計細線
  6
CONTINUOUS
 62
    3
 10
2313.3004316270462
 20
1058.3732092446107
 40
4.8979599999999994
 50
0
 51
59.999999999989242
  0
LINE
  8
_0-1_計細線
  6
CONTINUOUS
 62
    3
 10
2315.7494156270486
 20
1062.6149692446097
 11
2315.7494156270486
 21
1080.2476172446104
  0
LINE
  8
_0-1_計細線
  6
CONTINUOUS
 62
    3
 10
2367.6677836270474
 20
1080.2476172446104
 11
2311.9290076270472
 21
1080.2476172446104
  0
LINE
  8
_0-1_計細線
  6
CONTINUOUS
 62
    3
 10
2419.5861516270479
 20
1070.4517052446108
 11
2423.4065596270493
 21
1070.4517052446108
  0
ARC
  8
_0-1_計細線
  6
CONTINUOUS
 62
    3
 10
2422.0351276270476
 20
1058.3732092446107
 40
4.8979599999999994
 50
119.99999999999233
 51
179.99999999999983
  0
LINE
  8
_0-1_計細線
  6
CONTINUOUS
 62
    3
 10
2419.5861516270479
 20
1062.6149692446097
 11
2419.5861516270479
 21
1070.4517052446108
  0
LINE
  8
_0-0_計極細
  6
CONTINUOUS
 62
    2
 10
2415.177983627048
 20
1065.5537452446106
 11
2415.177983627048
 21
1068.4014812446103
  0
LINE
  8
_0-0_計極細
  6
CONTINUOUS
 62
    2
 10
2416.6267996270481
 20
1064.7700732446092
 11
2415.177983627048
 21
1065.5537452446106
  0
LINE
  8
_0-0_計極細
  6
CONTINUOUS
 62
    2
 10
2367.6677836270474
 20
1064.7700732446092
 11
2392.1575676270486
 21
1064.7700732446092
  0
LINE
  8
_0-0_計極細
  6
CONTINUOUS
 62
    2
 10
2423.4065596270493
 20
1084.1659852446091
 11
2416.6267996270481
 21
1083.3823132446096
  0
ARC
  8
_0-0_計極細
  6
CONTINUOUS
 62
    2
 10
2405.1371676270473
 20
1058.6966012446092
 40
0.9795920000000001
 50
0
 51
89.999999999999915
  0
ARC
  8
_0-0_計極細
  6
CONTINUOUS
 62
    2
 10
2405.1371676270473
 20
1058.6966012446092
 40
0.9795920000000001
 50
89.999999999999915
 51
179.99999999999983
  0
LINE
  8
_0-0_計極細
  6
CONTINUOUS
 62
    2
 10
2405.1371676270473
 20
1059.6761932446107
 11
2394.116759627047
 21
1059.6761932446107
  0
LINE
  8
_0-0_計極細
  6
CONTINUOUS
 62
    2
 10
2394.6625516270478
 20
1068.4014812446103
 11
2404.4008156270475
 21
1068.4014812446103
  0
LINE
  8
_0-0_計極細
  6
CONTINUOUS
 62
    2
 10
2367.6677836270474
 20
1085.5443372446107
 11
2416.6267996270481
 21
1085.5443372446107
  0
LINE
  8
_0-0_計極細
  6
CONTINUOUS
 62
    2
 10
2407.0963516270467
 20
1072.3198492446109
 11
2411.0636956270473
 21
1072.3198492446109
  0
LINE
  8
_0-0_計極細
  6
CONTINUOUS
 62
    2
 10
2413.9448956270471
 20
1083.0953532446101
 11
2412.7779836270483
 21
1083.0953532446101
  0
LINE
  8
_0-0_計極細
  6
CONTINUOUS
 62
    2
 10
2411.0636956270473
 20
1071.0463772446101
 11
2411.0636956270473
 21
1081.38107324461
  0
ARC
  8
_0-0_計極細
  6
CONTINUOUS
 62
    2
 10
2412.7779836270483
 20
1081.38107324461
 40
1.7142880000000003
 50
89.999999999999915
 51
179.99999999999983
  0
ARC
  8
_0-0_計極細
  6
CONTINUOUS
 62
    2
 10
2416.6267996270481
 20
1083.8300492446097
 40
1.7142880000000003
 50
89.999999999999915
 51
175.84901000001699
  0
ARC
  8
_0-0_計極細
  6
CONTINUOUS
 62
    2
 10
2413.9448956270471
 20
1084.0749452446098
 40
0.9795920000000001
 50
269.99999999999977
 51
356.64911199995925
  0
LINE
  8
_0-0_計極細
  6
CONTINUOUS
 62
    2
 10
2416.7234876270495
 20
1084.8654732446093
 11
2423.4065596270493
 21
1085.8173452446108
  0
ARC
  8
_0-0_計極細
  6
CONTINUOUS
 62
    2
 10
2416.6267996270481
 20
1083.8300492446097
 40
1.0285679999999999
 50
89.999999999999915
 51
175.84901000002131
  0
ARC
  8
_0-0_計極細
  6
CONTINUOUS
 62
    2
 10
2413.9448956270471
 20
1084.0749452446098
 40
1.6653040000000003
 50
269.99999999999977
 51
356.64911199998164
  0
LINE
  8
_0-0_計極細
  6
CONTINUOUS
 62
    2
 10
2413.9448956270471
 20
1082.4096412446097
 11
2412.7779836270483
 21
1082.4096412446097
  0
ARC
  8
_0-0_計極細
  6
CONTINUOUS
 62
    2
 10
2412.7779836270483
 20
1081.38107324461
 40
1.0285679999999999
 50
89.999999999999915
 51
179.99999999999983
  0
LINE
  8
_0-0_計極細
  6
CONTINUOUS
 62
    2
 10
2411.7494156270486
 20
1070.3606652446097
 11
2411.7494156270486
 21
1081.38107324461
  0
LINE
  8
_0-0_計極細
  6
CONTINUOUS
 62
    2
 10
2416.6267996270481
 20
1069.8502972446104
 11
2416.6267996270481
 21
1084.8517052446105
  0
LINE
  8
_0-0_計極細
  6
CONTINUOUS
 62
    2
 10
2416.6267996270481
 20
1069.8502972446104
 11
2415.177983627048
 21
1068.4014812446103
  0
LINE
  8
_0-0_計極細
  6
CONTINUOUS
 62
    2
 10
2409.7902316270493
 20
1066.4422972446109
 11
2409.7902316270493
 21
1072.3198492446109
  0
LINE
  8
_0-0_計極細
  6
CONTINUOUS
 62
    2
 10
2407.5861516270479
 20
1068.5002012446103
 11
2407.5861516270479
 21
1072.3198492446109
  0
LINE
  8
_0-0_計極細
  6
CONTINUOUS
 62
    2
 10
2409.7902316270493
 20
1070.3606652446097
 11
2411.7494156270486
 21
1070.3606652446097
  0
LINE
  8
_0-0_計極細
  6
CONTINUOUS
 62
    2
 10
2409.7902316270493
 20
1071.0463772446101
 11
2411.0636956270473
 21
1071.0463772446101
  0
LINE
  8
_0-0_計極細
  6
CONTINUOUS
 62
    2
 10
2408.9769916270479
 20
1066.4422972446109
 11
2409.7902316270493
 21
1066.4422972446109
  0
LINE
  8
_0-0_計極細
  6
CONTINUOUS
 62
    2
 10
2409.7902316270493
 20
1068.4014812446103
 11
2415.177983627048
 21
1068.4014812446103
  0
LINE
  8
_0-0_計極細
  6
CONTINUOUS
 62
    2
 10
2396.8462076270489
 20
1066.7361772446102
 11
2401.7441676270473
 21
1066.7361772446102
  0
LINE
  8
_0-0_計極細
  6
CONTINUOUS
 62
    2
 10
2396.8462076270489
 20
1066.7361772446102
 11
2396.8462076270489
 21
1068.4014812446103
  0
LINE
  8
_0-0_計極細
  6
CONTINUOUS
 62
    2
 10
2401.7441676270473
 20
1066.7361772446102
 11
2401.7441676270473
 21
1068.4014812446103
  0
LINE
  8
_0-0_計極細
  6
CONTINUOUS
 62
    2
 10
2398.315599627048
 20
1066.7361772446102
 11
2398.315599627048
 21
1068.4014812446103
  0
LINE
  8
_0-0_計極細
  6
CONTINUOUS
 62
    2
 10
2411.0636956270473
 20
1083.0953532446101
 11
2412.9739036270485
 21
1083.0953532446101
  0
LINE
  8
_0-0_計極細
  6
CONTINUOUS
 62
    2
 10
2411.0636956270473
 20
1080.1565852446101
 11
2411.0636956270473
 21
1083.0953532446101
  0
LINE
  8
_0-0_計極細
  6
CONTINUOUS
 62
    2
 10
2409.9861516270475
 20
1079.6667852446108
 11
2409.9861516270475
 21
1080.6463772446104
  0
ARC
  8
_0-0_計極細
  6
CONTINUOUS
 62
    2
 10
2410.573903627047
 20
1080.1565852446101
 40
0.489792
 50
269.99999999999977
 51
359.99999999999966
  0
LINE
  8
_0-0_計極細
  6
CONTINUOUS
 62
    2
 10
2367.8636956270484
 20
1080.6463772446104
 11
2409.9861516270475
 21
1080.6463772446104
  0
LINE
  8
_0-0_計極細
  6
CONTINUOUS
 62
    2
 10
2367.8636956270484
 20
1079.6667852446108
 11
2410.573903627047
 21
1079.6667852446108
  0
LINE
  8
_0-0_計極細
  6
CONTINUOUS
 62
    2
 10
2367.6677836270474
 20
1078.5952172446096
 11
2410.9167596270481
 21
1078.5952172446096
  0
LINE
  8
_0-0_計極細
  6
CONTINUOUS
 62
    2
 10
2406.6065596270482
 20
1078.5952172446096
 11
2406.6065596270482
 21
1078.1054252446093
  0
LINE
  8
_0-0_計極細
  6
CONTINUOUS
 62
    2
 10
2410.1330876270486
 20
1077.1258332446096
 11
2410.9167596270481
 21
1078.5952172446096
  0
LINE
  8
_0-0_計極細
  6
CONTINUOUS
 62
    2
 10
2406.116759627047
 20
1075.3625692446103
 11
2406.6065596270482
 21
1075.8523612446106
  0
LINE
  8
_0-0_計極細
  6
CONTINUOUS
 62
    2
 10
2406.6065596270482
 20
1074.8727692446091
 11
2406.116759627047
 21
1075.3625692446103
  0
LINE
  8
_0-0_計極細
  6
CONTINUOUS
 62
    2
 10
2406.6065596270482
 20
1077.1258332446096
 11
2406.116759627047
 21
1077.6156252446099
  0
LINE
  8
_0-0_計極細
  6
CONTINUOUS
 62
    2
 10
2406.116759627047
 20
1077.6156252446099
 11
2406.6065596270482
 21
1078.1054252446093
  0
LINE
  8
_0-0_計極細
  6
CONTINUOUS
 62
    2
 10
2367.6677836270474
 20
1077.6156252446099
 11
2406.116759627047
 21
1077.6156252446099
  0
LINE
  8
_0-0_計極細
  6
CONTINUOUS
 62
    2
 10
2367.6677836270474
 20
1075.3625692446103
 11
2406.116759627047
 21
1075.3625692446103
  0
LINE
  8
_0-0_計極細
  6
CONTINUOUS
 62
    2
 10
2367.6677836270474
 20
1074.3829772446106
 11
2410.1330876270486
 21
1074.3829772446106
  0
LINE
  8
_0-0_計極細
  6
CONTINUOUS
 62
    2
 10
2410.1330876270486
 20
1077.1258332446096
 11
2410.1330876270486
 21
1074.3829772446106
  0
LINE
  8
_0-0_計極細
  6
CONTINUOUS
 62
    2
 10
2406.6065596270482
 20
1074.8727692446091
 11
2406.6065596270482
 21
1074.3829772446106
  0
LINE
  8
_0-0_計極細
  6
CONTINUOUS
 62
    2
 10
2406.6065596270482
 20
1077.1258332446096
 11
2406.6065596270482
 21
1075.8523612446106
  0
ARC
  8
_0-0_計極細
  6
CONTINUOUS
 62
    2
 10
2399.9943116270488
 20
1065.9280332446097
 40
5.8775520000000006
 50
55.166294000021374
 51
179.99999999999983
  0
ARC
  8
_0-0_計極細
  6
CONTINUOUS
 62
    2
 10
2401.4636956270488
 20
1068.5002012446103
 40
2.9387760000000003
 50
0
 51
50.029503000032648
  0
LINE
  8
_0-0_計極細
  6
CONTINUOUS
 62
    2
 10
2404.4024716270478
 20
1065.5614252446094
 11
2404.4024716270478
 21
1068.5002012446103
  0
LINE
  8
_0-0_計極細
  6
CONTINUOUS
 62
    2
 10
2407.3412476270469
 20
1065.5614252446094
 11
2404.4024716270478
 21
1065.5614252446094
  0
ARC
  8
_0-0_計極細
  6
CONTINUOUS
 62
    2
 10
2407.3412476270469
 20
1067.5206092446106
 40
1.9591840000000003
 50
269.99999999999977
 51
359.99999999999966
  0
LINE
  8
_0-0_計極細
  6
CONTINUOUS
 62
    2
 10
2409.3004316270481
 20
1067.5206092446106
 11
2409.3004316270481
 21
1068.5002012446103
  0
LINE
  8
_0-0_計極細
  6
CONTINUOUS
 62
    2
 10
2409.3004316270481
 20
1068.5002012446103
 11
2407.0963516270467
 21
1068.5002012446103
  0
LINE
  8
_0-0_計極細
  6
CONTINUOUS
 62
    2
 10
2410.2800236270477
 20
1072.8104092446092
 11
2367.6677836270474
 21
1072.8104092446092
  0
LINE
  8
_0-0_計極細
  6
CONTINUOUS
 62
    2
 10
2410.2800236270477
 20
1072.8104092446092
 11
2410.2800236270477
 21
1074.2797932446092
  0
LINE
  8
_0-0_計極細
  6
CONTINUOUS
 62
    2
 10
2410.2800236270477
 20
1074.2797932446092
 11
2367.6677836270474
 21
1074.2797932446092
  0
LINE
  8
_0-0_計極細
  6
CONTINUOUS
 62
    2
 10
2410.2800236270477
 20
1078.7859132446092
 11
2367.6677836270474
 21
1078.7859132446092
  0
LINE
  8
_0-0_計極細
  6
CONTINUOUS
 62
    2
 10
2410.2800236270477
 20
1078.7859132446092
 11
2410.2800236270477
 21
1079.6667852446108
  0
LINE
  8
_0-0_計極細
  6
CONTINUOUS
 62
    2
 10
2407.0963516270467
 20
1068.5002012446103
 11
2407.0963516270467
 21
1072.8104092446092
  0
LINE
  8
_0-0_計極細
  6
CONTINUOUS
 62
    2
 10
2394.116759627047
 20
1065.5537452446106
 11
2415.177983627048
 21
1065.5537452446106
  0
LINE
  8
_0-0_計極細
  6
CONTINUOUS
 62
    2
 10
2394.116759627047
 20
1064.7700732446092
 11
2416.6267996270481
 21
1064.7700732446092
  0
LINE
  8
_0-0_計極細
  6
CONTINUOUS
 62
    2
 10
2367.6677836270474
 20
1086.5239292446104
 11
2423.4065596270493
 21
1086.5239292446104
  0
LINE
  8
_0-1_計細線
  6
CONTINUOUS
 62
    3
 10
2423.4065596270493
 20
1070.4517052446108
 11
2423.4065596270493
 21
1086.5239292446104
  0
LINE
  8
_0-0_計極細
  6
CONTINUOUS
 62
    2
 10
2416.6267996270481
 20
1085.5443372446107
 11
2423.4065596270493
 21
1086.5099779486582
  0
LINE
  8
_0-0_計極細
  6
CONTINUOUS
 62
    2
 10
2406.116759627047
 20
1001.9304972446089
 11
2406.116759627047
 21
1028.3794732446086
  0
LINE
  8
_0-0_計極細
  6
CONTINUOUS
 62
    2
 10
2394.3616556270472
 20
990.17539324460915
 11
2392.1575756270477
 21
990.17539324460915
  0
ARC
  8
_0-0_計極細
  6
CONTINUOUS
 62
    2
 10
2394.3616556270472
 20
1001.9304972446089
 40
11.755104000000001
 50
269.99999999999977
 51
359.99999999999966
  0
LINE
  8
_0-0_計極細
  6
CONTINUOUS
 62
    2
 10
2414.6881916270477
 20
1035.302913244609
 11
2414.6881916270477
 21
1064.7700732446092
  0
LINE
  8
_0-0_計極細
  6
CONTINUOUS
 62
    2
 10
2367.6677836270474
 20
990.17539324460915
 11
2394.3616556270472
 21
990.17539324460915
  0
LINE
  8
_0-0_計極細
  6
CONTINUOUS
 62
    2
 10
2406.116759627047
 20
1001.9304972446089
 11
2406.116759627047
 21
1058.6966012446092
  0
LINE
  8
_0-0_計極細
  6
CONTINUOUS
 62
    2
 10
2404.1575756270477
 20
1001.9304972446089
 11
2404.1575756270477
 21
1058.6966012446092
  0
LINE
  8
_0-0_計極細
  6
CONTINUOUS
 62
    2
 10
2367.6677836270474
 20
992.13457724460852
 11
2394.3616556270472
 21
992.13457724460852
  0
ARC
  8
_0-0_計極細
  6
CONTINUOUS
 62
    2
 10
2394.3616556270472
 20
1001.9304972446089
 40
9.7959199999999989
 50
269.99999999999977
 51
359.99999999999966
  0
LINE
  8
_0-0_計極細
  6
CONTINUOUS
 62
    2
 10
2393.1371676270473
 20
1008.9912412446092
 11
2367.6677836270474
 21
1008.9912412446092
  0
ARC
  8
_0-0_計極細
  6
CONTINUOUS
 62
    2
 10
2393.1371676270473
 20
1009.970833244609
 40
0.9795920000000001
 50
269.99999999999977
 51
359.99999999999966
  0
LINE
  8
_0-0_計極細
  6
CONTINUOUS
 62
    2
 10
2394.116759627047
 20
1009.970833244609
 11
2394.116759627047
 21
1065.9280332446097
  0
LINE
  8
_0-0_計極細
  6
CONTINUOUS
 62
    2
 10
2392.1575676270486
 20
1009.970833244609
 11
2392.1575676270486
 21
1064.7700732446092
  0
ARC
  8
_0-0_計極細
  6
CONTINUOUS
 62
    2
 10
2393.1371596270483
 20
1009.970833244609
 40
0.9795920000000001
 50
179.99999999999983
 51
269.99999999999977
  0
LINE
  8
_0-0_計極細
  6
CONTINUOUS
 62
    2
 10
2414.7605676270477
 20
1035.302913244609
 11
2409.127911627048
 21
1035.302913244609
  0
ARC
  8
_0-0_計極細
  6
CONTINUOUS
 62
    2
 10
2409.127911627048
 20
1032.3641372446082
 40
2.9387760000000003
 50
89.999999999999915
 51
179.99999999999983
  0
LINE
  8
_0-0_計極細
  6
CONTINUOUS
 62
    2
 10
2394.1084636270471
 20
1009.8437052446088
 11
2394.1084796270488
 21
1009.8437132446098
  0
LINE
  8
_0-0_計極細
  6
CENTER1
 62
    2
 10
2343.3269644683833
 20
998.59456124460951
 11
2473.6783718757879
 21
998.59456124460951
  0
LINE
  8
_0-1_計細線
  6
CONTINUOUS
 62
    3
 10
2326.1983916270483
 20
969.52392924461037
 11
2419.1983916270483
 21
969.52392924461037
  0
LINE
  8
_0-1_計細線
  6
CONTINUOUS
 62
    3
 10
2318.1983916270483
 20
977.52392924461049
 11
2318.1983916270483
 21
1058.3732092446107
  0
ARC
  8
_0-1_計細線
  6
CONTINUOUS
 62
    3
 10
2326.1983916270483
 20
977.52392924461049
 40
8
 50
179.99999999999983
 51
269.99999999999977
  0
LINE
  8
_0-1_計細線
  6
CONTINUOUS
 62
    3
 10
2419.1983916270483
 20
969.52392924461037
 11
2454.6677836270474
 21
971.09456124460951
  0
LINE
  8
_0-0_計極細
  6
CONTINUOUS
 62
    2
 10
2406.1891356270471
 20
1025.3301489577252
 11
2454.6677836270474
 21
1024.1347864009158
  0
LINE
  8
_0-1_計細線
  6
CONTINUOUS
 62
    3
 10
2454.6677836270474
 20
971.09456124460951
 11
2454.6677836270474
 21
1026.0945612446094
  0
LINE
  8
_0-1_計細線
  6
CONTINUOUS
 62
    3
 10
2417.1371676270473
 20
1027.0199729577262
 11
2454.6677836270474
 21
1026.0945612446094
  0
LINE
  8
_0-1_計細線
  6
CONTINUOUS
 62
    3
 10
2417.1371676270473
 20
1027.0199729577262
 11
2417.1371676270473
 21
1058.3732092446107
  0
LINE
  8
_0-0_計極細
  6
CONTINUOUS
 62
    2
 10
2417.5261698918812
 20
971.48392924461132
 11
2454.6677836270474
 21
973.05648194860908
  0
LINE
  8
_0-1_計細線
  6
CONTINUOUS
 62
    3
 10
2311.9290076270472
 20
1080.2476172446104
 11
2311.9290076270472
 21
1083.5945612446087
  0
LINE
  8
_0-5_寸法線
  6
CONTINUOUS
 62
    7
 10
2474.6677836270474
 20
971.09456124460951
 11
2774.6677836270474
 21
971.09456124460951
  0
LINE
  8
_0-5_寸法線
  6
CONTINUOUS
 62
    7
 10
2764.6677836270474
 20
971.09456124460951
 11
2759.4914027249974
 21
990.41307777039083
  0
LINE
  8
_0-5_寸法線
  6
CONTINUOUS
 62
    7
 10
2764.6677836270474
 20
971.09456124460951
 11
2769.8441645290977
 21
990.41307777039083
  0
LINE
  8
_0-5_寸法線
  6
CONTINUOUS
 62
    7
 10
2467.6677836270474
 20
1107.5945612446094
 11
2774.6677836270474
 21
1107.5945612446094
  0
LINE
  8
_0-5_寸法線
  6
CONTINUOUS
 62
    7
 10
2764.6677836270474
 20
1107.5945612446094
 11
2769.8441645290977
 21
1088.276044718828
  0
LINE
  8
_0-5_寸法線
  6
CONTINUOUS
 62
    7
 10
2764.6677836270474
 20
1107.5945612446094
 11
2759.4914027249974
 21
1088.276044718828
  0
LINE
  8
_0-5_寸法線
  6
CONTINUOUS
 62
    7
 10
2764.6677836270474
 20
971.09456124460951
 11
2764.6677836270474
 21
1107.5945612446094
  0
TEXT
  8
_0-5_寸法線
 62
    7
 10
2764.6677836270474
 20
1001.8445612446106
 40
30
 41
1
 50
90
  1
136.5
  0
LINE
  8
_0-5_寸法線
  6
CONTINUOUS
 62
    7
 10
2474.6677836270474
 20
971.09456124460951
 11
2704.6677836270474
 21
971.09456124460951
  0
LINE
  8
_0-5_寸法線
  6
CONTINUOUS
 62
    7
 10
2694.6677836270474
 20
971.09456124460951
 11
2689.4914027249974
 21
990.41307777039083
  0
LINE
  8
_0-5_寸法線
  6
CONTINUOUS
 62
    7
 10
2694.6677836270474
 20
971.09456124460951
 11
2699.8441645290977
 21
990.41307777039083
  0
LINE
  8
_0-5_寸法線
  6
CONTINUOUS
 62
    7
 10
2456.3677836270481
 20
1087.5945612446094
 11
2704.6677836270474
 21
1087.5945612446094
  0
LINE
  8
_0-5_寸法線
  6
CONTINUOUS
 62
    7
 10
2694.6677836270474
 20
1087.5945612446094
 11
2699.8441645290977
 21
1068.276044718828
  0
LINE
  8
_0-5_寸法線
  6
CONTINUOUS
 62
    7
 10
2694.6677836270474
 20
1087.5945612446094
 11
2689.4914027249974
 21
1068.276044718828
  0
LINE
  8
_0-5_寸法線
  6
CONTINUOUS
 62
    7
 10
2694.6677836270474
 20
971.09456124460951
 11
2694.6677836270474
 21
1087.5945612446094
  0
TEXT
  8
_0-5_寸法線
 62
    7
 10
2694.6677836270474
 20
991.84456124461065
 40
30
 41
1
 50
90
  1
116.5
  0
LINE
  8
_0-5_寸法線
  6
CONTINUOUS
 62
    7
 10
2467.6677836270474
 20
1107.5945612446094
 11
2704.6677836270474
 21
1107.5945612446094
  0
LINE
  8
_0-5_寸法線
  6
CONTINUOUS
 62
    7
 10
2694.6677836270474
 20
1107.5945612446094
 11
2689.4914027249974
 21
1126.9130777703908
  0
LINE
  8
_0-5_寸法線
  6
CONTINUOUS
 62
    7
 10
2694.6677836270474
 20
1107.5945612446094
 11
2699.8441645290977
 21
1126.9130777703908
  0
LINE
  8
_0-5_寸法線
  6
CONTINUOUS
 62
    7
 10
2694.6677836270474
 20
1087.5945612446094
 11
2694.6677836270474
 21
1157.5945612446094
  0
TEXT
  8
_0-5_寸法線
 62
    7
 10
2694.6677836270474
 20
1120.9697568338993
 40
30
 41
1
 50
90
  1
20
  0
LINE
  8
_0-5_寸法線
  6
CONTINUOUS
 62
    7
 10
2474.6677836270474
 20
971.09456124460951
 11
2634.6677836270474
 21
971.09456124460951
  0
LINE
  8
_0-5_寸法線
  6
CONTINUOUS
 62
    7
 10
2624.6677836270474
 20
971.09456124460951
 11
2619.4914027249974
 21
990.41307777039083
  0
LINE
  8
_0-5_寸法線
  6
CONTINUOUS
 62
    7
 10
2624.6677836270474
 20
971.09456124460951
 11
2629.8441645290977
 21
990.41307777039083
  0
LINE
  8
_0-5_寸法線
  6
CONTINUOUS
 62
    7
 10
2474.6677836270474
 20
1026.0945612446094
 11
2634.6677836270474
 21
1026.0945612446094
  0
LINE
  8
_0-5_寸法線
  6
CONTINUOUS
 62
    7
 10
2624.6677836270474
 20
1026.0945612446094
 11
2629.8441645290977
 21
1006.7760447188282
  0
LINE
  8
_0-5_寸法線
  6
CONTINUOUS
 62
    7
 10
2624.6677836270474
 20
1026.0945612446094
 11
2619.4914027249974
 21
1006.7760447188282
  0
LINE
  8
_0-5_寸法線
  6
CONTINUOUS
 62
    7
 10
2624.6677836270474
 20
971.09456124460951
 11
2624.6677836270474
 21
1026.0945612446094
  0
TEXT
  8
_0-5_寸法線
 62
    7
 10
2624.6677836270474
 20
961.09456124460951
 40
30
 41
1
 50
90
  1
VU-50
  0
LINE
  8
_0-5_寸法線
  6
CONTINUOUS
 62
    7
 10
2474.6677836270474
 20
971.09456124460951
 11
2564.6677836270474
 21
971.09456124460951
  0
LINE
  8
_0-5_寸法線
  6
CONTINUOUS
 62
    7
 10
2554.6677836270474
 20
971.09456124460951
 11
2559.8441645290977
 21
951.77604471882796
  0
LINE
  8
_0-5_寸法線
  6
CONTINUOUS
 62
    7
 10
2554.6677836270474
 20
971.09456124460951
 11
2549.491402724997
 21
951.77604471882819
  0
LINE
  8
_0-5_寸法線
  6
CONTINUOUS
 62
    7
 10
2474.6677836270474
 20
998.59456124460951
 11
2564.6677836270474
 21
998.59456124460951
  0
LINE
  8
_0-5_寸法線
  6
CONTINUOUS
 62
    7
 10
2554.6677836270474
 20
921.09456124460951
 11
2554.6677836270474
 21
998.59456124460951
  0
TEXT
  8
_0-5_寸法線
 62
    7
 10
2554.6677836270474
 20
918.49259765191948
 40
30
 41
1
 50
90
  1
28
  0
LINE
  8
_0-5_寸法線
  6
CONTINUOUS
 62
    7
 10
2554.6677836270474
 20
998.59456124460951
 11
2549.491402724997
 21
1017.9130777703908
  0
LINE
  8
_0-5_寸法線
  6
CONTINUOUS
 62
    7
 10
2554.6677836270474
 20
998.59456124460951
 11
2559.8441645290977
 21
1017.9130777703908
  0
LINE
  8
_0-5_寸法線
  6
CONTINUOUS
 62
    7
 10
2456.3677836270481
 20
1087.5945612446094
 11
2564.6677836270474
 21
1087.5945612446094
  0
LINE
  8
_0-5_寸法線
  6
CONTINUOUS
 62
    7
 10
2554.6677836270474
 20
1087.5945612446094
 11
2559.8441645290977
 21
1068.276044718828
  0
LINE
  8
_0-5_寸法線
  6
CONTINUOUS
 62
    7
 10
2554.6677836270474
 20
1087.5945612446094
 11
2549.491402724997
 21
1068.276044718828
  0
LINE
  8
_0-5_寸法線
  6
CONTINUOUS
 62
    7
 10
2554.6677836270474
 20
998.59456124460951
 11
2554.6677836270474
 21
1087.5945612446094
  0
TEXT
  8
_0-5_寸法線
 62
    7
 10
2554.6677836270474
 20
1007.4034590187199
 40
30
 41
1
 50
90
  1
88.5
  0
LINE
  8
_0-5_寸法線
  6
CONTINUOUS
 62
    7
 10
2324.5429907510288
 20
1038.5198896354514
 11
2320.5595609425854
 21
1018.9205966134773
  0
LINE
  8
_0-5_寸法線
  6
CONTINUOUS
 62
    7
 10
2324.5429907510288
 20
1038.5198896354514
 11
2311.2935928317374
 21
1023.5381188864284
  0
LINE
  8
_0-5_寸法線
  6
CONTINUOUS
 62
    7
 10
2324.5429907510288
 20
1038.5198896354514
 11
2283.8920119696204
 21
956.94569230677359
  0
LINE
  8
_0-5_寸法線
  6
CONTINUOUS
 62
    7
 10
2283.8920119696204
 20
956.94569230677359
 11
2019.8920119696209
 21
956.94569230677359
  0
TEXT
  8
_0-5_寸法線
 62
    7
 10
2019.8920119696206
 20
957.01712897602931
 40
30
 41
0.7999999999999997
 50
0
  1
横引き排水トラップ一式
  0
LINE
  8
_0-7_枠細線
  6
CONTINUOUS
 62
    5
 10
2699.3612385745696
 20
660.63857392225259
 11
2699.3612385745696
 21
450.63857392225316
  0
TEXT
  8
_0-7_枠細線
 62
    5
 10
2517.3612385745714
 20
620.63857392225259
 40
30.000000000000004
 41
0.8
 50
0
  1
ノンスリップ
  0
LINE
  8
_0-7_枠細線
  6
CONTINUOUS
 62
    5
 10
2499.2166552502495
 20
515.14411722273564
 11
2688.9776285646076
 21
515.14411722273564
  0
LINE
  8
_0-7_枠細線
  6
CONTINUOUS
 62
    5
 10
2491.7462685843284
 20
548.47745055273606
 11
2681.507241898687
 21
548.47745055273606
  0
ARC
  8
_0-7_枠細線
  6
CONTINUOUS
 62
    5
 10
2521.0279052480678
 20
525.14411722173577
 40
6.6666666659999994
 50
51.317812999998417
 51
203.57817800000373
  0
ARC
  8
_0-7_枠細線
  6
CONTINUOUS
 62
    5
 10
2529.3612385805682
 20
535.55244722069517
 40
6.6666666659999994
 50
231.31781300000418
 51
308.68218699999511
  0
LINE
  8
_0-7_枠細線
  6
CONTINUOUS
 62
    5
 10
2514.9178052486805
 20
522.47745055533585
 11
2543.8046719124568
 21
522.47745055533585
  0
ARC
  8
_0-7_枠細線
  6
CONTINUOUS
 62
    5
 10
2537.6945719130686
 20
525.14411722173577
 40
6.6666666659999994
 50
336.42182199999394
 51
128.68218700000429
  0
ARC
  8
_0-7_枠細線
  6
CONTINUOUS
 62
    5
 10
2581.0279052420692
 20
538.47745055373593
 40
6.6666666659999994
 50
156.42182200000036
 51
308.68218699998903
  0
ARC
  8
_0-7_枠細線
  6
CONTINUOUS
 62
    5
 10
2589.3612385745678
 20
528.06912055477653
 40
6.6666666659999994
 50
51.317812999998417
 51
128.68218699999551
  0
ARC
  8
_0-7_枠細線
  6
CONTINUOUS
 62
    5
 10
2597.6945719070691
 20
538.47745055373593
 40
6.6666666659999994
 50
231.31781299999807
 51
23.578178000002396
  0
LINE
  8
_0-7_枠細線
  6
CONTINUOUS
 62
    5
 10
2574.9178052426805
 20
541.14411722013585
 11
2603.8046719064569
 21
541.14411722013585
  0
LINE
  8
_0-7_枠細線
  6
CONTINUOUS
 62
    5
 10
2634.9178052366801
 20
522.47745055533585
 11
2663.8046719004569
 21
522.47745055533585
  0
ARC
  8
_0-7_枠細線
  6
CONTINUOUS
 62
    5
 10
2641.0279052360688
 20
525.14411722173577
 40
6.6666666659999994
 50
51.317813000004513
 51
203.57817800000373
  0
ARC
  8
_0-7_枠細線
  6
CONTINUOUS
 62
    5
 10
2649.3612385685683
 20
535.55244722069517
 40
6.6666666659999994
 50
231.31781300000418
 51
308.68218699999511
  0
ARC
  8
_0-7_枠細線
  6
CONTINUOUS
 62
    5
 10
2657.6945719010678
 20
525.14411722173577
 40
6.6666666659999994
 50
336.42182199999553
 51
128.68218699999514
  0
ARC
  8
_0-7_枠細線
  6
CONTINUOUS
 62
    5
 10
2581.0279052420692
 20
538.47745055373593
 40
12.43333333209006
 50
151.14636799999636
 51
308.6821870000025
  0
LINE
  8
_0-7_枠細線
  6
CONTINUOUS
 62
    5
 10
2491.013728584403
 20
544.4774505531359
 11
2570.1381052431561
 21
544.4774505531359
  0
LINE
  8
_0-7_枠細線
  6
CONTINUOUS
 62
    5
 10
2548.5843752453115
 20
519.14411722233581
 11
2630.1381052371585
 21
519.14411722233581
  0
ARC
  8
_0-7_枠細線
  6
CONTINUOUS
 62
    5
 10
2482.8020352518911
 20
520.21729388889469
 40
17.180713331615152
 50
317.56162900000061
 51
42.438371000002093
  0
ARC
  8
_0-7_枠細線
  6
CONTINUOUS
 62
    5
 10
2521.0279052480678
 20
525.14411722173577
 40
12.43333333209006
 50
51.317812999990608
 51
208.8536319999987
  0
ARC
  8
_0-7_枠細線
  6
CONTINUOUS
 62
    5
 10
2508.1608919160203
 20
543.40427388657645
 40
17.180713331615152
 50
137.56162899999757
 51
222.43837100000209
  0
LINE
  8
_0-7_枠細線
  6
CONTINUOUS
 62
    5
 10
2499.9491985835093
 20
519.14411722233581
 11
2510.1381052491561
 21
519.14411722233581
  0
ARC
  8
_0-7_枠細線
  6
CONTINUOUS
 62
    5
 10
2529.3612385805682
 20
535.55244722069517
 40
0.899999999909939
 50
231.31781300003806
 51
308.68218699996123
  0
ARC
  8
_0-7_枠細線
  6
CONTINUOUS
 62
    5
 10
2537.6945719130686
 20
525.14411722173577
 40
12.43333333209006
 50
331.14636800000056
 51
128.6821870000058
  0
ARC
  8
_0-7_枠細線
  6
CONTINUOUS
 62
    5
 10
2672.5630085662506
 20
520.21729388889469
 40
17.180713331615152
 50
317.56162899999754
 51
42.438371000003109
  0
ARC
  8
_0-7_枠細線
  6
CONTINUOUS
 62
    5
 10
2697.9218652303807
 20
543.40427388657645
 40
17.180713331615152
 50
137.56162900000368
 51
222.43837099999902
  0
LINE
  8
_0-7_枠細線
  6
CONTINUOUS
 62
    5
 10
2668.5843752333126
 20
519.14411722233581
 11
2689.7101718978683
 21
519.14411722233581
  0
LINE
  8
_0-7_枠細線
  6
CONTINUOUS
 62
    5
 10
2608.584375239313
 20
544.4774505531359
 11
2680.7747018987625
 21
544.4774505531359
  0
ARC
  8
_0-7_枠細線
  6
CONTINUOUS
 62
    5
 10
2641.0279052360688
 20
525.14411722173577
 40
12.43333333209006
 50
51.317812999992242
 51
208.85363200000535
  0
ARC
  8
_0-7_枠細線
  6
CONTINUOUS
 62
    5
 10
2589.3612385745678
 20
528.06912055477653
 40
0.899999999909939
 50
51.317812999970606
 51
128.6821869999842
  0
ARC
  8
_0-7_枠細線
  6
CONTINUOUS
 62
    5
 10
2597.6945719070691
 20
538.47745055373593
 40
12.43333333209006
 50
231.31781299998696
 51
28.853631999996409
  0
ARC
  8
_0-7_枠細線
  6
CONTINUOUS
 62
    5
 10
2649.3612385685683
 20
535.55244722069517
 40
0.899999999909939
 50
231.31781299999287
 51
308.68218699998386
  0
ARC
  8
_0-7_枠細線
  6
CONTINUOUS
 62
    5
 10
2657.6945719010678
 20
525.14411722173577
 40
12.43333333209006
 50
331.14636800000056
 51
128.6821870000025
  0
LINE
  8
_0-7_枠細線
  6
CENTER1
 62
    5
 10
2529.3612385805682
 20
551.27702721912215
 11
2529.3612385805682
 21
512.58073055632565
  0
LINE
  8
_0-7_枠細線
  6
CENTER1
 62
    5
 10
2649.3612385685683
 20
551.27702721912215
 11
2649.3612385685683
 21
512.58073055632565
  0
LINE
  8
_0-7_枠細線
  6
CENTER1
 62
    5
 10
2589.3612385745678
 20
551.27702721912215
 11
2589.3612385745678
 21
512.58073055632565
  0
LINE
  8
_0-7_枠細線
  6
CONTINUOUS
 62
    5
 10
2529.3612385805682
 20
505.14411722273564
 11
2529.3612385805682
 21
455.14411722273564
  0
LINE
  8
_0-7_枠細線
  6
CONTINUOUS
 62
    5
 10
2529.3612385805682
 20
465.14411722273564
 11
2548.6797551063496
 21
470.32049812478613
  0
LINE
  8
_0-7_枠細線
  6
CONTINUOUS
 62
    5
 10
2529.3612385805682
 20
465.14411722273564
 11
2548.6797551063496
 21
459.96773632068528
  0
LINE
  8
_0-7_枠細線
  6
CONTINUOUS
 62
    5
 10
2589.3612385745678
 20
505.14411722273564
 11
2589.3612385745678
 21
455.14411722273564
  0
LINE
  8
_0-7_枠細線
  6
CONTINUOUS
 62
    5
 10
2589.3612385745678
 20
465.14411722273564
 11
2570.0427220487863
 21
459.96773632068533
  0
LINE
  8
_0-7_枠細線
  6
CONTINUOUS
 62
    5
 10
2589.3612385745678
 20
465.14411722273564
 11
2570.0427220487863
 21
470.32049812478618
  0
LINE
  8
_0-7_枠細線
  6
CONTINUOUS
 62
    5
 10
2529.3612385805682
 20
465.14411722273564
 11
2589.3612385745678
 21
465.14411722273564
  0
TEXT
  8
_0-7_枠細線
 62
    5
 10
2544.3612385775682
 20
465.14411722273564
 40
30
 41
1
 50
0
  1
18
  0
LINE
  8
_0-7_枠細線
  6
CONTINUOUS
 62
    5
 10
2589.3612385745678
 20
465.14411722273564
 11
2608.6797551003492
 21
470.32049812478596
  0
LINE
  8
_0-7_枠細線
  6
CONTINUOUS
 62
    5
 10
2589.3612385745678
 20
465.14411722273564
 11
2608.6797551003492
 21
459.96773632068511
  0
LINE
  8
_0-7_枠細線
  6
CONTINUOUS
 62
    5
 10
2649.3612385685683
 20
505.14411722273564
 11
2649.3612385685683
 21
455.14411722273564
  0
LINE
  8
_0-7_枠細線
  6
CONTINUOUS
 62
    5
 10
2649.3612385685683
 20
465.14411722273564
 11
2630.0427220427873
 21
459.96773632068533
  0
LINE
  8
_0-7_枠細線
  6
CONTINUOUS
 62
    5
 10
2649.3612385685683
 20
465.14411722273564
 11
2630.0427220427873
 21
470.32049812478618
  0
LINE
  8
_0-7_枠細線
  6
CONTINUOUS
 62
    5
 10
2589.3612385745678
 20
465.14411722273564
 11
2649.3612385685683
 21
465.14411722273564
  0
TEXT
  8
_0-7_枠細線
 62
    5
 10
2604.3612385715687
 20
465.14411722273564
 40
30
 41
1
 50
0
  1
18
  0
TEXT
  8
_0-7_枠細線
 62
    5
 10
2541.3612385745701
 20
570.63857392225316
 40
30.000000000000004
 41
0.7999999999999997
 50
0
  1
品番－Ｄ
  0
LINE
  8
_0-7_枠細線
  6
CONTINUOUS
 62
    5
 10
2479.3612385745691
 20
660.63857392225259
 11
2479.3612385745691
 21
450.63857392225316
  0
TEXT
  8
_0-7_枠細線
 62
    5
 10
2321.3612385745682
 20
620.63857392225316
 40
30.000000000000004
 41
0.8
 50
0
  1
プレーン
  0
LINE
  8
_0-7_枠細線
  6
CONTINUOUS
 62
    5
 10
2278.215943583682
 20
515.14411722273564
 11
2467.9769168980411
 21
515.14411722273564
  0
LINE
  8
_0-7_枠細線
  6
CONTINUOUS
 62
    5
 10
2270.7455569177619
 20
548.47745055273606
 11
2460.5065302321213
 21
548.47745055273606
  0
ARC
  8
_0-7_枠細線
  6
CONTINUOUS
 62
    5
 10
2451.5622968996809
 20
520.21729388889469
 40
17.180713331615152
 50
317.5616290000055
 51
42.438370999995222
  0
ARC
  8
_0-7_枠細線
  6
CONTINUOUS
 62
    5
 10
2261.801323585325
 20
520.21729388889469
 40
17.180713331615344
 50
317.56162899999958
 51
42.438371000002498
  0
LINE
  8
_0-7_枠細線
  6
CONTINUOUS
 62
    5
 10
2270.0130169178365
 20
544.4774505531359
 11
2459.773990232195
 21
544.4774505531359
  0
LINE
  8
_0-7_枠細線
  6
CONTINUOUS
 62
    5
 10
2278.9484869169428
 20
519.14411722233581
 11
2468.7094602313005
 21
519.14411722233581
  0
ARC
  8
_0-7_枠細線
  6
CONTINUOUS
 62
    5
 10
2287.160180249457
 20
543.40427388657645
 40
17.180713331615344
 50
137.56162899999856
 51
222.43837100000209
  0
ARC
  8
_0-7_枠細線
  6
CONTINUOUS
 62
    5
 10
2476.9211535638133
 20
543.40427388657645
 40
17.180713331615152
 50
137.56162899999958
 51
222.43837100000005
  0
TEXT
  8
_0-7_枠細線
 62
    5
 10
2321.3612385745705
 20
570.63857392225316
 40
30.000000000000004
 41
0.7999999999999997
 50
0
  1
品番－Ｆ
  0
TEXT
  8
_0-7_枠細線
 62
    5
 10
2161.3612385745691
 20
620.63857392225259
 40
30.000000000000004
 41
0.8
 50
0
  1
タ イ プ
  0
LINE
  8
_0-7_枠細線
  6
CONTINUOUS
 62
    5
 10
2159.3612385745682
 20
560.63857392225316
 11
2699.3612385745696
 21
560.63857392225316
  0
LINE
  8
_0-7_枠細線
  6
CONTINUOUS
 62
    5
 10
2159.3612385745682
 20
610.63857392225259
 11
2699.3612385745696
 21
610.63857392225259
  0
LINE
  8
_0-7_枠細線
  6
CONTINUOUS
 62
    5
 10
2159.3612385745682
 20
660.63857392225259
 11
2699.3612385745696
 21
660.63857392225259
  0
LINE
  8
_0-7_枠細線
  6
CONTINUOUS
 62
    5
 10
2159.3612385745682
 20
450.63857392225316
 11
2699.3612385745696
 21
450.63857392225316
  0
LINE
  8
_0-7_枠細線
  6
CONTINUOUS
 62
    5
 10
2259.3612385745696
 20
660.63857392225259
 11
2259.3612385745696
 21
450.63857392225316
  0
LINE
  8
_0-7_枠細線
  6
CONTINUOUS
 62
    5
 10
2159.3612385745682
 20
660.63857392225259
 11
2159.3612385745682
 21
450.63857392225316
  0
TEXT
  8
_0-7_枠細線
 62
    5
 10
2161.3612385745691
 20
490.63857392225316
 40
30.000000000000004
 41
0.8
 50
0
  1
表面形状
  0
TEXT
  8
_0-7_枠細線
 62
    5
 10
2161.3612385745691
 20
570.63857392225316
 40
30.000000000000004
 41
0.8
 50
0
  1
記　　号
  0
TEXT
  8
_0-7_枠細線
 62
    5
 10
2162.4798401307171
 20
665.63857392225316
 40
35.000000000000007
 41
0.7999999999999996
 50
0
  1
記号表
  0
ARC
  8
_0-e_極細4
  6
CONTINUOUS
 62
    6
 10
428.97305896430737
 20
750.10608774603372
 40
1.25
 50
179.99999999999983
 51
269.99999999999977
  0
LINE
  8
_0-e_極細4
  6
CONTINUOUS
 62
    6
 10
430.47305896430714
 20
748.85608774603372
 11
430.47305896430714
 21
751.35608774603372
  0
ARC
  8
_0-e_極細4
  6
CONTINUOUS
 62
    6
 10
647.97305896430714
 20
750.10608774603372
 40
1.25
 50
269.99999999999977
 51
359.99999999999966
  0
LINE
  8
_0-e_極細4
  6
CONTINUOUS
 62
    6
 10
646.47305896430737
 20
748.85608774603372
 11
646.47305896430737
 21
751.35608774603372
  0
LINE
  8
_0-e_極細4
  6
CONTINUOUS
 62
    6
 10
470.97305896430782
 20
566.35799344602424
 11
470.97305896430782
 21
713.79365024603339
  0
ARC
  8
_0-e_極細4
  6
CONTINUOUS
 62
    6
 10
473.47305896430669
 20
566.35799344602424
 40
2.5
 50
179.99999999999983
 51
270.00045836623457
  0
LINE
  8
_0-e_極細4
  6
CONTINUOUS
 62
    6
 10
473.47305896430669
 20
563.85799344602424
 11
538.47305896430782
 21
563.85799344602424
  0
LINE
  8
_0-e_極細4
  6
CONTINUOUS
 62
    6
 10
440.34805896430782
 20
550.83838594602435
 11
440.34805896430782
 21
618.33838594602446
  0
LINE
  8
_0-e_極細4
  6
CONTINUOUS
 62
    6
 10
470.34805896430782
 20
520.83838594602435
 11
475.97305896430782
 21
520.83838594602435
  0
ARC
  8
_0-e_極細4
  6
CONTINUOUS
 62
    6
 10
470.34805896430782
 20
550.83838594602435
 40
30
 50
179.99999999999983
 51
269.99999999999977
  0
LINE
  8
_0-e_極細4
  6
CONTINUOUS
 62
    6
 10
418.47305896430782
 20
643.14230344602402
 11
418.47305896430782
 21
710.83842774603363
  0
LINE
  8
_0-e_極細4
  6
CONTINUOUS
 62
    6
 10
538.47305896430782
 20
520.83838594602435
 11
536.14547396430737
 21
520.83838594602435
  0
LINE
  8
_0-e_極細4
  6
CONTINUOUS
 62
    6
 10
536.14547396430737
 20
520.83838594602435
 11
470.34805896430782
 21
520.83838594602435
  0
LINE
  8
_0-e_極細4
  6
CONTINUOUS
 62
    6
 10
440.34805896430782
 20
550.83838594602435
 11
440.34805896430782
 21
695.33842774603374
  0
LINE
  8
_0-e_極細4
  6
CONTINUOUS
 62
    6
 10
445.34805896430782
 20
550.83838594602435
 11
445.34805896430782
 21
695.33842774603374
  0
LINE
  8
_0-e_極細4
  6
CONTINUOUS
 62
    6
 10
538.47305896430782
 20
525.83838594602435
 11
470.34805896430782
 21
525.83838594602435
  0
ARC
  8
_0-e_極細4
  6
CONTINUOUS
 62
    6
 10
470.34805896430782
 20
550.83838594602435
 40
25
 50
179.99999999999983
 51
269.99999999999977
  0
LINE
  8
_0-e_極細4
  6
CONTINUOUS
 62
    6
 10
437.84805896430669
 20
731.35803524603364
 11
538.47305896430782
 21
731.35803524603364
  0
LINE
  8
_0-e_極細4
  6
CONTINUOUS
 62
    6
 10
437.84805896430669
 20
720.35803524603375
 11
437.84805896430669
 21
731.35803524603364
  0
LINE
  8
_0-e_極細4
  6
CONTINUOUS
 62
    6
 10
429.72305896430782
 20
731.35803524603364
 11
437.84805896430669
 21
731.35803524603364
  0
LINE
  8
_0-e_極細4
  6
CONTINUOUS
 62
    6
 10
432.22305896430782
 20
720.35803524603375
 11
437.84805896430669
 21
720.35803524603375
  0
LINE
  8
_0-e_極細4
  6
CONTINUOUS
 62
    6
 10
432.22305896430782
 20
717.85803524603375
 11
432.22305896430782
 21
720.35803524603375
  0
ARC
  8
_0-e_極細4
  6
CONTINUOUS
 62
    6
 10
437.22305896430782
 20
717.85803524603375
 40
5
 50
179.99999999999983
 51
269.99999999999977
  0
LINE
  8
_0-e_極細4
  6
CONTINUOUS
 62
    6
 10
437.22305896430782
 20
712.85803524603375
 11
444.72305896430782
 21
712.85803524603375
  0
ARC
  8
_0-e_極細4
  6
CONTINUOUS
 62
    6
 10
413.52555896430715
 20
759.48108774603372
 40
2.6250000000000284
 50
4.1509900000016975
 51
89.999999999999915
  0
LINE
  8
_0-e_極細4
  6
CONTINUOUS
 62
    6
 10
413.52555896430715
 20
723.8035877460336
 11
413.52555896430715
 21
762.10608774603338
  0
LINE
  8
_0-e_極細4
  6
CONTINUOUS
 62
    6
 10
413.52555896430715
 20
762.08842638040653
 11
396.2230589643076
 21
764.55282024603343
  0
LINE
  8
_0-e_極細4
  6
CONTINUOUS
 62
    6
 10
405.97305896430782
 20
705.33842774603295
 11
405.97305896430782
 21
725.33842774603374
  0
ARC
  8
_0-e_極細4
  6
CONTINUOUS
 62
    6
 10
399.72305896430782
 20
694.51311024603365
 40
12.5
 50
0
 51
60.000000000000107
  0
LINE
  8
_0-e_極細4
  6
CONTINUOUS
 62
    6
 10
396.2230589643076
 20
725.33842774603374
 11
396.2230589643076
 21
726.7265302460338
  0
LINE
  8
_0-e_極細4
  6
CONTINUOUS
 62
    6
 10
405.97305896430782
 20
725.33842774603374
 11
396.2230589643076
 21
725.33842774603374
  0
LINE
  8
_0-e_極細4
  6
CONTINUOUS
 62
    6
 10
396.2230589643076
 20
726.7265302460338
 11
396.2230589643076
 21
766.28487274603367
  0
LINE
  8
_0-e_極細4
  6
CONTINUOUS
 62
    6
 10
417.22305896430782
 20
712.83842774603295
 11
417.22305896430782
 21
720.10608774603293
  0
LINE
  8
_0-e_極細4
  6
CONTINUOUS
 62
    6
 10
413.52555896430715
 20
710.83842774603363
 11
417.22305896430782
 21
712.83842774603295
  0
LINE
  8
_0-e_極細4
  6
CONTINUOUS
 62
    6
 10
396.2230589643076
 20
760.33842774603374
 11
413.52555896430715
 21
758.33842774603363
  0
ARC
  8
_0-e_極細4
  6
CONTINUOUS
 62
    6
 10
442.84805896430782
 20
695.33842774603374
 40
2.5
 50
89.999999999999915
 51
179.99999999999983
  0
ARC
  8
_0-e_極細4
  6
CONTINUOUS
 62
    6
 10
442.84805896430782
 20
695.33842774603374
 40
2.5
 50
0
 51
89.999999999999915
  0
LINE
  8
_0-e_極細4
  6
CONTINUOUS
 62
    6
 10
538.47305896430669
 20
763.85608774603372
 11
413.52555896430715
 21
763.85608774603372
  0
LINE
  8
_0-e_極細4
  6
CONTINUOUS
 62
    6
 10
437.84805896430669
 20
730.10608774603372
 11
427.72305896430737
 21
730.10608774603372
  0
LINE
  8
_0-e_極細4
  6
CONTINUOUS
 62
    6
 10
420.369998964307
 20
757.60608774603372
 11
423.34805896430737
 21
757.60608774603372
  0
LINE
  8
_0-e_極細4
  6
CONTINUOUS
 62
    6
 10
427.72305896430737
 20
726.85608774603361
 11
427.72305896430737
 21
753.23108774603372
  0
LINE
  8
_0-e_極細4
  6
CONTINUOUS
 62
    6
 10
422.22305896430669
 20
757.60608774603372
 11
422.22305896430669
 21
763.85608774603372
  0
ARC
  8
_0-e_極細4
  6
CONTINUOUS
 62
    6
 10
423.34805896430737
 20
753.23108774603372
 40
4.3749999999999982
 50
0
 51
89.999999999999915
  0
ARC
  8
_0-e_極細4
  6
CONTINUOUS
 62
    6
 10
413.52555896430715
 20
759.48108774603372
 40
4.3749999999999982
 50
4.1509899999967477
 51
89.999999999999915
  0
ARC
  8
_0-e_極細4
  6
CONTINUOUS
 62
    6
 10
420.369998964307
 20
760.10608774603372
 40
2.5
 50
183.35088799999644
 51
269.99999999999977
  0
ARC
  8
_0-e_極細4
  6
CONTINUOUS
 62
    6
 10
420.369998964307
 20
760.10608774603372
 40
4.2499999999999716
 50
183.35088800000065
 51
269.99999999999977
  0
LINE
  8
_0-e_極細4
  6
CONTINUOUS
 62
    6
 10
420.369998964307
 20
755.85608774603338
 11
423.34805896430737
 21
755.85608774603338
  0
ARC
  8
_0-e_極細4
  6
CONTINUOUS
 62
    6
 10
423.34805896430737
 20
753.23108774603372
 40
2.6250000000000284
 50
0
 51
89.999999999999915
  0
LINE
  8
_0-e_極細4
  6
CONTINUOUS
 62
    6
 10
425.97305896430782
 20
725.10608774603372
 11
425.97305896430669
 21
753.23108774603372
  0
LINE
  8
_0-e_極細4
  6
CONTINUOUS
 62
    6
 10
413.52555896430715
 20
723.8035877460336
 11
417.22305896430782
 21
720.10608774603293
  0
LINE
  8
_0-e_極細4
  6
CONTINUOUS
 62
    6
 10
430.97305896430782
 20
715.10608774603372
 11
430.97305896430782
 21
730.10608774603372
  0
LINE
  8
_0-e_極細4
  6
CONTINUOUS
 62
    6
 10
430.97305896430782
 20
725.10608774603372
 11
425.97305896430782
 21
725.10608774603372
  0
LINE
  8
_0-e_極細4
  6
CONTINUOUS
 62
    6
 10
430.97305896430782
 20
726.85608774603361
 11
427.72305896430737
 21
726.85608774603361
  0
LINE
  8
_0-e_極細4
  6
CONTINUOUS
 62
    6
 10
433.04851896430762
 20
715.10608774603372
 11
430.97305896430782
 21
715.10608774603372
  0
LINE
  8
_0-e_極細4
  6
CONTINUOUS
 62
    6
 10
430.97305896430782
 20
720.10608774603293
 11
417.22305896430782
 21
720.10608774603293
  0
LINE
  8
_0-e_極細4
  6
CONTINUOUS
 62
    6
 10
464.00727646430767
 20
715.85608774603338
 11
451.50727646430767
 21
715.85608774603338
  0
LINE
  8
_0-e_極細4
  6
CONTINUOUS
 62
    6
 10
464.00727646430767
 20
715.85608774603338
 11
464.00727646430767
 21
720.10608774603293
  0
LINE
  8
_0-e_極細4
  6
CONTINUOUS
 62
    6
 10
451.50727646430767
 20
715.85608774603338
 11
451.50727646430767
 21
720.10608774603293
  0
LINE
  8
_0-e_極細4
  6
CONTINUOUS
 62
    6
 10
422.34805896430714
 20
758.10608774603361
 11
422.34805896430714
 21
761.35608774603372
  0
LINE
  8
_0-e_極細4
  6
CONTINUOUS
 62
    6
 10
538.47305896430669
 20
762.60608774603372
 11
423.59805896430714
 21
762.60608774603372
  0
LINE
  8
_0-e_極細4
  6
CONTINUOUS
 62
    6
 10
427.72305896430737
 20
757.60608774603372
 11
422.84805896430669
 21
757.60608774603372
  0
LINE
  8
_0-e_極細4
  6
CONTINUOUS
 62
    6
 10
427.72305896430737
 20
750.10608774603372
 11
427.72305896430737
 21
757.60608774603372
  0
ARC
  8
_0-e_極細4
  6
CONTINUOUS
 62
    6
 10
423.59805896430714
 20
761.35608774603372
 40
1.25
 50
155.94545099999934
 51
179.99999999999983
  0
ARC
  8
_0-e_極細4
  6
CONTINUOUS
 62
    6
 10
422.84805896430669
 20
758.10608774603361
 40
0.4999999999999715
 50
179.99999999999983
 51
269.99999999999977
  0
ARC
  8
_0-e_極細4
  6
CONTINUOUS
 62
    6
 10
423.59805896430714
 20
761.35608774603372
 40
1.25
 50
89.999999999999915
 51
155.94545099999934
  0
LINE
  8
_0-e_極細4
  6
CONTINUOUS
 62
    6
 10
537.97305896430714
 20
751.35608774603372
 11
430.47305896430714
 21
751.35608774603372
  0
LINE
  8
_0-e_極細4
  6
CONTINUOUS
 62
    6
 10
537.97305896430714
 20
748.85608774603372
 11
428.97305896430737
 21
748.85608774603372
  0
LINE
  8
_0-e_極細4
  6
CONTINUOUS
 62
    6
 10
538.47305896430782
 20
746.12136274603381
 11
428.0980589643076
 21
746.12136274603347
  0
LINE
  8
_0-e_極細4
  6
CONTINUOUS
 62
    6
 10
439.09805896430782
 20
746.12136274603347
 11
439.09805896430782
 21
744.87136274603347
  0
LINE
  8
_0-e_極細4
  6
CONTINUOUS
 62
    6
 10
430.09805896430692
 20
742.37136274603347
 11
428.0980589643076
 21
746.12136274603347
  0
LINE
  8
_0-e_極細4
  6
CONTINUOUS
 62
    6
 10
440.34805896430782
 20
737.87136274603336
 11
439.09805896430782
 21
739.12136274603336
  0
LINE
  8
_0-e_極細4
  6
CONTINUOUS
 62
    6
 10
439.09805896430782
 20
736.62136274603336
 11
440.34805896430782
 21
737.87136274603336
  0
LINE
  8
_0-e_極細4
  6
CONTINUOUS
 62
    6
 10
439.09805896430782
 20
742.37136274603347
 11
440.34805896430782
 21
743.62136274603347
  0
LINE
  8
_0-e_極細4
  6
CONTINUOUS
 62
    6
 10
440.34805896430782
 20
743.62136274603347
 11
439.09805896430782
 21
744.87136274603347
  0
LINE
  8
_0-e_極細4
  6
CONTINUOUS
 62
    6
 10
538.47305896430782
 20
743.62136274603381
 11
440.34805896430782
 21
743.62136274603347
  0
LINE
  8
_0-e_極細4
  6
CONTINUOUS
 62
    6
 10
538.47305896430782
 20
737.87136274603336
 11
440.34805896430782
 21
737.87136274603336
  0
LINE
  8
_0-e_極細4
  6
CONTINUOUS
 62
    6
 10
538.47305896430782
 20
735.37136274603336
 11
430.09805896430692
 21
735.37136274603336
  0
LINE
  8
_0-e_極細4
  6
CONTINUOUS
 62
    6
 10
430.09805896430692
 20
742.37136274603347
 11
430.09805896430692
 21
735.37136274603336
  0
LINE
  8
_0-e_極細4
  6
CONTINUOUS
 62
    6
 10
439.09805896430782
 20
736.62136274603336
 11
439.09805896430782
 21
735.37136274603336
  0
LINE
  8
_0-e_極細4
  6
CONTINUOUS
 62
    6
 10
439.09805896430782
 20
742.37136274603347
 11
439.09805896430782
 21
739.12136274603336
  0
LINE
  8
_0-e_極細4
  6
CONTINUOUS
 62
    6
 10
429.72305896430782
 20
731.35803524603364
 11
429.72305896430782
 21
735.10803524603364
  0
LINE
  8
_0-e_極細4
  6
CONTINUOUS
 62
    6
 10
429.72305896430782
 20
735.10803524603364
 11
538.47305896430782
 21
735.10803524603364
  0
LINE
  8
_0-e_極細4
  6
CONTINUOUS
 62
    6
 10
429.72305896430782
 20
746.60803524603375
 11
538.47305896430782
 21
746.60803524603375
  0
LINE
  8
_0-e_極細4
  6
CONTINUOUS
 62
    6
 10
429.72305896430782
 20
746.60803524603375
 11
429.72305896430782
 21
748.85608774603372
  0
LINE
  8
_0-e_極細4
  6
CONTINUOUS
 62
    6
 10
470.97305896430782
 20
712.83842774603295
 11
417.22305896430782
 21
712.83842774603295
  0
LINE
  8
_0-e_極細4
  6
CONTINUOUS
 62
    6
 10
470.97305896430782
 20
710.09926774603389
 11
470.97305896430782
 21
713.79365024603339
  0
LINE
  8
_0-e_極細4
  6
CONTINUOUS
 62
    6
 10
413.52555896430715
 20
763.85608774603372
 11
396.2230589643076
 21
766.32048028270924
  0
LINE
  8
_0-e_極細4
  6
CONTINUOUS
 62
    6
 10
442.84805896430782
 20
697.83842774603295
 11
470.97305896430782
 21
697.83842774603295
  0
LINE
  8
_0-e_極細4
  6
CONTINUOUS
 62
    6
 10
470.97305896430782
 20
710.83842774603363
 11
413.52555896430715
 21
710.83842774603363
  0
LINE
  8
_0-e_極細4
  6
CONTINUOUS
 62
    6
 10
396.2230589643076
 20
764.58842774603363
 11
396.2230589643076
 21
766.32048028270924
  0
LINE
  8
_0-e_極細4
  6
CONTINUOUS
 62
    6
 10
656.28555897376771
 20
640.66191159309278
 11
636.59805896430669
 21
640.66191159309278
  0
LINE
  8
_0-e_極細4
  6
CONTINUOUS
 62
    6
 10
605.97305896430669
 20
566.35799344602424
 11
605.97305896430669
 21
713.79365024603339
  0
ARC
  8
_0-e_極細4
  6
CONTINUOUS
 62
    6
 10
603.47305896430669
 20
566.35799344602424
 40
2.5
 50
269.99954163376469
 51
359.99999999999966
  0
LINE
  8
_0-e_極細4
  6
CONTINUOUS
 62
    6
 10
603.47305896430669
 20
563.85799344602424
 11
538.47305896430669
 21
563.85799344602424
  0
LINE
  8
_0-e_極細4
  6
CONTINUOUS
 62
    6
 10
636.59805896430669
 20
550.83838594602435
 11
636.59805896430669
 21
618.33838594602446
  0
LINE
  8
_0-e_極細4
  6
CONTINUOUS
 62
    6
 10
606.59805896430669
 20
520.83838594602435
 11
600.97305896430669
 21
520.83838594602435
  0
ARC
  8
_0-e_極細4
  6
CONTINUOUS
 62
    6
 10
606.59805896430669
 20
550.83838594602435
 40
30
 50
269.99999999999977
 51
359.99999999999966
  0
LINE
  8
_0-e_極細4
  6
CONTINUOUS
 62
    6
 10
538.47305896430669
 20
520.83838594602435
 11
540.80064396430714
 21
520.83838594602435
  0
LINE
  8
_0-e_極細4
  6
CONTINUOUS
 62
    6
 10
540.80064396430714
 20
520.83838594602435
 11
606.59805896430669
 21
520.83838594602435
  0
LINE
  8
_0-e_極細4
  6
CONTINUOUS
 62
    6
 10
636.59805896430669
 20
550.83838594602435
 11
636.59805896430669
 21
695.33842774603374
  0
LINE
  8
_0-e_極細4
  6
CONTINUOUS
 62
    6
 10
631.59805896430782
 20
550.83838594602435
 11
631.59805896430782
 21
695.33842774603374
  0
LINE
  8
_0-e_極細4
  6
CONTINUOUS
 62
    6
 10
538.47305896430669
 20
525.83838594602435
 11
606.59805896430669
 21
525.83838594602435
  0
ARC
  8
_0-e_極細4
  6
CONTINUOUS
 62
    6
 10
606.59805896430669
 20
550.83838594602435
 40
25
 50
269.99999999999977
 51
359.99999999999966
  0
LINE
  8
_0-e_極細4
  6
CONTINUOUS
 62
    6
 10
639.09805896430782
 20
731.35803524603364
 11
538.47305896430669
 21
731.35803524603364
  0
LINE
  8
_0-e_極細4
  6
CONTINUOUS
 62
    6
 10
639.09805896430782
 20
720.35803524603375
 11
639.09805896430782
 21
731.35803524603364
  0
LINE
  8
_0-e_極細4
  6
CONTINUOUS
 62
    6
 10
647.22305896430782
 20
731.35803524603364
 11
639.09805896430782
 21
731.35803524603364
  0
LINE
  8
_0-e_極細4
  6
CONTINUOUS
 62
    6
 10
644.72305896430782
 20
720.35803524603375
 11
639.09805896430782
 21
720.35803524603375
  0
LINE
  8
_0-e_極細4
  6
CONTINUOUS
 62
    6
 10
644.72305896430782
 20
717.85803524603375
 11
644.72305896430782
 21
720.35803524603375
  0
ARC
  8
_0-e_極細4
  6
CONTINUOUS
 62
    6
 10
639.72305896430782
 20
717.85803524603375
 40
5
 50
269.99999999999977
 51
359.99999999999966
  0
LINE
  8
_0-e_極細4
  6
CONTINUOUS
 62
    6
 10
639.72305896430782
 20
712.85803524603375
 11
632.22305896430782
 21
712.85803524603375
  0
ARC
  8
_0-e_極細4
  6
CONTINUOUS
 62
    6
 10
663.42055896430736
 20
759.48108774603372
 40
2.6250000000000284
 50
89.999999999999915
 51
175.84900999999832
  0
LINE
  8
_0-e_極細4
  6
CONTINUOUS
 62
    6
 10
663.42055896430736
 20
723.8035877460336
 11
663.42055896430736
 21
762.10608774603338
  0
LINE
  8
_0-e_極細4
  6
CONTINUOUS
 62
    6
 10
663.42055896430736
 20
762.08842638040653
 11
680.72305896430692
 21
764.55282024603343
  0
LINE
  8
_0-e_極細4
  6
CONTINUOUS
 62
    6
 10
670.97305896430669
 20
705.33842774603295
 11
670.97305896430669
 21
725.33842774603374
  0
ARC
  8
_0-e_極細4
  6
CONTINUOUS
 62
    6
 10
677.22305896430669
 20
694.51311024603365
 40
12.5
 50
119.99999999999989
 51
179.99999999999983
  0
LINE
  8
_0-e_極細4
  6
CONTINUOUS
 62
    6
 10
680.72305896430692
 20
725.33842774603374
 11
680.72305896430692
 21
726.7265302460338
  0
LINE
  8
_0-e_極細4
  6
CONTINUOUS
 62
    6
 10
670.97305896430669
 20
725.33842774603374
 11
680.72305896430692
 21
725.33842774603374
  0
LINE
  8
_0-e_極細4
  6
CONTINUOUS
 62
    6
 10
680.72305896430692
 20
726.7265302460338
 11
680.72305896430692
 21
766.28487274603367
  0
LINE
  8
_0-e_極細4
  6
CONTINUOUS
 62
    6
 10
659.72305896430782
 20
712.83842774603295
 11
659.72305896430782
 21
720.10608774603293
  0
LINE
  8
_0-e_極細4
  6
CONTINUOUS
 62
    6
 10
663.42055896430622
 20
710.83842774603363
 11
659.72305896430782
 21
712.83842774603295
  0
LINE
  8
_0-e_極細4
  6
CONTINUOUS
 62
    6
 10
680.72305896430692
 20
760.33842774603374
 11
663.42055896430736
 21
758.33842774603363
  0
ARC
  8
_0-e_極細4
  6
CONTINUOUS
 62
    6
 10
634.09805896430782
 20
695.33842774603374
 40
2.5
 50
0
 51
89.999999999999915
  0
ARC
  8
_0-e_極細4
  6
CONTINUOUS
 62
    6
 10
634.09805896430782
 20
695.33842774603374
 40
2.5
 50
89.999999999999915
 51
179.99999999999983
  0
LINE
  8
_0-e_極細4
  6
CONTINUOUS
 62
    6
 10
538.47305896430669
 20
763.85608774603372
 11
663.42055896430736
 21
763.85608774603372
  0
LINE
  8
_0-e_極細4
  6
CONTINUOUS
 62
    6
 10
639.09805896430782
 20
730.10608774603372
 11
649.22305896430714
 21
730.10608774603372
  0
LINE
  8
_0-e_極細4
  6
CONTINUOUS
 62
    6
 10
656.57611896430751
 20
757.60608774603372
 11
653.59805896430714
 21
757.60608774603372
  0
LINE
  8
_0-e_極細4
  6
CONTINUOUS
 62
    6
 10
649.22305896430714
 20
726.85608774603361
 11
649.22305896430714
 21
753.23108774603372
  0
LINE
  8
_0-e_極細4
  6
CONTINUOUS
 62
    6
 10
654.72305896430782
 20
757.60608774603372
 11
654.72305896430782
 21
763.85608774603372
  0
ARC
  8
_0-e_極細4
  6
CONTINUOUS
 62
    6
 10
653.59805896430714
 20
753.23108774603372
 40
4.3749999999999982
 50
89.999999999999915
 51
179.99999999999983
  0
ARC
  8
_0-e_極細4
  6
CONTINUOUS
 62
    6
 10
663.42055896430736
 20
759.48108774603372
 40
4.3749999999999982
 50
89.999999999999915
 51
175.84901000000218
  0
ARC
  8
_0-e_極細4
  6
CONTINUOUS
 62
    6
 10
656.57611896430751
 20
760.10608774603372
 40
2.5
 50
269.99999999999977
 51
356.64911200000284
  0
ARC
  8
_0-e_極細4
  6
CONTINUOUS
 62
    6
 10
656.57611896430751
 20
760.10608774603372
 40
4.2499999999999716
 50
269.99999999999977
 51
356.64911199999864
  0
LINE
  8
_0-e_極細4
  6
CONTINUOUS
 62
    6
 10
656.57611896430751
 20
755.85608774603338
 11
653.59805896430714
 21
755.85608774603338
  0
ARC
  8
_0-e_極細4
  6
CONTINUOUS
 62
    6
 10
653.59805896430714
 20
753.23108774603372
 40
2.6250000000000284
 50
89.999999999999915
 51
179.99999999999983
  0
LINE
  8
_0-e_極細4
  6
CONTINUOUS
 62
    6
 10
650.97305896430782
 20
725.10608774603372
 11
650.97305896430782
 21
753.23108774603372
  0
LINE
  8
_0-e_極細4
  6
CONTINUOUS
 62
    6
 10
663.42055896430736
 20
723.8035877460336
 11
659.72305896430782
 21
720.10608774603293
  0
LINE
  8
_0-e_極細4
  6
CONTINUOUS
 62
    6
 10
645.97305896430669
 20
715.10608774603372
 11
645.97305896430669
 21
730.10608774603372
  0
LINE
  8
_0-e_極細4
  6
CONTINUOUS
 62
    6
 10
645.97305896430669
 20
725.10608774603372
 11
650.97305896430782
 21
725.10608774603372
  0
LINE
  8
_0-e_極細4
  6
CONTINUOUS
 62
    6
 10
645.97305896430669
 20
726.85608774603361
 11
649.22305896430714
 21
726.85608774603361
  0
LINE
  8
_0-e_極細4
  6
CONTINUOUS
 62
    6
 10
643.89759896430689
 20
715.10608774603372
 11
645.97305896430669
 21
715.10608774603372
  0
LINE
  8
_0-e_極細4
  6
CONTINUOUS
 62
    6
 10
645.97305896430669
 20
720.10608774603293
 11
659.72305896430782
 21
720.10608774603293
  0
LINE
  8
_0-e_極細4
  6
CONTINUOUS
 62
    6
 10
612.93884146430685
 20
715.85608774603338
 11
625.43884146430685
 21
715.85608774603338
  0
LINE
  8
_0-e_極細4
  6
CONTINUOUS
 62
    6
 10
612.93884146430685
 20
715.85608774603338
 11
612.93884146430685
 21
720.10608774603293
  0
LINE
  8
_0-e_極細4
  6
CONTINUOUS
 62
    6
 10
625.43884146430685
 20
715.85608774603338
 11
625.43884146430685
 21
720.10608774603293
  0
LINE
  8
_0-e_極細4
  6
CONTINUOUS
 62
    6
 10
654.59805896430737
 20
758.10608774603361
 11
654.59805896430737
 21
761.35608774603372
  0
LINE
  8
_0-e_極細4
  6
CONTINUOUS
 62
    6
 10
538.47305896430669
 20
762.60608774603372
 11
653.34805896430737
 21
762.60608774603372
  0
LINE
  8
_0-e_極細4
  6
CONTINUOUS
 62
    6
 10
649.22305896430714
 20
757.60608774603372
 11
654.09805896430782
 21
757.60608774603372
  0
LINE
  8
_0-e_極細4
  6
CONTINUOUS
 62
    6
 10
649.22305896430714
 20
750.10608774603372
 11
649.22305896430714
 21
757.60608774603372
  0
ARC
  8
_0-e_極細4
  6
CONTINUOUS
 62
    6
 10
653.34805896430737
 20
761.35608774603372
 40
1.25
 50
0
 51
24.054549000000669
  0
ARC
  8
_0-e_極細4
  6
CONTINUOUS
 62
    6
 10
654.09805896430782
 20
758.10608774603361
 40
0.4999999999999715
 50
269.99999999999977
 51
359.99999999999966
  0
ARC
  8
_0-e_極細4
  6
CONTINUOUS
 62
    6
 10
653.34805896430737
 20
761.35608774603372
 40
1.25
 50
24.054549000000669
 51
89.999999999999901
  0
LINE
  8
_0-e_極細4
  6
CONTINUOUS
 62
    6
 10
538.97305896430737
 20
751.35608774603372
 11
646.47305896430737
 21
751.35608774603372
  0
LINE
  8
_0-e_極細4
  6
CONTINUOUS
 62
    6
 10
538.97305896430737
 20
748.85608774603372
 11
647.97305896430714
 21
748.85608774603372
  0
LINE
  8
_0-e_極細4
  6
CONTINUOUS
 62
    6
 10
538.47305896430669
 20
746.12136274603381
 11
648.84805896430692
 21
746.12136274603347
  0
LINE
  8
_0-e_極細4
  6
CONTINUOUS
 62
    6
 10
637.84805896430782
 20
746.12136274603347
 11
637.84805896430782
 21
744.87136274603347
  0
LINE
  8
_0-e_極細4
  6
CONTINUOUS
 62
    6
 10
646.8480589643076
 20
742.37136274603347
 11
648.84805896430692
 21
746.12136274603347
  0
LINE
  8
_0-e_極細4
  6
CONTINUOUS
 62
    6
 10
636.59805896430669
 20
737.87136274603336
 11
637.84805896430782
 21
739.12136274603336
  0
LINE
  8
_0-e_極細4
  6
CONTINUOUS
 62
    6
 10
637.84805896430782
 20
736.62136274603336
 11
636.59805896430669
 21
737.87136274603336
  0
LINE
  8
_0-e_極細4
  6
CONTINUOUS
 62
    6
 10
637.84805896430782
 20
742.37136274603347
 11
636.59805896430669
 21
743.62136274603347
  0
LINE
  8
_0-e_極細4
  6
CONTINUOUS
 62
    6
 10
636.59805896430669
 20
743.62136274603347
 11
637.84805896430782
 21
744.87136274603347
  0
LINE
  8
_0-e_極細4
  6
CONTINUOUS
 62
    6
 10
538.47305896430669
 20
743.62136274603381
 11
636.59805896430669
 21
743.62136274603347
  0
LINE
  8
_0-e_極細4
  6
CONTINUOUS
 62
    6
 10
538.47305896430669
 20
737.87136274603336
 11
636.59805896430669
 21
737.87136274603336
  0
LINE
  8
_0-e_極細4
  6
CONTINUOUS
 62
    6
 10
538.47305896430669
 20
735.37136274603336
 11
646.8480589643076
 21
735.37136274603336
  0
LINE
  8
_0-e_極細4
  6
CONTINUOUS
 62
    6
 10
646.8480589643076
 20
742.37136274603347
 11
646.8480589643076
 21
735.37136274603336
  0
LINE
  8
_0-e_極細4
  6
CONTINUOUS
 62
    6
 10
637.84805896430782
 20
736.62136274603336
 11
637.84805896430782
 21
735.37136274603336
  0
LINE
  8
_0-e_極細4
  6
CONTINUOUS
 62
    6
 10
637.84805896430782
 20
742.37136274603347
 11
637.84805896430782
 21
739.12136274603336
  0
LINE
  8
_0-e_極細4
  6
CONTINUOUS
 62
    6
 10
647.22305896430782
 20
731.35803524603364
 11
647.22305896430782
 21
735.10803524603364
  0
LINE
  8
_0-e_極細4
  6
CONTINUOUS
 62
    6
 10
647.22305896430782
 20
735.10803524603364
 11
538.47305896430669
 21
735.10803524603364
  0
LINE
  8
_0-e_極細4
  6
CONTINUOUS
 62
    6
 10
647.22305896430782
 20
746.60803524603375
 11
538.47305896430669
 21
746.60803524603375
  0
LINE
  8
_0-e_極細4
  6
CONTINUOUS
 62
    6
 10
647.22305896430782
 20
746.60803524603375
 11
647.22305896430782
 21
748.85608774603372
  0
LINE
  8
_0-e_極細4
  6
CONTINUOUS
 62
    6
 10
605.97305896430669
 20
712.83842774603295
 11
659.72305896430782
 21
712.83842774603295
  0
LINE
  8
_0-e_極細4
  6
CONTINUOUS
 62
    6
 10
605.97305896430669
 20
710.09926774603389
 11
605.97305896430669
 21
713.79365024603339
  0
LINE
  8
_0-e_極細4
  6
CONTINUOUS
 62
    6
 10
663.42055896430736
 20
763.85608774603372
 11
680.72305896430692
 21
766.32048028270924
  0
LINE
  8
_0-e_極細4
  6
CONTINUOUS
 62
    6
 10
634.09805896430782
 20
697.83842774603295
 11
605.97305896430669
 21
697.83842774603295
  0
LINE
  8
_0-e_極細4
  6
CONTINUOUS
 62
    6
 10
605.97305896430669
 20
710.83842774603363
 11
663.42055896430622
 21
710.83842774603363
  0
LINE
  8
_0-e_極細4
  6
CONTINUOUS
 62
    6
 10
680.72305896430692
 20
764.58842774603363
 11
680.72305896430692
 21
766.32048028270924
  0
LINE
  8
_0-e_極細4
  6
CONTINUOUS
 62
    6
 10
396.2230589643076
 20
766.32048028270924
 11
680.72305896430692
 21
766.32048028270924
  0
LINE
  8
_0-e_極細4
  6
CONTINUOUS
 62
    6
 10
663.42055896430736
 20
758.93975539079281
 11
668.6227947510298
 21
758.93975539079281
  0
LINE
  8
_0-e_極細4
  6
CONTINUOUS
 62
    6
 10
663.42055896430736
 20
760.43975539079293
 11
680.72305896430692
 21
760.43975539079293
  0
LINE
  8
_0-e_極細4
  6
CONTINUOUS
 62
    6
 10
663.42055896430736
 20
761.9397553907927
 11
680.72305896430692
 21
761.9397553907927
  0
LINE
  8
_0-e_極細4
  6
CONTINUOUS
 62
    6
 10
672.90823482989424
 20
763.43975539079247
 11
680.72305896430692
 21
763.43975539079247
  0
LINE
  8
_0-e_極細4
  6
CONTINUOUS
 62
    6
 10
408.32332317758471
 20
758.93975539079281
 11
413.52555896430715
 21
758.93975539079281
  0
LINE
  8
_0-e_極細4
  6
CONTINUOUS
 62
    6
 10
396.2230589643076
 20
760.43975539079293
 11
413.52555896430715
 21
760.43975539079293
  0
LINE
  8
_0-e_極細4
  6
CONTINUOUS
 62
    6
 10
396.2230589643076
 20
761.9397553907927
 11
413.52555896430715
 21
761.9397553907927
  0
LINE
  8
_0-e_極細4
  6
CONTINUOUS
 62
    6
 10
396.2230589643076
 20
763.43975539079247
 11
404.03788309872027
 21
763.43975539079247
  0
ARC
  8
_0-e_極細4
  6
CONTINUOUS
 62
    6
 10
620.97305896430782
 20
713.79365024603339
 40
15
 50
155.11305268293316
 51
179.99999999999983
  0
ARC
  8
_0-e_極細4
  6
CONTINUOUS
 62
    6
 10
620.97305896430782
 20
713.79365024603339
 40
15
 50
55.166292356156568
 51
155.11305268293316
  0
ARC
  8
_0-e_極細4
  6
CONTINUOUS
 62
    6
 10
624.72305896430782
 20
720.35803524603375
 40
7.5
 50
358.07490068719875
 51
50.029499419963869
  0
LINE
  8
_0-e_極細4
  6
CONTINUOUS
 62
    6
 10
607.36596034599017
 20
720.10608774603293
 11
632.22305896430782
 21
720.10608774603293
  0
LINE
  8
_0-e_極細4
  6
CONTINUOUS
 62
    6
 10
632.22305896430782
 20
712.85803524603375
 11
632.22305896430782
 21
720.10608774603293
  0
LINE
  8
_0-e_極細4
  6
CONTINUOUS
 62
    6
 10
630.75012089014479
 20
720.10608774603293
 11
630.75012089014479
 21
724.82172481209
  0
LINE
  8
_0-e_極細4
  6
CONTINUOUS
 62
    6
 10
629.25012089014388
 20
720.10608774603293
 11
629.25012089014388
 21
726.30325638994793
  0
LINE
  8
_0-e_極細4
  6
CONTINUOUS
 62
    6
 10
627.7501208901441
 20
720.10608774603293
 11
627.7501208901441
 21
727.17540766624427
  0
LINE
  8
_0-e_極細4
  6
CONTINUOUS
 62
    6
 10
626.25012089014547
 20
720.10608774603293
 11
626.25012089014547
 21
727.83475481194603
  0
LINE
  8
_0-e_極細4
  6
CONTINUOUS
 62
    6
 10
624.75012089014456
 20
720.10608774603293
 11
624.75012089014456
 21
728.31032352913769
  0
LINE
  8
_0-e_極細4
  6
CONTINUOUS
 62
    6
 10
623.25012089014365
 20
720.10608774603293
 11
623.25012089014365
 21
728.6198091884537
  0
LINE
  8
_0-e_極細4
  6
CONTINUOUS
 62
    6
 10
621.75012089014388
 20
720.10608774603293
 11
621.75012089014388
 21
728.77350921611105
  0
LINE
  8
_0-e_極細4
  6
CONTINUOUS
 62
    6
 10
620.2501208901441
 20
720.10608774603293
 11
620.2501208901441
 21
728.77621880222353
  0
LINE
  8
_0-e_極細4
  6
CONTINUOUS
 62
    6
 10
618.75012089014433
 20
720.10608774603293
 11
618.75012089014433
 21
728.62802068493113
  0
LINE
  8
_0-e_極細4
  6
CONTINUOUS
 62
    6
 10
617.25012089014456
 20
720.10608774603293
 11
617.25012089014456
 21
728.32429827342582
  0
LINE
  8
_0-e_極細4
  6
CONTINUOUS
 62
    6
 10
615.75012089014365
 20
720.10608774603293
 11
615.75012089014365
 21
727.8549772770599
  0
LINE
  8
_0-e_極細4
  6
CONTINUOUS
 62
    6
 10
614.25012089014388
 20
720.10608774603293
 11
614.25012089014388
 21
727.20268092132744
  0
LINE
  8
_0-e_極細4
  6
CONTINUOUS
 62
    6
 10
612.7501208901441
 20
720.10608774603293
 11
612.7501208901441
 21
726.33889992184652
  0
LINE
  8
_0-e_極細4
  6
CONTINUOUS
 62
    6
 10
611.25012089014319
 20
720.10608774603293
 11
611.25012089014319
 21
725.21575492100419
  0
LINE
  8
_0-e_極細4
  6
CONTINUOUS
 62
    6
 10
609.75012089014456
 20
720.10608774603293
 11
609.75012089014456
 21
723.74581890334093
  0
LINE
  8
_0-e_極細4
  6
CONTINUOUS
 62
    6
 10
608.25012089014365
 20
720.10608774603293
 11
608.25012089014365
 21
721.73889075598731
  0
ARC
  8
_0-e_極細4
  6
CONTINUOUS
 62
    6
 10
452.22305896430782
 20
720.35803524603375
 40
7.5
 50
129.97050058004243
 51
181.92509931280023
  0
LINE
  8
_0-e_極細4
  6
CONTINUOUS
 62
    6
 10
444.72305896430782
 20
712.85803524603375
 11
444.72305896430782
 21
720.10608774603293
  0
ARC
  8
_0-e_極細4
  6
CONTINUOUS
 62
    6
 10
455.97305896430782
 20
713.79365024603339
 40
15
 50
24.886947317068667
 51
124.83370764384701
  0
LINE
  8
_0-e_極細4
  6
CONTINUOUS
 62
    6
 10
469.58015758262434
 20
720.10608774603293
 11
444.72305896430782
 21
720.10608774603293
  0
ARC
  8
_0-e_極細4
  6
CONTINUOUS
 62
    6
 10
455.97305896430782
 20
713.79365024603339
 40
15
 50
0
 51
24.886947317068667
  0
LINE
  8
_0-e_極細4
  6
CONTINUOUS
 62
    6
 10
468.75012089014433
 20
720.10608774603293
 11
468.75012089014433
 21
721.65155636301722
  0
LINE
  8
_0-e_極細4
  6
CONTINUOUS
 62
    6
 10
467.25012089014456
 20
720.10608774603293
 11
467.25012089014456
 21
723.6844477022978
  0
LINE
  8
_0-e_極細4
  6
CONTINUOUS
 62
    6
 10
465.75012089014479
 20
720.10608774603293
 11
465.75012089014479
 21
725.1694605511658
  0
LINE
  8
_0-e_極細4
  6
CONTINUOUS
 62
    6
 10
464.25012089014388
 20
720.10608774603293
 11
464.25012089014388
 21
726.30325638994827
  0
LINE
  8
_0-e_極細4
  6
CONTINUOUS
 62
    6
 10
462.7501208901441
 20
720.10608774603293
 11
462.7501208901441
 21
727.17540766624461
  0
LINE
  8
_0-e_極細4
  6
CONTINUOUS
 62
    6
 10
461.25012089014433
 20
720.10608774603293
 11
461.25012089014433
 21
727.83475481194603
  0
LINE
  8
_0-e_極細4
  6
CONTINUOUS
 62
    6
 10
459.75012089014456
 20
720.10608774603293
 11
459.75012089014456
 21
728.31032352913803
  0
LINE
  8
_0-e_極細4
  6
CONTINUOUS
 62
    6
 10
458.25012089014365
 20
720.10608774603293
 11
458.25012089014365
 21
728.6198091884537
  0
LINE
  8
_0-e_極細4
  6
CONTINUOUS
 62
    6
 10
456.75012089014388
 20
720.10608774603293
 11
456.75012089014388
 21
728.77350921611105
  0
LINE
  8
_0-e_極細4
  6
CONTINUOUS
 62
    6
 10
455.2501208901441
 20
720.10608774603293
 11
455.2501208901441
 21
728.77621880222353
  0
LINE
  8
_0-e_極細4
  6
CONTINUOUS
 62
    6
 10
453.75012089014433
 20
720.10608774603293
 11
453.75012089014433
 21
728.62802068493113
  0
LINE
  8
_0-e_極細4
  6
CONTINUOUS
 62
    6
 10
452.25012089014342
 20
720.10608774603293
 11
452.25012089014342
 21
728.32429827342503
  0
LINE
  8
_0-e_極細4
  6
CONTINUOUS
 62
    6
 10
450.75012089014365
 20
720.10608774603293
 11
450.75012089014365
 21
727.85497727705911
  0
LINE
  8
_0-e_極細4
  6
CONTINUOUS
 62
    6
 10
449.25012089014388
 20
720.10608774603293
 11
449.25012089014388
 21
727.20268092132744
  0
LINE
  8
_0-e_極細4
  6
CONTINUOUS
 62
    6
 10
447.7501208901441
 20
720.10608774603293
 11
447.7501208901441
 21
726.33889992184572
  0
LINE
  8
_0-e_極細4
  6
CONTINUOUS
 62
    6
 10
446.25012089014319
 20
720.10608774603293
 11
446.25012089014319
 21
724.89389357298842
  0
LINE
  8
_0-e_極細4
  6
CONTINUOUS
 62
    6
 10
444.75012089014342
 20
720.10608774603293
 11
444.75012089014342
 21
720.99458574655262
  0
LINE
  8
_0-e_極細4
  6
CONTINUOUS
 62
    6
 10
624.75012089014456
 20
715.85608774603338
 11
624.75012089014456
 21
720.10608774603293
  0
LINE
  8
_0-e_極細4
  6
CONTINUOUS
 62
    6
 10
623.25012089014479
 20
715.85608774603338
 11
623.25012089014479
 21
720.10608774603293
  0
LINE
  8
_0-e_極細4
  6
CONTINUOUS
 62
    6
 10
621.75012089014388
 20
715.85608774603338
 11
621.75012089014388
 21
720.10608774603293
  0
LINE
  8
_0-e_極細4
  6
CONTINUOUS
 62
    6
 10
620.2501208901441
 20
715.85608774603338
 11
620.2501208901441
 21
720.10608774603293
  0
LINE
  8
_0-e_極細4
  6
CONTINUOUS
 62
    6
 10
618.75012089014547
 20
715.85608774603338
 11
618.75012089014547
 21
720.10608774603293
  0
LINE
  8
_0-e_極細4
  6
CONTINUOUS
 62
    6
 10
617.25012089014456
 20
715.85608774603338
 11
617.25012089014456
 21
720.10608774603293
  0
LINE
  8
_0-e_極細4
  6
CONTINUOUS
 62
    6
 10
615.75012089014365
 20
715.85608774603338
 11
615.75012089014365
 21
720.10608774603293
  0
LINE
  8
_0-e_極細4
  6
CONTINUOUS
 62
    6
 10
614.25012089014388
 20
715.85608774603338
 11
614.25012089014388
 21
720.10608774603293
  0
LINE
  8
_0-e_極細4
  6
CONTINUOUS
 62
    6
 10
462.7501208901441
 20
715.85608774603338
 11
462.7501208901441
 21
720.10608774603293
  0
LINE
  8
_0-e_極細4
  6
CONTINUOUS
 62
    6
 10
461.25012089014433
 20
715.85608774603338
 11
461.25012089014433
 21
720.10608774603293
  0
LINE
  8
_0-e_極細4
  6
CONTINUOUS
 62
    6
 10
459.75012089014456
 20
715.85608774603338
 11
459.75012089014456
 21
720.10608774603293
  0
LINE
  8
_0-e_極細4
  6
CONTINUOUS
 62
    6
 10
458.25012089014479
 20
715.85608774603338
 11
458.25012089014479
 21
720.10608774603293
  0
LINE
  8
_0-e_極細4
  6
CONTINUOUS
 62
    6
 10
456.75012089014388
 20
715.85608774603338
 11
456.75012089014388
 21
720.10608774603293
  0
LINE
  8
_0-e_極細4
  6
CONTINUOUS
 62
    6
 10
455.2501208901441
 20
715.85608774603338
 11
455.2501208901441
 21
720.10608774603293
  0
LINE
  8
_0-e_極細4
  6
CONTINUOUS
 62
    6
 10
453.75012089014433
 20
715.85608774603338
 11
453.75012089014433
 21
720.10608774603293
  0
LINE
  8
_0-e_極細4
  6
CONTINUOUS
 62
    6
 10
452.25012089014456
 20
715.85608774603338
 11
452.25012089014456
 21
720.10608774603293
  0
LINE
  8
_0-e_極細4
  6
CONTINUOUS
 62
    6
 10
437.25012089014456
 20
720.35803524603375
 11
437.25012089014456
 21
730.10608774603372
  0
LINE
  8
_0-e_極細4
  6
CONTINUOUS
 62
    6
 10
435.75012089014479
 20
720.35803524603375
 11
435.75012089014479
 21
730.10608774603372
  0
LINE
  8
_0-e_極細4
  6
CONTINUOUS
 62
    6
 10
434.25012089014388
 20
720.35803524603375
 11
434.25012089014388
 21
730.10608774603372
  0
LINE
  8
_0-e_極細4
  6
CONTINUOUS
 62
    6
 10
432.7501208901441
 20
715.10608774603372
 11
432.7501208901441
 21
715.62357222671517
  0
LINE
  8
_0-e_極細4
  6
CONTINUOUS
 62
    6
 10
432.7501208901441
 20
720.35803524603375
 11
432.7501208901441
 21
730.10608774603372
  0
LINE
  8
_0-e_極細4
  6
CONTINUOUS
 62
    6
 10
431.25012089014433
 20
715.10608774603372
 11
431.25012089014433
 21
730.10608774603372
  0
LINE
  8
_0-e_極細4
  6
CONTINUOUS
 62
    6
 10
645.75012089014479
 20
715.10608774603372
 11
645.75012089014479
 21
730.10608774603372
  0
LINE
  8
_0-e_極細4
  6
CONTINUOUS
 62
    6
 10
644.25012089014388
 20
715.10608774603372
 11
644.25012089014388
 21
715.73536939394319
  0
LINE
  8
_0-e_極細4
  6
CONTINUOUS
 62
    6
 10
644.25012089014388
 20
720.35803524603375
 11
644.25012089014388
 21
730.10608774603372
  0
LINE
  8
_0-e_極細4
  6
CONTINUOUS
 62
    6
 10
642.7501208901441
 20
720.35803524603375
 11
642.7501208901441
 21
730.10608774603372
  0
LINE
  8
_0-e_極細4
  6
CONTINUOUS
 62
    6
 10
641.25012089014547
 20
720.35803524603375
 11
641.25012089014547
 21
730.10608774603372
  0
LINE
  8
_0-e_極細4
  6
CONTINUOUS
 62
    6
 10
639.75012089014456
 20
720.35803524603375
 11
639.75012089014456
 21
730.10608774603372
  0
LINE
  8
_0-e_極細4
  6
CONTINUOUS
 62
    6
 10
662.25012089014456
 20
722.6331496718708
 11
662.25012089014456
 21
761.83070467535447
  0
LINE
  8
_0-e_極細4
  6
CONTINUOUS
 62
    6
 10
660.75012089014479
 20
721.13314967187102
 11
660.75012089014479
 21
759.30595780464489
  0
LINE
  8
_0-e_極細4
  6
CONTINUOUS
 62
    6
 10
659.25012089014388
 20
720.10608774603293
 11
659.25012089014388
 21
756.80272374843662
  0
LINE
  8
_0-e_極細4
  6
CONTINUOUS
 62
    6
 10
657.7501208901441
 20
720.10608774603293
 11
657.7501208901441
 21
756.02145563553324
  0
LINE
  8
_0-e_極細4
  6
CONTINUOUS
 62
    6
 10
656.25012089014547
 20
720.10608774603293
 11
656.25012089014547
 21
755.85608774603338
  0
LINE
  8
_0-e_極細4
  6
CONTINUOUS
 62
    6
 10
654.75012089014456
 20
720.10608774603293
 11
654.75012089014456
 21
755.85608774603338
  0
LINE
  8
_0-e_極細4
  6
CONTINUOUS
 62
    6
 10
653.25012089014365
 20
720.10608774603293
 11
653.25012089014365
 21
755.83292634528357
  0
LINE
  8
_0-e_極細4
  6
CONTINUOUS
 62
    6
 10
651.75012089014388
 20
720.10608774603293
 11
651.75012089014388
 21
755.09542405530271
  0
LINE
  8
_0-e_極細4
  6
CONTINUOUS
 62
    6
 10
650.2501208901441
 20
720.10608774603293
 11
650.2501208901441
 21
725.10608774603372
  0
LINE
  8
_0-e_極細4
  6
CONTINUOUS
 62
    6
 10
648.75012089014433
 20
720.10608774603293
 11
648.75012089014433
 21
725.10608774603372
  0
LINE
  8
_0-e_極細4
  6
CONTINUOUS
 62
    6
 10
647.25012089014456
 20
720.10608774603293
 11
647.25012089014456
 21
725.10608774603372
  0
LINE
  8
_0-e_極細4
  6
CONTINUOUS
 62
    6
 10
429.75012089014456
 20
720.10608774603293
 11
429.75012089014456
 21
725.10608774603372
  0
LINE
  8
_0-e_極細4
  6
CONTINUOUS
 62
    6
 10
428.25012089014479
 20
720.10608774603293
 11
428.25012089014479
 21
725.10608774603372
  0
LINE
  8
_0-e_極細4
  6
CONTINUOUS
 62
    6
 10
426.75012089014388
 20
720.10608774603293
 11
426.75012089014388
 21
725.10608774603372
  0
LINE
  8
_0-e_極細4
  6
CONTINUOUS
 62
    6
 10
425.2501208901441
 20
720.10608774603293
 11
425.2501208901441
 21
755.04017188732769
  0
LINE
  8
_0-e_極細4
  6
CONTINUOUS
 62
    6
 10
423.75012089014433
 20
720.10608774603293
 11
423.75012089014433
 21
755.82511380754329
  0
LINE
  8
_0-e_極細4
  6
CONTINUOUS
 62
    6
 10
422.25012089014456
 20
720.10608774603293
 11
422.25012089014456
 21
755.85608774603338
  0
LINE
  8
_0-e_極細4
  6
CONTINUOUS
 62
    6
 10
420.75012089014365
 20
720.10608774603293
 11
420.75012089014365
 21
755.85608774603338
  0
LINE
  8
_0-e_極細4
  6
CONTINUOUS
 62
    6
 10
419.25012089014388
 20
720.10608774603293
 11
419.25012089014388
 21
756.00628615339383
  0
LINE
  8
_0-e_極細4
  6
CONTINUOUS
 62
    6
 10
417.7501208901441
 20
720.10608774603293
 11
417.7501208901441
 21
756.75963606155949
  0
LINE
  8
_0-e_極細4
  6
CONTINUOUS
 62
    6
 10
416.25012089014433
 20
721.07902582019722
 11
416.25012089014433
 21
759.06248597618617
  0
LINE
  8
_0-e_極細4
  6
CONTINUOUS
 62
    6
 10
414.75012089014342
 20
722.57902582019699
 11
414.75012089014342
 21
761.8029561940275
  0
LINE
  8
_0-e_極細4
  6
CONTINUOUS
 62
    6
 10
637.84805896430782
 20
736.43975539079281
 11
646.8480589643076
 21
736.43975539079281
  0
LINE
  8
_0-e_極細4
  6
CONTINUOUS
 62
    6
 10
636.66645160906626
 20
737.93975539079293
 11
646.8480589643076
 21
737.93975539079293
  0
LINE
  8
_0-e_極細4
  6
CONTINUOUS
 62
    6
 10
637.84805896430782
 20
739.4397553907927
 11
646.8480589643076
 21
739.4397553907927
  0
LINE
  8
_0-e_極細4
  6
CONTINUOUS
 62
    6
 10
637.84805896430782
 20
740.93975539079247
 11
646.8480589643076
 21
740.93975539079247
  0
LINE
  8
_0-e_極細4
  6
CONTINUOUS
 62
    6
 10
637.77966631954712
 20
742.43975539079304
 11
646.88453504151255
 21
742.43975539079304
  0
LINE
  8
_0-e_極細4
  6
CONTINUOUS
 62
    6
 10
636.91645160906603
 20
743.93975539079281
 11
647.68453504151296
 21
743.93975539079281
  0
LINE
  8
_0-e_極細4
  6
CONTINUOUS
 62
    6
 10
637.84805896430782
 20
745.43975539079258
 11
648.48453504151223
 21
745.43975539079258
  0
LINE
  8
_0-e_極細4
  6
CONTINUOUS
 62
    6
 10
430.09805896430692
 20
736.43975539079281
 11
439.09805896430782
 21
736.43975539079281
  0
LINE
  8
_0-e_極細4
  6
CONTINUOUS
 62
    6
 10
430.09805896430692
 20
737.93975539079293
 11
440.27966631954826
 21
737.93975539079293
  0
LINE
  8
_0-e_極細4
  6
CONTINUOUS
 62
    6
 10
430.09805896430692
 20
739.4397553907927
 11
439.09805896430782
 21
739.4397553907927
  0
LINE
  8
_0-e_極細4
  6
CONTINUOUS
 62
    6
 10
430.09805896430692
 20
740.93975539079247
 11
439.09805896430782
 21
740.93975539079247
  0
LINE
  8
_0-e_極細4
  6
CONTINUOUS
 62
    6
 10
430.06158288710196
 20
742.43975539079304
 11
439.16645160906626
 21
742.43975539079304
  0
LINE
  8
_0-e_極細4
  6
CONTINUOUS
 62
    6
 10
429.26158288710269
 20
743.93975539079281
 11
440.02966631954848
 21
743.93975539079281
  0
LINE
  8
_0-e_極細4
  6
CONTINUOUS
 62
    6
 10
428.46158288710228
 20
745.43975539079258
 11
439.09805896430782
 21
745.43975539079258
  0
CIRCLE
  8
_1-1_寸法4
  6
CONTINUOUS
 62
    7
 10
649.22305896430714
 20
740.96022846284416
 40
50
  0
LINE
  8
_0-e_極細4
  6
CONTINUOUS
 62
    6
 10
665.04957896430653
 20
480.47306774603015
 11
754.43733896430615
 21
482.67714774603149
  0
LINE
  8
_0-e_極細4
  6
CONTINUOUS
 62
    6
 10
754.43733896430615
 20
482.67714774603149
 11
754.43733896430615
 21
617.37102774603136
  0
LINE
  8
_0-e_極細4
  6
CONTINUOUS
 62
    6
 10
664.72305896430669
 20
619.58315891770985
 11
754.43733896430615
 21
617.37102774603136
  0
LINE
  8
_0-e_極細4
  6
CONTINUOUS
 62
    6
 10
664.72305896430669
 20
619.58315891770985
 11
664.72305896430669
 21
694.51311024603365
  0
LINE
  8
_0-e_極細4
  6
CONTINUOUS
 62
    6
 10
412.22305896430782
 20
500.47306774603015
 11
412.22305896430782
 21
694.51311024603365
  0
LINE
  8
_0-e_極細4
  6
CONTINUOUS
 62
    6
 10
432.22305896430782
 20
480.47306774603015
 11
665.04957896430653
 21
480.47306774603015
  0
ARC
  8
_0-e_極細4
  6
CONTINUOUS
 62
    6
 10
432.22305896430782
 20
500.47306774603015
 40
20
 50
179.99999999999983
 51
269.99999999999977
  0
LINE
  8
_0-e_極細4
  6
CONTINUOUS
 62
    6
 10
433.47305896430782
 20
485.37102774603312
 11
665.04957896430653
 21
485.37102774603312
  0
LINE
  8
_0-e_極細4
  6
CONTINUOUS
 62
    6
 10
418.47305896430782
 20
500.37102774603312
 11
418.47305896430782
 21
643.14230344602402
  0
ARC
  8
_0-e_極細4
  6
CONTINUOUS
 62
    6
 10
433.47305896430782
 20
500.37102774603312
 40
15
 50
179.99999999999983
 51
269.99999999999977
  0
LINE
  8
_0-e_極細4
  6
CENTER2
 62
    6
 10
538.47305896430669
 20
793.97896271007539
 11
538.47305896430669
 21
431.76055850841323
  0
LINE
  8
_0-e_極細4
  6
CONTINUOUS
 62
    6
 10
658.47305896430782
 20
643.14230344602402
 11
658.47305896430782
 21
710.83842774603363
  0
ARC
  8
_0-e_極細4
  6
CONTINUOUS
 62
    6
 10
655.97305896430782
 20
643.14230344602402
 40
2.5
 50
277.18075599997627
 51
359.99999999999966
  0
LINE
  8
_0-e_極細4
  6
CONTINUOUS
 62
    6
 10
534.1222906646027
 20
480.47306774603015
 11
538.47305896430782
 21
484.82383604573471
  0
LINE
  8
_0-e_極細4
  6
CONTINUOUS
 62
    6
 10
528.81898980570384
 20
480.47306774603015
 11
533.7169498057068
 21
485.37102774603312
  0
LINE
  8
_0-e_極細4
  6
CONTINUOUS
 62
    6
 10
523.51568894680497
 20
480.47306774603015
 11
528.41364894680794
 21
485.37102774603312
  0
LINE
  8
_0-e_極細4
  6
CONTINUOUS
 62
    6
 10
518.21238808790497
 20
480.47306774603015
 11
523.11034808790794
 21
485.37102774603312
  0
LINE
  8
_0-e_極細4
  6
CONTINUOUS
 62
    6
 10
512.9090872290061
 20
480.47306774603015
 11
517.80704722900907
 21
485.37102774603312
  0
LINE
  8
_0-e_極細4
  6
CONTINUOUS
 62
    6
 10
507.60578637010724
 20
480.47306774603015
 11
512.50374637011021
 21
485.37102774603312
  0
LINE
  8
_0-e_極細4
  6
CONTINUOUS
 62
    6
 10
502.30248551120837
 20
480.47306774603015
 11
507.20044551121134
 21
485.37102774603312
  0
LINE
  8
_0-e_極細4
  6
CONTINUOUS
 62
    6
 10
496.99918465230951
 20
480.47306774603015
 11
501.89714465231248
 21
485.37102774603312
  0
LINE
  8
_0-e_極細4
  6
CONTINUOUS
 62
    6
 10
491.69588379340951
 20
480.47306774603015
 11
496.59384379341247
 21
485.37102774603312
  0
LINE
  8
_0-e_極細4
  6
CONTINUOUS
 62
    6
 10
486.39258293451064
 20
480.47306774603015
 11
491.29054293451361
 21
485.37102774603312
  0
LINE
  8
_0-e_極細4
  6
CONTINUOUS
 62
    6
 10
481.08928207561178
 20
480.47306774603015
 11
485.98724207561474
 21
485.37102774603312
  0
LINE
  8
_0-e_極細4
  6
CONTINUOUS
 62
    6
 10
475.78598121671291
 20
480.47306774603015
 11
480.68394121671588
 21
485.37102774603312
  0
LINE
  8
_0-e_極細4
  6
CONTINUOUS
 62
    6
 10
470.48268035781291
 20
480.47306774603015
 11
475.38064035781701
 21
485.37102774603312
  0
LINE
  8
_0-e_極細4
  6
CONTINUOUS
 62
    6
 10
465.17937949891405
 20
480.47306774603015
 11
470.07733949891701
 21
485.37102774603312
  0
LINE
  8
_0-e_極細4
  6
CONTINUOUS
 62
    6
 10
459.87607864001518
 20
480.47306774603015
 11
464.77403864001815
 21
485.37102774603312
  0
LINE
  8
_0-e_極細4
  6
CONTINUOUS
 62
    6
 10
454.57277778111632
 20
480.47306774603015
 11
459.47073778111928
 21
485.37102774603312
  0
LINE
  8
_0-e_極細4
  6
CONTINUOUS
 62
    6
 10
449.26947692221745
 20
480.47306774603015
 11
454.16743692222042
 21
485.37102774603312
  0
LINE
  8
_0-e_極細4
  6
CONTINUOUS
 62
    6
 10
443.96617606331745
 20
480.47306774603015
 11
448.86413606332155
 21
485.37102774603312
  0
LINE
  8
_0-e_極細4
  6
CONTINUOUS
 62
    6
 10
438.66287520441858
 20
480.47306774603015
 11
443.56083520442155
 21
485.37102774603312
  0
LINE
  8
_0-e_極細4
  6
CONTINUOUS
 62
    6
 10
433.35957434551972
 20
480.47306774603015
 11
438.25753434552269
 21
485.37102774603312
  0
LINE
  8
_0-e_極細4
  6
CONTINUOUS
 62
    6
 10
428.42099183487733
 20
480.83778609428663
 11
432.96291102720431
 21
485.37970528661447
  0
LINE
  8
_0-e_極細4
  6
CONTINUOUS
 62
    6
 10
424.36245944360564
 20
482.08255456191438
 11
428.49948259317046
 21
486.21957771147947
  0
LINE
  8
_0-e_極細4
  6
CONTINUOUS
 62
    6
 10
420.93778163843183
 20
483.96117761564
 11
424.98216616808634
 21
488.00556214529394
  0
LINE
  8
_0-e_極細4
  6
CONTINUOUS
 62
    6
 10
418.04263129517665
 20
486.36932813128425
 11
422.17617708753835
 21
490.5028739236451
  0
LINE
  8
_0-e_極細4
  6
CONTINUOUS
 62
    6
 10
415.64911946948484
 20
489.27911716449074
 11
420.04871727707439
 21
493.67871497208029
  0
LINE
  8
_0-e_極細4
  6
CONTINUOUS
 62
    6
 10
413.78687972563682
 20
492.72017827954159
 11
418.72111051751801
 21
497.65440907142278
  0
LINE
  8
_0-e_極細4
  6
CONTINUOUS
 62
    6
 10
412.56326331668163
 20
496.79986272948582
 11
418.47305896430782
 21
502.70965837711202
  0
LINE
  8
_0-e_極細4
  6
CONTINUOUS
 62
    6
 10
412.22305896430782
 20
501.76295923601117
 11
418.47305896430782
 21
508.01295923601117
  0
LINE
  8
_0-e_極細4
  6
CONTINUOUS
 62
    6
 10
412.22305896430782
 20
507.06626009491032
 11
418.47305896430782
 21
513.31626009491038
  0
LINE
  8
_0-e_極細4
  6
CONTINUOUS
 62
    6
 10
412.22305896430782
 20
512.36956095380924
 11
418.47305896430782
 21
518.61956095380924
  0
LINE
  8
_0-e_極細4
  6
CONTINUOUS
 62
    6
 10
412.22305896430782
 20
517.67286181270856
 11
418.47305896430782
 21
523.92286181270856
  0
LINE
  8
_0-e_極細4
  6
CONTINUOUS
 62
    6
 10
412.22305896430782
 20
522.97616267160765
 11
418.47305896430782
 21
529.22616267160743
  0
LINE
  8
_0-e_極細4
  6
CONTINUOUS
 62
    6
 10
412.22305896430782
 20
528.27946353050697
 11
418.47305896430782
 21
534.52946353050697
  0
LINE
  8
_0-e_極細4
  6
CONTINUOUS
 62
    6
 10
412.22305896430782
 20
533.58276438940584
 11
418.47305896430782
 21
539.83276438940584
  0
LINE
  8
_0-e_極細4
  6
CONTINUOUS
 62
    6
 10
412.22305896430782
 20
538.88606524830516
 11
418.47305896430782
 21
545.13606524830516
  0
LINE
  8
_0-e_極細4
  6
CONTINUOUS
 62
    6
 10
412.22305896430782
 20
544.18936610720402
 11
418.47305896430782
 21
550.43936610720402
  0
LINE
  8
_0-e_極細4
  6
CONTINUOUS
 62
    6
 10
412.22305896430782
 20
549.49266696610312
 11
418.47305896430782
 21
555.74266696610312
  0
LINE
  8
_0-e_極細4
  6
CONTINUOUS
 62
    6
 10
412.22305896430782
 20
554.79596782500244
 11
418.47305896430782
 21
561.04596782500244
  0
LINE
  8
_0-e_極細4
  6
CONTINUOUS
 62
    6
 10
412.22305896430782
 20
560.0992686839013
 11
418.47305896430782
 21
566.3492686839013
  0
LINE
  8
_0-e_極細4
  6
CONTINUOUS
 62
    6
 10
412.22305896430782
 20
565.40256954280062
 11
418.47305896430782
 21
571.65256954280062
  0
LINE
  8
_0-e_極細4
  6
CONTINUOUS
 62
    6
 10
412.22305896430782
 20
570.70587040169949
 11
418.47305896430782
 21
576.95587040169949
  0
LINE
  8
_0-e_極細4
  6
CONTINUOUS
 62
    6
 10
412.22305896430782
 20
576.00917126059858
 11
418.47305896430782
 21
582.25917126059858
  0
LINE
  8
_0-e_極細4
  6
CONTINUOUS
 62
    6
 10
412.22305896430782
 20
581.3124721194979
 11
418.47305896430782
 21
587.5624721194979
  0
LINE
  8
_0-e_極細4
  6
CONTINUOUS
 62
    6
 10
412.22305896430782
 20
586.61577297839676
 11
418.47305896430782
 21
592.86577297839676
  0
LINE
  8
_0-e_極細4
  6
CONTINUOUS
 62
    6
 10
412.22305896430782
 20
591.91907383729608
 11
418.47305896430782
 21
598.16907383729608
  0
LINE
  8
_0-e_極細4
  6
CONTINUOUS
 62
    6
 10
412.22305896430782
 20
597.22237469619517
 11
418.47305896430782
 21
603.47237469619506
  0
LINE
  8
_0-e_極細4
  6
CONTINUOUS
 62
    6
 10
412.22305896430782
 20
602.52567555509393
 11
418.47305896430782
 21
608.77567555509393
  0
LINE
  8
_0-e_極細4
  6
CONTINUOUS
 62
    6
 10
412.22305896430782
 20
607.82897641399336
 11
418.47305896430782
 21
614.07897641399336
  0
LINE
  8
_0-e_極細4
  6
CONTINUOUS
 62
    6
 10
412.22305896430782
 20
613.13227727289279
 11
418.47305896430782
 21
619.38227727289222
  0
LINE
  8
_0-e_極細4
  6
CONTINUOUS
 62
    6
 10
412.22305896430782
 20
618.43557813179166
 11
418.47305896430782
 21
624.68557813179166
  0
LINE
  8
_0-e_極細4
  6
CONTINUOUS
 62
    6
 10
412.22305896430782
 20
623.73887899069052
 11
418.47305896430782
 21
629.98887899069052
  0
LINE
  8
_0-e_極細4
  6
CONTINUOUS
 62
    6
 10
412.22305896430782
 20
629.04217984958996
 11
418.47305896430782
 21
635.29217984958939
  0
LINE
  8
_0-e_極細4
  6
CONTINUOUS
 62
    6
 10
412.22305896430782
 20
634.34548070848882
 11
418.47305896430782
 21
640.59548070848894
  0
LINE
  8
_0-e_極細4
  6
CONTINUOUS
 62
    6
 10
412.22305896430782
 20
639.64878156738826
 11
418.47305896430782
 21
645.8987815673878
  0
LINE
  8
_0-e_極細4
  6
CONTINUOUS
 62
    6
 10
412.22305896430782
 20
644.95208242628701
 11
418.47305896430782
 21
651.20208242628701
  0
LINE
  8
_0-e_極細4
  6
CONTINUOUS
 62
    6
 10
412.22305896430782
 20
650.25538328518667
 11
418.47305896430782
 21
656.50538328518587
  0
LINE
  8
_0-e_極細4
  6
CONTINUOUS
 62
    6
 10
412.22305896430782
 20
655.55868414408553
 11
418.47305896430782
 21
661.80868414408553
  0
LINE
  8
_0-e_極細4
  6
CONTINUOUS
 62
    6
 10
412.22305896430782
 20
660.8619850029844
 11
418.47305896430782
 21
667.1119850029844
  0
LINE
  8
_0-e_極細4
  6
CONTINUOUS
 62
    6
 10
412.22305896430782
 20
666.1652858618836
 11
418.47305896430782
 21
672.4152858618836
  0
LINE
  8
_0-e_極細4
  6
CONTINUOUS
 62
    6
 10
412.22305896430782
 20
671.46858672078247
 11
418.47305896430782
 21
677.71858672078247
  0
LINE
  8
_0-e_極細4
  6
CONTINUOUS
 62
    6
 10
412.22305896430782
 20
676.77188757968213
 11
418.47305896430782
 21
683.02188757968133
  0
LINE
  8
_0-e_極細4
  6
CONTINUOUS
 62
    6
 10
412.22305896430782
 20
682.07518843858099
 11
418.47305896430782
 21
688.32518843858099
  0
LINE
  8
_0-e_極細4
  6
CONTINUOUS
 62
    6
 10
412.22305896430782
 20
687.37848929747986
 11
418.47305896430782
 21
693.62848929747986
  0
LINE
  8
_0-e_極細4
  6
CONTINUOUS
 62
    6
 10
412.22305896430782
 20
692.68179015637907
 11
418.47305896430782
 21
698.93179015637907
  0
LINE
  8
_0-e_極細4
  6
CONTINUOUS
 62
    6
 10
411.83632625345069
 20
697.5983583044208
 11
418.47305896430782
 21
704.23509101527793
  0
LINE
  8
_0-e_極細4
  6
CONTINUOUS
 62
    6
 10
410.22582429014562
 20
701.2911572000146
 11
418.47305896430782
 21
709.5383918741768
  0
LINE
  8
_0-e_極細4
  6
CONTINUOUS
 62
    6
 10
407.73729084127069
 20
704.10592461003932
 11
414.46979397726466
 21
710.83842774603363
  0
LINE
  8
_0-e_極細4
  6
CONTINUOUS
 62
    6
 10
415.58229472890787
 20
711.95092849767684
 11
417.22305896430782
 21
713.59169273307646
  0
LINE
  8
_0-e_極細4
  6
CONTINUOUS
 62
    6
 10
405.97305896430782
 20
707.64499359197532
 11
417.22305896430782
 21
718.89499359197532
  0
LINE
  8
_0-e_極細4
  6
CONTINUOUS
 62
    6
 10
405.97305896430782
 20
712.94829445087453
 11
415.17695561188759
 21
722.15219109845395
  0
LINE
  8
_0-e_極細4
  6
CONTINUOUS
 62
    6
 10
405.97305896430782
 20
718.25159530977339
 11
413.52555896430715
 21
725.80409530977352
  0
LINE
  8
_0-e_極細4
  6
CONTINUOUS
 62
    6
 10
405.97305896430782
 20
723.55489616867305
 11
413.52555896430715
 21
731.10739616867238
  0
LINE
  8
_0-e_極細4
  6
CONTINUOUS
 62
    6
 10
402.45328968276965
 20
725.33842774603374
 11
413.52555896430715
 21
736.41069702757159
  0
LINE
  8
_0-e_極細4
  6
CONTINUOUS
 62
    6
 10
397.14998882387079
 20
725.33842774603374
 11
413.52555896430715
 21
741.71399788647045
  0
LINE
  8
_0-e_極細4
  6
CONTINUOUS
 62
    6
 10
396.2230589643076
 20
729.71479874536976
 11
413.52555896430715
 21
747.01729874537011
  0
LINE
  8
_0-e_極細4
  6
CONTINUOUS
 62
    6
 10
396.2230589643076
 20
735.01809960426863
 11
413.52555896430715
 21
752.32059960426898
  0
LINE
  8
_0-e_極細4
  6
CONTINUOUS
 62
    6
 10
396.2230589643076
 20
740.32140046316749
 11
413.52555896430715
 21
757.62390046316818
  0
LINE
  8
_0-e_極細4
  6
CONTINUOUS
 62
    6
 10
396.2230589643076
 20
745.62470132206715
 11
409.41224437814924
 21
758.8138867359088
  0
LINE
  8
_0-e_極細4
  6
CONTINUOUS
 62
    6
 10
396.2230589643076
 20
750.92800218096636
 11
404.65843719715679
 21
759.36338041381555
  0
LINE
  8
_0-e_極細4
  6
CONTINUOUS
 62
    6
 10
396.2230589643076
 20
756.23130303986522
 11
399.90463001616547
 21
759.91287409172276
  0
LINE
  8
_0-e_極細4
  6
CONTINUOUS
 62
    6
 10
664.92883896430669
 20
485.36954774603231
 11
754.43733896430615
 21
487.57660489434585
  0
LINE
  8
_0-e_極細4
  6
CONTINUOUS
 62
    6
 10
636.59805896430669
 20
615.37721335938306
 11
754.43733896430615
 21
612.4715905987498
  0
LINE
  8
_0-e_極細4
  6
CONTINUOUS
 62
    6
 10
753.74462528170341
 20
482.66006714826801
 11
754.43733896430615
 21
483.35278083087047
  0
LINE
  8
_0-e_極細4
  6
CONTINUOUS
 62
    6
 10
748.30725231943518
 20
482.52599504489865
 11
753.33057204743739
 21
487.54931477290057
  0
LINE
  8
_0-e_極細4
  6
CONTINUOUS
 62
    6
 10
742.86987935716695
 20
482.391922941529
 11
747.89319908516916
 21
487.41524266953121
  0
LINE
  8
_0-e_極細4
  6
CONTINUOUS
 62
    6
 10
737.43250639489872
 20
482.25785083815964
 11
742.45582612290093
 21
487.28117056616185
  0
LINE
  8
_0-e_極細4
  6
CONTINUOUS
 62
    6
 10
731.99513343262936
 20
482.12377873479028
 11
737.0184531606327
 21
487.14709846279277
  0
LINE
  8
_0-e_極細4
  6
CONTINUOUS
 62
    6
 10
726.55776047036113
 20
481.98970663142092
 11
731.58108019836448
 21
487.01302635942369
  0
LINE
  8
_0-e_極細4
  6
CONTINUOUS
 62
    6
 10
721.1203875080929
 20
481.85563452805098
 11
726.14370723609625
 21
486.87895425605433
  0
LINE
  8
_0-e_極細4
  6
CONTINUOUS
 62
    6
 10
715.68301454582354
 20
481.72156242468162
 11
720.70633427382802
 21
486.74488215268497
  0
LINE
  8
_0-e_極細4
  6
CONTINUOUS
 62
    6
 10
710.24564158355531
 20
481.58749032131226
 11
715.26896131155866
 21
486.61081004931617
  0
LINE
  8
_0-e_極細4
  6
CONTINUOUS
 62
    6
 10
704.80826862128708
 20
481.4534182179429
 11
709.83158834929043
 21
486.47673794594681
  0
LINE
  8
_0-e_極細4
  6
CONTINUOUS
 62
    6
 10
699.37089565901772
 20
481.31934611457353
 11
704.3942153870222
 21
486.34266584257773
  0
LINE
  8
_0-e_極細4
  6
CONTINUOUS
 62
    6
 10
693.93352269674949
 20
481.18527401120389
 11
698.95684242475397
 21
486.20859373920865
  0
LINE
  8
_0-e_極細4
  6
CONTINUOUS
 62
    6
 10
688.49614973448126
 20
481.05120190783452
 11
693.51946946248574
 21
486.07452163583929
  0
LINE
  8
_0-e_極細4
  6
CONTINUOUS
 62
    6
 10
683.05877677221304
 20
480.91712980446488
 11
688.08209650021752
 21
485.94044953246993
  0
LINE
  8
_0-e_極細4
  6
CONTINUOUS
 62
    6
 10
677.62140380994481
 20
480.78305770109552
 11
682.64472353794929
 21
485.80637742910113
  0
LINE
  8
_0-e_極細4
  6
CONTINUOUS
 62
    6
 10
672.18403084767544
 20
480.64898559772615
 11
677.20735057568106
 21
485.67230532573177
  0
LINE
  8
_0-e_極細4
  6
CONTINUOUS
 62
    6
 10
666.74665788540722
 20
480.51491349435622
 11
671.76997761341283
 21
485.53823322236269
  0
LINE
  8
_0-e_極細4
  6
CONTINUOUS
 62
    6
 10
661.40151127818115
 20
480.47306774603015
 11
666.33260465114461
 21
485.40416111899333
  0
LINE
  8
_0-e_極細4
  6
CONTINUOUS
 62
    6
 10
656.09821041928228
 20
480.47306774603015
 11
660.99617041928525
 21
485.37102774603312
  0
LINE
  8
_0-e_極細4
  6
CONTINUOUS
 62
    6
 10
650.79490956038342
 20
480.47306774603015
 11
655.69286956038638
 21
485.37102774603312
  0
LINE
  8
_0-e_極細4
  6
CONTINUOUS
 62
    6
 10
645.49160870148455
 20
480.47306774603015
 11
650.38956870148752
 21
485.37102774603312
  0
LINE
  8
_0-e_極細4
  6
CONTINUOUS
 62
    6
 10
640.18830784258455
 20
480.47306774603015
 11
645.08626784258752
 21
485.37102774603312
  0
LINE
  8
_0-e_極細4
  6
CONTINUOUS
 62
    6
 10
634.88500698368568
 20
480.47306774603015
 11
639.78296698368865
 21
485.37102774603312
  0
LINE
  8
_0-e_極細4
  6
CONTINUOUS
 62
    6
 10
629.58170612478682
 20
480.47306774603015
 11
634.47966612478979
 21
485.37102774603312
  0
LINE
  8
_0-e_極細4
  6
CONTINUOUS
 62
    6
 10
624.27840526588795
 20
480.47306774603015
 11
629.17636526589092
 21
485.37102774603312
  0
LINE
  8
_0-e_極細4
  6
CONTINUOUS
 62
    6
 10
618.97510440698909
 20
480.47306774603015
 11
623.87306440699206
 21
485.37102774603312
  0
LINE
  8
_0-e_極細4
  6
CONTINUOUS
 62
    6
 10
613.67180354808909
 20
480.47306774603015
 11
618.56976354809206
 21
485.37102774603312
  0
LINE
  8
_0-e_極細4
  6
CONTINUOUS
 62
    6
 10
608.36850268919022
 20
480.47306774603015
 11
613.26646268919319
 21
485.37102774603312
  0
LINE
  8
_0-e_極細4
  6
CONTINUOUS
 62
    6
 10
603.06520183029136
 20
480.47306774603015
 11
607.96316183029433
 21
485.37102774603312
  0
LINE
  8
_0-e_極細4
  6
CONTINUOUS
 62
    6
 10
597.76190097139249
 20
480.47306774603015
 11
602.65986097139546
 21
485.37102774603312
  0
LINE
  8
_0-e_極細4
  6
CONTINUOUS
 62
    6
 10
592.45860011249249
 20
480.47306774603015
 11
597.35656011249546
 21
485.37102774603312
  0
LINE
  8
_0-e_極細4
  6
CONTINUOUS
 62
    6
 10
587.15529925359363
 20
480.47306774603015
 11
592.05325925359659
 21
485.37102774603312
  0
LINE
  8
_0-e_極細4
  6
CONTINUOUS
 62
    6
 10
581.85199839469476
 20
480.47306774603015
 11
586.74995839469773
 21
485.37102774603312
  0
LINE
  8
_0-e_極細4
  6
CONTINUOUS
 62
    6
 10
576.5486975357959
 20
480.47306774603015
 11
581.44665753579886
 21
485.37102774603312
  0
LINE
  8
_0-e_極細4
  6
CONTINUOUS
 62
    6
 10
571.24539667689703
 20
480.47306774603015
 11
576.1433566769
 21
485.37102774603312
  0
LINE
  8
_0-e_極細4
  6
CONTINUOUS
 62
    6
 10
565.94209581799703
 20
480.47306774603015
 11
570.840055818
 21
485.37102774603312
  0
LINE
  8
_0-e_極細4
  6
CONTINUOUS
 62
    6
 10
560.63879495909816
 20
480.47306774603015
 11
565.53675495910113
 21
485.37102774603312
  0
LINE
  8
_0-e_極細4
  6
CONTINUOUS
 62
    6
 10
555.3354941001993
 20
480.47306774603015
 11
560.23345410020227
 21
485.37102774603312
  0
LINE
  8
_0-e_極細4
  6
CONTINUOUS
 62
    6
 10
550.03219324130043
 20
480.47306774603015
 11
554.9301532413034
 21
485.37102774603312
  0
LINE
  8
_0-e_極細4
  6
CONTINUOUS
 62
    6
 10
544.72889238240043
 20
480.47306774603015
 11
549.6268523824034
 21
485.37102774603312
  0
LINE
  8
_0-e_極細4
  6
CONTINUOUS
 62
    6
 10
539.42559152350157
 20
480.47306774603015
 11
544.32355152350453
 21
485.37102774603312
  0
LINE
  8
_0-e_極細4
  6
CONTINUOUS
 62
    6
 10
538.47305896430782
 20
484.82383604573471
 11
539.02025066460567
 21
485.37102774603312
  0
LINE
  8
_0-e_極細4
  6
CONTINUOUS
 62
    6
 10
751.05697851789785
 20
612.55494185693954
 11
754.43733896430615
 21
615.93530230334841
  0
LINE
  8
_0-e_極細4
  6
CONTINUOUS
 62
    6
 10
745.88129705600693
 20
612.68256125394805
 11
750.66283347247861
 21
617.46409767041916
  0
LINE
  8
_0-e_極細4
  6
CONTINUOUS
 62
    6
 10
740.70561559411601
 20
612.810180650956
 11
745.48715205388191
 21
617.5917171107219
  0
LINE
  8
_0-e_極細4
  6
CONTINUOUS
 62
    6
 10
735.52993413222509
 20
612.93780004796395
 11
740.31147063528635
 21
617.71933655102464
  0
LINE
  8
_0-e_極細4
  6
CONTINUOUS
 62
    6
 10
730.35425267033418
 20
613.06541944497189
 11
735.13578921668966
 21
617.84695599132738
  0
LINE
  8
_0-e_極細4
  6
CONTINUOUS
 62
    6
 10
725.17857120844326
 20
613.19303884197984
 11
729.96010779809296
 21
617.97457543163011
  0
LINE
  8
_0-e_極細4
  6
CONTINUOUS
 62
    6
 10
720.00288974655234
 20
613.32065823898779
 11
724.78442637949627
 21
618.10219487193285
  0
LINE
  8
_0-e_極細4
  6
CONTINUOUS
 62
    6
 10
714.82720828466029
 20
613.44827763599574
 11
719.60874496089957
 21
618.22981431223559
  0
LINE
  8
_0-e_極細4
  6
CONTINUOUS
 62
    6
 10
709.65152682276937
 20
613.57589703300425
 11
714.43306354230401
 21
618.35743375253776
  0
LINE
  8
_0-e_極細4
  6
CONTINUOUS
 62
    6
 10
704.47584536087845
 20
613.7035164300122
 11
709.25738212370732
 21
618.4850531928405
  0
LINE
  8
_0-e_極細4
  6
CONTINUOUS
 62
    6
 10
699.30016389898753
 20
613.83113582702015
 11
704.08170070511062
 21
618.61267263314323
  0
LINE
  8
_0-e_極細4
  6
CONTINUOUS
 62
    6
 10
694.12448243709662
 20
613.9587552240281
 11
698.90601928651392
 21
618.74029207344597
  0
LINE
  8
_0-e_極細4
  6
CONTINUOUS
 62
    6
 10
688.9488009752057
 20
614.08637462103604
 11
693.73033786791723
 21
618.86791151374871
  0
LINE
  8
_0-e_極細4
  6
CONTINUOUS
 62
    6
 10
683.77311951331365
 20
614.21399401804399
 11
688.55465644932167
 21
618.99553095405088
  0
LINE
  8
_0-e_極細4
  6
CONTINUOUS
 62
    6
 10
678.59743805142273
 20
614.34161341505194
 11
683.37897503072497
 21
619.12315039435362
  0
LINE
  8
_0-e_極細4
  6
CONTINUOUS
 62
    6
 10
673.42175658953181
 20
614.46923281205989
 11
678.20329361212828
 21
619.25076983465635
  0
LINE
  8
_0-e_極細4
  6
CONTINUOUS
 62
    6
 10
668.24607512764089
 20
614.5968522090684
 11
673.02761219353158
 21
619.37838927495909
  0
LINE
  8
_0-e_極細4
  6
CONTINUOUS
 62
    6
 10
663.07039366574998
 20
614.72447160607578
 11
667.85193077493489
 21
619.50600871526183
  0
LINE
  8
_0-e_極細4
  6
CONTINUOUS
 62
    6
 10
657.89471220385906
 20
614.8520910030843
 11
664.72305896430669
 21
621.6804377635325
  0
LINE
  8
_0-e_極細4
  6
CONTINUOUS
 62
    6
 10
652.719030741967
 20
614.97971040009224
 11
664.72305896430669
 21
626.98373862243136
  0
LINE
  8
_0-e_極細4
  6
CONTINUOUS
 62
    6
 10
647.54334928007722
 20
615.10732979710019
 11
664.72305896430669
 21
632.28703948133023
  0
LINE
  8
_0-e_極細4
  6
CONTINUOUS
 62
    6
 10
642.36766781818517
 20
615.23494919410814
 11
664.72305896430669
 21
637.59034034022966
  0
LINE
  8
_0-e_極細4
  6
CONTINUOUS
 62
    6
 10
637.19198635629425
 20
615.36256859111609
 11
664.72305896430669
 21
642.89364119912864
  0
LINE
  8
_0-e_極細4
  6
CONTINUOUS
 62
    6
 10
636.59805896430669
 20
620.07194205802796
 11
664.72305896430669
 21
648.19694205802784
  0
LINE
  8
_0-e_極細4
  6
CONTINUOUS
 62
    6
 10
636.59805896430669
 20
625.37524291692682
 11
651.88472764047276
 21
640.66191159309278
  0
LINE
  8
_0-e_極細4
  6
CONTINUOUS
 62
    6
 10
658.47305896430782
 20
647.2502429169275
 11
664.72305896430669
 21
653.50024291692671
  0
LINE
  8
_0-e_極細4
  6
CONTINUOUS
 62
    6
 10
636.59805896430669
 20
630.67854377582569
 11
646.5814267815739
 21
640.66191159309278
  0
LINE
  8
_0-e_極細4
  6
CONTINUOUS
 62
    6
 10
658.47305896430782
 20
652.55354377582637
 11
664.72305896430669
 21
658.80354377582557
  0
LINE
  8
_0-e_極細4
  6
CONTINUOUS
 62
    6
 10
636.59805896430669
 20
635.98184463472512
 11
641.27812592267503
 21
640.66191159309278
  0
LINE
  8
_0-e_極細4
  6
CONTINUOUS
 62
    6
 10
658.47305896430782
 20
657.85684463472558
 11
664.72305896430669
 21
664.10684463472523
  0
LINE
  8
_0-e_極細4
  6
CONTINUOUS
 62
    6
 10
658.47305896430782
 20
663.16014549362444
 11
664.72305896430669
 21
669.4101454936241
  0
LINE
  8
_0-e_極細4
  6
CONTINUOUS
 62
    6
 10
658.47305896430782
 20
668.46344635252331
 11
664.72305896430669
 21
674.71344635252331
  0
LINE
  8
_0-e_極細4
  6
CONTINUOUS
 62
    6
 10
658.47305896430782
 20
673.76674721142297
 11
664.72305896430669
 21
680.01674721142217
  0
LINE
  8
_0-e_極細4
  6
CONTINUOUS
 62
    6
 10
658.47305896430782
 20
679.07004807032217
 11
664.72305896430669
 21
685.32004807032183
  0
LINE
  8
_0-e_極細4
  6
CONTINUOUS
 62
    6
 10
658.47305896430782
 20
684.37334892922104
 11
664.72305896430669
 21
690.6233489292207
  0
LINE
  8
_0-e_極細4
  6
CONTINUOUS
 62
    6
 10
658.47305896430782
 20
689.6766497881199
 11
661.21633021653395
 21
692.41992104034682
  0
LINE
  8
_0-e_極細4
  6
CONTINUOUS
 62
    6
 10
661.21633021653395
 20
692.41992104034682
 11
664.81391775024065
 21
696.01750857405352
  0
LINE
  8
_0-e_極細4
  6
CONTINUOUS
 62
    6
 10
658.47305896430782
 20
694.97995064701956
 11
670.97305896430669
 21
707.47995064701877
  0
LINE
  8
_0-e_極細4
  6
CONTINUOUS
 62
    6
 10
658.47305896430782
 20
700.28325150591843
 11
670.97305896430669
 21
712.78325150591843
  0
LINE
  8
_0-e_極細4
  6
CONTINUOUS
 62
    6
 10
658.47305896430782
 20
705.58655236481763
 11
670.97305896430669
 21
718.08655236481729
  0
LINE
  8
_0-e_極細4
  6
CONTINUOUS
 62
    6
 10
678.22493434552314
 20
725.33842774603374
 11
680.72305896430805
 21
727.83655236481786
  0
LINE
  8
_0-e_極細4
  6
CONTINUOUS
 62
    6
 10
660.17641206588962
 20
712.59320632529909
 11
670.97305896430669
 21
723.3898532237165
  0
LINE
  8
_0-e_極細4
  6
CONTINUOUS
 62
    6
 10
672.92163348662427
 20
725.33842774603374
 11
680.72305896430805
 21
733.13985322371673
  0
LINE
  8
_0-e_極細4
  6
CONTINUOUS
 62
    6
 10
659.72305896430782
 20
717.44315408261616
 11
680.72305896430805
 21
738.44315408261559
  0
LINE
  8
_0-e_極細4
  6
CONTINUOUS
 62
    6
 10
663.42055896430736
 20
726.4439549415149
 11
680.72305896430805
 21
743.74645494151525
  0
LINE
  8
_0-e_極細4
  6
CONTINUOUS
 62
    6
 10
663.42055896430736
 20
731.74725580041377
 11
680.72305896430805
 21
749.04975580041412
  0
LINE
  8
_0-e_極細4
  6
CONTINUOUS
 62
    6
 10
663.42055896430736
 20
737.05055665931263
 11
680.72305896430805
 21
754.35305665931332
  0
LINE
  8
_0-e_極細4
  6
CONTINUOUS
 62
    6
 10
663.42055896430736
 20
742.35385751821229
 11
680.72305896430805
 21
759.65635751821219
  0
LINE
  8
_0-e_極細4
  6
CONTINUOUS
 62
    6
 10
663.42055896430736
 20
747.6571583771115
 11
675.49784458794932
 21
759.73444400075311
  0
LINE
  8
_0-e_極細4
  6
CONTINUOUS
 62
    6
 10
663.42055896430736
 20
752.96045923601037
 11
669.5014150430319
 21
759.04131531473456
  0
LINE
  8
_0-e_極細4
  6
CONTINUOUS
 62
    6
 10
663.42055896430736
 20
758.26376009490923
 11
663.50498549811448
 21
758.34818662871601
  0
TEXT
  8
_0-7_枠細線
 62
    5
 10
420.11818234856048
 20
365.08409944064965
 40
50
 41
0.8
 50
0
  1
排水部詳細図
  0
TEXT
  8
_0-7_枠細線
 62
    5
 10
691.28049033469733
 20
368.83196376981402
 40
40
 41
0.6000000000000002
 50
0
  1
Ｓ＝１：４
  0
LINE
  8
_1-1_寸法4
  6
CONTINUOUS
 62
    7
 10
425.65412465504608
 20
515.15195718022233
 11
413.51904813899796
 21
499.25416117103737
  0
LINE
  8
_1-1_寸法4
  6
CONTINUOUS
 62
    7
 10
425.65412465504608
 20
515.15195718022233
 11
407.19594211068795
 21
507.45160023010931
  0
LINE
  8
_1-1_寸法4
  6
CONTINUOUS
 62
    7
 10
425.65412465504608
 20
515.15195718022233
 11
382.40615474071149
 21
481.79257538953215
  0
LINE
  8
_1-1_寸法4
  6
CONTINUOUS
 62
    7
 10
382.40615474071149
 20
481.79257538953215
 11
238.40615474071143
 21
481.79257538953215
  0
TEXT
  8
_1-1_寸法4
 62
    7
 10
238.40615474071143
 20
481.79257538953266
 40
30
 41
0.7999999999999998
 50
-0.0000000000001979
  1
トラップ本体
  0
LINE
  8
_1-1_寸法4
  6
CONTINUOUS
 62
    7
 10
500.13193144356649
 20
625.47823401777043
 11
488.10240315462721
 21
609.5004228677534
  0
LINE
  8
_1-1_寸法4
  6
CONTINUOUS
 62
    7
 10
500.13193144356649
 20
625.47823401777043
 11
481.72514877479301
 21
617.65580780945515
  0
LINE
  8
_1-1_寸法4
  6
CONTINUOUS
 62
    7
 10
500.13193144356649
 20
625.47823401777043
 11
382.40615474071149
 21
533.42038138855946
  0
LINE
  8
_1-1_寸法4
  6
CONTINUOUS
 62
    7
 10
382.40615474071149
 20
533.42038138855946
 11
190.40615474071132
 21
533.42038138855946
  0
TEXT
  8
_1-1_寸法4
 62
    7
 10
190.40615474071132
 20
533.42038138856003
 40
30
 41
0.7999999999999998
 50
-0.0000000000001696
  1
防臭インナー１号
  0
LINE
  8
_1-1_寸法4
  6
CONTINUOUS
 62
    7
 10
454.4400254383396
 20
665.17524925154123
 11
442.41867956122405
 21
649.19128093004008
  0
LINE
  8
_1-1_寸法4
  6
CONTINUOUS
 62
    7
 10
454.4400254383396
 20
665.17524925154123
 11
436.03725036032756
 21
657.34339957039322
  0
LINE
  8
_1-1_寸法4
  6
CONTINUOUS
 62
    7
 10
454.4400254383396
 20
665.17524925154123
 11
382.40615474071149
 21
608.78757063655939
  0
LINE
  8
_1-1_寸法4
  6
CONTINUOUS
 62
    7
 10
382.40615474071149
 20
608.78757063655939
 11
190.40615474071132
 21
608.78757063655939
  0
TEXT
  8
_1-1_寸法4
 62
    7
 10
190.40615474071132
 20
608.78757063655951
 40
30
 41
0.7999999999999998
 50
-0.0000000000001696
  1
防臭インナー２号
  0
LINE
  8
_1-1_寸法4
  6
CONTINUOUS
 62
    7
 10
480.95766250363056
 20
755.93701987566862
 11
465.22958485115367
 21
768.29127312536593
  0
LINE
  8
_1-1_寸法4
  6
CONTINUOUS
 62
    7
 10
480.95766250363056
 20
755.93701987566862
 11
473.51387432874003
 21
774.5001558609315
  0
LINE
  8
_1-1_寸法4
  6
CONTINUOUS
 62
    7
 10
480.95766250363056
 20
755.93701987566862
 11
449.02573512878064
 21
798.54264494815254
  0
LINE
  8
_1-1_寸法4
  6
CONTINUOUS
 62
    7
 10
449.02573512878064
 20
798.54264494815254
 11
305.02573512878041
 21
798.54264494815254
  0
TEXT
  8
_1-1_寸法4
 62
    7
 10
305.02573512878058
 20
798.54264494815311
 40
30
 41
0.7999999999999998
 50
-0.0000000000002261
  1
ストレーナー
  0
TEXT
  8
_1-1_寸法4
 62
    7
 10
672.43424454025501
 20
789.18631818434847
 40
30
 41
0.8000000000000001
 50
0
  1
Ｃ部
  0
LINE
  8
_1-2_極細2
  6
CONTINUOUS
 62
    2
 10
1472.6148966208489
 20
533.62445357093304
 11
1442.6148966208486
 21
533.62445357093304
  0
LINE
  8
_1-2_極細2
  6
CONTINUOUS
 62
    2
 10
999.28156328751493
 20
533.62445357093304
 11
1029.2815632875149
 21
533.62445357093304
  0
LINE
  8
_1-2_極細2
  6
CENTER1
 62
    2
 10
1235.9482299541819
 20
557.34483538755831
 11
1235.9482299541819
 21
446.5534684810832
  0
LINE
  8
_1-2_極細2
  6
CONTINUOUS
 62
    2
 10
995.94822995418201
 20
510.2911202375999
 11
995.94822995418201
 21
536.95778690426641
  0
LINE
  8
_1-2_極細2
  6
CONTINUOUS
 62
    2
 10
995.94822995418201
 20
536.95778690426641
 11
1032.6148966208486
 21
536.95778690426641
  0
LINE
  8
_1-2_極細2
  6
CONTINUOUS
 62
    2
 10
1475.9482299541812
 20
510.29112023759956
 11
1475.9482299541824
 21
536.95778690426641
  0
LINE
  8
_1-2_極細2
  6
CONTINUOUS
 62
    2
 10
1439.2815632875156
 20
536.95778690426641
 11
1475.9482299541824
 21
536.95778690426641
  0
LINE
  8
_1-5_寸法2
  6
CONTINUOUS
 62
    7
 10
995.94822995418201
 20
556.95778690426641
 11
995.94822995418201
 21
786.95778690426664
  0
LINE
  8
_1-5_寸法2
  6
CONTINUOUS
 62
    7
 10
995.94822995418201
 20
776.95778690426664
 11
1015.2667464799633
 21
782.1341678063169
  0
LINE
  8
_1-5_寸法2
  6
CONTINUOUS
 62
    7
 10
995.94822995418201
 20
776.95778690426664
 11
1015.2667464799633
 21
771.78140600221627
  0
LINE
  8
_1-5_寸法2
  6
CONTINUOUS
 62
    7
 10
1475.9482299541819
 20
556.95778690426641
 11
1475.9482299541819
 21
786.95778690426664
  0
LINE
  8
_1-5_寸法2
  6
CONTINUOUS
 62
    7
 10
1475.9482299541819
 20
776.95778690426664
 11
1456.6297134284005
 21
771.78140600221627
  0
LINE
  8
_1-5_寸法2
  6
CONTINUOUS
 62
    7
 10
1475.9482299541819
 20
776.95778690426664
 11
1456.6297134284005
 21
782.13416780631701
  0
LINE
  8
_1-5_寸法2
  6
CONTINUOUS
 62
    7
 10
995.94822995418201
 20
776.95778690426664
 11
1475.9482299541819
 21
776.95778690426664
  0
TEXT
  8
_1-5_寸法2
 62
    7
 10
1213.4482299541821
 20
776.95778690426664
 40
30
 41
1
 50
0
  1
144
  0
LINE
  8
_1-5_寸法2
  6
CONTINUOUS
 62
    7
 10
1439.2815632875156
 20
556.95778690426641
 11
1439.2815632875158
 21
716.95778690426653
  0
LINE
  8
_1-5_寸法2
  6
CONTINUOUS
 62
    7
 10
1439.2815632875158
 20
706.95778690426653
 11
1458.6000798132975
 21
712.1341678063169
  0
LINE
  8
_1-5_寸法2
  6
CONTINUOUS
 62
    7
 10
1439.2815632875158
 20
706.95778690426653
 11
1458.6000798132975
 21
701.78140600221627
  0
LINE
  8
_1-5_寸法2
  6
CONTINUOUS
 62
    7
 10
1475.9482299541821
 20
556.95778690426641
 11
1475.948229954183
 21
716.95778690426653
  0
LINE
  8
_1-5_寸法2
  6
CONTINUOUS
 62
    7
 10
1475.948229954183
 20
706.95778690426653
 11
1456.6297134284016
 21
701.78140600221627
  0
LINE
  8
_1-5_寸法2
  6
CONTINUOUS
 62
    7
 10
1475.948229954183
 20
706.95778690426653
 11
1456.6297134284016
 21
712.13416780631701
  0
LINE
  8
_1-5_寸法2
  6
CONTINUOUS
 62
    7
 10
1439.2815632875158
 20
706.95778690426653
 11
1475.948229954183
 21
706.95778690426653
  0
TEXT
  8
_1-5_寸法2
 62
    7
 10
1442.6148966208493
 20
706.95778690426653
 40
30
 41
1
 50
0
  1
11
  0
LINE
  8
_1-5_寸法2
  6
CONTINUOUS
 62
    7
 10
1038.4482299541842
 20
556.95778690426641
 11
1038.4482299541846
 21
716.95778690426653
  0
LINE
  8
_1-5_寸法2
  6
CONTINUOUS
 62
    7
 10
1038.4482299541846
 20
706.95778690426653
 11
1057.7667464799661
 21
712.1341678063169
  0
LINE
  8
_1-5_寸法2
  6
CONTINUOUS
 62
    7
 10
1038.4482299541846
 20
706.95778690426653
 11
1057.7667464799661
 21
701.78140600221627
  0
LINE
  8
_1-5_寸法2
  6
CONTINUOUS
 62
    7
 10
1433.4482299541821
 20
556.95778690426641
 11
1433.448229954183
 21
716.95778690426653
  0
LINE
  8
_1-5_寸法2
  6
CONTINUOUS
 62
    7
 10
1433.448229954183
 20
706.95778690426653
 11
1414.1297134284016
 21
701.78140600221627
  0
LINE
  8
_1-5_寸法2
  6
CONTINUOUS
 62
    7
 10
1433.448229954183
 20
706.95778690426653
 11
1414.1297134284016
 21
712.13416780631701
  0
LINE
  8
_1-5_寸法2
  6
CONTINUOUS
 62
    7
 10
1038.4482299541846
 20
706.95778690426653
 11
1433.448229954183
 21
706.95778690426653
  0
TEXT
  8
_1-5_寸法2
 62
    7
 10
1198.4482299541835
 20
706.95778690426653
 40
30
 41
1
 50
0
  1
118.5
  0
LINE
  8
_1-5_寸法2
  6
CONTINUOUS
 62
    7
 10
995.94822995418212
 20
556.95778690426641
 11
995.94822995418269
 21
716.95778690426653
  0
LINE
  8
_1-5_寸法2
  6
CONTINUOUS
 62
    7
 10
995.94822995418269
 20
706.95778690426653
 11
1015.266746479964
 21
712.1341678063169
  0
LINE
  8
_1-5_寸法2
  6
CONTINUOUS
 62
    7
 10
995.94822995418269
 20
706.95778690426653
 11
1015.266746479964
 21
701.78140600221627
  0
LINE
  8
_1-5_寸法2
  6
CONTINUOUS
 62
    7
 10
1032.6148966208486
 20
556.95778690426641
 11
1032.6148966208486
 21
716.95778690426653
  0
LINE
  8
_1-5_寸法2
  6
CONTINUOUS
 62
    7
 10
1032.6148966208486
 20
706.95778690426653
 11
1013.2963800950672
 21
701.78140600221627
  0
LINE
  8
_1-5_寸法2
  6
CONTINUOUS
 62
    7
 10
1032.6148966208486
 20
706.95778690426653
 11
1013.2963800950674
 21
712.13416780631701
  0
LINE
  8
_1-5_寸法2
  6
CONTINUOUS
 62
    7
 10
995.94822995418269
 20
706.95778690426653
 11
1032.6148966208486
 21
706.95778690426653
  0
TEXT
  8
_1-5_寸法2
 62
    7
 10
999.28156328751606
 20
706.95778690426653
 40
30
 41
1
 50
0
  1
11
  0
LINE
  8
_1-5_寸法2
  6
CONTINUOUS
 62
    7
 10
975.94822995418201
 20
536.95778690426653
 11
885.94822995418201
 21
536.9577869042671
  0
LINE
  8
_1-5_寸法2
  6
CONTINUOUS
 62
    7
 10
895.94822995418201
 20
536.95778690426698
 11
901.12461085623238
 21
517.63927037848566
  0
LINE
  8
_1-5_寸法2
  6
CONTINUOUS
 62
    7
 10
895.94822995418201
 20
536.95778690426698
 11
890.77184905213153
 21
517.63927037848566
  0
LINE
  8
_1-5_寸法2
  6
CONTINUOUS
 62
    7
 10
1009.2815632875149
 20
470.29112023759967
 11
885.94822995418201
 21
470.29112023760024
  0
LINE
  8
_1-5_寸法2
  6
CONTINUOUS
 62
    7
 10
895.94822995418201
 20
470.29112023760013
 11
890.77184905213153
 21
489.60963676338156
  0
LINE
  8
_1-5_寸法2
  6
CONTINUOUS
 62
    7
 10
895.94822995418201
 20
470.29112023760013
 11
901.12461085623238
 21
489.60963676338156
  0
LINE
  8
_1-5_寸法2
  6
CONTINUOUS
 62
    7
 10
895.94822995418201
 20
536.95778690426698
 11
895.94822995418201
 21
470.29112023760013
  0
TEXT
  8
_1-5_寸法2
 62
    7
 10
895.94822995418201
 20
488.62445357093327
 40
30
 41
1
 50
90
  1
20
  0
LINE
  8
_1-5_寸法2
  6
CONTINUOUS
 62
    7
 10
1495.948229954181
 20
510.29112023759933
 11
1585.9482299541814
 21
510.29112023759836
  0
LINE
  8
_1-5_寸法2
  6
CONTINUOUS
 62
    7
 10
1575.9482299541814
 20
510.29112023759842
 11
1570.7718490521313
 21
529.60963676337974
  0
LINE
  8
_1-5_寸法2
  6
CONTINUOUS
 62
    7
 10
1575.9482299541814
 20
510.29112023759842
 11
1581.1246108562318
 21
529.60963676337974
  0
LINE
  8
_1-5_寸法2
  6
CONTINUOUS
 62
    7
 10
1495.948229954181
 20
536.95778690426619
 11
1585.9482299541814
 21
536.95778690426528
  0
LINE
  8
_1-5_寸法2
  6
CONTINUOUS
 62
    7
 10
1575.9482299541814
 20
536.95778690426528
 11
1581.1246108562318
 21
517.63927037848396
  0
LINE
  8
_1-5_寸法2
  6
CONTINUOUS
 62
    7
 10
1575.9482299541814
 20
536.95778690426528
 11
1570.7718490521313
 21
517.63927037848396
  0
LINE
  8
_1-5_寸法2
  6
CONTINUOUS
 62
    7
 10
1575.9482299541814
 20
510.29112023759842
 11
1575.9482299541814
 21
536.95778690426528
  0
TEXT
  8
_1-5_寸法2
 62
    7
 10
1575.9482299541814
 20
516.12445357093213
 40
30
 41
1
 50
90
  1
8
  0
LINE
  8
_1-2_極細2
  6
CONTINUOUS
 62
    2
 10
999.28156328751493
 20
510.2911202375999
 11
999.28156328751493
 21
533.62445357093304
  0
LINE
  8
_1-2_極細2
  6
CONTINUOUS
 62
    2
 10
995.94822995418201
 20
510.2911202375999
 11
999.28156328751493
 21
510.2911202375999
  0
LINE
  8
_1-2_極細2
  6
CONTINUOUS
 62
    2
 10
1029.2815632875149
 20
533.62445357093304
 11
1029.2815632875149
 21
470.29112023759956
  0
LINE
  8
_1-2_極細2
  6
CONTINUOUS
 62
    2
 10
1472.6148966208482
 20
510.29112023759956
 11
1475.9482299541812
 21
510.29112023759956
  0
LINE
  8
_1-2_極細2
  6
CONTINUOUS
 62
    2
 10
1472.6148966208482
 20
510.29112023759956
 11
1472.6148966208489
 21
533.62445357093304
  0
LINE
  8
_1-2_極細2
  6
CONTINUOUS
 62
    2
 10
1442.6148966208486
 20
470.29112023759956
 11
1029.2815632875149
 21
470.29112023759956
  0
LINE
  8
_1-2_極細2
  6
CONTINUOUS
 62
    2
 10
1442.6148966208486
 20
533.62445357093304
 11
1442.6148966208486
 21
470.29112023759956
  0
LINE
  8
_1-2_極細2
  6
CONTINUOUS
 62
    2
 10
1439.2815632875156
 20
473.62445357093293
 11
1439.2815632875156
 21
536.95778690426641
  0
LINE
  8
_1-2_極細2
  6
CONTINUOUS
 62
    2
 10
1439.2815632875156
 20
473.62445357093293
 11
1032.6148966208486
 21
473.62445357093293
  0
LINE
  8
_1-2_極細2
  6
CONTINUOUS
 62
    2
 10
1032.6148966208486
 20
473.62445357093293
 11
1032.6148966208486
 21
536.95778690426641
  0
LINE
  8
_1-3_細線2
  6
CONTINUOUS
 62
    4
 10
1094.1148966208475
 20
526.62445357093247
 11
1119.4482299541814
 21
526.62445357093247
  0
LINE
  8
_1-3_細線2
  6
CONTINUOUS
 62
    4
 10
1119.4482299541814
 20
526.62445357093247
 11
1119.4482299541814
 21
477.29112023759967
  0
LINE
  8
_1-3_細線2
  6
CONTINUOUS
 62
    4
 10
1123.4482299541814
 20
526.62445357093281
 11
1123.4482299541814
 21
477.29112023759967
  0
ARC
  8
_1-3_細線2
  6
CONTINUOUS
 62
    4
 10
1119.4482299541814
 20
526.62445357093281
 40
3.9999999999999996
 50
0
 51
89.999999999999915
  0
LINE
  8
_1-3_細線2
  6
CONTINUOUS
 62
    4
 10
1094.1148966208473
 20
530.62445357093293
 11
1119.4482299541814
 21
530.62445357093293
  0
ARC
  8
_1-3_細線2
  6
CONTINUOUS
 62
    4
 10
1094.1148966208473
 20
526.62445357093281
 40
3.9999999999999996
 50
89.999999999999915
 51
179.99999999999983
  0
LINE
  8
_1-3_細線2
  6
CONTINUOUS
 62
    4
 10
1119.4482299541814
 20
477.29112023759967
 11
1123.4482299541814
 21
477.29112023759967
  0
LINE
  8
_1-3_細線2
  6
CONTINUOUS
 62
    4
 10
1090.1148966208475
 20
510.62445310158898
 11
1094.1148966208484
 21
510.62445310158876
  0
LINE
  8
_1-3_細線2
  6
CONTINUOUS
 62
    4
 10
1094.1148966208475
 20
526.62445357093247
 11
1094.1148966208484
 21
510.62445310158898
  0
LINE
  8
_1-3_細線2
  6
CONTINUOUS
 62
    4
 10
1090.1148966208475
 20
526.62445357093281
 11
1090.1148966208475
 21
510.62445310158898
  0
LINE
  8
_1-3_細線2
  6
CONTINUOUS
 62
    4
 10
1071.7815632875172
 20
482.45778643492235
 11
1119.4482299541828
 21
482.45778643492235
  0
LINE
  8
_1-3_細線2
  6
CONTINUOUS
 62
    4
 10
1071.7815632875172
 20
505.45778643492247
 11
1119.4482299541828
 21
505.45778643492247
  0
LINE
  8
_1-3_細線2
  6
CONTINUOUS
 62
    4
 10
1067.7815632875186
 20
526.62445357093247
 11
1067.7815632875186
 21
477.29112023759967
  0
LINE
  8
_1-3_細線2
  6
CONTINUOUS
 62
    4
 10
1042.4482299541855
 20
526.62445357093247
 11
1067.7815632875186
 21
526.62445357093247
  0
LINE
  8
_1-3_細線2
  6
CONTINUOUS
 62
    4
 10
1071.7815632875172
 20
526.62445357093281
 11
1071.7815632875172
 21
477.29112023759967
  0
ARC
  8
_1-3_細線2
  6
CONTINUOUS
 62
    4
 10
1067.781563287517
 20
526.62445357093281
 40
3.9999999999999996
 50
0
 51
89.999999999999915
  0
LINE
  8
_1-3_細線2
  6
CONTINUOUS
 62
    4
 10
1042.4482299541844
 20
530.62445357093293
 11
1067.781563287517
 21
530.62445357093293
  0
ARC
  8
_1-3_細線2
  6
CONTINUOUS
 62
    4
 10
1042.4482299541844
 20
526.62445357093281
 40
3.9999999999999996
 50
89.999999999999915
 51
179.99999999999983
  0
LINE
  8
_1-3_細線2
  6
CONTINUOUS
 62
    4
 10
1067.7815632875186
 20
477.29112023759967
 11
1071.7815632875172
 21
477.29112023759967
  0
LINE
  8
_1-3_細線2
  6
CONTINUOUS
 62
    4
 10
1038.4482299541846
 20
510.62445310158898
 11
1042.4482299541855
 21
510.62445310158876
  0
LINE
  8
_1-3_細線2
  6
CONTINUOUS
 62
    4
 10
1042.4482299541855
 20
526.62445357093247
 11
1042.4482299541855
 21
510.62445310158898
  0
LINE
  8
_1-3_細線2
  6
CONTINUOUS
 62
    4
 10
1038.4482299541846
 20
526.62445357093281
 11
1038.4482299541846
 21
510.62445310158898
  0
LINE
  8
_1-2_極細2
  6
CONTINUOUS
 62
    2
 10
1099.2815632875156
 20
477.29112023759967
 11
1099.2815632875156
 21
475.29112023759956
  0
LINE
  8
_1-2_極細2
  6
CONTINUOUS
 62
    2
 10
1100.9482299541824
 20
477.29112023759967
 11
1100.9482299541824
 21
475.29112023759956
  0
LINE
  8
_1-2_極細2
  6
CONTINUOUS
 62
    2
 10
1099.2815632875158
 20
476
 11
1100.9482299541821
 21
476
  0
LINE
  8
_1-2_極細2
  6
CONTINUOUS
 62
    2
 10
1099.2815632875158
 20
477
 11
1100.9482299541821
 21
477
  0
LINE
  8
_1-2_極細2
  6
CONTINUOUS
 62
    2
 10
1103.4482299541819
 20
475.29112023759956
 11
1103.4482299541819
 21
473.62445357093293
  0
LINE
  8
_1-2_極細2
  6
CONTINUOUS
 62
    2
 10
1103.4482299541824
 20
478.9577869042663
 11
1103.4482299541819
 21
477.29112023759944
  0
LINE
  8
_1-2_極細2
  6
CONTINUOUS
 62
    2
 10
1080.1148966208493
 20
475.29112023759956
 11
1080.1148966208486
 21
473.62445357093293
  0
LINE
  8
_1-2_極細2
  6
CONTINUOUS
 62
    2
 10
1080.1148966208489
 20
478.9577869042663
 11
1080.1148966208493
 21
477.29112023759967
  0
LINE
  8
_1-2_極細2
  6
CONTINUOUS
 62
    2
 10
1082.6148966208489
 20
477.29112023759967
 11
1082.6148966208489
 21
475.29112023759956
  0
LINE
  8
_1-2_極細2
  6
CONTINUOUS
 62
    2
 10
1084.2815632875156
 20
477.29112023759967
 11
1084.2815632875156
 21
475.29112023759956
  0
LINE
  8
_1-2_極細2
  6
CONTINUOUS
 62
    2
 10
1082.6148966208489
 20
476
 11
1084.2815632875161
 21
476
  0
LINE
  8
_1-2_極細2
  6
CONTINUOUS
 62
    2
 10
1082.6148966208489
 20
477
 11
1084.2815632875161
 21
477
  0
LINE
  8
_1-2_極細2
  6
CONTINUOUS
 62
    2
 10
1080.1148966208489
 20
473.62445357093293
 11
1103.4482299541819
 21
473.62445357093293
  0
LINE
  8
_1-2_極細2
  6
CONTINUOUS
 62
    2
 10
1080.1148966208489
 20
474.00000000000006
 11
1103.4482299541819
 21
474.00000000000006
  0
LINE
  8
_1-2_極細2
  6
CONTINUOUS
 62
    2
 10
1080.1148966208489
 20
475
 11
1103.4482299541819
 21
475
  0
LINE
  8
_1-2_極細2
  6
CONTINUOUS
 62
    2
 10
1080.1148966208493
 20
478.00000000000006
 11
1103.4482299541821
 21
478.00000000000006
  0
LINE
  8
_1-2_極細2
  6
CONTINUOUS
 62
    2
 10
1080.1148966208493
 20
478.9577869042663
 11
1103.4482299541819
 21
478.9577869042663
  0
LINE
  8
_1-2_極細2
  6
CONTINUOUS
 62
    2
 10
1065.7815632875149
 20
522.95778690426607
 11
1067.7815632875152
 21
522.95778690426607
  0
LINE
  8
_1-2_極細2
  6
CONTINUOUS
 62
    2
 10
1065.7815632875149
 20
522.95778690426607
 11
1065.7815632875149
 21
475.29112023759956
  0
ARC
  8
_1-3_細線2
  6
CONTINUOUS
 62
    4
 10
1063.1257366208476
 20
477.95778596557921
 40
0.6666666666666669
 50
179.99999999999983
 51
269.99999999999977
  0
LINE
  8
_1-3_細線2
  6
CONTINUOUS
 62
    4
 10
1065.7815632875149
 20
477.29111929891246
 11
1063.1257366208476
 21
477.29111929891246
  0
ARC
  8
_1-3_細線2
  6
CONTINUOUS
 62
    4
 10
1063.1257366208476
 20
509.95778596557841
 40
0.6666666666666669
 50
89.999999999999915
 51
179.99999999999983
  0
LINE
  8
_1-3_細線2
  6
CONTINUOUS
 62
    4
 10
1065.7815632875149
 20
510.62445263224629
 11
1063.1257366208476
 21
510.62445263224629
  0
LINE
  8
_1-3_細線2
  6
CONTINUOUS
 62
    4
 10
1062.4590699541798
 20
492.29111929891246
 11
1062.4590699541798
 21
477.95778596557921
  0
LINE
  8
_1-3_細線2
  6
CONTINUOUS
 62
    4
 10
1062.4590699541798
 20
509.95778596557841
 11
1062.4590699541798
 21
492.29111929891246
  0
LINE
  8
_1-2_極細2
  6
CONTINUOUS
 62
    2
 10
1062.4590699541798
 20
493.9577859655783
 11
1052.4440166208465
 21
493.9577859655783
  0
LINE
  8
_1-3_細線2
  6
CONTINUOUS
 62
    4
 10
1062.4590699541798
 20
482.29111929891315
 11
1052.4439766208482
 21
482.29111929891315
  0
ARC
  8
_1-3_細線2
  6
CONTINUOUS
 62
    4
 10
1052.4439766208482
 20
482.95778596557921
 40
0.6666666666666669
 50
179.99999999999983
 51
269.99999999999977
  0
ARC
  8
_1-2_極細2
  6
CONTINUOUS
 62
    2
 10
1077.6372432875135
 20
488.12396596558028
 40
25.859853333333334
 50
166.96197800000505
 51
193.03566999999961
  0
ARC
  8
_1-3_細線2
  6
CONTINUOUS
 62
    4
 10
1052.4439766208482
 20
504.95778596558023
 40
0.6666666666666669
 50
89.999999999999915
 51
179.99999999999983
  0
ARC
  8
_1-2_極細2
  6
CONTINUOUS
 62
    2
 10
1077.6372432875135
 20
499.79159929891193
 40
25.859853333333334
 50
166.96433000000002
 51
193.03802199999825
  0
LINE
  8
_1-3_細線2
  6
CONTINUOUS
 62
    4
 10
1062.4590699541798
 20
505.62445263224629
 11
1052.4439766208482
 21
505.62445263224629
  0
LINE
  8
_1-3_細線2
  6
CONTINUOUS
 62
    4
 10
1051.7773099541805
 20
482.95778596557921
 11
1051.7773099541805
 21
504.95778596558023
  0
LINE
  8
_1-3_細線2
  6
CONTINUOUS
 62
    4
 10
1326.1148962806831
 20
526.62445357093247
 11
1300.7815629473519
 21
526.62445357093247
  0
LINE
  8
_1-3_細線2
  6
CONTINUOUS
 62
    4
 10
1300.7815629473519
 20
526.62445357093247
 11
1300.7815629473519
 21
477.29112023759967
  0
ARC
  8
_1-3_細線2
  6
CONTINUOUS
 62
    4
 10
1326.1148962806842
 20
526.62445357093281
 40
3.9999999999999996
 50
0
 51
89.999999999999915
  0
LINE
  8
_1-3_細線2
  6
CONTINUOUS
 62
    4
 10
1296.7815629473509
 20
526.62445357093281
 11
1296.7815629473509
 21
477.29112023759967
  0
LINE
  8
_1-3_細線2
  6
CONTINUOUS
 62
    4
 10
1326.1148962806842
 20
530.62445357093293
 11
1300.7815629473512
 21
530.62445357093293
  0
ARC
  8
_1-3_細線2
  6
CONTINUOUS
 62
    4
 10
1300.7815629473512
 20
526.62445357093281
 40
3.9999999999999996
 50
89.999999999999915
 51
179.99999999999983
  0
LINE
  8
_1-3_細線2
  6
CONTINUOUS
 62
    4
 10
1296.7815629473509
 20
477.29112023759967
 11
1300.7815629473519
 21
477.29112023759967
  0
LINE
  8
_1-3_細線2
  6
CONTINUOUS
 62
    4
 10
1330.114896280684
 20
510.62445310158898
 11
1326.1148962806831
 21
510.62445310158876
  0
LINE
  8
_1-3_細線2
  6
CONTINUOUS
 62
    4
 10
1326.1148962806831
 20
526.62445357093247
 11
1326.1148962806831
 21
510.62445310158898
  0
LINE
  8
_1-3_細線2
  6
CONTINUOUS
 62
    4
 10
1330.114896280684
 20
526.62445357093281
 11
1330.114896280684
 21
510.62445310158898
  0
LINE
  8
_1-3_細線2
  6
CONTINUOUS
 62
    4
 10
1348.4482299541819
 20
482.45778643492235
 11
1300.7815632875165
 21
482.45778643492235
  0
LINE
  8
_1-3_細線2
  6
CONTINUOUS
 62
    4
 10
1348.4482299541819
 20
505.45778643492247
 11
1300.7815632875165
 21
505.45778643492247
  0
LINE
  8
_1-3_細線2
  6
CONTINUOUS
 62
    4
 10
1404.1148966208491
 20
502.57445357093286
 11
1404.1148966208491
 21
489.34112023759951
  0
LINE
  8
_1-3_細線2
  6
CONTINUOUS
 62
    4
 10
1404.1148966208491
 20
526.62445357093247
 11
1404.1148966208491
 21
477.29112023759967
  0
LINE
  8
_1-3_細線2
  6
CONTINUOUS
 62
    4
 10
1377.7815632875138
 20
526.62445357093247
 11
1352.448229954181
 21
526.62445357093247
  0
LINE
  8
_1-3_細線2
  6
CONTINUOUS
 62
    4
 10
1429.4482299541812
 20
526.62445357093247
 11
1404.1148966208491
 21
526.62445357093247
  0
LINE
  8
_1-3_細線2
  6
CONTINUOUS
 62
    4
 10
1352.448229954181
 20
526.62445357093247
 11
1352.448229954181
 21
477.29112023759967
  0
ARC
  8
_1-3_細線2
  6
CONTINUOUS
 62
    4
 10
1429.4482299541821
 20
526.62445357093281
 40
3.9999999999999996
 50
0
 51
89.999999999999915
  0
LINE
  8
_1-3_細線2
  6
CONTINUOUS
 62
    4
 10
1400.1148966208475
 20
526.62445357093281
 11
1400.1148966208475
 21
477.29112023759967
  0
LINE
  8
_1-3_細線2
  6
CONTINUOUS
 62
    4
 10
1429.4482299541821
 20
530.62445357093293
 11
1404.1148966208475
 21
530.62445357093293
  0
ARC
  8
_1-3_細線2
  6
CONTINUOUS
 62
    4
 10
1404.1148966208475
 20
526.62445357093281
 40
3.9999999999999996
 50
89.999999999999915
 51
179.99999999999983
  0
ARC
  8
_1-3_細線2
  6
CONTINUOUS
 62
    4
 10
1377.7815632875147
 20
526.62445357093281
 40
3.9999999999999996
 50
0
 51
89.999999999999915
  0
LINE
  8
_1-3_細線2
  6
CONTINUOUS
 62
    4
 10
1348.4482299541819
 20
526.62445357093281
 11
1348.4482299541819
 21
477.29112023759967
  0
LINE
  8
_1-3_細線2
  6
CONTINUOUS
 62
    4
 10
1377.7815632875147
 20
530.62445357093293
 11
1352.4482299541821
 21
530.62445357093293
  0
ARC
  8
_1-3_細線2
  6
CONTINUOUS
 62
    4
 10
1352.4482299541821
 20
526.62445357093281
 40
3.9999999999999996
 50
89.999999999999915
 51
179.99999999999983
  0
LINE
  8
_1-3_細線2
  6
CONTINUOUS
 62
    4
 10
1348.4482299541819
 20
477.29112023759967
 11
1352.448229954181
 21
477.29112023759967
  0
LINE
  8
_1-3_細線2
  6
CONTINUOUS
 62
    4
 10
1400.1148966208475
 20
477.29112023759967
 11
1404.1148966208491
 21
477.29112023759967
  0
LINE
  8
_1-3_細線2
  6
CONTINUOUS
 62
    4
 10
1433.4482299541821
 20
510.62445310158898
 11
1429.4482299541812
 21
510.62445310158898
  0
LINE
  8
_1-3_細線2
  6
CONTINUOUS
 62
    4
 10
1381.7815632875147
 20
510.62445310158898
 11
1377.7815632875138
 21
510.62445310158898
  0
LINE
  8
_1-3_細線2
  6
CONTINUOUS
 62
    4
 10
1377.7815632875138
 20
526.62445357093247
 11
1377.7815632875138
 21
510.62445310158898
  0
LINE
  8
_1-3_細線2
  6
CONTINUOUS
 62
    4
 10
1429.4482299541812
 20
526.62445357093247
 11
1429.4482299541812
 21
510.62445310158898
  0
LINE
  8
_1-3_細線2
  6
CONTINUOUS
 62
    4
 10
1433.4482299541821
 20
526.62445357093281
 11
1433.4482299541821
 21
510.62445310158898
  0
LINE
  8
_1-3_細線2
  6
CONTINUOUS
 62
    4
 10
1381.7815632875147
 20
526.62445357093281
 11
1381.7815632875147
 21
510.62445310158898
  0
LINE
  8
_1-3_細線2
  6
CONTINUOUS
 62
    4
 10
1400.1148969610135
 20
482.45778643492235
 11
1352.4482302943479
 21
482.45778643492235
  0
LINE
  8
_1-3_細線2
  6
CONTINUOUS
 62
    4
 10
1400.1148969610135
 20
505.45778643492247
 11
1352.4482302943479
 21
505.45778643492247
  0
LINE
  8
_1-2_極細2
  6
CONTINUOUS
 62
    2
 10
1391.7815629473509
 20
478.9577869042663
 11
1391.7815629473509
 21
477.29112023759944
  0
LINE
  8
_1-2_極細2
  6
CONTINUOUS
 62
    2
 10
1391.7815629473509
 20
475.29112023759956
 11
1391.7815629473509
 21
473.62445357093293
  0
LINE
  8
_1-2_極細2
  6
CONTINUOUS
 62
    2
 10
1387.6148962806842
 20
477.29112023759967
 11
1387.6148962806842
 21
475.29112023759956
  0
LINE
  8
_1-2_極細2
  6
CONTINUOUS
 62
    2
 10
1389.2815629473509
 20
477.29112023759967
 11
1389.2815629473509
 21
475.29112023759956
  0
LINE
  8
_1-2_極細2
  6
CONTINUOUS
 62
    2
 10
1387.6148962806842
 20
476
 11
1389.2815629473509
 21
476
  0
LINE
  8
_1-2_極細2
  6
CONTINUOUS
 62
    2
 10
1387.6148962806842
 20
477
 11
1389.2815629473509
 21
477
  0
LINE
  8
_1-2_極細2
  6
CONTINUOUS
 62
    2
 10
1368.4482296140177
 20
478.9577869042663
 11
1368.4482296140184
 21
477.29112023759967
  0
LINE
  8
_1-2_極細2
  6
CONTINUOUS
 62
    2
 10
1368.4482296140184
 20
475.29112023759956
 11
1368.4482296140177
 21
473.62445357093293
  0
LINE
  8
_1-2_極細2
  6
CONTINUOUS
 62
    2
 10
1370.9482296140177
 20
477.29112023759967
 11
1370.9482296140177
 21
475.29112023759956
  0
LINE
  8
_1-2_極細2
  6
CONTINUOUS
 62
    2
 10
1372.6148962806842
 20
477.29112023759967
 11
1372.6148962806842
 21
475.29112023759956
  0
LINE
  8
_1-2_極細2
  6
CONTINUOUS
 62
    2
 10
1370.9482296140177
 20
476
 11
1372.6148962806842
 21
476
  0
LINE
  8
_1-2_極細2
  6
CONTINUOUS
 62
    2
 10
1370.9482296140177
 20
477
 11
1372.6148962806842
 21
477
  0
LINE
  8
_1-2_極細2
  6
CONTINUOUS
 62
    2
 10
1368.4482296140184
 20
478.9577869042663
 11
1391.7815629473509
 21
478.9577869042663
  0
LINE
  8
_1-2_極細2
  6
CONTINUOUS
 62
    2
 10
1368.4482296140184
 20
478.00000000000006
 11
1391.7815629473509
 21
478.00000000000006
  0
LINE
  8
_1-2_極細2
  6
CONTINUOUS
 62
    2
 10
1368.4482296140177
 20
474.00000000000006
 11
1391.7815629473509
 21
474.00000000000006
  0
LINE
  8
_1-2_極細2
  6
CONTINUOUS
 62
    2
 10
1368.4482296140177
 20
475
 11
1391.7815629473509
 21
475
  0
LINE
  8
_1-2_極細2
  6
CONTINUOUS
 62
    2
 10
1368.4482296140177
 20
473.62445357093293
 11
1391.7815629473509
 21
473.62445357093293
  0
LINE
  8
_1-2_極細2
  6
CONTINUOUS
 62
    2
 10
1406.1148962806849
 20
522.95778690426607
 11
1404.1148962806844
 21
522.95778690426607
  0
LINE
  8
_1-2_極細2
  6
CONTINUOUS
 62
    2
 10
1406.1148962806849
 20
522.95778690426607
 11
1406.1148962806849
 21
475.29112023759956
  0
LINE
  8
_1-2_極細2
  6
CONTINUOUS
 62
    2
 10
1409.4373896140198
 20
493.95778643492235
 11
1419.4524429473538
 21
493.95778643492235
  0
LINE
  8
_1-3_細線2
  6
CONTINUOUS
 62
    4
 10
1409.4373896140198
 20
482.2911197682572
 11
1419.4524829473514
 21
482.2911197682572
  0
ARC
  8
_1-3_細線2
  6
CONTINUOUS
 62
    4
 10
1419.4524829473514
 20
482.95778643492326
 40
0.6666666666666669
 50
269.99999999999977
 51
359.99999999999966
  0
ARC
  8
_1-2_極細2
  6
CONTINUOUS
 62
    2
 10
1394.2592162806861
 20
488.12396643492434
 40
25.859853333333334
 50
346.96432999999968
 51
13.038021999994573
  0
ARC
  8
_1-3_細線2
  6
CONTINUOUS
 62
    4
 10
1419.4524829473514
 20
504.95778643492429
 40
0.6666666666666669
 50
0
 51
89.999999999999915
  0
ARC
  8
_1-2_極細2
  6
CONTINUOUS
 62
    2
 10
1394.2592162806861
 20
499.79159976825599
 40
25.859853333333334
 50
346.96197800000101
 51
13.035669999999625
  0
LINE
  8
_1-3_細線2
  6
CONTINUOUS
 62
    4
 10
1409.4373896140198
 20
505.62445310159035
 11
1419.4524829473514
 21
505.62445310159035
  0
LINE
  8
_1-3_細線2
  6
CONTINUOUS
 62
    4
 10
1420.1191496140198
 20
482.95778643492326
 11
1420.1191496140198
 21
504.95778643492429
  0
ARC
  8
_1-3_細線2
  6
CONTINUOUS
 62
    4
 10
1408.7707229473519
 20
477.95778643492326
 40
0.6666666666666669
 50
269.99999999999977
 51
359.99999999999966
  0
LINE
  8
_1-3_細線2
  6
CONTINUOUS
 62
    4
 10
1406.1148962806849
 20
477.29111976825641
 11
1408.7707229473519
 21
477.29111976825641
  0
ARC
  8
_1-3_細線2
  6
CONTINUOUS
 62
    4
 10
1408.7707229473519
 20
509.95778643492235
 40
0.6666666666666669
 50
0
 51
89.999999999999915
  0
LINE
  8
_1-3_細線2
  6
CONTINUOUS
 62
    4
 10
1406.1148962806849
 20
510.62445310159035
 11
1408.7707229473519
 21
510.62445310159035
  0
LINE
  8
_1-3_細線2
  6
CONTINUOUS
 62
    4
 10
1409.4373896140198
 20
509.95778643492235
 11
1409.4373896140198
 21
477.95778643492326
  0
LINE
  8
_1-2_極細2
  6
CONTINUOUS
 62
    2
 10
1067.7815632875152
 20
477.29112023759967
 11
1404.1148962806844
 21
477.29112023759967
  0
LINE
  8
_1-2_極細2
  6
CONTINUOUS
 62
    2
 10
1065.7815632875149
 20
475.29112023759956
 11
1406.1148962806849
 21
475.29112023759956
  0
LINE
  8
_1-2_極細2
  6
CENTER1
 62
    2
 10
1047.2379452433747
 20
493.95778643492235
 11
1425.7355912305909
 21
493.95778643492235
  0
LINE
  8
_1-3_細線2
  6
CONTINUOUS
 62
    4
 10
1274.4482292738526
 20
526.62445357093247
 11
1249.1148959405209
 21
526.62445357093247
  0
LINE
  8
_1-3_細線2
  6
CONTINUOUS
 62
    4
 10
1249.1148959405209
 20
526.62445357093247
 11
1249.1148959405209
 21
477.29112023759967
  0
ARC
  8
_1-3_細線2
  6
CONTINUOUS
 62
    4
 10
1274.4482292738533
 20
526.62445357093281
 40
3.9999999999999996
 50
0
 51
89.999999999999915
  0
LINE
  8
_1-3_細線2
  6
CONTINUOUS
 62
    4
 10
1245.11489594052
 20
526.62445357093281
 11
1245.11489594052
 21
477.29112023759967
  0
LINE
  8
_1-3_細線2
  6
CONTINUOUS
 62
    4
 10
1274.4482292738533
 20
530.62445357093293
 11
1249.1148959405198
 21
530.62445357093293
  0
ARC
  8
_1-3_細線2
  6
CONTINUOUS
 62
    4
 10
1249.1148959405198
 20
526.62445357093281
 40
3.9999999999999996
 50
89.999999999999915
 51
179.99999999999983
  0
LINE
  8
_1-3_細線2
  6
CONTINUOUS
 62
    4
 10
1245.11489594052
 20
477.29112023759967
 11
1249.1148959405209
 21
477.29112023759967
  0
LINE
  8
_1-3_細線2
  6
CONTINUOUS
 62
    4
 10
1278.4482292738535
 20
510.62445310158898
 11
1274.4482292738526
 21
510.62445310158876
  0
LINE
  8
_1-3_細線2
  6
CONTINUOUS
 62
    4
 10
1274.4482292738526
 20
526.62445357093247
 11
1274.4482292738526
 21
510.62445310158898
  0
LINE
  8
_1-3_細線2
  6
CONTINUOUS
 62
    4
 10
1278.4482292738535
 20
526.62445357093281
 11
1278.4482292738535
 21
510.62445310158898
  0
LINE
  8
_1-3_細線2
  6
CONTINUOUS
 62
    4
 10
1296.7815629473509
 20
482.45778643492235
 11
1249.1148962806849
 21
482.45778643492235
  0
LINE
  8
_1-3_細線2
  6
CONTINUOUS
 62
    4
 10
1296.7815629473509
 20
505.45778643492247
 11
1249.1148962806849
 21
505.45778643492247
  0
LINE
  8
_1-3_細線2
  6
CONTINUOUS
 62
    4
 10
1145.781563627681
 20
526.62445357093247
 11
1171.1148969610124
 21
526.62445357093247
  0
LINE
  8
_1-3_細線2
  6
CONTINUOUS
 62
    4
 10
1171.1148969610124
 20
526.62445357093247
 11
1171.1148969610124
 21
477.29112023759967
  0
ARC
  8
_1-3_細線2
  6
CONTINUOUS
 62
    4
 10
1145.7815636276796
 20
526.62445357093281
 40
3.9999999999999996
 50
89.999999999999915
 51
179.99999999999983
  0
LINE
  8
_1-3_細線2
  6
CONTINUOUS
 62
    4
 10
1175.1148969610133
 20
526.62445357093281
 11
1175.1148969610133
 21
477.29112023759967
  0
LINE
  8
_1-3_細線2
  6
CONTINUOUS
 62
    4
 10
1145.7815636276796
 20
530.62445357093293
 11
1171.1148969610131
 21
530.62445357093293
  0
ARC
  8
_1-3_細線2
  6
CONTINUOUS
 62
    4
 10
1171.1148969610131
 20
526.62445357093281
 40
3.9999999999999996
 50
0
 51
89.999999999999915
  0
LINE
  8
_1-3_細線2
  6
CONTINUOUS
 62
    4
 10
1175.1148969610133
 20
477.29112023759967
 11
1171.1148969610124
 21
477.29112023759967
  0
LINE
  8
_1-3_細線2
  6
CONTINUOUS
 62
    4
 10
1141.78156362768
 20
510.62445310158898
 11
1145.781563627681
 21
510.62445310158876
  0
LINE
  8
_1-3_細線2
  6
CONTINUOUS
 62
    4
 10
1145.781563627681
 20
526.62445357093247
 11
1145.781563627681
 21
510.62445310158898
  0
LINE
  8
_1-3_細線2
  6
CONTINUOUS
 62
    4
 10
1141.78156362768
 20
526.62445357093281
 11
1141.78156362768
 21
510.62445310158898
  0
LINE
  8
_1-3_細線2
  6
CONTINUOUS
 62
    4
 10
1123.4482299541819
 20
482.45778643492235
 11
1171.1148966208477
 21
482.45778643492235
  0
LINE
  8
_1-3_細線2
  6
CONTINUOUS
 62
    4
 10
1123.4482299541819
 20
505.45778643492247
 11
1171.1148966208477
 21
505.45778643492247
  0
LINE
  8
_1-3_細線2
  6
CONTINUOUS
 62
    4
 10
1197.4482306345114
 20
526.62445357093247
 11
1222.7815639678433
 21
526.62445357093247
  0
LINE
  8
_1-3_細線2
  6
CONTINUOUS
 62
    4
 10
1222.7815639678433
 20
526.62445357093247
 11
1222.7815639678433
 21
477.29112023759967
  0
ARC
  8
_1-3_細線2
  6
CONTINUOUS
 62
    4
 10
1197.448230634511
 20
526.62445357093281
 40
3.9999999999999996
 50
89.999999999999915
 51
179.99999999999983
  0
LINE
  8
_1-3_細線2
  6
CONTINUOUS
 62
    4
 10
1226.7815639678442
 20
526.62445357093281
 11
1226.7815639678442
 21
477.29112023759967
  0
LINE
  8
_1-3_細線2
  6
CONTINUOUS
 62
    4
 10
1197.448230634511
 20
530.62445357093293
 11
1222.781563967844
 21
530.62445357093293
  0
ARC
  8
_1-3_細線2
  6
CONTINUOUS
 62
    4
 10
1222.781563967844
 20
526.62445357093281
 40
3.9999999999999996
 50
0
 51
89.999999999999915
  0
LINE
  8
_1-3_細線2
  6
CONTINUOUS
 62
    4
 10
1226.7815639678442
 20
477.29112023759967
 11
1222.7815639678433
 21
477.29112023759967
  0
LINE
  8
_1-3_細線2
  6
CONTINUOUS
 62
    4
 10
1193.4482306345105
 20
510.62445310158898
 11
1197.4482306345114
 21
510.62445310158876
  0
LINE
  8
_1-3_細線2
  6
CONTINUOUS
 62
    4
 10
1197.4482306345114
 20
526.62445357093247
 11
1197.4482306345114
 21
510.62445310158898
  0
LINE
  8
_1-3_細線2
  6
CONTINUOUS
 62
    4
 10
1193.4482306345105
 20
526.62445357093281
 11
1193.4482306345105
 21
510.62445310158898
  0
LINE
  8
_1-3_細線2
  6
CONTINUOUS
 62
    4
 10
1175.1148969610133
 20
482.45778643492235
 11
1222.7815636276791
 21
482.45778643492235
  0
LINE
  8
_1-3_細線2
  6
CONTINUOUS
 62
    4
 10
1175.1148969610133
 20
505.45778643492247
 11
1222.7815636276791
 21
505.45778643492247
  0
LINE
  8
_1-3_細線2
  6
CONTINUOUS
 62
    4
 10
1245.11489594052
 20
505.45778643492247
 11
1226.7815639678442
 21
505.45778643492247
  0
LINE
  8
_1-3_細線2
  6
CONTINUOUS
 62
    4
 10
1245.11489594052
 20
482.45778643492235
 11
1226.7815639678442
 21
482.45778643492235
  0
LINE
  8
_1-5_寸法2
  6
CONTINUOUS
 62
    7
 10
1175.1148969610133
 20
550.62445357093293
 11
1175.1148969610133
 21
646.95778690426653
  0
LINE
  8
_1-5_寸法2
  6
CONTINUOUS
 62
    7
 10
1175.1148969610133
 20
636.95778690426641
 11
1155.7963804352319
 21
631.78140600221604
  0
LINE
  8
_1-5_寸法2
  6
CONTINUOUS
 62
    7
 10
1175.1148969610133
 20
636.95778690426641
 11
1155.7963804352319
 21
642.1341678063169
  0
LINE
  8
_1-5_寸法2
  6
CONTINUOUS
 62
    7
 10
1193.4482306345105
 20
550.62445357093293
 11
1193.4482306345108
 21
646.95778690426653
  0
LINE
  8
_1-5_寸法2
  6
CONTINUOUS
 62
    7
 10
1107.7181339730953
 20
636.95778690426641
 11
1193.4482306345108
 21
636.95778690426641
  0
TEXT
  8
_1-5_寸法2
 62
    7
 10
1107.7181339730953
 20
636.95778690426641
 40
30
 41
1
 50
0
  1
5.5
  0
LINE
  8
_1-5_寸法2
  6
CONTINUOUS
 62
    7
 10
1193.4482306345108
 20
636.95778690426641
 11
1212.7667471602922
 21
642.13416780631678
  0
LINE
  8
_1-5_寸法2
  6
CONTINUOUS
 62
    7
 10
1193.4482306345108
 20
636.95778690426641
 11
1212.7667471602922
 21
631.78140600221593
  0
LINE
  8
_1-5_寸法2
  6
CONTINUOUS
 62
    7
 10
1226.7815639678442
 20
550.62445357093293
 11
1226.7815639678442
 21
646.95778690426653
  0
LINE
  8
_1-5_寸法2
  6
CONTINUOUS
 62
    7
 10
1226.7815639678442
 20
636.95778690426641
 11
1207.4630474420628
 21
631.78140600221604
  0
LINE
  8
_1-5_寸法2
  6
CONTINUOUS
 62
    7
 10
1226.7815639678442
 20
636.95778690426641
 11
1207.4630474420628
 21
642.1341678063169
  0
LINE
  8
_1-5_寸法2
  6
CONTINUOUS
 62
    7
 10
1193.4482306345108
 20
636.95778690426641
 11
1226.7815639678442
 21
636.95778690426641
  0
TEXT
  8
_1-5_寸法2
 62
    7
 10
1195.114897301178
 20
636.95778690426641
 40
30
 41
1
 50
0
  1
10
  0
TEXT
  8
_0-7_枠細線
 62
    5
 10
1135.9482299541819
 20
376.70332713047742
 40
50
 41
0.8
 50
0
  1
断面詳細図
  0
TEXT
  8
_0-7_枠細線
 62
    5
 10
1365.846169452519
 20
380.6492468909039
 40
40
 41
0.6
 50
0
  1
Ｓ＝１：３
  0
LINE
  8
_1-2_極細2
  6
CONTINUOUS
 62
    2
 10
1648.2922850386672
 20
533.62445357093361
 11
1674.958951372
 21
533.62445357093316
  0
LINE
  8
_1-2_極細2
  6
CONTINUOUS
 62
    2
 10
1644.9589517053337
 20
536.95778690426641
 11
1678.292284705333
 21
536.95778690426641
  0
LINE
  8
_1-2_極細2
  6
CONTINUOUS
 62
    2
 10
1644.9589517053337
 20
510.29112050426716
 11
1644.9589517053337
 21
536.95778690426698
  0
LINE
  8
_1-2_極細2
  6
CONTINUOUS
 62
    2
 10
1644.9589517053337
 20
510.29112050426716
 11
1648.2922850386672
 21
510.29112050426716
  0
LINE
  8
_1-2_極細2
  6
CONTINUOUS
 62
    2
 10
1648.2922850386672
 20
510.29112050426716
 11
1648.2922850386672
 21
533.62445357093361
  0
LINE
  8
_1-2_極細2
  6
CONTINUOUS
 62
    2
 10
1674.958951372
 20
533.62445357093316
 11
1674.958951372
 21
470.29112090426747
  0
LINE
  8
_1-2_極細2
  6
CONTINUOUS
 62
    2
 10
1674.958951372
 20
470.29112090426747
 11
1910.2503781093321
 21
470.29112090426747
  0
LINE
  8
_1-2_極細2
  6
CONTINUOUS
 62
    2
 10
1678.292284705333
 20
473.62445423760084
 11
1910.2503781093321
 21
473.62445423760084
  0
LINE
  8
_1-2_極細2
  6
CONTINUOUS
 62
    2
 10
1678.292284705333
 20
536.95778690426698
 11
1678.292284705333
 21
473.62445423760084
  0
LINE
  8
_1-2_極細2
  6
CENTER1
 62
    2
 10
1773.8760426281651
 20
617.03353889472203
 11
1790.4045730201426
 21
578.09476146719135
  0
CIRCLE
  8
_1-2_極細2
  6
DASHED2
 62
    2
 10
1783.2098113237571
 20
595.04455783116055
 40
9.9999999999999982
  0
LINE
  8
_1-2_極細2
  6
CENTER1
 62
    2
 10
1801.6108198684178
 20
602.85532255122644
 11
1767.2836633103843
 21
588.28430908025689
  0
LINE
  8
_1-2_極細2
  6
CONTINUOUS
 62
    2
 10
1795.7362838205438
 20
611.25679346663264
 11
1805.164374236364
 21
620.68488388245339
  0
LINE
  8
_1-2_極細2
  6
DASHED2
 62
    2
 10
1796.7577665041347
 20
620.71193053546369
 11
1834.7889296770893
 21
531.11612479942573
  0
LINE
  8
_1-2_極細2
  6
CONTINUOUS
 62
    2
 10
1795.7362838205438
 20
611.25679346663264
 11
1799.187204421911
 21
624.13580448382004
  0
LINE
  8
_1-2_極細2
  6
CONTINUOUS
 62
    2
 10
1706.5823291168783
 20
475.29112023759973
 11
1839.9156608835449
 21
475.29112023759973
  0
LINE
  8
_1-5_寸法2
  6
CONTINUOUS
 62
    7
 10
1760.073022923649
 20
555.45832672615893
 11
1748.1008676964586
 21
549.58931684426148
  0
ARC
  8
_1-5_寸法2
  6
CONTINUOUS
 62
    7
 10
1814.9156624502111
 20
492.62445290426621
 40
83.401503641756563
 50
131.11509464913752
 51
160.19528028383266
  0
LINE
  8
_1-5_寸法2
  6
CONTINUOUS
 62
    7
 10
1736.4471190232518
 20
520.8821687029174
 11
1737.5639180730641
 21
534.16864820879528
  0
LINE
  8
_1-5_寸法2
  6
CONTINUOUS
 62
    7
 10
1736.4471190232518
 20
520.8821687029174
 11
1744.0575351242503
 21
531.83019795696259
  0
LINE
  8
_1-5_寸法2
  6
CONTINUOUS
 62
    7
 10
1760.073022923649
 20
555.45832672615893
 11
1752.6393372997998
 21
544.38953745977824
  0
LINE
  8
_1-3_細線2
  6
CONTINUOUS
 62
    4
 10
1840.3454147505479
 20
505.22934296721616
 11
1830.186405409828
 21
529.16246915697934
  0
LINE
  8
_1-3_細線2
  6
CONTINUOUS
 62
    4
 10
1758.1276655146055
 20
588.01901985669542
 11
1801.1080896484248
 21
486.76348597692703
  0
ARC
  8
_1-3_細線2
  6
CONTINUOUS
 62
    4
 10
1814.9156624502111
 20
492.62445290426621
 40
15
 50
202.99999999999963
 51
292.99999999999989
  0
LINE
  8
_1-3_細線2
  6
CONTINUOUS
 62
    4
 10
1820.7766293775503
 20
478.81688010247927
 11
1831.5158526678288
 21
483.37540993485419
  0
ARC
  8
_1-3_細線2
  6
CONTINUOUS
 62
    4
 10
1825.0036671930075
 20
498.71715749239485
 40
16.666666666666664
 50
292.99999999999989
 51
22.999999999998415
  0
LINE
  8
_1-3_細線2
  6
CONTINUOUS
 62
    4
 10
1837.8572791885983
 20
532.41856189439
 11
1799.8261160156417
 21
622.01436763042796
  0
LINE
  8
_1-3_細線2
  6
CONTINUOUS
 62
    4
 10
1830.186405409828
 20
529.16246915697934
 11
1837.8572791885983
 21
532.41856189439
  0
LINE
  8
_1-3_細線2
  6
CONTINUOUS
 62
    4
 10
1799.8261160156417
 20
622.01436763042796
 11
1766.0742713890513
 21
607.68755958582108
  0
CIRCLE
  8
_1-3_細線2
  6
CONTINUOUS
 62
    4
 10
1783.2098113237571
 20
595.04455783116055
 40
5.8333333333333313
  0
ARC
  8
_1-3_細線2
  6
CONTINUOUS
 62
    4
 10
1771.9352383163905
 20
593.8799867840346
 40
15
 50
113.00000000000011
 51
203
  0
CIRCLE
  8
_1-3_細線2
  6
CONTINUOUS
 62
    4
 10
1783.2098113237571
 20
595.04455783116055
 40
15
  0
LINE
  8
_1-2_極細2
  6
CONTINUOUS
 62
    2
 10
1899.7083261074579
 20
547.75719063559586
 11
1899.5878358022483
 21
547.54441701093231
  0
LINE
  8
_1-2_極細2
  6
CONTINUOUS
 62
    2
 10
1899.5878358022483
 20
547.54441701093231
 11
1899.2298236630975
 21
546.91189537720061
  0
LINE
  8
_1-2_極細2
  6
CONTINUOUS
 62
    2
 10
1899.2298236630975
 20
546.91189537720061
 11
1898.6455403701839
 21
545.87683898581668
  0
LINE
  8
_1-2_極細2
  6
CONTINUOUS
 62
    2
 10
1898.6455403701839
 20
545.87683898581668
 11
1897.8562847334197
 21
544.46733602820564
  0
LINE
  8
_1-2_極細2
  6
CONTINUOUS
 62
    2
 10
1897.8562847334197
 20
544.46733602820564
 11
1896.8960458592155
 21
542.72149601779302
  0
LINE
  8
_1-2_極細2
  6
CONTINUOUS
 62
    2
 10
1896.8960458592155
 20
542.72149601779302
 11
1895.8131929213425
 21
540.68633926395705
  0
LINE
  8
_1-2_極細2
  6
CONTINUOUS
 62
    2
 10
1895.8131929213425
 20
540.68633926395705
 11
1894.6699265651594
 21
538.41649336869625
  0
LINE
  8
_1-2_極細2
  6
CONTINUOUS
 62
    2
 10
1894.6699265651594
 20
538.41649336869625
 11
1893.5386582958542
 21
535.9727553254445
  0
LINE
  8
_1-2_極細2
  6
CONTINUOUS
 62
    2
 10
1893.5386582958542
 20
535.9727553254445
 11
1892.4952356490269
 21
533.42056335185339
  0
LINE
  8
_1-2_極細2
  6
CONTINUOUS
 62
    2
 10
1892.4952356490269
 20
533.42056335185339
 11
1891.6097981201974
 21
530.82840385785698
  0
LINE
  8
_1-2_極細2
  6
CONTINUOUS
 62
    2
 10
1891.6097981201974
 20
530.82840385785698
 11
1890.9368102581927
 21
528.26616181516079
  0
LINE
  8
_1-2_極細2
  6
CONTINUOUS
 62
    2
 10
1890.9368102581927
 20
528.26616181516079
 11
1890.5062692017066
 21
525.8034127146293
  0
LINE
  8
_1-2_極細2
  6
CONTINUOUS
 62
    2
 10
1890.5062692017066
 20
525.8034127146293
 11
1890.3180878199273
 21
523.50765491695597
  0
LINE
  8
_1-2_極細2
  6
CONTINUOUS
 62
    2
 10
1890.3180878199273
 20
523.50765491695597
 11
1890.3411793413979
 21
521.44249337226825
  0
LINE
  8
_1-2_極細2
  6
CONTINUOUS
 62
    2
 10
1890.3411793413979
 20
521.44249337226825
 11
1890.5178981688107
 21
519.66580716722376
  0
LINE
  8
_1-2_極細2
  6
CONTINUOUS
 62
    2
 10
1890.5178981688107
 20
519.66580716722376
 11
1890.7734064672479
 21
518.22795927501784
  0
LINE
  8
_1-2_極細2
  6
CONTINUOUS
 62
    2
 10
1890.7734064672479
 20
518.22795927501784
 11
1891.0284769595617
 21
517.17013082255562
  0
LINE
  8
_1-2_極細2
  6
CONTINUOUS
 62
    2
 10
1891.0284769595617
 20
517.17013082255562
 11
1891.2134514491154
 21
516.52287770742646
  0
LINE
  8
_1-2_極細2
  6
CONTINUOUS
 62
    2
 10
1891.2134514491154
 20
516.52287770742646
 11
1891.2807395895643
 21
516.30500956563651
  0
LINE
  8
_1-2_極細2
  6
CONTINUOUS
 62
    2
 10
1891.2807395895643
 20
516.30500956563651
 11
1891.3505975047667
 21
516.08707143846971
  0
LINE
  8
_1-2_極細2
  6
CONTINUOUS
 62
    2
 10
1891.3505975047667
 20
516.08707143846971
 11
1891.5731439218123
 21
515.43878255581899
  0
LINE
  8
_1-2_極細2
  6
CONTINUOUS
 62
    2
 10
1891.5731439218123
 20
515.43878255581899
 11
1891.9833321571141
 21
514.37657867540167
  0
LINE
  8
_1-2_極細2
  6
CONTINUOUS
 62
    2
 10
1891.9833321571141
 20
514.37657867540167
 11
1892.6271832711361
 21
512.92739490073268
  0
LINE
  8
_1-2_極細2
  6
CONTINUOUS
 62
    2
 10
1892.6271832711361
 20
512.92739490073268
 11
1893.5466310419624
 21
511.12801532685552
  0
LINE
  8
_1-2_極細2
  6
CONTINUOUS
 62
    2
 10
1893.5466310419624
 20
511.12801532685552
 11
1894.7639005806707
 21
509.02422476973646
  0
LINE
  8
_1-2_極細2
  6
CONTINUOUS
 62
    2
 10
1894.7639005806707
 20
509.02422476973646
 11
1896.2693512619344
 21
506.66980324869547
  0
LINE
  8
_1-2_極細2
  6
CONTINUOUS
 62
    2
 10
1896.2693512619344
 20
506.66980324869547
 11
1898.0159159525444
 21
504.1253917492574
  0
LINE
  8
_1-2_極細2
  6
CONTINUOUS
 62
    2
 10
1898.0159159525444
 20
504.1253917492574
 11
1899.9217076261154
 21
501.45723813215068
  0
LINE
  8
_1-2_極細2
  6
CONTINUOUS
 62
    2
 10
1899.9217076261154
 20
501.45723813215068
 11
1901.8804168634178
 21
498.73581117169527
  0
LINE
  8
_1-2_極細2
  6
CONTINUOUS
 62
    2
 10
1901.8804168634178
 20
498.73581117169527
 11
1903.7772585783787
 21
496.03425585432717
  0
LINE
  8
_1-2_極細2
  6
CONTINUOUS
 62
    2
 10
1903.7772585783787
 20
496.03425585432717
 11
1905.5068932186557
 21
493.42666054686987
  0
LINE
  8
_1-2_極細2
  6
CONTINUOUS
 62
    2
 10
1905.5068932186557
 20
493.42666054686987
 11
1906.9892683915148
 21
490.98612005604883
  0
LINE
  8
_1-2_極細2
  6
CONTINUOUS
 62
    2
 10
1906.9892683915148
 20
490.98612005604883
 11
1908.1798175531346
 21
488.78260769403823
  0
LINE
  8
_1-2_極細2
  6
CONTINUOUS
 62
    2
 10
1908.1798175531346
 20
488.78260769403823
 11
1909.0717956456558
 21
486.88070988506126
  0
LINE
  8
_1-2_極細2
  6
CONTINUOUS
 62
    2
 10
1909.0717956456558
 20
486.88070988506126
 11
1909.6904045460371
 21
485.33732088659093
  0
LINE
  8
_1-2_極細2
  6
CONTINUOUS
 62
    2
 10
1909.6904045460371
 20
485.33732088659093
 11
1910.0803134178832
 21
484.1994333914152
  0
LINE
  8
_1-2_極細2
  6
CONTINUOUS
 62
    2
 10
1910.0803134178832
 20
484.1994333914152
 11
1910.2897409053585
 21
483.50218399705994
  0
LINE
  8
_1-2_極細2
  6
CONTINUOUS
 62
    2
 10
1910.2897409053585
 20
483.50218399705994
 11
1910.3550619644502
 21
483.26731409238567
  0
LINE
  8
_1-2_極細2
  6
CONTINUOUS
 62
    2
 10
1910.3550619644502
 20
483.26731409238567
 11
1910.4177510179377
 21
483.03228192439036
  0
LINE
  8
_1-2_極細2
  6
CONTINUOUS
 62
    2
 10
1910.4177510179377
 20
483.03228192439036
 11
1910.5886899709833
 21
482.33264747389711
  0
LINE
  8
_1-2_極細2
  6
CONTINUOUS
 62
    2
 10
1910.5886899709833
 20
482.33264747389711
 11
1910.819643420348
 21
481.18481299182207
  0
LINE
  8
_1-2_極細2
  6
CONTINUOUS
 62
    2
 10
1910.819643420348
 20
481.18481299182207
 11
1911.0400961314226
 21
479.61613586648531
  0
LINE
  8
_1-2_極細2
  6
CONTINUOUS
 62
    2
 10
1911.0400961314226
 20
479.61613586648531
 11
1911.1700312570363
 21
477.66485050936473
  0
LINE
  8
_1-2_極細2
  6
CONTINUOUS
 62
    2
 10
1911.1700312570363
 20
477.66485050936473
 11
1911.1341954311265
 21
475.37976911029949
  0
LINE
  8
_1-2_極細2
  6
CONTINUOUS
 62
    2
 10
1911.1341954311265
 20
475.37976911029949
 11
1910.8751729018686
 21
472.81962855096737
  0
LINE
  8
_1-2_極細2
  6
CONTINUOUS
 62
    2
 10
1910.8751729018686
 20
472.81962855096737
 11
1910.3629341627473
 21
470.05197954798058
  0
LINE
  8
_1-2_極細2
  6
CONTINUOUS
 62
    2
 10
1910.3629341627473
 20
470.05197954798058
 11
1909.5993347336127
 21
467.15157053300572
  0
LINE
  8
_1-2_極細2
  6
CONTINUOUS
 62
    2
 10
1909.5993347336127
 20
467.15157053300572
 11
1908.6171246256811
 21
464.19825085701285
  0
LINE
  8
_1-2_極細2
  6
CONTINUOUS
 62
    2
 10
1908.6171246256811
 20
464.19825085701285
 11
1907.4741404531133
 21
461.27449021088188
  0
LINE
  8
_1-2_極細2
  6
CONTINUOUS
 62
    2
 10
1907.4741404531133
 20
461.27449021088188
 11
1906.2442444508397
 21
458.46266845715598
  0
LINE
  8
_1-2_極細2
  6
CONTINUOUS
 62
    2
 10
1906.2442444508397
 20
458.46266845715598
 11
1905.0070614387723
 21
455.84232083045555
  0
LINE
  8
_1-2_極細2
  6
CONTINUOUS
 62
    2
 10
1905.0070614387723
 20
455.84232083045555
 11
1903.8385607764314
 21
453.48752241735048
  0
LINE
  8
_1-2_極細2
  6
CONTINUOUS
 62
    2
 10
1903.8385607764314
 20
453.48752241735048
 11
1902.8040685221222
 21
451.46456501976246
  0
LINE
  8
_1-2_極細2
  6
CONTINUOUS
 62
    2
 10
1902.8040685221222
 20
451.46456501976246
 11
1901.9545150843544
 21
449.83002760521941
  0
LINE
  8
_1-2_極細2
  6
CONTINUOUS
 62
    2
 10
1901.9545150843544
 20
449.83002760521941
 11
1901.3258353850381
 21
448.62928156946339
  0
LINE
  8
_1-2_極細2
  6
CONTINUOUS
 62
    2
 10
1901.3258353850381
 20
448.62928156946339
 11
1900.9406687798062
 21
447.89541808866346
  0
LINE
  8
_1-2_極細2
  6
CONTINUOUS
 62
    2
 10
1900.9406687798062
 20
447.89541808866346
 11
1900.8110425315263
 21
447.64854866028708
  0
LINE
  8
_1-5_寸法2
  6
CONTINUOUS
 62
    7
 10
1848.3917749811235
 20
490.5388139571582
 11
1920.4979887276261
 21
521.14608578478487
  0
LINE
  8
_1-5_寸法2
  6
CONTINUOUS
 62
    7
 10
1915.8954644603641
 20
519.19243014233803
 11
1906.6605423304793
 21
531.01259144643882
  0
LINE
  8
_1-5_寸法2
  6
CONTINUOUS
 62
    7
 10
1915.8954644603641
 20
519.19243014233803
 11
1913.8078679459632
 21
534.04645117346161
  0
LINE
  8
_1-5_寸法2
  6
CONTINUOUS
 62
    7
 10
1816.7020383289375
 20
629.17777165273185
 11
1865.795630739128
 21
650.01676526812321
  0
LINE
  8
_1-5_寸法2
  6
CONTINUOUS
 62
    7
 10
1861.1931064718658
 20
648.06310962567636
 11
1870.4280286017511
 21
636.24294832157557
  0
LINE
  8
_1-5_寸法2
  6
CONTINUOUS
 62
    7
 10
1861.1931064718658
 20
648.06310962567636
 11
1863.280702986267
 21
633.20908859455278
  0
LINE
  8
_1-5_寸法2
  6
CONTINUOUS
 62
    7
 10
1915.8954644603641
 20
519.19243014233803
 11
1861.1931064718658
 21
648.06310962567636
  0
TEXT
  8
_1-5_寸法2
 62
    7
 10
1882.6833185387761
 20
597.43534268579378
 40
30
 41
1
 50
-66.999999999999744
  1
42
  0
LINE
  8
_1-5_寸法2
  6
CONTINUOUS
 62
    7
 10
1750.964261492303
 20
604.89494216999083
 11
1724.2643010092615
 21
667.79610724138695
  0
LINE
  8
_1-5_寸法2
  6
CONTINUOUS
 62
    7
 10
1726.217956651707
 20
663.19358297412452
 11
1738.038117955808
 21
672.42850510400945
  0
LINE
  8
_1-5_寸法2
  6
CONTINUOUS
 62
    7
 10
1726.217956651707
 20
663.19358297412452
 11
1741.0719776828307
 21
665.28117948852571
  0
LINE
  8
_1-5_寸法2
  6
CONTINUOUS
 62
    7
 10
1792.6627119933391
 20
638.89028994372279
 11
1771.8237184376355
 21
687.98388221333244
  0
LINE
  8
_1-5_寸法2
  6
CONTINUOUS
 62
    7
 10
1773.777374080081
 20
683.38135794607001
 11
1761.9572127759805
 21
674.14643581618509
  0
LINE
  8
_1-5_寸法2
  6
CONTINUOUS
 62
    7
 10
1773.777374080081
 20
683.38135794607001
 11
1758.9233530489578
 21
681.29376143166894
  0
LINE
  8
_1-5_寸法2
  6
CONTINUOUS
 62
    7
 10
1726.217956651707
 20
663.19358297412452
 11
1773.777374080081
 21
683.38135794607001
  0
TEXT
  8
_1-5_寸法2
 62
    7
 10
1722.382519762321
 20
661.56553660541863
 40
30
 41
1
 50
23.000000000000313
  1
15.5
  0
LINE
  8
_1-2_極細2
  6
CENTER1
 62
    2
 10
1798.9320009348821
 20
494.80984639259299
 11
1830.8568904335643
 21
494.80984639259299
  0
LINE
  8
_1-2_極細2
  6
CENTER1
 62
    2
 10
1815.7986186759313
 20
478.14043789501346
 11
1815.7986186759313
 21
510.98789678522195
  0
CIRCLE
  8
_1-2_極細2
  6
CONTINUOUS
 62
    2
 10
1815.7986186759313
 20
494.80984649734631
 40
11.500000000000002
  0
CIRCLE
  8
_1-3_細線2
  6
CONTINUOUS
 62
    4
 10
1815.7986186759313
 20
494.80984649734631
 40
12.000000000000002
  0
LINE
  8
_1-5_寸法2
  6
CONTINUOUS
 62
    7
 10
1795.7362838205438
 20
611.25679346663264
 11
1800.9126647225944
 21
630.57530999241396
  0
LINE
  8
_1-5_寸法2
  6
CONTINUOUS
 62
    7
 10
1795.7362838205438
 20
611.25679346663264
 11
1809.8784194442749
 21
625.39892909036359
  0
LINE
  8
_1-5_寸法2
  6
CONTINUOUS
 62
    7
 10
1795.7362838205438
 20
611.25679346663264
 11
1825.400155350974
 21
662.63612610653342
  0
LINE
  8
_1-5_寸法2
  6
CONTINUOUS
 62
    7
 10
1825.400155350974
 20
662.63612610653342
 11
1921.400155350974
 21
662.63612610653342
  0
TEXT
  8
_1-5_寸法2
 62
    7
 10
1825.400155350974
 20
662.63612610653342
 40
30
 41
0.7999999999999998
 50
0
  1
取外し具
  0
LINE
  8
_1-2_極細2
  6
CONTINUOUS
 62
    2
 10
1839.9156624502111
 20
475.29112023759973
 11
1839.9156624502111
 21
477.29112023759967
  0
LINE
  8
_1-2_極細2
  6
CONTINUOUS
 62
    2
 10
1706.5823291168783
 20
477.29112023759967
 11
1706.5823291168783
 21
475.29112023759973
  0
LINE
  8
_1-2_極細2
  6
CONTINUOUS
 62
    2
 10
1796.6256180386665
 20
497.42550963232253
 11
1796.6256180386665
 21
477.29111957093244
  0
LINE
  8
_1-2_極細2
  6
CONTINUOUS
 62
    2
 10
1796.6256180386665
 20
477.29111957093244
 11
1911.1693977209427
 21
477.29111957093244
  0
LINE
  8
_1-2_極細2
  6
CONTINUOUS
 62
    2
 10
1706.5823291168783
 20
477.29112023759967
 11
1796.6256180386665
 21
477.29112023759967
  0
LINE
  8
_1-2_極細2
  6
DASHED2
 62
    2
 10
1796.6256180386665
 20
530.62445357093293
 11
1796.6256180386665
 21
497.42550963232253
  0
LINE
  8
_1-2_極細2
  6
DASHED2
 62
    2
 10
1833.6306248502378
 20
530.62445357093293
 11
1796.6256180386665
 21
530.62445357093293
  0
LINE
  8
_1-2_極細2
  6
CONTINUOUS
 62
    2
 10
1891.7678539259784
 20
530.62445357093293
 11
1833.6306248502378
 21
530.62445357093293
  0
TEXT
  8
_0-7_枠細線
 62
    5
 10
1923.5429967145637
 20
380.6492468909039
 40
40
 41
0.6
 50
0
  1
Ｓ＝１：３
  0
TEXT
  8
_0-7_枠細線
 62
    5
 10
1693.6450572162266
 20
376.70332713047742
 40
50
 41
0.8
 50
0
  1
Ａ部詳細図
  0
LINE
  8
_0-a_極細1
  6
CONTINUOUS
 62
    7
 10
292.91842428451304
 20
1100.4355722674495
 11
316.91842188451432
 21
1100.4355722674495
  0
LINE
  8
_0-a_極細1
  6
CONTINUOUS
 62
    7
 10
292.91842428451304
 20
1101.7689054674497
 11
316.91842188451432
 21
1101.7689054674497
  0
LINE
  8
_0-a_極細1
  6
CONTINUOUS
 62
    7
 10
292.70357941860397
 20
1103.1022386674495
 11
316.91842188451432
 21
1103.1022386674495
  0
LINE
  8
_0-a_極細1
  6
CONTINUOUS
 62
    7
 10
291.37024621860377
 20
1104.4355718674497
 11
316.91842188451432
 21
1104.4355718674497
  0
LINE
  8
_0-a_極細1
  6
CONTINUOUS
 62
    7
 10
290.03691301860357
 20
1105.7689050674494
 11
316.91842188451432
 21
1105.7689050674494
  0
LINE
  8
_0-a_極細1
  6
CONTINUOUS
 62
    7
 10
290.46660275042171
 20
1107.1022382674496
 11
316.91842188451432
 21
1107.1022382674496
  0
LINE
  8
_0-a_極細1
  6
CONTINUOUS
 62
    7
 10
291.79993595042191
 20
1108.4355714674498
 11
316.91842188451432
 21
1108.4355714674498
  0
LINE
  8
_0-a_極細1
  6
CONTINUOUS
 62
    7
 10
292.91842428451304
 20
1109.7689046674498
 11
316.91842188451432
 21
1109.7689046674498
  0
LINE
  8
_0-a_極細1
  6
CONTINUOUS
 62
    7
 10
292.91842428451304
 20
1111.10223786745
 11
316.91842188451432
 21
1111.10223786745
  0
LINE
  8
_0-a_極細1
  6
CONTINUOUS
 62
    7
 10
292.91842428451304
 20
1112.4355710674502
 11
316.91842188451432
 21
1112.4355710674502
  0
LINE
  8
_0-a_極細1
  6
CONTINUOUS
 62
    7
 10
292.91842428451304
 20
1113.7689042674497
 11
316.91842188451432
 21
1113.7689042674497
  0
LINE
  8
_0-a_極細1
  6
CONTINUOUS
 62
    7
 10
292.91842428451304
 20
1115.1022374674499
 11
316.91842188451432
 21
1115.1022374674499
  0
LINE
  8
_0-a_極細1
  6
CONTINUOUS
 62
    7
 10
292.91842428451304
 20
1116.4355706674501
 11
316.91842188451432
 21
1116.4355706674501
  0
LINE
  8
_0-a_極細1
  6
CONTINUOUS
 62
    7
 10
292.91842428451304
 20
1117.7689038674498
 11
316.91842188451432
 21
1117.7689038674498
  0
LINE
  8
_0-a_極細1
  6
CONTINUOUS
 62
    7
 10
292.03691281860273
 20
1119.10223706745
 11
317.38856133299947
 21
1119.10223706745
  0
LINE
  8
_0-a_極細1
  6
CONTINUOUS
 62
    7
 10
290.70357961860253
 20
1120.4355702674502
 11
318.09967237299901
 21
1120.4355702674502
  0
LINE
  8
_0-a_極細1
  6
CONTINUOUS
 62
    7
 10
289.79993615042275
 20
1121.7689034674504
 11
318.81078341299911
 21
1121.7689034674504
  0
LINE
  8
_0-a_極細1
  6
CONTINUOUS
 62
    7
 10
291.13326935042295
 20
1123.1022366674501
 11
319.52189445299922
 21
1123.1022366674501
  0
LINE
  8
_0-a_極細1
  6
CONTINUOUS
 62
    7
 10
292.46660255042258
 20
1124.4355698674508
 11
320.23300549299933
 21
1124.4355698674508
  0
LINE
  8
_0-a_極細1
  6
CONTINUOUS
 62
    7
 10
292.91842428451304
 20
1125.7689030674501
 11
320.94411653299943
 21
1125.7689030674501
  0
LINE
  8
_0-a_極細1
  6
CONTINUOUS
 62
    7
 10
292.91842428451304
 20
1127.1022362674503
 11
321.6552275729984
 21
1127.1022362674503
  0
LINE
  8
_0-a_極細1
  6
CONTINUOUS
 62
    7
 10
360.30553214027435
 20
1067.9004452280415
 11
360.30553214027435
 21
1170.8000709192095
  0
LINE
  8
_0-a_極細1
  6
CONTINUOUS
 62
    7
 10
358.97219894027472
 20
1066.5671120280417
 11
358.97219894027472
 21
1170.511660602278
  0
LINE
  8
_0-a_極細1
  6
CONTINUOUS
 62
    7
 10
357.63886574027509
 20
1065.233778828042
 11
357.63886574027509
 21
1169.9244055659588
  0
LINE
  8
_0-a_極細1
  6
CONTINUOUS
 62
    7
 10
356.3055325402749
 20
1063.9004456280418
 11
356.3055325402749
 21
1168.9358838084695
  0
LINE
  8
_0-a_極細1
  6
CONTINUOUS
 62
    7
 10
354.9721993402747
 20
1062.567112428042
 11
354.9721993402747
 21
1167.2090788088497
  0
LINE
  8
_0-a_極細1
  6
CONTINUOUS
 62
    7
 10
353.6388661402745
 20
1061.2337792280418
 11
353.6388661402745
 21
1162.0120953949599
  0
LINE
  8
_0-a_極細1
  6
CONTINUOUS
 62
    7
 10
352.3055329402743
 20
1059.9004460280416
 11
352.3055329402743
 21
1159.2503602632205
  0
LINE
  8
_0-a_極細1
  6
CONTINUOUS
 62
    7
 10
350.97219974027411
 20
1058.8466648722806
 11
350.97219974027411
 21
1157.5990795003113
  0
LINE
  8
_0-a_極細1
  6
CONTINUOUS
 62
    7
 10
349.63886654027391
 20
1058.8466648722806
 11
349.63886654027391
 21
1156.4309091577366
  0
LINE
  8
_0-a_極細1
  6
CONTINUOUS
 62
    7
 10
348.30553334027371
 20
1058.8466648722806
 11
348.30553334027371
 21
1155.5740234239317
  0
LINE
  8
_0-a_極細1
  6
CONTINUOUS
 62
    7
 10
346.97220014027351
 20
1058.8466648722806
 11
346.97220014027351
 21
1154.9523781995561
  0
LINE
  8
_0-a_極細1
  6
CONTINUOUS
 62
    7
 10
345.63886694027445
 20
1058.8466648722806
 11
345.63886694027445
 21
1154.5259721628809
  0
LINE
  8
_0-a_極細1
  6
CONTINUOUS
 62
    7
 10
344.30553374027426
 20
1058.8466648722806
 11
344.30553374027426
 21
1154.2725647436714
  0
LINE
  8
_0-a_極細1
  6
CONTINUOUS
 62
    7
 10
342.97220054027406
 20
1058.8466648722806
 11
342.97220054027406
 21
1154.1805449467029
  0
LINE
  8
_0-a_極細1
  6
CONTINUOUS
 62
    7
 10
341.63886734027386
 20
1058.8466648722806
 11
341.63886734027386
 21
1154.1799886722811
  0
LINE
  8
_0-a_極細1
  6
CONTINUOUS
 62
    7
 10
340.30553414027366
 20
1058.8466648722806
 11
340.30553414027366
 21
1154.1799886722811
  0
LINE
  8
_0-a_極細1
  6
CONTINUOUS
 62
    7
 10
338.97220094027404
 20
1058.8466648722806
 11
338.97220094027404
 21
1154.1799886722811
  0
LINE
  8
_0-a_極細1
  6
CONTINUOUS
 62
    7
 10
337.63886774027384
 20
1058.8466648722806
 11
337.63886774027384
 21
1154.1799886722811
  0
LINE
  8
_0-a_極細1
  6
CONTINUOUS
 62
    7
 10
336.30553454027364
 20
1058.8466648722806
 11
336.30553454027364
 21
1154.1799886722811
  0
LINE
  8
_0-a_極細1
  6
CONTINUOUS
 62
    7
 10
334.97220134027401
 20
1058.8466648722806
 11
334.97220134027401
 21
1154.1799886722811
  0
LINE
  8
_0-a_極細1
  6
CONTINUOUS
 62
    7
 10
333.63886814027381
 20
1058.8466648722806
 11
333.63886814027381
 21
1154.0620484407566
  0
LINE
  8
_0-a_極細1
  6
CONTINUOUS
 62
    7
 10
332.30553494027362
 20
1058.8466648722806
 11
332.30553494027362
 21
1153.6740498449751
  0
LINE
  8
_0-a_極細1
  6
CONTINUOUS
 62
    7
 10
330.97220174027342
 20
1058.8466648722806
 11
330.97220174027342
 21
1152.9616284979602
  0
LINE
  8
_0-a_極細1
  6
CONTINUOUS
 62
    7
 10
329.63886854027436
 20
1058.8466648722806
 11
329.63886854027436
 21
1151.7763276639771
  0
LINE
  8
_0-a_極細1
  6
CONTINUOUS
 62
    7
 10
328.30553534027302
 20
1058.8466648722806
 11
328.30553534027302
 21
1149.47558201023
  0
LINE
  8
_0-a_極細1
  6
CONTINUOUS
 62
    7
 10
326.97220214027396
 20
1058.8466648722806
 11
326.97220214027396
 21
1072.1799968722803
  0
LINE
  8
_0-a_極細1
  6
CONTINUOUS
 62
    7
 10
325.63886894027377
 20
1058.8466648722806
 11
325.63886894027377
 21
1072.1799968722803
  0
LINE
  8
_0-a_極細1
  6
CONTINUOUS
 62
    7
 10
324.30553574027357
 20
1058.8466648722806
 11
324.30553574027357
 21
1072.1799968722803
  0
LINE
  8
_0-a_極細1
  6
CONTINUOUS
 62
    7
 10
322.97220254027337
 20
1058.8466648722806
 11
322.97220254027337
 21
1072.1799968722803
  0
LINE
  8
_0-a_極細1
  6
CONTINUOUS
 62
    7
 10
321.63886934027374
 20
1058.8466648722806
 11
321.63886934027374
 21
1072.1799968722803
  0
LINE
  8
_0-a_極細1
  6
CONTINUOUS
 62
    7
 10
320.30553614027298
 20
1058.8466648722806
 11
320.30553614027298
 21
1072.1799968722803
  0
LINE
  8
_0-a_極細1
  6
CONTINUOUS
 62
    7
 10
318.97220294027335
 20
1058.8466648722806
 11
318.97220294027335
 21
1072.1799968722803
  0
LINE
  8
_0-a_極細1
  6
CONTINUOUS
 62
    7
 10
317.63886974027372
 20
1058.8466648722806
 11
317.63886974027372
 21
1072.1799968722803
  0
LINE
  8
_0-a_極細1
  6
CONTINUOUS
 62
    7
 10
316.30553654027295
 20
1058.8466648722806
 11
316.30553654027295
 21
1072.1799968722803
  0
LINE
  8
_0-a_極細1
  6
CONTINUOUS
 62
    7
 10
314.97220334027332
 20
1058.8466648722806
 11
314.97220334027332
 21
1072.1799968722803
  0
LINE
  8
_0-a_極細1
  6
CONTINUOUS
 62
    7
 10
313.63887014027483
 20
1045.5133328722798
 11
313.63887014027483
 21
1085.5133288722805
  0
LINE
  8
_0-a_極細1
  6
CONTINUOUS
 62
    7
 10
312.30553694027464
 20
1045.5133328722798
 11
312.30553694027464
 21
1085.5133288722805
  0
LINE
  8
_0-a_極細1
  6
CONTINUOUS
 62
    7
 10
310.97220374027501
 20
1045.5133328722798
 11
310.97220374027501
 21
1050.1358744368099
  0
LINE
  8
_0-a_極細1
  6
CONTINUOUS
 62
    7
 10
310.97220374027501
 20
1059.5185248050943
 11
310.97220374027501
 21
1085.5133288722805
  0
LINE
  8
_0-a_極細1
  6
CONTINUOUS
 62
    7
 10
309.63887054027481
 20
1045.5133328722798
 11
309.63887054027481
 21
1046.4950616502715
  0
LINE
  8
_0-a_極細1
  6
CONTINUOUS
 62
    7
 10
309.63887054027481
 20
1059.5185248050943
 11
309.63887054027481
 21
1085.5133288722805
  0
LINE
  8
_0-a_極細1
  6
CONTINUOUS
 62
    7
 10
308.30553734027461
 20
1059.5185248050943
 11
308.30553734027461
 21
1085.5133288722805
  0
LINE
  8
_0-a_極細1
  6
CONTINUOUS
 62
    7
 10
306.97220414027441
 20
1059.5185248050943
 11
306.97220414027441
 21
1085.5133288722805
  0
LINE
  8
_0-a_極細1
  6
CONTINUOUS
 62
    7
 10
305.63887094027422
 20
1059.5185248050943
 11
305.63887094027422
 21
1085.5133288722805
  0
LINE
  8
_0-a_極細1
  6
CONTINUOUS
 62
    7
 10
304.30553774027402
 20
1059.5185248050943
 11
304.30553774027402
 21
1085.5133288722805
  0
LINE
  8
_0-a_極細1
  6
CONTINUOUS
 62
    7
 10
302.97220454027496
 20
1059.5185248050943
 11
302.97220454027496
 21
1085.5133288722805
  0
LINE
  8
_0-a_極細1
  6
CONTINUOUS
 62
    7
 10
301.63887134027476
 20
1059.5185248050943
 11
301.63887134027476
 21
1085.5133288722805
  0
LINE
  8
_0-a_極細1
  6
CONTINUOUS
 62
    7
 10
300.30553814027456
 20
1059.5185248050943
 11
300.30553814027456
 21
1085.5133288722805
  0
LINE
  8
_0-a_極細1
  6
CONTINUOUS
 62
    7
 10
298.97220494027437
 20
1059.5185248050943
 11
298.97220494027437
 21
1085.5133288722805
  0
LINE
  8
_0-a_極細1
  6
CONTINUOUS
 62
    7
 10
297.63887174027417
 20
1059.5185248050943
 11
297.63887174027417
 21
1085.5133288722805
  0
LINE
  8
_0-a_極細1
  6
CONTINUOUS
 62
    7
 10
296.30553854027397
 20
1059.5185248050943
 11
296.30553854027397
 21
1085.5133288722805
  0
LINE
  8
_0-a_極細1
  6
CONTINUOUS
 62
    7
 10
277.91842578451309
 20
1039.518526805095
 11
277.91842578451309
 21
1058.8466648722806
  0
ARC
  8
_0-a_極細1
  6
CONTINUOUS
 62
    7
 10
257.91842778451354
 20
1059.5185248050943
 40
19.999997999999998
 50
358.07490068720591
 51
50.029499419965298
  0
LINE
  8
_0-a_極細1
  6
CONTINUOUS
 62
    7
 10
361.11175079851336
 20
1161.7688994674495
 11
369.49773724197627
 21
1161.7688994674495
  0
LINE
  8
_0-a_極細1
  6
CONTINUOUS
 62
    7
 10
361.11175079851336
 20
1163.1022326674497
 11
381.03273608847616
 21
1163.1022326674497
  0
LINE
  8
_0-a_極細1
  6
CONTINUOUS
 62
    7
 10
361.11175079851336
 20
1164.4355658674494
 11
392.56773493497548
 21
1164.4355658674494
  0
LINE
  8
_0-a_極細1
  6
CONTINUOUS
 62
    7
 10
361.11175079851336
 20
1165.7688990674496
 11
404.10273378147593
 21
1165.7688990674496
  0
LINE
  8
_0-a_極細1
  6
CONTINUOUS
 62
    7
 10
361.11175079851336
 20
1167.1022322674494
 11
407.25174618451291
 21
1167.1022322674494
  0
LINE
  8
_0-a_極細1
  6
CONTINUOUS
 62
    7
 10
361.11175079851336
 20
1168.4355654674496
 11
407.25174618451291
 21
1168.4355654674496
  0
LINE
  8
_0-a_極細1
  6
CONTINUOUS
 62
    7
 10
361.11175079851336
 20
1169.7688986674498
 11
407.25174618451291
 21
1169.7688986674498
  0
LINE
  8
_0-a_極細1
  6
CONTINUOUS
 62
    7
 10
363.23683198927
 20
1171.1022318674497
 11
407.25174618451291
 21
1171.1022318674497
  0
LINE
  8
_0-a_極細1
  6
CONTINUOUS
 62
    7
 10
372.5981593382707
 20
1172.4355650674499
 11
407.25174618451291
 21
1172.4355650674499
  0
LINE
  8
_0-a_極細1
  6
CONTINUOUS
 62
    7
 10
381.95948668727027
 20
1173.7688982674501
 11
407.25174618451291
 21
1173.7688982674501
  0
LINE
  8
_0-a_極細1
  6
CONTINUOUS
 62
    7
 10
391.32081403627041
 20
1175.1022314674503
 11
407.25174618451291
 21
1175.1022314674503
  0
LINE
  8
_0-a_極細1
  6
CONTINUOUS
 62
    7
 10
400.68214138526997
 20
1176.4355646674499
 11
407.25174618451291
 21
1176.4355646674499
  0
LINE
  8
_0-a_極細1
  6
CONTINUOUS
 62
    7
 10
407.25174618451291
 20
1177.4662263436567
 11
407.25174618451291
 21
1182.0850326462441
  0
LINE
  8
_0-a_極細1
  6
CONTINUOUS
 62
    7
 10
361.11175079851336
 20
1175.5133198722808
 11
407.25174618451291
 21
1182.0850326462441
  0
LINE
  8
_0-a_極細1
  6
CONTINUOUS
 62
    7
 10
317.91842178451276
 20
1129.5185178050951
 11
317.91842178451276
 21
1135.5133238722806
  0
LINE
  8
_0-a_極細1
  6
CONTINUOUS
 62
    7
 10
317.91842178451276
 20
1088.8518552050941
 11
317.91842178451276
 21
1098.851854205094
  0
LINE
  8
_0-a_極細1
  6
CONTINUOUS
 62
    7
 10
292.91842428451304
 20
1118.2207256015404
 11
292.91842428451304
 21
1109.5540598015407
  0
LINE
  8
_0-a_極細1
  6
CONTINUOUS
 62
    7
 10
292.91842428451304
 20
1102.8873938015399
 11
292.91842428451304
 21
1099.5540608015408
  0
LINE
  8
_0-a_極細1
  6
CONTINUOUS
 62
    7
 10
316.91842188451432
 20
1118.2207256015404
 11
316.91842188451432
 21
1099.5540608015408
  0
LINE
  8
_0-a_極細1
  6
CONTINUOUS
 62
    7
 10
289.58509128451311
 20
1121.5540586015404
 11
292.91842428451304
 21
1124.8873916015407
  0
LINE
  8
_0-a_極細1
  6
CONTINUOUS
 62
    7
 10
292.91842428451304
 20
1118.2207256015404
 11
289.58509128451311
 21
1121.5540586015404
  0
LINE
  8
_0-a_極細1
  6
CONTINUOUS
 62
    7
 10
292.91842428451304
 20
1102.8873938015399
 11
289.58509128451311
 21
1106.2207268015404
  0
LINE
  8
_0-a_極細1
  6
CONTINUOUS
 62
    7
 10
289.58509128451311
 20
1106.2207268015404
 11
292.91842428451304
 21
1109.5540598015407
  0
LINE
  8
_0-a_極細1
  6
CONTINUOUS
 62
    7
 10
316.91842188451432
 20
1118.2207256015404
 11
322.2517546845134
 21
1128.22072460154
  0
LINE
  8
_0-a_極細1
  6
CONTINUOUS
 62
    7
 10
292.91842428451304
 20
1128.22072460154
 11
292.91842428451304
 21
1124.8873916015407
  0
ARC
  8
_0-a_極細1
  6
CONTINUOUS
 62
    7
 10
334.25175348451347
 20
1168.846653872281
 40
3.3333330000000005
 50
24.054548999993202
 51
89.999999999999929
  0
ARC
  8
_0-a_極細1
  6
CONTINUOUS
 62
    7
 10
336.25175328451377
 20
1160.1799880722808
 40
1.3333331999999243
 50
269.99999999999977
 51
359.99999999999966
  0
ARC
  8
_0-a_極細1
  6
CONTINUOUS
 62
    7
 10
334.25175348451347
 20
1168.846653872281
 40
3.3333330000000005
 50
0
 51
24.054548999993202
  0
LINE
  8
_0-a_極細1
  6
CONTINUOUS
 62
    7
 10
323.25175458451298
 20
1138.8466568722802
 11
323.25175458451525
 21
1158.8466548722806
  0
LINE
  8
_0-a_極細1
  6
CONTINUOUS
 62
    7
 10
323.25175458451525
 20
1158.8466548722806
 11
336.25175328451377
 21
1158.8466548722806
  0
LINE
  8
_0-a_極細1
  6
CONTINUOUS
 62
    7
 10
337.5850864845134
 20
1160.1799880722808
 11
337.5850864845134
 21
1168.846653872281
  0
LINE
  8
_0-a_極細1
  6
CONTINUOUS
 62
    7
 10
314.58508878451283
 20
1058.8466648722806
 11
351.25175178451258
 21
1058.8466648722806
  0
LINE
  8
_0-a_極細1
  6
CONTINUOUS
 62
    7
 10
309.05052933796895
 20
1045.5133328722798
 11
314.58508878451283
 21
1045.5133328722798
  0
LINE
  8
_0-a_極細1
  6
CONTINUOUS
 62
    7
 10
314.58508878451283
 20
1076.846663072281
 11
323.25175458451298
 21
1076.846663072281
  0
LINE
  8
_0-a_極細1
  6
CONTINUOUS
 62
    7
 10
314.58508878451283
 20
1072.1799968722803
 11
327.91842078451253
 21
1072.1799968722803
  0
LINE
  8
_0-a_極細1
  6
CONTINUOUS
 62
    7
 10
314.58508878451283
 20
1045.5133328722798
 11
314.58508878451283
 21
1085.5133288722805
  0
LINE
  8
_0-a_極細1
  6
CONTINUOUS
 62
    7
 10
361.11175079851336
 20
1068.7066638862802
 11
351.25175178451258
 21
1058.8466648722806
  0
LINE
  8
_0-a_極細1
  6
CONTINUOUS
 62
    7
 10
327.91842078451253
 20
1072.1799968722803
 11
327.91842078451367
 21
1147.17998937228
  0
ARC
  8
_0-a_極細1
  6
CONTINUOUS
 62
    7
 10
334.918420084513
 20
1147.17998937228
 40
6.9999993000000771
 50
89.999999999999915
 51
179.99999999999983
  0
LINE
  8
_0-a_極細1
  6
CONTINUOUS
 62
    7
 10
342.85991262369834
 20
1154.1799886722811
 11
334.918420084513
 21
1154.1799886722811
  0
ARC
  8
_0-a_極細1
  6
CONTINUOUS
 62
    7
 10
342.85991262369834
 20
1165.5133208722805
 40
11.333332199999923
 50
269.99999999999977
 51
356.64911199999887
  0
ARC
  8
_0-a_極細1
  6
CONTINUOUS
 62
    7
 10
342.85991262369834
 20
1165.5133208722805
 40
6.6666660000000011
 50
269.99999999999977
 51
356.64911200000029
  0
ARC
  8
_0-a_極細1
  6
CONTINUOUS
 62
    7
 10
361.11175079851336
 20
1163.8466543722802
 40
11.666665500000002
 50
89.999999999999915
 51
175.84900999999832
  0
ARC
  8
_0-a_極細1
  6
CONTINUOUS
 62
    7
 10
334.918420084513
 20
1147.17998937228
 40
11.666665500000002
 50
89.999999999999915
 51
179.99999999999983
  0
LINE
  8
_0-a_極細1
  6
CONTINUOUS
 62
    7
 10
337.91841978451345
 20
1158.8466548722806
 11
337.91841978451345
 21
1175.5133198722808
  0
LINE
  8
_0-a_極細1
  6
CONTINUOUS
 62
    7
 10
323.25175458451298
 20
1076.846663072281
 11
323.25175458451298
 21
1147.17998937228
  0
LINE
  8
_0-a_極細1
  6
CONTINUOUS
 62
    7
 10
342.85991262369834
 20
1158.8466548722806
 11
334.918420084513
 21
1158.8466548722806
  0
LINE
  8
_0-a_極細1
  6
CONTINUOUS
 62
    7
 10
296.25175728451353
 20
1085.5133288722805
 11
323.25175458451298
 21
1085.5133288722805
  0
LINE
  8
_0-a_極細1
  6
CONTINUOUS
 62
    7
 10
407.25174618451291
 20
1166.1328941436568
 11
361.11175079851336
 21
1160.7995613436565
  0
LINE
  8
_0-a_極細1
  6
CONTINUOUS
 62
    7
 10
361.11175079851108
 20
1034.1329073436566
 11
351.25175178451258
 21
1039.4662401436563
  0
LINE
  8
_0-a_極細1
  6
CONTINUOUS
 62
    7
 10
351.25175178451258
 20
1039.4662401436563
 11
351.25175178451258
 21
1058.8466648722806
  0
LINE
  8
_0-a_極細1
  6
CONTINUOUS
 62
    7
 10
407.25174618451291
 20
1076.5011764401634
 11
407.25174618451291
 21
1181.9900792246051
  0
LINE
  8
_0-a_極細1
  6
CONTINUOUS
 62
    7
 10
381.25174878451247
 20
1072.7995701436566
 11
407.25174618451291
 21
1072.7995701436566
  0
LINE
  8
_0-a_極細1
  6
CONTINUOUS
 62
    7
 10
407.25174618451291
 20
1072.7995701436566
 11
407.25174618451291
 21
1076.5011764401634
  0
LINE
  8
_0-a_極細1
  6
CONTINUOUS
 62
    7
 10
381.25174878451247
 20
1019.4662421436561
 11
381.25174878451247
 21
1072.7995701436566
  0
LINE
  8
_0-a_極細1
  6
CONTINUOUS
 62
    7
 10
361.11175079851336
 20
1170.7995567019843
 11
407.25174618451291
 21
1177.3712730198181
  0
LINE
  8
_0-a_極細1
  6
CONTINUOUS
 62
    7
 10
361.11175079851336
 20
1068.7066638862802
 11
361.11175079851336
 21
1170.8466536722813
  0
ARC
  8
_0-a_極細1
  6
CONTINUOUS
 62
    7
 10
361.11175079851336
 20
1163.8466543722802
 40
6.9999993000000771
 50
89.999999999999915
 51
175.84900999999743
  0
LINE
  8
_0-a_極細1
  6
CONTINUOUS
 62
    7
 10
297.91842378451264
 20
1039.518526805095
 11
277.91842578451309
 21
1039.518526805095
  0
ARC
  8
_0-a_極細1
  6
CONTINUOUS
 62
    7
 10
297.91842378451264
 20
1052.8518588050952
 40
13.333332000000002
 50
269.99999999999977
 51
359.99999999999966
  0
LINE
  8
_0-a_極細1
  6
CONTINUOUS
 62
    7
 10
311.25175578451348
 20
1052.8518588050952
 11
311.25175578451348
 21
1059.5185248050943
  0
LINE
  8
_0-a_極細1
  6
CONTINUOUS
 62
    7
 10
311.25175578451348
 20
1059.5185248050943
 11
296.25175728451353
 21
1059.5185248050943
  0
LINE
  8
_0-a_極細1
  6
CONTINUOUS
 62
    7
 10
317.91842178451276
 20
1088.8518552050941
 11
296.25175728451353
 21
1088.8518552050941
  0
LINE
  8
_0-a_極細1
  6
CONTINUOUS
 62
    7
 10
296.25175728451353
 20
1059.5185248050943
 11
296.25175728451353
 21
1088.8518552050948
  0
LINE
  8
_0-a_極細1
  6
CONTINUOUS
 62
    7
 10
315.91842198451417
 20
1135.5133238722806
 11
315.91842198451417
 21
1142.1799898722804
  0
ARC
  8
_0-a_極細1
  6
CONTINUOUS
 62
    7
 10
319.91842158451306
 20
1138.8466568722802
 40
3.3333330000000005
 50
269.99999999999977
 51
359.99999999999966
  0
CIRCLE
  8
_0-a_極細1
  6
CONTINUOUS
 62
    7
 10
324.75295347516038
 20
1118.2875916068883
 40
124.1013462770983
  0
ARC
  8
_0-a_極細1
  6
CONTINUOUS
 62
    7
 10
397.91841378451267
 20
990.59873169707453
 40
33.333330000000004
 50
120.00000000000082
 51
161.13978923390184
  0
LINE
  8
_0-a_極細1
  6
CONTINUOUS
 62
    7
 10
347.91841878451265
 20
996.36751383136584
 11
347.91841878451265
 21
1034.1329073436566
  0
LINE
  8
_0-a_極細1
  6
CONTINUOUS
 62
    7
 10
378.61329365789715
 20
1017.7726755732556
 11
381.25174878451361
 21
1020.4111306998709
  0
LINE
  8
_0-a_極細1
  6
CONTINUOUS
 62
    7
 10
347.91841878451322
 20
996.50589017288269
 11
381.25174878451361
 21
1029.8392201728825
  0
LINE
  8
_0-a_極細1
  6
CONTINUOUS
 62
    7
 10
347.91841878451265
 20
1001.2199349093885
 11
381.25174878451361
 21
1034.5532649093889
  0
LINE
  8
_0-a_極細1
  6
CONTINUOUS
 62
    7
 10
347.91841878451265
 20
1005.9339796458943
 11
381.25174878451361
 21
1039.2673096458943
  0
LINE
  8
_0-a_極細1
  6
CONTINUOUS
 62
    7
 10
347.91841878451265
 20
1010.6480243824001
 11
381.25174878451361
 21
1043.9813543824005
  0
LINE
  8
_0-a_極細1
  6
CONTINUOUS
 62
    7
 10
347.91841878451265
 20
1015.3620691189059
 11
381.25174878451361
 21
1048.6953991189062
  0
LINE
  8
_0-a_極細1
  6
CONTINUOUS
 62
    7
 10
405.35591980926341
 20
1072.7995701436566
 11
407.25174618451291
 21
1074.6953965189061
  0
LINE
  8
_0-a_極細1
  6
CONTINUOUS
 62
    7
 10
347.91841878451265
 20
1020.0761138554117
 11
381.25174878451361
 21
1053.4094438554121
  0
LINE
  8
_0-a_極細1
  6
CONTINUOUS
 62
    7
 10
400.64187507275818
 20
1072.7995701436566
 11
407.25174618451291
 21
1079.4094412554118
  0
LINE
  8
_0-a_極細1
  6
CONTINUOUS
 62
    7
 10
347.91841878451265
 20
1024.7901585919171
 11
357.26116753625178
 21
1034.1329073436566
  0
LINE
  8
_0-a_極細1
  6
CONTINUOUS
 62
    7
 10
358.6128422224337
 20
1035.4845820298385
 11
381.25174878451361
 21
1058.1234885919175
  0
LINE
  8
_0-a_極細1
  6
CONTINUOUS
 62
    7
 10
395.92783033625182
 20
1072.7995701436566
 11
407.25174618451291
 21
1084.1234859919182
  0
LINE
  8
_0-a_極細1
  6
CONTINUOUS
 62
    7
 10
347.91841878451265
 20
1029.5042033284233
 11
352.54712279974655
 21
1034.1329073436568
  0
LINE
  8
_0-a_極細1
  6
CONTINUOUS
 62
    7
 10
355.55357404986097
 20
1037.1393585937722
 11
381.25174878451361
 21
1062.8375333284237
  0
LINE
  8
_0-a_極細1
  6
CONTINUOUS
 62
    7
 10
391.21378559974545
 20
1072.7995701436562
 11
407.25174618451291
 21
1088.8375307284241
  0
LINE
  8
_0-a_極細1
  6
CONTINUOUS
 62
    7
 10
352.49430587728938
 20
1038.7941351577058
 11
381.25174878451361
 21
1067.5515780649293
  0
LINE
  8
_0-a_極細1
  6
CONTINUOUS
 62
    7
 10
386.49974086323908
 20
1072.7995701436562
 11
407.25174618451291
 21
1093.5515754649293
  0
LINE
  8
_0-a_極細1
  6
CONTINUOUS
 62
    7
 10
351.25175178451315
 20
1042.2656258014349
 11
381.25174878451361
 21
1072.2656228014353
  0
LINE
  8
_0-a_極細1
  6
CONTINUOUS
 62
    7
 10
381.78569612673442
 20
1072.7995701436562
 11
407.25174618451291
 21
1098.265620201435
  0
LINE
  8
_0-a_極細1
  6
CONTINUOUS
 62
    7
 10
351.25175178451315
 20
1046.9796705379406
 11
407.25174618451291
 21
1102.9796649379409
  0
LINE
  8
_0-a_極細1
  6
CONTINUOUS
 62
    7
 10
351.25175178451315
 20
1051.6937152744463
 11
407.25174618451291
 21
1107.6937096744473
  0
LINE
  8
_0-a_極細1
  6
CONTINUOUS
 62
    7
 10
351.25175178451315
 20
1056.4077600109522
 11
407.25174618451291
 21
1112.4077544109527
  0
LINE
  8
_0-a_極細1
  6
CONTINUOUS
 62
    7
 10
361.11175079851336
 20
1070.9818037614593
 11
407.25174618451291
 21
1117.1217991474589
  0
LINE
  8
_0-a_極細1
  6
CONTINUOUS
 62
    7
 10
361.11175079851336
 20
1075.6958484979646
 11
407.25174618451291
 21
1121.8358438839641
  0
LINE
  8
_0-a_極細1
  6
CONTINUOUS
 62
    7
 10
361.11175079851336
 20
1080.4098932344705
 11
407.25174618451291
 21
1126.54988862047
  0
LINE
  8
_0-a_極細1
  6
CONTINUOUS
 62
    7
 10
361.11175079851336
 20
1085.1239379709762
 11
407.25174618451291
 21
1131.2639333569757
  0
LINE
  8
_0-a_極細1
  6
CONTINUOUS
 62
    7
 10
361.11175079851336
 20
1089.8379827074825
 11
407.25174618451291
 21
1135.9779780934814
  0
LINE
  8
_0-a_極細1
  6
CONTINUOUS
 62
    7
 10
361.11175079851336
 20
1094.5520274439882
 11
407.25174618451291
 21
1140.6920228299873
  0
LINE
  8
_0-a_極細1
  6
CONTINUOUS
 62
    7
 10
361.11175079851336
 20
1099.2660721804937
 11
407.25174618451291
 21
1145.4060675664937
  0
LINE
  8
_0-a_極細1
  6
CONTINUOUS
 62
    7
 10
361.11175079851336
 20
1103.9801169169996
 11
407.25174618451291
 21
1150.1201123029991
  0
LINE
  8
_0-a_極細1
  6
CONTINUOUS
 62
    7
 10
361.11175079851336
 20
1108.6941616535057
 11
407.25174618451291
 21
1154.8341570395046
  0
LINE
  8
_0-a_極細1
  6
CONTINUOUS
 62
    7
 10
361.11175079851336
 20
1113.4082063900114
 11
407.25174618451291
 21
1159.5482017760105
  0
LINE
  8
_0-a_極細1
  6
CONTINUOUS
 62
    7
 10
361.11175079851336
 20
1118.1222511265164
 11
407.25174618451291
 21
1164.2622465125164
  0
LINE
  8
_0-a_極細1
  6
CONTINUOUS
 62
    7
 10
361.11175079851336
 20
1122.8362958630225
 11
404.03672390608875
 21
1165.7612689705979
  0
LINE
  8
_0-a_極細1
  6
CONTINUOUS
 62
    7
 10
361.11175079851336
 20
1127.5503405995282
 11
398.70656484362343
 21
1165.1451546446374
  0
LINE
  8
_0-a_極細1
  6
CONTINUOUS
 62
    7
 10
361.11175079851336
 20
1132.2643853360341
 11
393.37640578115639
 21
1164.5290403186766
  0
LINE
  8
_0-a_極細1
  6
CONTINUOUS
 62
    7
 10
361.11175079851336
 20
1136.97843007254
 11
388.0462467186905
 21
1163.9129259927165
  0
LINE
  8
_0-a_極細1
  6
CONTINUOUS
 62
    7
 10
361.11175079851336
 20
1141.6924748090457
 11
382.71608765622346
 21
1163.2968116667557
  0
LINE
  8
_0-a_極細1
  6
CONTINUOUS
 62
    7
 10
361.11175079851336
 20
1146.4065195455514
 11
377.385928593757
 21
1162.6806973407952
  0
LINE
  8
_0-a_極細1
  6
CONTINUOUS
 62
    7
 10
361.11175079851336
 20
1151.1205642820573
 11
372.05576953129111
 21
1162.0645830148342
  0
LINE
  8
_0-a_極細1
  6
CONTINUOUS
 62
    7
 10
361.11175079851336
 20
1155.8346090185628
 11
366.72561046882464
 21
1161.4484686888738
  0
LINE
  8
_0-a_極細1
  6
CONTINUOUS
 62
    7
 10
361.11175079851336
 20
1160.5486537550689
 11
361.39545140635818
 21
1160.8323543629131
  0
LINE
  8
_0-a_極細1
  6
CONTINUOUS
 62
    7
 10
353.74741061500885
 20
997.62083726687308
 11
381.25174878451361
 21
1025.1251754363766
  0
LINE
  8
_0-a_極細1
  6
CONTINUOUS
 62
    7
 10
360.19561612729746
 20
999.35499804265532
 11
370.74446990833138
 21
1009.9038518236898
  0
LINE
  8
_0-a_極細1
  6
CONTINUOUS
 62
    7
 10
233.54367070008237
 20
1034.1329073436566
 11
361.11175079851108
 21
1034.1329073436566
  0
LINE
  8
_0-a_極細1
  6
CONTINUOUS
 62
    7
 10
228.89713100569367
 20
1039.4662401436563
 11
351.25175178451258
 21
1039.4662401436563
  0
LINE
  8
_0-a_極細1
  6
CONTINUOUS
 62
    7
 10
215.81296826899603
 20
1058.8466648722806
 11
277.91842578451309
 21
1058.8466648722806
  0
LINE
  8
_0-a_極細1
  6
CONTINUOUS
 62
    7
 10
218.30563944320232
 20
1182.0850326462441
 11
407.25174618451291
 21
1182.0850326462441
  0
LINE
  8
_0-a_極細1
  6
CONTINUOUS
 62
    7
 10
214.63319969644971
 20
1175.513319872281
 11
361.11175079851336
 21
1175.5133198722808
  0
LINE
  8
_0-a_極細1
  6
CONTINUOUS
 62
    7
 10
212.96407263119107
 20
1172.1799868722806
 11
334.25175348451347
 21
1172.1799868722803
  0
LINE
  8
_0-a_極細1
  6
CONTINUOUS
 62
    7
 10
202.97324476752607
 20
1142.1799898722807
 11
315.91842198451417
 21
1142.1799898722804
  0
LINE
  8
_0-a_極細1
  6
CONTINUOUS
 62
    7
 10
201.85291972533008
 20
1135.5133238722806
 11
319.91842158451306
 21
1135.5133238722806
  0
LINE
  8
_0-a_極細1
  6
CONTINUOUS
 62
    7
 10
317.91842178451276
 20
1129.5185178050951
 11
201.16084027808455
 21
1129.5185178050951
  0
LINE
  8
_0-a_極細1
  6
CONTINUOUS
 62
    7
 10
201.04977236529948
 20
1128.2207246015405
 11
322.2517546845134
 21
1128.22072460154
  0
LINE
  8
_0-a_極細1
  6
CONTINUOUS
 62
    7
 10
200.69460292526315
 20
1121.5540586015404
 11
289.58509128451311
 21
1121.5540586015404
  0
LINE
  8
_0-a_極細1
  6
CONTINUOUS
 62
    7
 10
201.23965491359712
 20
1106.2207268015404
 11
289.58509128451311
 21
1106.2207268015404
  0
LINE
  8
_0-a_極細1
  6
CONTINUOUS
 62
    7
 10
202.07370106729257
 20
1099.5540608015408
 11
316.91842188451432
 21
1099.5540608015408
  0
LINE
  8
_0-a_極細1
  6
CONTINUOUS
 62
    7
 10
317.91842178451276
 20
1098.851854205094
 11
202.18298872262864
 21
1098.851854205094
  0
LINE
  8
_0-a_極細1
  6
CONTINUOUS
 62
    7
 10
296.25175728451353
 20
1088.8518552050948
 11
204.19308631252449
 21
1088.8518552050948
  0
LINE
  8
_0-d_寸法1
  6
CONTINUOUS
 62
    7
 10
393.962388722301
 20
1169.4730349533813
 11
402.12621984614657
 21
1187.7309609413278
  0
LINE
  8
_0-d_寸法1
  6
CONTINUOUS
 62
    7
 10
393.962388722301
 20
1169.4730349533813
 11
410.16143686173052
 21
1181.2029471174362
  0
LINE
  8
_0-d_寸法1
  6
CONTINUOUS
 62
    7
 10
393.962388722301
 20
1169.4730349533813
 11
434.87826424691292
 21
1219.8356640917627
  0
LINE
  8
_0-d_寸法1
  6
CONTINUOUS
 62
    7
 10
434.87826424691292
 20
1219.8356640917627
 11
522.87826424691275
 21
1219.8356640917627
  0
TEXT
  8
_0-d_寸法1
 62
    7
 10
434.87826424691292
 20
1219.8356640917627
 40
30
 41
0.7333333333333333
 50
0
  1
パッキン
  0
LINE
  8
_0-a_極細1
  6
CONTINUOUS
 62
    7
 10
258.97220894027527
 20
1047.5133326722807
 11
258.97220894027527
 21
1058.8466648722806
  0
LINE
  8
_0-a_極細1
  6
CONTINUOUS
 62
    7
 10
257.63887574027507
 20
1047.5133326722807
 11
257.63887574027507
 21
1058.8466648722806
  0
LINE
  8
_0-a_極細1
  6
CONTINUOUS
 62
    7
 10
256.30554254027487
 20
1047.5133326722807
 11
256.30554254027487
 21
1058.8466648722806
  0
LINE
  8
_0-a_極細1
  6
CONTINUOUS
 62
    7
 10
254.97220934027467
 20
1047.5133326722807
 11
254.97220934027467
 21
1058.8466648722806
  0
LINE
  8
_0-a_極細1
  6
CONTINUOUS
 62
    7
 10
253.63887614027448
 20
1047.5133326722807
 11
253.63887614027448
 21
1058.8466648722806
  0
LINE
  8
_0-a_極細1
  6
CONTINUOUS
 62
    7
 10
252.30554294027428
 20
1047.5133326722807
 11
252.30554294027428
 21
1058.8466648722806
  0
LINE
  8
_0-a_極細1
  6
CONTINUOUS
 62
    7
 10
250.97220974027465
 20
1047.5133326722807
 11
250.97220974027465
 21
1058.8466648722806
  0
LINE
  8
_0-a_極細1
  6
CONTINUOUS
 62
    7
 10
249.63887654027502
 20
1047.5133326722807
 11
249.63887654027502
 21
1058.8466648722806
  0
LINE
  8
_0-a_極細1
  6
CONTINUOUS
 62
    7
 10
248.30554334027482
 20
1047.5133326722807
 11
248.30554334027482
 21
1058.8466648722806
  0
LINE
  8
_0-a_極細1
  6
CONTINUOUS
 62
    7
 10
246.97221014027463
 20
1047.5133326722807
 11
246.97221014027463
 21
1058.8466648722806
  0
LINE
  8
_0-a_極細1
  6
CONTINUOUS
 62
    7
 10
245.63887694027443
 20
1047.5133326722807
 11
245.63887694027443
 21
1058.8466648722806
  0
LINE
  8
_0-a_極細1
  6
CONTINUOUS
 62
    7
 10
244.30554374027423
 20
1047.5133326722807
 11
244.30554374027423
 21
1058.8466648722806
  0
LINE
  8
_0-a_極細1
  6
CONTINUOUS
 62
    7
 10
242.97221054027403
 20
1047.5133326722807
 11
242.97221054027403
 21
1058.8466648722806
  0
LINE
  8
_0-a_極細1
  6
CONTINUOUS
 62
    7
 10
241.63887734027384
 20
1047.5133326722807
 11
241.63887734027384
 21
1058.8466648722806
  0
LINE
  8
_0-a_極細1
  6
CONTINUOUS
 62
    7
 10
240.30554414027364
 20
1047.5133326722807
 11
240.30554414027364
 21
1058.8466648722806
  0
LINE
  8
_0-a_極細1
  6
CONTINUOUS
 62
    7
 10
238.97221094027458
 20
1047.5133326722807
 11
238.97221094027458
 21
1058.8466648722806
  0
LINE
  8
_0-a_極細1
  6
CONTINUOUS
 62
    7
 10
237.63887774027438
 20
1047.5133326722807
 11
237.63887774027438
 21
1058.8466648722806
  0
LINE
  8
_0-a_極細1
  6
CONTINUOUS
 62
    7
 10
236.30554454027418
 20
1047.5133326722807
 11
236.30554454027418
 21
1058.8466648722806
  0
LINE
  8
_0-a_極細1
  6
CONTINUOUS
 62
    7
 10
234.97221134027399
 20
1047.5133326722807
 11
234.97221134027399
 21
1058.8466648722806
  0
LINE
  8
_0-a_極細1
  6
CONTINUOUS
 62
    7
 10
233.63887814027379
 20
1047.5133326722807
 11
233.63887814027379
 21
1058.8466648722806
  0
LINE
  8
_0-a_極細1
  6
CONTINUOUS
 62
    7
 10
232.30554494027359
 20
1047.5133326722807
 11
232.30554494027359
 21
1058.8466648722806
  0
LINE
  8
_0-a_極細1
  6
CONTINUOUS
 62
    7
 10
230.97221174027396
 20
1047.5133326722807
 11
230.97221174027396
 21
1058.8466648722806
  0
LINE
  8
_0-a_極細1
  6
CONTINUOUS
 62
    7
 10
229.63887854027433
 20
1047.5133326722807
 11
229.63887854027433
 21
1058.8466648722806
  0
LINE
  8
_0-a_極細1
  6
CONTINUOUS
 62
    7
 10
228.30554534027357
 20
1047.5133326722807
 11
228.30554534027357
 21
1058.8466648722806
  0
LINE
  8
_0-a_極細1
  6
CONTINUOUS
 62
    7
 10
226.97221214027394
 20
1047.5133326722807
 11
226.97221214027394
 21
1058.8466648722806
  0
LINE
  8
_0-a_極細1
  6
CONTINUOUS
 62
    7
 10
259.82718092697127
 20
1047.5133326722807
 11
259.82718092697127
 21
1058.8466648722806
  0
LINE
  8
_0-a_極細1
  6
CONTINUOUS
 62
    7
 10
226.49385092697088
 20
1047.5133326722807
 11
226.49385092697088
 21
1058.8466648722806
  0
LINE
  8
_0-a_極細1
  6
CONTINUOUS
 62
    7
 10
226.49385092697088
 20
1047.5133326722807
 11
259.82718092697127
 21
1047.5133326722807
  0
ARC
  8
_0-a_極細1
  6
CONTINUOUS
 62
    7
 10
247.9184287845132
 20
1042.0134998889307
 40
39.999995999999996
 50
55.166292356155729
 51
148.68484545273029
  0
LINE
  8
_0-a_極細1
  6
CONTINUOUS
 62
    7
 10
277.83200121053113
 20
1058.8466648722806
 11
277.83200121053113
 21
1061.3758113760366
  0
LINE
  8
_0-a_極細1
  6
CONTINUOUS
 62
    7
 10
275.83200121053181
 20
1058.8466648722806
 11
275.83200121053181
 21
1068.4125569115508
  0
LINE
  8
_0-a_極細1
  6
CONTINUOUS
 62
    7
 10
273.83200121053136
 20
1058.8466648722806
 11
273.83200121053136
 21
1071.6329005964735
  0
LINE
  8
_0-a_極細1
  6
CONTINUOUS
 62
    7
 10
271.83200121053204
 20
1058.8466648722806
 11
271.83200121053204
 21
1073.8855841603981
  0
LINE
  8
_0-a_極細1
  6
CONTINUOUS
 62
    7
 10
269.83200121053159
 20
1058.8466648722806
 11
269.83200121053159
 21
1075.4768383883938
  0
LINE
  8
_0-a_極細1
  6
CONTINUOUS
 62
    7
 10
267.83200121053113
 20
1058.8466648722806
 11
267.83200121053113
 21
1076.7042668627778
  0
LINE
  8
_0-a_極細1
  6
CONTINUOUS
 62
    7
 10
265.83200121053181
 20
1058.8466648722806
 11
265.83200121053181
 21
1077.7780578050833
  0
LINE
  8
_0-a_極細1
  6
CONTINUOUS
 62
    7
 10
263.83200121053136
 20
1058.8466648722806
 11
263.83200121053136
 21
1078.7117000170281
  0
LINE
  8
_0-a_極細1
  6
CONTINUOUS
 62
    7
 10
261.83200121053147
 20
1058.8466648722806
 11
261.83200121053147
 21
1079.5156622578656
  0
LINE
  8
_0-a_極細1
  6
CONTINUOUS
 62
    7
 10
259.83200121053159
 20
1058.8466648722806
 11
259.83200121053159
 21
1080.1981364859971
  0
LINE
  8
_0-a_極細1
  6
CONTINUOUS
 62
    7
 10
257.83200121053113
 20
1058.8466648722806
 11
257.83200121053113
 21
1080.7655419222756
  0
LINE
  8
_0-a_極細1
  6
CONTINUOUS
 62
    7
 10
255.83200121053181
 20
1058.8466648722806
 11
255.83200121053181
 21
1081.2228744243425
  0
LINE
  8
_0-a_極細1
  6
CONTINUOUS
 62
    7
 10
253.83200121053136
 20
1058.8466648722806
 11
253.83200121053136
 21
1081.5739516199494
  0
LINE
  8
_0-a_極細1
  6
CONTINUOUS
 62
    7
 10
251.83200121053147
 20
1058.8466648722806
 11
251.83200121053147
 21
1081.8215848826394
  0
LINE
  8
_0-a_極細1
  6
CONTINUOUS
 62
    7
 10
249.83200121053159
 20
1058.8466648722806
 11
249.83200121053159
 21
1081.9676976730238
  0
LINE
  8
_0-a_極細1
  6
CONTINUOUS
 62
    7
 10
247.83200121053113
 20
1058.8466648722806
 11
247.83200121053113
 21
1082.0134025172433
  0
LINE
  8
_0-a_極細1
  6
CONTINUOUS
 62
    7
 10
245.83200121053068
 20
1058.8466648722806
 11
245.83200121053068
 21
1081.9590440707111
  0
LINE
  8
_0-a_極細1
  6
CONTINUOUS
 62
    7
 10
243.83200121053136
 20
1058.8466648722806
 11
243.83200121053136
 21
1081.8042122434817
  0
LINE
  8
_0-a_極細1
  6
CONTINUOUS
 62
    7
 10
241.8320012105309
 20
1058.8466648722806
 11
241.8320012105309
 21
1081.5477265714735
  0
LINE
  8
_0-a_極細1
  6
CONTINUOUS
 62
    7
 10
239.83200121053159
 20
1058.8466648722806
 11
239.83200121053159
 21
1081.1875904219701
  0
LINE
  8
_0-a_極細1
  6
CONTINUOUS
 62
    7
 10
237.83200121053113
 20
1058.8466648722806
 11
237.83200121053113
 21
1080.7209107916874
  0
LINE
  8
_0-a_極細1
  6
CONTINUOUS
 62
    7
 10
235.83200121053068
 20
1058.8466648722806
 11
235.83200121053068
 21
1080.1437758976215
  0
LINE
  8
_0-a_極細1
  6
CONTINUOUS
 62
    7
 10
233.83200121053136
 20
1058.8466648722806
 11
233.83200121053136
 21
1079.4510777780379
  0
LINE
  8
_0-a_極細1
  6
CONTINUOUS
 62
    7
 10
231.8320012105309
 20
1058.8466648722806
 11
231.8320012105309
 21
1078.6362595870617
  0
LINE
  8
_0-a_極細1
  6
CONTINUOUS
 62
    7
 10
229.83200121053102
 20
1058.8466648722806
 11
229.83200121053102
 21
1077.690955201931
  0
LINE
  8
_0-a_極細1
  6
CONTINUOUS
 62
    7
 10
227.83200121053113
 20
1058.8466648722806
 11
227.83200121053113
 21
1076.6044684691137
  0
LINE
  8
_0-a_極細1
  6
CONTINUOUS
 62
    7
 10
225.83200121053068
 20
1058.8466648722806
 11
225.83200121053068
 21
1075.3630035886754
  0
LINE
  8
_0-a_極細1
  6
CONTINUOUS
 62
    7
 10
223.83200121053136
 20
1058.8466648722806
 11
223.83200121053136
 21
1073.9484914612381
  0
LINE
  8
_0-a_極細1
  6
CONTINUOUS
 62
    7
 10
221.8320012105309
 20
1058.8466648722806
 11
221.8320012105309
 21
1072.3367249223502
  0
LINE
  8
_0-a_極細1
  6
CONTINUOUS
 62
    7
 10
219.83200121053102
 20
1058.8466648722806
 11
219.83200121053102
 21
1070.4942348887771
  0
LINE
  8
_0-a_極細1
  6
CONTINUOUS
 62
    7
 10
217.83200121053113
 20
1058.8466648722806
 11
217.83200121053113
 21
1068.3726834088266
  0
LINE
  8
_0-a_極細1
  6
CONTINUOUS
 62
    7
 10
215.83200121053068
 20
1058.8466648722806
 11
215.83200121053068
 21
1065.897822059334
  0
LINE
  8
_0-a_極細1
  6
CONTINUOUS
 62
    7
 10
213.83200121053022
 20
1062.6307277310279
 11
213.83200121053022
 21
1062.9446999320169
  0
LINE
  8
_0-d_寸法1
  6
CONTINUOUS
 62
    7
 10
307.88862410766086
 20
1108.5805849079316
 11
322.0306888953412
 21
1094.4383784485049
  0
LINE
  8
_0-d_寸法1
  6
CONTINUOUS
 62
    7
 10
307.88862410766086
 20
1108.5805849079316
 11
313.06490824604407
 21
1089.2620424546635
  0
LINE
  8
_0-d_寸法1
  6
CONTINUOUS
 62
    7
 10
307.88862410766086
 20
1108.5805849079316
 11
388.66971794502717
 21
968.66200759420678
  0
LINE
  8
_0-d_寸法1
  6
CONTINUOUS
 62
    7
 10
388.66971794502717
 20
968.66200759420678
 11
608.66971794502729
 21
968.66200759420678
  0
TEXT
  8
_0-d_寸法1
 62
    7
 10
388.66971794502717
 20
968.66200759420678
 40
30
 41
0.7333333333333333
 50
0
  1
防臭インナーパッキン
  0
LINE
  8
_0-d_寸法1
  6
CONTINUOUS
 62
    7
 10
392.58839401000131
 20
1082.3011604441458
 11
406.73118578641322
 21
1068.1596810035408
  0
LINE
  8
_0-d_寸法1
  6
CONTINUOUS
 62
    7
 10
392.58839401000131
 20
1082.3011604441458
 11
397.76567124850516
 21
1062.9828841132805
  0
LINE
  8
_0-d_寸法1
  6
CONTINUOUS
 62
    7
 10
392.58839401000131
 20
1082.3011604441458
 11
431.84488836662752
 21
1014.314202809432
  0
LINE
  8
_0-d_寸法1
  6
CONTINUOUS
 62
    7
 10
431.84488836662752
 20
1014.314202809432
 11
585.84488836662763
 21
1014.314202809432
  0
TEXT
  8
_0-d_寸法1
 62
    7
 10
431.84488836662752
 20
1014.314202809432
 40
30
 41
0.7333333333333333
 50
0
  1
ロックフランジ
  0
TEXT
  8
_0-7_枠細線
 62
    5
 10
227.33583407752093
 20
897.571202935683
 40
50
 41
0.8
 50
0
  1
Ｃ部拡大図
  0
TEXT
  8
_0-7_枠細線
 62
    5
 10
1930.9999999999995
 20
220
 40
40
 41
0.6
 50
0
  1
ＨＳＡＹ－１５Ｌ１８００Ｔ
  0
LINE
  8
_0-7_枠細線
  6
CONTINUOUS
 62
    5
 10
2440.9372303853888
 20
1344.3603023313174
 11
2425.9372303853888
 21
1374.3603023313174
  0
LINE
  8
_0-7_枠細線
  6
CONTINUOUS
 62
    5
 10
2410.9372303853888
 20
1344.3603023313174
 11
2440.9372303853888
 21
1344.3603023313174
  0
LINE
  8
_0-7_枠細線
  6
CONTINUOUS
 62
    5
 10
2425.9372303853888
 20
1374.3603023313174
 11
2410.9372303853888
 21
1344.3603023313174
  0
TEXT
  8
_0-7_枠細線
 62
    5
 10
2415.6675329216864
 20
1343.7462978405565
 40
25
 41
0.8
 50
0
  1
１
  0
LINE
  8
_0-5_寸法線
  6
CONTINUOUS
 62
    7
 10
2367.6677836270474
 20
949.52392924461037
 11
2367.667783627046
 21
789.52392924461037
  0
LINE
  8
_0-5_寸法線
  6
CONTINUOUS
 62
    7
 10
2367.667783627046
 20
799.52392924461037
 11
2386.9863001528274
 21
804.70031014666074
  0
LINE
  8
_0-5_寸法線
  6
CONTINUOUS
 62
    7
 10
2367.667783627046
 20
799.52392924461037
 11
2386.9863001528274
 21
794.34754834256012
  0
LINE
  8
_0-5_寸法線
  6
CONTINUOUS
 62
    7
 10
2454.6677836270474
 20
951.09456124460951
 11
2454.667783627046
 21
789.52392924461037
  0
LINE
  8
_0-5_寸法線
  6
CONTINUOUS
 62
    7
 10
2454.667783627046
 20
799.52392924461037
 11
2435.3492671012646
 21
794.34754834256012
  0
LINE
  8
_0-5_寸法線
  6
CONTINUOUS
 62
    7
 10
2454.667783627046
 20
799.52392924461037
 11
2435.3492671012646
 21
804.70031014666097
  0
LINE
  8
_0-5_寸法線
  6
CONTINUOUS
 62
    7
 10
2367.667783627046
 20
799.52392924461037
 11
2454.667783627046
 21
799.52392924461037
  0
TEXT
  8
_0-5_寸法線
 62
    7
 10
2396.1677836270464
 20
799.52392924461037
 40
30
 41
1
 50
0
  1
87
  0
LINE
  8
_0-5_寸法線
  6
CONTINUOUS
 62
    7
 10
2367.6677836270474
 20
951.57619324460848
 11
2367.6677836270474
 21
859.52392924461037
  0
LINE
  8
_0-5_寸法線
  6
CONTINUOUS
 62
    7
 10
2367.6677836270474
 20
869.52392924461037
 11
2386.9863001528292
 21
874.70031014666074
  0
LINE
  8
_0-5_寸法線
  6
CONTINUOUS
 62
    7
 10
2367.6677836270474
 20
869.52392924461037
 11
2386.9863001528292
 21
864.34754834256012
  0
LINE
  8
_0-5_寸法線
  6
CONTINUOUS
 62
    7
 10
2417.1371676270473
 20
951.57619324460848
 11
2417.1371676270473
 21
859.52392924461037
  0
LINE
  8
_0-5_寸法線
  6
CONTINUOUS
 62
    7
 10
2417.1371676270473
 20
869.52392924461037
 11
2397.8186511012659
 21
864.34754834256012
  0
LINE
  8
_0-5_寸法線
  6
CONTINUOUS
 62
    7
 10
2417.1371676270473
 20
869.52392924461037
 11
2397.8186511012659
 21
874.70031014666097
  0
LINE
  8
_0-5_寸法線
  6
CONTINUOUS
 62
    7
 10
2367.6677836270474
 20
869.52392924461037
 11
2417.1371676270473
 21
869.52392924461037
  0
TEXT
  8
_0-5_寸法線
 62
    7
 10
2377.4024756270474
 20
869.52392924461037
 40
30
 41
1
 50
0
  1
51
  0
LINE
  8
_0-5_寸法線
  6
CONTINUOUS
 62
    7
 10
2417.1371676270473
 20
869.52392924461037
 11
2436.4556841528288
 21
874.70031014666063
  0
LINE
  8
_0-5_寸法線
  6
CONTINUOUS
 62
    7
 10
2417.1371676270473
 20
869.52392924461037
 11
2436.4556841528288
 21
864.34754834256
  0
LINE
  8
_0-5_寸法線
  6
CONTINUOUS
 62
    7
 10
2454.6677836270474
 20
951.09456124460951
 11
2454.6677836270474
 21
859.52392924461037
  0
LINE
  8
_0-5_寸法線
  6
CONTINUOUS
 62
    7
 10
2454.6677836270474
 20
869.52392924461037
 11
2435.3492671012659
 21
864.34754834256012
  0
LINE
  8
_0-5_寸法線
  6
CONTINUOUS
 62
    7
 10
2454.6677836270474
 20
869.52392924461037
 11
2435.3492671012659
 21
874.70031014666097
  0
LINE
  8
_0-5_寸法線
  6
CONTINUOUS
 62
    7
 10
2417.1371676270473
 20
869.52392924461037
 11
2454.6677836270474
 21
869.52392924461037
  0
TEXT
  8
_0-5_寸法線
 62
    7
 10
2420.9024756270474
 20
869.52392924461037
 40
30
 41
1
 50
0
  1
36
  0
LINE
  8
_0-0_計極細
  6
CONTINUOUS
 62
    2
 10
2367.6677836270474
 20
971.48392924461052
 11
2417.5261698918803
 21
971.48392924461052
  0
ENDSEC
  0
EOF
