  0
SECTION
  2
HEADER
  9
$ACADVER
  1
AC1015
  9
$ACADMAINTVER
 70
    20
  9
$DWGCODEPAGE
  3
ANSI_932
  9
$INSBASE
 10
0.0
 20
0.0
 30
0.0
  9
$EXTMIN
 10
59.99999999999985
 20
59.99999999999964
 30
0.0
  9
$EXTMAX
 10
1425.0
 20
970.0000000000001
 30
0.0
  9
$LIMMIN
 10
0.0
 20
0.0
  9
$LIMMAX
 10
1485.0
 20
1050.0
  9
$ORTHOMODE
 70
     0
  9
$REGENMODE
 70
     1
  9
$FILLMODE
 70
     1
  9
$QTEXTMODE
 70
     0
  9
$MIRRTEXT
 70
     0
  9
$LTSCALE
 40
5.0
  9
$ATTMODE
 70
     1
  9
$TEXTSIZE
 40
0.2
  9
$TRACEWID
 40
0.05
  9
$TEXTSTYLE
  7
STANDARD
  9
$CLAYER
  8
0
  9
$CELTYPE
  6
CONTINUOUS
  9
$CECOLOR
 62
   256
  9
$CELTSCALE
 40
1.0
  9
$DISPSILH
 70
     0
  9
$DIMSCALE
 40
1.0
  9
$DIMASZ
 40
0.18
  9
$DIMEXO
 40
0.0625
  9
$DIMDLI
 40
0.38
  9
$DIMRND
 40
0.0
  9
$DIMDLE
 40
0.0
  9
$DIMEXE
 40
0.18
  9
$DIMTP
 40
0.0
  9
$DIMTM
 40
0.0
  9
$DIMTXT
 40
0.18
  9
$DIMCEN
 40
0.09
  9
$DIMTSZ
 40
0.0
  9
$DIMTOL
 70
     0
  9
$DIMLIM
 70
     0
  9
$DIMTIH
 70
     1
  9
$DIMTOH
 70
     1
  9
$DIMSE1
 70
     0
  9
$DIMSE2
 70
     0
  9
$DIMTAD
 70
     0
  9
$DIMZIN
 70
     0
  9
$DIMBLK
  1

  9
$DIMASO
 70
     1
  9
$DIMSHO
 70
     1
  9
$DIMPOST
  1

  9
$DIMAPOST
  1

  9
$DIMALT
 70
     0
  9
$DIMALTD
 70
     2
  9
$DIMALTF
 40
25.4
  9
$DIMLFAC
 40
1.0
  9
$DIMTOFL
 70
     0
  9
$DIMTVP
 40
0.0
  9
$DIMTIX
 70
     0
  9
$DIMSOXD
 70
     0
  9
$DIMSAH
 70
     0
  9
$DIMBLK1
  1

  9
$DIMBLK2
  1

  9
$DIMSTYLE
  2
Standard
  9
$DIMCLRD
 70
     0
  9
$DIMCLRE
 70
     0
  9
$DIMCLRT
 70
     0
  9
$DIMTFAC
 40
1.0
  9
$DIMGAP
 40
0.09
  9
$DIMJUST
 70
     0
  9
$DIMSD1
 70
     0
  9
$DIMSD2
 70
     0
  9
$DIMTOLJ
 70
     1
  9
$DIMTZIN
 70
     0
  9
$DIMALTZ
 70
     0
  9
$DIMALTTZ
 70
     0
  9
$DIMUPT
 70
     0
  9
$DIMDEC
 70
     4
  9
$DIMTDEC
 70
     4
  9
$DIMALTU
 70
     2
  9
$DIMALTTD
 70
     2
  9
$DIMTXSTY
  7
STANDARD
  9
$DIMAUNIT
 70
     0
  9
$DIMADEC
 70
     0
  9
$DIMALTRND
 40
0.0
  9
$DIMAZIN
 70
     0
  9
$DIMDSEP
 70
    46
  9
$DIMATFIT
 70
     3
  9
$DIMFRAC
 70
     0
  9
$DIMLDRBLK
  1

  9
$DIMLUNIT
 70
     2
  9
$DIMLWD
 70
    -2
  9
$DIMLWE
 70
    -2
  9
$DIMTMOVE
 70
     0
  9
$LUNITS
 70
     2
  9
$LUPREC
 70
     4
  9
$SKETCHINC
 40
0.1
  9
$FILLETRAD
 40
0.0
  9
$AUNITS
 70
     0
  9
$AUPREC
 70
     0
  9
$MENU
  1
.
  9
$ELEVATION
 40
0.0
  9
$PELEVATION
 40
0.0
  9
$THICKNESS
 40
0.0
  9
$LIMCHECK
 70
     0
  9
$CHAMFERA
 40
0.0
  9
$CHAMFERB
 40
0.0
  9
$CHAMFERC
 40
0.0
  9
$CHAMFERD
 40
0.0
  9
$SKPOLY
 70
     0
  9
$TDCREATE
 40
2459299.686854283
  9
$TDUCREATE
 40
2459299.311854282
  9
$TDUPDATE
 40
2459303.447548403
  9
$TDUUPDATE
 40
2459303.072548403
  9
$TDINDWG
 40
0.0077338889
  9
$TDUSRTIMER
 40
0.0077338889
  9
$USRTIMER
 70
     1
  9
$ANGBASE
 50
0.0
  9
$ANGDIR
 70
     0
  9
$PDMODE
 70
     0
  9
$PDSIZE
 40
0.0
  9
$PLINEWID
 40
0.0
  9
$SPLFRAME
 70
     0
  9
$SPLINETYPE
 70
     6
  9
$SPLINESEGS
 70
     8
  9
$HANDSEED
  5
47E
  9
$SURFTAB1
 70
     6
  9
$SURFTAB2
 70
     6
  9
$SURFTYPE
 70
     6
  9
$SURFU
 70
     6
  9
$SURFV
 70
     6
  9
$UCSBASE
  2

  9
$UCSNAME
  2

  9
$UCSORG
 10
0.0
 20
0.0
 30
0.0
  9
$UCSXDIR
 10
1.0
 20
0.0
 30
0.0
  9
$UCSYDIR
 10
0.0
 20
1.0
 30
0.0
  9
$UCSORTHOREF
  2

  9
$UCSORTHOVIEW
 70
     0
  9
$UCSORGTOP
 10
0.0
 20
0.0
 30
0.0
  9
$UCSORGBOTTOM
 10
0.0
 20
0.0
 30
0.0
  9
$UCSORGLEFT
 10
0.0
 20
0.0
 30
0.0
  9
$UCSORGRIGHT
 10
0.0
 20
0.0
 30
0.0
  9
$UCSORGFRONT
 10
0.0
 20
0.0
 30
0.0
  9
$UCSORGBACK
 10
0.0
 20
0.0
 30
0.0
  9
$PUCSBASE
  2

  9
$PUCSNAME
  2

  9
$PUCSORG
 10
0.0
 20
0.0
 30
0.0
  9
$PUCSXDIR
 10
1.0
 20
0.0
 30
0.0
  9
$PUCSYDIR
 10
0.0
 20
1.0
 30
0.0
  9
$PUCSORTHOREF
  2

  9
$PUCSORTHOVIEW
 70
     0
  9
$PUCSORGTOP
 10
0.0
 20
0.0
 30
0.0
  9
$PUCSORGBOTTOM
 10
0.0
 20
0.0
 30
0.0
  9
$PUCSORGLEFT
 10
0.0
 20
0.0
 30
0.0
  9
$PUCSORGRIGHT
 10
0.0
 20
0.0
 30
0.0
  9
$PUCSORGFRONT
 10
0.0
 20
0.0
 30
0.0
  9
$PUCSORGBACK
 10
0.0
 20
0.0
 30
0.0
  9
$USERI1
 70
     0
  9
$USERI2
 70
     0
  9
$USERI3
 70
     0
  9
$USERI4
 70
     0
  9
$USERI5
 70
     0
  9
$USERR1
 40
0.0
  9
$USERR2
 40
0.0
  9
$USERR3
 40
0.0
  9
$USERR4
 40
0.0
  9
$USERR5
 40
0.0
  9
$WORLDVIEW
 70
     1
  9
$SHADEDGE
 70
     3
  9
$SHADEDIF
 70
    70
  9
$TILEMODE
 70
     1
  9
$MAXACTVP
 70
    64
  9
$PINSBASE
 10
0.0
 20
0.0
 30
0.0
  9
$PLIMCHECK
 70
     0
  9
$PEXTMIN
 10
1.000000000000000E+20
 20
1.000000000000000E+20
 30
1.000000000000000E+20
  9
$PEXTMAX
 10
-1.000000000000000E+20
 20
-1.000000000000000E+20
 30
-1.000000000000000E+20
  9
$PLIMMIN
 10
0.0
 20
0.0
  9
$PLIMMAX
 10
12.0
 20
9.0
  9
$UNITMODE
 70
     0
  9
$VISRETAIN
 70
     1
  9
$PLINEGEN
 70
     0
  9
$PSLTSCALE
 70
     1
  9
$TREEDEPTH
 70
  3020
  9
$CMLSTYLE
  2
Standard
  9
$CMLJUST
 70
     0
  9
$CMLSCALE
 40
1.0
  9
$PROXYGRAPHICS
 70
     1
  9
$MEASUREMENT
 70
     0
  9
$CELWEIGHT
370
    -1
  9
$ENDCAPS
280
     0
  9
$JOINSTYLE
280
     0
  9
$LWDISPLAY
290
     0
  9
$INSUNITS
 70
     0
  9
$HYPERLINKBASE
  1

  9
$STYLESHEET
  1

  9
$XEDIT
290
     1
  9
$CEPSNTYPE
380
     0
  9
$PSTYLEMODE
290
     1
  9
$FINGERPRINTGUID
  2
{3D06939C-90EC-426C-B8C2-60746EC28600}
  9
$VERSIONGUID
  2
{7AF9DF7F-F21D-4817-A8EB-92A40369C717}
  9
$EXTNAMES
290
     1
  9
$PSVPSCALE
 40
0.0
  9
$OLESTARTUP
290
     0
  0
ENDSEC
  0
SECTION
  2
CLASSES
  0
CLASS
  1
ACDBDICTIONARYWDFLT
  2
AcDbDictionaryWithDefault
  3
ObjectDBX Classes
 90
        0
280
     0
281
     0
  0
CLASS
  1
MATERIAL
  2
AcDbMaterial
  3
ObjectDBX Classes
 90
     1153
280
     0
281
     0
  0
CLASS
  1
VISUALSTYLE
  2
AcDbVisualStyle
  3
ObjectDBX Classes
 90
     4095
280
     0
281
     0
  0
CLASS
  1
SCALE
  2
AcDbScale
  3
ObjectDBX Classes
 90
     1153
280
     0
281
     0
  0
CLASS
  1
TABLESTYLE
  2
AcDbTableStyle
  3
ObjectDBX Classes
 90
     4095
280
     0
281
     0
  0
CLASS
  1
MLEADERSTYLE
  2
AcDbMLeaderStyle
  3
ACDB_MLEADERSTYLE_CLASS
 90
     4095
280
     0
281
     0
  0
CLASS
  1
ACDBSECTIONVIEWSTYLE
  2
AcDbSectionViewStyle
  3
ObjectDBX Classes
 90
     1025
280
     0
281
     0
  0
CLASS
  1
ACDBDETAILVIEWSTYLE
  2
AcDbDetailViewStyle
  3
ObjectDBX Classes
 90
     1025
280
     0
281
     0
  0
CLASS
  1
DICTIONARYVAR
  2
AcDbDictionaryVar
  3
ObjectDBX Classes
 90
        0
280
     0
281
     0
  0
CLASS
  1
CELLSTYLEMAP
  2
AcDbCellStyleMap
  3
ObjectDBX Classes
 90
     1152
280
     0
281
     0
  0
CLASS
  1
ACDBPLACEHOLDER
  2
AcDbPlaceHolder
  3
ObjectDBX Classes
 90
        0
280
     0
281
     0
  0
CLASS
  1
LAYOUT
  2
AcDbLayout
  3
ObjectDBX Classes
 90
        0
280
     0
281
     0
  0
ENDSEC
  0
SECTION
  2
TABLES
  0
TABLE
  2
VPORT
  5
8
102
{ACAD_XDICTIONARY
360
3F1
102
}
330
0
100
AcDbSymbolTable
 70
     1
  0
VPORT
  5
A1
330
8
100
AcDbSymbolTableRecord
100
AcDbViewportTableRecord
  2
*Active
 70
     0
 10
0.0
 20
0.0
 11
1.0
 21
1.0
 12
794.942238703248
 22
514.9864221107987
 13
0.0
 23
0.0
 14
1.0
 24
1.0
 15
0.0
 25
0.0
 16
0.0
 26
0.0
 36
1.0
 17
0.0
 27
0.0
 37
0.0
 40
797.7932504082349
 41
1.867788461538461
 42
50.0
 43
0.0
 44
0.0
 50
0.0
 51
0.0
 71
     0
 72
   100
 73
     1
 74
     1
 75
     0
 76
     0
 77
     0
 78
     0
281
     0
 65
     1
110
0.0
120
0.0
130
0.0
111
1.0
121
0.0
131
0.0
112
0.0
122
1.0
132
0.0
 79
     0
146
0.0
1001
ACAD_NAV_VCDISPLAY
1070
     3
  0
ENDTAB
  0
TABLE
  2
LTYPE
  5
5
330
0
100
AcDbSymbolTable
 70
    35
  0
LTYPE
  5
5A
330
5
100
AcDbSymbolTableRecord
100
AcDbLinetypeTableRecord
  2
ByBlock
 70
     0
  3

 72
    65
 73
     0
 40
0.0
  0
LTYPE
  5
5B
330
5
100
AcDbSymbolTableRecord
100
AcDbLinetypeTableRecord
  2
ByLayer
 70
     0
  3

 72
    65
 73
     0
 40
0.0
  0
LTYPE
  5
5C
330
5
100
AcDbSymbolTableRecord
100
AcDbLinetypeTableRecord
  2
CONTINUOUS
 70
     0
  3
実線
 72
    65
 73
     0
 40
0.0
  0
LTYPE
  5
73
330
5
100
AcDbSymbolTableRecord
100
AcDbLinetypeTableRecord
  2
DASHED1
 70
     0
  3
--  --  --  --  --  --  --  --  
 72
    65
 73
     2
 40
2.5
 49
1.25
 74
     0
 49
-1.25
 74
     0
  0
LTYPE
  5
74
330
5
100
AcDbSymbolTableRecord
100
AcDbLinetypeTableRecord
  2
DASHED2
 70
     0
  3
----    ----    ----    ----    
 72
    65
 73
     2
 40
5.0
 49
2.5
 74
     0
 49
-2.5
 74
     0
  0
LTYPE
  5
75
330
5
100
AcDbSymbolTableRecord
100
AcDbLinetypeTableRecord
  2
DASHED3
 70
     0
  3
------  ------  ------  ------  
 72
    65
 73
     2
 40
5.0
 49
3.75
 74
     0
 49
-1.25
 74
     0
  0
LTYPE
  5
76
330
5
100
AcDbSymbolTableRecord
100
AcDbLinetypeTableRecord
  2
CENTER1
 70
     0
  3
----- - ----- - ----- - ----- - 
 72
    65
 73
     4
 40
10.0
 49
6.25
 74
     0
 49
-1.25
 74
     0
 49
1.25
 74
     0
 49
-1.25
 74
     0
  0
LTYPE
  5
77
330
5
100
AcDbSymbolTableRecord
100
AcDbLinetypeTableRecord
  2
CENTER2
 70
     0
  3
----------  --  ----------  --  
 72
    65
 73
     4
 40
20.0
 49
12.5
 74
     0
 49
-2.5
 74
     0
 49
2.5
 74
     0
 49
-2.5
 74
     0
  0
LTYPE
  5
78
330
5
100
AcDbSymbolTableRecord
100
AcDbLinetypeTableRecord
  2
PHANTOM1
 70
     0
  3
--- - - --- - - --- - - --- - - 
 72
    65
 73
     6
 40
10.0
 49
3.25
 74
     0
 49
-1.25
 74
     0
 49
1.25
 74
     0
 49
-1.25
 74
     0
 49
1.25
 74
     0
 49
-1.25
 74
     0
  0
LTYPE
  5
79
330
5
100
AcDbSymbolTableRecord
100
AcDbLinetypeTableRecord
  2
PHANTOM2
 70
     0
  3
--------  -  -  --------  -  -  
 72
    65
 73
     6
 40
20.0
 49
10.0
 74
     0
 49
-2.5
 74
     0
 49
1.25
 74
     0
 49
-2.5
 74
     0
 49
1.25
 74
     0
 49
-2.5
 74
     0
  0
LTYPE
  5
7A
330
5
100
AcDbSymbolTableRecord
100
AcDbLinetypeTableRecord
  2
DOT
 70
     0
  3
-   -   -   -   -   -   -   -   
 72
    65
 73
     2
 40
2.5
 49
0.625
 74
     0
 49
-1.875
 74
     0
  0
LTYPE
  5
7B
330
5
100
AcDbSymbolTableRecord
100
AcDbLinetypeTableRecord
  2
DUMMY
 70
     0
  3
ダミー
 72
    65
 73
     0
 40
0.0
  0
LTYPE
  5
7C
330
5
100
AcDbSymbolTableRecord
100
AcDbLinetypeTableRecord
  2
RAND1
 70
     0
  3
ランダム線1
 72
    65
 73
     4
 40
10.0
 49
1.0
 74
     0
 49
-2.0
 74
     0
 49
3.0
 74
     0
 49
-4.0
 74
     0
  0
LTYPE
  5
7D
330
5
100
AcDbSymbolTableRecord
100
AcDbLinetypeTableRecord
  2
RAND2
 70
     0
  3
ランダム線2
 72
    65
 73
     4
 40
14.0
 49
2.0
 74
     0
 49
-3.0
 74
     0
 49
4.0
 74
     0
 49
-5.0
 74
     0
  0
LTYPE
  5
7E
330
5
100
AcDbSymbolTableRecord
100
AcDbLinetypeTableRecord
  2
RAND3
 70
     0
  3
ランダム線3
 72
    65
 73
     4
 40
18.0
 49
3.0
 74
     0
 49
-4.0
 74
     0
 49
5.0
 74
     0
 49
-6.0
 74
     0
  0
LTYPE
  5
7F
330
5
100
AcDbSymbolTableRecord
100
AcDbLinetypeTableRecord
  2
RAND4
 70
     0
  3
ランダム線4
 72
    65
 73
     4
 40
22.0
 49
4.0
 74
     0
 49
-5.0
 74
     0
 49
6.0
 74
     0
 49
-7.0
 74
     0
  0
LTYPE
  5
80
330
5
100
AcDbSymbolTableRecord
100
AcDbLinetypeTableRecord
  2
RAND5
 70
     0
  3
ランダム線5
 72
    65
 73
     4
 40
26.0
 49
5.0
 74
     0
 49
-6.0
 74
     0
 49
7.0
 74
     0
 49
-8.0
 74
     0
  0
LTYPE
  5
81
330
5
100
AcDbSymbolTableRecord
100
AcDbLinetypeTableRecord
  2
LONG1
 70
     0
  3
----------  --  ----------  --  
 72
    65
 73
     4
 40
40.0
 49
32.5
 74
     0
 49
-2.5
 74
     0
 49
2.5
 74
     0
 49
-2.5
 74
     0
  0
LTYPE
  5
82
330
5
100
AcDbSymbolTableRecord
100
AcDbLinetypeTableRecord
  2
LONG2
 70
     0
  3
--------  -  -  --------  -  -  
 72
    65
 73
     6
 40
40.0
 49
30.0
 74
     0
 49
-2.5
 74
     0
 49
1.25
 74
     0
 49
-2.5
 74
     0
 49
1.25
 74
     0
 49
-2.5
 74
     0
  0
LTYPE
  5
83
330
5
100
AcDbSymbolTableRecord
100
AcDbLinetypeTableRecord
  2
LONG3
 70
     0
  3
+++++++++++++++..+++++++++++++++
 72
    65
 73
     2
 40
40.0
 49
37.5
 74
     0
 49
-2.5
 74
     0
  0
LTYPE
  5
84
330
5
100
AcDbSymbolTableRecord
100
AcDbLinetypeTableRecord
  2
LONG4
 70
     0
  3
+++++++++++++++..+++++++++++++++
 72
    65
 73
     2
 40
80.0
 49
75.0
 74
     0
 49
-5.0
 74
     0
  0
LTYPE
  5
85
330
5
100
AcDbSymbolTableRecord
100
AcDbLinetypeTableRecord
  2
LONG5
 70
     0
  3
----------  --  ----------  --  
 72
    65
 73
     4
 40
60.0
 49
37.5
 74
     0
 49
-7.5
 74
     0
 49
7.5
 74
     0
 49
-7.5
 74
     0
  0
LTYPE
  5
86
330
5
100
AcDbSymbolTableRecord
100
AcDbLinetypeTableRecord
  2
DASHED
 70
     0
  3
-------   -------------   ------
 72
    65
 73
     2
 40
7.5
 49
6.0
 74
     0
 49
-1.5
 74
     0
  0
LTYPE
  5
87
330
5
100
AcDbSymbolTableRecord
100
AcDbLinetypeTableRecord
  2
DASHED_SPACED
 70
     0
  3
----        --------        ----
 72
    65
 73
     2
 40
12.0
 49
6.0
 74
     0
 49
-6.0
 74
     0
  0
LTYPE
  5
88
330
5
100
AcDbSymbolTableRecord
100
AcDbLinetypeTableRecord
  2
LONG_DASHED_DOTTED
 70
     0
  3
------------- --- --------------
 72
    65
 73
     4
 40
15.25
 49
12.0
 74
     0
 49
-1.5
 74
     0
 49
0.25
 74
     0
 49
-1.5
 74
     0
  0
LTYPE
  5
89
330
5
100
AcDbSymbolTableRecord
100
AcDbLinetypeTableRecord
  2
LONG_DASHED_DOUBLE-DOTTED
 70
     0
  3
----------- --- --- ------------
 72
    65
 73
     6
 40
17.0
 49
12.0
 74
     0
 49
-1.5
 74
     0
 49
0.25
 74
     0
 49
-1.5
 74
     0
 49
0.25
 74
     0
 49
-1.5
 74
     0
  0
LTYPE
  5
8A
330
5
100
AcDbSymbolTableRecord
100
AcDbLinetypeTableRecord
  2
LONG_DASHED_TRIPLICATE-DOTTED
 70
     0
  3
--------- --- --- --- ----------
 72
    65
 73
     8
 40
18.75
 49
12.0
 74
     0
 49
-1.5
 74
     0
 49
0.25
 74
     0
 49
-1.5
 74
     0
 49
0.25
 74
     0
 49
-1.5
 74
     0
 49
0.25
 74
     0
 49
-1.5
 74
     0
  0
LTYPE
  5
8B
330
5
100
AcDbSymbolTableRecord
100
AcDbLinetypeTableRecord
  2
DOTTED
 70
     0
  3
   -       -       -       -    
 72
    65
 73
     2
 40
1.75
 49
0.25
 74
     0
 49
-1.5
 74
     0
  0
LTYPE
  5
8C
330
5
100
AcDbSymbolTableRecord
100
AcDbLinetypeTableRecord
  2
CHAIN
 70
     0
  3
-------------- -- --------------
 72
    65
 73
     4
 40
18.5
 49
12.0
 74
     0
 49
-1.5
 74
     0
 49
3.5
 74
     0
 49
-1.5
 74
     0
  0
LTYPE
  5
8D
330
5
100
AcDbSymbolTableRecord
100
AcDbLinetypeTableRecord
  2
CHAIN_DOUBLE_DASH
 70
     0
  3
------------ -- -- -------------
 72
    65
 73
     6
 40
23.5
 49
12.0
 74
     0
 49
-1.5
 74
     0
 49
3.5
 74
     0
 49
-1.5
 74
     0
 49
3.5
 74
     0
 49
-1.5
 74
     0
  0
LTYPE
  5
8E
330
5
100
AcDbSymbolTableRecord
100
AcDbLinetypeTableRecord
  2
DASHED_DOTTED
 70
     0
  3
-----------     -     ----------
 72
    65
 73
     4
 40
9.25
 49
6.0
 74
     0
 49
-1.5
 74
     0
 49
0.25
 74
     0
 49
-1.5
 74
     0
  0
LTYPE
  5
8F
330
5
100
AcDbSymbolTableRecord
100
AcDbLinetypeTableRecord
  2
DOUBLE-DASHED_DOTTED
 70
     0
  3
------   -----------   -   -----
 72
    65
 73
     6
 40
16.75
 49
6.0
 74
     0
 49
-1.5
 74
     0
 49
6.0
 74
     0
 49
-1.5
 74
     0
 49
0.25
 74
     0
 49
-1.5
 74
     0
  0
LTYPE
  5
90
330
5
100
AcDbSymbolTableRecord
100
AcDbLinetypeTableRecord
  2
DASHED_DOUBLE-DOTTED
 70
     0
  3
---------    -    -    ---------
 72
    65
 73
     6
 40
11.0
 49
6.0
 74
     0
 49
-1.5
 74
     0
 49
0.25
 74
     0
 49
-1.5
 74
     0
 49
0.25
 74
     0
 49
-1.5
 74
     0
  0
LTYPE
  5
91
330
5
100
AcDbSymbolTableRecord
100
AcDbLinetypeTableRecord
  2
DOUBLE-DASHED_DOUBLE-DOTTED
 70
     0
  3
-----   ---------   -   -   ----
 72
    65
 73
     8
 40
18.5
 49
6.0
 74
     0
 49
-1.5
 74
     0
 49
6.0
 74
     0
 49
-1.5
 74
     0
 49
0.25
 74
     0
 49
-1.5
 74
     0
 49
0.25
 74
     0
 49
-1.5
 74
     0
  0
LTYPE
  5
92
330
5
100
AcDbSymbolTableRecord
100
AcDbLinetypeTableRecord
  2
DASHED_TRIPLICATE-DOTTED
 70
     0
  3
-------    -    -    -    ------
 72
    65
 73
     8
 40
12.75
 49
6.0
 74
     0
 49
-1.5
 74
     0
 49
0.25
 74
     0
 49
-1.5
 74
     0
 49
0.25
 74
     0
 49
-1.5
 74
     0
 49
0.25
 74
     0
 49
-1.5
 74
     0
  0
LTYPE
  5
93
330
5
100
AcDbSymbolTableRecord
100
AcDbLinetypeTableRecord
  2
DOUBLE-DASHED_TRIPLICATE-DOTTED
 70
     0
  3
-----  ---------  -  -  -  -----
 72
    65
 73
    10
 40
20.25
 49
6.0
 74
     0
 49
-1.5
 74
     0
 49
6.0
 74
     0
 49
-1.5
 74
     0
 49
0.25
 74
     0
 49
-1.5
 74
     0
 49
0.25
 74
     0
 49
-1.5
 74
     0
 49
0.25
 74
     0
 49
-1.5
 74
     0
  0
LTYPE
  5
94
330
5
100
AcDbSymbolTableRecord
100
AcDbLinetypeTableRecord
  2
UNDEFINED
 70
     0
  3
--------------------------------
 72
    65
 73
     0
 40
0.0
  0
ENDTAB
  0
TABLE
  2
LAYER
  5
2
330
0
100
AcDbSymbolTable
 70
    10
  0
LAYER
  5
54
102
{ACAD_XDICTIONARY
360
3D9
102
}
330
2
100
AcDbSymbolTableRecord
100
AcDbLayerTableRecord
  2
0
 70
     0
 62
     7
  6
CONTINUOUS
370
    -3
390
F
  0
LAYER
  5
96
102
{ACAD_XDICTIONARY
360
3DB
102
}
330
2
100
AcDbSymbolTableRecord
100
AcDbLayerTableRecord
  2
_0-0_計極細
 70
     0
 62
     7
  6
CONTINUOUS
370
    -3
390
F
  0
LAYER
  5
97
102
{ACAD_XDICTIONARY
360
3DD
102
}
330
2
100
AcDbSymbolTableRecord
100
AcDbLayerTableRecord
  2
_0-1_計細線
 70
     0
 62
     7
  6
CONTINUOUS
370
    -3
390
F
  0
LAYER
  5
98
102
{ACAD_XDICTIONARY
360
3DF
102
}
330
2
100
AcDbSymbolTableRecord
100
AcDbLayerTableRecord
  2
_0-5_寸法線
 70
     0
 62
     7
  6
CONTINUOUS
370
    -3
390
F
  0
LAYER
  5
99
102
{ACAD_XDICTIONARY
360
3E1
102
}
330
2
100
AcDbSymbolTableRecord
100
AcDbLayerTableRecord
  2
_0-7_枠細線
 70
     0
 62
     7
  6
CONTINUOUS
370
    -3
390
F
  0
LAYER
  5
9A
102
{ACAD_XDICTIONARY
360
3E3
102
}
330
2
100
AcDbSymbolTableRecord
100
AcDbLayerTableRecord
  2
_0-8_枠中線
 70
     0
 62
     7
  6
CONTINUOUS
370
    -3
390
F
  0
LAYER
  5
9B
102
{ACAD_XDICTIONARY
360
3E5
102
}
330
2
100
AcDbSymbolTableRecord
100
AcDbLayerTableRecord
  2
_1-2_極細2
 70
     0
 62
     7
  6
CONTINUOUS
370
    -3
390
F
  0
LAYER
  5
9C
102
{ACAD_XDICTIONARY
360
3E7
102
}
330
2
100
AcDbSymbolTableRecord
100
AcDbLayerTableRecord
  2
_1-3_細線2
 70
     0
 62
     7
  6
CONTINUOUS
370
    -3
390
F
  0
LAYER
  5
9D
102
{ACAD_XDICTIONARY
360
3E9
102
}
330
2
100
AcDbSymbolTableRecord
100
AcDbLayerTableRecord
  2
_1-5_寸法2
 70
     0
 62
     7
  6
CONTINUOUS
370
    -3
390
F
  0
LAYER
  5
9E
102
{ACAD_XDICTIONARY
360
3EB
102
}
330
2
100
AcDbSymbolTableRecord
100
AcDbLayerTableRecord
  2
ADD_LINE
 70
     0
 62
     7
  6
CONTINUOUS
370
    -3
390
F
  0
ENDTAB
  0
TABLE
  2
STYLE
  5
3
330
0
100
AcDbSymbolTable
 70
     3
  0
STYLE
  5
55
330
3
100
AcDbSymbolTableRecord
100
AcDbTextStyleTableRecord
  2
STANDARD
 70
     0
 40
0.0
 41
1.0
 50
0.0
 71
     0
 42
0.2
  3
txt
  4
bigfont.shx
  0
STYLE
  5
59
330
3
100
AcDbSymbolTableRecord
100
AcDbTextStyleTableRecord
  2
Annotative
 70
     0
 40
0.0
 41
1.0
 50
0.0
 71
     0
 42
0.2
  3
txt
  4

1001
AcadAnnotative
1000
AnnotativeData
1002
{
1070
     1
1070
     1
1002
}
  0
STYLE
  5
95
330
3
100
AcDbSymbolTableRecord
100
AcDbTextStyleTableRecord
  2
TATEGAKI
 70
     4
 40
0.0
 41
1.0
 50
0.0
 71
     0
 42
1.0
  3
txt
  4
bigfont.shx
  0
ENDTAB
  0
TABLE
  2
VIEW
  5
6
330
0
100
AcDbSymbolTable
 70
     0
  0
ENDTAB
  0
TABLE
  2
UCS
  5
7
330
0
100
AcDbSymbolTable
 70
     0
  0
ENDTAB
  0
TABLE
  2
APPID
  5
9
330
0
100
AcDbSymbolTable
 70
     5
  0
APPID
  5
56
330
9
100
AcDbSymbolTableRecord
100
AcDbRegAppTableRecord
  2
ACAD
 70
     0
  0
APPID
  5
5D
330
9
100
AcDbSymbolTableRecord
100
AcDbRegAppTableRecord
  2
AcadAnnotative
 70
     0
  0
APPID
  5
3C2
330
9
100
AcDbSymbolTableRecord
100
AcDbRegAppTableRecord
  2
ACAD_EXEMPT_FROM_CAD_STANDARDS
 70
     0
  0
APPID
  5
3C9
330
9
100
AcDbSymbolTableRecord
100
AcDbRegAppTableRecord
  2
ACAD_NAV_VCDISPLAY
 70
     0
  0
APPID
  5
427
330
9
100
AcDbSymbolTableRecord
100
AcDbRegAppTableRecord
  2
ACAD_MLEADERVER
 70
     0
  0
ENDTAB
  0
TABLE
  2
DIMSTYLE
  5
A
330
0
100
AcDbSymbolTable
 70
     2
100
AcDbDimStyleTable
 71
     1
340
57
  0
DIMSTYLE
105
57
330
A
100
AcDbSymbolTableRecord
100
AcDbDimStyleTableRecord
  2
Standard
 70
     0
340
55
  0
DIMSTYLE
105
58
330
A
100
AcDbSymbolTableRecord
100
AcDbDimStyleTableRecord
  2
Annotative
 70
     0
340
55
1001
AcadAnnotative
1000
AnnotativeData
1002
{
1070
     1
1070
     1
1002
}
  0
ENDTAB
  0
TABLE
  2
BLOCK_RECORD
  5
1
330
0
100
AcDbSymbolTable
 70
     0
  0
BLOCK_RECORD
  5
6F
330
1
100
AcDbSymbolTableRecord
100
AcDbBlockTableRecord
  2
*Model_Space
340
72
  0
BLOCK_RECORD
  5
6B
330
1
100
AcDbSymbolTableRecord
100
AcDbBlockTableRecord
  2
*Paper_Space
340
6E
  0
ENDTAB
  0
ENDSEC
  0
SECTION
  2
BLOCKS
  0
BLOCK
  5
70
330
6F
100
AcDbEntity
  8
0
100
AcDbBlockBegin
  2
*Model_Space
 70
     0
 10
0.0
 20
0.0
 30
0.0
  3
*Model_Space
  1

  0
ENDBLK
  5
71
330
6F
100
AcDbEntity
  8
0
100
AcDbBlockEnd
  0
BLOCK
  5
6C
330
6B
100
AcDbEntity
 67
     1
  8
0
100
AcDbBlockBegin
  2
*Paper_Space
 70
     0
 10
0.0
 20
0.0
 30
0.0
  3
*Paper_Space
  1

  0
ENDBLK
  5
6D
330
6B
100
AcDbEntity
 67
     1
  8
0
100
AcDbBlockEnd
  0
ENDSEC
  0
SECTION
  2
ENTITIES
  0
LINE
  5
A2
330
6F
100
AcDbEntity
  8
_0-7_枠細線
  6
Continuous
 62
     5
100
AcDbLine
 10
1185.0
 20
180.0
 30
0.0
 11
1185.0
 21
99.99999999999994
 31
0.0
  0
TEXT
  5
A3
330
6F
100
AcDbEntity
  8
_0-7_枠細線
 62
     5
100
AcDbText
 10
937.5000000000003
 20
97.49999999999994
 30
0.0
 40
16.0
  1
備考
  7
TATEGAKI
100
AcDbText
  0
TEXT
  5
A4
330
6F
100
AcDbEntity
  8
_0-7_枠細線
 62
     5
100
AcDbText
 10
937.5000000000003
 20
137.4999999999999
 30
0.0
 40
16.0
  1
品番
  7
TATEGAKI
100
AcDbText
  0
TEXT
  5
A5
330
6F
100
AcDbEntity
  8
_0-7_枠細線
 62
     5
100
AcDbText
 10
937.5000000000003
 20
177.5
 30
0.0
 40
16.0
  1
品名
  7
TATEGAKI
100
AcDbText
  0
LINE
  5
A6
330
6F
100
AcDbEntity
  8
_0-7_枠細線
  6
Continuous
 62
     5
100
AcDbLine
 10
1185.0
 20
139.9999999999999
 30
0.0
 11
925.0000000000003
 21
139.9999999999999
 31
0.0
  0
LINE
  5
A7
330
6F
100
AcDbEntity
  8
_0-7_枠細線
  6
Continuous
 62
     5
100
AcDbLine
 10
950.0000000000003
 20
180.0
 30
0.0
 11
950.0000000000003
 21
59.99999999999993
 31
0.0
  0
LINE
  5
A8
330
6F
100
AcDbEntity
  8
_0-8_枠中線
  6
Continuous
 62
     5
100
AcDbLine
 10
1425.0
 20
180.0
 30
0.0
 11
925.0000000000003
 21
180.0
 31
0.0
  0
LINE
  5
A9
330
6F
100
AcDbEntity
  8
_0-8_枠中線
  6
Continuous
 62
     5
100
AcDbLine
 10
925.0000000000003
 20
180.0
 30
0.0
 11
925.0000000000003
 21
59.99999999999993
 31
0.0
  0
LINE
  5
AA
330
6F
100
AcDbEntity
  8
_0-7_枠細線
  6
Continuous
 62
     5
100
AcDbLine
 10
1245.0
 20
180.0
 30
0.0
 11
1245.0
 21
59.99999999999993
 31
0.0
  0
TEXT
  5
AB
330
6F
100
AcDbEntity
  8
_0-7_枠細線
 62
     5
100
AcDbText
 10
1190.7966074701
 20
159.9999999999999
 30
0.0
 40
15.00000000000001
  1
縮　尺
100
AcDbText
  0
LINE
  5
AC
330
6F
100
AcDbEntity
  8
_0-7_枠細線
  6
Continuous
 62
     5
100
AcDbLine
 10
1185.0
 20
154.9999999999999
 30
0.0
 11
1245.0
 21
154.9999999999999
 31
0.0
  0
LINE
  5
AD
330
6F
100
AcDbEntity
  8
_0-7_枠細線
  6
Continuous
 62
     5
100
AcDbLine
 10
1245.0
 20
99.99999999999994
 30
0.0
 11
925.0000000000003
 21
99.99999999999994
 31
0.0
  0
LINE
  5
AE
330
6F
100
AcDbEntity
  8
_0-7_枠細線
  6
Continuous
 62
     5
100
AcDbLine
 10
1425.0
 20
89.99999999999994
 30
0.0
 11
1245.0
 21
89.99999999999994
 31
0.0
  0
LINE
  5
AF
330
6F
100
AcDbEntity
  8
_0-7_枠細線
  6
Continuous
 62
     5
100
AcDbLine
 10
1245.0
 20
119.9999999999999
 30
0.0
 11
1425.0
 21
119.9999999999999
 31
0.0
  0
LINE
  5
B0
330
6F
100
AcDbEntity
  8
_0-7_枠細線
  6
Continuous
 62
     5
100
AcDbLine
 10
1425.0
 20
139.9999999999999
 30
0.0
 11
1245.0
 21
139.9999999999999
 31
0.0
  0
TEXT
  5
B1
330
6F
100
AcDbEntity
  8
_0-7_枠細線
 62
     5
100
AcDbText
 10
1255.0
 20
147.4999999999999
 30
0.0
 40
25.0
  1
株式会社シマブン
 41
0.7
100
AcDbText
  0
TEXT
  5
B2
330
6F
100
AcDbEntity
  8
_0-7_枠細線
 62
     5
100
AcDbText
 10
1251.217538154076
 20
59.99999999999993
 30
0.0
 40
15.00000000000001
  1
年月日
100
AcDbText
  0
TEXT
  5
B3
330
6F
100
AcDbEntity
  8
_0-7_枠細線
 62
     5
100
AcDbText
 10
1251.217538154076
 20
74.99999999999992
 30
0.0
 40
15.00000000000001
  1
作　成
100
AcDbText
  0
TEXT
  5
B4
330
6F
100
AcDbEntity
  8
_0-7_枠細線
 62
     5
100
AcDbText
 10
1256.25
 20
122.4999999999999
 30
0.0
 40
15.00000000000001
  1
承 認
100
AcDbText
  0
LINE
  5
B5
330
6F
100
AcDbEntity
  8
_0-7_枠細線
  6
Continuous
 62
     5
100
AcDbLine
 10
1305.0
 20
139.9999999999999
 30
0.0
 11
1305.0
 21
59.99999999999993
 31
0.0
  0
TEXT
  5
B6
330
6F
100
AcDbEntity
  8
_0-7_枠細線
 62
     5
100
AcDbText
 10
1316.25
 20
122.4999999999999
 30
0.0
 40
15.00000000000001
  1
検 図
100
AcDbText
  0
LINE
  5
B7
330
6F
100
AcDbEntity
  8
_0-7_枠細線
  6
Continuous
 62
     5
100
AcDbLine
 10
1365.0
 20
139.9999999999999
 30
0.0
 11
1365.0
 21
89.99999999999994
 31
0.0
  0
TEXT
  5
B8
330
6F
100
AcDbEntity
  8
_0-7_枠細線
 62
     5
100
AcDbText
 10
1376.25
 20
122.4999999999999
 30
0.0
 40
15.00000000000001
  1
設 計
100
AcDbText
  0
TEXT
  5
B9
330
6F
100
AcDbEntity
  8
_0-7_枠細線
 62
     5
100
AcDbText
 10
1192.637284037691
 20
117.4999999999999
 30
0.0
 40
20.00000000000001
  1
１：５
 41
0.6999999999999999
100
AcDbText
  0
TEXT
  5
BA
330
6F
100
AcDbEntity
  8
_0-7_枠細線
 62
     5
100
AcDbText
 10
960.5000000000003
 20
69.99999999999985
 30
0.0
 40
20.0
  1
品番・色については表参照のこと
 41
0.5999999999999998
100
AcDbText
  0
LINE
  5
BB
330
6F
100
AcDbEntity
  8
_0-7_枠細線
  6
Continuous
 62
     5
100
AcDbLine
 10
1425.0
 20
952.5000000000002
 30
0.0
 11
890.0000000000005
 21
952.5000000000002
 31
0.0
  0
TEXT
  5
BC
330
6F
100
AcDbEntity
  8
_0-7_枠細線
 62
     5
100
AcDbText
 10
895.0000000000006
 20
955.0
 30
0.0
 40
12.5
  1
記号
100
AcDbText
  0
TEXT
  5
BD
330
6F
100
AcDbEntity
  8
_0-7_枠細線
 62
     5
100
AcDbText
 10
987.2238815837832
 20
955.0
 30
0.0
 40
12.5
  1
訂　 正　 記　 事
100
AcDbText
  0
TEXT
  5
BE
330
6F
100
AcDbEntity
  8
_0-7_枠細線
 62
     5
100
AcDbText
 10
1181.250000000001
 20
955.0
 30
0.0
 40
12.5
  1
訂 正 年 月 日
 41
0.9
100
AcDbText
  0
TEXT
  5
BF
330
6F
100
AcDbEntity
  8
_0-7_枠細線
 62
     5
100
AcDbText
 10
1300.725036416835
 20
955.0
 30
0.0
 40
12.5
  1
備　　　　　考
100
AcDbText
  0
LINE
  5
C0
330
6F
100
AcDbEntity
  8
_1-2_極細2
  6
CENTER1
 62
     2
100
AcDbLine
 10
554.6681696755242
 20
262.7280927835057
 30
0.0
 11
335.0652504513416
 21
262.7280927835057
 31
0.0
  0
CIRCLE
  5
C1
330
6F
100
AcDbEntity
  8
_1-2_極細2
  6
Continuous
 62
     2
100
AcDbCircle
 10
588.4464502621399
 20
188.903754716498
 30
0.0
 40
2.738297209022087
  0
CIRCLE
  5
C2
330
6F
100
AcDbEntity
  8
_1-2_極細2
  6
Continuous
 62
     2
100
AcDbCircle
 10
295.0401763202152
 20
180.7037547164981
 30
0.0
 40
2.738297209022087
  0
LINE
  5
C3
330
6F
100
AcDbEntity
  8
_1-2_極細2
  6
CENTER1
 62
     2
100
AcDbLine
 10
444.9877577356217
 20
298.4924847467143
 30
0.0
 11
444.9877577356217
 21
217.2157180929064
 31
0.0
  0
CIRCLE
  5
C4
330
6F
100
AcDbEntity
  8
_1-2_極細2
  6
Continuous
 62
     2
100
AcDbCircle
 10
529.9658947086222
 20
213.1896898899784
 30
0.0
 40
2.738297209022087
  0
LINE
  5
C5
330
6F
100
AcDbEntity
  8
_1-2_極細2
  6
Continuous
 62
     2
100
AcDbLine
 10
519.9877577356212
 20
233.2280927835054
 30
0.0
 11
519.9877577356212
 21
174.2795120987194
 31
0.0
  0
LINE
  5
C6
330
6F
100
AcDbEntity
  8
_1-2_極細2
  6
Continuous
 62
     2
100
AcDbLine
 10
521.2377577356212
 20
233.2280927835054
 30
0.0
 11
519.9877577356212
 21
233.2280927835054
 31
0.0
  0
CIRCLE
  5
C7
330
6F
100
AcDbEntity
  8
_1-2_極細2
  6
Continuous
 62
     2
100
AcDbCircle
 10
528.6223761901047
 20
196.3882151127564
 30
0.0
 40
0.8296296296296079
  0
CIRCLE
  5
C8
330
6F
100
AcDbEntity
  8
_1-2_極細2
  6
Continuous
 62
     2
100
AcDbCircle
 10
545.8964502641785
 20
178.7429306307184
 30
0.0
 40
0.8296296296296079
  0
CIRCLE
  5
C9
330
6F
100
AcDbEntity
  8
_1-2_極細2
  6
Continuous
 62
     2
100
AcDbCircle
 10
552.0297835975113
 20
216.2095972973847
 30
0.0
 40
0.8296296296296079
  0
LINE
  5
CA
330
6F
100
AcDbEntity
  8
_1-2_極細2
  6
Continuous
 62
     2
100
AcDbLine
 10
369.9877577356224
 20
233.2280927835054
 30
0.0
 11
369.9877577356224
 21
174.2795120987194
 31
0.0
  0
CIRCLE
  5
CB
330
6F
100
AcDbEntity
  8
_1-2_極細2
  6
Continuous
 62
     2
100
AcDbCircle
 10
360.0096207626219
 20
213.1896898899784
 30
0.0
 40
2.738297209022087
  0
LINE
  5
CC
330
6F
100
AcDbEntity
  8
_1-2_極細2
  6
Continuous
 62
     2
100
AcDbLine
 10
368.7377577356224
 20
233.2280927835054
 30
0.0
 11
369.9877577356224
 21
233.2280927835054
 31
0.0
  0
CIRCLE
  5
CD
330
6F
100
AcDbEntity
  8
_1-2_極細2
  6
Continuous
 62
     2
100
AcDbCircle
 10
361.3531392811395
 20
196.3882151127564
 30
0.0
 40
0.8296296296296079
  0
CIRCLE
  5
CE
330
6F
100
AcDbEntity
  8
_1-2_極細2
  6
Continuous
 62
     2
100
AcDbCircle
 10
344.0790652070656
 20
178.7429306307184
 30
0.0
 40
0.8296296296296079
  0
CIRCLE
  5
CF
330
6F
100
AcDbEntity
  8
_1-2_極細2
  6
Continuous
 62
     2
100
AcDbCircle
 10
337.9457318737323
 20
216.2095972973847
 30
0.0
 40
0.8296296296296079
  0
LINE
  5
D0
330
6F
100
AcDbEntity
  8
_1-2_極細2
  6
Continuous
 62
     2
100
AcDbLine
 10
609.031855529287
 20
273.2280927835054
 30
0.0
 11
610.6431627781321
 21
274.8394000323506
 31
0.0
  0
LINE
  5
D1
330
6F
100
AcDbEntity
  8
_1-2_極細2
  6
Continuous
 62
     2
100
AcDbLine
 10
577.2120503758926
 20
273.2280927835054
 30
0.0
 11
594.7120501824777
 21
290.7280925900902
 31
0.0
  0
LINE
  5
D2
330
6F
100
AcDbEntity
  8
_1-2_極細2
  6
DASHED2
 62
     2
100
AcDbLine
 10
593.1219529525896
 20
273.2280927835054
 30
0.0
 11
610.6219526347128
 21
290.7280924656289
 31
0.0
  0
LINE
  5
D3
330
6F
100
AcDbEntity
  8
_1-2_極細2
  6
DASHED2
 62
     2
100
AcDbLine
 10
569.9877577356216
 20
281.9137027199318
 30
0.0
 11
578.8021477302415
 21
290.7280927145515
 31
0.0
  0
LINE
  5
D4
330
6F
100
AcDbEntity
  8
_1-2_極細2
  6
Continuous
 62
     2
100
AcDbLine
 10
557.4877577356219
 20
273.2280927835054
 30
0.0
 11
610.6431627781321
 21
273.2280927835054
 31
0.0
  0
LINE
  5
D5
330
6F
100
AcDbEntity
  8
_1-2_極細2
  6
Continuous
 62
     2
100
AcDbLine
 10
569.9877577356224
 20
290.7280927835055
 30
0.0
 11
610.6431627781321
 21
290.7280927835055
 31
0.0
  0
LINE
  5
D6
330
6F
100
AcDbEntity
  8
_1-2_極細2
  6
Continuous
 62
     2
100
AcDbLine
 10
569.9877577356216
 20
278.7317222045925
 30
0.0
 11
564.4841283145345
 21
273.2280927835054
 31
0.0
  0
LINE
  5
D7
330
6F
100
AcDbEntity
  8
_1-2_極細2
  6
Continuous
 62
     2
100
AcDbLine
 10
569.9877577356216
 20
285.0956832352713
 30
0.0
 11
558.120167283856
 21
273.2280927835054
 31
0.0
  0
LINE
  5
D8
330
6F
100
AcDbEntity
  8
_1-2_極細2
  6
Continuous
 62
     2
100
AcDbLine
 10
557.4877577356219
 20
278.9596442659506
 30
0.0
 11
569.2562062531775
 21
290.7280927835055
 31
0.0
  0
LINE
  5
D9
330
6F
100
AcDbEntity
  8
_1-2_極細2
  6
Continuous
 62
     2
100
AcDbLine
 10
557.4877577356219
 20
285.3236052966295
 30
0.0
 11
562.8922452224977
 21
290.7280927835054
 31
0.0
  0
LINE
  5
DA
330
6F
100
AcDbEntity
  8
_1-2_極細2
  6
Continuous
 62
     2
100
AcDbLine
 10
569.9877577356224
 20
288.4641094692473
 30
0.0
 11
567.7237744213636
 21
290.7280927835055
 31
0.0
  0
LINE
  5
DB
330
6F
100
AcDbEntity
  8
_1-2_極細2
  6
Continuous
 62
     2
100
AcDbLine
 10
569.9877577356224
 20
282.1001484385684
 30
0.0
 11
561.3598133906853
 21
290.7280927835055
 31
0.0
  0
LINE
  5
DC
330
6F
100
AcDbEntity
  8
_1-2_極細2
  6
Continuous
 62
     2
100
AcDbLine
 10
569.9877577356224
 20
275.7361874078895
 30
0.0
 11
557.4877577356219
 21
288.2361874078894
 31
0.0
  0
LINE
  5
DD
330
6F
100
AcDbEntity
  8
_1-2_極細2
  6
Continuous
 62
     2
100
AcDbLine
 10
566.131891329327
 20
273.2280927835054
 30
0.0
 11
557.4877577356219
 21
281.8722263772106
 31
0.0
  0
LINE
  5
DE
330
6F
100
AcDbEntity
  8
_1-2_極細2
  6
Continuous
 62
     2
100
AcDbLine
 10
559.767930298648
 20
273.2280927835054
 30
0.0
 11
557.4877577356219
 21
275.5082653465316
 31
0.0
  0
LINE
  5
DF
330
6F
100
AcDbEntity
  8
_1-2_極細2
  6
Continuous
 62
     2
100
AcDbLine
 10
557.4877577356219
 20
289.4780927835054
 30
0.0
 11
557.4877577356219
 21
290.7280927835055
 31
0.0
  0
LINE
  5
E0
330
6F
100
AcDbEntity
  8
_1-2_極細2
  6
Continuous
 62
     2
100
AcDbLine
 10
557.4877577356219
 20
290.7280927835055
 30
0.0
 11
569.9877577356224
 21
290.7280927835055
 31
0.0
  0
LINE
  5
E1
330
6F
100
AcDbEntity
  8
_1-2_極細2
  6
Continuous
 62
     2
100
AcDbLine
 10
569.9877577356224
 20
290.7280927835055
 30
0.0
 11
569.9877577356224
 21
273.2280927835054
 31
0.0
  0
CIRCLE
  5
E2
330
6F
100
AcDbEntity
  8
_1-2_極細2
  6
Continuous
 62
     2
100
AcDbCircle
 10
587.4797835975104
 20
270.0262639640506
 30
0.0
 40
0.8296296296296079
  0
LINE
  5
E3
330
6F
100
AcDbEntity
  8
_1-2_極細2
  6
Continuous
 62
     2
100
AcDbLine
 10
293.3764504867767
 20
273.2280927835054
 30
0.0
 11
310.8764500444388
 21
290.7280923411674
 31
0.0
  0
LINE
  5
E4
330
6F
100
AcDbEntity
  8
_1-2_極細2
  6
Continuous
 62
     2
100
AcDbLine
 10
278.5627111177374
 20
290.2341585678607
 30
0.0
 11
279.056645139967
 21
290.7280925900902
 31
0.0
  0
LINE
  5
E5
330
6F
100
AcDbEntity
  8
_1-2_極細2
  6
DASHED2
 62
     2
100
AcDbLine
 10
309.2863530634739
 20
273.2280927835054
 30
0.0
 11
319.9877577356219
 21
283.9294974556531
 31
0.0
  0
LINE
  5
E6
330
6F
100
AcDbEntity
  8
_1-2_極細2
  6
DASHED2
 62
     2
100
AcDbLine
 10
278.5627111177374
 20
274.3242559911637
 30
0.0
 11
294.9665475922026
 21
290.7280924656289
 31
0.0
  0
LINE
  5
E7
330
6F
100
AcDbEntity
  8
_1-2_極細2
  6
Continuous
 62
     2
100
AcDbLine
 10
332.4877577356218
 20
273.2280927835054
 30
0.0
 11
278.5627111177374
 21
273.2280927835054
 31
0.0
  0
LINE
  5
E8
330
6F
100
AcDbEntity
  8
_1-2_極細2
  6
Continuous
 62
     2
100
AcDbLine
 10
319.9877577356219
 20
290.7280927835055
 30
0.0
 11
278.5627111177374
 21
290.7280927835055
 31
0.0
  0
LINE
  5
E9
330
6F
100
AcDbEntity
  8
_1-2_極細2
  6
Continuous
 62
     2
100
AcDbLine
 10
319.9877577356224
 20
278.7317222045925
 30
0.0
 11
325.4913871567091
 21
273.2280927835054
 31
0.0
  0
LINE
  5
EA
330
6F
100
AcDbEntity
  8
_1-2_極細2
  6
Continuous
 62
     2
100
AcDbLine
 10
319.9877577356224
 20
285.0956832352713
 30
0.0
 11
331.8553481873877
 21
273.2280927835054
 31
0.0
  0
LINE
  5
EB
330
6F
100
AcDbEntity
  8
_1-2_極細2
  6
Continuous
 62
     2
100
AcDbLine
 10
332.4877577356218
 20
278.9596442659506
 30
0.0
 11
320.7193092180668
 21
290.7280927835055
 31
0.0
  0
LINE
  5
EC
330
6F
100
AcDbEntity
  8
_1-2_極細2
  6
Continuous
 62
     2
100
AcDbLine
 10
332.4877577356218
 20
285.3236052966295
 30
0.0
 11
327.0832702487458
 21
290.7280927835054
 31
0.0
  0
LINE
  5
ED
330
6F
100
AcDbEntity
  8
_1-2_極細2
  6
Continuous
 62
     2
100
AcDbLine
 10
319.9877577356219
 20
288.4641094692473
 30
0.0
 11
322.2517410498804
 21
290.7280927835055
 31
0.0
  0
LINE
  5
EE
330
6F
100
AcDbEntity
  8
_1-2_極細2
  6
Continuous
 62
     2
100
AcDbLine
 10
319.9877577356219
 20
282.1001484385684
 30
0.0
 11
328.6157020805589
 21
290.7280927835055
 31
0.0
  0
LINE
  5
EF
330
6F
100
AcDbEntity
  8
_1-2_極細2
  6
Continuous
 62
     2
100
AcDbLine
 10
319.9877577356219
 20
275.7361874078895
 30
0.0
 11
332.4877577356218
 21
288.2361874078894
 31
0.0
  0
LINE
  5
F0
330
6F
100
AcDbEntity
  8
_1-2_極細2
  6
Continuous
 62
     2
100
AcDbLine
 10
323.8436241419171
 20
273.2280927835054
 30
0.0
 11
332.4877577356218
 21
281.8722263772106
 31
0.0
  0
LINE
  5
F1
330
6F
100
AcDbEntity
  8
_1-2_極細2
  6
Continuous
 62
     2
100
AcDbLine
 10
330.2075851725957
 20
273.2280927835054
 30
0.0
 11
332.4877577356218
 21
275.5082653465316
 31
0.0
  0
LINE
  5
F2
330
6F
100
AcDbEntity
  8
_1-2_極細2
  6
Continuous
 62
     2
100
AcDbLine
 10
332.4877577356218
 20
289.4780927835054
 30
0.0
 11
332.4877577356218
 21
290.7280927835055
 31
0.0
  0
LINE
  5
F3
330
6F
100
AcDbEntity
  8
_1-2_極細2
  6
Continuous
 62
     2
100
AcDbLine
 10
332.4877577356218
 20
290.7280927835055
 30
0.0
 11
319.9877577356219
 21
290.7280927835055
 31
0.0
  0
LINE
  5
F4
330
6F
100
AcDbEntity
  8
_1-2_極細2
  6
Continuous
 62
     2
100
AcDbLine
 10
319.9877577356219
 20
290.7280927835055
 30
0.0
 11
319.9877577356219
 21
273.2280927835054
 31
0.0
  0
CIRCLE
  5
F5
330
6F
100
AcDbEntity
  8
_1-2_極細2
  6
Continuous
 62
     2
100
AcDbCircle
 10
302.4957318737332
 20
270.0262639640506
 30
0.0
 40
0.8296296296296079
  0
CIRCLE
  5
F6
330
6F
100
AcDbEntity
  8
_1-2_極細2
  6
Continuous
 62
     2
100
AcDbCircle
 10
606.1750555235439
 20
173.770708407742
 30
0.0
 40
0.8296296296296079
  0
CIRCLE
  5
F7
330
6F
100
AcDbEntity
  8
_1-2_極細2
  6
Continuous
 62
     2
100
AcDbCircle
 10
544.9131169296335
 20
192.4033758055378
 30
0.0
 40
0.8296296296296079
  0
CIRCLE
  5
F8
330
6F
100
AcDbEntity
  8
_1-2_極細2
  6
Continuous
 62
     2
100
AcDbCircle
 10
597.4131169308443
 20
206.470708408496
 30
0.0
 40
0.8296296296296079
  0
CIRCLE
  5
F9
330
6F
100
AcDbEntity
  8
_1-2_極細2
  6
Continuous
 62
     2
100
AcDbCircle
 10
574.8214502641771
 20
204.5230232233109
 30
0.0
 40
2.738297209022087
  0
CIRCLE
  5
FA
330
6F
100
AcDbEntity
  8
_1-2_極細2
  6
Continuous
 62
     2
100
AcDbCircle
 10
570.8797835975105
 20
243.3480232233102
 30
0.0
 40
2.738297209022087
  0
CIRCLE
  5
FB
330
6F
100
AcDbEntity
  8
_1-2_極細2
  6
Continuous
 62
     2
100
AcDbCircle
 10
579.0797835975105
 20
210.8262639640513
 30
0.0
 40
0.8296296296296079
  0
CIRCLE
  5
FC
330
6F
100
AcDbEntity
  8
_1-2_極細2
  6
Continuous
 62
     2
100
AcDbCircle
 10
596.4797835975107
 20
231.8262639640511
 30
0.0
 40
0.8296296296296079
  0
CIRCLE
  5
FD
330
6F
100
AcDbEntity
  8
_1-2_極細2
  6
Continuous
 62
     2
100
AcDbCircle
 10
565.679783597511
 20
232.8929306307176
 30
0.0
 40
0.8296296296296079
  0
CIRCLE
  5
FE
330
6F
100
AcDbEntity
  8
_1-2_極細2
  6
Continuous
 62
     2
100
AcDbCircle
 10
569.4131169308441
 20
262.4929306307174
 30
0.0
 40
0.8296296296296079
  0
CIRCLE
  5
FF
330
6F
100
AcDbEntity
  8
_1-2_極細2
  6
Continuous
 62
     2
100
AcDbCircle
 10
283.8004599476997
 20
173.770708407742
 30
0.0
 40
0.8296296296296079
  0
CIRCLE
  5
100
330
6F
100
AcDbEntity
  8
_1-2_極細2
  6
Continuous
 62
     2
100
AcDbCircle
 10
345.06239854161
 20
192.4033758055378
 30
0.0
 40
0.8296296296296079
  0
CIRCLE
  5
101
330
6F
100
AcDbEntity
  8
_1-2_極細2
  6
Continuous
 62
     2
100
AcDbCircle
 10
292.5623985403993
 20
206.470708408496
 30
0.0
 40
0.8296296296296079
  0
CIRCLE
  5
102
330
6F
100
AcDbEntity
  8
_1-2_極細2
  6
Continuous
 62
     2
100
AcDbCircle
 10
315.1540652070665
 20
204.5230232233109
 30
0.0
 40
2.738297209022087
  0
CIRCLE
  5
103
330
6F
100
AcDbEntity
  8
_1-2_極細2
  6
Continuous
 62
     2
100
AcDbCircle
 10
319.0957318737336
 20
243.3480232233102
 30
0.0
 40
2.738297209022087
  0
CIRCLE
  5
104
330
6F
100
AcDbEntity
  8
_1-2_極細2
  6
Continuous
 62
     2
100
AcDbCircle
 10
310.895731873733
 20
210.8262639640513
 30
0.0
 40
0.8296296296296079
  0
CIRCLE
  5
105
330
6F
100
AcDbEntity
  8
_1-2_極細2
  6
Continuous
 62
     2
100
AcDbCircle
 10
293.4957318737335
 20
231.8262639640511
 30
0.0
 40
0.8296296296296079
  0
CIRCLE
  5
106
330
6F
100
AcDbEntity
  8
_1-2_極細2
  6
Continuous
 62
     2
100
AcDbCircle
 10
324.2957318737333
 20
232.8929306307176
 30
0.0
 40
0.8296296296296079
  0
CIRCLE
  5
107
330
6F
100
AcDbEntity
  8
_1-2_極細2
  6
Continuous
 62
     2
100
AcDbCircle
 10
320.5623985403999
 20
262.4929306307174
 30
0.0
 40
0.8296296296296079
  0
ARC
  5
108
330
6F
100
AcDbEntity
  8
_1-3_細線2
  6
Continuous
 62
     4
100
AcDbCircle
 10
549.9877577356219
 20
240.7280927835055
 30
0.0
 40
7.500000000000003
100
AcDbArc
 50
269.9999999999997
 51
359.9999999999997
  0
LINE
  5
109
330
6F
100
AcDbEntity
  8
_1-3_細線2
  6
Continuous
 62
     4
100
AcDbLine
 10
557.4877577356219
 20
240.7280927835055
 30
0.0
 11
557.4877577356219
 21
289.4780927835054
 31
0.0
  0
LINE
  5
10A
330
6F
100
AcDbEntity
  8
_1-3_細線2
  6
Continuous
 62
     4
100
AcDbLine
 10
549.9877577356219
 20
233.2280927835054
 30
0.0
 11
521.2377577356219
 21
233.2280927835054
 31
0.0
  0
LINE
  5
10B
330
6F
100
AcDbEntity
  8
_1-3_細線2
  6
Continuous
 62
     4
100
AcDbLine
 10
519.9877577356219
 20
234.4780927835055
 30
0.0
 11
521.2377577356219
 21
233.2280927835054
 31
0.0
  0
LINE
  5
10C
330
6F
100
AcDbEntity
  8
_1-3_細線2
  6
Continuous
 62
     4
100
AcDbLine
 10
519.9877577356219
 20
239.4780927835054
 30
0.0
 11
519.9877577356219
 21
234.4780927835055
 31
0.0
  0
LINE
  5
10D
330
6F
100
AcDbEntity
  8
_1-3_細線2
  6
Continuous
 62
     4
100
AcDbLine
 10
521.2377577356219
 20
240.7280927835055
 30
0.0
 11
519.9877577356219
 21
239.4780927835054
 31
0.0
  0
LINE
  5
10E
330
6F
100
AcDbEntity
  8
_1-3_細線2
  6
Continuous
 62
     4
100
AcDbLine
 10
549.9877577356219
 20
240.7280927835055
 30
0.0
 11
521.2377577356219
 21
240.7280927835055
 31
0.0
  0
LINE
  5
10F
330
6F
100
AcDbEntity
  8
_1-3_細線2
  6
Continuous
 62
     4
100
AcDbLine
 10
556.2377577356219
 20
290.7280927835054
 30
0.0
 11
557.4877577356219
 21
289.4780927835054
 31
0.0
  0
LINE
  5
110
330
6F
100
AcDbEntity
  8
_1-3_細線2
  6
Continuous
 62
     4
100
AcDbLine
 10
551.2377577356219
 20
290.7280927835054
 30
0.0
 11
556.2377577356219
 21
290.7280927835054
 31
0.0
  0
LINE
  5
111
330
6F
100
AcDbEntity
  8
_1-3_細線2
  6
Continuous
 62
     4
100
AcDbLine
 10
549.9877577356219
 20
289.4780927835054
 30
0.0
 11
551.2377577356219
 21
290.7280927835054
 31
0.0
  0
LINE
  5
112
330
6F
100
AcDbEntity
  8
_1-3_細線2
  6
Continuous
 62
     4
100
AcDbLine
 10
549.9877577356219
 20
240.7280927835055
 30
0.0
 11
549.9877577356219
 21
289.4780927835054
 31
0.0
  0
ARC
  5
113
330
6F
100
AcDbEntity
  8
_1-3_細線2
  6
Continuous
 62
     4
100
AcDbCircle
 10
339.9877585010008
 20
240.7280927835055
 30
0.0
 40
7.500000000000003
100
AcDbArc
 50
179.9999999999998
 51
269.9999999999997
  0
LINE
  5
114
330
6F
100
AcDbEntity
  8
_1-3_細線2
  6
Continuous
 62
     4
100
AcDbLine
 10
332.4877585010008
 20
240.7280927835055
 30
0.0
 11
332.4877585010008
 21
289.4780927835054
 31
0.0
  0
LINE
  5
115
330
6F
100
AcDbEntity
  8
_1-3_細線2
  6
Continuous
 62
     4
100
AcDbLine
 10
339.9877585010008
 20
233.2280927835054
 30
0.0
 11
368.7377585010008
 21
233.2280927835054
 31
0.0
  0
LINE
  5
116
330
6F
100
AcDbEntity
  8
_1-3_細線2
  6
Continuous
 62
     4
100
AcDbLine
 10
369.9877585010008
 20
234.4780927835055
 30
0.0
 11
368.7377585010008
 21
233.2280927835054
 31
0.0
  0
LINE
  5
117
330
6F
100
AcDbEntity
  8
_1-3_細線2
  6
Continuous
 62
     4
100
AcDbLine
 10
369.9877585010008
 20
239.4780927835054
 30
0.0
 11
369.9877585010008
 21
234.4780927835055
 31
0.0
  0
LINE
  5
118
330
6F
100
AcDbEntity
  8
_1-3_細線2
  6
Continuous
 62
     4
100
AcDbLine
 10
368.7377585010008
 20
240.7280927835055
 30
0.0
 11
369.9877585010008
 21
239.4780927835054
 31
0.0
  0
LINE
  5
119
330
6F
100
AcDbEntity
  8
_1-3_細線2
  6
Continuous
 62
     4
100
AcDbLine
 10
339.9877585010008
 20
240.7280927835055
 30
0.0
 11
368.7377585010008
 21
240.7280927835055
 31
0.0
  0
LINE
  5
11A
330
6F
100
AcDbEntity
  8
_1-3_細線2
  6
Continuous
 62
     4
100
AcDbLine
 10
333.7377585010008
 20
290.7280927835054
 30
0.0
 11
332.4877585010008
 21
289.4780927835054
 31
0.0
  0
LINE
  5
11B
330
6F
100
AcDbEntity
  8
_1-3_細線2
  6
Continuous
 62
     4
100
AcDbLine
 10
338.7377585010008
 20
290.7280927835054
 30
0.0
 11
333.7377585010008
 21
290.7280927835054
 31
0.0
  0
LINE
  5
11C
330
6F
100
AcDbEntity
  8
_1-3_細線2
  6
Continuous
 62
     4
100
AcDbLine
 10
339.9877585010008
 20
289.4780927835054
 30
0.0
 11
338.7377585010008
 21
290.7280927835054
 31
0.0
  0
LINE
  5
11D
330
6F
100
AcDbEntity
  8
_1-3_細線2
  6
Continuous
 62
     4
100
AcDbLine
 10
339.9877585010008
 20
240.7280927835055
 30
0.0
 11
339.9877585010008
 21
289.4780927835054
 31
0.0
  0
LINE
  5
11E
330
6F
100
AcDbEntity
  8
_1-5_寸法2
  6
Continuous
 62
     7
100
AcDbLine
 10
436.3275036977774
 20
295.7280927835057
 30
0.0
 11
381.450114089782
 21
327.4115684461066
 31
0.0
  0
LINE
  5
11F
330
6F
100
AcDbEntity
  8
_1-5_寸法2
  6
Continuous
 62
     7
100
AcDbLine
 10
385.7802411087042
 20
324.9115684461065
 30
0.0
 11
388.3684315597292
 21
315.2523101832159
 31
0.0
  0
LINE
  5
120
330
6F
100
AcDbEntity
  8
_1-5_寸法2
  6
Continuous
 62
     7
100
AcDbLine
 10
385.7802411087042
 20
324.9115684461065
 30
0.0
 11
383.1920506576789
 21
315.2523101832159
 31
0.0
  0
LINE
  5
121
330
6F
100
AcDbEntity
  8
_1-5_寸法2
  6
Continuous
 62
     7
100
AcDbLine
 10
436.3275036977774
 20
245.7280927835055
 30
0.0
 11
381.450114089782
 21
277.4115684461063
 31
0.0
  0
LINE
  5
122
330
6F
100
AcDbEntity
  8
_1-5_寸法2
  6
Continuous
 62
     7
100
AcDbLine
 10
385.7802411087042
 20
274.9115684461063
 30
0.0
 11
383.1920506576789
 21
284.5708267089969
 31
0.0
  0
LINE
  5
123
330
6F
100
AcDbEntity
  8
_1-5_寸法2
  6
Continuous
 62
     7
100
AcDbLine
 10
385.7802411087042
 20
274.9115684461063
 30
0.0
 11
388.3684315597292
 21
284.5708267089969
 31
0.0
  0
LINE
  5
124
330
6F
100
AcDbEntity
  8
_1-5_寸法2
  6
Continuous
 62
     7
100
AcDbLine
 10
385.7802411087042
 20
324.9115684461065
 30
0.0
 11
385.7802411087042
 21
274.9115684461063
 31
0.0
  0
TEXT
  5
125
330
6F
100
AcDbEntity
  8
_1-5_寸法2
 62
     7
100
AcDbText
 10
385.7802411087042
 20
292.4115684461064
 30
0.0
 40
15.0
  1
20
 50
90.0
 41
0.7
100
AcDbText
  0
LINE
  5
126
330
6F
100
AcDbEntity
  8
_1-5_寸法2
  6
Continuous
 62
     7
100
AcDbLine
 10
332.4877577356218
 20
300.7280927835055
 30
0.0
 11
332.4877577356218
 21
415.7280927835057
 31
0.0
  0
LINE
  5
127
330
6F
100
AcDbEntity
  8
_1-5_寸法2
  6
Continuous
 62
     7
100
AcDbLine
 10
332.4877577356218
 20
410.7280927835057
 30
0.0
 11
342.1470159985125
 21
413.3162832345308
 31
0.0
  0
LINE
  5
128
330
6F
100
AcDbEntity
  8
_1-5_寸法2
  6
Continuous
 62
     7
100
AcDbLine
 10
332.4877577356218
 20
410.7280927835057
 30
0.0
 11
342.1470159985125
 21
408.1399023324805
 31
0.0
  0
LINE
  5
129
330
6F
100
AcDbEntity
  8
_1-5_寸法2
  6
Continuous
 62
     7
100
AcDbLine
 10
557.4877577356219
 20
300.7280927835055
 30
0.0
 11
557.4877577356219
 21
415.7280927835057
 31
0.0
  0
LINE
  5
12A
330
6F
100
AcDbEntity
  8
_1-5_寸法2
  6
Continuous
 62
     7
100
AcDbLine
 10
557.4877577356219
 20
410.7280927835057
 30
0.0
 11
547.828499472731
 21
408.1399023324805
 31
0.0
  0
LINE
  5
12B
330
6F
100
AcDbEntity
  8
_1-5_寸法2
  6
Continuous
 62
     7
100
AcDbLine
 10
557.4877577356219
 20
410.7280927835057
 30
0.0
 11
547.828499472731
 21
413.3162832345308
 31
0.0
  0
LINE
  5
12C
330
6F
100
AcDbEntity
  8
_1-5_寸法2
  6
Continuous
 62
     7
100
AcDbLine
 10
332.4877577356218
 20
410.7280927835057
 30
0.0
 11
557.4877577356219
 21
410.7280927835057
 31
0.0
  0
TEXT
  5
12D
330
6F
100
AcDbEntity
  8
_1-5_寸法2
 62
     7
100
AcDbText
 10
437.4877577356218
 20
410.7280927835057
 30
0.0
 40
15.0
  1
90
 41
0.7
100
AcDbText
  0
LINE
  5
12E
330
6F
100
AcDbEntity
  8
_1-5_寸法2
  6
Continuous
 62
     7
100
AcDbLine
 10
474.237757739285
 20
300.7280927835054
 30
0.0
 11
474.237757739285
 21
345.7280927835057
 31
0.0
  0
LINE
  5
12F
330
6F
100
AcDbEntity
  8
_1-5_寸法2
  6
Continuous
 62
     7
100
AcDbLine
 10
474.237757739285
 20
340.7280927835056
 30
0.0
 11
483.8970160021755
 21
343.3162832345309
 31
0.0
  0
LINE
  5
130
330
6F
100
AcDbEntity
  8
_1-5_寸法2
  6
Continuous
 62
     7
100
AcDbLine
 10
474.237757739285
 20
340.7280927835056
 30
0.0
 11
483.8970160021755
 21
338.1399023324805
 31
0.0
  0
LINE
  5
131
330
6F
100
AcDbEntity
  8
_1-5_寸法2
  6
Continuous
 62
     7
100
AcDbLine
 10
502.7377577337674
 20
300.7280927835054
 30
0.0
 11
502.7377577337674
 21
345.7280927835057
 31
0.0
  0
LINE
  5
132
330
6F
100
AcDbEntity
  8
_1-5_寸法2
  6
Continuous
 62
     7
100
AcDbLine
 10
502.7377577337674
 20
340.7280927835056
 30
0.0
 11
493.0784994708767
 21
338.1399023324805
 31
0.0
  0
LINE
  5
133
330
6F
100
AcDbEntity
  8
_1-5_寸法2
  6
Continuous
 62
     7
100
AcDbLine
 10
502.7377577337674
 20
340.7280927835056
 30
0.0
 11
493.0784994708768
 21
343.3162832345309
 31
0.0
  0
LINE
  5
134
330
6F
100
AcDbEntity
  8
_1-5_寸法2
  6
Continuous
 62
     7
100
AcDbLine
 10
474.237757739285
 20
340.7280927835056
 30
0.0
 11
502.7377577337674
 21
340.7280927835056
 31
0.0
  0
TEXT
  5
135
330
6F
100
AcDbEntity
  8
_1-5_寸法2
 62
     7
100
AcDbText
 10
473.4877577365264
 20
340.7280927835056
 30
0.0
 40
15.0
  1
11.4
 41
0.7
100
AcDbText
  0
LINE
  5
136
330
6F
100
AcDbEntity
  8
_1-5_寸法2
  6
Continuous
 62
     7
100
AcDbLine
 10
502.7377577337674
 20
340.7280927835056
 30
0.0
 11
512.3970159966581
 21
343.3162832345308
 31
0.0
  0
LINE
  5
137
330
6F
100
AcDbEntity
  8
_1-5_寸法2
  6
Continuous
 62
     7
100
AcDbLine
 10
502.7377577337674
 20
340.7280927835056
 30
0.0
 11
512.3970159966581
 21
338.1399023324805
 31
0.0
  0
LINE
  5
138
330
6F
100
AcDbEntity
  8
_1-5_寸法2
  6
Continuous
 62
     7
100
AcDbLine
 10
517.7377577401896
 20
300.7280927835054
 30
0.0
 11
517.7377577401896
 21
345.7280927835057
 31
0.0
  0
LINE
  5
139
330
6F
100
AcDbEntity
  8
_1-5_寸法2
  6
Continuous
 62
     7
100
AcDbLine
 10
517.7377577401896
 20
340.7280927835056
 30
0.0
 11
508.0784994772988
 21
338.1399023324805
 31
0.0
  0
LINE
  5
13A
330
6F
100
AcDbEntity
  8
_1-5_寸法2
  6
Continuous
 62
     7
100
AcDbLine
 10
517.7377577401896
 20
340.7280927835056
 30
0.0
 11
508.0784994772988
 21
343.3162832345309
 31
0.0
  0
LINE
  5
13B
330
6F
100
AcDbEntity
  8
_1-5_寸法2
  6
Continuous
 62
     7
100
AcDbLine
 10
502.7377577337674
 20
340.7280927835056
 30
0.0
 11
517.7377577401896
 21
340.7280927835056
 31
0.0
  0
TEXT
  5
13C
330
6F
100
AcDbEntity
  8
_1-5_寸法2
 62
     7
100
AcDbText
 10
506.2907800359901
 20
325.7280927835056
 30
0.0
 40
15.0
  1
6
 41
0.7
100
AcDbText
  0
LINE
  5
13D
330
6F
100
AcDbEntity
  8
_1-5_寸法2
  6
Continuous
 62
     7
100
AcDbLine
 10
332.4877577356212
 20
183.2280927835054
 30
0.0
 11
342.1470159985119
 21
185.8162832345306
 31
0.0
  0
LINE
  5
13E
330
6F
100
AcDbEntity
  8
_1-5_寸法2
  6
Continuous
 62
     7
100
AcDbLine
 10
332.4877577356212
 20
183.2280927835054
 30
0.0
 11
342.1470159985119
 21
180.6399023324802
 31
0.0
  0
LINE
  5
13F
330
6F
100
AcDbEntity
  8
_1-5_寸法2
  6
Continuous
 62
     7
100
AcDbLine
 10
369.9877577356224
 20
188.8383141505611
 30
0.0
 11
369.9877577356224
 21
178.2280927835055
 31
0.0
  0
LINE
  5
140
330
6F
100
AcDbEntity
  8
_1-5_寸法2
  6
Continuous
 62
     7
100
AcDbLine
 10
369.9877577356224
 20
183.2280927835054
 30
0.0
 11
360.3284994727317
 21
180.6399023324802
 31
0.0
  0
LINE
  5
141
330
6F
100
AcDbEntity
  8
_1-5_寸法2
  6
Continuous
 62
     7
100
AcDbLine
 10
369.9877577356224
 20
183.2280927835054
 30
0.0
 11
360.3284994727317
 21
185.8162832345306
 31
0.0
  0
LINE
  5
142
330
6F
100
AcDbEntity
  8
_1-5_寸法2
  6
Continuous
 62
     7
100
AcDbLine
 10
332.4877577356212
 20
183.2280927835054
 30
0.0
 11
369.9877577356224
 21
183.2280927835054
 31
0.0
  0
TEXT
  5
143
330
6F
100
AcDbEntity
  8
_1-5_寸法2
 62
     7
100
AcDbText
 10
343.7377577356218
 20
183.2280927835054
 30
0.0
 40
15.0
  1
15
 41
0.7
100
AcDbText
  0
LINE
  5
144
330
6F
100
AcDbEntity
  8
_1-5_寸法2
  6
Continuous
 62
     7
100
AcDbLine
 10
369.9877577356224
 20
183.2280927835054
 30
0.0
 11
379.6470159985131
 21
185.8162832345306
 31
0.0
  0
LINE
  5
145
330
6F
100
AcDbEntity
  8
_1-5_寸法2
  6
Continuous
 62
     7
100
AcDbLine
 10
369.9877577356224
 20
183.2280927835054
 30
0.0
 11
379.6470159985129
 21
180.6399023324802
 31
0.0
  0
LINE
  5
146
330
6F
100
AcDbEntity
  8
_1-5_寸法2
  6
Continuous
 62
     7
100
AcDbLine
 10
519.9877577356212
 20
188.8383141505611
 30
0.0
 11
519.9877577356212
 21
178.2280927835055
 31
0.0
  0
LINE
  5
147
330
6F
100
AcDbEntity
  8
_1-5_寸法2
  6
Continuous
 62
     7
100
AcDbLine
 10
519.9877577356212
 20
183.2280927835054
 30
0.0
 11
510.3284994727306
 21
180.6399023324802
 31
0.0
  0
LINE
  5
148
330
6F
100
AcDbEntity
  8
_1-5_寸法2
  6
Continuous
 62
     7
100
AcDbLine
 10
519.9877577356212
 20
183.2280927835054
 30
0.0
 11
510.3284994727306
 21
185.8162832345306
 31
0.0
  0
LINE
  5
149
330
6F
100
AcDbEntity
  8
_1-5_寸法2
  6
Continuous
 62
     7
100
AcDbLine
 10
369.9877577356224
 20
183.2280927835054
 30
0.0
 11
519.9877577356212
 21
183.2280927835054
 31
0.0
  0
TEXT
  5
14A
330
6F
100
AcDbEntity
  8
_1-5_寸法2
 62
     7
100
AcDbText
 10
437.4877577356218
 20
183.2280927835054
 30
0.0
 40
15.0
  1
60
 41
0.7
100
AcDbText
  0
LINE
  5
14B
330
6F
100
AcDbEntity
  8
_1-5_寸法2
  6
Continuous
 62
     7
100
AcDbLine
 10
519.9877577356212
 20
183.2280927835054
 30
0.0
 11
529.6470159985119
 21
185.8162832345306
 31
0.0
  0
LINE
  5
14C
330
6F
100
AcDbEntity
  8
_1-5_寸法2
  6
Continuous
 62
     7
100
AcDbLine
 10
519.9877577356212
 20
183.2280927835054
 30
0.0
 11
529.6470159985119
 21
180.6399023324802
 31
0.0
  0
LINE
  5
14D
330
6F
100
AcDbEntity
  8
_1-5_寸法2
  6
Continuous
 62
     7
100
AcDbLine
 10
557.4877577356224
 20
183.2280927835054
 30
0.0
 11
547.8284994727316
 21
180.6399023324802
 31
0.0
  0
LINE
  5
14E
330
6F
100
AcDbEntity
  8
_1-5_寸法2
  6
Continuous
 62
     7
100
AcDbLine
 10
557.4877577356224
 20
183.2280927835054
 30
0.0
 11
547.8284994727316
 21
185.8162832345306
 31
0.0
  0
LINE
  5
14F
330
6F
100
AcDbEntity
  8
_1-5_寸法2
  6
Continuous
 62
     7
100
AcDbLine
 10
519.9877577356212
 20
183.2280927835054
 30
0.0
 11
557.4877577356224
 21
183.2280927835054
 31
0.0
  0
TEXT
  5
150
330
6F
100
AcDbEntity
  8
_1-5_寸法2
 62
     7
100
AcDbText
 10
531.2377577356219
 20
183.2280927835054
 30
0.0
 40
15.0
  1
15
 41
0.7
100
AcDbText
  0
TEXT
  5
151
330
6F
100
AcDbEntity
  8
_0-7_枠細線
 62
     5
100
AcDbText
 10
388.6118037771473
 20
121.3043250714411
 30
0.0
 40
25.0
  1
断面詳細図
 41
0.8
100
AcDbText
  0
TEXT
  5
152
330
6F
100
AcDbEntity
  8
_0-7_枠細線
 62
     5
100
AcDbText
 10
518.4552319538336
 20
122.8200657300684
 30
0.0
 40
20.0
  1
Ｓ＝１：２
 41
0.5999999999999998
100
AcDbText
  0
TEXT
  5
153
330
6F
100
AcDbEntity
  8
_0-7_枠細線
 62
     5
100
AcDbText
 10
1255.0
 20
94.99999999999994
 30
0.0
 40
20.0
  1
大野
100
AcDbText
  0
TEXT
  5
154
330
6F
100
AcDbEntity
  8
_0-7_枠細線
 62
     5
100
AcDbText
 10
1375.0
 20
94.99999999999994
 30
0.0
 40
20.0
  1
久野
100
AcDbText
  0
ARC
  5
155
330
6F
100
AcDbEntity
  8
_1-3_細線2
  6
Continuous
 62
     4
100
AcDbCircle
 10
388.487757737478
 20
282.2280927835061
 30
0.0
 40
1.249999999999999
100
AcDbArc
 50
179.9999999999998
 51
269.9999999999997
  0
LINE
  5
156
330
6F
100
AcDbEntity
  8
_1-3_細線2
  6
Continuous
 62
     4
100
AcDbLine
 10
387.2377577374773
 20
285.7280927835054
 30
0.0
 11
387.2377577374773
 21
282.2280927835061
 31
0.0
  0
ARC
  5
157
330
6F
100
AcDbEntity
  8
_1-3_細線2
  6
Continuous
 62
     4
100
AcDbCircle
 10
414.4877577319591
 20
282.2280927835061
 30
0.0
 40
1.249999999999999
100
AcDbArc
 50
269.9999999999997
 51
359.9999999999997
  0
LINE
  5
158
330
6F
100
AcDbEntity
  8
_1-3_細線2
  6
Continuous
 62
     4
100
AcDbLine
 10
415.7377577319588
 20
285.7280927835054
 30
0.0
 11
415.7377577319588
 21
282.2280927835061
 31
0.0
  0
ARC
  5
159
330
6F
100
AcDbEntity
  8
_1-3_細線2
  6
Continuous
 62
     4
100
AcDbCircle
 10
394.7377577374772
 20
278.4780927835061
 30
0.0
 40
2.5
100
AcDbArc
 50
0.0
 51
89.99999999999991
  0
LINE
  5
15A
330
6F
100
AcDbEntity
  8
_1-3_細線2
  6
Continuous
 62
     4
100
AcDbLine
 10
394.7377577374772
 20
280.9780927835059
 30
0.0
 11
388.487757737478
 21
280.9780927835059
 31
0.0
  0
ARC
  5
15B
330
6F
100
AcDbEntity
  8
_1-3_細線2
  6
Continuous
 62
     4
100
AcDbCircle
 10
408.2377577374771
 20
278.4780927835061
 30
0.0
 40
2.5
100
AcDbArc
 50
89.99999999999991
 51
179.9999999999998
  0
LINE
  5
15C
330
6F
100
AcDbEntity
  8
_1-3_細線2
  6
Continuous
 62
     4
100
AcDbLine
 10
408.2377577319588
 20
280.9780927835059
 30
0.0
 11
414.4877577319591
 21
280.9780927835059
 31
0.0
  0
LINE
  5
15D
330
6F
100
AcDbEntity
  8
_1-3_細線2
  6
Continuous
 62
     4
100
AcDbLine
 10
407.7377577347176
 20
290.7280927835055
 30
0.0
 11
395.2377577347181
 21
290.7280927835055
 31
0.0
  0
LINE
  5
15E
330
6F
100
AcDbEntity
  8
_1-3_細線2
  6
Continuous
 62
     4
100
AcDbLine
 10
397.2377577347177
 20
240.7280927835055
 30
0.0
 11
397.2377577374772
 21
278.4780927835061
 31
0.0
  0
LINE
  5
15F
330
6F
100
AcDbEntity
  8
_1-3_細線2
  6
Continuous
 62
     4
100
AcDbLine
 10
405.7377577347183
 20
240.7280927835055
 30
0.0
 11
405.737757737478
 21
278.4780927835061
 31
0.0
  0
LINE
  5
160
330
6F
100
AcDbEntity
  8
_1-3_細線2
  6
Continuous
 62
     4
100
AcDbLine
 10
405.7377577347183
 20
240.7280927835055
 30
0.0
 11
397.2377577347177
 21
240.7280927835055
 31
0.0
  0
LINE
  5
161
330
6F
100
AcDbEntity
  8
_1-3_細線2
  6
Continuous
 62
     4
100
AcDbLine
 10
407.7377577347181
 20
290.7280927835055
 30
0.0
 11
414.8606014734957
 21
288.5022041143699
 31
0.0
  0
LINE
  5
162
330
6F
100
AcDbEntity
  8
_1-3_細線2
  6
Continuous
 62
     4
100
AcDbLine
 10
415.7377577319588
 20
285.7280927835054
 30
0.0
 11
415.7377577319588
 21
287.3091041418629
 31
0.0
  0
ARC
  5
163
330
6F
100
AcDbEntity
  8
_1-3_細線2
  6
Continuous
 62
     4
100
AcDbCircle
 10
414.4877577319588
 20
287.3091041418626
 30
0.0
 40
1.249999999999999
100
AcDbArc
 50
0.000000000015633
 51
72.64597535811827
  0
LINE
  5
164
330
6F
100
AcDbEntity
  8
_1-3_細線2
  6
Continuous
 62
     4
100
AcDbLine
 10
395.2377577347176
 20
290.7280927835055
 30
0.0
 11
388.1149139959405
 21
288.5022041143702
 31
0.0
  0
LINE
  5
165
330
6F
100
AcDbEntity
  8
_1-3_細線2
  6
Continuous
 62
     4
100
AcDbLine
 10
387.2377577374773
 20
285.7280927835054
 30
0.0
 11
387.2377577374773
 21
287.3091041418625
 31
0.0
  0
ARC
  5
166
330
6F
100
AcDbEntity
  8
_1-3_細線2
  6
Continuous
 62
     4
100
AcDbCircle
 10
388.4877577374772
 20
287.3091041418626
 30
0.0
 40
1.249999999999999
100
AcDbArc
 50
107.3540246418621
 51
180.0000000000049
  0
ARC
  5
167
330
6F
100
AcDbEntity
  8
_1-3_細線2
  6
Continuous
 62
     4
100
AcDbCircle
 10
431.9877577383826
 20
282.2280927835061
 30
0.0
 40
1.249999999999999
100
AcDbArc
 50
179.9999999999998
 51
269.9999999999997
  0
LINE
  5
168
330
6F
100
AcDbEntity
  8
_1-3_細線2
  6
Continuous
 62
     4
100
AcDbLine
 10
430.7377577383816
 20
285.7280927835054
 30
0.0
 11
430.7377577383816
 21
282.2280927835061
 31
0.0
  0
ARC
  5
169
330
6F
100
AcDbEntity
  8
_1-3_細線2
  6
Continuous
 62
     4
100
AcDbCircle
 10
457.9877577328636
 20
282.2280927835061
 30
0.0
 40
1.249999999999999
100
AcDbArc
 50
269.9999999999997
 51
359.9999999999997
  0
LINE
  5
16A
330
6F
100
AcDbEntity
  8
_1-3_細線2
  6
Continuous
 62
     4
100
AcDbLine
 10
459.2377577328632
 20
285.7280927835054
 30
0.0
 11
459.2377577328632
 21
282.2280927835061
 31
0.0
  0
ARC
  5
16B
330
6F
100
AcDbEntity
  8
_1-3_細線2
  6
Continuous
 62
     4
100
AcDbCircle
 10
438.2377577383817
 20
278.4780927835061
 30
0.0
 40
2.5
100
AcDbArc
 50
0.0
 51
89.99999999999991
  0
LINE
  5
16C
330
6F
100
AcDbEntity
  8
_1-3_細線2
  6
Continuous
 62
     4
100
AcDbLine
 10
438.2377577383817
 20
280.9780927835059
 30
0.0
 11
431.9877577383826
 21
280.9780927835059
 31
0.0
  0
ARC
  5
16D
330
6F
100
AcDbEntity
  8
_1-3_細線2
  6
Continuous
 62
     4
100
AcDbCircle
 10
451.7377577383816
 20
278.4780927835061
 30
0.0
 40
2.5
100
AcDbArc
 50
89.99999999999991
 51
179.9999999999998
  0
LINE
  5
16E
330
6F
100
AcDbEntity
  8
_1-3_細線2
  6
Continuous
 62
     4
100
AcDbLine
 10
451.7377577328632
 20
280.9780927835059
 30
0.0
 11
457.9877577328636
 21
280.9780927835059
 31
0.0
  0
LINE
  5
16F
330
6F
100
AcDbEntity
  8
_1-3_細線2
  6
Continuous
 62
     4
100
AcDbLine
 10
451.2377577356221
 20
290.7280927835055
 30
0.0
 11
438.7377577356227
 21
290.7280927835055
 31
0.0
  0
LINE
  5
170
330
6F
100
AcDbEntity
  8
_1-3_細線2
  6
Continuous
 62
     4
100
AcDbLine
 10
440.7377577356223
 20
240.7280927835055
 30
0.0
 11
440.7377577383817
 21
278.4780927835061
 31
0.0
  0
LINE
  5
171
330
6F
100
AcDbEntity
  8
_1-3_細線2
  6
Continuous
 62
     4
100
AcDbLine
 10
449.2377577356228
 20
240.7280927835055
 30
0.0
 11
449.2377577383826
 21
278.4780927835061
 31
0.0
  0
LINE
  5
172
330
6F
100
AcDbEntity
  8
_1-3_細線2
  6
Continuous
 62
     4
100
AcDbLine
 10
449.2377577356228
 20
240.7280927835055
 30
0.0
 11
440.7377577356223
 21
240.7280927835055
 31
0.0
  0
LINE
  5
173
330
6F
100
AcDbEntity
  8
_1-3_細線2
  6
Continuous
 62
     4
100
AcDbLine
 10
451.2377577356227
 20
290.7280927835055
 30
0.0
 11
458.3606014744004
 21
288.5022041143699
 31
0.0
  0
LINE
  5
174
330
6F
100
AcDbEntity
  8
_1-3_細線2
  6
Continuous
 62
     4
100
AcDbLine
 10
459.2377577328632
 20
285.7280927835054
 30
0.0
 11
459.2377577328632
 21
287.3091041418629
 31
0.0
  0
ARC
  5
175
330
6F
100
AcDbEntity
  8
_1-3_細線2
  6
Continuous
 62
     4
100
AcDbCircle
 10
457.9877577328633
 20
287.3091041418626
 30
0.0
 40
1.249999999999999
100
AcDbArc
 50
0.000000000015633
 51
72.64597535811827
  0
LINE
  5
176
330
6F
100
AcDbEntity
  8
_1-3_細線2
  6
Continuous
 62
     4
100
AcDbLine
 10
438.7377577356221
 20
290.7280927835055
 30
0.0
 11
431.6149139968451
 21
288.5022041143702
 31
0.0
  0
LINE
  5
177
330
6F
100
AcDbEntity
  8
_1-3_細線2
  6
Continuous
 62
     4
100
AcDbLine
 10
430.7377577383816
 20
285.7280927835054
 30
0.0
 11
430.7377577383816
 21
287.3091041418625
 31
0.0
  0
ARC
  5
178
330
6F
100
AcDbEntity
  8
_1-3_細線2
  6
Continuous
 62
     4
100
AcDbCircle
 10
431.9877577383817
 20
287.3091041418626
 30
0.0
 40
1.249999999999999
100
AcDbArc
 50
107.3540246418621
 51
180.0000000000049
  0
ARC
  5
179
330
6F
100
AcDbEntity
  8
_1-3_細線2
  6
Continuous
 62
     4
100
AcDbCircle
 10
475.4877577392865
 20
282.2280927835061
 30
0.0
 40
1.249999999999999
100
AcDbArc
 50
179.9999999999998
 51
269.9999999999997
  0
LINE
  5
17A
330
6F
100
AcDbEntity
  8
_1-3_細線2
  6
Continuous
 62
     4
100
AcDbLine
 10
474.2377577392857
 20
285.7280927835054
 30
0.0
 11
474.2377577392857
 21
282.2280927835061
 31
0.0
  0
ARC
  5
17B
330
6F
100
AcDbEntity
  8
_1-3_細線2
  6
Continuous
 62
     4
100
AcDbCircle
 10
501.4877577337677
 20
282.2280927835061
 30
0.0
 40
1.249999999999999
100
AcDbArc
 50
269.9999999999997
 51
359.9999999999997
  0
LINE
  5
17C
330
6F
100
AcDbEntity
  8
_1-3_細線2
  6
Continuous
 62
     4
100
AcDbLine
 10
502.7377577337674
 20
285.7280927835054
 30
0.0
 11
502.7377577337674
 21
282.2280927835061
 31
0.0
  0
ARC
  5
17D
330
6F
100
AcDbEntity
  8
_1-3_細線2
  6
Continuous
 62
     4
100
AcDbCircle
 10
481.7377577392857
 20
278.4780927835061
 30
0.0
 40
2.5
100
AcDbArc
 50
0.0
 51
89.99999999999991
  0
LINE
  5
17E
330
6F
100
AcDbEntity
  8
_1-3_細線2
  6
Continuous
 62
     4
100
AcDbLine
 10
481.7377577392857
 20
280.9780927835059
 30
0.0
 11
475.4877577392865
 21
280.9780927835059
 31
0.0
  0
ARC
  5
17F
330
6F
100
AcDbEntity
  8
_1-3_細線2
  6
Continuous
 62
     4
100
AcDbCircle
 10
495.2377577392856
 20
278.4780927835061
 30
0.0
 40
2.5
100
AcDbArc
 50
89.99999999999991
 51
179.9999999999998
  0
LINE
  5
180
330
6F
100
AcDbEntity
  8
_1-3_細線2
  6
Continuous
 62
     4
100
AcDbLine
 10
495.2377577337673
 20
280.9780927835059
 30
0.0
 11
501.4877577337677
 21
280.9780927835059
 31
0.0
  0
LINE
  5
181
330
6F
100
AcDbEntity
  8
_1-3_細線2
  6
Continuous
 62
     4
100
AcDbLine
 10
494.7377577365259
 20
290.7280927835055
 30
0.0
 11
482.2377577365267
 21
290.7280927835055
 31
0.0
  0
LINE
  5
182
330
6F
100
AcDbEntity
  8
_1-3_細線2
  6
Continuous
 62
     4
100
AcDbLine
 10
484.2377577365263
 20
240.7280927835055
 30
0.0
 11
484.2377577392857
 21
278.4780927835061
 31
0.0
  0
LINE
  5
183
330
6F
100
AcDbEntity
  8
_1-3_細線2
  6
Continuous
 62
     4
100
AcDbLine
 10
492.7377577365269
 20
240.7280927835055
 30
0.0
 11
492.7377577392865
 21
278.4780927835061
 31
0.0
  0
LINE
  5
184
330
6F
100
AcDbEntity
  8
_1-3_細線2
  6
Continuous
 62
     4
100
AcDbLine
 10
492.7377577365269
 20
240.7280927835055
 30
0.0
 11
484.2377577365263
 21
240.7280927835055
 31
0.0
  0
LINE
  5
185
330
6F
100
AcDbEntity
  8
_1-3_細線2
  6
Continuous
 62
     4
100
AcDbLine
 10
494.7377577365267
 20
290.7280927835055
 30
0.0
 11
501.8606014753044
 21
288.5022041143699
 31
0.0
  0
LINE
  5
186
330
6F
100
AcDbEntity
  8
_1-3_細線2
  6
Continuous
 62
     4
100
AcDbLine
 10
502.7377577337674
 20
285.7280927835054
 30
0.0
 11
502.7377577337674
 21
287.3091041418629
 31
0.0
  0
ARC
  5
187
330
6F
100
AcDbEntity
  8
_1-3_細線2
  6
Continuous
 62
     4
100
AcDbCircle
 10
501.4877577337673
 20
287.3091041418626
 30
0.0
 40
1.249999999999999
100
AcDbArc
 50
0.000000000015633
 51
72.64597535811827
  0
LINE
  5
188
330
6F
100
AcDbEntity
  8
_1-3_細線2
  6
Continuous
 62
     4
100
AcDbLine
 10
482.2377577365261
 20
290.7280927835055
 30
0.0
 11
475.1149139977491
 21
288.5022041143702
 31
0.0
  0
LINE
  5
189
330
6F
100
AcDbEntity
  8
_1-3_細線2
  6
Continuous
 62
     4
100
AcDbLine
 10
474.2377577392857
 20
285.7280927835054
 30
0.0
 11
474.2377577392857
 21
287.3091041418625
 31
0.0
  0
ARC
  5
18A
330
6F
100
AcDbEntity
  8
_1-3_細線2
  6
Continuous
 62
     4
100
AcDbCircle
 10
475.4877577392857
 20
287.3091041418626
 30
0.0
 40
1.249999999999999
100
AcDbArc
 50
107.3540246418621
 51
180.0000000000049
  0
TEXT
  5
18B
330
6F
100
AcDbEntity
  8
_0-7_枠細線
 62
     5
100
AcDbText
 10
1315.0
 20
94.99999999999994
 30
0.0
 40
20.0
  1
中村
100
AcDbText
  0
TEXT
  5
18C
330
6F
100
AcDbEntity
  8
_0-7_枠細線
 62
     5
100
AcDbText
 10
1310.0
 20
67.49999999999992
 30
0.0
 40
15.00000000000001
  1
２０１９年０９月０１日
 41
0.5600000000000001
100
AcDbText
  0
LINE
  5
18D
330
6F
100
AcDbEntity
  8
_0-7_枠細線
  6
Continuous
 62
     5
100
AcDbLine
 10
672.5910232266169
 20
150.4472693032018
 30
0.0
 11
672.5910232266169
 21
230.4472693032018
 31
0.0
  0
TEXT
  5
18E
330
6F
100
AcDbEntity
  8
_0-7_枠細線
 62
     5
100
AcDbText
 10
692.3815006229395
 20
207.9472693032018
 30
0.0
 40
15.0
  1
耐荷重
100
AcDbText
  0
TEXT
  5
18F
330
6F
100
AcDbEntity
  8
_0-7_枠細線
 62
     5
100
AcDbText
 10
675.6722880825464
 20
157.9472693032018
 30
0.0
 40
15.0
  1
（歩道用）
100
AcDbText
  0
LINE
  5
190
330
6F
100
AcDbEntity
  8
_0-7_枠細線
  6
Continuous
 62
     5
100
AcDbLine
 10
762.5910232266169
 20
150.4472693032018
 30
0.0
 11
762.5910232266169
 21
230.4472693032018
 31
0.0
  0
LINE
  5
191
330
6F
100
AcDbEntity
  8
_0-7_枠細線
  6
Continuous
 62
     5
100
AcDbLine
 10
672.5910232266169
 20
230.4472693032018
 30
0.0
 11
762.5910232266169
 21
230.4472693032018
 31
0.0
  0
LINE
  5
192
330
6F
100
AcDbEntity
  8
_0-7_枠細線
  6
Continuous
 62
     5
100
AcDbLine
 10
672.5910232266169
 20
200.4472693032018
 30
0.0
 11
762.5910232266169
 21
200.4472693032018
 31
0.0
  0
LINE
  5
193
330
6F
100
AcDbEntity
  8
_0-7_枠細線
  6
Continuous
 62
     5
100
AcDbLine
 10
672.5910232266169
 20
150.4472693032018
 30
0.0
 11
762.5910232266169
 21
150.4472693032018
 31
0.0
  0
LINE
  5
194
330
6F
100
AcDbEntity
  8
_1-2_極細2
  6
Continuous
 62
     2
100
AcDbLine
 10
332.4877577356212
 20
263.2280927835054
 30
0.0
 11
332.4877577356212
 21
175.7280927835056
 31
0.0
  0
LINE
  5
195
330
6F
100
AcDbEntity
  8
_1-2_極細2
  6
Continuous
 62
     2
100
AcDbLine
 10
332.4877577356212
 20
175.7280927835056
 30
0.0
 11
326.7377577356212
 21
175.7280927835056
 31
0.0
  0
LINE
  5
196
330
6F
100
AcDbEntity
  8
_1-2_極細2
  6
Continuous
 62
     2
100
AcDbLine
 10
326.7377577356212
 20
175.7280927835056
 30
0.0
 11
326.7377577356212
 21
263.2280927835054
 31
0.0
  0
LINE
  5
197
330
6F
100
AcDbEntity
  8
_1-2_極細2
  6
Continuous
 62
     2
100
AcDbLine
 10
326.7377577356212
 20
263.2280927835054
 30
0.0
 11
332.4877577356212
 21
263.2280927835054
 31
0.0
  0
LINE
  5
198
330
6F
100
AcDbEntity
  8
_1-2_極細2
  6
Continuous
 62
     2
100
AcDbLine
 10
326.7377577356212
 20
223.2280927835056
 30
0.0
 11
332.4877577356212
 21
223.2280927835056
 31
0.0
  0
LINE
  5
199
330
6F
100
AcDbEntity
  8
_1-2_極細2
  6
Continuous
 62
     2
100
AcDbLine
 10
326.7377577356212
 20
228.2280927835056
 30
0.0
 11
332.4877577356212
 21
228.2280927835056
 31
0.0
  0
LINE
  5
19A
330
6F
100
AcDbEntity
  8
_1-2_極細2
  6
Continuous
 62
     2
100
AcDbLine
 10
326.7377577356212
 20
218.2280927835055
 30
0.0
 11
332.4877577356212
 21
218.2280927835055
 31
0.0
  0
LINE
  5
19B
330
6F
100
AcDbEntity
  8
_1-2_極細2
  6
Continuous
 62
     2
100
AcDbLine
 10
326.7377577356212
 20
233.2280927835054
 30
0.0
 11
332.4877577356212
 21
233.2280927835054
 31
0.0
  0
LINE
  5
19C
330
6F
100
AcDbEntity
  8
_1-2_極細2
  6
Continuous
 62
     2
100
AcDbLine
 10
332.4877577356212
 20
183.2280927835055
 30
0.0
 11
326.7377577356212
 21
183.2280927835055
 31
0.0
  0
LINE
  5
19D
330
6F
100
AcDbEntity
  8
_1-2_極細2
  6
Continuous
 62
     2
100
AcDbLine
 10
326.7377577356212
 20
258.2280927835055
 30
0.0
 11
332.4877577356212
 21
258.2280927835055
 31
0.0
  0
LINE
  5
19E
330
6F
100
AcDbEntity
  8
_1-5_寸法2
  6
Continuous
 62
     7
100
AcDbLine
 10
322.4877577356212
 20
290.7280927835055
 30
0.0
 11
251.0627111177374
 21
290.7280927835054
 31
0.0
  0
LINE
  5
19F
330
6F
100
AcDbEntity
  8
_1-5_寸法2
  6
Continuous
 62
     7
100
AcDbLine
 10
256.0627111177374
 20
290.7280927835054
 30
0.0
 11
258.6509015687625
 21
281.0688345206147
 31
0.0
  0
LINE
  5
1A0
330
6F
100
AcDbEntity
  8
_1-5_寸法2
  6
Continuous
 62
     7
100
AcDbLine
 10
256.0627111177374
 20
290.7280927835054
 30
0.0
 11
253.4745206667121
 21
281.0688345206148
 31
0.0
  0
LINE
  5
1A1
330
6F
100
AcDbEntity
  8
_1-5_寸法2
  6
Continuous
 62
     7
100
AcDbLine
 10
316.7377577356213
 20
233.2280927835055
 30
0.0
 11
251.0627111177374
 21
233.2280927835055
 31
0.0
  0
LINE
  5
1A2
330
6F
100
AcDbEntity
  8
_1-5_寸法2
  6
Continuous
 62
     7
100
AcDbLine
 10
256.0627111177374
 20
233.2280927835054
 30
0.0
 11
253.4745206667121
 21
242.8873510463962
 31
0.0
  0
LINE
  5
1A3
330
6F
100
AcDbEntity
  8
_1-5_寸法2
  6
Continuous
 62
     7
100
AcDbLine
 10
256.0627111177374
 20
233.2280927835054
 30
0.0
 11
258.6509015687625
 21
242.8873510463962
 31
0.0
  0
LINE
  5
1A4
330
6F
100
AcDbEntity
  8
_1-5_寸法2
  6
Continuous
 62
     7
100
AcDbLine
 10
256.0627111177374
 20
290.7280927835054
 30
0.0
 11
256.0627111177374
 21
233.2280927835054
 31
0.0
  0
TEXT
  5
1A5
330
6F
100
AcDbEntity
  8
_1-5_寸法2
 62
     7
100
AcDbText
 10
256.0627111177379
 20
254.4780927835056
 30
0.0
 40
15.0
  1
23
 50
90.0
 41
0.7
100
AcDbText
  0
LINE
  5
1A6
330
6F
100
AcDbEntity
  8
_1-5_寸法2
  6
Continuous
 62
     7
100
AcDbLine
 10
322.4877577356218
 20
233.2280927835054
 30
0.0
 11
251.0627111177374
 21
233.2280927835054
 31
0.0
  0
LINE
  5
1A7
330
6F
100
AcDbEntity
  8
_1-5_寸法2
  6
Continuous
 62
     7
100
AcDbLine
 10
256.0627111177374
 20
233.2280927835054
 30
0.0
 11
258.6509015687625
 21
223.5688345206146
 31
0.0
  0
LINE
  5
1A8
330
6F
100
AcDbEntity
  8
_1-5_寸法2
  6
Continuous
 62
     7
100
AcDbLine
 10
256.0627111177374
 20
233.2280927835054
 30
0.0
 11
253.4745206667121
 21
223.5688345206146
 31
0.0
  0
LINE
  5
1A9
330
6F
100
AcDbEntity
  8
_1-5_寸法2
  6
Continuous
 62
     7
100
AcDbLine
 10
316.7377577356213
 20
175.7280927835051
 30
0.0
 11
251.062711117738
 21
175.7280927835051
 31
0.0
  0
LINE
  5
1AA
330
6F
100
AcDbEntity
  8
_1-5_寸法2
  6
Continuous
 62
     7
100
AcDbLine
 10
256.0627111177379
 20
175.7280927835051
 30
0.0
 11
253.4745206667126
 21
185.3873510463958
 31
0.0
  0
LINE
  5
1AB
330
6F
100
AcDbEntity
  8
_1-5_寸法2
  6
Continuous
 62
     7
100
AcDbLine
 10
256.0627111177379
 20
175.7280927835051
 30
0.0
 11
258.6509015687631
 21
185.3873510463958
 31
0.0
  0
LINE
  5
1AC
330
6F
100
AcDbEntity
  8
_1-5_寸法2
  6
Continuous
 62
     7
100
AcDbLine
 10
256.0627111177374
 20
233.2280927835054
 30
0.0
 11
256.0627111177379
 21
175.7280927835051
 31
0.0
  0
TEXT
  5
1AD
330
6F
100
AcDbEntity
  8
_1-5_寸法2
 62
     7
100
AcDbText
 10
256.0627111177379
 20
196.9780927835053
 30
0.0
 40
15.0
  1
23
 50
90.0
 41
0.7
100
AcDbText
  0
LINE
  5
1AE
330
6F
100
AcDbEntity
  8
_1-2_極細2
  6
Continuous
 62
     2
100
AcDbLine
 10
557.4877577356224
 20
263.2280927835054
 30
0.0
 11
557.4877577356224
 21
175.7280927835056
 31
0.0
  0
LINE
  5
1AF
330
6F
100
AcDbEntity
  8
_1-2_極細2
  6
Continuous
 62
     2
100
AcDbLine
 10
557.4877577356224
 20
175.7280927835056
 30
0.0
 11
563.2377577356224
 21
175.7280927835056
 31
0.0
  0
LINE
  5
1B0
330
6F
100
AcDbEntity
  8
_1-2_極細2
  6
Continuous
 62
     2
100
AcDbLine
 10
563.2377577356224
 20
175.7280927835056
 30
0.0
 11
563.2377577356224
 21
263.2280927835054
 31
0.0
  0
LINE
  5
1B1
330
6F
100
AcDbEntity
  8
_1-2_極細2
  6
Continuous
 62
     2
100
AcDbLine
 10
563.2377577356224
 20
263.2280927835054
 30
0.0
 11
557.4877577356224
 21
263.2280927835054
 31
0.0
  0
LINE
  5
1B2
330
6F
100
AcDbEntity
  8
_1-2_極細2
  6
Continuous
 62
     2
100
AcDbLine
 10
563.2377577356224
 20
223.2280927835056
 30
0.0
 11
557.4877577356224
 21
223.2280927835056
 31
0.0
  0
LINE
  5
1B3
330
6F
100
AcDbEntity
  8
_1-2_極細2
  6
Continuous
 62
     2
100
AcDbLine
 10
563.2377577356224
 20
228.2280927835056
 30
0.0
 11
557.4877577356224
 21
228.2280927835056
 31
0.0
  0
LINE
  5
1B4
330
6F
100
AcDbEntity
  8
_1-2_極細2
  6
Continuous
 62
     2
100
AcDbLine
 10
563.2377577356224
 20
218.2280927835055
 30
0.0
 11
557.4877577356224
 21
218.2280927835055
 31
0.0
  0
LINE
  5
1B5
330
6F
100
AcDbEntity
  8
_1-2_極細2
  6
Continuous
 62
     2
100
AcDbLine
 10
563.2377577356224
 20
233.2280927835054
 30
0.0
 11
557.4877577356224
 21
233.2280927835054
 31
0.0
  0
LINE
  5
1B6
330
6F
100
AcDbEntity
  8
_1-2_極細2
  6
Continuous
 62
     2
100
AcDbLine
 10
557.4877577356224
 20
183.2280927835055
 30
0.0
 11
563.2377577356224
 21
183.2280927835055
 31
0.0
  0
LINE
  5
1B7
330
6F
100
AcDbEntity
  8
_1-2_極細2
  6
Continuous
 62
     2
100
AcDbLine
 10
563.2377577356224
 20
258.2280927835055
 30
0.0
 11
557.4877577356224
 21
258.2280927835055
 31
0.0
  0
LINE
  5
1B8
330
6F
100
AcDbEntity
  8
_0-8_枠中線
  6
Continuous
 62
     5
100
AcDbLine
 10
1425.0
 20
59.99999999999993
 30
0.0
 11
1425.0
 21
970.0000000000001
 31
0.0
  0
LINE
  5
1B9
330
6F
100
AcDbEntity
  8
_0-8_枠中線
  6
Continuous
 62
     5
100
AcDbLine
 10
59.99999999999985
 20
59.99999999999993
 30
0.0
 11
60.00000000000014
 21
970.0000000000001
 31
0.0
  0
LINE
  5
1BA
330
6F
100
AcDbEntity
  8
_0-8_枠中線
  6
Continuous
 62
     5
100
AcDbLine
 10
59.99999999999985
 20
59.99999999999964
 30
0.0
 11
1425.0
 21
59.99999999999993
 31
0.0
  0
LINE
  5
1BB
330
6F
100
AcDbEntity
  8
_0-8_枠中線
  6
Continuous
 62
     5
100
AcDbLine
 10
60.00000000000014
 20
970.0000000000001
 30
0.0
 11
1425.0
 21
970.0000000000001
 31
0.0
  0
LINE
  5
1BC
330
6F
100
AcDbEntity
  8
_0-7_枠細線
  6
Continuous
 62
     5
100
AcDbLine
 10
1168.982175925921
 20
450.2210776748953
 30
0.0
 11
1168.982175925921
 21
300.2210776748955
 31
0.0
  0
TEXT
  5
1BD
330
6F
100
AcDbEntity
  8
_0-7_枠細線
 62
     5
100
AcDbText
 10
1147.982175925922
 20
430.2210776748954
 30
0.0
 40
15.0
  1
Ｎ
 41
0.8000000000000001
100
AcDbText
  0
TEXT
  5
1BE
330
6F
100
AcDbEntity
  8
_0-7_枠細線
 62
     5
100
AcDbText
 10
1151.315738608914
 20
405.2210776748956
 30
0.0
 40
15.0
  1
1
100
AcDbText
  0
TEXT
  5
1BF
330
6F
100
AcDbEntity
  8
_0-7_枠細線
 62
     5
100
AcDbText
 10
1148.897405522741
 20
380.2210776748957
 30
0.0
 40
15.0
  1
2
100
AcDbText
  0
TEXT
  5
1C0
330
6F
100
AcDbEntity
  8
_0-7_枠細線
 62
     5
100
AcDbText
 10
1148.091292878693
 20
355.2210776748956
 30
0.0
 40
15.0
  1
3
100
AcDbText
  0
TEXT
  5
1C1
330
6F
100
AcDbEntity
  8
_0-7_枠細線
 62
     5
100
AcDbText
 10
1148.091292878693
 20
330.2210776748955
 30
0.0
 40
15.0
  1
4
100
AcDbText
  0
TEXT
  5
1C2
330
6F
100
AcDbEntity
  8
_0-7_枠細線
 62
     5
100
AcDbText
 10
1148.091292878693
 20
305.2210776748955
 30
0.0
 40
15.0
  1
4
100
AcDbText
  0
LINE
  5
1C3
330
6F
100
AcDbEntity
  8
_0-7_枠細線
  6
Continuous
 62
     5
100
AcDbLine
 10
1138.982175925922
 20
450.2210776748953
 30
0.0
 11
1138.982175925922
 21
300.2210776748955
 31
0.0
  0
LINE
  5
1C4
330
6F
100
AcDbEntity
  8
_0-7_枠細線
  6
Continuous
 62
     5
100
AcDbLine
 10
1078.982175925923
 20
450.2210776748953
 30
0.0
 11
1078.982175925923
 21
300.2210776748955
 31
0.0
  0
LINE
  5
1C5
330
6F
100
AcDbEntity
  8
_0-7_枠細線
  6
Continuous
 62
     5
100
AcDbLine
 10
1018.982175925922
 20
450.2210776748953
 30
0.0
 11
1018.982175925922
 21
300.2210776748955
 31
0.0
  0
TEXT
  5
1C6
330
6F
100
AcDbEntity
  8
_0-7_枠細線
 62
     5
100
AcDbText
 10
987.9821759259233
 20
430.2210776748954
 30
0.0
 40
15.0
  1
Ｌ
 41
0.8000000000000001
100
AcDbText
  0
LINE
  5
1C7
330
6F
100
AcDbEntity
  8
_0-7_枠細線
  6
Continuous
 62
     5
100
AcDbLine
 10
968.9821759259235
 20
450.2210776748953
 30
0.0
 11
968.9821759259235
 21
300.2210776748955
 31
0.0
  0
TEXT
  5
1C8
330
6F
100
AcDbEntity
  8
_0-7_枠細線
 62
     5
100
AcDbText
 10
889.9821759259234
 20
430.2210776748954
 30
0.0
 40
15.0
  1
品　　番
 41
0.8000000000000001
100
AcDbText
  0
LINE
  5
1C9
330
6F
100
AcDbEntity
  8
_0-7_枠細線
  6
Continuous
 62
     5
100
AcDbLine
 10
858.9821759259233
 20
450.2210776748953
 30
0.0
 11
858.9821759259233
 21
300.2210776748955
 31
0.0
  0
LINE
  5
1CA
330
6F
100
AcDbEntity
  8
_0-7_枠細線
  6
Continuous
 62
     5
100
AcDbLine
 10
858.9821759259233
 20
450.2210776748953
 30
0.0
 11
1168.982175925921
 21
450.2210776748953
 31
0.0
  0
LINE
  5
1CB
330
6F
100
AcDbEntity
  8
_0-7_枠細線
  6
Continuous
 62
     5
100
AcDbLine
 10
858.9821759259233
 20
425.2210776748953
 30
0.0
 11
1168.982175925921
 21
425.2210776748953
 31
0.0
  0
LINE
  5
1CC
330
6F
100
AcDbEntity
  8
_0-7_枠細線
  6
Continuous
 62
     5
100
AcDbLine
 10
858.9821759259233
 20
400.2210776748954
 30
0.0
 11
1168.982175925921
 21
400.2210776748954
 31
0.0
  0
LINE
  5
1CD
330
6F
100
AcDbEntity
  8
_0-7_枠細線
  6
Continuous
 62
     5
100
AcDbLine
 10
858.9821759259233
 20
375.2210776748956
 30
0.0
 11
1168.982175925921
 21
375.2210776748956
 31
0.0
  0
LINE
  5
1CE
330
6F
100
AcDbEntity
  8
_0-7_枠細線
  6
Continuous
 62
     5
100
AcDbLine
 10
858.9821759259233
 20
350.2210776748955
 30
0.0
 11
1168.982175925921
 21
350.2210776748955
 31
0.0
  0
LINE
  5
1CF
330
6F
100
AcDbEntity
  8
_0-7_枠細線
  6
Continuous
 62
     5
100
AcDbLine
 10
858.9821759259233
 20
325.2210776748955
 30
0.0
 11
1168.982175925921
 21
325.2210776748955
 31
0.0
  0
LINE
  5
1D0
330
6F
100
AcDbEntity
  8
_0-7_枠細線
  6
Continuous
 62
     5
100
AcDbLine
 10
858.9821759259233
 20
300.2210776748955
 30
0.0
 11
1168.982175925921
 21
300.2210776748955
 31
0.0
  0
TEXT
  5
1D1
330
6F
100
AcDbEntity
  8
_0-7_枠細線
 62
     5
100
AcDbText
 10
865.942322530857
 20
455.2210776748954
 30
0.0
 40
17.5
  1
品　番　寸　法　表
100
AcDbText
  0
TEXT
  5
1D2
330
6F
100
AcDbEntity
  8
_0-7_枠細線
 62
     5
100
AcDbText
 10
981.9750502811078
 20
405.2210776748956
 30
0.0
 40
15.0
  1
594
 41
0.8
100
AcDbText
  0
TEXT
  5
1D3
330
6F
100
AcDbEntity
  8
_0-7_枠細線
 62
     5
100
AcDbText
 10
981.9750502811078
 20
380.2210776748957
 30
0.0
 40
15.0
  1
894
 41
0.8
100
AcDbText
  0
TEXT
  5
1D4
330
6F
100
AcDbEntity
  8
_0-7_枠細線
 62
     5
100
AcDbText
 10
976.6675320691605
 20
355.2210776748956
 30
0.0
 40
15.0
  1
1194
 41
0.8
100
AcDbText
  0
TEXT
  5
1D5
330
6F
100
AcDbEntity
  8
_0-7_枠細線
 62
     5
100
AcDbText
 10
974.4750502811079
 20
330.2210776748955
 30
0.0
 40
15.0
  1
1794
 41
0.8
100
AcDbText
  0
TEXT
  5
1D6
330
6F
100
AcDbEntity
  8
_0-7_枠細線
 62
     5
100
AcDbText
 10
974.4750502811079
 20
305.2210776748955
 30
0.0
 40
15.0
  1
1994
 41
0.8
100
AcDbText
  0
TEXT
  5
1D7
330
6F
100
AcDbEntity
  8
_0-7_枠細線
 62
     5
100
AcDbText
 10
1102.982175925922
 20
430.2210776748954
 30
0.0
 40
15.0
  1
＠
 41
0.8000000000000001
100
AcDbText
  0
TEXT
  5
1D8
330
6F
100
AcDbEntity
  8
_0-7_枠細線
 62
     5
100
AcDbText
 10
1042.982175925924
 20
430.2210776748954
 30
0.0
 40
15.0
  1
Ａ
 41
0.8000000000000001
100
AcDbText
  0
TEXT
  5
1D9
330
6F
100
AcDbEntity
  8
_0-7_枠細線
 62
     5
100
AcDbText
 10
1038.959732010911
 20
405.2210776748956
 30
0.0
 40
15.0
  1
585
 41
0.8
100
AcDbText
  0
TEXT
  5
1DA
330
6F
100
AcDbEntity
  8
_0-7_枠細線
 62
     5
100
AcDbText
 10
1038.959732010911
 20
380.2210776748957
 30
0.0
 40
15.0
  1
885
 41
0.8
100
AcDbText
  0
TEXT
  5
1DB
330
6F
100
AcDbEntity
  8
_0-7_枠細線
 62
     5
100
AcDbText
 10
1034.624916368676
 20
355.2210776748956
 30
0.0
 40
15.0
  1
1185
 41
0.8
100
AcDbText
  0
TEXT
  5
1DC
330
6F
100
AcDbEntity
  8
_0-7_枠細線
 62
     5
100
AcDbText
 10
1023.654387413765
 20
330.2210776748955
 30
0.0
 40
15.0
  1
892\U+00D72
 41
0.7
100
AcDbText
  0
TEXT
  5
1DD
330
6F
100
AcDbEntity
  8
_0-7_枠細線
 62
     5
100
AcDbText
 10
1023.654387413765
 20
305.2210776748955
 30
0.0
 40
15.0
  1
992\U+00D72
 41
0.7
100
AcDbText
  0
TEXT
  5
1DE
330
6F
100
AcDbEntity
  8
_0-7_枠細線
 62
     5
100
AcDbText
 10
1092.692269280561
 20
405.2210776748956
 30
0.0
 40
15.0
  1
494
 41
0.8
100
AcDbText
  0
TEXT
  5
1DF
330
6F
100
AcDbEntity
  8
_0-7_枠細線
 62
     5
100
AcDbText
 10
1092.692269280561
 20
380.2210776748957
 30
0.0
 40
15.0
  1
397
 41
0.8
100
AcDbText
  0
TEXT
  5
1E0
330
6F
100
AcDbEntity
  8
_0-7_枠細線
 62
     5
100
AcDbText
 10
1085.111695803075
 20
355.2210776748956
 30
0.0
 40
15.0
  1
364.7
 41
0.8
100
AcDbText
  0
TEXT
  5
1E1
330
6F
100
AcDbEntity
  8
_0-7_枠細線
 62
     5
100
AcDbText
 10
1085.111695803075
 20
330.2210776748955
 30
0.0
 40
15.0
  1
423.5
 41
0.8
100
AcDbText
  0
TEXT
  5
1E2
330
6F
100
AcDbEntity
  8
_0-7_枠細線
 62
     5
100
AcDbText
 10
1085.111695803075
 20
305.2210776748955
 30
0.0
 40
15.0
  1
473.5
 41
0.8
100
AcDbText
  0
TEXT
  5
1E3
330
6F
100
AcDbEntity
  8
_0-7_枠細線
 62
     5
100
AcDbText
 10
864.1988425925905
 20
280.2210776748955
 30
0.0
 40
15.0
  1
※ ○に色記号を付記
100
AcDbText
  0
TEXT
  5
1E4
330
6F
100
AcDbEntity
  8
_0-7_枠細線
 62
     5
100
AcDbText
 10
1199.597453703701
 20
430.2210776748954
 30
0.0
 40
15.0
  1
記号
 41
0.8000000000000001
100
AcDbText
  0
TEXT
  5
1E5
330
6F
100
AcDbEntity
  8
_0-7_枠細線
 62
     5
100
AcDbText
 10
1264.165852271651
 20
430.2210776748954
 30
0.0
 40
15.0
  1
色
 41
0.8000000000000001
100
AcDbText
  0
LINE
  5
1E6
330
6F
100
AcDbEntity
  8
_0-7_枠細線
  6
Continuous
 62
     5
100
AcDbLine
 10
1191.597453703701
 20
400.2210776748956
 30
0.0
 11
1381.597453703701
 21
400.2210776748956
 31
0.0
  0
LINE
  5
1E7
330
6F
100
AcDbEntity
  8
_0-7_枠細線
  6
Continuous
 62
     5
100
AcDbLine
 10
1191.597453703701
 20
425.2210776748953
 30
0.0
 11
1381.597453703701
 21
425.2210776748953
 31
0.0
  0
LINE
  5
1E8
330
6F
100
AcDbEntity
  8
_0-7_枠細線
  6
Continuous
 62
     5
100
AcDbLine
 10
1191.597453703701
 20
450.2210776748953
 30
0.0
 11
1381.597453703701
 21
450.2210776748953
 31
0.0
  0
TEXT
  5
1E9
330
6F
100
AcDbEntity
  8
_0-7_枠細線
 62
     5
100
AcDbText
 10
1327.370366761945
 20
430.2210776748954
 30
0.0
 40
15.0
  1
備　考
 41
0.8000000000000001
100
AcDbText
  0
TEXT
  5
1EA
330
6F
100
AcDbEntity
  8
_0-7_枠細線
 62
     5
100
AcDbText
 10
1196.990921459586
 20
455.2210776748954
 30
0.0
 40
17.5
  1
色記号表
100
AcDbText
  0
LINE
  5
1EB
330
6F
100
AcDbEntity
  8
_0-7_枠細線
  6
Continuous
 62
     5
100
AcDbLine
 10
1191.597453703701
 20
450.2210776748953
 30
0.0
 11
1191.597453703701
 21
400.2210776748956
 31
0.0
  0
LINE
  5
1EC
330
6F
100
AcDbEntity
  8
_0-7_枠細線
  6
Continuous
 62
     5
100
AcDbLine
 10
1231.597453703702
 20
450.2210776748953
 30
0.0
 11
1231.597453703702
 21
400.2210776748956
 31
0.0
  0
LINE
  5
1ED
330
6F
100
AcDbEntity
  8
_0-7_枠細線
  6
Continuous
 62
     5
100
AcDbLine
 10
1311.597453703701
 20
450.2210776748953
 30
0.0
 11
1311.597453703701
 21
400.2210776748956
 31
0.0
  0
LINE
  5
1EE
330
6F
100
AcDbEntity
  8
_0-7_枠細線
  6
Continuous
 62
     5
100
AcDbLine
 10
1381.597453703702
 20
450.2210776748953
 30
0.0
 11
1381.597453703702
 21
400.2210776748956
 31
0.0
  0
TEXT
  5
1EF
330
6F
100
AcDbEntity
  8
_0-7_枠細線
 62
     5
100
AcDbText
 10
1207.097453703702
 20
405.2210776748954
 30
0.0
 40
15.0
  1
Ｋ
 41
0.5999999999999999
100
AcDbText
  0
TEXT
  5
1F0
330
6F
100
AcDbEntity
  8
_0-7_枠細線
 62
     5
100
AcDbText
 10
1252.370366761945
 20
405.2210776748954
 30
0.0
 40
15.0
  1
ブラック
 41
0.5999999999999999
100
AcDbText
  0
TEXT
  5
1F1
330
6F
100
AcDbEntity
  8
_0-7_枠細線
 62
     5
100
AcDbText
 10
863.9821759259232
 20
405.2210776748954
 30
0.0
 40
15.0
  1
GNNS-20L 600A-○
 41
0.48
100
AcDbText
  0
TEXT
  5
1F2
330
6F
100
AcDbEntity
  8
_0-7_枠細線
 62
     5
100
AcDbText
 10
863.9821759259232
 20
380.2210776748955
 30
0.0
 40
15.0
  1
GNNS-20L 900A-○
 41
0.48
100
AcDbText
  0
TEXT
  5
1F3
330
6F
100
AcDbEntity
  8
_0-7_枠細線
 62
     5
100
AcDbText
 10
863.9821759259232
 20
355.2210776748953
 30
0.0
 40
15.0
  1
GNNS-20L1200A-○
 41
0.48
100
AcDbText
  0
TEXT
  5
1F4
330
6F
100
AcDbEntity
  8
_0-7_枠細線
 62
     5
100
AcDbText
 10
863.9821759259232
 20
330.2210776748953
 30
0.0
 40
15.0
  1
GNNS-20L1800A-○
 41
0.48
100
AcDbText
  0
TEXT
  5
1F5
330
6F
100
AcDbEntity
  8
_0-7_枠細線
 62
     5
100
AcDbText
 10
863.9821759259232
 20
305.2210776748953
 30
0.0
 40
15.0
  1
GNNS-20L2000A-○
 41
0.48
100
AcDbText
  0
TEXT
  5
1F6
330
6F
100
AcDbEntity
  8
_0-7_枠細線
 62
     5
100
AcDbText
 10
960.5000000000003
 20
109.9999999999999
 30
0.0
 40
20.00000000000001
  1
ＧＮＮＳ－２０Ｌ６００Ａ～２０００Ａ
 41
0.5
100
AcDbText
  0
TEXT
  5
1F7
330
6F
100
AcDbEntity
  8
_0-7_枠細線
 62
     5
100
AcDbText
 10
1016.27063127446
 20
140.4798991649218
 30
0.0
 40
20.00000000000001
  1
スリットタイプ 通常枠ＳＥＴ
 41
0.5
100
AcDbText
  0
TEXT
  5
1F8
330
6F
100
AcDbEntity
  8
_0-7_枠細線
 62
     5
100
AcDbText
 10
960.5000000000003
 20
159.520100835078
 30
0.0
 40
20.00000000000001
  1
屋外用ノンスリップ樹脂グレーチング
 41
0.5
100
AcDbText
  0
LINE
  5
1F9
330
6F
100
AcDbEntity
  8
_0-1_計細線
  6
Continuous
 62
     3
100
AcDbLine
 10
273.442010967442
 20
790.7576812853719
 30
0.0
 11
273.442010967442
 21
706.7576842758494
 31
0.0
  0
LINE
  5
1FA
330
6F
100
AcDbEntity
  8
_0-1_計細線
  6
Continuous
 62
     3
100
AcDbLine
 10
270.4420109686421
 20
793.7576812841719
 30
0.0
 11
270.4420109686421
 21
703.7576842770493
 31
0.0
  0
LINE
  5
1FB
330
6F
100
AcDbEntity
  8
_0-5_寸法線
  6
Continuous
 62
     7
100
AcDbLine
 10
260.4420109686421
 20
793.7576812841719
 30
0.0
 11
175.4420109686418
 21
793.757681284172
 31
0.0
  0
LINE
  5
1FC
330
6F
100
AcDbEntity
  8
_0-5_寸法線
  6
Continuous
 62
     7
100
AcDbLine
 10
180.4420109686418
 20
793.757681284172
 30
0.0
 11
183.030201419667
 21
784.0984230212813
 31
0.0
  0
LINE
  5
1FD
330
6F
100
AcDbEntity
  8
_0-5_寸法線
  6
Continuous
 62
     7
100
AcDbLine
 10
180.4420109686418
 20
793.757681284172
 30
0.0
 11
177.8538205176166
 21
784.0984230212813
 31
0.0
  0
LINE
  5
1FE
330
6F
100
AcDbEntity
  8
_0-5_寸法線
  6
Continuous
 62
     7
100
AcDbLine
 10
260.4420109686421
 20
703.7576842770493
 30
0.0
 11
175.4420109686418
 21
703.7576842770495
 31
0.0
  0
LINE
  5
1FF
330
6F
100
AcDbEntity
  8
_0-5_寸法線
  6
Continuous
 62
     7
100
AcDbLine
 10
180.4420109686418
 20
703.7576842770495
 30
0.0
 11
177.8538205176167
 21
713.4169425399402
 31
0.0
  0
LINE
  5
200
330
6F
100
AcDbEntity
  8
_0-5_寸法線
  6
Continuous
 62
     7
100
AcDbLine
 10
180.4420109686418
 20
703.7576842770495
 30
0.0
 11
183.030201419667
 21
713.4169425399402
 31
0.0
  0
LINE
  5
201
330
6F
100
AcDbEntity
  8
_0-5_寸法線
  6
Continuous
 62
     7
100
AcDbLine
 10
180.4420109686418
 20
793.757681284172
 30
0.0
 11
180.4420109686418
 21
703.7576842770495
 31
0.0
  0
TEXT
  5
202
330
6F
100
AcDbEntity
  8
_0-5_寸法線
 62
     7
100
AcDbText
 10
180.4420109686418
 20
741.2576827806108
 30
0.0
 40
15.0
  1
90
 50
90.0
 41
0.7
100
AcDbText
  0
LINE
  5
203
330
6F
100
AcDbEntity
  8
_0-1_計細線
  6
Continuous
 62
     3
100
AcDbLine
 10
1275.441971335426
 20
762.2576823968062
 30
0.0
 11
1275.441971335426
 21
749.2576827604097
 31
0.0
  0
LINE
  5
204
330
6F
100
AcDbEntity
  8
_0-1_計細線
  6
Continuous
 62
     3
100
AcDbLine
 10
1275.441971335426
 20
790.7576812853719
 30
0.0
 11
1275.441971335426
 21
706.7576842758494
 31
0.0
  0
LINE
  5
205
330
6F
100
AcDbEntity
  8
_0-1_計細線
  6
Continuous
 62
     3
100
AcDbLine
 10
1278.441971334225
 20
703.7576842770493
 30
0.0
 11
1278.441971334225
 21
793.757681284172
 31
0.0
  0
LINE
  5
206
330
6F
100
AcDbEntity
  8
_0-1_計細線
  6
Continuous
 62
     3
100
AcDbLine
 10
1278.441971334225
 20
793.7576812841719
 30
0.0
 11
270.4420109686421
 21
793.7576812841719
 31
0.0
  0
LINE
  5
207
330
6F
100
AcDbEntity
  8
_0-1_計細線
  6
Continuous
 62
     3
100
AcDbLine
 10
273.442010967442
 20
790.7576812853719
 30
0.0
 11
1275.441971335426
 21
790.7576812853719
 31
0.0
  0
LINE
  5
208
330
6F
100
AcDbEntity
  8
_0-1_計細線
  6
Continuous
 62
     3
100
AcDbLine
 10
270.4420109686421
 20
703.7576842770493
 30
0.0
 11
1278.441971334225
 21
703.7576842770493
 31
0.0
  0
LINE
  5
209
330
6F
100
AcDbEntity
  8
_0-1_計細線
  6
Continuous
 62
     3
100
AcDbLine
 10
273.442010967442
 20
706.7576842758494
 30
0.0
 11
1275.441971335426
 21
706.7576842758494
 31
0.0
  0
LINE
  5
20A
330
6F
100
AcDbEntity
  8
_0-1_計細線
  6
Continuous
 62
     3
100
AcDbLine
 10
274.9420109674421
 20
789.2576827806094
 30
0.0
 11
1273.942010967442
 21
789.2576827806094
 31
0.0
  0
LINE
  5
20B
330
6F
100
AcDbEntity
  8
_0-1_計細線
  6
Continuous
 62
     3
100
AcDbLine
 10
274.9420109674421
 20
777.857682780609
 30
0.0
 11
1273.942010967442
 21
777.857682780609
 31
0.0
  0
LINE
  5
20C
330
6F
100
AcDbEntity
  8
_0-1_計細線
  6
Continuous
 62
     3
100
AcDbLine
 10
274.9420109674421
 20
789.2576827806094
 30
0.0
 11
274.9420109674421
 21
777.857682780609
 31
0.0
  0
LINE
  5
20D
330
6F
100
AcDbEntity
  8
_0-1_計細線
  6
Continuous
 62
     3
100
AcDbLine
 10
1273.942010967442
 20
789.2576827806094
 30
0.0
 11
1273.942010967442
 21
777.857682780609
 31
0.0
  0
LINE
  5
20E
330
6F
100
AcDbEntity
  8
_0-0_計極細
  6
Continuous
 62
     2
100
AcDbLine
 10
274.9420109674421
 20
781.0576827806096
 30
0.0
 11
1273.942010967442
 21
781.0576827806096
 31
0.0
  0
LINE
  5
20F
330
6F
100
AcDbEntity
  8
_0-0_計極細
  6
Continuous
 62
     2
100
AcDbLine
 10
274.9420109674421
 20
786.0576827806096
 30
0.0
 11
1273.942010967442
 21
786.0576827806096
 31
0.0
  0
LINE
  5
210
330
6F
100
AcDbEntity
  8
_0-1_計細線
  6
Continuous
 62
     3
100
AcDbLine
 10
274.9420109674421
 20
708.2576827806112
 30
0.0
 11
1273.942010967442
 21
708.2576827806112
 31
0.0
  0
LINE
  5
211
330
6F
100
AcDbEntity
  8
_0-1_計細線
  6
Continuous
 62
     3
100
AcDbLine
 10
274.9420109674421
 20
719.6576827806118
 30
0.0
 11
1273.942010967442
 21
719.6576827806118
 31
0.0
  0
LINE
  5
212
330
6F
100
AcDbEntity
  8
_0-1_計細線
  6
Continuous
 62
     3
100
AcDbLine
 10
274.9420109674421
 20
708.2576827806112
 30
0.0
 11
274.9420109674421
 21
719.6576827806118
 31
0.0
  0
LINE
  5
213
330
6F
100
AcDbEntity
  8
_0-1_計細線
  6
Continuous
 62
     3
100
AcDbLine
 10
1273.942010967442
 20
708.2576827806112
 30
0.0
 11
1273.942010967442
 21
719.6576827806118
 31
0.0
  0
LINE
  5
214
330
6F
100
AcDbEntity
  8
_0-0_計極細
  6
Continuous
 62
     2
100
AcDbLine
 10
274.9420109674421
 20
716.457682780611
 30
0.0
 11
1273.942010967442
 21
716.457682780611
 31
0.0
  0
LINE
  5
215
330
6F
100
AcDbEntity
  8
_0-0_計極細
  6
Continuous
 62
     2
100
AcDbLine
 10
274.9420109674421
 20
711.457682780611
 30
0.0
 11
1273.942010967442
 21
711.457682780611
 31
0.0
  0
LINE
  5
216
330
6F
100
AcDbEntity
  8
_0-1_計細線
  6
Continuous
 62
     3
100
AcDbLine
 10
274.9420109674421
 20
725.6576827806116
 30
0.0
 11
1273.942010967442
 21
725.6576827806116
 31
0.0
  0
LINE
  5
217
330
6F
100
AcDbEntity
  8
_0-1_計細線
  6
Continuous
 62
     3
100
AcDbLine
 10
274.9420109674421
 20
737.0576827806121
 30
0.0
 11
1273.942010967442
 21
737.0576827806121
 31
0.0
  0
LINE
  5
218
330
6F
100
AcDbEntity
  8
_0-1_計細線
  6
Continuous
 62
     3
100
AcDbLine
 10
274.9420109674421
 20
725.6576827806116
 30
0.0
 11
274.9420109674421
 21
737.0576827806121
 31
0.0
  0
LINE
  5
219
330
6F
100
AcDbEntity
  8
_0-1_計細線
  6
Continuous
 62
     3
100
AcDbLine
 10
1273.942010967442
 20
725.6576827806116
 30
0.0
 11
1273.942010967442
 21
737.0576827806121
 31
0.0
  0
LINE
  5
21A
330
6F
100
AcDbEntity
  8
_0-0_計極細
  6
Continuous
 62
     2
100
AcDbLine
 10
274.9420109674421
 20
733.8576827806122
 30
0.0
 11
1273.942010967442
 21
733.8576827806122
 31
0.0
  0
LINE
  5
21B
330
6F
100
AcDbEntity
  8
_0-0_計極細
  6
Continuous
 62
     2
100
AcDbLine
 10
274.9420109674421
 20
728.8576827806122
 30
0.0
 11
1273.942010967442
 21
728.8576827806122
 31
0.0
  0
LINE
  5
21C
330
6F
100
AcDbEntity
  8
_0-0_計極細
  6
CENTER1
 62
     2
100
AcDbLine
 10
258.2326365044728
 20
748.7576827806102
 30
0.0
 11
1285.710414282255
 21
748.7576827806102
 31
0.0
  0
LINE
  5
21D
330
6F
100
AcDbEntity
  8
_0-0_計極細
  6
CENTER1
 62
     2
100
AcDbLine
 10
289.442010967442
 20
795.6820028037542
 30
0.0
 11
289.442010967442
 21
701.6320028037536
 31
0.0
  0
LINE
  5
21E
330
6F
100
AcDbEntity
  8
_0-0_計極細
  6
CENTER1
 62
     2
100
AcDbLine
 10
386.4420109674421
 20
795.6820028037542
 30
0.0
 11
386.4420109674421
 21
701.6320028037536
 31
0.0
  0
LINE
  5
21F
330
6F
100
AcDbEntity
  8
_0-0_計極細
  6
CENTER1
 62
     2
100
AcDbLine
 10
580.442010967442
 20
795.6820028037542
 30
0.0
 11
580.442010967442
 21
701.6320028037536
 31
0.0
  0
LINE
  5
220
330
6F
100
AcDbEntity
  8
_0-0_計極細
  6
CENTER1
 62
     2
100
AcDbLine
 10
677.4420109674419
 20
795.6820028037542
 30
0.0
 11
677.4420109674419
 21
701.6320028037536
 31
0.0
  0
LINE
  5
221
330
6F
100
AcDbEntity
  8
_0-0_計極細
  6
CENTER1
 62
     2
100
AcDbLine
 10
1259.442010967442
 20
795.6820028037542
 30
0.0
 11
1259.442010967442
 21
701.6320028037536
 31
0.0
  0
LINE
  5
222
330
6F
100
AcDbEntity
  8
_0-0_計極細
  6
CENTER1
 62
     2
100
AcDbLine
 10
774.4420109674421
 20
795.6820028037542
 30
0.0
 11
774.4420109674421
 21
701.6320028037536
 31
0.0
  0
LINE
  5
223
330
6F
100
AcDbEntity
  8
_0-0_計極細
  6
CENTER1
 62
     2
100
AcDbLine
 10
871.4420109674421
 20
795.6820028037542
 30
0.0
 11
871.4420109674421
 21
701.6320028037536
 31
0.0
  0
LINE
  5
224
330
6F
100
AcDbEntity
  8
_0-0_計極細
  6
CENTER1
 62
     2
100
AcDbLine
 10
968.442010967442
 20
795.6820028037542
 30
0.0
 11
968.442010967442
 21
701.6320028037536
 31
0.0
  0
LINE
  5
225
330
6F
100
AcDbEntity
  8
_0-0_計極細
  6
CENTER1
 62
     2
100
AcDbLine
 10
1065.442010967442
 20
795.6820028037542
 30
0.0
 11
1065.442010967442
 21
701.6320028037536
 31
0.0
  0
LINE
  5
226
330
6F
100
AcDbEntity
  8
_0-0_計極細
  6
CENTER1
 62
     2
100
AcDbLine
 10
1162.442010967442
 20
795.6820028037542
 30
0.0
 11
1162.442010967442
 21
701.6320028037536
 31
0.0
  0
LINE
  5
227
330
6F
100
AcDbEntity
  8
_0-5_寸法線
  6
Continuous
 62
     7
100
AcDbLine
 10
270.4420109686421
 20
803.7576812841718
 30
0.0
 11
270.4420109686421
 21
883.7576812841719
 31
0.0
  0
LINE
  5
228
330
6F
100
AcDbEntity
  8
_0-5_寸法線
  6
Continuous
 62
     7
100
AcDbLine
 10
270.4420109686421
 20
878.7576812841718
 30
0.0
 11
280.1012692315328
 21
881.3458717351972
 31
0.0
  0
LINE
  5
229
330
6F
100
AcDbEntity
  8
_0-5_寸法線
  6
Continuous
 62
     7
100
AcDbLine
 10
270.4420109686421
 20
878.7576812841718
 30
0.0
 11
280.1012692315328
 21
876.1694908331469
 31
0.0
  0
LINE
  5
22A
330
6F
100
AcDbEntity
  8
_0-5_寸法線
  6
Continuous
 62
     7
100
AcDbLine
 10
1278.441971334225
 20
803.7576812841718
 30
0.0
 11
1278.441971334225
 21
883.7576812841719
 31
0.0
  0
LINE
  5
22B
330
6F
100
AcDbEntity
  8
_0-5_寸法線
  6
Continuous
 62
     7
100
AcDbLine
 10
1278.441971334225
 20
878.7576812841718
 30
0.0
 11
1268.782713071334
 21
876.1694908331469
 31
0.0
  0
LINE
  5
22C
330
6F
100
AcDbEntity
  8
_0-5_寸法線
  6
Continuous
 62
     7
100
AcDbLine
 10
1278.441971334225
 20
878.7576812841718
 30
0.0
 11
1268.782713071334
 21
881.3458717351972
 31
0.0
  0
LINE
  5
22D
330
6F
100
AcDbEntity
  8
_0-5_寸法線
  6
Continuous
 62
     7
100
AcDbLine
 10
270.4420109686421
 20
878.7576812841718
 30
0.0
 11
1278.441971334225
 21
878.7576812841718
 31
0.0
  0
TEXT
  5
22E
330
6F
100
AcDbEntity
  8
_0-5_寸法線
 62
     7
100
AcDbText
 10
766.9419911514339
 20
878.7576812841718
 30
0.0
 40
15.0
  1
Ｌ
 41
0.7
100
AcDbText
  0
LINE
  5
22F
330
6F
100
AcDbEntity
  8
_0-1_計細線
  6
Continuous
 62
     3
100
AcDbLine
 10
274.9420109674421
 20
771.857682780609
 30
0.0
 11
1273.942010967442
 21
771.857682780609
 31
0.0
  0
LINE
  5
230
330
6F
100
AcDbEntity
  8
_0-1_計細線
  6
Continuous
 62
     3
100
AcDbLine
 10
1273.942010967442
 20
771.857682780609
 30
0.0
 11
1273.942010967442
 21
760.4576827806083
 31
0.0
  0
LINE
  5
231
330
6F
100
AcDbEntity
  8
_0-0_計極細
  6
Continuous
 62
     2
100
AcDbLine
 10
274.9420109674421
 20
763.6576827806085
 30
0.0
 11
1273.942010967442
 21
763.6576827806085
 31
0.0
  0
LINE
  5
232
330
6F
100
AcDbEntity
  8
_0-0_計極細
  6
Continuous
 62
     2
100
AcDbLine
 10
274.9420109674421
 20
768.6576827806085
 30
0.0
 11
1273.942010967442
 21
768.6576827806085
 31
0.0
  0
LINE
  5
233
330
6F
100
AcDbEntity
  8
_0-1_計細線
  6
Continuous
 62
     3
100
AcDbLine
 10
274.9420109674421
 20
771.857682780609
 30
0.0
 11
274.9420109674421
 21
760.4576827806083
 31
0.0
  0
LINE
  5
234
330
6F
100
AcDbEntity
  8
_0-1_計細線
  6
Continuous
 62
     3
100
AcDbLine
 10
274.9420109674421
 20
760.4576827806083
 30
0.0
 11
1273.942010967442
 21
760.4576827806083
 31
0.0
  0
LINE
  5
235
330
6F
100
AcDbEntity
  8
_0-1_計細線
  6
Continuous
 62
     3
100
AcDbLine
 10
274.9420109674421
 20
743.0576827806076
 30
0.0
 11
1273.942010967442
 21
743.0576827806076
 31
0.0
  0
LINE
  5
236
330
6F
100
AcDbEntity
  8
_0-1_計細線
  6
Continuous
 62
     3
100
AcDbLine
 10
1273.942010967442
 20
754.457682780608
 30
0.0
 11
1273.942010967442
 21
743.0576827806076
 31
0.0
  0
LINE
  5
237
330
6F
100
AcDbEntity
  8
_0-0_計極細
  6
Continuous
 62
     2
100
AcDbLine
 10
274.9420109674421
 20
746.257682780608
 30
0.0
 11
1273.942010967442
 21
746.257682780608
 31
0.0
  0
LINE
  5
238
330
6F
100
AcDbEntity
  8
_0-0_計極細
  6
Continuous
 62
     2
100
AcDbLine
 10
274.9420109674421
 20
751.257682780608
 30
0.0
 11
1273.942010967442
 21
751.257682780608
 31
0.0
  0
LINE
  5
239
330
6F
100
AcDbEntity
  8
_0-1_計細線
  6
Continuous
 62
     3
100
AcDbLine
 10
274.9420109674421
 20
754.457682780608
 30
0.0
 11
1273.942010967442
 21
754.457682780608
 31
0.0
  0
LINE
  5
23A
330
6F
100
AcDbEntity
  8
_0-1_計細線
  6
Continuous
 62
     3
100
AcDbLine
 10
274.9420109674421
 20
754.457682780608
 30
0.0
 11
274.9420109674421
 21
743.0576827806076
 31
0.0
  0
LINE
  5
23B
330
6F
100
AcDbEntity
  8
_0-0_計極細
  6
CENTER1
 62
     2
100
AcDbLine
 10
483.442010967442
 20
795.6820028037542
 30
0.0
 11
483.442010967442
 21
701.6320028037536
 31
0.0
  0
LINE
  5
23C
330
6F
100
AcDbEntity
  8
_0-5_寸法線
  6
Continuous
 62
     7
100
AcDbLine
 10
270.4420109686421
 20
803.7576812841718
 30
0.0
 11
270.4420109686421
 21
848.7576812841719
 31
0.0
  0
LINE
  5
23D
330
6F
100
AcDbEntity
  8
_0-5_寸法線
  6
Continuous
 62
     7
100
AcDbLine
 10
270.4420109686421
 20
843.7576812841719
 30
0.0
 11
260.7827527057513
 21
841.1694908331467
 31
0.0
  0
LINE
  5
23E
330
6F
100
AcDbEntity
  8
_0-5_寸法線
  6
Continuous
 62
     7
100
AcDbLine
 10
270.4420109686421
 20
843.7576812841719
 30
0.0
 11
260.7827527057515
 21
846.3458717351972
 31
0.0
  0
LINE
  5
23F
330
6F
100
AcDbEntity
  8
_0-5_寸法線
  6
Continuous
 62
     7
100
AcDbLine
 10
273.442010967442
 20
803.7576812841718
 30
0.0
 11
273.442010967442
 21
848.7576812841719
 31
0.0
  0
CIRCLE
  5
240
330
6F
100
AcDbEntity
  8
_0-5_寸法線
  6
Continuous
 62
     1
100
AcDbCircle
 10
273.442010967442
 20
843.7576812841719
 30
0.0
 40
1.5
  0
LINE
  5
241
330
6F
100
AcDbEntity
  8
_0-5_寸法線
  6
Continuous
 62
     7
100
AcDbLine
 10
245.4420109686421
 20
843.7576812841719
 30
0.0
 11
273.442010967442
 21
843.7576812841719
 31
0.0
  0
TEXT
  5
242
330
6F
100
AcDbEntity
  8
_0-5_寸法線
 62
     7
100
AcDbText
 10
249.317976197083
 20
843.7576812841719
 30
0.0
 40
15.0
  1
3
 41
0.7
100
AcDbText
  0
LINE
  5
243
330
6F
100
AcDbEntity
  8
_0-5_寸法線
  6
Continuous
 62
     7
100
AcDbLine
 10
274.942010906841
 20
803.7576812841718
 30
0.0
 11
274.9420109068413
 21
848.7576812841719
 31
0.0
  0
LINE
  5
244
330
6F
100
AcDbEntity
  8
_0-5_寸法線
  6
Continuous
 62
     7
100
AcDbLine
 10
273.442010967442
 20
843.7576812841719
 30
0.0
 11
274.9420109068413
 21
843.7576812841719
 31
0.0
  0
TEXT
  5
245
330
6F
100
AcDbEntity
  8
_0-5_寸法線
 62
     7
100
AcDbText
 10
274.9179761970832
 20
843.7576812841719
 30
0.0
 40
15.0
  1
1.5
 41
0.7
100
AcDbText
  0
LINE
  5
246
330
6F
100
AcDbEntity
  8
_0-5_寸法線
  6
Continuous
 62
     7
100
AcDbLine
 10
274.9420109068413
 20
843.7576812841719
 30
0.0
 11
284.6012691697319
 21
846.3458717351972
 31
0.0
  0
LINE
  5
247
330
6F
100
AcDbEntity
  8
_0-5_寸法線
  6
Continuous
 62
     7
100
AcDbLine
 10
274.9420109068413
 20
843.7576812841719
 30
0.0
 11
284.6012691697319
 21
841.1694908331467
 31
0.0
  0
LINE
  5
248
330
6F
100
AcDbEntity
  8
_0-5_寸法線
  6
Continuous
 62
     7
100
AcDbLine
 10
1273.941971335426
 20
803.7576812841718
 30
0.0
 11
1273.941971335426
 21
848.7576812841719
 31
0.0
  0
LINE
  5
249
330
6F
100
AcDbEntity
  8
_0-5_寸法線
  6
Continuous
 62
     7
100
AcDbLine
 10
1273.941971335426
 20
843.7576812841719
 30
0.0
 11
1264.282713072535
 21
841.1694908331467
 31
0.0
  0
LINE
  5
24A
330
6F
100
AcDbEntity
  8
_0-5_寸法線
  6
Continuous
 62
     7
100
AcDbLine
 10
1273.941971335426
 20
843.7576812841719
 30
0.0
 11
1264.282713072535
 21
846.3458717351972
 31
0.0
  0
LINE
  5
24B
330
6F
100
AcDbEntity
  8
_0-5_寸法線
  6
Continuous
 62
     7
100
AcDbLine
 10
274.9420109068413
 20
843.7576812841719
 30
0.0
 11
1273.941971335426
 21
843.7576812841719
 31
0.0
  0
TEXT
  5
24C
330
6F
100
AcDbEntity
  8
_0-5_寸法線
 62
     7
100
AcDbText
 10
766.9419911211339
 20
843.7576812841713
 30
0.0
 40
15.0
  1
Ａ
 41
0.7
100
AcDbText
  0
LINE
  5
24D
330
6F
100
AcDbEntity
  8
_0-5_寸法線
  6
Continuous
 62
     7
100
AcDbLine
 10
1275.441971335426
 20
803.7576812841718
 30
0.0
 11
1275.441971335426
 21
848.7576812841719
 31
0.0
  0
CIRCLE
  5
24E
330
6F
100
AcDbEntity
  8
_0-5_寸法線
  6
Continuous
 62
     1
100
AcDbCircle
 10
1275.441971335426
 20
843.7576812841719
 30
0.0
 40
1.5
  0
LINE
  5
24F
330
6F
100
AcDbEntity
  8
_0-5_寸法線
  6
Continuous
 62
     7
100
AcDbLine
 10
1273.941971335426
 20
843.7576812841719
 30
0.0
 11
1275.441971335426
 21
843.7576812841719
 31
0.0
  0
TEXT
  5
250
330
6F
100
AcDbEntity
  8
_0-5_寸法線
 62
     7
100
AcDbText
 10
1253.112420641547
 20
843.7576812841713
 30
0.0
 40
15.0
  1
1.5
 41
0.7
100
AcDbText
  0
LINE
  5
251
330
6F
100
AcDbEntity
  8
_0-5_寸法線
  6
Continuous
 62
     7
100
AcDbLine
 10
1278.441971334225
 20
803.7576812841718
 30
0.0
 11
1278.441971334225
 21
848.7576812841719
 31
0.0
  0
LINE
  5
252
330
6F
100
AcDbEntity
  8
_0-5_寸法線
  6
Continuous
 62
     7
100
AcDbLine
 10
1278.441971334225
 20
843.7576812841719
 30
0.0
 11
1288.101229597116
 21
846.3458717351972
 31
0.0
  0
LINE
  5
253
330
6F
100
AcDbEntity
  8
_0-5_寸法線
  6
Continuous
 62
     7
100
AcDbLine
 10
1278.441971334225
 20
843.7576812841719
 30
0.0
 11
1288.101229597116
 21
841.1694908331465
 31
0.0
  0
LINE
  5
254
330
6F
100
AcDbEntity
  8
_0-5_寸法線
  6
Continuous
 62
     7
100
AcDbLine
 10
1275.441971335426
 20
843.7576812841719
 30
0.0
 11
1303.441971334225
 21
843.7576812841719
 31
0.0
  0
TEXT
  5
255
330
6F
100
AcDbEntity
  8
_0-5_寸法線
 62
     7
100
AcDbText
 10
1293.456967966651
 20
843.7576812841713
 30
0.0
 40
15.0
  1
3
 41
0.7
100
AcDbText
  0
LINE
  5
256
330
6F
100
AcDbEntity
  8
_0-1_計細線
  6
Continuous
 62
     3
100
AcDbLine
 10
326.4420109686418
 20
593.7576842770493
 30
0.0
 11
328.4420109686419
 21
595.7576842770492
 31
0.0
  0
LINE
  5
257
330
6F
100
AcDbEntity
  8
_0-1_計細線
  6
Continuous
 62
     3
100
AcDbLine
 10
326.4420109686418
 20
591.7576842770492
 30
0.0
 11
328.4420109686419
 21
589.7576842770493
 31
0.0
  0
LINE
  5
258
330
6F
100
AcDbEntity
  8
_0-1_計細線
  6
Continuous
 62
     3
100
AcDbLine
 10
326.4420109686418
 20
591.7576842770492
 30
0.0
 11
326.4420109686418
 21
593.7576842770493
 31
0.0
  0
LINE
  5
259
330
6F
100
AcDbEntity
  8
_0-1_計細線
  6
Continuous
 62
     3
100
AcDbLine
 10
314.4420109686419
 20
593.7576842770493
 30
0.0
 11
312.4420109686418
 21
595.7576842770492
 31
0.0
  0
LINE
  5
25A
330
6F
100
AcDbEntity
  8
_0-1_計細線
  6
Continuous
 62
     3
100
AcDbLine
 10
314.4420109686419
 20
591.7576842770492
 30
0.0
 11
312.4420109686418
 21
589.7576842770493
 31
0.0
  0
LINE
  5
25B
330
6F
100
AcDbEntity
  8
_0-1_計細線
  6
Continuous
 62
     3
100
AcDbLine
 10
314.4420109686419
 20
591.7576842770492
 30
0.0
 11
314.4420109686419
 21
593.7576842770493
 31
0.0
  0
LINE
  5
25C
330
6F
100
AcDbEntity
  8
_0-0_計極細
  6
CENTER1
 62
     2
100
AcDbLine
 10
320.4420109686418
 20
609.419085792201
 30
0.0
 11
320.4420109686418
 21
571.6010302366453
 31
0.0
  0
LINE
  5
25D
330
6F
100
AcDbEntity
  8
_0-1_計細線
  6
Continuous
 62
     3
100
AcDbLine
 10
312.4420109686418
 20
595.7576842770492
 30
0.0
 11
312.4420109686418
 21
605.7576842770493
 31
0.0
  0
LINE
  5
25E
330
6F
100
AcDbEntity
  8
_0-1_計細線
  6
Continuous
 62
     3
100
AcDbLine
 10
312.4420109686418
 20
605.7576842770493
 30
0.0
 11
314.4420109686419
 21
607.7576842770493
 31
0.0
  0
LINE
  5
25F
330
6F
100
AcDbEntity
  8
_0-1_計細線
  6
Continuous
 62
     3
100
AcDbLine
 10
328.4420109686419
 20
595.7576842770492
 30
0.0
 11
328.4420109686419
 21
605.7576842770493
 31
0.0
  0
LINE
  5
260
330
6F
100
AcDbEntity
  8
_0-1_計細線
  6
Continuous
 62
     3
100
AcDbLine
 10
314.4420109686419
 20
607.7576842770493
 30
0.0
 11
326.4420109686418
 21
607.7576842770493
 31
0.0
  0
LINE
  5
261
330
6F
100
AcDbEntity
  8
_0-1_計細線
  6
Continuous
 62
     3
100
AcDbLine
 10
328.4420109686419
 20
605.7576842770493
 30
0.0
 11
326.4420109686418
 21
607.7576842770493
 31
0.0
  0
LINE
  5
262
330
6F
100
AcDbEntity
  8
_0-1_計細線
  6
Continuous
 62
     3
100
AcDbLine
 10
312.4420109686418
 20
575.7576842770492
 30
0.0
 11
312.4420109686418
 21
589.7576842770493
 31
0.0
  0
ARC
  5
263
330
6F
100
AcDbEntity
  8
_0-1_計細線
  6
Continuous
 62
     3
100
AcDbCircle
 10
315.4420109686418
 20
575.7576842770492
 30
0.0
 40
3.0
100
AcDbArc
 50
179.9999999999998
 51
269.9999999999997
  0
LINE
  5
264
330
6F
100
AcDbEntity
  8
_0-1_計細線
  6
Continuous
 62
     3
100
AcDbLine
 10
325.4420109686418
 20
572.7576842770493
 30
0.0
 11
315.4420109686418
 21
572.7576842770493
 31
0.0
  0
LINE
  5
265
330
6F
100
AcDbEntity
  8
_0-1_計細線
  6
Continuous
 62
     3
100
AcDbLine
 10
328.4420109686419
 20
589.7576842770493
 30
0.0
 11
328.4420109686419
 21
575.7576842770492
 31
0.0
  0
ARC
  5
266
330
6F
100
AcDbEntity
  8
_0-1_計細線
  6
Continuous
 62
     3
100
AcDbCircle
 10
325.4420109686418
 20
575.7576842770492
 30
0.0
 40
3.0
100
AcDbArc
 50
269.9999999999997
 51
359.9999999999997
  0
LINE
  5
267
330
6F
100
AcDbEntity
  8
_0-1_計細線
  6
Continuous
 62
     3
100
AcDbLine
 10
270.4420109686421
 20
595.7576842770492
 30
0.0
 11
270.4420109686421
 21
618.7576842770493
 31
0.0
  0
LINE
  5
268
330
6F
100
AcDbEntity
  8
_0-1_計細線
  6
Continuous
 62
     3
100
AcDbLine
 10
312.4420109686418
 20
595.7576842770492
 30
0.0
 11
270.4420109686421
 21
595.7576842770492
 31
0.0
  0
LINE
  5
269
330
6F
100
AcDbEntity
  8
_0-1_計細線
  6
DASHED2
 62
     3
100
AcDbLine
 10
328.4420109686419
 20
595.7576842770492
 30
0.0
 11
312.4420109686418
 21
595.7576842770492
 31
0.0
  0
LINE
  5
26A
330
6F
100
AcDbEntity
  8
_0-5_寸法線
  6
Continuous
 62
     7
100
AcDbLine
 10
260.4420499907346
 20
618.7576842770493
 30
0.0
 11
215.4420499907349
 21
618.7576842770495
 31
0.0
  0
LINE
  5
26B
330
6F
100
AcDbEntity
  8
_0-5_寸法線
  6
Continuous
 62
     7
100
AcDbLine
 10
220.4420499907349
 20
618.7576842770495
 30
0.0
 11
223.0302404417601
 21
609.0984260141588
 31
0.0
  0
LINE
  5
26C
330
6F
100
AcDbEntity
  8
_0-5_寸法線
  6
Continuous
 62
     7
100
AcDbLine
 10
220.4420499907349
 20
618.7576842770495
 30
0.0
 11
217.8538595397097
 21
609.0984260141588
 31
0.0
  0
LINE
  5
26D
330
6F
100
AcDbEntity
  8
_0-5_寸法線
  6
Continuous
 62
     7
100
AcDbLine
 10
260.4420499907346
 20
595.7576842770492
 30
0.0
 11
215.4420499907349
 21
595.7576842770495
 31
0.0
  0
LINE
  5
26E
330
6F
100
AcDbEntity
  8
_0-5_寸法線
  6
Continuous
 62
     7
100
AcDbLine
 10
220.4420499907349
 20
595.7576842770495
 30
0.0
 11
217.8538595397096
 21
605.41694253994
 31
0.0
  0
LINE
  5
26F
330
6F
100
AcDbEntity
  8
_0-5_寸法線
  6
Continuous
 62
     7
100
AcDbLine
 10
220.4420499907349
 20
595.7576842770495
 30
0.0
 11
223.03024044176
 21
605.41694253994
 31
0.0
  0
LINE
  5
270
330
6F
100
AcDbEntity
  8
_0-5_寸法線
  6
Continuous
 62
     7
100
AcDbLine
 10
220.4420499907349
 20
618.7576842770495
 30
0.0
 11
220.4420499907349
 21
595.7576842770495
 31
0.0
  0
TEXT
  5
271
330
6F
100
AcDbEntity
  8
_0-5_寸法線
 62
     7
100
AcDbText
 10
220.4420499907349
 20
599.7576842770495
 30
0.0
 40
15.0
  1
23
 50
90.0
 41
0.7
100
AcDbText
  0
LINE
  5
272
330
6F
100
AcDbEntity
  8
_0-1_計細線
  6
Continuous
 62
     3
100
AcDbLine
 10
1234.442010968642
 20
593.7576842770493
 30
0.0
 11
1236.442010968642
 21
595.7576842770492
 31
0.0
  0
LINE
  5
273
330
6F
100
AcDbEntity
  8
_0-1_計細線
  6
Continuous
 62
     3
100
AcDbLine
 10
1234.442010968642
 20
591.7576842770492
 30
0.0
 11
1236.442010968642
 21
589.7576842770493
 31
0.0
  0
LINE
  5
274
330
6F
100
AcDbEntity
  8
_0-1_計細線
  6
Continuous
 62
     3
100
AcDbLine
 10
1234.442010968642
 20
591.7576842770492
 30
0.0
 11
1234.442010968642
 21
593.7576842770493
 31
0.0
  0
LINE
  5
275
330
6F
100
AcDbEntity
  8
_0-1_計細線
  6
Continuous
 62
     3
100
AcDbLine
 10
1222.442010968642
 20
593.7576842770493
 30
0.0
 11
1220.442010968642
 21
595.7576842770492
 31
0.0
  0
LINE
  5
276
330
6F
100
AcDbEntity
  8
_0-1_計細線
  6
Continuous
 62
     3
100
AcDbLine
 10
1222.442010968642
 20
591.7576842770492
 30
0.0
 11
1220.442010968642
 21
589.7576842770493
 31
0.0
  0
LINE
  5
277
330
6F
100
AcDbEntity
  8
_0-1_計細線
  6
Continuous
 62
     3
100
AcDbLine
 10
1222.442010968642
 20
591.7576842770492
 30
0.0
 11
1222.442010968642
 21
593.7576842770493
 31
0.0
  0
LINE
  5
278
330
6F
100
AcDbEntity
  8
_0-0_計極細
  6
CENTER1
 62
     2
100
AcDbLine
 10
1228.442010968642
 20
609.419085792201
 30
0.0
 11
1228.442010968642
 21
571.6010302366453
 31
0.0
  0
LINE
  5
279
330
6F
100
AcDbEntity
  8
_0-1_計細線
  6
Continuous
 62
     3
100
AcDbLine
 10
1220.442010968642
 20
595.7576842770492
 30
0.0
 11
1220.442010968642
 21
605.7576842770493
 31
0.0
  0
LINE
  5
27A
330
6F
100
AcDbEntity
  8
_0-1_計細線
  6
Continuous
 62
     3
100
AcDbLine
 10
1220.442010968642
 20
605.7576842770493
 30
0.0
 11
1222.442010968642
 21
607.7576842770493
 31
0.0
  0
LINE
  5
27B
330
6F
100
AcDbEntity
  8
_0-1_計細線
  6
Continuous
 62
     3
100
AcDbLine
 10
1236.442010968642
 20
595.7576842770492
 30
0.0
 11
1236.442010968642
 21
605.7576842770493
 31
0.0
  0
LINE
  5
27C
330
6F
100
AcDbEntity
  8
_0-1_計細線
  6
Continuous
 62
     3
100
AcDbLine
 10
1222.442010968642
 20
607.7576842770493
 30
0.0
 11
1234.442010968642
 21
607.7576842770493
 31
0.0
  0
LINE
  5
27D
330
6F
100
AcDbEntity
  8
_0-1_計細線
  6
Continuous
 62
     3
100
AcDbLine
 10
1236.442010968642
 20
605.7576842770493
 30
0.0
 11
1234.442010968642
 21
607.7576842770493
 31
0.0
  0
LINE
  5
27E
330
6F
100
AcDbEntity
  8
_0-1_計細線
  6
Continuous
 62
     3
100
AcDbLine
 10
1220.442010968642
 20
575.7576842770492
 30
0.0
 11
1220.442010968642
 21
589.7576842770493
 31
0.0
  0
ARC
  5
27F
330
6F
100
AcDbEntity
  8
_0-1_計細線
  6
Continuous
 62
     3
100
AcDbCircle
 10
1223.442010968642
 20
575.7576842770492
 30
0.0
 40
3.0
100
AcDbArc
 50
179.9999999999998
 51
269.9999999999997
  0
LINE
  5
280
330
6F
100
AcDbEntity
  8
_0-1_計細線
  6
Continuous
 62
     3
100
AcDbLine
 10
1233.442010968642
 20
572.7576842770493
 30
0.0
 11
1223.442010968642
 21
572.7576842770493
 31
0.0
  0
LINE
  5
281
330
6F
100
AcDbEntity
  8
_0-1_計細線
  6
Continuous
 62
     3
100
AcDbLine
 10
1236.442010968642
 20
589.7576842770493
 30
0.0
 11
1236.442010968642
 21
575.7576842770492
 31
0.0
  0
ARC
  5
282
330
6F
100
AcDbEntity
  8
_0-1_計細線
  6
Continuous
 62
     3
100
AcDbCircle
 10
1233.442010968642
 20
575.7576842770492
 30
0.0
 40
3.0
100
AcDbArc
 50
269.9999999999997
 51
359.9999999999997
  0
LINE
  5
283
330
6F
100
AcDbEntity
  8
_0-1_計細線
  6
Continuous
 62
     3
100
AcDbLine
 10
270.4420109686421
 20
618.7576842770493
 30
0.0
 11
1278.442010968642
 21
618.7576842770493
 31
0.0
  0
LINE
  5
284
330
6F
100
AcDbEntity
  8
_0-1_計細線
  6
Continuous
 62
     3
100
AcDbLine
 10
1278.442010968642
 20
618.7576842770493
 30
0.0
 11
1278.442010968642
 21
595.7576842770492
 31
0.0
  0
LINE
  5
285
330
6F
100
AcDbEntity
  8
_0-1_計細線
  6
Continuous
 62
     3
100
AcDbLine
 10
1278.442010968642
 20
595.7576842770492
 30
0.0
 11
1236.442010968642
 21
595.7576842770492
 31
0.0
  0
LINE
  5
286
330
6F
100
AcDbEntity
  8
_0-1_計細線
  6
DASHED2
 62
     3
100
AcDbLine
 10
1236.442010968642
 20
595.7576842770492
 30
0.0
 11
1220.442010968642
 21
595.7576842770492
 31
0.0
  0
LINE
  5
287
330
6F
100
AcDbEntity
  8
_0-5_寸法線
  6
Continuous
 62
     7
100
AcDbLine
 10
270.442010968642
 20
585.7576842770493
 30
0.0
 11
270.4420109686418
 21
530.7576842770491
 31
0.0
  0
LINE
  5
288
330
6F
100
AcDbEntity
  8
_0-5_寸法線
  6
Continuous
 62
     7
100
AcDbLine
 10
270.4420109686418
 20
535.7576842770491
 30
0.0
 11
280.1012692315325
 21
538.3458747280744
 31
0.0
  0
LINE
  5
289
330
6F
100
AcDbEntity
  8
_0-5_寸法線
  6
Continuous
 62
     7
100
AcDbLine
 10
270.4420109686418
 20
535.7576842770491
 30
0.0
 11
280.1012692315325
 21
533.1694938260239
 31
0.0
  0
LINE
  5
28A
330
6F
100
AcDbEntity
  8
_0-5_寸法線
  6
Continuous
 62
     7
100
AcDbLine
 10
320.4420109686418
 20
562.7576842770491
 30
0.0
 11
320.4420109686418
 21
530.7576842770491
 31
0.0
  0
LINE
  5
28B
330
6F
100
AcDbEntity
  8
_0-5_寸法線
  6
Continuous
 62
     7
100
AcDbLine
 10
320.4420109686418
 20
535.7576842770491
 30
0.0
 11
310.7827527057512
 21
533.1694938260239
 31
0.0
  0
LINE
  5
28C
330
6F
100
AcDbEntity
  8
_0-5_寸法線
  6
Continuous
 62
     7
100
AcDbLine
 10
320.4420109686418
 20
535.7576842770491
 30
0.0
 11
310.7827527057512
 21
538.3458747280744
 31
0.0
  0
LINE
  5
28D
330
6F
100
AcDbEntity
  8
_0-5_寸法線
  6
Continuous
 62
     7
100
AcDbLine
 10
270.4420109686418
 20
535.7576842770491
 30
0.0
 11
320.4420109686418
 21
535.7576842770491
 31
0.0
  0
TEXT
  5
28E
330
6F
100
AcDbEntity
  8
_0-5_寸法線
 62
     7
100
AcDbText
 10
287.9420109686421
 20
535.7576842770491
 30
0.0
 40
15.0
  1
50
 41
0.7
100
AcDbText
  0
LINE
  5
28F
330
6F
100
AcDbEntity
  8
_0-5_寸法線
  6
Continuous
 62
     7
100
AcDbLine
 10
320.4420109686418
 20
535.7576842770491
 30
0.0
 11
330.1012692315326
 21
538.3458747280744
 31
0.0
  0
LINE
  5
290
330
6F
100
AcDbEntity
  8
_0-5_寸法線
  6
Continuous
 62
     7
100
AcDbLine
 10
320.4420109686418
 20
535.7576842770491
 30
0.0
 11
330.1012692315325
 21
533.1694938260239
 31
0.0
  0
LINE
  5
291
330
6F
100
AcDbEntity
  8
_0-5_寸法線
  6
Continuous
 62
     7
100
AcDbLine
 10
1228.442010968642
 20
562.7576842770491
 30
0.0
 11
1228.442010968642
 21
530.7576842770491
 31
0.0
  0
LINE
  5
292
330
6F
100
AcDbEntity
  8
_0-5_寸法線
  6
Continuous
 62
     7
100
AcDbLine
 10
1228.442010968642
 20
535.7576842770491
 30
0.0
 11
1218.782752705751
 21
533.1694938260239
 31
0.0
  0
LINE
  5
293
330
6F
100
AcDbEntity
  8
_0-5_寸法線
  6
Continuous
 62
     7
100
AcDbLine
 10
1228.442010968642
 20
535.7576842770491
 30
0.0
 11
1218.782752705751
 21
538.3458747280744
 31
0.0
  0
LINE
  5
294
330
6F
100
AcDbEntity
  8
_0-5_寸法線
  6
Continuous
 62
     7
100
AcDbLine
 10
320.4420109686418
 20
535.7576842770491
 30
0.0
 11
1228.442010968642
 21
535.7576842770491
 31
0.0
  0
TEXT
  5
295
330
6F
100
AcDbEntity
  8
_0-5_寸法線
 62
     7
100
AcDbText
 10
751.9420109686418
 20
535.7576842770491
 30
0.0
 40
15.0
  1
＠\U+00D7Ｎ
 41
0.7
100
AcDbText
  0
LINE
  5
296
330
6F
100
AcDbEntity
  8
_0-5_寸法線
  6
Continuous
 62
     7
100
AcDbLine
 10
1228.442010968642
 20
535.7576842770491
 30
0.0
 11
1238.101269231533
 21
538.3458747280744
 31
0.0
  0
LINE
  5
297
330
6F
100
AcDbEntity
  8
_0-5_寸法線
  6
Continuous
 62
     7
100
AcDbLine
 10
1228.442010968642
 20
535.7576842770491
 30
0.0
 11
1238.101269231533
 21
533.1694938260239
 31
0.0
  0
LINE
  5
298
330
6F
100
AcDbEntity
  8
_0-5_寸法線
  6
Continuous
 62
     7
100
AcDbLine
 10
1278.442010968642
 20
585.7576842770493
 30
0.0
 11
1278.442010968642
 21
530.7576842770491
 31
0.0
  0
LINE
  5
299
330
6F
100
AcDbEntity
  8
_0-5_寸法線
  6
Continuous
 62
     7
100
AcDbLine
 10
1278.442010968642
 20
535.7576842770491
 30
0.0
 11
1268.782752705752
 21
533.1694938260239
 31
0.0
  0
LINE
  5
29A
330
6F
100
AcDbEntity
  8
_0-5_寸法線
  6
Continuous
 62
     7
100
AcDbLine
 10
1278.442010968642
 20
535.7576842770491
 30
0.0
 11
1268.782752705752
 21
538.3458747280744
 31
0.0
  0
LINE
  5
29B
330
6F
100
AcDbEntity
  8
_0-5_寸法線
  6
Continuous
 62
     7
100
AcDbLine
 10
1228.442010968642
 20
535.7576842770491
 30
0.0
 11
1278.442010968642
 21
535.7576842770491
 31
0.0
  0
TEXT
  5
29C
330
6F
100
AcDbEntity
  8
_0-5_寸法線
 62
     7
100
AcDbText
 10
1245.942010968641
 20
535.7576842770491
 30
0.0
 40
15.0
  1
50
 41
0.7
100
AcDbText
  0
LINE
  5
29D
330
6F
100
AcDbEntity
  8
_0-1_計細線
  6
Continuous
 62
     3
100
AcDbLine
 10
780.4420109686418
 20
593.7576842770493
 30
0.0
 11
782.4420109686423
 21
595.7576842770492
 31
0.0
  0
LINE
  5
29E
330
6F
100
AcDbEntity
  8
_0-1_計細線
  6
Continuous
 62
     3
100
AcDbLine
 10
780.4420109686418
 20
591.7576842770492
 30
0.0
 11
782.4420109686423
 21
589.7576842770493
 31
0.0
  0
LINE
  5
29F
330
6F
100
AcDbEntity
  8
_0-1_計細線
  6
Continuous
 62
     3
100
AcDbLine
 10
780.4420109686418
 20
591.7576842770492
 30
0.0
 11
780.4420109686418
 21
593.7576842770493
 31
0.0
  0
LINE
  5
2A0
330
6F
100
AcDbEntity
  8
_0-1_計細線
  6
Continuous
 62
     3
100
AcDbLine
 10
768.4420109686418
 20
593.7576842770493
 30
0.0
 11
766.4420109686418
 21
595.7576842770492
 31
0.0
  0
LINE
  5
2A1
330
6F
100
AcDbEntity
  8
_0-1_計細線
  6
Continuous
 62
     3
100
AcDbLine
 10
768.4420109686418
 20
591.7576842770492
 30
0.0
 11
766.4420109686418
 21
589.7576842770493
 31
0.0
  0
LINE
  5
2A2
330
6F
100
AcDbEntity
  8
_0-1_計細線
  6
Continuous
 62
     3
100
AcDbLine
 10
768.4420109686418
 20
591.7576842770492
 30
0.0
 11
768.4420109686418
 21
593.7576842770493
 31
0.0
  0
LINE
  5
2A3
330
6F
100
AcDbEntity
  8
_0-0_計極細
  6
CENTER1
 62
     2
100
AcDbLine
 10
774.4420109686423
 20
609.419085792201
 30
0.0
 11
774.4420109686423
 21
571.6010302366453
 31
0.0
  0
LINE
  5
2A4
330
6F
100
AcDbEntity
  8
_0-1_計細線
  6
Continuous
 62
     3
100
AcDbLine
 10
766.4420109686418
 20
595.7576842770492
 30
0.0
 11
766.4420109686418
 21
605.7576842770493
 31
0.0
  0
LINE
  5
2A5
330
6F
100
AcDbEntity
  8
_0-1_計細線
  6
Continuous
 62
     3
100
AcDbLine
 10
766.4420109686418
 20
605.7576842770493
 30
0.0
 11
768.4420109686418
 21
607.7576842770493
 31
0.0
  0
LINE
  5
2A6
330
6F
100
AcDbEntity
  8
_0-1_計細線
  6
Continuous
 62
     3
100
AcDbLine
 10
782.4420109686423
 20
595.7576842770492
 30
0.0
 11
782.4420109686423
 21
605.7576842770493
 31
0.0
  0
LINE
  5
2A7
330
6F
100
AcDbEntity
  8
_0-1_計細線
  6
Continuous
 62
     3
100
AcDbLine
 10
768.4420109686418
 20
607.7576842770493
 30
0.0
 11
780.4420109686418
 21
607.7576842770493
 31
0.0
  0
LINE
  5
2A8
330
6F
100
AcDbEntity
  8
_0-1_計細線
  6
Continuous
 62
     3
100
AcDbLine
 10
782.4420109686423
 20
605.7576842770493
 30
0.0
 11
780.4420109686418
 21
607.7576842770493
 31
0.0
  0
LINE
  5
2A9
330
6F
100
AcDbEntity
  8
_0-1_計細線
  6
Continuous
 62
     3
100
AcDbLine
 10
766.4420109686418
 20
575.7576842770492
 30
0.0
 11
766.4420109686418
 21
589.7576842770493
 31
0.0
  0
ARC
  5
2AA
330
6F
100
AcDbEntity
  8
_0-1_計細線
  6
Continuous
 62
     3
100
AcDbCircle
 10
769.4420109686423
 20
575.7576842770492
 30
0.0
 40
3.0
100
AcDbArc
 50
179.9999999999998
 51
269.9999999999997
  0
LINE
  5
2AB
330
6F
100
AcDbEntity
  8
_0-1_計細線
  6
Continuous
 62
     3
100
AcDbLine
 10
779.4420109686423
 20
572.7576842770493
 30
0.0
 11
769.4420109686423
 21
572.7576842770493
 31
0.0
  0
LINE
  5
2AC
330
6F
100
AcDbEntity
  8
_0-1_計細線
  6
Continuous
 62
     3
100
AcDbLine
 10
782.4420109686423
 20
589.7576842770493
 30
0.0
 11
782.4420109686423
 21
575.7576842770492
 31
0.0
  0
ARC
  5
2AD
330
6F
100
AcDbEntity
  8
_0-1_計細線
  6
Continuous
 62
     3
100
AcDbCircle
 10
779.4420109686423
 20
575.7576842770492
 30
0.0
 40
3.0
100
AcDbArc
 50
269.9999999999997
 51
359.9999999999997
  0
LINE
  5
2AE
330
6F
100
AcDbEntity
  8
_0-1_計細線
  6
DASHED2
 62
     3
100
AcDbLine
 10
782.4420109686423
 20
595.7576842770492
 30
0.0
 11
766.4420109686418
 21
595.7576842770492
 31
0.0
  0
LINE
  5
2AF
330
6F
100
AcDbEntity
  8
_0-1_計細線
  6
Continuous
 62
     3
100
AcDbLine
 10
1220.442010968642
 20
595.7576842770492
 30
0.0
 11
782.4420109686423
 21
595.7576842770492
 31
0.0
  0
LINE
  5
2B0
330
6F
100
AcDbEntity
  8
_0-1_計細線
  6
Continuous
 62
     3
100
AcDbLine
 10
766.4420109686418
 20
595.7576842770492
 30
0.0
 11
328.4420109686419
 21
595.7576842770492
 31
0.0
  0
LINE
  5
2B1
330
6F
100
AcDbEntity
  8
_0-5_寸法線
  6
Continuous
 62
     7
100
AcDbLine
 10
320.4420109686418
 20
572.7576842770493
 30
0.0
 11
328.0618536745246
 21
566.2817289701
 31
0.0
  0
LINE
  5
2B2
330
6F
100
AcDbEntity
  8
_0-5_寸法線
  6
Continuous
 62
     7
100
AcDbLine
 10
320.4420109686418
 20
572.7576842770493
 30
0.0
 11
323.8030106713032
 21
563.3394211145171
 31
0.0
  0
LINE
  5
2B3
330
6F
100
AcDbEntity
  8
_0-5_寸法線
  6
Continuous
 62
     7
100
AcDbLine
 10
320.4420109686418
 20
572.7576842770493
 30
0.0
 11
338.1808323105431
 21
547.0816303542732
 31
0.0
  0
LINE
  5
2B4
330
6F
100
AcDbEntity
  8
_0-5_寸法線
  6
Continuous
 62
     7
100
AcDbLine
 10
338.1808323105431
 20
547.0816303542732
 30
0.0
 11
386.1808323105431
 21
547.0816303542732
 31
0.0
  0
TEXT
  5
2B5
330
6F
100
AcDbEntity
  8
_0-5_寸法線
 62
     7
100
AcDbText
 10
338.1808323105431
 20
547.0816303542732
 30
0.0
 40
15.0
  1
アンカー
 41
0.7
100
AcDbText
  0
TEXT
  5
2B6
330
6F
100
AcDbEntity
  8
_0-7_枠細線
 62
     5
100
AcDbText
 10
685.6698334014598
 20
177.9472693032018
 30
0.0
 40
15.0
  1
5.0kN/m2
 41
0.65
100
AcDbText
  0
LINE
  5
2B7
330
6F
100
AcDbEntity
  8
_0-0_計極細
  6
Continuous
 62
     2
100
AcDbLine
 10
282.692010967442
 20
777.857682780609
 30
0.0
 11
282.692010967442
 21
771.857682780609
 31
0.0
  0
LINE
  5
2B8
330
6F
100
AcDbEntity
  8
_0-0_計極細
  6
Continuous
 62
     2
100
AcDbLine
 10
282.692010967442
 20
760.4576827806083
 30
0.0
 11
282.692010967442
 21
754.457682780608
 31
0.0
  0
LINE
  5
2B9
330
6F
100
AcDbEntity
  8
_0-0_計極細
  6
Continuous
 62
     2
100
AcDbLine
 10
282.692010967442
 20
743.0576827806076
 30
0.0
 11
282.692010967442
 21
737.0576827806075
 31
0.0
  0
LINE
  5
2BA
330
6F
100
AcDbEntity
  8
_0-0_計極細
  6
Continuous
 62
     2
100
AcDbLine
 10
282.692010967442
 20
719.6576827806118
 30
0.0
 11
282.692010967442
 21
725.6576827806116
 31
0.0
  0
LINE
  5
2BB
330
6F
100
AcDbEntity
  8
_0-0_計極細
  6
Continuous
 62
     2
100
AcDbLine
 10
296.1920109674421
 20
777.857682780609
 30
0.0
 11
296.1920109674421
 21
771.857682780609
 31
0.0
  0
LINE
  5
2BC
330
6F
100
AcDbEntity
  8
_0-0_計極細
  6
Continuous
 62
     2
100
AcDbLine
 10
296.1920109674421
 20
760.4576827806083
 30
0.0
 11
296.1920109674421
 21
754.457682780608
 31
0.0
  0
LINE
  5
2BD
330
6F
100
AcDbEntity
  8
_0-0_計極細
  6
Continuous
 62
     2
100
AcDbLine
 10
296.1920109674421
 20
743.0576827806076
 30
0.0
 11
296.1920109674421
 21
737.0576827806075
 31
0.0
  0
LINE
  5
2BE
330
6F
100
AcDbEntity
  8
_0-0_計極細
  6
Continuous
 62
     2
100
AcDbLine
 10
296.1920109674421
 20
719.6576827806118
 30
0.0
 11
296.1920109674421
 21
725.6576827806116
 31
0.0
  0
LINE
  5
2BF
330
6F
100
AcDbEntity
  8
_0-0_計極細
  6
Continuous
 62
     2
100
AcDbLine
 10
379.692010967442
 20
777.857682780609
 30
0.0
 11
379.692010967442
 21
771.857682780609
 31
0.0
  0
LINE
  5
2C0
330
6F
100
AcDbEntity
  8
_0-0_計極細
  6
Continuous
 62
     2
100
AcDbLine
 10
379.692010967442
 20
760.4576827806083
 30
0.0
 11
379.692010967442
 21
754.457682780608
 31
0.0
  0
LINE
  5
2C1
330
6F
100
AcDbEntity
  8
_0-0_計極細
  6
Continuous
 62
     2
100
AcDbLine
 10
379.692010967442
 20
743.0576827806076
 30
0.0
 11
379.692010967442
 21
737.0576827806075
 31
0.0
  0
LINE
  5
2C2
330
6F
100
AcDbEntity
  8
_0-0_計極細
  6
Continuous
 62
     2
100
AcDbLine
 10
379.692010967442
 20
719.6576827806118
 30
0.0
 11
379.692010967442
 21
725.6576827806116
 31
0.0
  0
LINE
  5
2C3
330
6F
100
AcDbEntity
  8
_0-0_計極細
  6
Continuous
 62
     2
100
AcDbLine
 10
393.192010967442
 20
777.857682780609
 30
0.0
 11
393.192010967442
 21
771.857682780609
 31
0.0
  0
LINE
  5
2C4
330
6F
100
AcDbEntity
  8
_0-0_計極細
  6
Continuous
 62
     2
100
AcDbLine
 10
393.192010967442
 20
760.4576827806083
 30
0.0
 11
393.192010967442
 21
754.457682780608
 31
0.0
  0
LINE
  5
2C5
330
6F
100
AcDbEntity
  8
_0-0_計極細
  6
Continuous
 62
     2
100
AcDbLine
 10
393.192010967442
 20
743.0576827806076
 30
0.0
 11
393.192010967442
 21
737.0576827806075
 31
0.0
  0
LINE
  5
2C6
330
6F
100
AcDbEntity
  8
_0-0_計極細
  6
Continuous
 62
     2
100
AcDbLine
 10
393.192010967442
 20
719.6576827806118
 30
0.0
 11
393.192010967442
 21
725.6576827806116
 31
0.0
  0
LINE
  5
2C7
330
6F
100
AcDbEntity
  8
_0-0_計極細
  6
Continuous
 62
     2
100
AcDbLine
 10
476.692010967442
 20
777.857682780609
 30
0.0
 11
476.692010967442
 21
771.857682780609
 31
0.0
  0
LINE
  5
2C8
330
6F
100
AcDbEntity
  8
_0-0_計極細
  6
Continuous
 62
     2
100
AcDbLine
 10
476.692010967442
 20
760.4576827806083
 30
0.0
 11
476.692010967442
 21
754.457682780608
 31
0.0
  0
LINE
  5
2C9
330
6F
100
AcDbEntity
  8
_0-0_計極細
  6
Continuous
 62
     2
100
AcDbLine
 10
476.692010967442
 20
743.0576827806076
 30
0.0
 11
476.692010967442
 21
737.0576827806075
 31
0.0
  0
LINE
  5
2CA
330
6F
100
AcDbEntity
  8
_0-0_計極細
  6
Continuous
 62
     2
100
AcDbLine
 10
476.692010967442
 20
719.6576827806118
 30
0.0
 11
476.692010967442
 21
725.6576827806116
 31
0.0
  0
LINE
  5
2CB
330
6F
100
AcDbEntity
  8
_0-0_計極細
  6
Continuous
 62
     2
100
AcDbLine
 10
490.1920109674421
 20
777.857682780609
 30
0.0
 11
490.1920109674421
 21
771.857682780609
 31
0.0
  0
LINE
  5
2CC
330
6F
100
AcDbEntity
  8
_0-0_計極細
  6
Continuous
 62
     2
100
AcDbLine
 10
490.1920109674421
 20
760.4576827806083
 30
0.0
 11
490.1920109674421
 21
754.457682780608
 31
0.0
  0
LINE
  5
2CD
330
6F
100
AcDbEntity
  8
_0-0_計極細
  6
Continuous
 62
     2
100
AcDbLine
 10
490.1920109674421
 20
743.0576827806076
 30
0.0
 11
490.1920109674421
 21
737.0576827806075
 31
0.0
  0
LINE
  5
2CE
330
6F
100
AcDbEntity
  8
_0-0_計極細
  6
Continuous
 62
     2
100
AcDbLine
 10
490.1920109674421
 20
719.6576827806118
 30
0.0
 11
490.1920109674421
 21
725.6576827806116
 31
0.0
  0
LINE
  5
2CF
330
6F
100
AcDbEntity
  8
_0-0_計極細
  6
Continuous
 62
     2
100
AcDbLine
 10
573.692010967442
 20
777.857682780609
 30
0.0
 11
573.692010967442
 21
771.857682780609
 31
0.0
  0
LINE
  5
2D0
330
6F
100
AcDbEntity
  8
_0-0_計極細
  6
Continuous
 62
     2
100
AcDbLine
 10
573.692010967442
 20
760.4576827806083
 30
0.0
 11
573.692010967442
 21
754.457682780608
 31
0.0
  0
LINE
  5
2D1
330
6F
100
AcDbEntity
  8
_0-0_計極細
  6
Continuous
 62
     2
100
AcDbLine
 10
573.692010967442
 20
743.0576827806076
 30
0.0
 11
573.692010967442
 21
737.0576827806075
 31
0.0
  0
LINE
  5
2D2
330
6F
100
AcDbEntity
  8
_0-0_計極細
  6
Continuous
 62
     2
100
AcDbLine
 10
573.692010967442
 20
719.6576827806118
 30
0.0
 11
573.692010967442
 21
725.6576827806116
 31
0.0
  0
LINE
  5
2D3
330
6F
100
AcDbEntity
  8
_0-0_計極細
  6
Continuous
 62
     2
100
AcDbLine
 10
587.192010967442
 20
777.857682780609
 30
0.0
 11
587.192010967442
 21
771.857682780609
 31
0.0
  0
LINE
  5
2D4
330
6F
100
AcDbEntity
  8
_0-0_計極細
  6
Continuous
 62
     2
100
AcDbLine
 10
587.192010967442
 20
760.4576827806083
 30
0.0
 11
587.192010967442
 21
754.457682780608
 31
0.0
  0
LINE
  5
2D5
330
6F
100
AcDbEntity
  8
_0-0_計極細
  6
Continuous
 62
     2
100
AcDbLine
 10
587.192010967442
 20
743.0576827806076
 30
0.0
 11
587.192010967442
 21
737.0576827806075
 31
0.0
  0
LINE
  5
2D6
330
6F
100
AcDbEntity
  8
_0-0_計極細
  6
Continuous
 62
     2
100
AcDbLine
 10
587.192010967442
 20
719.6576827806118
 30
0.0
 11
587.192010967442
 21
725.6576827806116
 31
0.0
  0
LINE
  5
2D7
330
6F
100
AcDbEntity
  8
_0-0_計極細
  6
Continuous
 62
     2
100
AcDbLine
 10
670.692010967442
 20
777.857682780609
 30
0.0
 11
670.692010967442
 21
771.857682780609
 31
0.0
  0
LINE
  5
2D8
330
6F
100
AcDbEntity
  8
_0-0_計極細
  6
Continuous
 62
     2
100
AcDbLine
 10
670.692010967442
 20
760.4576827806083
 30
0.0
 11
670.692010967442
 21
754.457682780608
 31
0.0
  0
LINE
  5
2D9
330
6F
100
AcDbEntity
  8
_0-0_計極細
  6
Continuous
 62
     2
100
AcDbLine
 10
670.692010967442
 20
743.0576827806076
 30
0.0
 11
670.692010967442
 21
737.0576827806075
 31
0.0
  0
LINE
  5
2DA
330
6F
100
AcDbEntity
  8
_0-0_計極細
  6
Continuous
 62
     2
100
AcDbLine
 10
670.692010967442
 20
719.6576827806118
 30
0.0
 11
670.692010967442
 21
725.6576827806116
 31
0.0
  0
LINE
  5
2DB
330
6F
100
AcDbEntity
  8
_0-0_計極細
  6
Continuous
 62
     2
100
AcDbLine
 10
684.1920109674419
 20
777.857682780609
 30
0.0
 11
684.1920109674419
 21
771.857682780609
 31
0.0
  0
LINE
  5
2DC
330
6F
100
AcDbEntity
  8
_0-0_計極細
  6
Continuous
 62
     2
100
AcDbLine
 10
684.1920109674419
 20
760.4576827806083
 30
0.0
 11
684.1920109674419
 21
754.457682780608
 31
0.0
  0
LINE
  5
2DD
330
6F
100
AcDbEntity
  8
_0-0_計極細
  6
Continuous
 62
     2
100
AcDbLine
 10
684.1920109674419
 20
743.0576827806076
 30
0.0
 11
684.1920109674419
 21
737.0576827806075
 31
0.0
  0
LINE
  5
2DE
330
6F
100
AcDbEntity
  8
_0-0_計極細
  6
Continuous
 62
     2
100
AcDbLine
 10
684.1920109674419
 20
719.6576827806118
 30
0.0
 11
684.1920109674419
 21
725.6576827806116
 31
0.0
  0
LINE
  5
2DF
330
6F
100
AcDbEntity
  8
_0-0_計極細
  6
Continuous
 62
     2
100
AcDbLine
 10
767.6920109674419
 20
777.857682780609
 30
0.0
 11
767.6920109674419
 21
771.857682780609
 31
0.0
  0
LINE
  5
2E0
330
6F
100
AcDbEntity
  8
_0-0_計極細
  6
Continuous
 62
     2
100
AcDbLine
 10
767.6920109674419
 20
760.4576827806083
 30
0.0
 11
767.6920109674419
 21
754.457682780608
 31
0.0
  0
LINE
  5
2E1
330
6F
100
AcDbEntity
  8
_0-0_計極細
  6
Continuous
 62
     2
100
AcDbLine
 10
767.6920109674419
 20
743.0576827806076
 30
0.0
 11
767.6920109674419
 21
737.0576827806075
 31
0.0
  0
LINE
  5
2E2
330
6F
100
AcDbEntity
  8
_0-0_計極細
  6
Continuous
 62
     2
100
AcDbLine
 10
767.6920109674419
 20
719.6576827806118
 30
0.0
 11
767.6920109674419
 21
725.6576827806116
 31
0.0
  0
LINE
  5
2E3
330
6F
100
AcDbEntity
  8
_0-0_計極細
  6
Continuous
 62
     2
100
AcDbLine
 10
781.192010967442
 20
777.857682780609
 30
0.0
 11
781.192010967442
 21
771.857682780609
 31
0.0
  0
LINE
  5
2E4
330
6F
100
AcDbEntity
  8
_0-0_計極細
  6
Continuous
 62
     2
100
AcDbLine
 10
781.192010967442
 20
760.4576827806083
 30
0.0
 11
781.192010967442
 21
754.457682780608
 31
0.0
  0
LINE
  5
2E5
330
6F
100
AcDbEntity
  8
_0-0_計極細
  6
Continuous
 62
     2
100
AcDbLine
 10
781.192010967442
 20
743.0576827806076
 30
0.0
 11
781.192010967442
 21
737.0576827806075
 31
0.0
  0
LINE
  5
2E6
330
6F
100
AcDbEntity
  8
_0-0_計極細
  6
Continuous
 62
     2
100
AcDbLine
 10
781.192010967442
 20
719.6576827806118
 30
0.0
 11
781.192010967442
 21
725.6576827806116
 31
0.0
  0
LINE
  5
2E7
330
6F
100
AcDbEntity
  8
_0-0_計極細
  6
Continuous
 62
     2
100
AcDbLine
 10
864.692010967442
 20
777.857682780609
 30
0.0
 11
864.692010967442
 21
771.857682780609
 31
0.0
  0
LINE
  5
2E8
330
6F
100
AcDbEntity
  8
_0-0_計極細
  6
Continuous
 62
     2
100
AcDbLine
 10
864.692010967442
 20
760.4576827806083
 30
0.0
 11
864.692010967442
 21
754.457682780608
 31
0.0
  0
LINE
  5
2E9
330
6F
100
AcDbEntity
  8
_0-0_計極細
  6
Continuous
 62
     2
100
AcDbLine
 10
864.692010967442
 20
743.0576827806076
 30
0.0
 11
864.692010967442
 21
737.0576827806075
 31
0.0
  0
LINE
  5
2EA
330
6F
100
AcDbEntity
  8
_0-0_計極細
  6
Continuous
 62
     2
100
AcDbLine
 10
864.692010967442
 20
719.6576827806118
 30
0.0
 11
864.692010967442
 21
725.6576827806116
 31
0.0
  0
LINE
  5
2EB
330
6F
100
AcDbEntity
  8
_0-0_計極細
  6
Continuous
 62
     2
100
AcDbLine
 10
878.1920109674421
 20
777.857682780609
 30
0.0
 11
878.1920109674421
 21
771.857682780609
 31
0.0
  0
LINE
  5
2EC
330
6F
100
AcDbEntity
  8
_0-0_計極細
  6
Continuous
 62
     2
100
AcDbLine
 10
878.1920109674421
 20
760.4576827806083
 30
0.0
 11
878.1920109674421
 21
754.457682780608
 31
0.0
  0
LINE
  5
2ED
330
6F
100
AcDbEntity
  8
_0-0_計極細
  6
Continuous
 62
     2
100
AcDbLine
 10
878.1920109674421
 20
743.0576827806076
 30
0.0
 11
878.1920109674421
 21
737.0576827806075
 31
0.0
  0
LINE
  5
2EE
330
6F
100
AcDbEntity
  8
_0-0_計極細
  6
Continuous
 62
     2
100
AcDbLine
 10
878.1920109674421
 20
719.6576827806118
 30
0.0
 11
878.1920109674421
 21
725.6576827806116
 31
0.0
  0
LINE
  5
2EF
330
6F
100
AcDbEntity
  8
_0-0_計極細
  6
Continuous
 62
     2
100
AcDbLine
 10
961.6920109674421
 20
777.857682780609
 30
0.0
 11
961.6920109674421
 21
771.857682780609
 31
0.0
  0
LINE
  5
2F0
330
6F
100
AcDbEntity
  8
_0-0_計極細
  6
Continuous
 62
     2
100
AcDbLine
 10
961.6920109674421
 20
760.4576827806083
 30
0.0
 11
961.6920109674421
 21
754.457682780608
 31
0.0
  0
LINE
  5
2F1
330
6F
100
AcDbEntity
  8
_0-0_計極細
  6
Continuous
 62
     2
100
AcDbLine
 10
961.6920109674421
 20
743.0576827806076
 30
0.0
 11
961.6920109674421
 21
737.0576827806075
 31
0.0
  0
LINE
  5
2F2
330
6F
100
AcDbEntity
  8
_0-0_計極細
  6
Continuous
 62
     2
100
AcDbLine
 10
961.6920109674421
 20
719.6576827806118
 30
0.0
 11
961.6920109674421
 21
725.6576827806116
 31
0.0
  0
LINE
  5
2F3
330
6F
100
AcDbEntity
  8
_0-0_計極細
  6
Continuous
 62
     2
100
AcDbLine
 10
975.1920109674419
 20
777.857682780609
 30
0.0
 11
975.1920109674419
 21
771.857682780609
 31
0.0
  0
LINE
  5
2F4
330
6F
100
AcDbEntity
  8
_0-0_計極細
  6
Continuous
 62
     2
100
AcDbLine
 10
975.1920109674419
 20
760.4576827806083
 30
0.0
 11
975.1920109674419
 21
754.457682780608
 31
0.0
  0
LINE
  5
2F5
330
6F
100
AcDbEntity
  8
_0-0_計極細
  6
Continuous
 62
     2
100
AcDbLine
 10
975.1920109674419
 20
743.0576827806076
 30
0.0
 11
975.1920109674419
 21
737.0576827806075
 31
0.0
  0
LINE
  5
2F6
330
6F
100
AcDbEntity
  8
_0-0_計極細
  6
Continuous
 62
     2
100
AcDbLine
 10
975.1920109674419
 20
719.6576827806118
 30
0.0
 11
975.1920109674419
 21
725.6576827806116
 31
0.0
  0
LINE
  5
2F7
330
6F
100
AcDbEntity
  8
_0-0_計極細
  6
Continuous
 62
     2
100
AcDbLine
 10
1058.692010967442
 20
777.857682780609
 30
0.0
 11
1058.692010967442
 21
771.857682780609
 31
0.0
  0
LINE
  5
2F8
330
6F
100
AcDbEntity
  8
_0-0_計極細
  6
Continuous
 62
     2
100
AcDbLine
 10
1058.692010967442
 20
760.4576827806083
 30
0.0
 11
1058.692010967442
 21
754.457682780608
 31
0.0
  0
LINE
  5
2F9
330
6F
100
AcDbEntity
  8
_0-0_計極細
  6
Continuous
 62
     2
100
AcDbLine
 10
1058.692010967442
 20
743.0576827806076
 30
0.0
 11
1058.692010967442
 21
737.0576827806075
 31
0.0
  0
LINE
  5
2FA
330
6F
100
AcDbEntity
  8
_0-0_計極細
  6
Continuous
 62
     2
100
AcDbLine
 10
1058.692010967442
 20
719.6576827806118
 30
0.0
 11
1058.692010967442
 21
725.6576827806116
 31
0.0
  0
LINE
  5
2FB
330
6F
100
AcDbEntity
  8
_0-0_計極細
  6
Continuous
 62
     2
100
AcDbLine
 10
1072.192010967442
 20
777.857682780609
 30
0.0
 11
1072.192010967442
 21
771.857682780609
 31
0.0
  0
LINE
  5
2FC
330
6F
100
AcDbEntity
  8
_0-0_計極細
  6
Continuous
 62
     2
100
AcDbLine
 10
1072.192010967442
 20
760.4576827806083
 30
0.0
 11
1072.192010967442
 21
754.457682780608
 31
0.0
  0
LINE
  5
2FD
330
6F
100
AcDbEntity
  8
_0-0_計極細
  6
Continuous
 62
     2
100
AcDbLine
 10
1072.192010967442
 20
743.0576827806076
 30
0.0
 11
1072.192010967442
 21
737.0576827806075
 31
0.0
  0
LINE
  5
2FE
330
6F
100
AcDbEntity
  8
_0-0_計極細
  6
Continuous
 62
     2
100
AcDbLine
 10
1072.192010967442
 20
719.6576827806118
 30
0.0
 11
1072.192010967442
 21
725.6576827806116
 31
0.0
  0
LINE
  5
2FF
330
6F
100
AcDbEntity
  8
_0-0_計極細
  6
Continuous
 62
     2
100
AcDbLine
 10
1155.692010967442
 20
777.857682780609
 30
0.0
 11
1155.692010967442
 21
771.857682780609
 31
0.0
  0
LINE
  5
300
330
6F
100
AcDbEntity
  8
_0-0_計極細
  6
Continuous
 62
     2
100
AcDbLine
 10
1155.692010967442
 20
760.4576827806083
 30
0.0
 11
1155.692010967442
 21
754.457682780608
 31
0.0
  0
LINE
  5
301
330
6F
100
AcDbEntity
  8
_0-0_計極細
  6
Continuous
 62
     2
100
AcDbLine
 10
1155.692010967442
 20
743.0576827806076
 30
0.0
 11
1155.692010967442
 21
737.0576827806075
 31
0.0
  0
LINE
  5
302
330
6F
100
AcDbEntity
  8
_0-0_計極細
  6
Continuous
 62
     2
100
AcDbLine
 10
1155.692010967442
 20
719.6576827806118
 30
0.0
 11
1155.692010967442
 21
725.6576827806116
 31
0.0
  0
LINE
  5
303
330
6F
100
AcDbEntity
  8
_0-0_計極細
  6
Continuous
 62
     2
100
AcDbLine
 10
1169.192010967442
 20
777.857682780609
 30
0.0
 11
1169.192010967442
 21
771.857682780609
 31
0.0
  0
LINE
  5
304
330
6F
100
AcDbEntity
  8
_0-0_計極細
  6
Continuous
 62
     2
100
AcDbLine
 10
1169.192010967442
 20
760.4576827806083
 30
0.0
 11
1169.192010967442
 21
754.457682780608
 31
0.0
  0
LINE
  5
305
330
6F
100
AcDbEntity
  8
_0-0_計極細
  6
Continuous
 62
     2
100
AcDbLine
 10
1169.192010967442
 20
743.0576827806076
 30
0.0
 11
1169.192010967442
 21
737.0576827806075
 31
0.0
  0
LINE
  5
306
330
6F
100
AcDbEntity
  8
_0-0_計極細
  6
Continuous
 62
     2
100
AcDbLine
 10
1169.192010967442
 20
719.6576827806118
 30
0.0
 11
1169.192010967442
 21
725.6576827806116
 31
0.0
  0
LINE
  5
307
330
6F
100
AcDbEntity
  8
_0-0_計極細
  6
Continuous
 62
     2
100
AcDbLine
 10
1252.692010967442
 20
777.857682780609
 30
0.0
 11
1252.692010967442
 21
771.857682780609
 31
0.0
  0
LINE
  5
308
330
6F
100
AcDbEntity
  8
_0-0_計極細
  6
Continuous
 62
     2
100
AcDbLine
 10
1252.692010967442
 20
760.4576827806083
 30
0.0
 11
1252.692010967442
 21
754.457682780608
 31
0.0
  0
LINE
  5
309
330
6F
100
AcDbEntity
  8
_0-0_計極細
  6
Continuous
 62
     2
100
AcDbLine
 10
1252.692010967442
 20
743.0576827806076
 30
0.0
 11
1252.692010967442
 21
737.0576827806075
 31
0.0
  0
LINE
  5
30A
330
6F
100
AcDbEntity
  8
_0-0_計極細
  6
Continuous
 62
     2
100
AcDbLine
 10
1252.692010967442
 20
719.6576827806118
 30
0.0
 11
1252.692010967442
 21
725.6576827806116
 31
0.0
  0
LINE
  5
30B
330
6F
100
AcDbEntity
  8
_0-0_計極細
  6
Continuous
 62
     2
100
AcDbLine
 10
1266.192010967442
 20
777.857682780609
 30
0.0
 11
1266.192010967442
 21
771.857682780609
 31
0.0
  0
LINE
  5
30C
330
6F
100
AcDbEntity
  8
_0-0_計極細
  6
Continuous
 62
     2
100
AcDbLine
 10
1266.192010967442
 20
760.4576827806083
 30
0.0
 11
1266.192010967442
 21
754.457682780608
 31
0.0
  0
LINE
  5
30D
330
6F
100
AcDbEntity
  8
_0-0_計極細
  6
Continuous
 62
     2
100
AcDbLine
 10
1266.192010967442
 20
743.0576827806076
 30
0.0
 11
1266.192010967442
 21
737.0576827806075
 31
0.0
  0
LINE
  5
30E
330
6F
100
AcDbEntity
  8
_0-0_計極細
  6
Continuous
 62
     2
100
AcDbLine
 10
1266.192010967442
 20
719.6576827806118
 30
0.0
 11
1266.192010967442
 21
725.6576827806116
 31
0.0
  0
LINE
  5
30F
330
6F
100
AcDbEntity
  8
_0-7_枠細線
  6
Continuous
 62
     5
100
AcDbLine
 10
1425.0
 20
935.0000000000001
 30
0.0
 11
890.0000000000005
 21
935.0000000000001
 31
0.0
  0
LINE
  5
310
330
6F
100
AcDbEntity
  8
_0-7_枠細線
  6
Continuous
 62
     5
100
AcDbLine
 10
915.0000000000005
 20
936.4423339717474
 30
0.0
 11
907.5000000000006
 21
951.4423339717474
 31
0.0
  0
LINE
  5
311
330
6F
100
AcDbEntity
  8
_0-7_枠細線
  6
Continuous
 62
     5
100
AcDbLine
 10
900.0000000000005
 20
936.4423339717474
 30
0.0
 11
915.0000000000005
 21
936.4423339717474
 31
0.0
  0
LINE
  5
312
330
6F
100
AcDbEntity
  8
_0-7_枠細線
  6
Continuous
 62
     5
100
AcDbLine
 10
907.5000000000006
 20
951.4423339717474
 30
0.0
 11
900.0000000000005
 21
936.4423339717474
 31
0.0
  0
TEXT
  5
313
330
6F
100
AcDbEntity
  8
_0-7_枠細線
 62
     5
100
AcDbText
 10
902.6866087169935
 20
936.6707991336005
 30
0.0
 40
12.5
  1
１
 41
0.8
100
AcDbText
  0
TEXT
  5
314
330
6F
100
AcDbEntity
  8
_0-7_枠細線
 62
     5
100
AcDbText
 10
1180.000000000001
 20
937.5000000000001
 30
0.0
 40
12.5
  1
２０２１．０４．０１
 41
0.63
100
AcDbText
  0
LINE
  5
315
330
6F
100
AcDbEntity
  8
_0-7_枠細線
  6
Continuous
 62
     5
100
AcDbLine
 10
1275.000000000001
 20
935.0000000000001
 30
0.0
 11
1275.000000000001
 21
969.9999999999993
 31
0.0
  0
LINE
  5
316
330
6F
100
AcDbEntity
  8
_0-7_枠細線
  6
Continuous
 62
     5
100
AcDbLine
 10
1175.0
 20
935.0000000000001
 30
0.0
 11
1175.0
 21
969.9999999999993
 31
0.0
  0
LINE
  5
317
330
6F
100
AcDbEntity
  8
_0-7_枠細線
  6
Continuous
 62
     5
100
AcDbLine
 10
925.0000000000005
 20
935.0000000000001
 30
0.0
 11
925.0000000000005
 21
969.9999999999993
 31
0.0
  0
LINE
  5
318
330
6F
100
AcDbEntity
  8
_0-7_枠細線
  6
Continuous
 62
     5
100
AcDbLine
 10
890.0000000000005
 20
935.0000000000001
 30
0.0
 11
890.0000000000005
 21
969.9999999999993
 31
0.0
  0
ARC
  5
319
330
6F
100
AcDbEntity
  8
_1-3_細線2
  6
Continuous
 62
     4
100
AcDbCircle
 10
364.7377577351929
 20
278.3530927835057
 30
0.0
 40
2.5
100
AcDbArc
 50
89.99999999999991
 51
179.9999999999998
  0
LINE
  5
31A
330
6F
100
AcDbEntity
  8
_1-3_細線2
  6
Continuous
 62
     4
100
AcDbLine
 10
394.7377577360975
 20
280.8530927835057
 30
0.0
 11
364.7377577351929
 21
280.8530927835057
 31
0.0
  0
ARC
  5
31B
330
6F
100
AcDbEntity
  8
_1-3_細線2
  6
Continuous
 62
     4
100
AcDbCircle
 10
394.7377577360975
 20
278.3530927835057
 30
0.0
 40
2.5
100
AcDbArc
 50
0.0
 51
89.99999999999991
  0
LINE
  5
31C
330
6F
100
AcDbEntity
  8
_1-3_細線2
  6
Continuous
 62
     4
100
AcDbLine
 10
362.237757735193
 20
278.3530927835057
 30
0.0
 11
362.237757735193
 21
247.1030927835057
 31
0.0
  0
ARC
  5
31D
330
6F
100
AcDbEntity
  8
_1-3_細線2
  6
Continuous
 62
     4
100
AcDbCircle
 10
364.7377577351929
 20
247.1030927835057
 30
0.0
 40
2.5
100
AcDbArc
 50
179.9999999999998
 51
269.9999999999997
  0
LINE
  5
31E
330
6F
100
AcDbEntity
  8
_1-3_細線2
  6
Continuous
 62
     4
100
AcDbLine
 10
397.2377577360975
 20
247.1030927835057
 30
0.0
 11
397.2377577360975
 21
278.3530927835057
 31
0.0
  0
LINE
  5
31F
330
6F
100
AcDbEntity
  8
_1-3_細線2
  6
Continuous
 62
     4
100
AcDbLine
 10
364.7377577351929
 20
244.6030927835058
 30
0.0
 11
394.7377577360975
 21
244.6030927835058
 31
0.0
  0
ARC
  5
320
330
6F
100
AcDbEntity
  8
_1-3_細線2
  6
Continuous
 62
     4
100
AcDbCircle
 10
394.7377577360975
 20
247.1030927835057
 30
0.0
 40
2.5
100
AcDbArc
 50
269.9999999999997
 51
359.9999999999997
  0
ARC
  5
321
330
6F
100
AcDbEntity
  8
_1-3_細線2
  6
Continuous
 62
     4
100
AcDbCircle
 10
408.2377577347183
 20
278.3530927835057
 30
0.0
 40
2.5
100
AcDbArc
 50
89.99999999999991
 51
179.9999999999998
  0
LINE
  5
322
330
6F
100
AcDbEntity
  8
_1-3_細線2
  6
Continuous
 62
     4
100
AcDbLine
 10
438.237757737002
 20
280.8530927835057
 30
0.0
 11
408.2377577347183
 21
280.8530927835057
 31
0.0
  0
ARC
  5
323
330
6F
100
AcDbEntity
  8
_1-3_細線2
  6
Continuous
 62
     4
100
AcDbCircle
 10
438.237757737002
 20
278.3530927835057
 30
0.0
 40
2.5
100
AcDbArc
 50
0.0
 51
89.99999999999991
  0
LINE
  5
324
330
6F
100
AcDbEntity
  8
_1-3_細線2
  6
Continuous
 62
     4
100
AcDbLine
 10
405.7377577347183
 20
278.3530927835057
 30
0.0
 11
405.7377577347183
 21
247.1030927835057
 31
0.0
  0
ARC
  5
325
330
6F
100
AcDbEntity
  8
_1-3_細線2
  6
Continuous
 62
     4
100
AcDbCircle
 10
408.2377577347183
 20
247.1030927835057
 30
0.0
 40
2.5
100
AcDbArc
 50
179.9999999999998
 51
269.9999999999997
  0
LINE
  5
326
330
6F
100
AcDbEntity
  8
_1-3_細線2
  6
Continuous
 62
     4
100
AcDbLine
 10
440.737757737002
 20
247.1030927835057
 30
0.0
 11
440.737757737002
 21
278.3530927835057
 31
0.0
  0
LINE
  5
327
330
6F
100
AcDbEntity
  8
_1-3_細線2
  6
Continuous
 62
     4
100
AcDbLine
 10
408.2377577347183
 20
244.6030927835058
 30
0.0
 11
438.237757737002
 21
244.6030927835058
 31
0.0
  0
ARC
  5
328
330
6F
100
AcDbEntity
  8
_1-3_細線2
  6
Continuous
 62
     4
100
AcDbCircle
 10
438.237757737002
 20
247.1030927835057
 30
0.0
 40
2.5
100
AcDbArc
 50
269.9999999999997
 51
359.9999999999997
  0
ARC
  5
329
330
6F
100
AcDbEntity
  8
_1-3_細線2
  6
Continuous
 62
     4
100
AcDbCircle
 10
451.7377577356228
 20
278.3530927835057
 30
0.0
 40
2.5
100
AcDbArc
 50
89.99999999999991
 51
179.9999999999998
  0
LINE
  5
32A
330
6F
100
AcDbEntity
  8
_1-3_細線2
  6
Continuous
 62
     4
100
AcDbLine
 10
481.737757737906
 20
280.8530927835057
 30
0.0
 11
451.7377577356228
 21
280.8530927835057
 31
0.0
  0
ARC
  5
32B
330
6F
100
AcDbEntity
  8
_1-3_細線2
  6
Continuous
 62
     4
100
AcDbCircle
 10
481.737757737906
 20
278.3530927835057
 30
0.0
 40
2.5
100
AcDbArc
 50
0.0
 51
89.99999999999991
  0
LINE
  5
32C
330
6F
100
AcDbEntity
  8
_1-3_細線2
  6
Continuous
 62
     4
100
AcDbLine
 10
449.2377577356228
 20
278.3530927835057
 30
0.0
 11
449.2377577356228
 21
247.1030927835057
 31
0.0
  0
ARC
  5
32D
330
6F
100
AcDbEntity
  8
_1-3_細線2
  6
Continuous
 62
     4
100
AcDbCircle
 10
451.7377577356228
 20
247.1030927835057
 30
0.0
 40
2.5
100
AcDbArc
 50
179.9999999999998
 51
269.9999999999997
  0
LINE
  5
32E
330
6F
100
AcDbEntity
  8
_1-3_細線2
  6
Continuous
 62
     4
100
AcDbLine
 10
484.237757737906
 20
247.1030927835057
 30
0.0
 11
484.237757737906
 21
278.3530927835057
 31
0.0
  0
LINE
  5
32F
330
6F
100
AcDbEntity
  8
_1-3_細線2
  6
Continuous
 62
     4
100
AcDbLine
 10
451.7377577356228
 20
244.6030927835058
 30
0.0
 11
481.737757737906
 21
244.6030927835058
 31
0.0
  0
ARC
  5
330
330
6F
100
AcDbEntity
  8
_1-3_細線2
  6
Continuous
 62
     4
100
AcDbCircle
 10
481.737757737906
 20
247.1030927835057
 30
0.0
 40
2.5
100
AcDbArc
 50
269.9999999999997
 51
359.9999999999997
  0
ARC
  5
331
330
6F
100
AcDbEntity
  8
_1-3_細線2
  6
Continuous
 62
     4
100
AcDbCircle
 10
495.2377577379068
 20
278.3530927835057
 30
0.0
 40
2.5
100
AcDbArc
 50
89.99999999999991
 51
179.9999999999998
  0
LINE
  5
332
330
6F
100
AcDbEntity
  8
_1-3_細線2
  6
Continuous
 62
     4
100
AcDbLine
 10
525.2377577388106
 20
280.8530927835057
 30
0.0
 11
495.2377577379068
 21
280.8530927835057
 31
0.0
  0
ARC
  5
333
330
6F
100
AcDbEntity
  8
_1-3_細線2
  6
Continuous
 62
     4
100
AcDbCircle
 10
525.2377577388106
 20
278.3530927835057
 30
0.0
 40
2.5
100
AcDbArc
 50
0.0
 51
89.99999999999991
  0
LINE
  5
334
330
6F
100
AcDbEntity
  8
_1-3_細線2
  6
Continuous
 62
     4
100
AcDbLine
 10
492.7377577379068
 20
278.3530927835057
 30
0.0
 11
492.7377577379068
 21
247.1030927835057
 31
0.0
  0
ARC
  5
335
330
6F
100
AcDbEntity
  8
_1-3_細線2
  6
Continuous
 62
     4
100
AcDbCircle
 10
495.2377577379068
 20
247.1030927835057
 30
0.0
 40
2.5
100
AcDbArc
 50
179.9999999999998
 51
269.9999999999997
  0
LINE
  5
336
330
6F
100
AcDbEntity
  8
_1-3_細線2
  6
Continuous
 62
     4
100
AcDbLine
 10
527.7377577388106
 20
247.1030927835057
 30
0.0
 11
527.7377577388106
 21
278.3530927835057
 31
0.0
  0
LINE
  5
337
330
6F
100
AcDbEntity
  8
_1-3_細線2
  6
Continuous
 62
     4
100
AcDbLine
 10
495.2377577379068
 20
244.6030927835058
 30
0.0
 11
525.2377577388106
 21
244.6030927835058
 31
0.0
  0
ARC
  5
338
330
6F
100
AcDbEntity
  8
_1-3_細線2
  6
Continuous
 62
     4
100
AcDbCircle
 10
525.2377577388106
 20
247.1030927835057
 30
0.0
 40
2.5
100
AcDbArc
 50
269.9999999999997
 51
359.9999999999997
  0
TEXT
  5
339
330
6F
100
AcDbEntity
  8
_0-7_枠細線
 62
     5
100
AcDbText
 10
935.1357477288617
 20
937.5000000000001
 30
0.0
 40
12.5
  1
スペーサー変更(丸形状から四角形状へ変更)
 41
0.75
100
AcDbText
  0
TEXT
  5
33A
330
6F
100
AcDbEntity
  8
_0-5_寸法線
 62
     7
100
AcDbText
 10
470.6714448519271
 20
644.8809398387846
 30
0.0
 40
15.0
  1
アンカー付
 41
0.7
100
AcDbText
  0
LINE
  5
33B
330
6F
100
AcDbEntity
  8
_0-5_寸法線
  6
Continuous
 62
     7
100
AcDbLine
 10
455.8170937328704
 20
705.5903103058572
 30
0.0
 11
460.8170937328702
 21
696.930056268013
 31
0.0
  0
LINE
  5
33C
330
6F
100
AcDbEntity
  8
_0-5_寸法線
  6
Continuous
 62
     7
100
AcDbLine
 10
455.8170937328704
 20
705.5903103058572
 30
0.0
 11
455.8170937328703
 21
695.5903103058572
 31
0.0
  0
LINE
  5
33D
330
6F
100
AcDbEntity
  8
_0-5_寸法線
  6
Continuous
 62
     7
100
AcDbLine
 10
455.8170937328704
 20
705.5903103058572
 30
0.0
 11
467.8396685622181
 21
660.7214502049321
 31
0.0
  0
LINE
  5
33E
330
6F
100
AcDbEntity
  8
_0-5_寸法線
  6
Continuous
 62
     7
100
AcDbLine
 10
467.8396685622181
 20
660.7214502049321
 30
0.0
 11
575.8396685622179
 21
660.7214502049321
 31
0.0
  0
TEXT
  5
33F
330
6F
100
AcDbEntity
  8
_0-5_寸法線
 62
     7
100
AcDbText
 10
467.8396685622181
 20
661.3214502049321
 30
0.0
 40
15.0
  1
ＳＵＳアングル受枠
 41
0.7
100
AcDbText
  0
LINE
  5
340
330
6F
100
AcDbEntity
  8
_0-5_寸法線
  6
Continuous
 62
     7
100
AcDbLine
 10
610.2030057961643
 20
730.912665917976
 30
0.0
 11
615.2030057961643
 21
722.2524118801317
 31
0.0
  0
LINE
  5
341
330
6F
100
AcDbEntity
  8
_0-5_寸法線
  6
Continuous
 62
     7
100
AcDbLine
 10
610.2030057961643
 20
730.912665917976
 30
0.0
 11
610.2030057961643
 21
720.912665917976
 31
0.0
  0
LINE
  5
342
330
6F
100
AcDbEntity
  8
_0-5_寸法線
  6
Continuous
 62
     7
100
AcDbLine
 10
610.2030057961643
 20
730.912665917976
 30
0.0
 11
629.0106853622327
 21
660.7214502049321
 31
0.0
  0
LINE
  5
343
330
6F
100
AcDbEntity
  8
_0-5_寸法線
  6
Continuous
 62
     7
100
AcDbLine
 10
629.0106853622327
 20
660.7214502049321
 30
0.0
 11
948.2145439885972
 21
660.7214502049321
 31
0.0
  0
TEXT
  5
344
330
6F
100
AcDbEntity
  8
_0-5_寸法線
 62
     7
100
AcDbText
 10
629.0106853622327
 20
660.7214502049321
 30
0.0
 40
15.0
  1
屋外用ノンスリップ樹脂グレーチング　スリットタイプ
 41
0.7
100
AcDbText
  0
LINE
  5
345
330
6F
100
AcDbEntity
  8
_0-5_寸法線
  6
Continuous
 62
     7
100
AcDbLine
 10
384.5777839954776
 20
722.9138041227894
 30
0.0
 11
384.5777839817062
 21
712.9138041227896
 31
0.0
  0
LINE
  5
346
330
6F
100
AcDbEntity
  8
_0-5_寸法線
  6
Continuous
 62
     7
100
AcDbLine
 10
384.5777839954776
 20
722.9138041227894
 30
0.0
 11
379.5777839835512
 21
714.2535500918309
 31
0.0
  0
LINE
  5
347
330
6F
100
AcDbEntity
  8
_0-5_寸法線
  6
Continuous
 62
     7
100
AcDbLine
 10
384.5777839954776
 20
722.9138041227894
 30
0.0
 11
367.913392896
 21
660.7214502049321
 31
0.0
  0
LINE
  5
348
330
6F
100
AcDbEntity
  8
_0-5_寸法線
  6
Continuous
 62
     7
100
AcDbLine
 10
367.913392896
 20
660.7214502049321
 30
0.0
 11
264.235866868712
 21
660.7214502049328
 31
0.0
  0
TEXT
  5
349
330
6F
100
AcDbEntity
  8
_0-5_寸法線
 62
     7
100
AcDbText
 10
265.6544634766324
 20
662.7431414740071
 30
0.0
 40
15.0
  1
スペーサー(角型)
 41
0.7
100
AcDbText
  0
LINE
  5
34A
330
6F
100
AcDbEntity
  8
_0-7_枠細線
  6
Continuous
 62
     5
100
AcDbLine
 10
266.9556628238893
 20
681.7655219332498
 30
0.0
 11
274.4556628238893
 21
696.7655219332498
 31
0.0
  0
LINE
  5
34B
330
6F
100
AcDbEntity
  8
_0-7_枠細線
  6
Continuous
 62
     5
100
AcDbLine
 10
281.9556628238893
 20
681.7655219332498
 30
0.0
 11
266.9556628238893
 21
681.7655219332498
 31
0.0
  0
LINE
  5
34C
330
6F
100
AcDbEntity
  8
_0-7_枠細線
  6
Continuous
 62
     5
100
AcDbLine
 10
274.4556628238893
 20
696.7655219332498
 30
0.0
 11
281.9556628238893
 21
681.7655219332498
 31
0.0
  0
TEXT
  5
34D
330
6F
100
AcDbEntity
  8
_0-7_枠細線
 62
     5
100
AcDbText
 10
273.1574676828727
 20
682.3552973672397
 30
0.0
 40
12.5
  1
1
 41
0.7
100
AcDbText
  0
LINE
  5
34E
330
6F
100
AcDbEntity
  8
_1-5_寸法2
  6
Continuous
 62
     7
100
AcDbLine
 10
332.4877577356218
 20
300.7280927835054
 30
0.0
 11
332.4877577356219
 21
380.7280928738332
 31
0.0
  0
LINE
  5
34F
330
6F
100
AcDbEntity
  8
_1-5_寸法2
  6
Continuous
 62
     7
100
AcDbLine
 10
332.4877577356219
 20
375.7280928738333
 30
0.0
 11
322.8284994727312
 21
373.139902422808
 31
0.0
  0
LINE
  5
350
330
6F
100
AcDbEntity
  8
_1-5_寸法2
  6
Continuous
 62
     7
100
AcDbLine
 10
332.4877577356219
 20
375.7280928738333
 30
0.0
 11
322.8284994727313
 21
378.3162833248584
 31
0.0
  0
LINE
  5
351
330
6F
100
AcDbEntity
  8
_1-5_寸法2
  6
Continuous
 62
     7
100
AcDbLine
 10
339.9877585010008
 20
300.7280928738333
 30
0.0
 11
339.9877585010009
 21
380.7280928738332
 31
0.0
  0
CIRCLE
  5
352
330
6F
100
AcDbEntity
  8
_1-5_寸法2
  6
Continuous
 62
     1
100
AcDbCircle
 10
339.9877585010009
 20
375.7280928738333
 30
0.0
 40
1.5
  0
LINE
  5
353
330
6F
100
AcDbEntity
  8
_1-5_寸法2
  6
Continuous
 62
     7
100
AcDbLine
 10
307.4877577356219
 20
375.7280928738333
 30
0.0
 11
339.9877585010009
 21
375.7280928738333
 31
0.0
  0
TEXT
  5
354
330
6F
100
AcDbEntity
  8
_1-5_寸法2
 62
     7
100
AcDbText
 10
309.3179724132856
 20
375.7280928738333
 30
0.0
 40
15.0
  1
3
 41
0.7
100
AcDbText
  0
LINE
  5
355
330
6F
100
AcDbEntity
  8
_1-5_寸法2
  6
Continuous
 62
     7
100
AcDbLine
 10
343.7377577365721
 20
300.7280928738333
 30
0.0
 11
343.7377577365723
 21
380.7280928738332
 31
0.0
  0
LINE
  5
356
330
6F
100
AcDbEntity
  8
_1-5_寸法2
  6
Continuous
 62
     7
100
AcDbLine
 10
339.9877585010009
 20
375.7280928738333
 30
0.0
 11
343.7377577365723
 21
375.7280928738333
 31
0.0
  0
TEXT
  5
357
330
6F
100
AcDbEntity
  8
_1-5_寸法2
 62
     7
100
AcDbText
 10
337.875190451776
 20
375.7280928738333
 30
0.0
 40
15.0
  1
1.5
 41
0.7
100
AcDbText
  0
LINE
  5
358
330
6F
100
AcDbEntity
  8
_1-5_寸法2
  6
Continuous
 62
     7
100
AcDbLine
 10
343.7377577365723
 20
375.7280928738333
 30
0.0
 11
353.3970159994629
 21
378.3162833248583
 31
0.0
  0
LINE
  5
359
330
6F
100
AcDbEntity
  8
_1-5_寸法2
  6
Continuous
 62
     7
100
AcDbLine
 10
343.7377577365723
 20
375.7280928738333
 30
0.0
 11
353.3970159994629
 21
373.139902422808
 31
0.0
  0
LINE
  5
35A
330
6F
100
AcDbEntity
  8
_1-5_寸法2
  6
Continuous
 62
     7
100
AcDbLine
 10
546.2377577346719
 20
300.7280927835054
 30
0.0
 11
546.237757734672
 21
380.7280928738332
 31
0.0
  0
LINE
  5
35B
330
6F
100
AcDbEntity
  8
_1-5_寸法2
  6
Continuous
 62
     7
100
AcDbLine
 10
546.237757734672
 20
375.7280928738333
 30
0.0
 11
536.5784994717813
 21
373.139902422808
 31
0.0
  0
LINE
  5
35C
330
6F
100
AcDbEntity
  8
_1-5_寸法2
  6
Continuous
 62
     7
100
AcDbLine
 10
546.237757734672
 20
375.7280928738333
 30
0.0
 11
536.5784994717813
 21
378.3162833248584
 31
0.0
  0
LINE
  5
35D
330
6F
100
AcDbEntity
  8
_1-5_寸法2
  6
Continuous
 62
     7
100
AcDbLine
 10
343.7377577365723
 20
375.7280928738333
 30
0.0
 11
546.237757734672
 21
375.7280928738333
 31
0.0
  0
TEXT
  5
35E
330
6F
100
AcDbEntity
  8
_1-5_寸法2
 62
     7
100
AcDbText
 10
437.4877577356222
 20
375.7280928738333
 30
0.0
 40
15.0
  1
81
 41
0.7
100
AcDbText
  0
LINE
  5
35F
330
6F
100
AcDbEntity
  8
_1-5_寸法2
  6
Continuous
 62
     7
100
AcDbLine
 10
549.9877577356219
 20
300.7280927835054
 30
0.0
 11
549.9877577356219
 21
380.7280928738332
 31
0.0
  0
CIRCLE
  5
360
330
6F
100
AcDbEntity
  8
_1-5_寸法2
  6
Continuous
 62
     1
100
AcDbCircle
 10
549.9877577356219
 20
375.7280928738333
 30
0.0
 40
1.5
  0
LINE
  5
361
330
6F
100
AcDbEntity
  8
_1-5_寸法2
  6
Continuous
 62
     7
100
AcDbLine
 10
546.237757734672
 20
375.7280928738333
 30
0.0
 11
549.9877577356219
 21
375.7280928738333
 31
0.0
  0
TEXT
  5
362
330
6F
100
AcDbEntity
  8
_1-5_寸法2
 62
     7
100
AcDbText
 10
530.9969068746785
 20
375.7280928738333
 30
0.0
 40
15.0
  1
1.5
 41
0.7
100
AcDbText
  0
LINE
  5
363
330
6F
100
AcDbEntity
  8
_1-5_寸法2
  6
Continuous
 62
     7
100
AcDbLine
 10
557.4877577356219
 20
300.7280927835054
 30
0.0
 11
557.4877577356219
 21
380.7280928738332
 31
0.0
  0
LINE
  5
364
330
6F
100
AcDbEntity
  8
_1-5_寸法2
  6
Continuous
 62
     7
100
AcDbLine
 10
557.4877577356219
 20
375.7280928738333
 30
0.0
 11
567.1470159985126
 21
378.3162833248583
 31
0.0
  0
LINE
  5
365
330
6F
100
AcDbEntity
  8
_1-5_寸法2
  6
Continuous
 62
     7
100
AcDbLine
 10
557.4877577356219
 20
375.7280928738333
 30
0.0
 11
567.1470159985126
 21
373.139902422808
 31
0.0
  0
LINE
  5
366
330
6F
100
AcDbEntity
  8
_1-5_寸法2
  6
Continuous
 62
     7
100
AcDbLine
 10
549.9877577356219
 20
375.7280928738333
 30
0.0
 11
582.4877577356219
 21
375.7280928738333
 31
0.0
  0
TEXT
  5
367
330
6F
100
AcDbEntity
  8
_1-5_寸法2
 62
     7
100
AcDbText
 10
571.9874502541881
 20
375.7280928738333
 30
0.0
 40
15.0
  1
3
 41
0.7
100
AcDbText
  0
LINE
  5
368
330
6F
100
AcDbEntity
  8
_1-3_細線2
  6
Continuous
 62
     4
100
AcDbLine
 10
351.2377577338125
 20
262.7280927835057
 30
0.0
 11
343.7264677338132
 21
262.7280927835057
 31
0.0
  0
LINE
  5
369
330
6F
100
AcDbEntity
  8
_1-3_細線2
  6
Continuous
 62
     4
100
AcDbLine
 10
351.2377577338125
 20
253.9780927835069
 30
0.0
 11
343.7264377338138
 21
253.9780927835069
 31
0.0
  0
ARC
  5
36A
330
6F
100
AcDbEntity
  8
_1-3_細線2
  6
Continuous
 62
     4
100
AcDbCircle
 10
343.7264377338138
 20
254.4780927835065
 30
0.0
 40
0.5000000000000002
100
AcDbArc
 50
179.9999999999998
 51
269.9999999999997
  0
ARC
  5
36B
330
6F
100
AcDbEntity
  8
_1-3_細線2
  6
Continuous
 62
     4
100
AcDbCircle
 10
362.6213877338128
 20
258.3527277835072
 30
0.0
 40
19.39489
100
AcDbArc
 50
166.9619780000046
 51
193.03567
  0
ARC
  5
36C
330
6F
100
AcDbEntity
  8
_1-3_細線2
  6
Continuous
 62
     4
100
AcDbCircle
 10
343.7264377338138
 20
270.9780927835072
 30
0.0
 40
0.5000000000000002
100
AcDbArc
 50
89.99999999999991
 51
179.9999999999998
  0
ARC
  5
36D
330
6F
100
AcDbEntity
  8
_1-3_細線2
  6
Continuous
 62
     4
100
AcDbCircle
 10
362.6213877338128
 20
267.103452783506
 30
0.0
 40
19.39489
100
AcDbArc
 50
166.9643299999996
 51
193.0380219999987
  0
LINE
  5
36E
330
6F
100
AcDbEntity
  8
_1-3_細線2
  6
Continuous
 62
     4
100
AcDbLine
 10
351.2377577338125
 20
271.4780927835067
 30
0.0
 11
343.7264377338138
 21
271.4780927835067
 31
0.0
  0
LINE
  5
36F
330
6F
100
AcDbEntity
  8
_1-3_細線2
  6
Continuous
 62
     4
100
AcDbLine
 10
343.2264377338125
 20
254.4780927835065
 30
0.0
 11
343.2264377338125
 21
270.9780927835072
 31
0.0
  0
ARC
  5
370
330
6F
100
AcDbEntity
  8
_1-3_細線2
  6
Continuous
 62
     4
100
AcDbCircle
 10
344.9877577365728
 20
282.2280927835061
 30
0.0
 40
1.249999999999999
100
AcDbArc
 50
179.9999999999998
 51
269.9999999999997
  0
LINE
  5
371
330
6F
100
AcDbEntity
  8
_1-3_細線2
  6
Continuous
 62
     4
100
AcDbLine
 10
343.7377577365721
 20
285.7280927835054
 30
0.0
 11
343.7377577365721
 21
282.2280927835061
 31
0.0
  0
ARC
  5
372
330
6F
100
AcDbEntity
  8
_1-3_細線2
  6
Continuous
 62
     4
100
AcDbCircle
 10
370.9877577310538
 20
282.2280927835061
 30
0.0
 40
1.249999999999999
100
AcDbArc
 50
269.9999999999997
 51
359.9999999999997
  0
LINE
  5
373
330
6F
100
AcDbEntity
  8
_1-3_細線2
  6
Continuous
 62
     4
100
AcDbLine
 10
372.2377577310535
 20
285.7280927835054
 30
0.0
 11
372.2377577310535
 21
282.2280927835061
 31
0.0
  0
ARC
  5
374
330
6F
100
AcDbEntity
  8
_1-3_細線2
  6
Continuous
 62
     4
100
AcDbCircle
 10
351.2377577365721
 20
278.4780927835061
 30
0.0
 40
2.5
100
AcDbArc
 50
0.0
 51
89.99999999999991
  0
LINE
  5
375
330
6F
100
AcDbEntity
  8
_1-3_細線2
  6
Continuous
 62
     4
100
AcDbLine
 10
351.2377577365721
 20
280.9780927835059
 30
0.0
 11
344.9877577365728
 21
280.9780927835059
 31
0.0
  0
ARC
  5
376
330
6F
100
AcDbEntity
  8
_1-3_細線2
  6
Continuous
 62
     4
100
AcDbCircle
 10
364.737757736572
 20
278.4780927835061
 30
0.0
 40
2.5
100
AcDbArc
 50
89.99999999999991
 51
179.9999999999998
  0
LINE
  5
377
330
6F
100
AcDbEntity
  8
_1-3_細線2
  6
Continuous
 62
     4
100
AcDbLine
 10
364.7377577310535
 20
280.9780927835059
 30
0.0
 11
370.9877577310538
 21
280.9780927835059
 31
0.0
  0
LINE
  5
378
330
6F
100
AcDbEntity
  8
_1-3_細線2
  6
Continuous
 62
     4
100
AcDbLine
 10
364.2377577338123
 20
290.7280927835055
 30
0.0
 11
351.7377577338129
 21
290.7280927835055
 31
0.0
  0
LINE
  5
379
330
6F
100
AcDbEntity
  8
_1-3_細線2
  6
Continuous
 62
     4
100
AcDbLine
 10
353.7377577338125
 20
240.7280927835055
 30
0.0
 11
353.7377577365721
 21
278.4780927835061
 31
0.0
  0
LINE
  5
37A
330
6F
100
AcDbEntity
  8
_1-3_細線2
  6
Continuous
 62
     4
100
AcDbLine
 10
362.2377577338131
 20
240.7280927835055
 30
0.0
 11
362.2377577365728
 21
278.4780927835061
 31
0.0
  0
LINE
  5
37B
330
6F
100
AcDbEntity
  8
_1-3_細線2
  6
Continuous
 62
     4
100
AcDbLine
 10
362.2377577338131
 20
240.7280927835055
 30
0.0
 11
353.7377577338125
 21
240.7280927835055
 31
0.0
  0
LINE
  5
37C
330
6F
100
AcDbEntity
  8
_1-3_細線2
  6
Continuous
 62
     4
100
AcDbLine
 10
364.237757733813
 20
290.7280927835055
 30
0.0
 11
371.3606014725906
 21
288.5022041143699
 31
0.0
  0
LINE
  5
37D
330
6F
100
AcDbEntity
  8
_1-3_細線2
  6
Continuous
 62
     4
100
AcDbLine
 10
372.2377577310535
 20
285.7280927835054
 30
0.0
 11
372.2377577310535
 21
287.3091041418629
 31
0.0
  0
ARC
  5
37E
330
6F
100
AcDbEntity
  8
_1-3_細線2
  6
Continuous
 62
     4
100
AcDbCircle
 10
370.9877577310537
 20
287.3091041418626
 30
0.0
 40
1.249999999999999
100
AcDbArc
 50
0.000000000015633
 51
72.64597535811827
  0
LINE
  5
37F
330
6F
100
AcDbEntity
  8
_1-3_細線2
  6
Continuous
 62
     4
100
AcDbLine
 10
351.7377577338124
 20
290.7280927835055
 30
0.0
 11
344.6149139950352
 21
288.5022041143702
 31
0.0
  0
LINE
  5
380
330
6F
100
AcDbEntity
  8
_1-3_細線2
  6
Continuous
 62
     4
100
AcDbLine
 10
343.7377577365721
 20
285.7280927835054
 30
0.0
 11
343.7377577365721
 21
287.3091041418625
 31
0.0
  0
ARC
  5
381
330
6F
100
AcDbEntity
  8
_1-3_細線2
  6
Continuous
 62
     4
100
AcDbCircle
 10
344.9877577365719
 20
287.3091041418626
 30
0.0
 40
1.249999999999999
100
AcDbArc
 50
107.3540246418621
 51
180.0000000000049
  0
ARC
  5
382
330
6F
100
AcDbEntity
  8
_1-3_細線2
  6
Continuous
 62
     4
100
AcDbCircle
 10
351.7377577338132
 20
246.9780927835065
 30
0.0
 40
0.5000000000000002
100
AcDbArc
 50
179.9999999999998
 51
269.9999999999997
  0
LINE
  5
383
330
6F
100
AcDbEntity
  8
_1-3_細線2
  6
Continuous
 62
     4
100
AcDbLine
 10
353.7377577342328
 20
246.4780927835064
 30
0.0
 11
351.7377577338132
 21
246.4780927835064
 31
0.0
  0
ARC
  5
384
330
6F
100
AcDbEntity
  8
_1-3_細線2
  6
Continuous
 62
     4
100
AcDbCircle
 10
351.7377577338132
 20
278.4780927835059
 30
0.0
 40
0.5000000000000002
100
AcDbArc
 50
89.99999999999991
 51
179.9999999999998
  0
LINE
  5
385
330
6F
100
AcDbEntity
  8
_1-3_細線2
  6
Continuous
 62
     4
100
AcDbLine
 10
353.6872474793551
 20
278.9780927835067
 30
0.0
 11
351.7377577338132
 21
278.9780927835067
 31
0.0
  0
LINE
  5
386
330
6F
100
AcDbEntity
  8
_1-3_細線2
  6
Continuous
 62
     4
100
AcDbLine
 10
351.2377577338125
 20
261.4780927835064
 30
0.0
 11
351.2377577338125
 21
246.9780927835065
 31
0.0
  0
LINE
  5
387
330
6F
100
AcDbEntity
  8
_1-3_細線2
  6
Continuous
 62
     4
100
AcDbLine
 10
351.2377577338125
 20
278.4780927835059
 30
0.0
 11
351.2377577338125
 21
261.4780927835064
 31
0.0
  0
LINE
  5
388
330
6F
100
AcDbEntity
  8
_1-3_細線2
  6
Continuous
 62
     4
100
AcDbLine
 10
538.7377577374316
 20
262.7280927835057
 30
0.0
 11
546.2490477374303
 21
262.7280927835057
 31
0.0
  0
LINE
  5
389
330
6F
100
AcDbEntity
  8
_1-3_細線2
  6
Continuous
 62
     4
100
AcDbLine
 10
538.7377577374316
 20
253.9780927835069
 30
0.0
 11
546.2490777374303
 21
253.9780927835069
 31
0.0
  0
ARC
  5
38A
330
6F
100
AcDbEntity
  8
_1-3_細線2
  6
Continuous
 62
     4
100
AcDbCircle
 10
546.2490777374303
 20
254.4780927835065
 30
0.0
 40
0.5000000000000002
100
AcDbArc
 50
269.9999999999997
 51
359.9999999999997
  0
ARC
  5
38B
330
6F
100
AcDbEntity
  8
_1-3_細線2
  6
Continuous
 62
     4
100
AcDbCircle
 10
527.3541277374312
 20
258.3527277835072
 30
0.0
 40
19.39489
100
AcDbArc
 50
346.9643299999989
 51
13.03802199999534
  0
ARC
  5
38C
330
6F
100
AcDbEntity
  8
_1-3_細線2
  6
Continuous
 62
     4
100
AcDbCircle
 10
546.2490777374303
 20
270.9780927835072
 30
0.0
 40
0.5000000000000002
100
AcDbArc
 50
0.0
 51
89.99999999999991
  0
ARC
  5
38D
330
6F
100
AcDbEntity
  8
_1-3_細線2
  6
Continuous
 62
     4
100
AcDbCircle
 10
527.3541277374312
 20
267.103452783506
 30
0.0
 40
19.39489
100
AcDbArc
 50
346.9619780000002
 51
13.03567000000039
  0
LINE
  5
38E
330
6F
100
AcDbEntity
  8
_1-3_細線2
  6
Continuous
 62
     4
100
AcDbLine
 10
538.7377577374316
 20
271.4780927835067
 30
0.0
 11
546.2490777374303
 21
271.4780927835067
 31
0.0
  0
LINE
  5
38F
330
6F
100
AcDbEntity
  8
_1-3_細線2
  6
Continuous
 62
     4
100
AcDbLine
 10
546.7490777374309
 20
254.4780927835065
 30
0.0
 11
546.7490777374309
 21
270.9780927835072
 31
0.0
  0
ARC
  5
390
330
6F
100
AcDbEntity
  8
_1-3_細線2
  6
Continuous
 62
     4
100
AcDbCircle
 10
518.9877577401912
 20
282.2280927835061
 30
0.0
 40
1.249999999999999
100
AcDbArc
 50
179.9999999999998
 51
269.9999999999997
  0
LINE
  5
391
330
6F
100
AcDbEntity
  8
_1-3_細線2
  6
Continuous
 62
     4
100
AcDbLine
 10
517.7377577401905
 20
285.7280927835054
 30
0.0
 11
517.7377577401905
 21
282.2280927835061
 31
0.0
  0
ARC
  5
392
330
6F
100
AcDbEntity
  8
_1-3_細線2
  6
Continuous
 62
     4
100
AcDbCircle
 10
544.9877577346722
 20
282.2280927835061
 30
0.0
 40
1.249999999999999
100
AcDbArc
 50
269.9999999999997
 51
359.9999999999997
  0
LINE
  5
393
330
6F
100
AcDbEntity
  8
_1-3_細線2
  6
Continuous
 62
     4
100
AcDbLine
 10
546.2377577346719
 20
285.7280927835054
 30
0.0
 11
546.2377577346719
 21
282.2280927835061
 31
0.0
  0
ARC
  5
394
330
6F
100
AcDbEntity
  8
_1-3_細線2
  6
Continuous
 62
     4
100
AcDbCircle
 10
525.2377577401905
 20
278.4780927835061
 30
0.0
 40
2.5
100
AcDbArc
 50
0.0
 51
89.99999999999991
  0
LINE
  5
395
330
6F
100
AcDbEntity
  8
_1-3_細線2
  6
Continuous
 62
     4
100
AcDbLine
 10
525.2377577401905
 20
280.9780927835059
 30
0.0
 11
518.9877577401912
 21
280.9780927835059
 31
0.0
  0
ARC
  5
396
330
6F
100
AcDbEntity
  8
_1-3_細線2
  6
Continuous
 62
     4
100
AcDbCircle
 10
538.7377577401903
 20
278.4780927835061
 30
0.0
 40
2.5
100
AcDbArc
 50
89.99999999999991
 51
179.9999999999998
  0
LINE
  5
397
330
6F
100
AcDbEntity
  8
_1-3_細線2
  6
Continuous
 62
     4
100
AcDbLine
 10
538.7377577346719
 20
280.9780927835059
 30
0.0
 11
544.9877577346722
 21
280.9780927835059
 31
0.0
  0
LINE
  5
398
330
6F
100
AcDbEntity
  8
_1-3_細線2
  6
Continuous
 62
     4
100
AcDbLine
 10
538.2377577374306
 20
290.7280927835055
 30
0.0
 11
525.7377577374313
 21
290.7280927835055
 31
0.0
  0
LINE
  5
399
330
6F
100
AcDbEntity
  8
_1-3_細線2
  6
Continuous
 62
     4
100
AcDbLine
 10
527.7377577374308
 20
240.7280927835055
 30
0.0
 11
527.7377577401903
 21
278.4780927835061
 31
0.0
  0
LINE
  5
39A
330
6F
100
AcDbEntity
  8
_1-3_細線2
  6
Continuous
 62
     4
100
AcDbLine
 10
536.2377577374315
 20
240.7280927835055
 30
0.0
 11
536.2377577401912
 21
278.4780927835061
 31
0.0
  0
LINE
  5
39B
330
6F
100
AcDbEntity
  8
_1-3_細線2
  6
Continuous
 62
     4
100
AcDbLine
 10
536.2377577374315
 20
240.7280927835055
 30
0.0
 11
527.7377577374308
 21
240.7280927835055
 31
0.0
  0
LINE
  5
39C
330
6F
100
AcDbEntity
  8
_1-3_細線2
  6
Continuous
 62
     4
100
AcDbLine
 10
538.2377577374313
 20
290.7280927835055
 30
0.0
 11
545.3606014762089
 21
288.5022041143699
 31
0.0
  0
LINE
  5
39D
330
6F
100
AcDbEntity
  8
_1-3_細線2
  6
Continuous
 62
     4
100
AcDbLine
 10
546.2377577346719
 20
285.7280927835054
 30
0.0
 11
546.2377577346719
 21
287.3091041418629
 31
0.0
  0
ARC
  5
39E
330
6F
100
AcDbEntity
  8
_1-3_細線2
  6
Continuous
 62
     4
100
AcDbCircle
 10
544.987757734672
 20
287.3091041418626
 30
0.0
 40
1.249999999999999
100
AcDbArc
 50
0.000000000015633
 51
72.64597535812076
  0
LINE
  5
39F
330
6F
100
AcDbEntity
  8
_1-3_細線2
  6
Continuous
 62
     4
100
AcDbLine
 10
525.7377577374309
 20
290.7280927835055
 30
0.0
 11
518.6149139986537
 21
288.5022041143702
 31
0.0
  0
LINE
  5
3A0
330
6F
100
AcDbEntity
  8
_1-3_細線2
  6
Continuous
 62
     4
100
AcDbLine
 10
517.7377577401905
 20
285.7280927835054
 30
0.0
 11
517.7377577401905
 21
287.3091041418625
 31
0.0
  0
ARC
  5
3A1
330
6F
100
AcDbEntity
  8
_1-3_細線2
  6
Continuous
 62
     4
100
AcDbCircle
 10
518.9877577401903
 20
287.3091041418626
 30
0.0
 40
1.249999999999999
100
AcDbArc
 50
107.3540246418597
 51
180.0000000000049
  0
ARC
  5
3A2
330
6F
100
AcDbEntity
  8
_1-3_細線2
  6
Continuous
 62
     4
100
AcDbCircle
 10
538.2377577374303
 20
246.9780927835065
 30
0.0
 40
0.5000000000000002
100
AcDbArc
 50
269.9999999999997
 51
359.9999999999997
  0
LINE
  5
3A3
330
6F
100
AcDbEntity
  8
_1-3_細線2
  6
Continuous
 62
     4
100
AcDbLine
 10
536.2377577378518
 20
246.4780927835064
 30
0.0
 11
538.2377577374303
 21
246.4780927835064
 31
0.0
  0
ARC
  5
3A4
330
6F
100
AcDbEntity
  8
_1-3_細線2
  6
Continuous
 62
     4
100
AcDbCircle
 10
538.2377577374303
 20
278.4780927835059
 30
0.0
 40
0.5000000000000002
100
AcDbArc
 50
0.0
 51
89.99999999999991
  0
LINE
  5
3A5
330
6F
100
AcDbEntity
  8
_1-3_細線2
  6
Continuous
 62
     4
100
AcDbLine
 10
536.2882679974072
 20
278.9780927835067
 30
0.0
 11
538.2377577374303
 21
278.9780927835067
 31
0.0
  0
LINE
  5
3A6
330
6F
100
AcDbEntity
  8
_1-3_細線2
  6
Continuous
 62
     4
100
AcDbLine
 10
538.7377577374316
 20
261.4780927835064
 30
0.0
 11
538.7377577374316
 21
246.9780927835065
 31
0.0
  0
LINE
  5
3A7
330
6F
100
AcDbEntity
  8
_1-3_細線2
  6
Continuous
 62
     4
100
AcDbLine
 10
538.7377577374316
 20
278.4780927835059
 30
0.0
 11
538.7377577374316
 21
261.4780927835064
 31
0.0
  0
LINE
  5
3A8
330
6F
100
AcDbEntity
  8
_0-5_寸法線
  6
Continuous
 62
     7
100
AcDbLine
 10
220.4420109686418
 20
793.7576812841719
 30
0.0
 11
217.8538205176168
 21
803.4169395470625
 31
0.0
  0
LINE
  5
3A9
330
6F
100
AcDbEntity
  8
_0-5_寸法線
  6
Continuous
 62
     7
100
AcDbLine
 10
220.4420109686418
 20
793.7576812841719
 30
0.0
 11
223.0302014196671
 21
803.4169395470625
 31
0.0
  0
LINE
  5
3AA
330
6F
100
AcDbEntity
  8
_0-5_寸法線
  6
Continuous
 62
     7
100
AcDbLine
 10
260.4420109686421
 20
790.7576812853719
 30
0.0
 11
215.4420109686419
 21
790.7576812853719
 31
0.0
  0
CIRCLE
  5
3AB
330
6F
100
AcDbEntity
  8
_0-5_寸法線
  6
Continuous
 62
     1
100
AcDbCircle
 10
220.4420109686418
 20
790.7576812853719
 30
0.0
 40
1.5
  0
LINE
  5
3AC
330
6F
100
AcDbEntity
  8
_0-5_寸法線
  6
Continuous
 62
     7
100
AcDbLine
 10
220.4420109686418
 20
818.7576812841719
 30
0.0
 11
220.4420109686418
 21
790.7576812853719
 31
0.0
  0
TEXT
  5
3AD
330
6F
100
AcDbEntity
  8
_0-5_寸法線
 62
     7
100
AcDbText
 10
220.4420109686418
 20
806.9995022718243
 30
0.0
 40
15.0
  1
3
 50
90.0
 41
0.7
100
AcDbText
  0
LINE
  5
3AE
330
6F
100
AcDbEntity
  8
_0-5_寸法線
  6
Continuous
 62
     7
100
AcDbLine
 10
260.4420109686421
 20
789.2576827806094
 30
0.0
 11
215.4420109686419
 21
789.2576827806094
 31
0.0
  0
LINE
  5
3AF
330
6F
100
AcDbEntity
  8
_0-5_寸法線
  6
Continuous
 62
     7
100
AcDbLine
 10
220.4420109686418
 20
790.7576812853719
 30
0.0
 11
220.4420109686418
 21
789.2576827806094
 31
0.0
  0
TEXT
  5
3B0
330
6F
100
AcDbEntity
  8
_0-5_寸法線
 62
     7
100
AcDbText
 10
238.6300928576439
 20
765.5115556903921
 30
0.0
 40
15.0
  1
1.5
 50
89.99999999999982
 41
0.7
100
AcDbText
  0
LINE
  5
3B1
330
6F
100
AcDbEntity
  8
_0-5_寸法線
  6
Continuous
 62
     7
100
AcDbLine
 10
220.4420109686418
 20
789.2576827806094
 30
0.0
 11
223.030201419667
 21
779.5984245177185
 31
0.0
  0
LINE
  5
3B2
330
6F
100
AcDbEntity
  8
_0-5_寸法線
  6
Continuous
 62
     7
100
AcDbLine
 10
220.4420109686418
 20
789.2576827806094
 30
0.0
 11
217.8538205176166
 21
779.5984245177185
 31
0.0
  0
LINE
  5
3B3
330
6F
100
AcDbEntity
  8
_0-5_寸法線
  6
Continuous
 62
     7
100
AcDbLine
 10
260.4420109686421
 20
708.2576827806112
 30
0.0
 11
215.4420109686419
 21
708.2576827806112
 31
0.0
  0
LINE
  5
3B4
330
6F
100
AcDbEntity
  8
_0-5_寸法線
  6
Continuous
 62
     7
100
AcDbLine
 10
220.4420109686418
 20
708.2576827806112
 30
0.0
 11
217.8538205176167
 21
717.9169410435019
 31
0.0
  0
LINE
  5
3B5
330
6F
100
AcDbEntity
  8
_0-5_寸法線
  6
Continuous
 62
     7
100
AcDbLine
 10
220.4420109686418
 20
708.2576827806112
 30
0.0
 11
223.030201419667
 21
717.9169410435019
 31
0.0
  0
LINE
  5
3B6
330
6F
100
AcDbEntity
  8
_0-5_寸法線
  6
Continuous
 62
     7
100
AcDbLine
 10
220.4420109686418
 20
789.2576827806094
 30
0.0
 11
220.4420109686418
 21
708.2576827806112
 31
0.0
  0
TEXT
  5
3B7
330
6F
100
AcDbEntity
  8
_0-5_寸法線
 62
     7
100
AcDbText
 10
220.4420109686418
 20
741.2576827806102
 30
0.0
 40
15.0
  1
81
 50
90.0
 41
0.7
100
AcDbText
  0
LINE
  5
3B8
330
6F
100
AcDbEntity
  8
_0-5_寸法線
  6
Continuous
 62
     7
100
AcDbLine
 10
260.4420109686421
 20
706.7576842758494
 30
0.0
 11
215.4420109686419
 21
706.7576842758494
 31
0.0
  0
CIRCLE
  5
3B9
330
6F
100
AcDbEntity
  8
_0-5_寸法線
  6
Continuous
 62
     1
100
AcDbCircle
 10
220.4420109686418
 20
706.7576842758494
 30
0.0
 40
1.5
  0
LINE
  5
3BA
330
6F
100
AcDbEntity
  8
_0-5_寸法線
  6
Continuous
 62
     7
100
AcDbLine
 10
220.4420109686418
 20
708.2576827806112
 30
0.0
 11
220.4420109686418
 21
706.7576842758494
 31
0.0
  0
TEXT
  5
3BB
330
6F
100
AcDbEntity
  8
_0-5_寸法線
 62
     7
100
AcDbText
 10
238.7397017398781
 20
709.8604226575043
 30
0.0
 40
15.0
  1
1.5
 50
89.99999999999982
 41
0.7
100
AcDbText
  0
LINE
  5
3BC
330
6F
100
AcDbEntity
  8
_0-5_寸法線
  6
Continuous
 62
     7
100
AcDbLine
 10
220.4420109686418
 20
703.7576842770493
 30
0.0
 11
223.030201419667
 21
694.0984260141584
 31
0.0
  0
LINE
  5
3BD
330
6F
100
AcDbEntity
  8
_0-5_寸法線
  6
Continuous
 62
     7
100
AcDbLine
 10
220.4420109686418
 20
703.7576842770493
 30
0.0
 11
217.8538205176166
 21
694.0984260141584
 31
0.0
  0
LINE
  5
3BE
330
6F
100
AcDbEntity
  8
_0-5_寸法線
  6
Continuous
 62
     7
100
AcDbLine
 10
220.4420109686418
 20
706.7576842758494
 30
0.0
 11
220.4420109686418
 21
678.7576842770493
 31
0.0
  0
TEXT
  5
3BF
330
6F
100
AcDbEntity
  8
_0-5_寸法線
 62
     7
100
AcDbText
 10
220.4420109686418
 20
681.5513320337873
 30
0.0
 40
15.0
  1
3
 50
90.0
 41
0.7
100
AcDbText
  0
ENDSEC
  0
SECTION
  2
OBJECTS
  0
DICTIONARY
  5
C
330
0
100
AcDbDictionary
281
     1
  3
ACAD_CIP_PREVIOUS_PRODUCT_INFO
350
3C1
  3
ACAD_COLOR
350
62
  3
ACAD_DETAILVIEWSTYLE
350
69
  3
ACAD_GROUP
350
D
  3
ACAD_LAYOUT
350
61
  3
ACAD_MATERIAL
350
10
  3
ACAD_MLEADERSTYLE
350
65
  3
ACAD_MLINESTYLE
350
5E
  3
ACAD_PLOTSETTINGS
350
60
  3
ACAD_PLOTSTYLENAME
350
E
  3
ACAD_SCALELIST
350
42
  3
ACAD_SECTIONVIEWSTYLE
350
67
  3
ACAD_TABLESTYLE
350
63
  3
ACAD_VISUALSTYLE
350
29
  3
ACDB_RECOMPOSE_DATA
350
440
  3
AcDbVariableDictionary
350
430
  3
DWGPROPS
350
441
  0
DICTIONARY
  5
3F1
330
8
100
AcDbDictionary
280
     1
281
     1
  0
DICTIONARY
  5
3D9
330
54
100
AcDbDictionary
280
     1
281
     1
  3
ADSK_XREC_LAYER_RECONCILED
360
3DA
  0
DICTIONARY
  5
3DB
330
96
100
AcDbDictionary
280
     1
281
     1
  3
ADSK_XREC_LAYER_RECONCILED
360
3DC
  0
DICTIONARY
  5
3DD
330
97
100
AcDbDictionary
280
     1
281
     1
  3
ADSK_XREC_LAYER_RECONCILED
360
3DE
  0
DICTIONARY
  5
3DF
330
98
100
AcDbDictionary
280
     1
281
     1
  3
ADSK_XREC_LAYER_RECONCILED
360
3E0
  0
DICTIONARY
  5
3E1
330
99
100
AcDbDictionary
280
     1
281
     1
  3
ADSK_XREC_LAYER_RECONCILED
360
3E2
  0
DICTIONARY
  5
3E3
330
9A
100
AcDbDictionary
280
     1
281
     1
  3
ADSK_XREC_LAYER_RECONCILED
360
3E4
  0
DICTIONARY
  5
3E5
330
9B
100
AcDbDictionary
280
     1
281
     1
  3
ADSK_XREC_LAYER_RECONCILED
360
3E6
  0
DICTIONARY
  5
3E7
330
9C
100
AcDbDictionary
280
     1
281
     1
  3
ADSK_XREC_LAYER_RECONCILED
360
3E8
  0
DICTIONARY
  5
3E9
330
9D
100
AcDbDictionary
280
     1
281
     1
  3
ADSK_XREC_LAYER_RECONCILED
360
3EA
  0
DICTIONARY
  5
3EB
330
9E
100
AcDbDictionary
280
     1
281
     1
  3
ADSK_XREC_LAYER_RECONCILED
360
3EC
  0
XRECORD
  5
3C1
102
{ACAD_REACTORS
330
C
102
}
330
C
100
AcDbXrecord
280
     1
300
ACDLT
300
2014
300
ACDLT_F_S
  0
DICTIONARY
  5
62
102
{ACAD_REACTORS
330
C
102
}
330
C
100
AcDbDictionary
281
     1
  0
DICTIONARY
  5
69
102
{ACAD_REACTORS
330
C
102
}
330
C
100
AcDbDictionary
281
     1
  3
Imperial24
350
6A
  0
DICTIONARY
  5
D
102
{ACAD_REACTORS
330
C
102
}
330
C
100
AcDbDictionary
281
     1
  0
DICTIONARY
  5
61
102
{ACAD_REACTORS
330
C
102
}
330
C
100
AcDbDictionary
281
     1
  3
Model
350
72
  3
レイアウト1
350
6E
  0
DICTIONARY
  5
10
102
{ACAD_REACTORS
330
C
102
}
330
C
100
AcDbDictionary
281
     1
  3
ByBlock
350
19
  3
ByLayer
350
11
  3
Global
350
21
  0
DICTIONARY
  5
65
102
{ACAD_REACTORS
330
C
102
}
330
C
100
AcDbDictionary
281
     1
  3
Standard
350
66
  0
DICTIONARY
  5
5E
102
{ACAD_REACTORS
330
C
102
}
330
C
100
AcDbDictionary
281
     1
  3
Standard
350
5F
  0
DICTIONARY
  5
60
102
{ACAD_REACTORS
330
C
102
}
330
C
100
AcDbDictionary
281
     1
  0
ACDBDICTIONARYWDFLT
  5
E
102
{ACAD_REACTORS
330
C
102
}
330
C
100
AcDbDictionary
281
     1
  3
Normal
350
F
100
AcDbDictionaryWithDefault
340
F
  0
DICTIONARY
  5
42
102
{ACAD_REACTORS
330
C
102
}
330
C
100
AcDbDictionary
281
     1
  3
A0
350
43
  3
A1
350
44
  3
A2
350
45
  3
A3
350
46
  3
A4
350
47
  3
A5
350
48
  3
A6
350
49
  3
A7
350
4A
  3
A8
350
4B
  3
A9
350
4C
  3
B0
350
4D
  3
B1
350
4E
  3
B2
350
4F
  3
B3
350
50
  3
B4
350
51
  3
B5
350
52
  3
B6
350
53
  0
DICTIONARY
  5
67
102
{ACAD_REACTORS
330
C
102
}
330
C
100
AcDbDictionary
281
     1
  3
Imperial24
350
68
  0
DICTIONARY
  5
63
102
{ACAD_REACTORS
330
C
102
}
330
C
100
AcDbDictionary
281
     1
  3
Standard
350
64
  0
DICTIONARY
  5
29
102
{ACAD_REACTORS
330
C
102
}
330
C
100
AcDbDictionary
281
     1
  3
2dWireframe
350
2F
  3
Basic
350
2E
  3
Brighten
350
35
  3
ColorChange
350
39
  3
Conceptual
350
32
  3
Dim
350
34
  3
EdgeColorOff
350
41
  3
Facepattern
350
38
  3
Flat
350
2A
  3
FlatWithEdges
350
2B
  3
Gouraud
350
2C
  3
GouraudWithEdges
350
2D
  3
Hidden
350
31
  3
JitterOff
350
3F
  3
Linepattern
350
37
  3
OverhangOff
350
40
  3
Realistic
350
33
  3
Shaded
350
3E
  3
Shaded with edges
350
3D
  3
Shades of Gray
350
3A
  3
Sketchy
350
3B
  3
Thicken
350
36
  3
Wireframe
350
30
  3
X-Ray
350
3C
  0
XRECORD
  5
440
102
{ACAD_REACTORS
330
C
102
}
330
C
100
AcDbXrecord
280
     1
 90
        1
330
64
  0
DICTIONARY
  5
430
102
{ACAD_REACTORS
330
C
102
}
330
C
100
AcDbDictionary
281
     1
  3
CANNOSCALE
350
435
  3
CMLEADERSTYLE
350
432
  3
CTABLESTYLE
350
431
  3
CVIEWDETAILSTYLE
350
433
  3
CVIEWSECTIONSTYLE
350
434
  3
DIMASSOC
350
438
  3
INDEXCTL
350
437
  3
SORTENTS
350
436
  3
XCLIPFRAME
350
43E
  0
XRECORD
  5
441
102
{ACAD_REACTORS
330
C
102
}
330
C
100
AcDbXrecord
280
     1
  1
DWGPROPS COOKIE
  2

  3

  4

  6

  7

  8
shima011
  9

300
=
301
=
302
=
303
=
304
=
305
=
306
=
307
=
308
=
309
=
 40
0.0077322916666667
 41
2459299.686854283
 42
2459303.447548403
  1

 90
        0
  0
XRECORD
  5
3DA
102
{ACAD_REACTORS
330
3D9
102
}
330
3D9
100
AcDbXrecord
280
     1
290
     1
  0
XRECORD
  5
3DC
102
{ACAD_REACTORS
330
3DB
102
}
330
3DB
100
AcDbXrecord
280
     1
290
     1
  0
XRECORD
  5
3DE
102
{ACAD_REACTORS
330
3DD
102
}
330
3DD
100
AcDbXrecord
280
     1
290
     1
  0
XRECORD
  5
3E0
102
{ACAD_REACTORS
330
3DF
102
}
330
3DF
100
AcDbXrecord
280
     1
290
     1
  0
XRECORD
  5
3E2
102
{ACAD_REACTORS
330
3E1
102
}
330
3E1
100
AcDbXrecord
280
     1
290
     1
  0
XRECORD
  5
3E4
102
{ACAD_REACTORS
330
3E3
102
}
330
3E3
100
AcDbXrecord
280
     1
290
     1
  0
XRECORD
  5
3E6
102
{ACAD_REACTORS
330
3E5
102
}
330
3E5
100
AcDbXrecord
280
     1
290
     1
  0
XRECORD
  5
3E8
102
{ACAD_REACTORS
330
3E7
102
}
330
3E7
100
AcDbXrecord
280
     1
290
     1
  0
XRECORD
  5
3EA
102
{ACAD_REACTORS
330
3E9
102
}
330
3E9
100
AcDbXrecord
280
     1
290
     1
  0
XRECORD
  5
3EC
102
{ACAD_REACTORS
330
3EB
102
}
330
3EB
100
AcDbXrecord
280
     1
290
     1
  0
ACDBDETAILVIEWSTYLE
  5
6A
102
{ACAD_XDICTIONARY
360
478
102
}
102
{ACAD_REACTORS
330
69
102
}
330
69
100
AcDbModelDocViewStyle
 70
     0
  3
Imperial24
290
     0
100
AcDbDetailViewStyle
 70
     0
 71
     0
 90
        3
 71
     1
340
55
 40
0.24
340
0
 40
0.24
300

 40
0.36
280
     3
 71
     2
340
5C
 90
       25
 71
     3
340
55
 40
0.24
 90
        1
 40
0.75
 90
        1
300
%<\AcVar ViewType \f "%tc1">% %<\AcVar ViewDetailId>%\PSCALE %<\AcVar ViewScale \f "%sn">%
 71
     4
340
5C
 90
       25
340
5C
 90
       25
280
     0
  0
LAYOUT
  5
72
102
{ACAD_XDICTIONARY
360
47C
102
}
102
{ACAD_REACTORS
330
61
102
}
330
61
100
AcDbPlotSettings
  1

  2
RICOH MP C3503 JPN
  4

  6

 40
0.0
 41
0.0
 42
0.0
 43
0.0
 44
0.0
 45
0.0
 46
0.0
 47
0.0
 48
0.0
 49
0.0
140
0.0
141
0.0
142
1.0
143
1.0
 70
  1712
 72
     0
 73
     0
 74
     0
  7

 75
     0
147
1.0
148
0.0
149
0.0
100
AcDbLayout
  1
Model
 70
     1
 71
     0
 10
0.0
 20
0.0
 11
12.0
 21
9.0
 12
0.0
 22
0.0
 32
0.0
 14
0.0
 24
0.0
 34
0.0
 15
0.0
 25
0.0
 35
0.0
146
0.0
 13
0.0
 23
0.0
 33
0.0
 16
1.0
 26
0.0
 36
0.0
 17
0.0
 27
1.0
 37
0.0
 76
     0
330
6F
331
A1
  0
LAYOUT
  5
6E
102
{ACAD_XDICTIONARY
360
47A
102
}
102
{ACAD_REACTORS
330
61
102
}
330
61
100
AcDbPlotSettings
  1

  2
RICOH MP C3503 JPN
  4

  6

 40
0.0
 41
0.0
 42
0.0
 43
0.0
 44
0.0
 45
0.0
 46
0.0
 47
0.0
 48
0.0
 49
0.0
140
0.0
141
0.0
142
1.0
143
1.0
 70
   688
 72
     0
 73
     0
 74
     5
  7

 75
    16
147
1.0
148
0.0
149
0.0
100
AcDbLayout
  1
レイアウト1
 70
     1
 71
     1
 10
0.0
 20
0.0
 11
12.0
 21
9.0
 12
0.0
 22
0.0
 32
0.0
 14
1.000000000000000E+20
 24
1.000000000000000E+20
 34
1.000000000000000E+20
 15
-1.000000000000000E+20
 25
-1.000000000000000E+20
 35
-1.000000000000000E+20
146
0.0
 13
0.0
 23
0.0
 33
0.0
 16
1.0
 26
0.0
 36
0.0
 17
0.0
 27
1.0
 37
0.0
 76
     0
330
6B
  0
MATERIAL
  5
19
102
{ACAD_XDICTIONARY
360
1A
102
}
102
{ACAD_REACTORS
330
10
102
}
330
10
100
AcDbMaterial
  1
ByBlock
 72
     0
 43
0.0208333333333333
 43
0.0
 43
0.0
 43
0.0
 43
0.0
 43
0.0208333333333333
 43
0.0
 43
0.0
 43
0.0
 43
0.0
 43
1.0
 43
0.0
 43
0.0
 43
0.0
 43
0.0
 43
1.0
 77
     0
 47
0.0208333333333333
 47
0.0
 47
0.0
 47
0.0
 47
0.0
 47
0.0208333333333333
 47
0.0
 47
0.0
 47
0.0
 47
0.0
 47
1.0
 47
0.0
 47
0.0
 47
0.0
 47
0.0
 47
1.0
171
     0
 49
0.0208333333333333
 49
0.0
 49
0.0
 49
0.0
 49
0.0
 49
0.0208333333333333
 49
0.0
 49
0.0
 49
0.0
 49
0.0
 49
1.0
 49
0.0
 49
0.0
 49
0.0
 49
0.0
 49
1.0
175
     0
142
0.0208333333333333
142
0.0
142
0.0
142
0.0
142
0.0
142
0.0208333333333333
142
0.0
142
0.0
142
0.0
142
0.0
142
1.0
142
0.0
142
0.0
142
0.0
142
0.0
142
1.0
179
     0
144
0.0208333333333333
144
0.0
144
0.0
144
0.0
144
0.0
144
0.0208333333333333
144
0.0
144
0.0
144
0.0
144
0.0
144
1.0
144
0.0
144
0.0
144
0.0
144
0.0
144
1.0
147
0.0208333333333333
147
0.0
147
0.0
147
0.0
147
0.0
147
0.0208333333333333
147
0.0
147
0.0
147
0.0
147
0.0
147
1.0
147
0.0
147
0.0
147
0.0
147
0.0
147
1.0
  0
MATERIAL
  5
11
102
{ACAD_XDICTIONARY
360
12
102
}
102
{ACAD_REACTORS
330
10
102
}
330
10
100
AcDbMaterial
  1
ByLayer
 72
     0
 43
0.0208333333333333
 43
0.0
 43
0.0
 43
0.0
 43
0.0
 43
0.0208333333333333
 43
0.0
 43
0.0
 43
0.0
 43
0.0
 43
1.0
 43
0.0
 43
0.0
 43
0.0
 43
0.0
 43
1.0
 77
     0
 47
0.0208333333333333
 47
0.0
 47
0.0
 47
0.0
 47
0.0
 47
0.0208333333333333
 47
0.0
 47
0.0
 47
0.0
 47
0.0
 47
1.0
 47
0.0
 47
0.0
 47
0.0
 47
0.0
 47
1.0
171
     0
 49
0.0208333333333333
 49
0.0
 49
0.0
 49
0.0
 49
0.0
 49
0.0208333333333333
 49
0.0
 49
0.0
 49
0.0
 49
0.0
 49
1.0
 49
0.0
 49
0.0
 49
0.0
 49
0.0
 49
1.0
175
     0
142
0.0208333333333333
142
0.0
142
0.0
142
0.0
142
0.0
142
0.0208333333333333
142
0.0
142
0.0
142
0.0
142
0.0
142
1.0
142
0.0
142
0.0
142
0.0
142
0.0
142
1.0
179
     0
144
0.0208333333333333
144
0.0
144
0.0
144
0.0
144
0.0
144
0.0208333333333333
144
0.0
144
0.0
144
0.0
144
0.0
144
1.0
144
0.0
144
0.0
144
0.0
144
0.0
144
1.0
147
0.0208333333333333
147
0.0
147
0.0
147
0.0
147
0.0
147
0.0208333333333333
147
0.0
147
0.0
147
0.0
147
0.0
147
1.0
147
0.0
147
0.0
147
0.0
147
0.0
147
1.0
  0
MATERIAL
  5
21
102
{ACAD_XDICTIONARY
360
22
102
}
102
{ACAD_REACTORS
330
10
102
}
330
10
100
AcDbMaterial
  1
Global
 72
     0
 43
0.0208333333333333
 43
0.0
 43
0.0
 43
0.0
 43
0.0
 43
0.0208333333333333
 43
0.0
 43
0.0
 43
0.0
 43
0.0
 43
1.0
 43
0.0
 43
0.0
 43
0.0
 43
0.0
 43
1.0
 77
     0
 47
0.0208333333333333
 47
0.0
 47
0.0
 47
0.0
 47
0.0
 47
0.0208333333333333
 47
0.0
 47
0.0
 47
0.0
 47
0.0
 47
1.0
 47
0.0
 47
0.0
 47
0.0
 47
0.0
 47
1.0
171
     0
 49
0.0208333333333333
 49
0.0
 49
0.0
 49
0.0
 49
0.0
 49
0.0208333333333333
 49
0.0
 49
0.0
 49
0.0
 49
0.0
 49
1.0
 49
0.0
 49
0.0
 49
0.0
 49
0.0
 49
1.0
175
     0
142
0.0208333333333333
142
0.0
142
0.0
142
0.0
142
0.0
142
0.0208333333333333
142
0.0
142
0.0
142
0.0
142
0.0
142
1.0
142
0.0
142
0.0
142
0.0
142
0.0
142
1.0
179
     0
144
0.0208333333333333
144
0.0
144
0.0
144
0.0
144
0.0
144
0.0208333333333333
144
0.0
144
0.0
144
0.0
144
0.0
144
1.0
144
0.0
144
0.0
144
0.0
144
0.0
144
1.0
147
0.0208333333333333
147
0.0
147
0.0
147
0.0
147
0.0
147
0.0208333333333333
147
0.0
147
0.0
147
0.0
147
0.0
147
1.0
147
0.0
147
0.0
147
0.0
147
0.0
147
1.0
  0
MLEADERSTYLE
  5
66
102
{ACAD_REACTORS
330
65
102
}
330
65
100
AcDbMLeaderStyle
170
     2
171
     1
172
     0
 90
        2
 40
0.0
 41
0.0
173
     1
 91
-1056964608
340
5A
 92
       -2
290
     1
 42
0.09
291
     1
 43
0.36
  3
Standard
 44
0.18
300

342
55
174
     1
178
     6
175
     1
176
     0
 93
-1056964608
 45
0.18
292
     0
297
     0
 46
0.18
 94
-1056964608
 47
1.0
 49
1.0
140
1.0
293
     1
141
0.0
294
     1
177
     0
142
1.0
295
     0
296
     0
143
0.125
1001
ACAD_MLEADERVER
1070
     2
  0
MLINESTYLE
  5
5F
102
{ACAD_REACTORS
330
5E
102
}
330
5E
100
AcDbMlineStyle
  2
STANDARD
 70
     0
  3

 62
   256
 51
90.0
 52
90.0
 71
     2
 49
0.5
 62
   256
  6
BYLAYER
 49
-0.5
 62
   256
  6
BYLAYER
  0
ACDBPLACEHOLDER
  5
F
102
{ACAD_REACTORS
330
E
102
}
330
E
  0
SCALE
  5
43
102
{ACAD_REACTORS
330
42
102
}
330
42
100
AcDbScale
 70
     0
300
1:1
140
1.0
141
1.0
290
     1
  0
SCALE
  5
44
102
{ACAD_REACTORS
330
42
102
}
330
42
100
AcDbScale
 70
     0
300
1/128" = 1'-0"
140
0.0078125
141
12.0
290
     0
  0
SCALE
  5
45
102
{ACAD_REACTORS
330
42
102
}
330
42
100
AcDbScale
 70
     0
300
1/64" = 1'-0"
140
0.015625
141
12.0
290
     0
  0
SCALE
  5
46
102
{ACAD_REACTORS
330
42
102
}
330
42
100
AcDbScale
 70
     0
300
1/32" = 1'-0"
140
0.03125
141
12.0
290
     0
  0
SCALE
  5
47
102
{ACAD_REACTORS
330
42
102
}
330
42
100
AcDbScale
 70
     0
300
1/16" = 1'-0"
140
0.0625
141
12.0
290
     0
  0
SCALE
  5
48
102
{ACAD_REACTORS
330
42
102
}
330
42
100
AcDbScale
 70
     0
300
3/32" = 1'-0"
140
0.09375
141
12.0
290
     0
  0
SCALE
  5
49
102
{ACAD_REACTORS
330
42
102
}
330
42
100
AcDbScale
 70
     0
300
1/8" = 1'-0"
140
0.125
141
12.0
290
     0
  0
SCALE
  5
4A
102
{ACAD_REACTORS
330
42
102
}
330
42
100
AcDbScale
 70
     0
300
3/16" = 1'-0"
140
0.1875
141
12.0
290
     0
  0
SCALE
  5
4B
102
{ACAD_REACTORS
330
42
102
}
330
42
100
AcDbScale
 70
     0
300
1/4" = 1'-0"
140
0.25
141
12.0
290
     0
  0
SCALE
  5
4C
102
{ACAD_REACTORS
330
42
102
}
330
42
100
AcDbScale
 70
     0
300
3/8" = 1'-0"
140
0.375
141
12.0
290
     0
  0
SCALE
  5
4D
102
{ACAD_REACTORS
330
42
102
}
330
42
100
AcDbScale
 70
     0
300
1/2" = 1'-0"
140
0.5
141
12.0
290
     0
  0
SCALE
  5
4E
102
{ACAD_REACTORS
330
42
102
}
330
42
100
AcDbScale
 70
     0
300
3/4" = 1'-0"
140
0.75
141
12.0
290
     0
  0
SCALE
  5
4F
102
{ACAD_REACTORS
330
42
102
}
330
42
100
AcDbScale
 70
     0
300
1" = 1'-0"
140
1.0
141
12.0
290
     0
  0
SCALE
  5
50
102
{ACAD_REACTORS
330
42
102
}
330
42
100
AcDbScale
 70
     0
300
1-1/2" = 1'-0"
140
1.5
141
12.0
290
     0
  0
SCALE
  5
51
102
{ACAD_REACTORS
330
42
102
}
330
42
100
AcDbScale
 70
     0
300
3" = 1'-0"
140
3.0
141
12.0
290
     0
  0
SCALE
  5
52
102
{ACAD_REACTORS
330
42
102
}
330
42
100
AcDbScale
 70
     0
300
6" = 1'-0"
140
6.0
141
12.0
290
     0
  0
SCALE
  5
53
102
{ACAD_REACTORS
330
42
102
}
330
42
100
AcDbScale
 70
     0
300
1'-0" = 1'-0"
140
12.0
141
12.0
290
     0
  0
ACDBSECTIONVIEWSTYLE
  5
68
102
{ACAD_XDICTIONARY
360
476
102
}
102
{ACAD_REACTORS
330
67
102
}
330
67
100
AcDbModelDocViewStyle
 70
     0
  3
Imperial24
290
     0
100
AcDbSectionViewStyle
 70
     0
 71
     0
 90
       78
 71
     1
340
55
 40
0.24
340
0
340
0
 40
0.24
300
I, O, Q, S, X, Z
 40
0.48
 90
        3
 40
0.18
 90
        1
 71
     2
340
5C
 90
       25
340
5C
 90
       50
 40
0.24
 40
0.0
 40
0.24
 71
     3
340
55
 40
0.24
 90
        1
 40
0.75
 90
        1
300
%<\AcVar ViewType \f "%tc1">% %<\AcVar ViewSectionStartId>%-%<\AcVar ViewSectionEndId>%\PSCALE %<\AcVar ViewScale \f "%sn">%
 71
     4
300
ANSI31
 40
1.0
 90
        0
290
     0
290
     0
 90
        6
 40
0.0
 40
1.570796326794896
 40
0.2617993877991494
 40
1.308996938995747
 40
-0.2617993877991494
 40
1.832595714594046
  0
TABLESTYLE
  5
64
102
{ACAD_XDICTIONARY
360
3ED
102
}
102
{ACAD_REACTORS
330
63
102
}
330
63
100
AcDbTableStyle
  3
Standard
 70
     0
 71
     0
 40
0.06
 41
0.06
280
     0
281
     0
  7
STANDARD
140
0.18
170
     2
 62
     0
 63
     7
283
     0
274
    -2
284
     1
 64
     0
275
    -2
285
     1
 65
     0
276
    -2
286
     1
 66
     0
277
    -2
287
     1
 67
     0
278
    -2
288
     1
 68
     0
279
    -2
289
     1
 69
     0
  7
STANDARD
140
0.25
170
     5
 62
     0
 63
     7
283
     0
274
    -2
284
     1
 64
     0
275
    -2
285
     1
 65
     0
276
    -2
286
     1
 66
     0
277
    -2
287
     1
 67
     0
278
    -2
288
     1
 68
     0
279
    -2
289
     1
 69
     0
  7
STANDARD
140
0.18
170
     5
 62
     0
 63
     7
283
     0
274
    -2
284
     1
 64
     0
275
    -2
285
     1
 65
     0
276
    -2
286
     1
 66
     0
277
    -2
287
     1
 67
     0
278
    -2
288
     1
 68
     0
279
    -2
289
     1
 69
     0
  0
VISUALSTYLE
  5
2F
102
{ACAD_XDICTIONARY
360
44F
102
}
102
{ACAD_REACTORS
330
29
102
}
330
29
100
AcDbVisualStyle
  2
2dWireframe
 70
     4
 71
     0
 72
     2
 73
     0
 90
        0
 40
-0.6
 41
-30.0
 62
     5
 63
     7
 74
     1
 91
        4
 64
     7
 65
   257
 75
     1
175
     1
 42
1.0
 92
        0
 66
   257
 43
1.0
 76
     1
 77
     6
 78
     2
 67
     7
 79
     5
170
     0
171
     0
290
     0
174
     0
 93
        1
 44
0.0
173
     0
291
     0
 45
0.0
1001
ACAD
1000
AcDbSavedByObjectVersion
1070
     0
  0
VISUALSTYLE
  5
2E
102
{ACAD_XDICTIONARY
360
44D
102
}
102
{ACAD_REACTORS
330
29
102
}
330
29
100
AcDbVisualStyle
  2
Basic
 70
     7
 71
     1
 72
     0
 73
     1
 90
        0
 40
-0.6
 41
-30.0
 62
     5
 63
     7
 74
     0
 91
        4
 64
     7
 65
   257
 75
     1
175
     1
 42
1.0
 92
        8
 66
     7
 43
1.0
 76
     1
 77
     6
 78
     2
 67
     7
 79
     5
170
     0
171
     0
290
     0
174
     0
 93
        1
 44
0.0
173
     0
291
     1
 45
0.0
1001
ACAD
1000
AcDbSavedByObjectVersion
1070
     0
  0
VISUALSTYLE
  5
35
102
{ACAD_XDICTIONARY
360
45B
102
}
102
{ACAD_REACTORS
330
29
102
}
330
29
100
AcDbVisualStyle
  2
Brighten
 70
    12
 71
     2
 72
     2
 73
     0
 90
        0
 40
-0.6
 41
-30.0
 62
     5
 63
     7
 74
     1
 91
        4
 64
     7
 65
   257
 75
     1
175
     1
 42
1.0
 92
        8
 66
     7
 43
1.0
 76
     1
 77
     6
 78
     2
 67
     7
 79
     5
170
     0
171
     0
290
     0
174
     0
 93
        1
 44
50.0
173
     0
291
     1
 45
0.0
1001
ACAD
1000
AcDbSavedByObjectVersion
1070
     0
  0
VISUALSTYLE
  5
39
102
{ACAD_XDICTIONARY
360
463
102
}
102
{ACAD_REACTORS
330
29
102
}
330
29
100
AcDbVisualStyle
  2
ColorChange
 70
    16
 71
     2
 72
     2
 73
     3
 90
        0
 40
-0.6
 41
-30.0
 62
     5
 63
     8
 74
     1
 91
        4
 64
     7
 65
   257
 75
     1
175
     1
 42
1.0
 92
        8
 66
     8
 43
1.0
 76
     1
 77
     6
 78
     2
 67
     7
 79
     5
170
     0
171
     0
290
     0
174
     0
 93
        1
 44
0.0
173
     0
291
     1
 45
0.0
1001
ACAD
1000
AcDbSavedByObjectVersion
1070
     0
  0
VISUALSTYLE
  5
32
102
{ACAD_XDICTIONARY
360
455
102
}
102
{ACAD_REACTORS
330
29
102
}
330
29
100
AcDbVisualStyle
  2
Conceptual
 70
     9
 71
     3
 72
     2
 73
     0
 90
        0
 40
-0.6
 41
-30.0
 62
     5
 63
     7
 74
     2
 91
        2
 64
     7
 65
   257
 75
     1
175
     1
 42
179.0
 92
        8
 66
     7
 43
1.0
 76
     1
 77
     6
 78
     2
 67
     7
 79
     3
170
     0
171
     0
290
     0
174
     0
 93
        1
 44
0.0
173
     0
291
     0
 45
0.0
1001
ACAD
1000
AcDbSavedByObjectVersion
1070
     0
  0
VISUALSTYLE
  5
34
102
{ACAD_XDICTIONARY
360
459
102
}
102
{ACAD_REACTORS
330
29
102
}
330
29
100
AcDbVisualStyle
  2
Dim
 70
    11
 71
     2
 72
     2
 73
     0
 90
        0
 40
-0.6
 41
-30.0
 62
     5
 63
     7
 74
     1
 91
        4
 64
     7
 65
   257
 75
     1
175
     1
 42
1.0
 92
        8
 66
     7
 43
1.0
 76
     1
 77
     6
 78
     2
 67
     7
 79
     5
170
     0
171
     0
290
     0
174
     0
 93
        1
 44
-50.0
173
     0
291
     1
 45
0.0
1001
ACAD
1000
AcDbSavedByObjectVersion
1070
     0
  0
VISUALSTYLE
  5
41
102
{ACAD_XDICTIONARY
360
473
102
}
102
{ACAD_REACTORS
330
29
102
}
330
29
100
AcDbVisualStyle
  2
EdgeColorOff
 70
    22
 71
     2
 72
     2
 73
     0
 90
        0
 40
-0.6
 41
-30.0
 62
     5
 63
     7
 74
     1
 91
        4
 64
     7
 65
   257
 75
     1
175
     1
 42
1.0
 92
        8
 66
     7
 43
1.0
 76
     1
 77
     6
 78
     2
 67
     7
 79
     5
170
     0
171
     0
290
     0
174
     0
 93
        1
 44
0.0
173
     0
291
     1
 45
0.0
1001
ACAD
1000
AcDbSavedByObjectVersion
1070
     0
  0
VISUALSTYLE
  5
38
102
{ACAD_XDICTIONARY
360
461
102
}
102
{ACAD_REACTORS
330
29
102
}
330
29
100
AcDbVisualStyle
  2
Facepattern
 70
    15
 71
     2
 72
     2
 73
     0
 90
        0
 40
-0.6
 41
-30.0
 62
     5
 63
     7
 74
     1
 91
        4
 64
     7
 65
   257
 75
     1
175
     1
 42
1.0
 92
        8
 66
     7
 43
1.0
 76
     1
 77
     6
 78
     2
 67
     7
 79
     5
170
     0
171
     0
290
     0
174
     0
 93
        1
 44
0.0
173
     0
291
     1
 45
0.0
1001
ACAD
1000
AcDbSavedByObjectVersion
1070
     0
  0
VISUALSTYLE
  5
2A
102
{ACAD_XDICTIONARY
360
445
102
}
102
{ACAD_REACTORS
330
29
102
}
330
29
100
AcDbVisualStyle
  2
Flat
 70
     0
 71
     2
 72
     1
 73
     1
 90
        2
 40
-0.6
 41
30.0
 62
     5
 63
     7
 74
     0
 91
        0
 64
     7
 65
   257
 75
     1
175
     1
 42
1.0
 92
        8
 66
     7
 43
1.0
 76
     1
 77
     6
 78
     2
 67
     7
 79
     5
170
     0
171
     0
290
     0
174
     0
 93
       13
 44
0.0
173
     0
291
     1
 45
0.0
1001
ACAD
1000
AcDbSavedByObjectVersion
1070
     0
  0
VISUALSTYLE
  5
2B
102
{ACAD_XDICTIONARY
360
447
102
}
102
{ACAD_REACTORS
330
29
102
}
330
29
100
AcDbVisualStyle
  2
FlatWithEdges
 70
     1
 71
     2
 72
     1
 73
     1
 90
        2
 40
-0.6
 41
30.0
 62
     5
 63
     7
 74
     1
 91
        0
 64
     7
 65
   257
 75
     1
175
     1
 42
1.0
 92
        0
 66
   257
 43
1.0
 76
     1
 77
     6
 78
     2
 67
     7
 79
     5
170
     0
171
     0
290
     0
174
     0
 93
       13
 44
0.0
173
     0
291
     1
 45
0.0
1001
ACAD
1000
AcDbSavedByObjectVersion
1070
     0
  0
VISUALSTYLE
  5
2C
102
{ACAD_XDICTIONARY
360
449
102
}
102
{ACAD_REACTORS
330
29
102
}
330
29
100
AcDbVisualStyle
  2
Gouraud
 70
     2
 71
     2
 72
     2
 73
     1
 90
        2
 40
-0.6
 41
30.0
 62
     5
 63
     7
 74
     0
 91
        0
 64
     7
 65
   257
 75
     1
175
     1
 42
1.0
 92
        0
 66
     7
 43
1.0
 76
     1
 77
     6
 78
     2
 67
     7
 79
     5
170
     0
171
     0
290
     0
174
     0
 93
       13
 44
0.0
173
     0
291
     1
 45
0.0
1001
ACAD
1000
AcDbSavedByObjectVersion
1070
     0
  0
VISUALSTYLE
  5
2D
102
{ACAD_XDICTIONARY
360
44B
102
}
102
{ACAD_REACTORS
330
29
102
}
330
29
100
AcDbVisualStyle
  2
GouraudWithEdges
 70
     3
 71
     2
 72
     2
 73
     1
 90
        2
 40
-0.6
 41
30.0
 62
     5
 63
     7
 74
     1
 91
        0
 64
     7
 65
   257
 75
     1
175
     1
 42
1.0
 92
        0
 66
   257
 43
1.0
 76
     1
 77
     6
 78
     2
 67
     7
 79
     5
170
     0
171
     0
290
     0
174
     0
 93
       13
 44
0.0
173
     0
291
     1
 45
0.0
1001
ACAD
1000
AcDbSavedByObjectVersion
1070
     0
  0
VISUALSTYLE
  5
31
102
{ACAD_XDICTIONARY
360
453
102
}
102
{ACAD_REACTORS
330
29
102
}
330
29
100
AcDbVisualStyle
  2
Hidden
 70
     6
 71
     1
 72
     2
 73
     2
 90
        0
 40
-0.6
 41
-30.0
 62
     5
 63
     7
 74
     2
 91
        2
 64
     7
 65
   257
 75
     2
175
     1
 42
40.0
 92
        0
 66
   257
 43
1.0
 76
     1
 77
     6
 78
     2
 67
     7
 79
     3
170
     0
171
     0
290
     0
174
     0
 93
        1
 44
0.0
173
     0
291
     0
 45
0.0
1001
ACAD
1000
AcDbSavedByObjectVersion
1070
     0
  0
VISUALSTYLE
  5
3F
102
{ACAD_XDICTIONARY
360
46F
102
}
102
{ACAD_REACTORS
330
29
102
}
330
29
100
AcDbVisualStyle
  2
JitterOff
 70
    20
 71
     2
 72
     2
 73
     0
 90
        0
 40
-0.6
 41
-30.0
 62
     5
 63
     7
 74
     1
 91
        4
 64
     7
 65
   257
 75
     1
175
     1
 42
1.0
 92
       10
 66
     7
 43
1.0
 76
     1
 77
     6
 78
     2
 67
     7
 79
     5
170
     0
171
     0
290
     0
174
     0
 93
        1
 44
0.0
173
     0
291
     1
 45
0.0
1001
ACAD
1000
AcDbSavedByObjectVersion
1070
     0
  0
VISUALSTYLE
  5
37
102
{ACAD_XDICTIONARY
360
45F
102
}
102
{ACAD_REACTORS
330
29
102
}
330
29
100
AcDbVisualStyle
  2
Linepattern
 70
    14
 71
     2
 72
     2
 73
     0
 90
        0
 40
-0.6
 41
-30.0
 62
     5
 63
     7
 74
     1
 91
        4
 64
     7
 65
   257
 75
     7
175
     7
 42
1.0
 92
        8
 66
     7
 43
1.0
 76
     1
 77
     6
 78
     2
 67
     7
 79
     5
170
     0
171
     0
290
     0
174
     0
 93
        1
 44
0.0
173
     0
291
     1
 45
0.0
1001
ACAD
1000
AcDbSavedByObjectVersion
1070
     0
  0
VISUALSTYLE
  5
40
102
{ACAD_XDICTIONARY
360
471
102
}
102
{ACAD_REACTORS
330
29
102
}
330
29
100
AcDbVisualStyle
  2
OverhangOff
 70
    21
 71
     2
 72
     2
 73
     0
 90
        0
 40
-0.6
 41
-30.0
 62
     5
 63
     7
 74
     1
 91
        4
 64
     7
 65
   257
 75
     1
175
     1
 42
1.0
 92
        9
 66
     7
 43
1.0
 76
     1
 77
     6
 78
     2
 67
     7
 79
     5
170
     0
171
     0
290
     0
174
     0
 93
        1
 44
0.0
173
     0
291
     1
 45
0.0
1001
ACAD
1000
AcDbSavedByObjectVersion
1070
     0
  0
VISUALSTYLE
  5
33
102
{ACAD_XDICTIONARY
360
457
102
}
102
{ACAD_REACTORS
330
29
102
}
330
29
100
AcDbVisualStyle
  2
Realistic
 70
     8
 71
     2
 72
     2
 73
     0
 90
        2
 40
-0.6
 41
30.0
 62
     5
 63
     7
 74
     0
 91
        0
 64
     7
 65
   257
 75
     1
175
     1
 42
1.0
 92
        8
 66
   257
 43
1.0
 76
     1
 77
     6
 78
     2
 67
     7
 79
     3
170
     0
171
     0
290
     0
174
     0
 93
       13
 44
0.0
173
     0
291
     0
 45
0.0
1001
ACAD
1000
AcDbSavedByObjectVersion
1070
     0
  0
VISUALSTYLE
  5
3E
102
{ACAD_XDICTIONARY
360
46D
102
}
102
{ACAD_REACTORS
330
29
102
}
330
29
100
AcDbVisualStyle
  2
Shaded
 70
    27
 71
     2
 72
     2
 73
     1
 90
        2
 40
-0.6
 41
30.0
 62
     5
 63
     7
 74
     0
 91
        4
 64
     7
 65
   257
 75
     1
175
     1
 42
1.0
 92
        8
 66
   257
 43
1.0
 76
     1
 77
     6
 78
     2
 67
     8
 79
     3
170
     0
171
     0
290
     0
174
     0
 93
        5
 44
0.0
173
     0
291
     0
 45
0.0
1001
ACAD
1000
AcDbSavedByObjectVersion
1070
     0
  0
VISUALSTYLE
  5
3D
102
{ACAD_XDICTIONARY
360
46B
102
}
102
{ACAD_REACTORS
330
29
102
}
330
29
100
AcDbVisualStyle
  2
Shaded with edges
 70
    26
 71
     2
 72
     2
 73
     1
 90
        2
 40
-0.6
 41
30.0
 62
     5
 63
     7
 74
     1
 91
       10
 64
     7
 65
   257
 75
     2
175
     1
 42
1.0
 92
        8
 66
   257
 43
1.0
 76
     1
 77
     6
 78
     2
 67
     7
 79
     3
170
     0
171
     0
290
     0
174
     0
 93
        5
 44
0.0
173
     0
291
     0
 45
0.0
1001
ACAD
1000
AcDbSavedByObjectVersion
1070
     0
  0
VISUALSTYLE
  5
3A
102
{ACAD_XDICTIONARY
360
465
102
}
102
{ACAD_REACTORS
330
29
102
}
330
29
100
AcDbVisualStyle
  2
Shades of Gray
 70
    23
 71
     2
 72
     2
 73
     3
 90
        0
 40
-0.6
 41
-30.0
 62
     5
 63
     7
 74
     2
 91
        2
 64
     7
 65
     7
 75
     1
175
     1
 42
40.0
 92
        8
 66
     7
 43
1.0
 76
     1
 77
     6
 78
     2
 67
     7
 79
     3
170
     0
171
     0
290
     0
174
     0
 93
        1
 44
0.0
173
     0
291
     0
 45
0.0
1001
ACAD
1000
AcDbSavedByObjectVersion
1070
     0
  0
VISUALSTYLE
  5
3B
102
{ACAD_XDICTIONARY
360
467
102
}
102
{ACAD_REACTORS
330
29
102
}
330
29
100
AcDbVisualStyle
  2
Sketchy
 70
    24
 71
     1
 72
     2
 73
     2
 90
        0
 40
-0.6
 41
-30.0
 62
     5
 63
     7
 74
     2
 91
        2
 64
     7
 65
     7
 75
     1
175
     1
 42
40.0
 92
       11
 66
     7
 43
1.0
 76
     1
 77
     6
 78
     2
 67
     7
 79
     6
170
     0
171
     0
290
     0
174
     0
 93
        1
 44
0.0
173
     0
291
     0
 45
0.0
1001
ACAD
1000
AcDbSavedByObjectVersion
1070
     0
  0
VISUALSTYLE
  5
36
102
{ACAD_XDICTIONARY
360
45D
102
}
102
{ACAD_REACTORS
330
29
102
}
330
29
100
AcDbVisualStyle
  2
Thicken
 70
    13
 71
     2
 72
     2
 73
     0
 90
        0
 40
-0.6
 41
-30.0
 62
     5
 63
     7
 74
     1
 91
        4
 64
     7
 65
   257
 75
     1
175
     1
 42
1.0
 92
       12
 66
     7
 43
1.0
 76
     1
 77
     6
 78
     2
 67
     7
 79
     5
170
     0
171
     0
290
     0
174
     0
 93
        1
 44
0.0
173
     0
291
     1
 45
0.0
1001
ACAD
1000
AcDbSavedByObjectVersion
1070
     0
  0
VISUALSTYLE
  5
30
102
{ACAD_XDICTIONARY
360
451
102
}
102
{ACAD_REACTORS
330
29
102
}
330
29
100
AcDbVisualStyle
  2
Wireframe
 70
     5
 71
     0
 72
     2
 73
     0
 90
        0
 40
-0.6
 41
-30.0
 62
     5
 63
     7
 74
     1
 91
        4
 64
     7
 65
   257
 75
     1
175
     1
 42
1.0
 92
        0
 66
   257
 43
1.0
 76
     1
 77
     6
 78
     2
 67
     7
 79
     3
170
     0
171
     0
290
     0
174
     0
 93
        1
 44
0.0
173
     0
291
     0
 45
0.0
1001
ACAD
1000
AcDbSavedByObjectVersion
1070
     0
  0
VISUALSTYLE
  5
3C
102
{ACAD_XDICTIONARY
360
469
102
}
102
{ACAD_REACTORS
330
29
102
}
330
29
100
AcDbVisualStyle
  2
X-Ray
 70
    25
 71
     2
 72
     2
 73
     1
 90
        1
 40
0.5
 41
-30.0
 62
     5
 63
     7
 74
     1
 91
        0
 64
     7
 65
   257
 75
     1
175
     1
 42
1.0
 92
        8
 66
     7
 43
1.0
 76
     1
 77
     6
 78
     2
 67
     7
 79
     3
170
     0
171
     0
290
     0
174
     0
 93
       13
 44
0.0
173
     0
291
     0
 45
0.0
1001
ACAD
1000
AcDbSavedByObjectVersion
1070
     0
  0
DICTIONARYVAR
  5
435
102
{ACAD_REACTORS
330
430
102
}
330
430
100
DictionaryVariables
280
     0
  1
1:1
  0
DICTIONARYVAR
  5
432
102
{ACAD_REACTORS
330
430
102
}
330
430
100
DictionaryVariables
280
     0
  1
STANDARD
  0
DICTIONARYVAR
  5
431
102
{ACAD_REACTORS
330
430
102
}
330
430
100
DictionaryVariables
280
     0
  1
STANDARD
  0
DICTIONARYVAR
  5
433
102
{ACAD_REACTORS
330
430
102
}
330
430
100
DictionaryVariables
280
     0
  1
Imperial24
  0
DICTIONARYVAR
  5
434
102
{ACAD_REACTORS
330
430
102
}
330
430
100
DictionaryVariables
280
     0
  1
Imperial24
  0
DICTIONARYVAR
  5
438
102
{ACAD_REACTORS
330
430
102
}
330
430
100
DictionaryVariables
280
     0
  1
1
  0
DICTIONARYVAR
  5
437
102
{ACAD_REACTORS
330
430
102
}
330
430
100
DictionaryVariables
280
     0
  1
0
  0
DICTIONARYVAR
  5
436
102
{ACAD_REACTORS
330
430
102
}
330
430
100
DictionaryVariables
280
     0
  1
127
  0
DICTIONARYVAR
  5
43E
102
{ACAD_REACTORS
330
430
102
}
330
430
100
DictionaryVariables
280
     0
  1
2
  0
DICTIONARY
  5
478
330
6A
100
AcDbDictionary
280
     1
281
     1
  3
ACAD_XREC_ROUNDTRIP
360
479
  0
DICTIONARY
  5
47C
330
72
100
AcDbDictionary
280
     1
281
     1
  3
ACAD_XREC_ROUNDTRIP
360
47D
  0
DICTIONARY
  5
47A
330
6E
100
AcDbDictionary
280
     1
281
     1
  3
ACAD_XREC_ROUNDTRIP
360
47B
  0
DICTIONARY
  5
1A
330
19
100
AcDbDictionary
280
     1
281
     1
  3
ACAD_XREC_ROUNDTRIP
360
443
  3
BUMPTILE
360
1C
  3
DIFFUSETILE
360
1B
  3
OPACITYTILE
360
1F
  3
REFLECTIONTILE
360
1E
  3
REFRACTIONTILE
360
20
  3
SPECULARTILE
360
1D
  0
DICTIONARY
  5
12
330
11
100
AcDbDictionary
280
     1
281
     1
  3
ACAD_XREC_ROUNDTRIP
360
442
  3
BUMPTILE
360
14
  3
DIFFUSETILE
360
13
  3
OPACITYTILE
360
17
  3
REFLECTIONTILE
360
16
  3
REFRACTIONTILE
360
18
  3
SPECULARTILE
360
15
  0
DICTIONARY
  5
22
330
21
100
AcDbDictionary
280
     1
281
     1
  3
ACAD_XREC_ROUNDTRIP
360
444
  3
BUMPTILE
360
24
  3
DIFFUSETILE
360
23
  3
OPACITYTILE
360
27
  3
REFLECTIONTILE
360
26
  3
REFRACTIONTILE
360
28
  3
SPECULARTILE
360
25
  0
DICTIONARY
  5
476
330
68
100
AcDbDictionary
280
     1
281
     1
  3
ACAD_XREC_ROUNDTRIP
360
477
  0
DICTIONARY
  5
3ED
330
64
100
AcDbDictionary
280
     1
281
     1
  3
ACAD_ROUNDTRIP_2008_TABLESTYLE_CELLSTYLEMAP
360
43F
  3
ACAD_XREC_ROUNDTRIP
360
475
  0
DICTIONARY
  5
44F
330
2F
100
AcDbDictionary
280
     1
281
     1
  3
ACAD_XREC_ROUNDTRIP
360
450
  0
DICTIONARY
  5
44D
330
2E
100
AcDbDictionary
280
     1
281
     1
  3
ACAD_XREC_ROUNDTRIP
360
44E
  0
DICTIONARY
  5
45B
330
35
100
AcDbDictionary
280
     1
281
     1
  3
ACAD_XREC_ROUNDTRIP
360
45C
  0
DICTIONARY
  5
463
330
39
100
AcDbDictionary
280
     1
281
     1
  3
ACAD_XREC_ROUNDTRIP
360
464
  0
DICTIONARY
  5
455
330
32
100
AcDbDictionary
280
     1
281
     1
  3
ACAD_XREC_ROUNDTRIP
360
456
  0
DICTIONARY
  5
459
330
34
100
AcDbDictionary
280
     1
281
     1
  3
ACAD_XREC_ROUNDTRIP
360
45A
  0
DICTIONARY
  5
473
330
41
100
AcDbDictionary
280
     1
281
     1
  3
ACAD_XREC_ROUNDTRIP
360
474
  0
DICTIONARY
  5
461
330
38
100
AcDbDictionary
280
     1
281
     1
  3
ACAD_XREC_ROUNDTRIP
360
462
  0
DICTIONARY
  5
445
330
2A
100
AcDbDictionary
280
     1
281
     1
  3
ACAD_XREC_ROUNDTRIP
360
446
  0
DICTIONARY
  5
447
330
2B
100
AcDbDictionary
280
     1
281
     1
  3
ACAD_XREC_ROUNDTRIP
360
448
  0
DICTIONARY
  5
449
330
2C
100
AcDbDictionary
280
     1
281
     1
  3
ACAD_XREC_ROUNDTRIP
360
44A
  0
DICTIONARY
  5
44B
330
2D
100
AcDbDictionary
280
     1
281
     1
  3
ACAD_XREC_ROUNDTRIP
360
44C
  0
DICTIONARY
  5
453
330
31
100
AcDbDictionary
280
     1
281
     1
  3
ACAD_XREC_ROUNDTRIP
360
454
  0
DICTIONARY
  5
46F
330
3F
100
AcDbDictionary
280
     1
281
     1
  3
ACAD_XREC_ROUNDTRIP
360
470
  0
DICTIONARY
  5
45F
330
37
100
AcDbDictionary
280
     1
281
     1
  3
ACAD_XREC_ROUNDTRIP
360
460
  0
DICTIONARY
  5
471
330
40
100
AcDbDictionary
280
     1
281
     1
  3
ACAD_XREC_ROUNDTRIP
360
472
  0
DICTIONARY
  5
457
330
33
100
AcDbDictionary
280
     1
281
     1
  3
ACAD_XREC_ROUNDTRIP
360
458
  0
DICTIONARY
  5
46D
330
3E
100
AcDbDictionary
280
     1
281
     1
  3
ACAD_XREC_ROUNDTRIP
360
46E
  0
DICTIONARY
  5
46B
330
3D
100
AcDbDictionary
280
     1
281
     1
  3
ACAD_XREC_ROUNDTRIP
360
46C
  0
DICTIONARY
  5
465
330
3A
100
AcDbDictionary
280
     1
281
     1
  3
ACAD_XREC_ROUNDTRIP
360
466
  0
DICTIONARY
  5
467
330
3B
100
AcDbDictionary
280
     1
281
     1
  3
ACAD_XREC_ROUNDTRIP
360
468
  0
DICTIONARY
  5
45D
330
36
100
AcDbDictionary
280
     1
281
     1
  3
ACAD_XREC_ROUNDTRIP
360
45E
  0
DICTIONARY
  5
451
330
30
100
AcDbDictionary
280
     1
281
     1
  3
ACAD_XREC_ROUNDTRIP
360
452
  0
DICTIONARY
  5
469
330
3C
100
AcDbDictionary
280
     1
281
     1
  3
ACAD_XREC_ROUNDTRIP
360
46A
  0
XRECORD
  5
479
102
{ACAD_REACTORS
330
478
102
}
330
478
100
AcDbXrecord
280
     1
102
DISPLAYNAME
  1
Imperial24
102
FLAGS
 90
        0
  0
XRECORD
  5
47D
102
{ACAD_REACTORS
330
47C
102
}
330
47C
100
AcDbXrecord
280
     1
102
SHADEPLOT
 70
     0
102
SHADEPLOTRESLEVEL
 70
     2
102
SHADEPLOTCUSTOMDPI
 70
   300
  0
XRECORD
  5
47B
102
{ACAD_REACTORS
330
47A
102
}
330
47A
100
AcDbXrecord
280
     1
102
SHADEPLOT
 70
     0
102
SHADEPLOTRESLEVEL
 70
     2
102
SHADEPLOTCUSTOMDPI
 70
   300
  0
XRECORD
  5
443
102
{ACAD_REACTORS
330
1A
102
}
330
1A
100
AcDbXrecord
280
     1
102
MATERIAL
148
0.0
149
0.0
149
0.0
 93
        0
 94
      127
282
     0
 72
     0
 77
     0
171
     0
175
     0
179
     0
273
     0
  0
XRECORD
  5
1C
102
{ACAD_REACTORS
330
1A
102
}
330
1A
100
AcDbXrecord
280
     1
270
     1
271
     1
  0
XRECORD
  5
1B
102
{ACAD_REACTORS
330
1A
102
}
330
1A
100
AcDbXrecord
280
     1
270
     1
271
     1
  0
XRECORD
  5
1F
102
{ACAD_REACTORS
330
1A
102
}
330
1A
100
AcDbXrecord
280
     1
270
     1
271
     1
  0
XRECORD
  5
1E
102
{ACAD_REACTORS
330
1A
102
}
330
1A
100
AcDbXrecord
280
     1
270
     1
271
     1
  0
XRECORD
  5
20
102
{ACAD_REACTORS
330
1A
102
}
330
1A
100
AcDbXrecord
280
     1
270
     1
271
     1
  0
XRECORD
  5
1D
102
{ACAD_REACTORS
330
1A
102
}
330
1A
100
AcDbXrecord
280
     1
270
     1
271
     1
  0
XRECORD
  5
442
102
{ACAD_REACTORS
330
12
102
}
330
12
100
AcDbXrecord
280
     1
102
MATERIAL
148
0.0
149
0.0
149
0.0
 93
        0
 94
      127
282
     0
 72
     0
 77
     0
171
     0
175
     0
179
     0
273
     0
  0
XRECORD
  5
14
102
{ACAD_REACTORS
330
12
102
}
330
12
100
AcDbXrecord
280
     1
270
     1
271
     1
  0
XRECORD
  5
13
102
{ACAD_REACTORS
330
12
102
}
330
12
100
AcDbXrecord
280
     1
270
     1
271
     1
  0
XRECORD
  5
17
102
{ACAD_REACTORS
330
12
102
}
330
12
100
AcDbXrecord
280
     1
270
     1
271
     1
  0
XRECORD
  5
16
102
{ACAD_REACTORS
330
12
102
}
330
12
100
AcDbXrecord
280
     1
270
     1
271
     1
  0
XRECORD
  5
18
102
{ACAD_REACTORS
330
12
102
}
330
12
100
AcDbXrecord
280
     1
270
     1
271
     1
  0
XRECORD
  5
15
102
{ACAD_REACTORS
330
12
102
}
330
12
100
AcDbXrecord
280
     1
270
     1
271
     1
  0
XRECORD
  5
444
102
{ACAD_REACTORS
330
22
102
}
330
22
100
AcDbXrecord
280
     1
102
MATERIAL
148
0.0
149
0.0
149
0.0
 93
        0
 94
      127
282
     0
 72
     0
 77
     0
171
     0
175
     0
179
     0
273
     0
  0
XRECORD
  5
24
102
{ACAD_REACTORS
330
22
102
}
330
22
100
AcDbXrecord
280
     1
270
     1
271
     1
  0
XRECORD
  5
23
102
{ACAD_REACTORS
330
22
102
}
330
22
100
AcDbXrecord
280
     1
270
     1
271
     1
  0
XRECORD
  5
27
102
{ACAD_REACTORS
330
22
102
}
330
22
100
AcDbXrecord
280
     1
270
     1
271
     1
  0
XRECORD
  5
26
102
{ACAD_REACTORS
330
22
102
}
330
22
100
AcDbXrecord
280
     1
270
     1
271
     1
  0
XRECORD
  5
28
102
{ACAD_REACTORS
330
22
102
}
330
22
100
AcDbXrecord
280
     1
270
     1
271
     1
  0
XRECORD
  5
25
102
{ACAD_REACTORS
330
22
102
}
330
22
100
AcDbXrecord
280
     1
270
     1
271
     1
  0
XRECORD
  5
477
102
{ACAD_REACTORS
330
476
102
}
330
476
100
AcDbXrecord
280
     1
102
DISPLAYNAME
  1
Imperial24
102
FLAGS
 90
        0
  0
CELLSTYLEMAP
  5
43F
102
{ACAD_REACTORS
330
3ED
102
}
330
3ED
100
AcDbCellStyleMap
 90
        3
300
CELLSTYLE
  1
TABLEFORMAT_BEGIN
 90
        5
170
     1
 91
        0
 92
    32768
 62
   257
 93
        1
300
CONTENTFORMAT
  1
CONTENTFORMAT_BEGIN
 90
        0
 91
        0
 92
      512
 93
        0
300

 40
0.0
140
1.0
 94
        5
 62
     0
340
55
144
0.25
309
CONTENTFORMAT_END
171
     0
 94
        0
309
TABLEFORMAT_END
  1
CELLSTYLE_BEGIN
 90
        1
 91
        1
300
_TITLE
309
CELLSTYLE_END
300
CELLSTYLE
  1
TABLEFORMAT_BEGIN
 90
        5
170
     1
 91
        0
 92
        0
 62
   257
 93
        1
300
CONTENTFORMAT
  1
CONTENTFORMAT_BEGIN
 90
        0
 91
        0
 92
      512
 93
        0
300

 40
0.0
140
1.0
 94
        5
 62
     0
340
55
144
0.18
309
CONTENTFORMAT_END
171
     0
 94
        0
309
TABLEFORMAT_END
  1
CELLSTYLE_BEGIN
 90
        2
 91
        1
300
_HEADER
309
CELLSTYLE_END
300
CELLSTYLE
  1
TABLEFORMAT_BEGIN
 90
        5
170
     1
 91
        0
 92
        0
 62
   257
 93
        1
300
CONTENTFORMAT
  1
CONTENTFORMAT_BEGIN
 90
        0
 91
        0
 92
      512
 93
        0
300

 40
0.0
140
1.0
 94
        2
 62
     0
340
55
144
0.18
309
CONTENTFORMAT_END
171
     0
 94
        0
309
TABLEFORMAT_END
  1
CELLSTYLE_BEGIN
 90
        3
 91
        2
300
_DATA
309
CELLSTYLE_END
  0
XRECORD
  5
475
102
{ACAD_REACTORS
330
3ED
102
}
330
3ED
100
AcDbXrecord
280
     1
102
ACAD_ROUNDTRIP_PRE2007_TABLESTYLE
 90
      512
 91
        0
  1

 92
      512
 93
        0
  2

 94
      512
 95
        0
  3

  0
XRECORD
  5
450
102
{ACAD_REACTORS
330
44F
102
}
330
44F
100
AcDbXrecord
280
     1
102
RTVSPost2010Prop28
280
     1
102
RTVSPost2010PropOp28
 70
     1
102
RTVSPost2010Prop29
280
     1
102
RTVSPost2010PropOp29
 70
     1
102
RTVSPost2010Prop30
280
     0
102
RTVSPost2010PropOp30
 70
     1
102
RTVSPost2010Prop31
280
     0
102
RTVSPost2010PropOp31
 70
     1
102
RTVSPost2010Prop32
280
     0
102
RTVSPost2010PropOp32
 70
     1
102
RTVSPost2010Prop33
280
     0
102
RTVSPost2010PropOp33
 70
     1
102
RTVSPost2010Prop34
280
     0
102
RTVSPost2010PropOp34
 70
     1
102
RTVSPost2010Prop35
280
     0
102
RTVSPost2010PropOp35
 70
     1
102
RTVSPost2010Prop36
280
     0
102
RTVSPost2010PropOp36
 70
     1
102
RTVSPost2010Prop37
 90
       50
102
RTVSPost2010PropOp37
 70
     1
102
RTVSPost2010Prop38
140
0.0
102
RTVSPost2010PropOp38
 70
     1
102
RTVSPost2010Prop39
140
1.0
102
RTVSPost2010PropOp39
 70
     1
102
RTVSPost2010Prop40
 90
        0
102
RTVSPost2010PropOp40
 70
     1
102
RTVSPost2010Prop41ColorIndex
 90
       18
102
RTVSPost2010Prop41ColorRGB
 90
        0
102
RTVSPost2010PropOp41
 70
     1
102
RTVSPost2010Prop42
 90
       50
102
RTVSPost2010PropOp42
 70
     1
102
RTVSPost2010Prop43
 90
        3
102
RTVSPost2010PropOp43
 70
     1
102
RTVSPost2010Prop44ColorIndex
 90
        5
102
RTVSPost2010Prop44ColorRGB
 90
      255
102
RTVSPost2010PropOp44
 70
     1
102
RTVSPost2010Prop45
280
     0
102
RTVSPost2010PropOp45
 70
     1
102
RTVSPost2010Prop46
 90
       50
102
RTVSPost2010PropOp46
 70
     1
102
RTVSPost2010Prop47
 90
       50
102
RTVSPost2010PropOp47
 70
     1
102
RTVSPost2010Prop48
 90
       50
102
RTVSPost2010PropOp48
 70
     1
102
RTVSPost2010Prop49
280
     0
102
RTVSPost2010PropOp49
 70
     1
102
RTVSPost2010Prop50
 90
       50
102
RTVSPost2010PropOp50
 70
     1
102
RTVSPost2010Prop51ColorIndex
 90
      256
102
RTVSPost2010Prop51ColorRGB
 90
-16777216
102
RTVSPost2010PropOp51
 70
     0
102
RTVSPost2010Prop52
140
1.0
102
RTVSPost2010PropOp52
 70
     0
102
RTVSPost2010Prop53
 90
        2
102
RTVSPost2010PropOp53
 70
     1
102
RTVSPost2010Prop54
  1
strokes_ogs.tif
102
RTVSPost2010PropOp54
 70
     1
102
RTVSPost2010Prop55
280
     0
102
RTVSPost2010PropOp55
 70
     1
102
RTVSPost2010Prop56
140
1.0
102
RTVSPost2010PropOp56
 70
     1
102
RTVSPost2010Prop57
140
1.0
102
RTVSPost2010PropOp57
 70
     1
102
RTVSPropertyOp0
 70
     1
102
RTVSPropertyOp1
 70
     1
102
RTVSPropertyOp2
 70
     1
102
RTVSPropertyOp3
 70
     1
102
RTVSPropertyOp4
 70
     1
102
RTVSPropertyOp5
 70
     1
102
RTVSPropertyOp6
 70
     1
102
RTVSPropertyOp7
 70
     1
102
RTVSPropertyOp8
 70
     1
102
RTVSPropertyOp9
 70
     1
102
RTVSPropertyOp10
 70
     1
102
RTVSPropertyOp11
 70
     1
102
RTVSPropertyOp12
 70
     1
102
RTVSPropertyOp13
 70
     1
102
RTVSPropertyOp14
 70
     1
102
RTVSPropertyOp15
 70
     1
102
RTVSPropertyOp16
 70
     1
102
RTVSPropertyOp17
 70
     1
102
RTVSPropertyOp18
 70
     1
102
RTVSPropertyOp19
 70
     1
102
RTVSPropertyOp20
 70
     1
102
RTVSPropertyOp21
 70
     1
102
RTVSPropertyOp22
 70
     1
102
RTVSPropertyOp23
 70
     1
102
RTVSPropertyOp24
 70
     1
102
RTVSPropertyOp25
 70
     1
102
RTVSPropertyOp26
 70
     1
102
RTVSPropertyOp27
 70
     1
102
RTVSPropertyOp28
 70
     1
102
RTVSPropertyOp29
 70
     1
102
RTVSPropertyOp30
 70
     1
102
RTVSPropertyOp31
 70
     1
102
RTVSPropertyOp32
 70
     1
102
RTVSPropertyOp33
 70
     1
102
RTVSPropertyOp34
 70
     1
102
RTVSPropertyOp35
 70
     1
102
RTVSPropertyOp36
 70
     1
102
RTVSPropertyOp37
 70
     1
102
RTVSPropertyOp38
 70
     1
102
RTVSPropertyOp39
 70
     1
102
RTVSPropertyOp40
 70
     1
102
RTVSPropertyOp41
 70
     1
102
RTVSPropertyOp42
 70
     1
102
RTVSPropertyOp43
 70
     1
102
RTVSPropertyOp44
 70
     1
102
RTVSPropertyOp45
 70
     1
102
RTVSPropertyOp46
 70
     1
102
RTVSPropertyOp47
 70
     1
102
RTVSPropertyOp48
 70
     1
102
RTVSPropertyOp49
 70
     1
102
RTVSPropertyOp50
 70
     1
102
RTVSPropertyOp51
 70
     0
102
RTVSPropertyOp52
 70
     0
102
RTVSPropertyOp53
 70
     1
102
RTVSPropertyOp54
 70
     1
102
RTVSPropertyOp55
 70
     1
102
RTVSPropertyOp56
 70
     1
102
RTVSPropertyOp57
 70
     1
102
RTVSPropertyOp58
 70
     1
102
RTVSPropertyOp59
 70
     1
102
RTVSPropertyOp60
 70
     1
102
RTVSPropertyOp61
 70
     1
102
RTVSPropertyOp62
 70
     1
  0
XRECORD
  5
44E
102
{ACAD_REACTORS
330
44D
102
}
330
44D
100
AcDbXrecord
280
     1
102
RTVSPost2010Prop28
280
     0
102
RTVSPost2010PropOp28
 70
     1
102
RTVSPost2010Prop29
280
     1
102
RTVSPost2010PropOp29
 70
     1
102
RTVSPost2010Prop30
280
     1
102
RTVSPost2010PropOp30
 70
     1
102
RTVSPost2010Prop31
280
     0
102
RTVSPost2010PropOp31
 70
     1
102
RTVSPost2010Prop32
280
     0
102
RTVSPost2010PropOp32
 70
     1
102
RTVSPost2010Prop33
280
     0
102
RTVSPost2010PropOp33
 70
     1
102
RTVSPost2010Prop34
280
     0
102
RTVSPost2010PropOp34
 70
     1
102
RTVSPost2010Prop35
280
     0
102
RTVSPost2010PropOp35
 70
     1
102
RTVSPost2010Prop36
280
     0
102
RTVSPost2010PropOp36
 70
     1
102
RTVSPost2010Prop37
 90
       50
102
RTVSPost2010PropOp37
 70
     1
102
RTVSPost2010Prop38
140
0.0
102
RTVSPost2010PropOp38
 70
     1
102
RTVSPost2010Prop39
140
1.0
102
RTVSPost2010PropOp39
 70
     1
102
RTVSPost2010Prop40
 90
        0
102
RTVSPost2010PropOp40
 70
     1
102
RTVSPost2010Prop41ColorIndex
 90
       18
102
RTVSPost2010Prop41ColorRGB
 90
        0
102
RTVSPost2010PropOp41
 70
     1
102
RTVSPost2010Prop42
 90
       50
102
RTVSPost2010PropOp42
 70
     1
102
RTVSPost2010Prop43
 90
        3
102
RTVSPost2010PropOp43
 70
     1
102
RTVSPost2010Prop44ColorIndex
 90
        5
102
RTVSPost2010Prop44ColorRGB
 90
      255
102
RTVSPost2010PropOp44
 70
     1
102
RTVSPost2010Prop45
280
     0
102
RTVSPost2010PropOp45
 70
     1
102
RTVSPost2010Prop46
 90
       50
102
RTVSPost2010PropOp46
 70
     1
102
RTVSPost2010Prop47
 90
       50
102
RTVSPost2010PropOp47
 70
     1
102
RTVSPost2010Prop48
 90
       50
102
RTVSPost2010PropOp48
 70
     1
102
RTVSPost2010Prop49
280
     0
102
RTVSPost2010PropOp49
 70
     1
102
RTVSPost2010Prop50
 90
       50
102
RTVSPost2010PropOp50
 70
     1
102
RTVSPost2010Prop51ColorIndex
 90
      256
102
RTVSPost2010Prop51ColorRGB
 90
-16777216
102
RTVSPost2010PropOp51
 70
     0
102
RTVSPost2010Prop52
140
1.0
102
RTVSPost2010PropOp52
 70
     0
102
RTVSPost2010Prop53
 90
        2
102
RTVSPost2010PropOp53
 70
     1
102
RTVSPost2010Prop54
  1
strokes_ogs.tif
102
RTVSPost2010PropOp54
 70
     1
102
RTVSPost2010Prop55
280
     0
102
RTVSPost2010PropOp55
 70
     1
102
RTVSPost2010Prop56
140
1.0
102
RTVSPost2010PropOp56
 70
     1
102
RTVSPost2010Prop57
140
1.0
102
RTVSPost2010PropOp57
 70
     1
102
RTVSPropertyOp0
 70
     1
102
RTVSPropertyOp1
 70
     1
102
RTVSPropertyOp2
 70
     1
102
RTVSPropertyOp3
 70
     1
102
RTVSPropertyOp4
 70
     1
102
RTVSPropertyOp5
 70
     1
102
RTVSPropertyOp6
 70
     1
102
RTVSPropertyOp7
 70
     1
102
RTVSPropertyOp8
 70
     1
102
RTVSPropertyOp9
 70
     1
102
RTVSPropertyOp10
 70
     1
102
RTVSPropertyOp11
 70
     1
102
RTVSPropertyOp12
 70
     1
102
RTVSPropertyOp13
 70
     1
102
RTVSPropertyOp14
 70
     1
102
RTVSPropertyOp15
 70
     1
102
RTVSPropertyOp16
 70
     1
102
RTVSPropertyOp17
 70
     1
102
RTVSPropertyOp18
 70
     1
102
RTVSPropertyOp19
 70
     1
102
RTVSPropertyOp20
 70
     1
102
RTVSPropertyOp21
 70
     1
102
RTVSPropertyOp22
 70
     1
102
RTVSPropertyOp23
 70
     1
102
RTVSPropertyOp24
 70
     1
102
RTVSPropertyOp25
 70
     1
102
RTVSPropertyOp26
 70
     1
102
RTVSPropertyOp27
 70
     1
102
RTVSPropertyOp28
 70
     1
102
RTVSPropertyOp29
 70
     1
102
RTVSPropertyOp30
 70
     1
102
RTVSPropertyOp31
 70
     1
102
RTVSPropertyOp32
 70
     1
102
RTVSPropertyOp33
 70
     1
102
RTVSPropertyOp34
 70
     1
102
RTVSPropertyOp35
 70
     1
102
RTVSPropertyOp36
 70
     1
102
RTVSPropertyOp37
 70
     1
102
RTVSPropertyOp38
 70
     1
102
RTVSPropertyOp39
 70
     1
102
RTVSPropertyOp40
 70
     1
102
RTVSPropertyOp41
 70
     1
102
RTVSPropertyOp42
 70
     1
102
RTVSPropertyOp43
 70
     1
102
RTVSPropertyOp44
 70
     1
102
RTVSPropertyOp45
 70
     1
102
RTVSPropertyOp46
 70
     1
102
RTVSPropertyOp47
 70
     1
102
RTVSPropertyOp48
 70
     1
102
RTVSPropertyOp49
 70
     1
102
RTVSPropertyOp50
 70
     1
102
RTVSPropertyOp51
 70
     0
102
RTVSPropertyOp52
 70
     0
102
RTVSPropertyOp53
 70
     1
102
RTVSPropertyOp54
 70
     1
102
RTVSPropertyOp55
 70
     1
102
RTVSPropertyOp56
 70
     1
102
RTVSPropertyOp57
 70
     1
102
RTVSPropertyOp58
 70
     1
102
RTVSPropertyOp59
 70
     1
102
RTVSPropertyOp60
 70
     1
102
RTVSPropertyOp61
 70
     1
102
RTVSPropertyOp62
 70
     1
  0
XRECORD
  5
45C
102
{ACAD_REACTORS
330
45B
102
}
330
45B
100
AcDbXrecord
280
     1
102
RTVSPost2010Prop28
280
     0
102
RTVSPost2010PropOp28
 70
     1
102
RTVSPost2010Prop29
280
     1
102
RTVSPost2010PropOp29
 70
     1
102
RTVSPost2010Prop30
280
     1
102
RTVSPost2010PropOp30
 70
     1
102
RTVSPost2010Prop31
280
     0
102
RTVSPost2010PropOp31
 70
     1
102
RTVSPost2010Prop32
280
     0
102
RTVSPost2010PropOp32
 70
     1
102
RTVSPost2010Prop33
280
     0
102
RTVSPost2010PropOp33
 70
     1
102
RTVSPost2010Prop34
280
     0
102
RTVSPost2010PropOp34
 70
     1
102
RTVSPost2010Prop35
280
     0
102
RTVSPost2010PropOp35
 70
     1
102
RTVSPost2010Prop36
280
     0
102
RTVSPost2010PropOp36
 70
     1
102
RTVSPost2010Prop37
 90
       50
102
RTVSPost2010PropOp37
 70
     1
102
RTVSPost2010Prop38
140
0.0
102
RTVSPost2010PropOp38
 70
     1
102
RTVSPost2010Prop39
140
1.0
102
RTVSPost2010PropOp39
 70
     1
102
RTVSPost2010Prop40
 90
        0
102
RTVSPost2010PropOp40
 70
     1
102
RTVSPost2010Prop41ColorIndex
 90
       18
102
RTVSPost2010Prop41ColorRGB
 90
        0
102
RTVSPost2010PropOp41
 70
     1
102
RTVSPost2010Prop42
 90
       50
102
RTVSPost2010PropOp42
 70
     1
102
RTVSPost2010Prop43
 90
        3
102
RTVSPost2010PropOp43
 70
     1
102
RTVSPost2010Prop44ColorIndex
 90
        5
102
RTVSPost2010Prop44ColorRGB
 90
      255
102
RTVSPost2010PropOp44
 70
     1
102
RTVSPost2010Prop45
280
     0
102
RTVSPost2010PropOp45
 70
     1
102
RTVSPost2010Prop46
 90
       50
102
RTVSPost2010PropOp46
 70
     1
102
RTVSPost2010Prop47
 90
       50
102
RTVSPost2010PropOp47
 70
     1
102
RTVSPost2010Prop48
 90
       50
102
RTVSPost2010PropOp48
 70
     1
102
RTVSPost2010Prop49
280
     0
102
RTVSPost2010PropOp49
 70
     1
102
RTVSPost2010Prop50
 90
       50
102
RTVSPost2010PropOp50
 70
     1
102
RTVSPost2010Prop51ColorIndex
 90
      256
102
RTVSPost2010Prop51ColorRGB
 90
-16777216
102
RTVSPost2010PropOp51
 70
     0
102
RTVSPost2010Prop52
140
1.0
102
RTVSPost2010PropOp52
 70
     0
102
RTVSPost2010Prop53
 90
        2
102
RTVSPost2010PropOp53
 70
     1
102
RTVSPost2010Prop54
  1
strokes_ogs.tif
102
RTVSPost2010PropOp54
 70
     1
102
RTVSPost2010Prop55
280
     0
102
RTVSPost2010PropOp55
 70
     1
102
RTVSPost2010Prop56
140
1.0
102
RTVSPost2010PropOp56
 70
     1
102
RTVSPost2010Prop57
140
1.0
102
RTVSPost2010PropOp57
 70
     1
102
RTVSPropertyOp0
 70
     1
102
RTVSPropertyOp1
 70
     1
102
RTVSPropertyOp2
 70
     1
102
RTVSPropertyOp3
 70
     1
102
RTVSPropertyOp4
 70
     1
102
RTVSPropertyOp5
 70
     1
102
RTVSPropertyOp6
 70
     1
102
RTVSPropertyOp7
 70
     1
102
RTVSPropertyOp8
 70
     1
102
RTVSPropertyOp9
 70
     1
102
RTVSPropertyOp10
 70
     1
102
RTVSPropertyOp11
 70
     1
102
RTVSPropertyOp12
 70
     1
102
RTVSPropertyOp13
 70
     1
102
RTVSPropertyOp14
 70
     1
102
RTVSPropertyOp15
 70
     1
102
RTVSPropertyOp16
 70
     1
102
RTVSPropertyOp17
 70
     1
102
RTVSPropertyOp18
 70
     1
102
RTVSPropertyOp19
 70
     1
102
RTVSPropertyOp20
 70
     1
102
RTVSPropertyOp21
 70
     1
102
RTVSPropertyOp22
 70
     1
102
RTVSPropertyOp23
 70
     1
102
RTVSPropertyOp24
 70
     1
102
RTVSPropertyOp25
 70
     1
102
RTVSPropertyOp26
 70
     1
102
RTVSPropertyOp27
 70
     1
102
RTVSPropertyOp28
 70
     1
102
RTVSPropertyOp29
 70
     1
102
RTVSPropertyOp30
 70
     1
102
RTVSPropertyOp31
 70
     1
102
RTVSPropertyOp32
 70
     1
102
RTVSPropertyOp33
 70
     1
102
RTVSPropertyOp34
 70
     1
102
RTVSPropertyOp35
 70
     1
102
RTVSPropertyOp36
 70
     1
102
RTVSPropertyOp37
 70
     1
102
RTVSPropertyOp38
 70
     1
102
RTVSPropertyOp39
 70
     1
102
RTVSPropertyOp40
 70
     1
102
RTVSPropertyOp41
 70
     1
102
RTVSPropertyOp42
 70
     1
102
RTVSPropertyOp43
 70
     1
102
RTVSPropertyOp44
 70
     1
102
RTVSPropertyOp45
 70
     1
102
RTVSPropertyOp46
 70
     1
102
RTVSPropertyOp47
 70
     1
102
RTVSPropertyOp48
 70
     1
102
RTVSPropertyOp49
 70
     1
102
RTVSPropertyOp50
 70
     1
102
RTVSPropertyOp51
 70
     0
102
RTVSPropertyOp52
 70
     0
102
RTVSPropertyOp53
 70
     1
102
RTVSPropertyOp54
 70
     1
102
RTVSPropertyOp55
 70
     1
102
RTVSPropertyOp56
 70
     1
102
RTVSPropertyOp57
 70
     1
102
RTVSPropertyOp58
 70
     1
102
RTVSPropertyOp59
 70
     1
102
RTVSPropertyOp60
 70
     1
102
RTVSPropertyOp61
 70
     1
102
RTVSPropertyOp62
 70
     1
  0
XRECORD
  5
464
102
{ACAD_REACTORS
330
463
102
}
330
463
100
AcDbXrecord
280
     1
102
RTVSPost2010Prop28
280
     0
102
RTVSPost2010PropOp28
 70
     1
102
RTVSPost2010Prop29
280
     1
102
RTVSPost2010PropOp29
 70
     1
102
RTVSPost2010Prop30
280
     1
102
RTVSPost2010PropOp30
 70
     1
102
RTVSPost2010Prop31
280
     0
102
RTVSPost2010PropOp31
 70
     1
102
RTVSPost2010Prop32
280
     0
102
RTVSPost2010PropOp32
 70
     1
102
RTVSPost2010Prop33
280
     0
102
RTVSPost2010PropOp33
 70
     1
102
RTVSPost2010Prop34
280
     0
102
RTVSPost2010PropOp34
 70
     1
102
RTVSPost2010Prop35
280
     0
102
RTVSPost2010PropOp35
 70
     1
102
RTVSPost2010Prop36
280
     0
102
RTVSPost2010PropOp36
 70
     1
102
RTVSPost2010Prop37
 90
       50
102
RTVSPost2010PropOp37
 70
     1
102
RTVSPost2010Prop38
140
0.0
102
RTVSPost2010PropOp38
 70
     1
102
RTVSPost2010Prop39
140
1.0
102
RTVSPost2010PropOp39
 70
     1
102
RTVSPost2010Prop40
 90
        0
102
RTVSPost2010PropOp40
 70
     1
102
RTVSPost2010Prop41ColorIndex
 90
       18
102
RTVSPost2010Prop41ColorRGB
 90
        0
102
RTVSPost2010PropOp41
 70
     1
102
RTVSPost2010Prop42
 90
       50
102
RTVSPost2010PropOp42
 70
     1
102
RTVSPost2010Prop43
 90
        3
102
RTVSPost2010PropOp43
 70
     1
102
RTVSPost2010Prop44ColorIndex
 90
        5
102
RTVSPost2010Prop44ColorRGB
 90
      255
102
RTVSPost2010PropOp44
 70
     1
102
RTVSPost2010Prop45
280
     0
102
RTVSPost2010PropOp45
 70
     1
102
RTVSPost2010Prop46
 90
       50
102
RTVSPost2010PropOp46
 70
     1
102
RTVSPost2010Prop47
 90
       50
102
RTVSPost2010PropOp47
 70
     1
102
RTVSPost2010Prop48
 90
       50
102
RTVSPost2010PropOp48
 70
     1
102
RTVSPost2010Prop49
280
     0
102
RTVSPost2010PropOp49
 70
     1
102
RTVSPost2010Prop50
 90
       50
102
RTVSPost2010PropOp50
 70
     1
102
RTVSPost2010Prop51ColorIndex
 90
      256
102
RTVSPost2010Prop51ColorRGB
 90
-16777216
102
RTVSPost2010PropOp51
 70
     0
102
RTVSPost2010Prop52
140
1.0
102
RTVSPost2010PropOp52
 70
     0
102
RTVSPost2010Prop53
 90
        2
102
RTVSPost2010PropOp53
 70
     1
102
RTVSPost2010Prop54
  1
strokes_ogs.tif
102
RTVSPost2010PropOp54
 70
     1
102
RTVSPost2010Prop55
280
     0
102
RTVSPost2010PropOp55
 70
     1
102
RTVSPost2010Prop56
140
1.0
102
RTVSPost2010PropOp56
 70
     1
102
RTVSPost2010Prop57
140
1.0
102
RTVSPost2010PropOp57
 70
     1
102
RTVSPropertyOp0
 70
     1
102
RTVSPropertyOp1
 70
     1
102
RTVSPropertyOp2
 70
     1
102
RTVSPropertyOp3
 70
     1
102
RTVSPropertyOp4
 70
     1
102
RTVSPropertyOp5
 70
     1
102
RTVSPropertyOp6
 70
     1
102
RTVSPropertyOp7
 70
     1
102
RTVSPropertyOp8
 70
     1
102
RTVSPropertyOp9
 70
     1
102
RTVSPropertyOp10
 70
     1
102
RTVSPropertyOp11
 70
     1
102
RTVSPropertyOp12
 70
     1
102
RTVSPropertyOp13
 70
     1
102
RTVSPropertyOp14
 70
     1
102
RTVSPropertyOp15
 70
     1
102
RTVSPropertyOp16
 70
     1
102
RTVSPropertyOp17
 70
     1
102
RTVSPropertyOp18
 70
     1
102
RTVSPropertyOp19
 70
     1
102
RTVSPropertyOp20
 70
     1
102
RTVSPropertyOp21
 70
     1
102
RTVSPropertyOp22
 70
     1
102
RTVSPropertyOp23
 70
     1
102
RTVSPropertyOp24
 70
     1
102
RTVSPropertyOp25
 70
     1
102
RTVSPropertyOp26
 70
     1
102
RTVSPropertyOp27
 70
     1
102
RTVSPropertyOp28
 70
     1
102
RTVSPropertyOp29
 70
     1
102
RTVSPropertyOp30
 70
     1
102
RTVSPropertyOp31
 70
     1
102
RTVSPropertyOp32
 70
     1
102
RTVSPropertyOp33
 70
     1
102
RTVSPropertyOp34
 70
     1
102
RTVSPropertyOp35
 70
     1
102
RTVSPropertyOp36
 70
     1
102
RTVSPropertyOp37
 70
     1
102
RTVSPropertyOp38
 70
     1
102
RTVSPropertyOp39
 70
     1
102
RTVSPropertyOp40
 70
     1
102
RTVSPropertyOp41
 70
     1
102
RTVSPropertyOp42
 70
     1
102
RTVSPropertyOp43
 70
     1
102
RTVSPropertyOp44
 70
     1
102
RTVSPropertyOp45
 70
     1
102
RTVSPropertyOp46
 70
     1
102
RTVSPropertyOp47
 70
     1
102
RTVSPropertyOp48
 70
     1
102
RTVSPropertyOp49
 70
     1
102
RTVSPropertyOp50
 70
     1
102
RTVSPropertyOp51
 70
     0
102
RTVSPropertyOp52
 70
     0
102
RTVSPropertyOp53
 70
     1
102
RTVSPropertyOp54
 70
     1
102
RTVSPropertyOp55
 70
     1
102
RTVSPropertyOp56
 70
     1
102
RTVSPropertyOp57
 70
     1
102
RTVSPropertyOp58
 70
     1
102
RTVSPropertyOp59
 70
     1
102
RTVSPropertyOp60
 70
     1
102
RTVSPropertyOp61
 70
     1
102
RTVSPropertyOp62
 70
     1
  0
XRECORD
  5
456
102
{ACAD_REACTORS
330
455
102
}
330
455
100
AcDbXrecord
280
     1
102
RTVSPost2010Prop28
280
     0
102
RTVSPost2010PropOp28
 70
     1
102
RTVSPost2010Prop29
280
     1
102
RTVSPost2010PropOp29
 70
     1
102
RTVSPost2010Prop30
280
     1
102
RTVSPost2010PropOp30
 70
     1
102
RTVSPost2010Prop31
280
     0
102
RTVSPost2010PropOp31
 70
     1
102
RTVSPost2010Prop32
280
     0
102
RTVSPost2010PropOp32
 70
     1
102
RTVSPost2010Prop33
280
     0
102
RTVSPost2010PropOp33
 70
     1
102
RTVSPost2010Prop34
280
     0
102
RTVSPost2010PropOp34
 70
     1
102
RTVSPost2010Prop35
280
     0
102
RTVSPost2010PropOp35
 70
     1
102
RTVSPost2010Prop36
280
     0
102
RTVSPost2010PropOp36
 70
     1
102
RTVSPost2010Prop37
 90
       50
102
RTVSPost2010PropOp37
 70
     1
102
RTVSPost2010Prop38
140
0.0
102
RTVSPost2010PropOp38
 70
     1
102
RTVSPost2010Prop39
140
1.0
102
RTVSPost2010PropOp39
 70
     1
102
RTVSPost2010Prop40
 90
        0
102
RTVSPost2010PropOp40
 70
     1
102
RTVSPost2010Prop41ColorIndex
 90
       18
102
RTVSPost2010Prop41ColorRGB
 90
        0
102
RTVSPost2010PropOp41
 70
     1
102
RTVSPost2010Prop42
 90
       50
102
RTVSPost2010PropOp42
 70
     1
102
RTVSPost2010Prop43
 90
        3
102
RTVSPost2010PropOp43
 70
     1
102
RTVSPost2010Prop44ColorIndex
 90
        5
102
RTVSPost2010Prop44ColorRGB
 90
      255
102
RTVSPost2010PropOp44
 70
     1
102
RTVSPost2010Prop45
280
     0
102
RTVSPost2010PropOp45
 70
     1
102
RTVSPost2010Prop46
 90
       50
102
RTVSPost2010PropOp46
 70
     1
102
RTVSPost2010Prop47
 90
       50
102
RTVSPost2010PropOp47
 70
     1
102
RTVSPost2010Prop48
 90
       50
102
RTVSPost2010PropOp48
 70
     1
102
RTVSPost2010Prop49
280
     0
102
RTVSPost2010PropOp49
 70
     1
102
RTVSPost2010Prop50
 90
       50
102
RTVSPost2010PropOp50
 70
     1
102
RTVSPost2010Prop51ColorIndex
 90
      256
102
RTVSPost2010Prop51ColorRGB
 90
-16777216
102
RTVSPost2010PropOp51
 70
     0
102
RTVSPost2010Prop52
140
1.0
102
RTVSPost2010PropOp52
 70
     0
102
RTVSPost2010Prop53
 90
        2
102
RTVSPost2010PropOp53
 70
     1
102
RTVSPost2010Prop54
  1
strokes_ogs.tif
102
RTVSPost2010PropOp54
 70
     1
102
RTVSPost2010Prop55
280
     0
102
RTVSPost2010PropOp55
 70
     1
102
RTVSPost2010Prop56
140
1.0
102
RTVSPost2010PropOp56
 70
     1
102
RTVSPost2010Prop57
140
1.0
102
RTVSPost2010PropOp57
 70
     1
102
RTVSPropertyOp0
 70
     1
102
RTVSPropertyOp1
 70
     1
102
RTVSPropertyOp2
 70
     1
102
RTVSPropertyOp3
 70
     1
102
RTVSPropertyOp4
 70
     1
102
RTVSPropertyOp5
 70
     1
102
RTVSPropertyOp6
 70
     1
102
RTVSPropertyOp7
 70
     1
102
RTVSPropertyOp8
 70
     1
102
RTVSPropertyOp9
 70
     1
102
RTVSPropertyOp10
 70
     1
102
RTVSPropertyOp11
 70
     1
102
RTVSPropertyOp12
 70
     1
102
RTVSPropertyOp13
 70
     1
102
RTVSPropertyOp14
 70
     1
102
RTVSPropertyOp15
 70
     1
102
RTVSPropertyOp16
 70
     1
102
RTVSPropertyOp17
 70
     1
102
RTVSPropertyOp18
 70
     1
102
RTVSPropertyOp19
 70
     1
102
RTVSPropertyOp20
 70
     1
102
RTVSPropertyOp21
 70
     1
102
RTVSPropertyOp22
 70
     1
102
RTVSPropertyOp23
 70
     1
102
RTVSPropertyOp24
 70
     1
102
RTVSPropertyOp25
 70
     1
102
RTVSPropertyOp26
 70
     1
102
RTVSPropertyOp27
 70
     1
102
RTVSPropertyOp28
 70
     1
102
RTVSPropertyOp29
 70
     1
102
RTVSPropertyOp30
 70
     1
102
RTVSPropertyOp31
 70
     1
102
RTVSPropertyOp32
 70
     1
102
RTVSPropertyOp33
 70
     1
102
RTVSPropertyOp34
 70
     1
102
RTVSPropertyOp35
 70
     1
102
RTVSPropertyOp36
 70
     1
102
RTVSPropertyOp37
 70
     1
102
RTVSPropertyOp38
 70
     1
102
RTVSPropertyOp39
 70
     1
102
RTVSPropertyOp40
 70
     1
102
RTVSPropertyOp41
 70
     1
102
RTVSPropertyOp42
 70
     1
102
RTVSPropertyOp43
 70
     1
102
RTVSPropertyOp44
 70
     1
102
RTVSPropertyOp45
 70
     1
102
RTVSPropertyOp46
 70
     1
102
RTVSPropertyOp47
 70
     1
102
RTVSPropertyOp48
 70
     1
102
RTVSPropertyOp49
 70
     1
102
RTVSPropertyOp50
 70
     1
102
RTVSPropertyOp51
 70
     0
102
RTVSPropertyOp52
 70
     0
102
RTVSPropertyOp53
 70
     1
102
RTVSPropertyOp54
 70
     1
102
RTVSPropertyOp55
 70
     1
102
RTVSPropertyOp56
 70
     1
102
RTVSPropertyOp57
 70
     1
102
RTVSPropertyOp58
 70
     1
102
RTVSPropertyOp59
 70
     1
102
RTVSPropertyOp60
 70
     1
102
RTVSPropertyOp61
 70
     1
102
RTVSPropertyOp62
 70
     1
  0
XRECORD
  5
45A
102
{ACAD_REACTORS
330
459
102
}
330
459
100
AcDbXrecord
280
     1
102
RTVSPost2010Prop28
280
     0
102
RTVSPost2010PropOp28
 70
     1
102
RTVSPost2010Prop29
280
     1
102
RTVSPost2010PropOp29
 70
     1
102
RTVSPost2010Prop30
280
     1
102
RTVSPost2010PropOp30
 70
     1
102
RTVSPost2010Prop31
280
     0
102
RTVSPost2010PropOp31
 70
     1
102
RTVSPost2010Prop32
280
     0
102
RTVSPost2010PropOp32
 70
     1
102
RTVSPost2010Prop33
280
     0
102
RTVSPost2010PropOp33
 70
     1
102
RTVSPost2010Prop34
280
     0
102
RTVSPost2010PropOp34
 70
     1
102
RTVSPost2010Prop35
280
     0
102
RTVSPost2010PropOp35
 70
     1
102
RTVSPost2010Prop36
280
     0
102
RTVSPost2010PropOp36
 70
     1
102
RTVSPost2010Prop37
 90
       50
102
RTVSPost2010PropOp37
 70
     1
102
RTVSPost2010Prop38
140
0.0
102
RTVSPost2010PropOp38
 70
     1
102
RTVSPost2010Prop39
140
1.0
102
RTVSPost2010PropOp39
 70
     1
102
RTVSPost2010Prop40
 90
        0
102
RTVSPost2010PropOp40
 70
     1
102
RTVSPost2010Prop41ColorIndex
 90
       18
102
RTVSPost2010Prop41ColorRGB
 90
        0
102
RTVSPost2010PropOp41
 70
     1
102
RTVSPost2010Prop42
 90
       50
102
RTVSPost2010PropOp42
 70
     1
102
RTVSPost2010Prop43
 90
        3
102
RTVSPost2010PropOp43
 70
     1
102
RTVSPost2010Prop44ColorIndex
 90
        5
102
RTVSPost2010Prop44ColorRGB
 90
      255
102
RTVSPost2010PropOp44
 70
     1
102
RTVSPost2010Prop45
280
     0
102
RTVSPost2010PropOp45
 70
     1
102
RTVSPost2010Prop46
 90
       50
102
RTVSPost2010PropOp46
 70
     1
102
RTVSPost2010Prop47
 90
       50
102
RTVSPost2010PropOp47
 70
     1
102
RTVSPost2010Prop48
 90
       50
102
RTVSPost2010PropOp48
 70
     1
102
RTVSPost2010Prop49
280
     0
102
RTVSPost2010PropOp49
 70
     1
102
RTVSPost2010Prop50
 90
       50
102
RTVSPost2010PropOp50
 70
     1
102
RTVSPost2010Prop51ColorIndex
 90
      256
102
RTVSPost2010Prop51ColorRGB
 90
-16777216
102
RTVSPost2010PropOp51
 70
     0
102
RTVSPost2010Prop52
140
1.0
102
RTVSPost2010PropOp52
 70
     0
102
RTVSPost2010Prop53
 90
        2
102
RTVSPost2010PropOp53
 70
     1
102
RTVSPost2010Prop54
  1
strokes_ogs.tif
102
RTVSPost2010PropOp54
 70
     1
102
RTVSPost2010Prop55
280
     0
102
RTVSPost2010PropOp55
 70
     1
102
RTVSPost2010Prop56
140
1.0
102
RTVSPost2010PropOp56
 70
     1
102
RTVSPost2010Prop57
140
1.0
102
RTVSPost2010PropOp57
 70
     1
102
RTVSPropertyOp0
 70
     1
102
RTVSPropertyOp1
 70
     1
102
RTVSPropertyOp2
 70
     1
102
RTVSPropertyOp3
 70
     1
102
RTVSPropertyOp4
 70
     1
102
RTVSPropertyOp5
 70
     1
102
RTVSPropertyOp6
 70
     1
102
RTVSPropertyOp7
 70
     1
102
RTVSPropertyOp8
 70
     1
102
RTVSPropertyOp9
 70
     1
102
RTVSPropertyOp10
 70
     1
102
RTVSPropertyOp11
 70
     1
102
RTVSPropertyOp12
 70
     1
102
RTVSPropertyOp13
 70
     1
102
RTVSPropertyOp14
 70
     1
102
RTVSPropertyOp15
 70
     1
102
RTVSPropertyOp16
 70
     1
102
RTVSPropertyOp17
 70
     1
102
RTVSPropertyOp18
 70
     1
102
RTVSPropertyOp19
 70
     1
102
RTVSPropertyOp20
 70
     1
102
RTVSPropertyOp21
 70
     1
102
RTVSPropertyOp22
 70
     1
102
RTVSPropertyOp23
 70
     1
102
RTVSPropertyOp24
 70
     1
102
RTVSPropertyOp25
 70
     1
102
RTVSPropertyOp26
 70
     1
102
RTVSPropertyOp27
 70
     1
102
RTVSPropertyOp28
 70
     1
102
RTVSPropertyOp29
 70
     1
102
RTVSPropertyOp30
 70
     1
102
RTVSPropertyOp31
 70
     1
102
RTVSPropertyOp32
 70
     1
102
RTVSPropertyOp33
 70
     1
102
RTVSPropertyOp34
 70
     1
102
RTVSPropertyOp35
 70
     1
102
RTVSPropertyOp36
 70
     1
102
RTVSPropertyOp37
 70
     1
102
RTVSPropertyOp38
 70
     1
102
RTVSPropertyOp39
 70
     1
102
RTVSPropertyOp40
 70
     1
102
RTVSPropertyOp41
 70
     1
102
RTVSPropertyOp42
 70
     1
102
RTVSPropertyOp43
 70
     1
102
RTVSPropertyOp44
 70
     1
102
RTVSPropertyOp45
 70
     1
102
RTVSPropertyOp46
 70
     1
102
RTVSPropertyOp47
 70
     1
102
RTVSPropertyOp48
 70
     1
102
RTVSPropertyOp49
 70
     1
102
RTVSPropertyOp50
 70
     1
102
RTVSPropertyOp51
 70
     0
102
RTVSPropertyOp52
 70
     0
102
RTVSPropertyOp53
 70
     1
102
RTVSPropertyOp54
 70
     1
102
RTVSPropertyOp55
 70
     1
102
RTVSPropertyOp56
 70
     1
102
RTVSPropertyOp57
 70
     1
102
RTVSPropertyOp58
 70
     1
102
RTVSPropertyOp59
 70
     1
102
RTVSPropertyOp60
 70
     1
102
RTVSPropertyOp61
 70
     1
102
RTVSPropertyOp62
 70
     1
  0
XRECORD
  5
474
102
{ACAD_REACTORS
330
473
102
}
330
473
100
AcDbXrecord
280
     1
102
RTVSPost2010Prop28
280
     0
102
RTVSPost2010PropOp28
 70
     1
102
RTVSPost2010Prop29
280
     1
102
RTVSPost2010PropOp29
 70
     1
102
RTVSPost2010Prop30
280
     1
102
RTVSPost2010PropOp30
 70
     1
102
RTVSPost2010Prop31
280
     0
102
RTVSPost2010PropOp31
 70
     1
102
RTVSPost2010Prop32
280
     0
102
RTVSPost2010PropOp32
 70
     1
102
RTVSPost2010Prop33
280
     0
102
RTVSPost2010PropOp33
 70
     1
102
RTVSPost2010Prop34
280
     0
102
RTVSPost2010PropOp34
 70
     1
102
RTVSPost2010Prop35
280
     0
102
RTVSPost2010PropOp35
 70
     1
102
RTVSPost2010Prop36
280
     0
102
RTVSPost2010PropOp36
 70
     1
102
RTVSPost2010Prop37
 90
       50
102
RTVSPost2010PropOp37
 70
     0
102
RTVSPost2010Prop38
140
0.0
102
RTVSPost2010PropOp38
 70
     0
102
RTVSPost2010Prop39
140
1.0
102
RTVSPost2010PropOp39
 70
     0
102
RTVSPost2010Prop40
 90
        0
102
RTVSPost2010PropOp40
 70
     0
102
RTVSPost2010Prop41ColorIndex
 90
       18
102
RTVSPost2010Prop41ColorRGB
 90
        0
102
RTVSPost2010PropOp41
 70
     0
102
RTVSPost2010Prop42
 90
       50
102
RTVSPost2010PropOp42
 70
     0
102
RTVSPost2010Prop43
 90
        3
102
RTVSPost2010PropOp43
 70
     0
102
RTVSPost2010Prop44ColorIndex
 90
        5
102
RTVSPost2010Prop44ColorRGB
 90
      255
102
RTVSPost2010PropOp44
 70
     0
102
RTVSPost2010Prop45
280
     0
102
RTVSPost2010PropOp45
 70
     1
102
RTVSPost2010Prop46
 90
       50
102
RTVSPost2010PropOp46
 70
     0
102
RTVSPost2010Prop47
 90
       50
102
RTVSPost2010PropOp47
 70
     0
102
RTVSPost2010Prop48
 90
       50
102
RTVSPost2010PropOp48
 70
     0
102
RTVSPost2010Prop49
280
     0
102
RTVSPost2010PropOp49
 70
     1
102
RTVSPost2010Prop50
 90
       50
102
RTVSPost2010PropOp50
 70
     0
102
RTVSPost2010Prop51ColorIndex
 90
      256
102
RTVSPost2010Prop51ColorRGB
 90
-16777216
102
RTVSPost2010PropOp51
 70
     0
102
RTVSPost2010Prop52
140
1.0
102
RTVSPost2010PropOp52
 70
     0
102
RTVSPost2010Prop53
 90
        2
102
RTVSPost2010PropOp53
 70
     0
102
RTVSPost2010Prop54
  1
strokes_ogs.tif
102
RTVSPost2010PropOp54
 70
     0
102
RTVSPost2010Prop55
280
     0
102
RTVSPost2010PropOp55
 70
     1
102
RTVSPost2010Prop56
140
1.0
102
RTVSPost2010PropOp56
 70
     0
102
RTVSPost2010Prop57
140
1.0
102
RTVSPost2010PropOp57
 70
     0
102
RTVSPropertyOp0
 70
     0
102
RTVSPropertyOp1
 70
     0
102
RTVSPropertyOp2
 70
     0
102
RTVSPropertyOp3
 70
     0
102
RTVSPropertyOp4
 70
     0
102
RTVSPropertyOp5
 70
     0
102
RTVSPropertyOp6
 70
     0
102
RTVSPropertyOp7
 70
     0
102
RTVSPropertyOp8
 70
     0
102
RTVSPropertyOp9
 70
     0
102
RTVSPropertyOp10
 70
     0
102
RTVSPropertyOp11
 70
     0
102
RTVSPropertyOp12
 70
     0
102
RTVSPropertyOp13
 70
     0
102
RTVSPropertyOp14
 70
     2
102
RTVSPropertyOp15
 70
     0
102
RTVSPropertyOp16
 70
     0
102
RTVSPropertyOp17
 70
     0
102
RTVSPropertyOp18
 70
     0
102
RTVSPropertyOp19
 70
     0
102
RTVSPropertyOp20
 70
     0
102
RTVSPropertyOp21
 70
     0
102
RTVSPropertyOp22
 70
     0
102
RTVSPropertyOp23
 70
     0
102
RTVSPropertyOp24
 70
     0
102
RTVSPropertyOp25
 70
     0
102
RTVSPropertyOp26
 70
     0
102
RTVSPropertyOp27
 70
     0
102
RTVSPropertyOp28
 70
     1
102
RTVSPropertyOp29
 70
     1
102
RTVSPropertyOp30
 70
     1
102
RTVSPropertyOp31
 70
     1
102
RTVSPropertyOp32
 70
     1
102
RTVSPropertyOp33
 70
     1
102
RTVSPropertyOp34
 70
     1
102
RTVSPropertyOp35
 70
     1
102
RTVSPropertyOp36
 70
     1
102
RTVSPropertyOp37
 70
     0
102
RTVSPropertyOp38
 70
     0
102
RTVSPropertyOp39
 70
     0
102
RTVSPropertyOp40
 70
     0
102
RTVSPropertyOp41
 70
     0
102
RTVSPropertyOp42
 70
     0
102
RTVSPropertyOp43
 70
     0
102
RTVSPropertyOp44
 70
     0
102
RTVSPropertyOp45
 70
     1
102
RTVSPropertyOp46
 70
     0
102
RTVSPropertyOp47
 70
     0
102
RTVSPropertyOp48
 70
     0
102
RTVSPropertyOp49
 70
     1
102
RTVSPropertyOp50
 70
     0
102
RTVSPropertyOp51
 70
     0
102
RTVSPropertyOp52
 70
     0
102
RTVSPropertyOp53
 70
     0
102
RTVSPropertyOp54
 70
     0
102
RTVSPropertyOp55
 70
     1
102
RTVSPropertyOp56
 70
     0
102
RTVSPropertyOp57
 70
     0
102
RTVSPropertyOp58
 70
     0
102
RTVSPropertyOp59
 70
     0
102
RTVSPropertyOp60
 70
     0
102
RTVSPropertyOp61
 70
     0
102
RTVSPropertyOp62
 70
     0
  0
XRECORD
  5
462
102
{ACAD_REACTORS
330
461
102
}
330
461
100
AcDbXrecord
280
     1
102
RTVSPost2010Prop28
280
     0
102
RTVSPost2010PropOp28
 70
     1
102
RTVSPost2010Prop29
280
     1
102
RTVSPost2010PropOp29
 70
     1
102
RTVSPost2010Prop30
280
     1
102
RTVSPost2010PropOp30
 70
     1
102
RTVSPost2010Prop31
280
     0
102
RTVSPost2010PropOp31
 70
     1
102
RTVSPost2010Prop32
280
     0
102
RTVSPost2010PropOp32
 70
     1
102
RTVSPost2010Prop33
280
     0
102
RTVSPost2010PropOp33
 70
     1
102
RTVSPost2010Prop34
280
     0
102
RTVSPost2010PropOp34
 70
     1
102
RTVSPost2010Prop35
280
     0
102
RTVSPost2010PropOp35
 70
     1
102
RTVSPost2010Prop36
280
     0
102
RTVSPost2010PropOp36
 70
     1
102
RTVSPost2010Prop37
 90
       50
102
RTVSPost2010PropOp37
 70
     1
102
RTVSPost2010Prop38
140
0.0
102
RTVSPost2010PropOp38
 70
     1
102
RTVSPost2010Prop39
140
1.0
102
RTVSPost2010PropOp39
 70
     1
102
RTVSPost2010Prop40
 90
        0
102
RTVSPost2010PropOp40
 70
     1
102
RTVSPost2010Prop41ColorIndex
 90
       18
102
RTVSPost2010Prop41ColorRGB
 90
        0
102
RTVSPost2010PropOp41
 70
     1
102
RTVSPost2010Prop42
 90
       50
102
RTVSPost2010PropOp42
 70
     1
102
RTVSPost2010Prop43
 90
        3
102
RTVSPost2010PropOp43
 70
     1
102
RTVSPost2010Prop44ColorIndex
 90
        5
102
RTVSPost2010Prop44ColorRGB
 90
      255
102
RTVSPost2010PropOp44
 70
     1
102
RTVSPost2010Prop45
280
     0
102
RTVSPost2010PropOp45
 70
     1
102
RTVSPost2010Prop46
 90
       50
102
RTVSPost2010PropOp46
 70
     1
102
RTVSPost2010Prop47
 90
       50
102
RTVSPost2010PropOp47
 70
     1
102
RTVSPost2010Prop48
 90
       50
102
RTVSPost2010PropOp48
 70
     1
102
RTVSPost2010Prop49
280
     0
102
RTVSPost2010PropOp49
 70
     1
102
RTVSPost2010Prop50
 90
       50
102
RTVSPost2010PropOp50
 70
     1
102
RTVSPost2010Prop51ColorIndex
 90
      256
102
RTVSPost2010Prop51ColorRGB
 90
-16777216
102
RTVSPost2010PropOp51
 70
     0
102
RTVSPost2010Prop52
140
1.0
102
RTVSPost2010PropOp52
 70
     0
102
RTVSPost2010Prop53
 90
        2
102
RTVSPost2010PropOp53
 70
     1
102
RTVSPost2010Prop54
  1
strokes_ogs.tif
102
RTVSPost2010PropOp54
 70
     1
102
RTVSPost2010Prop55
280
     0
102
RTVSPost2010PropOp55
 70
     1
102
RTVSPost2010Prop56
140
1.0
102
RTVSPost2010PropOp56
 70
     1
102
RTVSPost2010Prop57
140
1.0
102
RTVSPost2010PropOp57
 70
     1
102
RTVSPropertyOp0
 70
     1
102
RTVSPropertyOp1
 70
     1
102
RTVSPropertyOp2
 70
     1
102
RTVSPropertyOp3
 70
     1
102
RTVSPropertyOp4
 70
     1
102
RTVSPropertyOp5
 70
     1
102
RTVSPropertyOp6
 70
     1
102
RTVSPropertyOp7
 70
     1
102
RTVSPropertyOp8
 70
     1
102
RTVSPropertyOp9
 70
     1
102
RTVSPropertyOp10
 70
     1
102
RTVSPropertyOp11
 70
     1
102
RTVSPropertyOp12
 70
     1
102
RTVSPropertyOp13
 70
     1
102
RTVSPropertyOp14
 70
     1
102
RTVSPropertyOp15
 70
     1
102
RTVSPropertyOp16
 70
     1
102
RTVSPropertyOp17
 70
     1
102
RTVSPropertyOp18
 70
     1
102
RTVSPropertyOp19
 70
     1
102
RTVSPropertyOp20
 70
     1
102
RTVSPropertyOp21
 70
     1
102
RTVSPropertyOp22
 70
     1
102
RTVSPropertyOp23
 70
     1
102
RTVSPropertyOp24
 70
     1
102
RTVSPropertyOp25
 70
     1
102
RTVSPropertyOp26
 70
     1
102
RTVSPropertyOp27
 70
     1
102
RTVSPropertyOp28
 70
     1
102
RTVSPropertyOp29
 70
     1
102
RTVSPropertyOp30
 70
     1
102
RTVSPropertyOp31
 70
     1
102
RTVSPropertyOp32
 70
     1
102
RTVSPropertyOp33
 70
     1
102
RTVSPropertyOp34
 70
     1
102
RTVSPropertyOp35
 70
     1
102
RTVSPropertyOp36
 70
     1
102
RTVSPropertyOp37
 70
     1
102
RTVSPropertyOp38
 70
     1
102
RTVSPropertyOp39
 70
     1
102
RTVSPropertyOp40
 70
     1
102
RTVSPropertyOp41
 70
     1
102
RTVSPropertyOp42
 70
     1
102
RTVSPropertyOp43
 70
     1
102
RTVSPropertyOp44
 70
     1
102
RTVSPropertyOp45
 70
     1
102
RTVSPropertyOp46
 70
     1
102
RTVSPropertyOp47
 70
     1
102
RTVSPropertyOp48
 70
     1
102
RTVSPropertyOp49
 70
     1
102
RTVSPropertyOp50
 70
     1
102
RTVSPropertyOp51
 70
     0
102
RTVSPropertyOp52
 70
     0
102
RTVSPropertyOp53
 70
     1
102
RTVSPropertyOp54
 70
     1
102
RTVSPropertyOp55
 70
     1
102
RTVSPropertyOp56
 70
     1
102
RTVSPropertyOp57
 70
     1
102
RTVSPropertyOp58
 70
     1
102
RTVSPropertyOp59
 70
     1
102
RTVSPropertyOp60
 70
     1
102
RTVSPropertyOp61
 70
     1
102
RTVSPropertyOp62
 70
     1
  0
XRECORD
  5
446
102
{ACAD_REACTORS
330
445
102
}
330
445
100
AcDbXrecord
280
     1
102
RTVSPost2010Prop28
280
     0
102
RTVSPost2010PropOp28
 70
     1
102
RTVSPost2010Prop29
280
     1
102
RTVSPost2010PropOp29
 70
     1
102
RTVSPost2010Prop30
280
     1
102
RTVSPost2010PropOp30
 70
     1
102
RTVSPost2010Prop31
280
     0
102
RTVSPost2010PropOp31
 70
     1
102
RTVSPost2010Prop32
280
     0
102
RTVSPost2010PropOp32
 70
     1
102
RTVSPost2010Prop33
280
     0
102
RTVSPost2010PropOp33
 70
     1
102
RTVSPost2010Prop34
280
     0
102
RTVSPost2010PropOp34
 70
     1
102
RTVSPost2010Prop35
280
     0
102
RTVSPost2010PropOp35
 70
     1
102
RTVSPost2010Prop36
280
     0
102
RTVSPost2010PropOp36
 70
     1
102
RTVSPost2010Prop37
 90
       50
102
RTVSPost2010PropOp37
 70
     1
102
RTVSPost2010Prop38
140
0.0
102
RTVSPost2010PropOp38
 70
     1
102
RTVSPost2010Prop39
140
1.0
102
RTVSPost2010PropOp39
 70
     1
102
RTVSPost2010Prop40
 90
        0
102
RTVSPost2010PropOp40
 70
     1
102
RTVSPost2010Prop41ColorIndex
 90
       18
102
RTVSPost2010Prop41ColorRGB
 90
        0
102
RTVSPost2010PropOp41
 70
     1
102
RTVSPost2010Prop42
 90
       50
102
RTVSPost2010PropOp42
 70
     1
102
RTVSPost2010Prop43
 90
        3
102
RTVSPost2010PropOp43
 70
     1
102
RTVSPost2010Prop44ColorIndex
 90
        5
102
RTVSPost2010Prop44ColorRGB
 90
      255
102
RTVSPost2010PropOp44
 70
     1
102
RTVSPost2010Prop45
280
     0
102
RTVSPost2010PropOp45
 70
     1
102
RTVSPost2010Prop46
 90
       50
102
RTVSPost2010PropOp46
 70
     1
102
RTVSPost2010Prop47
 90
       50
102
RTVSPost2010PropOp47
 70
     1
102
RTVSPost2010Prop48
 90
       50
102
RTVSPost2010PropOp48
 70
     1
102
RTVSPost2010Prop49
280
     0
102
RTVSPost2010PropOp49
 70
     1
102
RTVSPost2010Prop50
 90
       50
102
RTVSPost2010PropOp50
 70
     1
102
RTVSPost2010Prop51ColorIndex
 90
      256
102
RTVSPost2010Prop51ColorRGB
 90
-16777216
102
RTVSPost2010PropOp51
 70
     0
102
RTVSPost2010Prop52
140
1.0
102
RTVSPost2010PropOp52
 70
     0
102
RTVSPost2010Prop53
 90
        2
102
RTVSPost2010PropOp53
 70
     1
102
RTVSPost2010Prop54
  1
strokes_ogs.tif
102
RTVSPost2010PropOp54
 70
     1
102
RTVSPost2010Prop55
280
     0
102
RTVSPost2010PropOp55
 70
     1
102
RTVSPost2010Prop56
140
1.0
102
RTVSPost2010PropOp56
 70
     1
102
RTVSPost2010Prop57
140
1.0
102
RTVSPost2010PropOp57
 70
     1
102
RTVSPropertyOp0
 70
     1
102
RTVSPropertyOp1
 70
     1
102
RTVSPropertyOp2
 70
     1
102
RTVSPropertyOp3
 70
     1
102
RTVSPropertyOp4
 70
     1
102
RTVSPropertyOp5
 70
     1
102
RTVSPropertyOp6
 70
     1
102
RTVSPropertyOp7
 70
     1
102
RTVSPropertyOp8
 70
     1
102
RTVSPropertyOp9
 70
     1
102
RTVSPropertyOp10
 70
     1
102
RTVSPropertyOp11
 70
     1
102
RTVSPropertyOp12
 70
     1
102
RTVSPropertyOp13
 70
     1
102
RTVSPropertyOp14
 70
     1
102
RTVSPropertyOp15
 70
     1
102
RTVSPropertyOp16
 70
     1
102
RTVSPropertyOp17
 70
     1
102
RTVSPropertyOp18
 70
     1
102
RTVSPropertyOp19
 70
     1
102
RTVSPropertyOp20
 70
     1
102
RTVSPropertyOp21
 70
     1
102
RTVSPropertyOp22
 70
     1
102
RTVSPropertyOp23
 70
     1
102
RTVSPropertyOp24
 70
     1
102
RTVSPropertyOp25
 70
     1
102
RTVSPropertyOp26
 70
     1
102
RTVSPropertyOp27
 70
     1
102
RTVSPropertyOp28
 70
     1
102
RTVSPropertyOp29
 70
     1
102
RTVSPropertyOp30
 70
     1
102
RTVSPropertyOp31
 70
     1
102
RTVSPropertyOp32
 70
     1
102
RTVSPropertyOp33
 70
     1
102
RTVSPropertyOp34
 70
     1
102
RTVSPropertyOp35
 70
     1
102
RTVSPropertyOp36
 70
     1
102
RTVSPropertyOp37
 70
     1
102
RTVSPropertyOp38
 70
     1
102
RTVSPropertyOp39
 70
     1
102
RTVSPropertyOp40
 70
     1
102
RTVSPropertyOp41
 70
     1
102
RTVSPropertyOp42
 70
     1
102
RTVSPropertyOp43
 70
     1
102
RTVSPropertyOp44
 70
     1
102
RTVSPropertyOp45
 70
     1
102
RTVSPropertyOp46
 70
     1
102
RTVSPropertyOp47
 70
     1
102
RTVSPropertyOp48
 70
     1
102
RTVSPropertyOp49
 70
     1
102
RTVSPropertyOp50
 70
     1
102
RTVSPropertyOp51
 70
     0
102
RTVSPropertyOp52
 70
     0
102
RTVSPropertyOp53
 70
     1
102
RTVSPropertyOp54
 70
     1
102
RTVSPropertyOp55
 70
     1
102
RTVSPropertyOp56
 70
     1
102
RTVSPropertyOp57
 70
     1
102
RTVSPropertyOp58
 70
     1
102
RTVSPropertyOp59
 70
     1
102
RTVSPropertyOp60
 70
     1
102
RTVSPropertyOp61
 70
     1
102
RTVSPropertyOp62
 70
     1
  0
XRECORD
  5
448
102
{ACAD_REACTORS
330
447
102
}
330
447
100
AcDbXrecord
280
     1
102
RTVSPost2010Prop28
280
     0
102
RTVSPost2010PropOp28
 70
     1
102
RTVSPost2010Prop29
280
     1
102
RTVSPost2010PropOp29
 70
     1
102
RTVSPost2010Prop30
280
     1
102
RTVSPost2010PropOp30
 70
     1
102
RTVSPost2010Prop31
280
     0
102
RTVSPost2010PropOp31
 70
     1
102
RTVSPost2010Prop32
280
     0
102
RTVSPost2010PropOp32
 70
     1
102
RTVSPost2010Prop33
280
     0
102
RTVSPost2010PropOp33
 70
     1
102
RTVSPost2010Prop34
280
     0
102
RTVSPost2010PropOp34
 70
     1
102
RTVSPost2010Prop35
280
     0
102
RTVSPost2010PropOp35
 70
     1
102
RTVSPost2010Prop36
280
     0
102
RTVSPost2010PropOp36
 70
     1
102
RTVSPost2010Prop37
 90
       50
102
RTVSPost2010PropOp37
 70
     1
102
RTVSPost2010Prop38
140
0.0
102
RTVSPost2010PropOp38
 70
     1
102
RTVSPost2010Prop39
140
1.0
102
RTVSPost2010PropOp39
 70
     1
102
RTVSPost2010Prop40
 90
        0
102
RTVSPost2010PropOp40
 70
     1
102
RTVSPost2010Prop41ColorIndex
 90
       18
102
RTVSPost2010Prop41ColorRGB
 90
        0
102
RTVSPost2010PropOp41
 70
     1
102
RTVSPost2010Prop42
 90
       50
102
RTVSPost2010PropOp42
 70
     1
102
RTVSPost2010Prop43
 90
        3
102
RTVSPost2010PropOp43
 70
     1
102
RTVSPost2010Prop44ColorIndex
 90
        5
102
RTVSPost2010Prop44ColorRGB
 90
      255
102
RTVSPost2010PropOp44
 70
     1
102
RTVSPost2010Prop45
280
     0
102
RTVSPost2010PropOp45
 70
     1
102
RTVSPost2010Prop46
 90
       50
102
RTVSPost2010PropOp46
 70
     1
102
RTVSPost2010Prop47
 90
       50
102
RTVSPost2010PropOp47
 70
     1
102
RTVSPost2010Prop48
 90
       50
102
RTVSPost2010PropOp48
 70
     1
102
RTVSPost2010Prop49
280
     0
102
RTVSPost2010PropOp49
 70
     1
102
RTVSPost2010Prop50
 90
       50
102
RTVSPost2010PropOp50
 70
     1
102
RTVSPost2010Prop51ColorIndex
 90
      256
102
RTVSPost2010Prop51ColorRGB
 90
-16777216
102
RTVSPost2010PropOp51
 70
     0
102
RTVSPost2010Prop52
140
1.0
102
RTVSPost2010PropOp52
 70
     0
102
RTVSPost2010Prop53
 90
        2
102
RTVSPost2010PropOp53
 70
     1
102
RTVSPost2010Prop54
  1
strokes_ogs.tif
102
RTVSPost2010PropOp54
 70
     1
102
RTVSPost2010Prop55
280
     0
102
RTVSPost2010PropOp55
 70
     1
102
RTVSPost2010Prop56
140
1.0
102
RTVSPost2010PropOp56
 70
     1
102
RTVSPost2010Prop57
140
1.0
102
RTVSPost2010PropOp57
 70
     1
102
RTVSPropertyOp0
 70
     1
102
RTVSPropertyOp1
 70
     1
102
RTVSPropertyOp2
 70
     1
102
RTVSPropertyOp3
 70
     1
102
RTVSPropertyOp4
 70
     1
102
RTVSPropertyOp5
 70
     1
102
RTVSPropertyOp6
 70
     1
102
RTVSPropertyOp7
 70
     1
102
RTVSPropertyOp8
 70
     1
102
RTVSPropertyOp9
 70
     1
102
RTVSPropertyOp10
 70
     1
102
RTVSPropertyOp11
 70
     1
102
RTVSPropertyOp12
 70
     1
102
RTVSPropertyOp13
 70
     1
102
RTVSPropertyOp14
 70
     1
102
RTVSPropertyOp15
 70
     1
102
RTVSPropertyOp16
 70
     1
102
RTVSPropertyOp17
 70
     1
102
RTVSPropertyOp18
 70
     1
102
RTVSPropertyOp19
 70
     1
102
RTVSPropertyOp20
 70
     1
102
RTVSPropertyOp21
 70
     1
102
RTVSPropertyOp22
 70
     1
102
RTVSPropertyOp23
 70
     1
102
RTVSPropertyOp24
 70
     1
102
RTVSPropertyOp25
 70
     1
102
RTVSPropertyOp26
 70
     1
102
RTVSPropertyOp27
 70
     1
102
RTVSPropertyOp28
 70
     1
102
RTVSPropertyOp29
 70
     1
102
RTVSPropertyOp30
 70
     1
102
RTVSPropertyOp31
 70
     1
102
RTVSPropertyOp32
 70
     1
102
RTVSPropertyOp33
 70
     1
102
RTVSPropertyOp34
 70
     1
102
RTVSPropertyOp35
 70
     1
102
RTVSPropertyOp36
 70
     1
102
RTVSPropertyOp37
 70
     1
102
RTVSPropertyOp38
 70
     1
102
RTVSPropertyOp39
 70
     1
102
RTVSPropertyOp40
 70
     1
102
RTVSPropertyOp41
 70
     1
102
RTVSPropertyOp42
 70
     1
102
RTVSPropertyOp43
 70
     1
102
RTVSPropertyOp44
 70
     1
102
RTVSPropertyOp45
 70
     1
102
RTVSPropertyOp46
 70
     1
102
RTVSPropertyOp47
 70
     1
102
RTVSPropertyOp48
 70
     1
102
RTVSPropertyOp49
 70
     1
102
RTVSPropertyOp50
 70
     1
102
RTVSPropertyOp51
 70
     0
102
RTVSPropertyOp52
 70
     0
102
RTVSPropertyOp53
 70
     1
102
RTVSPropertyOp54
 70
     1
102
RTVSPropertyOp55
 70
     1
102
RTVSPropertyOp56
 70
     1
102
RTVSPropertyOp57
 70
     1
102
RTVSPropertyOp58
 70
     1
102
RTVSPropertyOp59
 70
     1
102
RTVSPropertyOp60
 70
     1
102
RTVSPropertyOp61
 70
     1
102
RTVSPropertyOp62
 70
     1
  0
XRECORD
  5
44A
102
{ACAD_REACTORS
330
449
102
}
330
449
100
AcDbXrecord
280
     1
102
RTVSPost2010Prop28
280
     0
102
RTVSPost2010PropOp28
 70
     1
102
RTVSPost2010Prop29
280
     1
102
RTVSPost2010PropOp29
 70
     1
102
RTVSPost2010Prop30
280
     1
102
RTVSPost2010PropOp30
 70
     1
102
RTVSPost2010Prop31
280
     0
102
RTVSPost2010PropOp31
 70
     1
102
RTVSPost2010Prop32
280
     0
102
RTVSPost2010PropOp32
 70
     1
102
RTVSPost2010Prop33
280
     0
102
RTVSPost2010PropOp33
 70
     1
102
RTVSPost2010Prop34
280
     0
102
RTVSPost2010PropOp34
 70
     1
102
RTVSPost2010Prop35
280
     0
102
RTVSPost2010PropOp35
 70
     1
102
RTVSPost2010Prop36
280
     0
102
RTVSPost2010PropOp36
 70
     1
102
RTVSPost2010Prop37
 90
       50
102
RTVSPost2010PropOp37
 70
     1
102
RTVSPost2010Prop38
140
0.0
102
RTVSPost2010PropOp38
 70
     1
102
RTVSPost2010Prop39
140
1.0
102
RTVSPost2010PropOp39
 70
     1
102
RTVSPost2010Prop40
 90
        0
102
RTVSPost2010PropOp40
 70
     1
102
RTVSPost2010Prop41ColorIndex
 90
       18
102
RTVSPost2010Prop41ColorRGB
 90
        0
102
RTVSPost2010PropOp41
 70
     1
102
RTVSPost2010Prop42
 90
       50
102
RTVSPost2010PropOp42
 70
     1
102
RTVSPost2010Prop43
 90
        3
102
RTVSPost2010PropOp43
 70
     1
102
RTVSPost2010Prop44ColorIndex
 90
        5
102
RTVSPost2010Prop44ColorRGB
 90
      255
102
RTVSPost2010PropOp44
 70
     1
102
RTVSPost2010Prop45
280
     0
102
RTVSPost2010PropOp45
 70
     1
102
RTVSPost2010Prop46
 90
       50
102
RTVSPost2010PropOp46
 70
     1
102
RTVSPost2010Prop47
 90
       50
102
RTVSPost2010PropOp47
 70
     1
102
RTVSPost2010Prop48
 90
       50
102
RTVSPost2010PropOp48
 70
     1
102
RTVSPost2010Prop49
280
     0
102
RTVSPost2010PropOp49
 70
     1
102
RTVSPost2010Prop50
 90
       50
102
RTVSPost2010PropOp50
 70
     1
102
RTVSPost2010Prop51ColorIndex
 90
      256
102
RTVSPost2010Prop51ColorRGB
 90
-16777216
102
RTVSPost2010PropOp51
 70
     0
102
RTVSPost2010Prop52
140
1.0
102
RTVSPost2010PropOp52
 70
     0
102
RTVSPost2010Prop53
 90
        2
102
RTVSPost2010PropOp53
 70
     1
102
RTVSPost2010Prop54
  1
strokes_ogs.tif
102
RTVSPost2010PropOp54
 70
     1
102
RTVSPost2010Prop55
280
     0
102
RTVSPost2010PropOp55
 70
     1
102
RTVSPost2010Prop56
140
1.0
102
RTVSPost2010PropOp56
 70
     1
102
RTVSPost2010Prop57
140
1.0
102
RTVSPost2010PropOp57
 70
     1
102
RTVSPropertyOp0
 70
     1
102
RTVSPropertyOp1
 70
     1
102
RTVSPropertyOp2
 70
     1
102
RTVSPropertyOp3
 70
     1
102
RTVSPropertyOp4
 70
     1
102
RTVSPropertyOp5
 70
     1
102
RTVSPropertyOp6
 70
     1
102
RTVSPropertyOp7
 70
     1
102
RTVSPropertyOp8
 70
     1
102
RTVSPropertyOp9
 70
     1
102
RTVSPropertyOp10
 70
     1
102
RTVSPropertyOp11
 70
     1
102
RTVSPropertyOp12
 70
     1
102
RTVSPropertyOp13
 70
     1
102
RTVSPropertyOp14
 70
     1
102
RTVSPropertyOp15
 70
     1
102
RTVSPropertyOp16
 70
     1
102
RTVSPropertyOp17
 70
     1
102
RTVSPropertyOp18
 70
     1
102
RTVSPropertyOp19
 70
     1
102
RTVSPropertyOp20
 70
     1
102
RTVSPropertyOp21
 70
     1
102
RTVSPropertyOp22
 70
     1
102
RTVSPropertyOp23
 70
     1
102
RTVSPropertyOp24
 70
     1
102
RTVSPropertyOp25
 70
     1
102
RTVSPropertyOp26
 70
     1
102
RTVSPropertyOp27
 70
     1
102
RTVSPropertyOp28
 70
     1
102
RTVSPropertyOp29
 70
     1
102
RTVSPropertyOp30
 70
     1
102
RTVSPropertyOp31
 70
     1
102
RTVSPropertyOp32
 70
     1
102
RTVSPropertyOp33
 70
     1
102
RTVSPropertyOp34
 70
     1
102
RTVSPropertyOp35
 70
     1
102
RTVSPropertyOp36
 70
     1
102
RTVSPropertyOp37
 70
     1
102
RTVSPropertyOp38
 70
     1
102
RTVSPropertyOp39
 70
     1
102
RTVSPropertyOp40
 70
     1
102
RTVSPropertyOp41
 70
     1
102
RTVSPropertyOp42
 70
     1
102
RTVSPropertyOp43
 70
     1
102
RTVSPropertyOp44
 70
     1
102
RTVSPropertyOp45
 70
     1
102
RTVSPropertyOp46
 70
     1
102
RTVSPropertyOp47
 70
     1
102
RTVSPropertyOp48
 70
     1
102
RTVSPropertyOp49
 70
     1
102
RTVSPropertyOp50
 70
     1
102
RTVSPropertyOp51
 70
     0
102
RTVSPropertyOp52
 70
     0
102
RTVSPropertyOp53
 70
     1
102
RTVSPropertyOp54
 70
     1
102
RTVSPropertyOp55
 70
     1
102
RTVSPropertyOp56
 70
     1
102
RTVSPropertyOp57
 70
     1
102
RTVSPropertyOp58
 70
     1
102
RTVSPropertyOp59
 70
     1
102
RTVSPropertyOp60
 70
     1
102
RTVSPropertyOp61
 70
     1
102
RTVSPropertyOp62
 70
     1
  0
XRECORD
  5
44C
102
{ACAD_REACTORS
330
44B
102
}
330
44B
100
AcDbXrecord
280
     1
102
RTVSPost2010Prop28
280
     0
102
RTVSPost2010PropOp28
 70
     1
102
RTVSPost2010Prop29
280
     1
102
RTVSPost2010PropOp29
 70
     1
102
RTVSPost2010Prop30
280
     1
102
RTVSPost2010PropOp30
 70
     1
102
RTVSPost2010Prop31
280
     0
102
RTVSPost2010PropOp31
 70
     1
102
RTVSPost2010Prop32
280
     0
102
RTVSPost2010PropOp32
 70
     1
102
RTVSPost2010Prop33
280
     0
102
RTVSPost2010PropOp33
 70
     1
102
RTVSPost2010Prop34
280
     0
102
RTVSPost2010PropOp34
 70
     1
102
RTVSPost2010Prop35
280
     0
102
RTVSPost2010PropOp35
 70
     1
102
RTVSPost2010Prop36
280
     0
102
RTVSPost2010PropOp36
 70
     1
102
RTVSPost2010Prop37
 90
       50
102
RTVSPost2010PropOp37
 70
     1
102
RTVSPost2010Prop38
140
0.0
102
RTVSPost2010PropOp38
 70
     1
102
RTVSPost2010Prop39
140
1.0
102
RTVSPost2010PropOp39
 70
     1
102
RTVSPost2010Prop40
 90
        0
102
RTVSPost2010PropOp40
 70
     1
102
RTVSPost2010Prop41ColorIndex
 90
       18
102
RTVSPost2010Prop41ColorRGB
 90
        0
102
RTVSPost2010PropOp41
 70
     1
102
RTVSPost2010Prop42
 90
       50
102
RTVSPost2010PropOp42
 70
     1
102
RTVSPost2010Prop43
 90
        3
102
RTVSPost2010PropOp43
 70
     1
102
RTVSPost2010Prop44ColorIndex
 90
        5
102
RTVSPost2010Prop44ColorRGB
 90
      255
102
RTVSPost2010PropOp44
 70
     1
102
RTVSPost2010Prop45
280
     0
102
RTVSPost2010PropOp45
 70
     1
102
RTVSPost2010Prop46
 90
       50
102
RTVSPost2010PropOp46
 70
     1
102
RTVSPost2010Prop47
 90
       50
102
RTVSPost2010PropOp47
 70
     1
102
RTVSPost2010Prop48
 90
       50
102
RTVSPost2010PropOp48
 70
     1
102
RTVSPost2010Prop49
280
     0
102
RTVSPost2010PropOp49
 70
     1
102
RTVSPost2010Prop50
 90
       50
102
RTVSPost2010PropOp50
 70
     1
102
RTVSPost2010Prop51ColorIndex
 90
      256
102
RTVSPost2010Prop51ColorRGB
 90
-16777216
102
RTVSPost2010PropOp51
 70
     0
102
RTVSPost2010Prop52
140
1.0
102
RTVSPost2010PropOp52
 70
     0
102
RTVSPost2010Prop53
 90
        2
102
RTVSPost2010PropOp53
 70
     1
102
RTVSPost2010Prop54
  1
strokes_ogs.tif
102
RTVSPost2010PropOp54
 70
     1
102
RTVSPost2010Prop55
280
     0
102
RTVSPost2010PropOp55
 70
     1
102
RTVSPost2010Prop56
140
1.0
102
RTVSPost2010PropOp56
 70
     1
102
RTVSPost2010Prop57
140
1.0
102
RTVSPost2010PropOp57
 70
     1
102
RTVSPropertyOp0
 70
     1
102
RTVSPropertyOp1
 70
     1
102
RTVSPropertyOp2
 70
     1
102
RTVSPropertyOp3
 70
     1
102
RTVSPropertyOp4
 70
     1
102
RTVSPropertyOp5
 70
     1
102
RTVSPropertyOp6
 70
     1
102
RTVSPropertyOp7
 70
     1
102
RTVSPropertyOp8
 70
     1
102
RTVSPropertyOp9
 70
     1
102
RTVSPropertyOp10
 70
     1
102
RTVSPropertyOp11
 70
     1
102
RTVSPropertyOp12
 70
     1
102
RTVSPropertyOp13
 70
     1
102
RTVSPropertyOp14
 70
     1
102
RTVSPropertyOp15
 70
     1
102
RTVSPropertyOp16
 70
     1
102
RTVSPropertyOp17
 70
     1
102
RTVSPropertyOp18
 70
     1
102
RTVSPropertyOp19
 70
     1
102
RTVSPropertyOp20
 70
     1
102
RTVSPropertyOp21
 70
     1
102
RTVSPropertyOp22
 70
     1
102
RTVSPropertyOp23
 70
     1
102
RTVSPropertyOp24
 70
     1
102
RTVSPropertyOp25
 70
     1
102
RTVSPropertyOp26
 70
     1
102
RTVSPropertyOp27
 70
     1
102
RTVSPropertyOp28
 70
     1
102
RTVSPropertyOp29
 70
     1
102
RTVSPropertyOp30
 70
     1
102
RTVSPropertyOp31
 70
     1
102
RTVSPropertyOp32
 70
     1
102
RTVSPropertyOp33
 70
     1
102
RTVSPropertyOp34
 70
     1
102
RTVSPropertyOp35
 70
     1
102
RTVSPropertyOp36
 70
     1
102
RTVSPropertyOp37
 70
     1
102
RTVSPropertyOp38
 70
     1
102
RTVSPropertyOp39
 70
     1
102
RTVSPropertyOp40
 70
     1
102
RTVSPropertyOp41
 70
     1
102
RTVSPropertyOp42
 70
     1
102
RTVSPropertyOp43
 70
     1
102
RTVSPropertyOp44
 70
     1
102
RTVSPropertyOp45
 70
     1
102
RTVSPropertyOp46
 70
     1
102
RTVSPropertyOp47
 70
     1
102
RTVSPropertyOp48
 70
     1
102
RTVSPropertyOp49
 70
     1
102
RTVSPropertyOp50
 70
     1
102
RTVSPropertyOp51
 70
     0
102
RTVSPropertyOp52
 70
     0
102
RTVSPropertyOp53
 70
     1
102
RTVSPropertyOp54
 70
     1
102
RTVSPropertyOp55
 70
     1
102
RTVSPropertyOp56
 70
     1
102
RTVSPropertyOp57
 70
     1
102
RTVSPropertyOp58
 70
     1
102
RTVSPropertyOp59
 70
     1
102
RTVSPropertyOp60
 70
     1
102
RTVSPropertyOp61
 70
     1
102
RTVSPropertyOp62
 70
     1
  0
XRECORD
  5
454
102
{ACAD_REACTORS
330
453
102
}
330
453
100
AcDbXrecord
280
     1
102
RTVSPost2010Prop28
280
     0
102
RTVSPost2010PropOp28
 70
     1
102
RTVSPost2010Prop29
280
     1
102
RTVSPost2010PropOp29
 70
     1
102
RTVSPost2010Prop30
280
     1
102
RTVSPost2010PropOp30
 70
     1
102
RTVSPost2010Prop31
280
     0
102
RTVSPost2010PropOp31
 70
     1
102
RTVSPost2010Prop32
280
     0
102
RTVSPost2010PropOp32
 70
     1
102
RTVSPost2010Prop33
280
     0
102
RTVSPost2010PropOp33
 70
     1
102
RTVSPost2010Prop34
280
     0
102
RTVSPost2010PropOp34
 70
     1
102
RTVSPost2010Prop35
280
     0
102
RTVSPost2010PropOp35
 70
     1
102
RTVSPost2010Prop36
280
     0
102
RTVSPost2010PropOp36
 70
     1
102
RTVSPost2010Prop37
 90
       50
102
RTVSPost2010PropOp37
 70
     1
102
RTVSPost2010Prop38
140
0.0
102
RTVSPost2010PropOp38
 70
     1
102
RTVSPost2010Prop39
140
1.0
102
RTVSPost2010PropOp39
 70
     1
102
RTVSPost2010Prop40
 90
        0
102
RTVSPost2010PropOp40
 70
     1
102
RTVSPost2010Prop41ColorIndex
 90
       18
102
RTVSPost2010Prop41ColorRGB
 90
        0
102
RTVSPost2010PropOp41
 70
     1
102
RTVSPost2010Prop42
 90
       50
102
RTVSPost2010PropOp42
 70
     1
102
RTVSPost2010Prop43
 90
        3
102
RTVSPost2010PropOp43
 70
     1
102
RTVSPost2010Prop44ColorIndex
 90
        5
102
RTVSPost2010Prop44ColorRGB
 90
      255
102
RTVSPost2010PropOp44
 70
     1
102
RTVSPost2010Prop45
280
     0
102
RTVSPost2010PropOp45
 70
     1
102
RTVSPost2010Prop46
 90
       50
102
RTVSPost2010PropOp46
 70
     1
102
RTVSPost2010Prop47
 90
       50
102
RTVSPost2010PropOp47
 70
     1
102
RTVSPost2010Prop48
 90
       50
102
RTVSPost2010PropOp48
 70
     1
102
RTVSPost2010Prop49
280
     0
102
RTVSPost2010PropOp49
 70
     1
102
RTVSPost2010Prop50
 90
       50
102
RTVSPost2010PropOp50
 70
     1
102
RTVSPost2010Prop51ColorIndex
 90
      256
102
RTVSPost2010Prop51ColorRGB
 90
-16777216
102
RTVSPost2010PropOp51
 70
     0
102
RTVSPost2010Prop52
140
1.0
102
RTVSPost2010PropOp52
 70
     0
102
RTVSPost2010Prop53
 90
        2
102
RTVSPost2010PropOp53
 70
     1
102
RTVSPost2010Prop54
  1
strokes_ogs.tif
102
RTVSPost2010PropOp54
 70
     1
102
RTVSPost2010Prop55
280
     0
102
RTVSPost2010PropOp55
 70
     1
102
RTVSPost2010Prop56
140
1.0
102
RTVSPost2010PropOp56
 70
     1
102
RTVSPost2010Prop57
140
1.0
102
RTVSPost2010PropOp57
 70
     1
102
RTVSPropertyOp0
 70
     1
102
RTVSPropertyOp1
 70
     1
102
RTVSPropertyOp2
 70
     1
102
RTVSPropertyOp3
 70
     1
102
RTVSPropertyOp4
 70
     1
102
RTVSPropertyOp5
 70
     1
102
RTVSPropertyOp6
 70
     1
102
RTVSPropertyOp7
 70
     1
102
RTVSPropertyOp8
 70
     1
102
RTVSPropertyOp9
 70
     1
102
RTVSPropertyOp10
 70
     1
102
RTVSPropertyOp11
 70
     1
102
RTVSPropertyOp12
 70
     1
102
RTVSPropertyOp13
 70
     1
102
RTVSPropertyOp14
 70
     1
102
RTVSPropertyOp15
 70
     1
102
RTVSPropertyOp16
 70
     1
102
RTVSPropertyOp17
 70
     1
102
RTVSPropertyOp18
 70
     1
102
RTVSPropertyOp19
 70
     1
102
RTVSPropertyOp20
 70
     1
102
RTVSPropertyOp21
 70
     1
102
RTVSPropertyOp22
 70
     1
102
RTVSPropertyOp23
 70
     1
102
RTVSPropertyOp24
 70
     1
102
RTVSPropertyOp25
 70
     1
102
RTVSPropertyOp26
 70
     1
102
RTVSPropertyOp27
 70
     1
102
RTVSPropertyOp28
 70
     1
102
RTVSPropertyOp29
 70
     1
102
RTVSPropertyOp30
 70
     1
102
RTVSPropertyOp31
 70
     1
102
RTVSPropertyOp32
 70
     1
102
RTVSPropertyOp33
 70
     1
102
RTVSPropertyOp34
 70
     1
102
RTVSPropertyOp35
 70
     1
102
RTVSPropertyOp36
 70
     1
102
RTVSPropertyOp37
 70
     1
102
RTVSPropertyOp38
 70
     1
102
RTVSPropertyOp39
 70
     1
102
RTVSPropertyOp40
 70
     1
102
RTVSPropertyOp41
 70
     1
102
RTVSPropertyOp42
 70
     1
102
RTVSPropertyOp43
 70
     1
102
RTVSPropertyOp44
 70
     1
102
RTVSPropertyOp45
 70
     1
102
RTVSPropertyOp46
 70
     1
102
RTVSPropertyOp47
 70
     1
102
RTVSPropertyOp48
 70
     1
102
RTVSPropertyOp49
 70
     1
102
RTVSPropertyOp50
 70
     1
102
RTVSPropertyOp51
 70
     0
102
RTVSPropertyOp52
 70
     0
102
RTVSPropertyOp53
 70
     1
102
RTVSPropertyOp54
 70
     1
102
RTVSPropertyOp55
 70
     1
102
RTVSPropertyOp56
 70
     1
102
RTVSPropertyOp57
 70
     1
102
RTVSPropertyOp58
 70
     1
102
RTVSPropertyOp59
 70
     1
102
RTVSPropertyOp60
 70
     1
102
RTVSPropertyOp61
 70
     1
102
RTVSPropertyOp62
 70
     1
  0
XRECORD
  5
470
102
{ACAD_REACTORS
330
46F
102
}
330
46F
100
AcDbXrecord
280
     1
102
RTVSPost2010Prop28
280
     0
102
RTVSPost2010PropOp28
 70
     1
102
RTVSPost2010Prop29
280
     1
102
RTVSPost2010PropOp29
 70
     1
102
RTVSPost2010Prop30
280
     1
102
RTVSPost2010PropOp30
 70
     1
102
RTVSPost2010Prop31
280
     0
102
RTVSPost2010PropOp31
 70
     1
102
RTVSPost2010Prop32
280
     0
102
RTVSPost2010PropOp32
 70
     1
102
RTVSPost2010Prop33
280
     0
102
RTVSPost2010PropOp33
 70
     1
102
RTVSPost2010Prop34
280
     0
102
RTVSPost2010PropOp34
 70
     1
102
RTVSPost2010Prop35
280
     0
102
RTVSPost2010PropOp35
 70
     1
102
RTVSPost2010Prop36
280
     0
102
RTVSPost2010PropOp36
 70
     1
102
RTVSPost2010Prop37
 90
       50
102
RTVSPost2010PropOp37
 70
     0
102
RTVSPost2010Prop38
140
0.0
102
RTVSPost2010PropOp38
 70
     0
102
RTVSPost2010Prop39
140
1.0
102
RTVSPost2010PropOp39
 70
     0
102
RTVSPost2010Prop40
 90
        0
102
RTVSPost2010PropOp40
 70
     0
102
RTVSPost2010Prop41ColorIndex
 90
       18
102
RTVSPost2010Prop41ColorRGB
 90
        0
102
RTVSPost2010PropOp41
 70
     0
102
RTVSPost2010Prop42
 90
       50
102
RTVSPost2010PropOp42
 70
     0
102
RTVSPost2010Prop43
 90
        3
102
RTVSPost2010PropOp43
 70
     0
102
RTVSPost2010Prop44ColorIndex
 90
        5
102
RTVSPost2010Prop44ColorRGB
 90
      255
102
RTVSPost2010PropOp44
 70
     0
102
RTVSPost2010Prop45
280
     0
102
RTVSPost2010PropOp45
 70
     1
102
RTVSPost2010Prop46
 90
       50
102
RTVSPost2010PropOp46
 70
     0
102
RTVSPost2010Prop47
 90
       50
102
RTVSPost2010PropOp47
 70
     0
102
RTVSPost2010Prop48
 90
       50
102
RTVSPost2010PropOp48
 70
     0
102
RTVSPost2010Prop49
280
     0
102
RTVSPost2010PropOp49
 70
     1
102
RTVSPost2010Prop50
 90
       50
102
RTVSPost2010PropOp50
 70
     0
102
RTVSPost2010Prop51ColorIndex
 90
      256
102
RTVSPost2010Prop51ColorRGB
 90
-16777216
102
RTVSPost2010PropOp51
 70
     0
102
RTVSPost2010Prop52
140
1.0
102
RTVSPost2010PropOp52
 70
     0
102
RTVSPost2010Prop53
 90
        2
102
RTVSPost2010PropOp53
 70
     0
102
RTVSPost2010Prop54
  1
strokes_ogs.tif
102
RTVSPost2010PropOp54
 70
     0
102
RTVSPost2010Prop55
280
     0
102
RTVSPost2010PropOp55
 70
     1
102
RTVSPost2010Prop56
140
1.0
102
RTVSPost2010PropOp56
 70
     0
102
RTVSPost2010Prop57
140
1.0
102
RTVSPost2010PropOp57
 70
     0
102
RTVSPropertyOp0
 70
     0
102
RTVSPropertyOp1
 70
     0
102
RTVSPropertyOp2
 70
     0
102
RTVSPropertyOp3
 70
     0
102
RTVSPropertyOp4
 70
     0
102
RTVSPropertyOp5
 70
     0
102
RTVSPropertyOp6
 70
     0
102
RTVSPropertyOp7
 70
     0
102
RTVSPropertyOp8
 70
     0
102
RTVSPropertyOp9
 70
     0
102
RTVSPropertyOp10
 70
     0
102
RTVSPropertyOp11
 70
     0
102
RTVSPropertyOp12
 70
     0
102
RTVSPropertyOp13
 70
     0
102
RTVSPropertyOp14
 70
     2
102
RTVSPropertyOp15
 70
     0
102
RTVSPropertyOp16
 70
     0
102
RTVSPropertyOp17
 70
     0
102
RTVSPropertyOp18
 70
     0
102
RTVSPropertyOp19
 70
     0
102
RTVSPropertyOp20
 70
     0
102
RTVSPropertyOp21
 70
     0
102
RTVSPropertyOp22
 70
     0
102
RTVSPropertyOp23
 70
     0
102
RTVSPropertyOp24
 70
     0
102
RTVSPropertyOp25
 70
     0
102
RTVSPropertyOp26
 70
     0
102
RTVSPropertyOp27
 70
     0
102
RTVSPropertyOp28
 70
     1
102
RTVSPropertyOp29
 70
     1
102
RTVSPropertyOp30
 70
     1
102
RTVSPropertyOp31
 70
     1
102
RTVSPropertyOp32
 70
     1
102
RTVSPropertyOp33
 70
     1
102
RTVSPropertyOp34
 70
     1
102
RTVSPropertyOp35
 70
     1
102
RTVSPropertyOp36
 70
     1
102
RTVSPropertyOp37
 70
     0
102
RTVSPropertyOp38
 70
     0
102
RTVSPropertyOp39
 70
     0
102
RTVSPropertyOp40
 70
     0
102
RTVSPropertyOp41
 70
     0
102
RTVSPropertyOp42
 70
     0
102
RTVSPropertyOp43
 70
     0
102
RTVSPropertyOp44
 70
     0
102
RTVSPropertyOp45
 70
     1
102
RTVSPropertyOp46
 70
     0
102
RTVSPropertyOp47
 70
     0
102
RTVSPropertyOp48
 70
     0
102
RTVSPropertyOp49
 70
     1
102
RTVSPropertyOp50
 70
     0
102
RTVSPropertyOp51
 70
     0
102
RTVSPropertyOp52
 70
     0
102
RTVSPropertyOp53
 70
     0
102
RTVSPropertyOp54
 70
     0
102
RTVSPropertyOp55
 70
     1
102
RTVSPropertyOp56
 70
     0
102
RTVSPropertyOp57
 70
     0
102
RTVSPropertyOp58
 70
     0
102
RTVSPropertyOp59
 70
     0
102
RTVSPropertyOp60
 70
     0
102
RTVSPropertyOp61
 70
     0
102
RTVSPropertyOp62
 70
     0
  0
XRECORD
  5
460
102
{ACAD_REACTORS
330
45F
102
}
330
45F
100
AcDbXrecord
280
     1
102
RTVSPost2010Prop28
280
     0
102
RTVSPost2010PropOp28
 70
     1
102
RTVSPost2010Prop29
280
     1
102
RTVSPost2010PropOp29
 70
     1
102
RTVSPost2010Prop30
280
     1
102
RTVSPost2010PropOp30
 70
     1
102
RTVSPost2010Prop31
280
     0
102
RTVSPost2010PropOp31
 70
     1
102
RTVSPost2010Prop32
280
     0
102
RTVSPost2010PropOp32
 70
     1
102
RTVSPost2010Prop33
280
     0
102
RTVSPost2010PropOp33
 70
     1
102
RTVSPost2010Prop34
280
     0
102
RTVSPost2010PropOp34
 70
     1
102
RTVSPost2010Prop35
280
     0
102
RTVSPost2010PropOp35
 70
     1
102
RTVSPost2010Prop36
280
     0
102
RTVSPost2010PropOp36
 70
     1
102
RTVSPost2010Prop37
 90
       50
102
RTVSPost2010PropOp37
 70
     1
102
RTVSPost2010Prop38
140
0.0
102
RTVSPost2010PropOp38
 70
     1
102
RTVSPost2010Prop39
140
1.0
102
RTVSPost2010PropOp39
 70
     1
102
RTVSPost2010Prop40
 90
        0
102
RTVSPost2010PropOp40
 70
     1
102
RTVSPost2010Prop41ColorIndex
 90
       18
102
RTVSPost2010Prop41ColorRGB
 90
        0
102
RTVSPost2010PropOp41
 70
     1
102
RTVSPost2010Prop42
 90
       50
102
RTVSPost2010PropOp42
 70
     1
102
RTVSPost2010Prop43
 90
        3
102
RTVSPost2010PropOp43
 70
     1
102
RTVSPost2010Prop44ColorIndex
 90
        5
102
RTVSPost2010Prop44ColorRGB
 90
      255
102
RTVSPost2010PropOp44
 70
     1
102
RTVSPost2010Prop45
280
     0
102
RTVSPost2010PropOp45
 70
     1
102
RTVSPost2010Prop46
 90
       50
102
RTVSPost2010PropOp46
 70
     1
102
RTVSPost2010Prop47
 90
       50
102
RTVSPost2010PropOp47
 70
     1
102
RTVSPost2010Prop48
 90
       50
102
RTVSPost2010PropOp48
 70
     1
102
RTVSPost2010Prop49
280
     0
102
RTVSPost2010PropOp49
 70
     1
102
RTVSPost2010Prop50
 90
       50
102
RTVSPost2010PropOp50
 70
     1
102
RTVSPost2010Prop51ColorIndex
 90
      256
102
RTVSPost2010Prop51ColorRGB
 90
-16777216
102
RTVSPost2010PropOp51
 70
     0
102
RTVSPost2010Prop52
140
1.0
102
RTVSPost2010PropOp52
 70
     0
102
RTVSPost2010Prop53
 90
        2
102
RTVSPost2010PropOp53
 70
     1
102
RTVSPost2010Prop54
  1
strokes_ogs.tif
102
RTVSPost2010PropOp54
 70
     1
102
RTVSPost2010Prop55
280
     0
102
RTVSPost2010PropOp55
 70
     1
102
RTVSPost2010Prop56
140
1.0
102
RTVSPost2010PropOp56
 70
     1
102
RTVSPost2010Prop57
140
1.0
102
RTVSPost2010PropOp57
 70
     1
102
RTVSPropertyOp0
 70
     1
102
RTVSPropertyOp1
 70
     1
102
RTVSPropertyOp2
 70
     1
102
RTVSPropertyOp3
 70
     1
102
RTVSPropertyOp4
 70
     1
102
RTVSPropertyOp5
 70
     1
102
RTVSPropertyOp6
 70
     1
102
RTVSPropertyOp7
 70
     1
102
RTVSPropertyOp8
 70
     1
102
RTVSPropertyOp9
 70
     1
102
RTVSPropertyOp10
 70
     1
102
RTVSPropertyOp11
 70
     1
102
RTVSPropertyOp12
 70
     1
102
RTVSPropertyOp13
 70
     1
102
RTVSPropertyOp14
 70
     1
102
RTVSPropertyOp15
 70
     1
102
RTVSPropertyOp16
 70
     1
102
RTVSPropertyOp17
 70
     1
102
RTVSPropertyOp18
 70
     1
102
RTVSPropertyOp19
 70
     1
102
RTVSPropertyOp20
 70
     1
102
RTVSPropertyOp21
 70
     1
102
RTVSPropertyOp22
 70
     1
102
RTVSPropertyOp23
 70
     1
102
RTVSPropertyOp24
 70
     1
102
RTVSPropertyOp25
 70
     1
102
RTVSPropertyOp26
 70
     1
102
RTVSPropertyOp27
 70
     1
102
RTVSPropertyOp28
 70
     1
102
RTVSPropertyOp29
 70
     1
102
RTVSPropertyOp30
 70
     1
102
RTVSPropertyOp31
 70
     1
102
RTVSPropertyOp32
 70
     1
102
RTVSPropertyOp33
 70
     1
102
RTVSPropertyOp34
 70
     1
102
RTVSPropertyOp35
 70
     1
102
RTVSPropertyOp36
 70
     1
102
RTVSPropertyOp37
 70
     1
102
RTVSPropertyOp38
 70
     1
102
RTVSPropertyOp39
 70
     1
102
RTVSPropertyOp40
 70
     1
102
RTVSPropertyOp41
 70
     1
102
RTVSPropertyOp42
 70
     1
102
RTVSPropertyOp43
 70
     1
102
RTVSPropertyOp44
 70
     1
102
RTVSPropertyOp45
 70
     1
102
RTVSPropertyOp46
 70
     1
102
RTVSPropertyOp47
 70
     1
102
RTVSPropertyOp48
 70
     1
102
RTVSPropertyOp49
 70
     1
102
RTVSPropertyOp50
 70
     1
102
RTVSPropertyOp51
 70
     0
102
RTVSPropertyOp52
 70
     0
102
RTVSPropertyOp53
 70
     1
102
RTVSPropertyOp54
 70
     1
102
RTVSPropertyOp55
 70
     1
102
RTVSPropertyOp56
 70
     1
102
RTVSPropertyOp57
 70
     1
102
RTVSPropertyOp58
 70
     1
102
RTVSPropertyOp59
 70
     1
102
RTVSPropertyOp60
 70
     1
102
RTVSPropertyOp61
 70
     1
102
RTVSPropertyOp62
 70
     1
  0
XRECORD
  5
472
102
{ACAD_REACTORS
330
471
102
}
330
471
100
AcDbXrecord
280
     1
102
RTVSPost2010Prop28
280
     0
102
RTVSPost2010PropOp28
 70
     1
102
RTVSPost2010Prop29
280
     1
102
RTVSPost2010PropOp29
 70
     1
102
RTVSPost2010Prop30
280
     1
102
RTVSPost2010PropOp30
 70
     1
102
RTVSPost2010Prop31
280
     0
102
RTVSPost2010PropOp31
 70
     1
102
RTVSPost2010Prop32
280
     0
102
RTVSPost2010PropOp32
 70
     1
102
RTVSPost2010Prop33
280
     0
102
RTVSPost2010PropOp33
 70
     1
102
RTVSPost2010Prop34
280
     0
102
RTVSPost2010PropOp34
 70
     1
102
RTVSPost2010Prop35
280
     0
102
RTVSPost2010PropOp35
 70
     1
102
RTVSPost2010Prop36
280
     0
102
RTVSPost2010PropOp36
 70
     1
102
RTVSPost2010Prop37
 90
       50
102
RTVSPost2010PropOp37
 70
     0
102
RTVSPost2010Prop38
140
0.0
102
RTVSPost2010PropOp38
 70
     0
102
RTVSPost2010Prop39
140
1.0
102
RTVSPost2010PropOp39
 70
     0
102
RTVSPost2010Prop40
 90
        0
102
RTVSPost2010PropOp40
 70
     0
102
RTVSPost2010Prop41ColorIndex
 90
       18
102
RTVSPost2010Prop41ColorRGB
 90
        0
102
RTVSPost2010PropOp41
 70
     0
102
RTVSPost2010Prop42
 90
       50
102
RTVSPost2010PropOp42
 70
     0
102
RTVSPost2010Prop43
 90
        3
102
RTVSPost2010PropOp43
 70
     0
102
RTVSPost2010Prop44ColorIndex
 90
        5
102
RTVSPost2010Prop44ColorRGB
 90
      255
102
RTVSPost2010PropOp44
 70
     0
102
RTVSPost2010Prop45
280
     0
102
RTVSPost2010PropOp45
 70
     1
102
RTVSPost2010Prop46
 90
       50
102
RTVSPost2010PropOp46
 70
     0
102
RTVSPost2010Prop47
 90
       50
102
RTVSPost2010PropOp47
 70
     0
102
RTVSPost2010Prop48
 90
       50
102
RTVSPost2010PropOp48
 70
     0
102
RTVSPost2010Prop49
280
     0
102
RTVSPost2010PropOp49
 70
     1
102
RTVSPost2010Prop50
 90
       50
102
RTVSPost2010PropOp50
 70
     0
102
RTVSPost2010Prop51ColorIndex
 90
      256
102
RTVSPost2010Prop51ColorRGB
 90
-16777216
102
RTVSPost2010PropOp51
 70
     0
102
RTVSPost2010Prop52
140
1.0
102
RTVSPost2010PropOp52
 70
     0
102
RTVSPost2010Prop53
 90
        2
102
RTVSPost2010PropOp53
 70
     0
102
RTVSPost2010Prop54
  1
strokes_ogs.tif
102
RTVSPost2010PropOp54
 70
     0
102
RTVSPost2010Prop55
280
     0
102
RTVSPost2010PropOp55
 70
     1
102
RTVSPost2010Prop56
140
1.0
102
RTVSPost2010PropOp56
 70
     0
102
RTVSPost2010Prop57
140
1.0
102
RTVSPost2010PropOp57
 70
     0
102
RTVSPropertyOp0
 70
     0
102
RTVSPropertyOp1
 70
     0
102
RTVSPropertyOp2
 70
     0
102
RTVSPropertyOp3
 70
     0
102
RTVSPropertyOp4
 70
     0
102
RTVSPropertyOp5
 70
     0
102
RTVSPropertyOp6
 70
     0
102
RTVSPropertyOp7
 70
     0
102
RTVSPropertyOp8
 70
     0
102
RTVSPropertyOp9
 70
     0
102
RTVSPropertyOp10
 70
     0
102
RTVSPropertyOp11
 70
     0
102
RTVSPropertyOp12
 70
     0
102
RTVSPropertyOp13
 70
     0
102
RTVSPropertyOp14
 70
     2
102
RTVSPropertyOp15
 70
     0
102
RTVSPropertyOp16
 70
     0
102
RTVSPropertyOp17
 70
     0
102
RTVSPropertyOp18
 70
     0
102
RTVSPropertyOp19
 70
     0
102
RTVSPropertyOp20
 70
     0
102
RTVSPropertyOp21
 70
     0
102
RTVSPropertyOp22
 70
     0
102
RTVSPropertyOp23
 70
     0
102
RTVSPropertyOp24
 70
     0
102
RTVSPropertyOp25
 70
     0
102
RTVSPropertyOp26
 70
     0
102
RTVSPropertyOp27
 70
     0
102
RTVSPropertyOp28
 70
     1
102
RTVSPropertyOp29
 70
     1
102
RTVSPropertyOp30
 70
     1
102
RTVSPropertyOp31
 70
     1
102
RTVSPropertyOp32
 70
     1
102
RTVSPropertyOp33
 70
     1
102
RTVSPropertyOp34
 70
     1
102
RTVSPropertyOp35
 70
     1
102
RTVSPropertyOp36
 70
     1
102
RTVSPropertyOp37
 70
     0
102
RTVSPropertyOp38
 70
     0
102
RTVSPropertyOp39
 70
     0
102
RTVSPropertyOp40
 70
     0
102
RTVSPropertyOp41
 70
     0
102
RTVSPropertyOp42
 70
     0
102
RTVSPropertyOp43
 70
     0
102
RTVSPropertyOp44
 70
     0
102
RTVSPropertyOp45
 70
     1
102
RTVSPropertyOp46
 70
     0
102
RTVSPropertyOp47
 70
     0
102
RTVSPropertyOp48
 70
     0
102
RTVSPropertyOp49
 70
     1
102
RTVSPropertyOp50
 70
     0
102
RTVSPropertyOp51
 70
     0
102
RTVSPropertyOp52
 70
     0
102
RTVSPropertyOp53
 70
     0
102
RTVSPropertyOp54
 70
     0
102
RTVSPropertyOp55
 70
     1
102
RTVSPropertyOp56
 70
     0
102
RTVSPropertyOp57
 70
     0
102
RTVSPropertyOp58
 70
     0
102
RTVSPropertyOp59
 70
     0
102
RTVSPropertyOp60
 70
     0
102
RTVSPropertyOp61
 70
     0
102
RTVSPropertyOp62
 70
     0
  0
XRECORD
  5
458
102
{ACAD_REACTORS
330
457
102
}
330
457
100
AcDbXrecord
280
     1
102
RTVSPost2010Prop28
280
     0
102
RTVSPost2010PropOp28
 70
     1
102
RTVSPost2010Prop29
280
     1
102
RTVSPost2010PropOp29
 70
     1
102
RTVSPost2010Prop30
280
     1
102
RTVSPost2010PropOp30
 70
     1
102
RTVSPost2010Prop31
280
     0
102
RTVSPost2010PropOp31
 70
     1
102
RTVSPost2010Prop32
280
     0
102
RTVSPost2010PropOp32
 70
     1
102
RTVSPost2010Prop33
280
     0
102
RTVSPost2010PropOp33
 70
     1
102
RTVSPost2010Prop34
280
     0
102
RTVSPost2010PropOp34
 70
     1
102
RTVSPost2010Prop35
280
     0
102
RTVSPost2010PropOp35
 70
     1
102
RTVSPost2010Prop36
280
     0
102
RTVSPost2010PropOp36
 70
     1
102
RTVSPost2010Prop37
 90
       50
102
RTVSPost2010PropOp37
 70
     1
102
RTVSPost2010Prop38
140
0.0
102
RTVSPost2010PropOp38
 70
     1
102
RTVSPost2010Prop39
140
1.0
102
RTVSPost2010PropOp39
 70
     1
102
RTVSPost2010Prop40
 90
        0
102
RTVSPost2010PropOp40
 70
     1
102
RTVSPost2010Prop41ColorIndex
 90
       18
102
RTVSPost2010Prop41ColorRGB
 90
        0
102
RTVSPost2010PropOp41
 70
     1
102
RTVSPost2010Prop42
 90
       50
102
RTVSPost2010PropOp42
 70
     1
102
RTVSPost2010Prop43
 90
        3
102
RTVSPost2010PropOp43
 70
     1
102
RTVSPost2010Prop44ColorIndex
 90
        5
102
RTVSPost2010Prop44ColorRGB
 90
      255
102
RTVSPost2010PropOp44
 70
     1
102
RTVSPost2010Prop45
280
     0
102
RTVSPost2010PropOp45
 70
     1
102
RTVSPost2010Prop46
 90
       50
102
RTVSPost2010PropOp46
 70
     1
102
RTVSPost2010Prop47
 90
       50
102
RTVSPost2010PropOp47
 70
     1
102
RTVSPost2010Prop48
 90
       50
102
RTVSPost2010PropOp48
 70
     1
102
RTVSPost2010Prop49
280
     0
102
RTVSPost2010PropOp49
 70
     1
102
RTVSPost2010Prop50
 90
       50
102
RTVSPost2010PropOp50
 70
     1
102
RTVSPost2010Prop51ColorIndex
 90
      256
102
RTVSPost2010Prop51ColorRGB
 90
-16777216
102
RTVSPost2010PropOp51
 70
     0
102
RTVSPost2010Prop52
140
1.0
102
RTVSPost2010PropOp52
 70
     0
102
RTVSPost2010Prop53
 90
        2
102
RTVSPost2010PropOp53
 70
     1
102
RTVSPost2010Prop54
  1
strokes_ogs.tif
102
RTVSPost2010PropOp54
 70
     1
102
RTVSPost2010Prop55
280
     0
102
RTVSPost2010PropOp55
 70
     1
102
RTVSPost2010Prop56
140
1.0
102
RTVSPost2010PropOp56
 70
     1
102
RTVSPost2010Prop57
140
1.0
102
RTVSPost2010PropOp57
 70
     1
102
RTVSPropertyOp0
 70
     1
102
RTVSPropertyOp1
 70
     1
102
RTVSPropertyOp2
 70
     1
102
RTVSPropertyOp3
 70
     1
102
RTVSPropertyOp4
 70
     1
102
RTVSPropertyOp5
 70
     1
102
RTVSPropertyOp6
 70
     1
102
RTVSPropertyOp7
 70
     1
102
RTVSPropertyOp8
 70
     1
102
RTVSPropertyOp9
 70
     1
102
RTVSPropertyOp10
 70
     1
102
RTVSPropertyOp11
 70
     1
102
RTVSPropertyOp12
 70
     1
102
RTVSPropertyOp13
 70
     1
102
RTVSPropertyOp14
 70
     1
102
RTVSPropertyOp15
 70
     1
102
RTVSPropertyOp16
 70
     1
102
RTVSPropertyOp17
 70
     1
102
RTVSPropertyOp18
 70
     1
102
RTVSPropertyOp19
 70
     1
102
RTVSPropertyOp20
 70
     1
102
RTVSPropertyOp21
 70
     1
102
RTVSPropertyOp22
 70
     1
102
RTVSPropertyOp23
 70
     1
102
RTVSPropertyOp24
 70
     1
102
RTVSPropertyOp25
 70
     1
102
RTVSPropertyOp26
 70
     1
102
RTVSPropertyOp27
 70
     1
102
RTVSPropertyOp28
 70
     1
102
RTVSPropertyOp29
 70
     1
102
RTVSPropertyOp30
 70
     1
102
RTVSPropertyOp31
 70
     1
102
RTVSPropertyOp32
 70
     1
102
RTVSPropertyOp33
 70
     1
102
RTVSPropertyOp34
 70
     1
102
RTVSPropertyOp35
 70
     1
102
RTVSPropertyOp36
 70
     1
102
RTVSPropertyOp37
 70
     1
102
RTVSPropertyOp38
 70
     1
102
RTVSPropertyOp39
 70
     1
102
RTVSPropertyOp40
 70
     1
102
RTVSPropertyOp41
 70
     1
102
RTVSPropertyOp42
 70
     1
102
RTVSPropertyOp43
 70
     1
102
RTVSPropertyOp44
 70
     1
102
RTVSPropertyOp45
 70
     1
102
RTVSPropertyOp46
 70
     1
102
RTVSPropertyOp47
 70
     1
102
RTVSPropertyOp48
 70
     1
102
RTVSPropertyOp49
 70
     1
102
RTVSPropertyOp50
 70
     1
102
RTVSPropertyOp51
 70
     0
102
RTVSPropertyOp52
 70
     0
102
RTVSPropertyOp53
 70
     1
102
RTVSPropertyOp54
 70
     1
102
RTVSPropertyOp55
 70
     1
102
RTVSPropertyOp56
 70
     1
102
RTVSPropertyOp57
 70
     1
102
RTVSPropertyOp58
 70
     1
102
RTVSPropertyOp59
 70
     1
102
RTVSPropertyOp60
 70
     1
102
RTVSPropertyOp61
 70
     1
102
RTVSPropertyOp62
 70
     1
  0
XRECORD
  5
46E
102
{ACAD_REACTORS
330
46D
102
}
330
46D
100
AcDbXrecord
280
     1
102
RTVSPost2010Prop28
280
     0
102
RTVSPost2010PropOp28
 70
     1
102
RTVSPost2010Prop29
280
     1
102
RTVSPost2010PropOp29
 70
     1
102
RTVSPost2010Prop30
280
     1
102
RTVSPost2010PropOp30
 70
     1
102
RTVSPost2010Prop31
280
     0
102
RTVSPost2010PropOp31
 70
     1
102
RTVSPost2010Prop32
280
     0
102
RTVSPost2010PropOp32
 70
     1
102
RTVSPost2010Prop33
280
     0
102
RTVSPost2010PropOp33
 70
     1
102
RTVSPost2010Prop34
280
     0
102
RTVSPost2010PropOp34
 70
     1
102
RTVSPost2010Prop35
280
     0
102
RTVSPost2010PropOp35
 70
     1
102
RTVSPost2010Prop36
280
     0
102
RTVSPost2010PropOp36
 70
     1
102
RTVSPost2010Prop37
 90
       50
102
RTVSPost2010PropOp37
 70
     1
102
RTVSPost2010Prop38
140
0.0
102
RTVSPost2010PropOp38
 70
     1
102
RTVSPost2010Prop39
140
1.0
102
RTVSPost2010PropOp39
 70
     1
102
RTVSPost2010Prop40
 90
        0
102
RTVSPost2010PropOp40
 70
     1
102
RTVSPost2010Prop41ColorIndex
 90
       18
102
RTVSPost2010Prop41ColorRGB
 90
        0
102
RTVSPost2010PropOp41
 70
     1
102
RTVSPost2010Prop42
 90
       50
102
RTVSPost2010PropOp42
 70
     1
102
RTVSPost2010Prop43
 90
        3
102
RTVSPost2010PropOp43
 70
     1
102
RTVSPost2010Prop44ColorIndex
 90
        5
102
RTVSPost2010Prop44ColorRGB
 90
      255
102
RTVSPost2010PropOp44
 70
     1
102
RTVSPost2010Prop45
280
     0
102
RTVSPost2010PropOp45
 70
     1
102
RTVSPost2010Prop46
 90
       50
102
RTVSPost2010PropOp46
 70
     1
102
RTVSPost2010Prop47
 90
       50
102
RTVSPost2010PropOp47
 70
     1
102
RTVSPost2010Prop48
 90
       50
102
RTVSPost2010PropOp48
 70
     1
102
RTVSPost2010Prop49
280
     0
102
RTVSPost2010PropOp49
 70
     1
102
RTVSPost2010Prop50
 90
       50
102
RTVSPost2010PropOp50
 70
     1
102
RTVSPost2010Prop51ColorIndex
 90
      256
102
RTVSPost2010Prop51ColorRGB
 90
-16777216
102
RTVSPost2010PropOp51
 70
     0
102
RTVSPost2010Prop52
140
1.0
102
RTVSPost2010PropOp52
 70
     0
102
RTVSPost2010Prop53
 90
        2
102
RTVSPost2010PropOp53
 70
     1
102
RTVSPost2010Prop54
  1
strokes_ogs.tif
102
RTVSPost2010PropOp54
 70
     1
102
RTVSPost2010Prop55
280
     0
102
RTVSPost2010PropOp55
 70
     1
102
RTVSPost2010Prop56
140
1.0
102
RTVSPost2010PropOp56
 70
     1
102
RTVSPost2010Prop57
140
1.0
102
RTVSPost2010PropOp57
 70
     1
102
RTVSPropertyOp0
 70
     1
102
RTVSPropertyOp1
 70
     1
102
RTVSPropertyOp2
 70
     1
102
RTVSPropertyOp3
 70
     1
102
RTVSPropertyOp4
 70
     1
102
RTVSPropertyOp5
 70
     1
102
RTVSPropertyOp6
 70
     1
102
RTVSPropertyOp7
 70
     1
102
RTVSPropertyOp8
 70
     1
102
RTVSPropertyOp9
 70
     1
102
RTVSPropertyOp10
 70
     1
102
RTVSPropertyOp11
 70
     1
102
RTVSPropertyOp12
 70
     1
102
RTVSPropertyOp13
 70
     1
102
RTVSPropertyOp14
 70
     1
102
RTVSPropertyOp15
 70
     1
102
RTVSPropertyOp16
 70
     1
102
RTVSPropertyOp17
 70
     1
102
RTVSPropertyOp18
 70
     1
102
RTVSPropertyOp19
 70
     1
102
RTVSPropertyOp20
 70
     1
102
RTVSPropertyOp21
 70
     1
102
RTVSPropertyOp22
 70
     1
102
RTVSPropertyOp23
 70
     1
102
RTVSPropertyOp24
 70
     1
102
RTVSPropertyOp25
 70
     1
102
RTVSPropertyOp26
 70
     1
102
RTVSPropertyOp27
 70
     1
102
RTVSPropertyOp28
 70
     1
102
RTVSPropertyOp29
 70
     1
102
RTVSPropertyOp30
 70
     1
102
RTVSPropertyOp31
 70
     1
102
RTVSPropertyOp32
 70
     1
102
RTVSPropertyOp33
 70
     1
102
RTVSPropertyOp34
 70
     1
102
RTVSPropertyOp35
 70
     1
102
RTVSPropertyOp36
 70
     1
102
RTVSPropertyOp37
 70
     1
102
RTVSPropertyOp38
 70
     1
102
RTVSPropertyOp39
 70
     1
102
RTVSPropertyOp40
 70
     1
102
RTVSPropertyOp41
 70
     1
102
RTVSPropertyOp42
 70
     1
102
RTVSPropertyOp43
 70
     1
102
RTVSPropertyOp44
 70
     1
102
RTVSPropertyOp45
 70
     1
102
RTVSPropertyOp46
 70
     1
102
RTVSPropertyOp47
 70
     1
102
RTVSPropertyOp48
 70
     1
102
RTVSPropertyOp49
 70
     1
102
RTVSPropertyOp50
 70
     1
102
RTVSPropertyOp51
 70
     0
102
RTVSPropertyOp52
 70
     0
102
RTVSPropertyOp53
 70
     1
102
RTVSPropertyOp54
 70
     1
102
RTVSPropertyOp55
 70
     1
102
RTVSPropertyOp56
 70
     1
102
RTVSPropertyOp57
 70
     1
102
RTVSPropertyOp58
 70
     1
102
RTVSPropertyOp59
 70
     1
102
RTVSPropertyOp60
 70
     1
102
RTVSPropertyOp61
 70
     1
102
RTVSPropertyOp62
 70
     1
  0
XRECORD
  5
46C
102
{ACAD_REACTORS
330
46B
102
}
330
46B
100
AcDbXrecord
280
     1
102
RTVSPost2010Prop28
280
     0
102
RTVSPost2010PropOp28
 70
     1
102
RTVSPost2010Prop29
280
     1
102
RTVSPost2010PropOp29
 70
     1
102
RTVSPost2010Prop30
280
     1
102
RTVSPost2010PropOp30
 70
     1
102
RTVSPost2010Prop31
280
     0
102
RTVSPost2010PropOp31
 70
     1
102
RTVSPost2010Prop32
280
     0
102
RTVSPost2010PropOp32
 70
     1
102
RTVSPost2010Prop33
280
     0
102
RTVSPost2010PropOp33
 70
     1
102
RTVSPost2010Prop34
280
     0
102
RTVSPost2010PropOp34
 70
     1
102
RTVSPost2010Prop35
280
     0
102
RTVSPost2010PropOp35
 70
     1
102
RTVSPost2010Prop36
280
     0
102
RTVSPost2010PropOp36
 70
     1
102
RTVSPost2010Prop37
 90
       50
102
RTVSPost2010PropOp37
 70
     1
102
RTVSPost2010Prop38
140
0.0
102
RTVSPost2010PropOp38
 70
     1
102
RTVSPost2010Prop39
140
1.0
102
RTVSPost2010PropOp39
 70
     1
102
RTVSPost2010Prop40
 90
        0
102
RTVSPost2010PropOp40
 70
     1
102
RTVSPost2010Prop41ColorIndex
 90
       18
102
RTVSPost2010Prop41ColorRGB
 90
        0
102
RTVSPost2010PropOp41
 70
     1
102
RTVSPost2010Prop42
 90
       50
102
RTVSPost2010PropOp42
 70
     1
102
RTVSPost2010Prop43
 90
        3
102
RTVSPost2010PropOp43
 70
     1
102
RTVSPost2010Prop44ColorIndex
 90
        5
102
RTVSPost2010Prop44ColorRGB
 90
      255
102
RTVSPost2010PropOp44
 70
     1
102
RTVSPost2010Prop45
280
     0
102
RTVSPost2010PropOp45
 70
     1
102
RTVSPost2010Prop46
 90
       50
102
RTVSPost2010PropOp46
 70
     1
102
RTVSPost2010Prop47
 90
       50
102
RTVSPost2010PropOp47
 70
     1
102
RTVSPost2010Prop48
 90
       50
102
RTVSPost2010PropOp48
 70
     1
102
RTVSPost2010Prop49
280
     0
102
RTVSPost2010PropOp49
 70
     1
102
RTVSPost2010Prop50
 90
       50
102
RTVSPost2010PropOp50
 70
     1
102
RTVSPost2010Prop51ColorIndex
 90
      256
102
RTVSPost2010Prop51ColorRGB
 90
-16777216
102
RTVSPost2010PropOp51
 70
     0
102
RTVSPost2010Prop52
140
1.0
102
RTVSPost2010PropOp52
 70
     0
102
RTVSPost2010Prop53
 90
        2
102
RTVSPost2010PropOp53
 70
     1
102
RTVSPost2010Prop54
  1
strokes_ogs.tif
102
RTVSPost2010PropOp54
 70
     1
102
RTVSPost2010Prop55
280
     0
102
RTVSPost2010PropOp55
 70
     1
102
RTVSPost2010Prop56
140
1.0
102
RTVSPost2010PropOp56
 70
     1
102
RTVSPost2010Prop57
140
1.0
102
RTVSPost2010PropOp57
 70
     1
102
RTVSPropertyOp0
 70
     1
102
RTVSPropertyOp1
 70
     1
102
RTVSPropertyOp2
 70
     1
102
RTVSPropertyOp3
 70
     1
102
RTVSPropertyOp4
 70
     1
102
RTVSPropertyOp5
 70
     1
102
RTVSPropertyOp6
 70
     1
102
RTVSPropertyOp7
 70
     1
102
RTVSPropertyOp8
 70
     1
102
RTVSPropertyOp9
 70
     1
102
RTVSPropertyOp10
 70
     1
102
RTVSPropertyOp11
 70
     1
102
RTVSPropertyOp12
 70
     1
102
RTVSPropertyOp13
 70
     1
102
RTVSPropertyOp14
 70
     1
102
RTVSPropertyOp15
 70
     1
102
RTVSPropertyOp16
 70
     1
102
RTVSPropertyOp17
 70
     1
102
RTVSPropertyOp18
 70
     1
102
RTVSPropertyOp19
 70
     1
102
RTVSPropertyOp20
 70
     1
102
RTVSPropertyOp21
 70
     1
102
RTVSPropertyOp22
 70
     1
102
RTVSPropertyOp23
 70
     1
102
RTVSPropertyOp24
 70
     1
102
RTVSPropertyOp25
 70
     1
102
RTVSPropertyOp26
 70
     1
102
RTVSPropertyOp27
 70
     1
102
RTVSPropertyOp28
 70
     1
102
RTVSPropertyOp29
 70
     1
102
RTVSPropertyOp30
 70
     1
102
RTVSPropertyOp31
 70
     1
102
RTVSPropertyOp32
 70
     1
102
RTVSPropertyOp33
 70
     1
102
RTVSPropertyOp34
 70
     1
102
RTVSPropertyOp35
 70
     1
102
RTVSPropertyOp36
 70
     1
102
RTVSPropertyOp37
 70
     1
102
RTVSPropertyOp38
 70
     1
102
RTVSPropertyOp39
 70
     1
102
RTVSPropertyOp40
 70
     1
102
RTVSPropertyOp41
 70
     1
102
RTVSPropertyOp42
 70
     1
102
RTVSPropertyOp43
 70
     1
102
RTVSPropertyOp44
 70
     1
102
RTVSPropertyOp45
 70
     1
102
RTVSPropertyOp46
 70
     1
102
RTVSPropertyOp47
 70
     1
102
RTVSPropertyOp48
 70
     1
102
RTVSPropertyOp49
 70
     1
102
RTVSPropertyOp50
 70
     1
102
RTVSPropertyOp51
 70
     0
102
RTVSPropertyOp52
 70
     0
102
RTVSPropertyOp53
 70
     1
102
RTVSPropertyOp54
 70
     1
102
RTVSPropertyOp55
 70
     1
102
RTVSPropertyOp56
 70
     1
102
RTVSPropertyOp57
 70
     1
102
RTVSPropertyOp58
 70
     1
102
RTVSPropertyOp59
 70
     1
102
RTVSPropertyOp60
 70
     1
102
RTVSPropertyOp61
 70
     1
102
RTVSPropertyOp62
 70
     1
  0
XRECORD
  5
466
102
{ACAD_REACTORS
330
465
102
}
330
465
100
AcDbXrecord
280
     1
102
RTVSPost2010Prop28
280
     0
102
RTVSPost2010PropOp28
 70
     1
102
RTVSPost2010Prop29
280
     1
102
RTVSPost2010PropOp29
 70
     1
102
RTVSPost2010Prop30
280
     1
102
RTVSPost2010PropOp30
 70
     1
102
RTVSPost2010Prop31
280
     0
102
RTVSPost2010PropOp31
 70
     1
102
RTVSPost2010Prop32
280
     0
102
RTVSPost2010PropOp32
 70
     1
102
RTVSPost2010Prop33
280
     0
102
RTVSPost2010PropOp33
 70
     1
102
RTVSPost2010Prop34
280
     0
102
RTVSPost2010PropOp34
 70
     1
102
RTVSPost2010Prop35
280
     0
102
RTVSPost2010PropOp35
 70
     1
102
RTVSPost2010Prop36
280
     0
102
RTVSPost2010PropOp36
 70
     1
102
RTVSPost2010Prop37
 90
       50
102
RTVSPost2010PropOp37
 70
     1
102
RTVSPost2010Prop38
140
0.0
102
RTVSPost2010PropOp38
 70
     1
102
RTVSPost2010Prop39
140
1.0
102
RTVSPost2010PropOp39
 70
     1
102
RTVSPost2010Prop40
 90
        0
102
RTVSPost2010PropOp40
 70
     1
102
RTVSPost2010Prop41ColorIndex
 90
       18
102
RTVSPost2010Prop41ColorRGB
 90
        0
102
RTVSPost2010PropOp41
 70
     1
102
RTVSPost2010Prop42
 90
       50
102
RTVSPost2010PropOp42
 70
     1
102
RTVSPost2010Prop43
 90
        3
102
RTVSPost2010PropOp43
 70
     1
102
RTVSPost2010Prop44ColorIndex
 90
        5
102
RTVSPost2010Prop44ColorRGB
 90
      255
102
RTVSPost2010PropOp44
 70
     1
102
RTVSPost2010Prop45
280
     0
102
RTVSPost2010PropOp45
 70
     1
102
RTVSPost2010Prop46
 90
       50
102
RTVSPost2010PropOp46
 70
     1
102
RTVSPost2010Prop47
 90
       50
102
RTVSPost2010PropOp47
 70
     1
102
RTVSPost2010Prop48
 90
       50
102
RTVSPost2010PropOp48
 70
     1
102
RTVSPost2010Prop49
280
     0
102
RTVSPost2010PropOp49
 70
     1
102
RTVSPost2010Prop50
 90
       50
102
RTVSPost2010PropOp50
 70
     1
102
RTVSPost2010Prop51ColorIndex
 90
      256
102
RTVSPost2010Prop51ColorRGB
 90
-16777216
102
RTVSPost2010PropOp51
 70
     0
102
RTVSPost2010Prop52
140
1.0
102
RTVSPost2010PropOp52
 70
     0
102
RTVSPost2010Prop53
 90
        2
102
RTVSPost2010PropOp53
 70
     1
102
RTVSPost2010Prop54
  1
strokes_ogs.tif
102
RTVSPost2010PropOp54
 70
     1
102
RTVSPost2010Prop55
280
     0
102
RTVSPost2010PropOp55
 70
     1
102
RTVSPost2010Prop56
140
1.0
102
RTVSPost2010PropOp56
 70
     1
102
RTVSPost2010Prop57
140
1.0
102
RTVSPost2010PropOp57
 70
     1
102
RTVSPropertyOp0
 70
     1
102
RTVSPropertyOp1
 70
     1
102
RTVSPropertyOp2
 70
     1
102
RTVSPropertyOp3
 70
     1
102
RTVSPropertyOp4
 70
     1
102
RTVSPropertyOp5
 70
     1
102
RTVSPropertyOp6
 70
     1
102
RTVSPropertyOp7
 70
     1
102
RTVSPropertyOp8
 70
     1
102
RTVSPropertyOp9
 70
     1
102
RTVSPropertyOp10
 70
     1
102
RTVSPropertyOp11
 70
     1
102
RTVSPropertyOp12
 70
     1
102
RTVSPropertyOp13
 70
     1
102
RTVSPropertyOp14
 70
     1
102
RTVSPropertyOp15
 70
     1
102
RTVSPropertyOp16
 70
     1
102
RTVSPropertyOp17
 70
     1
102
RTVSPropertyOp18
 70
     1
102
RTVSPropertyOp19
 70
     1
102
RTVSPropertyOp20
 70
     1
102
RTVSPropertyOp21
 70
     1
102
RTVSPropertyOp22
 70
     1
102
RTVSPropertyOp23
 70
     1
102
RTVSPropertyOp24
 70
     1
102
RTVSPropertyOp25
 70
     1
102
RTVSPropertyOp26
 70
     1
102
RTVSPropertyOp27
 70
     1
102
RTVSPropertyOp28
 70
     1
102
RTVSPropertyOp29
 70
     1
102
RTVSPropertyOp30
 70
     1
102
RTVSPropertyOp31
 70
     1
102
RTVSPropertyOp32
 70
     1
102
RTVSPropertyOp33
 70
     1
102
RTVSPropertyOp34
 70
     1
102
RTVSPropertyOp35
 70
     1
102
RTVSPropertyOp36
 70
     1
102
RTVSPropertyOp37
 70
     1
102
RTVSPropertyOp38
 70
     1
102
RTVSPropertyOp39
 70
     1
102
RTVSPropertyOp40
 70
     1
102
RTVSPropertyOp41
 70
     1
102
RTVSPropertyOp42
 70
     1
102
RTVSPropertyOp43
 70
     1
102
RTVSPropertyOp44
 70
     1
102
RTVSPropertyOp45
 70
     1
102
RTVSPropertyOp46
 70
     1
102
RTVSPropertyOp47
 70
     1
102
RTVSPropertyOp48
 70
     1
102
RTVSPropertyOp49
 70
     1
102
RTVSPropertyOp50
 70
     1
102
RTVSPropertyOp51
 70
     0
102
RTVSPropertyOp52
 70
     0
102
RTVSPropertyOp53
 70
     1
102
RTVSPropertyOp54
 70
     1
102
RTVSPropertyOp55
 70
     1
102
RTVSPropertyOp56
 70
     1
102
RTVSPropertyOp57
 70
     1
102
RTVSPropertyOp58
 70
     1
102
RTVSPropertyOp59
 70
     1
102
RTVSPropertyOp60
 70
     1
102
RTVSPropertyOp61
 70
     1
102
RTVSPropertyOp62
 70
     1
  0
XRECORD
  5
468
102
{ACAD_REACTORS
330
467
102
}
330
467
100
AcDbXrecord
280
     1
102
RTVSPost2010Prop28
280
     0
102
RTVSPost2010PropOp28
 70
     1
102
RTVSPost2010Prop29
280
     1
102
RTVSPost2010PropOp29
 70
     1
102
RTVSPost2010Prop30
280
     1
102
RTVSPost2010PropOp30
 70
     1
102
RTVSPost2010Prop31
280
     0
102
RTVSPost2010PropOp31
 70
     1
102
RTVSPost2010Prop32
280
     0
102
RTVSPost2010PropOp32
 70
     1
102
RTVSPost2010Prop33
280
     0
102
RTVSPost2010PropOp33
 70
     1
102
RTVSPost2010Prop34
280
     0
102
RTVSPost2010PropOp34
 70
     1
102
RTVSPost2010Prop35
280
     0
102
RTVSPost2010PropOp35
 70
     1
102
RTVSPost2010Prop36
280
     0
102
RTVSPost2010PropOp36
 70
     1
102
RTVSPost2010Prop37
 90
       50
102
RTVSPost2010PropOp37
 70
     1
102
RTVSPost2010Prop38
140
0.0
102
RTVSPost2010PropOp38
 70
     1
102
RTVSPost2010Prop39
140
1.0
102
RTVSPost2010PropOp39
 70
     1
102
RTVSPost2010Prop40
 90
        0
102
RTVSPost2010PropOp40
 70
     1
102
RTVSPost2010Prop41ColorIndex
 90
       18
102
RTVSPost2010Prop41ColorRGB
 90
        0
102
RTVSPost2010PropOp41
 70
     1
102
RTVSPost2010Prop42
 90
       50
102
RTVSPost2010PropOp42
 70
     1
102
RTVSPost2010Prop43
 90
        3
102
RTVSPost2010PropOp43
 70
     1
102
RTVSPost2010Prop44ColorIndex
 90
        5
102
RTVSPost2010Prop44ColorRGB
 90
      255
102
RTVSPost2010PropOp44
 70
     1
102
RTVSPost2010Prop45
280
     0
102
RTVSPost2010PropOp45
 70
     1
102
RTVSPost2010Prop46
 90
       50
102
RTVSPost2010PropOp46
 70
     1
102
RTVSPost2010Prop47
 90
       50
102
RTVSPost2010PropOp47
 70
     1
102
RTVSPost2010Prop48
 90
       50
102
RTVSPost2010PropOp48
 70
     1
102
RTVSPost2010Prop49
280
     0
102
RTVSPost2010PropOp49
 70
     1
102
RTVSPost2010Prop50
 90
       50
102
RTVSPost2010PropOp50
 70
     1
102
RTVSPost2010Prop51ColorIndex
 90
      256
102
RTVSPost2010Prop51ColorRGB
 90
-16777216
102
RTVSPost2010PropOp51
 70
     0
102
RTVSPost2010Prop52
140
1.0
102
RTVSPost2010PropOp52
 70
     0
102
RTVSPost2010Prop53
 90
        2
102
RTVSPost2010PropOp53
 70
     1
102
RTVSPost2010Prop54
  1
strokes_ogs.tif
102
RTVSPost2010PropOp54
 70
     1
102
RTVSPost2010Prop55
280
     0
102
RTVSPost2010PropOp55
 70
     1
102
RTVSPost2010Prop56
140
1.0
102
RTVSPost2010PropOp56
 70
     1
102
RTVSPost2010Prop57
140
1.0
102
RTVSPost2010PropOp57
 70
     1
102
RTVSPropertyOp0
 70
     1
102
RTVSPropertyOp1
 70
     1
102
RTVSPropertyOp2
 70
     1
102
RTVSPropertyOp3
 70
     1
102
RTVSPropertyOp4
 70
     1
102
RTVSPropertyOp5
 70
     1
102
RTVSPropertyOp6
 70
     1
102
RTVSPropertyOp7
 70
     1
102
RTVSPropertyOp8
 70
     1
102
RTVSPropertyOp9
 70
     1
102
RTVSPropertyOp10
 70
     1
102
RTVSPropertyOp11
 70
     1
102
RTVSPropertyOp12
 70
     1
102
RTVSPropertyOp13
 70
     1
102
RTVSPropertyOp14
 70
     1
102
RTVSPropertyOp15
 70
     1
102
RTVSPropertyOp16
 70
     1
102
RTVSPropertyOp17
 70
     1
102
RTVSPropertyOp18
 70
     1
102
RTVSPropertyOp19
 70
     1
102
RTVSPropertyOp20
 70
     1
102
RTVSPropertyOp21
 70
     1
102
RTVSPropertyOp22
 70
     1
102
RTVSPropertyOp23
 70
     1
102
RTVSPropertyOp24
 70
     1
102
RTVSPropertyOp25
 70
     1
102
RTVSPropertyOp26
 70
     1
102
RTVSPropertyOp27
 70
     1
102
RTVSPropertyOp28
 70
     1
102
RTVSPropertyOp29
 70
     1
102
RTVSPropertyOp30
 70
     1
102
RTVSPropertyOp31
 70
     1
102
RTVSPropertyOp32
 70
     1
102
RTVSPropertyOp33
 70
     1
102
RTVSPropertyOp34
 70
     1
102
RTVSPropertyOp35
 70
     1
102
RTVSPropertyOp36
 70
     1
102
RTVSPropertyOp37
 70
     1
102
RTVSPropertyOp38
 70
     1
102
RTVSPropertyOp39
 70
     1
102
RTVSPropertyOp40
 70
     1
102
RTVSPropertyOp41
 70
     1
102
RTVSPropertyOp42
 70
     1
102
RTVSPropertyOp43
 70
     1
102
RTVSPropertyOp44
 70
     1
102
RTVSPropertyOp45
 70
     1
102
RTVSPropertyOp46
 70
     1
102
RTVSPropertyOp47
 70
     1
102
RTVSPropertyOp48
 70
     1
102
RTVSPropertyOp49
 70
     1
102
RTVSPropertyOp50
 70
     1
102
RTVSPropertyOp51
 70
     0
102
RTVSPropertyOp52
 70
     0
102
RTVSPropertyOp53
 70
     1
102
RTVSPropertyOp54
 70
     1
102
RTVSPropertyOp55
 70
     1
102
RTVSPropertyOp56
 70
     1
102
RTVSPropertyOp57
 70
     1
102
RTVSPropertyOp58
 70
     1
102
RTVSPropertyOp59
 70
     1
102
RTVSPropertyOp60
 70
     1
102
RTVSPropertyOp61
 70
     1
102
RTVSPropertyOp62
 70
     1
  0
XRECORD
  5
45E
102
{ACAD_REACTORS
330
45D
102
}
330
45D
100
AcDbXrecord
280
     1
102
RTVSPost2010Prop28
280
     0
102
RTVSPost2010PropOp28
 70
     1
102
RTVSPost2010Prop29
280
     1
102
RTVSPost2010PropOp29
 70
     1
102
RTVSPost2010Prop30
280
     1
102
RTVSPost2010PropOp30
 70
     1
102
RTVSPost2010Prop31
280
     0
102
RTVSPost2010PropOp31
 70
     1
102
RTVSPost2010Prop32
280
     0
102
RTVSPost2010PropOp32
 70
     1
102
RTVSPost2010Prop33
280
     0
102
RTVSPost2010PropOp33
 70
     1
102
RTVSPost2010Prop34
280
     0
102
RTVSPost2010PropOp34
 70
     1
102
RTVSPost2010Prop35
280
     0
102
RTVSPost2010PropOp35
 70
     1
102
RTVSPost2010Prop36
280
     0
102
RTVSPost2010PropOp36
 70
     1
102
RTVSPost2010Prop37
 90
       50
102
RTVSPost2010PropOp37
 70
     1
102
RTVSPost2010Prop38
140
0.0
102
RTVSPost2010PropOp38
 70
     1
102
RTVSPost2010Prop39
140
1.0
102
RTVSPost2010PropOp39
 70
     1
102
RTVSPost2010Prop40
 90
        0
102
RTVSPost2010PropOp40
 70
     1
102
RTVSPost2010Prop41ColorIndex
 90
       18
102
RTVSPost2010Prop41ColorRGB
 90
        0
102
RTVSPost2010PropOp41
 70
     1
102
RTVSPost2010Prop42
 90
       50
102
RTVSPost2010PropOp42
 70
     1
102
RTVSPost2010Prop43
 90
        3
102
RTVSPost2010PropOp43
 70
     1
102
RTVSPost2010Prop44ColorIndex
 90
        5
102
RTVSPost2010Prop44ColorRGB
 90
      255
102
RTVSPost2010PropOp44
 70
     1
102
RTVSPost2010Prop45
280
     0
102
RTVSPost2010PropOp45
 70
     1
102
RTVSPost2010Prop46
 90
       50
102
RTVSPost2010PropOp46
 70
     1
102
RTVSPost2010Prop47
 90
       50
102
RTVSPost2010PropOp47
 70
     1
102
RTVSPost2010Prop48
 90
       50
102
RTVSPost2010PropOp48
 70
     1
102
RTVSPost2010Prop49
280
     0
102
RTVSPost2010PropOp49
 70
     1
102
RTVSPost2010Prop50
 90
       50
102
RTVSPost2010PropOp50
 70
     1
102
RTVSPost2010Prop51ColorIndex
 90
      256
102
RTVSPost2010Prop51ColorRGB
 90
-16777216
102
RTVSPost2010PropOp51
 70
     0
102
RTVSPost2010Prop52
140
1.0
102
RTVSPost2010PropOp52
 70
     0
102
RTVSPost2010Prop53
 90
        2
102
RTVSPost2010PropOp53
 70
     1
102
RTVSPost2010Prop54
  1
strokes_ogs.tif
102
RTVSPost2010PropOp54
 70
     1
102
RTVSPost2010Prop55
280
     0
102
RTVSPost2010PropOp55
 70
     1
102
RTVSPost2010Prop56
140
1.0
102
RTVSPost2010PropOp56
 70
     1
102
RTVSPost2010Prop57
140
1.0
102
RTVSPost2010PropOp57
 70
     1
102
RTVSPropertyOp0
 70
     1
102
RTVSPropertyOp1
 70
     1
102
RTVSPropertyOp2
 70
     1
102
RTVSPropertyOp3
 70
     1
102
RTVSPropertyOp4
 70
     1
102
RTVSPropertyOp5
 70
     1
102
RTVSPropertyOp6
 70
     1
102
RTVSPropertyOp7
 70
     1
102
RTVSPropertyOp8
 70
     1
102
RTVSPropertyOp9
 70
     1
102
RTVSPropertyOp10
 70
     1
102
RTVSPropertyOp11
 70
     1
102
RTVSPropertyOp12
 70
     1
102
RTVSPropertyOp13
 70
     1
102
RTVSPropertyOp14
 70
     1
102
RTVSPropertyOp15
 70
     1
102
RTVSPropertyOp16
 70
     1
102
RTVSPropertyOp17
 70
     1
102
RTVSPropertyOp18
 70
     1
102
RTVSPropertyOp19
 70
     1
102
RTVSPropertyOp20
 70
     1
102
RTVSPropertyOp21
 70
     1
102
RTVSPropertyOp22
 70
     1
102
RTVSPropertyOp23
 70
     1
102
RTVSPropertyOp24
 70
     1
102
RTVSPropertyOp25
 70
     1
102
RTVSPropertyOp26
 70
     1
102
RTVSPropertyOp27
 70
     1
102
RTVSPropertyOp28
 70
     1
102
RTVSPropertyOp29
 70
     1
102
RTVSPropertyOp30
 70
     1
102
RTVSPropertyOp31
 70
     1
102
RTVSPropertyOp32
 70
     1
102
RTVSPropertyOp33
 70
     1
102
RTVSPropertyOp34
 70
     1
102
RTVSPropertyOp35
 70
     1
102
RTVSPropertyOp36
 70
     1
102
RTVSPropertyOp37
 70
     1
102
RTVSPropertyOp38
 70
     1
102
RTVSPropertyOp39
 70
     1
102
RTVSPropertyOp40
 70
     1
102
RTVSPropertyOp41
 70
     1
102
RTVSPropertyOp42
 70
     1
102
RTVSPropertyOp43
 70
     1
102
RTVSPropertyOp44
 70
     1
102
RTVSPropertyOp45
 70
     1
102
RTVSPropertyOp46
 70
     1
102
RTVSPropertyOp47
 70
     1
102
RTVSPropertyOp48
 70
     1
102
RTVSPropertyOp49
 70
     1
102
RTVSPropertyOp50
 70
     1
102
RTVSPropertyOp51
 70
     0
102
RTVSPropertyOp52
 70
     0
102
RTVSPropertyOp53
 70
     1
102
RTVSPropertyOp54
 70
     1
102
RTVSPropertyOp55
 70
     1
102
RTVSPropertyOp56
 70
     1
102
RTVSPropertyOp57
 70
     1
102
RTVSPropertyOp58
 70
     1
102
RTVSPropertyOp59
 70
     1
102
RTVSPropertyOp60
 70
     1
102
RTVSPropertyOp61
 70
     1
102
RTVSPropertyOp62
 70
     1
  0
XRECORD
  5
452
102
{ACAD_REACTORS
330
451
102
}
330
451
100
AcDbXrecord
280
     1
102
RTVSPost2010Prop28
280
     0
102
RTVSPost2010PropOp28
 70
     1
102
RTVSPost2010Prop29
280
     1
102
RTVSPost2010PropOp29
 70
     1
102
RTVSPost2010Prop30
280
     1
102
RTVSPost2010PropOp30
 70
     1
102
RTVSPost2010Prop31
280
     0
102
RTVSPost2010PropOp31
 70
     1
102
RTVSPost2010Prop32
280
     0
102
RTVSPost2010PropOp32
 70
     1
102
RTVSPost2010Prop33
280
     0
102
RTVSPost2010PropOp33
 70
     1
102
RTVSPost2010Prop34
280
     0
102
RTVSPost2010PropOp34
 70
     1
102
RTVSPost2010Prop35
280
     0
102
RTVSPost2010PropOp35
 70
     1
102
RTVSPost2010Prop36
280
     0
102
RTVSPost2010PropOp36
 70
     1
102
RTVSPost2010Prop37
 90
       50
102
RTVSPost2010PropOp37
 70
     1
102
RTVSPost2010Prop38
140
0.0
102
RTVSPost2010PropOp38
 70
     1
102
RTVSPost2010Prop39
140
1.0
102
RTVSPost2010PropOp39
 70
     1
102
RTVSPost2010Prop40
 90
        0
102
RTVSPost2010PropOp40
 70
     1
102
RTVSPost2010Prop41ColorIndex
 90
       18
102
RTVSPost2010Prop41ColorRGB
 90
        0
102
RTVSPost2010PropOp41
 70
     1
102
RTVSPost2010Prop42
 90
       50
102
RTVSPost2010PropOp42
 70
     1
102
RTVSPost2010Prop43
 90
        3
102
RTVSPost2010PropOp43
 70
     1
102
RTVSPost2010Prop44ColorIndex
 90
        5
102
RTVSPost2010Prop44ColorRGB
 90
      255
102
RTVSPost2010PropOp44
 70
     1
102
RTVSPost2010Prop45
280
     0
102
RTVSPost2010PropOp45
 70
     1
102
RTVSPost2010Prop46
 90
       50
102
RTVSPost2010PropOp46
 70
     1
102
RTVSPost2010Prop47
 90
       50
102
RTVSPost2010PropOp47
 70
     1
102
RTVSPost2010Prop48
 90
       50
102
RTVSPost2010PropOp48
 70
     1
102
RTVSPost2010Prop49
280
     0
102
RTVSPost2010PropOp49
 70
     1
102
RTVSPost2010Prop50
 90
       50
102
RTVSPost2010PropOp50
 70
     1
102
RTVSPost2010Prop51ColorIndex
 90
      256
102
RTVSPost2010Prop51ColorRGB
 90
-16777216
102
RTVSPost2010PropOp51
 70
     0
102
RTVSPost2010Prop52
140
1.0
102
RTVSPost2010PropOp52
 70
     0
102
RTVSPost2010Prop53
 90
        2
102
RTVSPost2010PropOp53
 70
     1
102
RTVSPost2010Prop54
  1
strokes_ogs.tif
102
RTVSPost2010PropOp54
 70
     1
102
RTVSPost2010Prop55
280
     0
102
RTVSPost2010PropOp55
 70
     1
102
RTVSPost2010Prop56
140
1.0
102
RTVSPost2010PropOp56
 70
     1
102
RTVSPost2010Prop57
140
1.0
102
RTVSPost2010PropOp57
 70
     1
102
RTVSPropertyOp0
 70
     1
102
RTVSPropertyOp1
 70
     1
102
RTVSPropertyOp2
 70
     1
102
RTVSPropertyOp3
 70
     1
102
RTVSPropertyOp4
 70
     1
102
RTVSPropertyOp5
 70
     1
102
RTVSPropertyOp6
 70
     1
102
RTVSPropertyOp7
 70
     1
102
RTVSPropertyOp8
 70
     1
102
RTVSPropertyOp9
 70
     1
102
RTVSPropertyOp10
 70
     1
102
RTVSPropertyOp11
 70
     1
102
RTVSPropertyOp12
 70
     1
102
RTVSPropertyOp13
 70
     1
102
RTVSPropertyOp14
 70
     1
102
RTVSPropertyOp15
 70
     1
102
RTVSPropertyOp16
 70
     1
102
RTVSPropertyOp17
 70
     1
102
RTVSPropertyOp18
 70
     1
102
RTVSPropertyOp19
 70
     1
102
RTVSPropertyOp20
 70
     1
102
RTVSPropertyOp21
 70
     1
102
RTVSPropertyOp22
 70
     1
102
RTVSPropertyOp23
 70
     1
102
RTVSPropertyOp24
 70
     1
102
RTVSPropertyOp25
 70
     1
102
RTVSPropertyOp26
 70
     1
102
RTVSPropertyOp27
 70
     1
102
RTVSPropertyOp28
 70
     1
102
RTVSPropertyOp29
 70
     1
102
RTVSPropertyOp30
 70
     1
102
RTVSPropertyOp31
 70
     1
102
RTVSPropertyOp32
 70
     1
102
RTVSPropertyOp33
 70
     1
102
RTVSPropertyOp34
 70
     1
102
RTVSPropertyOp35
 70
     1
102
RTVSPropertyOp36
 70
     1
102
RTVSPropertyOp37
 70
     1
102
RTVSPropertyOp38
 70
     1
102
RTVSPropertyOp39
 70
     1
102
RTVSPropertyOp40
 70
     1
102
RTVSPropertyOp41
 70
     1
102
RTVSPropertyOp42
 70
     1
102
RTVSPropertyOp43
 70
     1
102
RTVSPropertyOp44
 70
     1
102
RTVSPropertyOp45
 70
     1
102
RTVSPropertyOp46
 70
     1
102
RTVSPropertyOp47
 70
     1
102
RTVSPropertyOp48
 70
     1
102
RTVSPropertyOp49
 70
     1
102
RTVSPropertyOp50
 70
     1
102
RTVSPropertyOp51
 70
     0
102
RTVSPropertyOp52
 70
     0
102
RTVSPropertyOp53
 70
     1
102
RTVSPropertyOp54
 70
     1
102
RTVSPropertyOp55
 70
     1
102
RTVSPropertyOp56
 70
     1
102
RTVSPropertyOp57
 70
     1
102
RTVSPropertyOp58
 70
     1
102
RTVSPropertyOp59
 70
     1
102
RTVSPropertyOp60
 70
     1
102
RTVSPropertyOp61
 70
     1
102
RTVSPropertyOp62
 70
     1
  0
XRECORD
  5
46A
102
{ACAD_REACTORS
330
469
102
}
330
469
100
AcDbXrecord
280
     1
102
RTVSPost2010Prop28
280
     0
102
RTVSPost2010PropOp28
 70
     1
102
RTVSPost2010Prop29
280
     1
102
RTVSPost2010PropOp29
 70
     1
102
RTVSPost2010Prop30
280
     1
102
RTVSPost2010PropOp30
 70
     1
102
RTVSPost2010Prop31
280
     0
102
RTVSPost2010PropOp31
 70
     1
102
RTVSPost2010Prop32
280
     0
102
RTVSPost2010PropOp32
 70
     1
102
RTVSPost2010Prop33
280
     0
102
RTVSPost2010PropOp33
 70
     1
102
RTVSPost2010Prop34
280
     0
102
RTVSPost2010PropOp34
 70
     1
102
RTVSPost2010Prop35
280
     0
102
RTVSPost2010PropOp35
 70
     1
102
RTVSPost2010Prop36
280
     0
102
RTVSPost2010PropOp36
 70
     1
102
RTVSPost2010Prop37
 90
       50
102
RTVSPost2010PropOp37
 70
     1
102
RTVSPost2010Prop38
140
0.0
102
RTVSPost2010PropOp38
 70
     1
102
RTVSPost2010Prop39
140
1.0
102
RTVSPost2010PropOp39
 70
     1
102
RTVSPost2010Prop40
 90
        0
102
RTVSPost2010PropOp40
 70
     1
102
RTVSPost2010Prop41ColorIndex
 90
       18
102
RTVSPost2010Prop41ColorRGB
 90
        0
102
RTVSPost2010PropOp41
 70
     1
102
RTVSPost2010Prop42
 90
       50
102
RTVSPost2010PropOp42
 70
     1
102
RTVSPost2010Prop43
 90
        3
102
RTVSPost2010PropOp43
 70
     1
102
RTVSPost2010Prop44ColorIndex
 90
        5
102
RTVSPost2010Prop44ColorRGB
 90
      255
102
RTVSPost2010PropOp44
 70
     1
102
RTVSPost2010Prop45
280
     0
102
RTVSPost2010PropOp45
 70
     1
102
RTVSPost2010Prop46
 90
       50
102
RTVSPost2010PropOp46
 70
     1
102
RTVSPost2010Prop47
 90
       50
102
RTVSPost2010PropOp47
 70
     1
102
RTVSPost2010Prop48
 90
       50
102
RTVSPost2010PropOp48
 70
     1
102
RTVSPost2010Prop49
280
     0
102
RTVSPost2010PropOp49
 70
     1
102
RTVSPost2010Prop50
 90
       50
102
RTVSPost2010PropOp50
 70
     1
102
RTVSPost2010Prop51ColorIndex
 90
      256
102
RTVSPost2010Prop51ColorRGB
 90
-16777216
102
RTVSPost2010PropOp51
 70
     0
102
RTVSPost2010Prop52
140
1.0
102
RTVSPost2010PropOp52
 70
     0
102
RTVSPost2010Prop53
 90
        2
102
RTVSPost2010PropOp53
 70
     1
102
RTVSPost2010Prop54
  1
strokes_ogs.tif
102
RTVSPost2010PropOp54
 70
     1
102
RTVSPost2010Prop55
280
     0
102
RTVSPost2010PropOp55
 70
     1
102
RTVSPost2010Prop56
140
1.0
102
RTVSPost2010PropOp56
 70
     1
102
RTVSPost2010Prop57
140
1.0
102
RTVSPost2010PropOp57
 70
     1
102
RTVSPropertyOp0
 70
     1
102
RTVSPropertyOp1
 70
     1
102
RTVSPropertyOp2
 70
     1
102
RTVSPropertyOp3
 70
     1
102
RTVSPropertyOp4
 70
     1
102
RTVSPropertyOp5
 70
     1
102
RTVSPropertyOp6
 70
     1
102
RTVSPropertyOp7
 70
     1
102
RTVSPropertyOp8
 70
     1
102
RTVSPropertyOp9
 70
     1
102
RTVSPropertyOp10
 70
     1
102
RTVSPropertyOp11
 70
     1
102
RTVSPropertyOp12
 70
     1
102
RTVSPropertyOp13
 70
     1
102
RTVSPropertyOp14
 70
     1
102
RTVSPropertyOp15
 70
     1
102
RTVSPropertyOp16
 70
     1
102
RTVSPropertyOp17
 70
     1
102
RTVSPropertyOp18
 70
     1
102
RTVSPropertyOp19
 70
     1
102
RTVSPropertyOp20
 70
     1
102
RTVSPropertyOp21
 70
     1
102
RTVSPropertyOp22
 70
     1
102
RTVSPropertyOp23
 70
     1
102
RTVSPropertyOp24
 70
     1
102
RTVSPropertyOp25
 70
     1
102
RTVSPropertyOp26
 70
     1
102
RTVSPropertyOp27
 70
     1
102
RTVSPropertyOp28
 70
     1
102
RTVSPropertyOp29
 70
     1
102
RTVSPropertyOp30
 70
     1
102
RTVSPropertyOp31
 70
     1
102
RTVSPropertyOp32
 70
     1
102
RTVSPropertyOp33
 70
     1
102
RTVSPropertyOp34
 70
     1
102
RTVSPropertyOp35
 70
     1
102
RTVSPropertyOp36
 70
     1
102
RTVSPropertyOp37
 70
     1
102
RTVSPropertyOp38
 70
     1
102
RTVSPropertyOp39
 70
     1
102
RTVSPropertyOp40
 70
     1
102
RTVSPropertyOp41
 70
     1
102
RTVSPropertyOp42
 70
     1
102
RTVSPropertyOp43
 70
     1
102
RTVSPropertyOp44
 70
     1
102
RTVSPropertyOp45
 70
     1
102
RTVSPropertyOp46
 70
     1
102
RTVSPropertyOp47
 70
     1
102
RTVSPropertyOp48
 70
     1
102
RTVSPropertyOp49
 70
     1
102
RTVSPropertyOp50
 70
     1
102
RTVSPropertyOp51
 70
     0
102
RTVSPropertyOp52
 70
     0
102
RTVSPropertyOp53
 70
     1
102
RTVSPropertyOp54
 70
     1
102
RTVSPropertyOp55
 70
     1
102
RTVSPropertyOp56
 70
     1
102
RTVSPropertyOp57
 70
     1
102
RTVSPropertyOp58
 70
     1
102
RTVSPropertyOp59
 70
     1
102
RTVSPropertyOp60
 70
     1
102
RTVSPropertyOp61
 70
     1
102
RTVSPropertyOp62
 70
     1
  0
ENDSEC
  0
EOF
