  0
SECTION
  2
HEADER
  9
$ACADVER
  1
AC1018
  9
$ACADMAINTVER
 70
     0
  9
$DWGCODEPAGE
  3
ANSI_932
  9
$INSBASE
 10
0.0
 20
0.0
 30
0.0
  9
$EXTMIN
 10
0.0
 20
0.0
 30
0.0
  9
$EXTMAX
 10
210.0
 20
297.0
 30
0.0
  9
$LIMMIN
 10
0.0
 20
0.0
  9
$LIMMAX
 10
210.0
 20
297.0
  9
$ORTHOMODE
 70
     0
  9
$REGENMODE
 70
     1
  9
$FILLMODE
 70
     1
  9
$QTEXTMODE
 70
     0
  9
$MIRRTEXT
 70
     1
  9
$LTSCALE
 40
0.25
  9
$ATTMODE
 70
     1
  9
$TEXTSIZE
 40
3.0
  9
$TRACEWID
 40
0.05
  9
$TEXTSTYLE
  7
Standard
  9
$CLAYER
  8
0
  9
$CELTYPE
  6
ByLayer
  9
$CECOLOR
 62
   256
  9
$CELTSCALE
 40
1.0
  9
$DISPSILH
 70
     0
  9
$DIMSCALE
 40
1.0
  9
$DIMASZ
 40
2.0
  9
$DIMEXO
 40
2.0
  9
$DIMDLI
 40
10.0
  9
$DIMRND
 40
0.0
  9
$DIMDLE
 40
0.0
  9
$DIMEXE
 40
1.0
  9
$DIMTP
 40
0.0
  9
$DIMTM
 40
0.0
  9
$DIMTXT
 40
3.0
  9
$DIMCEN
 40
0.09
  9
$DIMTSZ
 40
0.0
  9
$DIMTOL
 70
     0
  9
$DIMLIM
 70
     0
  9
$DIMTIH
 70
     0
  9
$DIMTOH
 70
     0
  9
$DIMSE1
 70
     0
  9
$DIMSE2
 70
     0
  9
$DIMTAD
 70
     3
  9
$DIMZIN
 70
     8
  9
$DIMBLK
  1

  9
$DIMASO
 70
     1
  9
$DIMSHO
 70
     1
  9
$DIMPOST
  1

  9
$DIMAPOST
  1

  9
$DIMALT
 70
     0
  9
$DIMALTD
 70
     2
  9
$DIMALTF
 40
25.4
  9
$DIMLFAC
 40
1.0
  9
$DIMTOFL
 70
     1
  9
$DIMTVP
 40
0.7
  9
$DIMTIX
 70
     0
  9
$DIMSOXD
 70
     0
  9
$DIMSAH
 70
     0
  9
$DIMBLK1
  1

  9
$DIMBLK2
  1

  9
$DIMSTYLE
  2
Standard
  9
$DIMCLRD
 70
     0
  9
$DIMCLRE
 70
     0
  9
$DIMCLRT
 70
     0
  9
$DIMTFAC
 40
0.5
  9
$DIMGAP
 40
0.09
  9
$DIMJUST
 70
     0
  9
$DIMSD1
 70
     0
  9
$DIMSD2
 70
     0
  9
$DIMTOLJ
 70
     1
  9
$DIMTZIN
 70
     8
  9
$DIMALTZ
 70
     0
  9
$DIMALTTZ
 70
     0
  9
$DIMUPT
 70
     1
  9
$DIMDEC
 70
     2
  9
$DIMTDEC
 70
     4
  9
$DIMALTU
 70
     2
  9
$DIMALTTD
 70
     2
  9
$DIMTXSTY
  7
Standard
  9
$DIMAUNIT
 70
     0
  9
$DIMADEC
 70
     0
  9
$DIMALTRND
 40
0.0
  9
$DIMAZIN
 70
     0
  9
$DIMDSEP
 70
    46
  9
$DIMATFIT
 70
     2
  9
$DIMFRAC
 70
     0
  9
$DIMLDRBLK
  1

  9
$DIMLUNIT
 70
     2
  9
$DIMLWD
 70
    -2
  9
$DIMLWE
 70
    -2
  9
$DIMTMOVE
 70
     2
  9
$LUNITS
 70
     2
  9
$LUPREC
 70
     4
  9
$SKETCHINC
 40
0.1
  9
$FILLETRAD
 40
0.5
  9
$AUNITS
 70
     0
  9
$AUPREC
 70
     0
  9
$MENU
  1
.
  9
$ELEVATION
 40
0.0
  9
$PELEVATION
 40
0.0
  9
$THICKNESS
 40
0.0
  9
$LIMCHECK
 70
     0
  9
$CHAMFERA
 40
0.5
  9
$CHAMFERB
 40
0.5
  9
$CHAMFERC
 40
1.0
  9
$CHAMFERD
 40
0.0
  9
$SKPOLY
 70
     0
  9
$TDCREATE
 40
2456421.905925926
  9
$TDUCREATE
 40
2456421.530925926
  9
$TDUPDATE
 40
2456421.905925926
  9
$TDUUPDATE
 40
2456421.530925926
  9
$TDINDWG
 40
0.0000000116
  9
$TDUSRTIMER
 40
0.0000000116
  9
$USRTIMER
 70
     1
  9
$ANGBASE
 50
0.0
  9
$ANGDIR
 70
     0
  9
$PDMODE
 70
     0
  9
$PDSIZE
 40
0.0
  9
$PLINEWID
 40
0.0
  9
$SPLFRAME
 70
     0
  9
$SPLINETYPE
 70
     6
  9
$SPLINESEGS
 70
     8
  9
$HANDSEED
  5
407
  9
$SURFTAB1
 70
     6
  9
$SURFTAB2
 70
     6
  9
$SURFTYPE
 70
     6
  9
$SURFU
 70
     6
  9
$SURFV
 70
     6
  9
$UCSBASE
  2

  9
$UCSNAME
  2

  9
$UCSORG
 10
0.0
 20
0.0
 30
0.0
  9
$UCSXDIR
 10
1.0
 20
0.0
 30
0.0
  9
$UCSYDIR
 10
0.0
 20
1.0
 30
0.0
  9
$UCSORTHOREF
  2

  9
$UCSORTHOVIEW
 70
     0
  9
$UCSORGTOP
 10
0.0
 20
0.0
 30
0.0
  9
$UCSORGBOTTOM
 10
0.0
 20
0.0
 30
0.0
  9
$UCSORGLEFT
 10
0.0
 20
0.0
 30
0.0
  9
$UCSORGRIGHT
 10
0.0
 20
0.0
 30
0.0
  9
$UCSORGFRONT
 10
0.0
 20
0.0
 30
0.0
  9
$UCSORGBACK
 10
0.0
 20
0.0
 30
0.0
  9
$PUCSBASE
  2

  9
$PUCSNAME
  2

  9
$PUCSORG
 10
0.0
 20
0.0
 30
0.0
  9
$PUCSXDIR
 10
1.0
 20
0.0
 30
0.0
  9
$PUCSYDIR
 10
0.0
 20
1.0
 30
0.0
  9
$PUCSORTHOREF
  2

  9
$PUCSORTHOVIEW
 70
     0
  9
$PUCSORGTOP
 10
0.0
 20
0.0
 30
0.0
  9
$PUCSORGBOTTOM
 10
0.0
 20
0.0
 30
0.0
  9
$PUCSORGLEFT
 10
0.0
 20
0.0
 30
0.0
  9
$PUCSORGRIGHT
 10
0.0
 20
0.0
 30
0.0
  9
$PUCSORGFRONT
 10
0.0
 20
0.0
 30
0.0
  9
$PUCSORGBACK
 10
0.0
 20
0.0
 30
0.0
  9
$USERI1
 70
     0
  9
$USERI2
 70
     0
  9
$USERI3
 70
     0
  9
$USERI4
 70
     0
  9
$USERI5
 70
     0
  9
$USERR1
 40
0.0
  9
$USERR2
 40
0.0
  9
$USERR3
 40
0.0
  9
$USERR4
 40
0.0
  9
$USERR5
 40
0.0
  9
$WORLDVIEW
 70
     1
  9
$SHADEDGE
 70
     3
  9
$SHADEDIF
 70
    70
  9
$TILEMODE
 70
     1
  9
$MAXACTVP
 70
    64
  9
$PINSBASE
 10
0.0
 20
0.0
 30
0.0
  9
$PLIMCHECK
 70
     0
  9
$PEXTMIN
 10
0.0
 20
0.0
 30
0.0
  9
$PEXTMAX
 10
210.0
 20
297.0
 30
0.0
  9
$PLIMMIN
 10
0.0
 20
0.0
  9
$PLIMMAX
 10
210.0
 20
297.0
  9
$UNITMODE
 70
     0
  9
$VISRETAIN
 70
     1
  9
$PLINEGEN
 70
     0
  9
$PSLTSCALE
 70
     1
  9
$TREEDEPTH
 70
  3020
  9
$CMLSTYLE
  2
Standard
  9
$CMLJUST
 70
     0
  9
$CMLSCALE
 40
1.0
  9
$PROXYGRAPHICS
 70
     1
  9
$MEASUREMENT
 70
     1
  9
$CELWEIGHT
370
    -1
  9
$ENDCAPS
280
     0
  9
$JOINSTYLE
280
     0
  9
$LWDISPLAY
290
     0
  9
$INSUNITS
 70
     4
  9
$HYPERLINKBASE
  1

  9
$STYLESHEET
  1

  9
$XEDIT
290
     1
  9
$CEPSNTYPE
380
     0
  9
$PSTYLEMODE
290
     1
  9
$FINGERPRINTGUID
  2
{1F623DE8-1136-4E89-9A30-3BF509DC30A6}
  9
$VERSIONGUID
  2
{FAEB1C32-E019-11D5-929B-00C0DF256EC4}
  9
$EXTNAMES
290
     1
  9
$PSVPSCALE
 40
0.0
  9
$OLESTARTUP
290
     0
  9
$SORTENTS
280
   127
  9
$INDEXCTL
280
     0
  9
$HIDETEXT
280
     1
  9
$XCLIPFRAME
290
     0
  9
$HALOGAP
280
     0
  9
$OBSCOLOR
 70
   257
  9
$OBSLTYPE
280
     0
  9
$INTERSECTIONDISPLAY
280
     0
  9
$INTERSECTIONCOLOR
 70
   257
  9
$DIMASSOC
280
     1
  9
$PROJECTNAME
  1

  0
ENDSEC
  0
SECTION
  2
CLASSES
  0
CLASS
  1
ACDBDICTIONARYWDFLT
  2
AcDbDictionaryWithDefault
  3
ObjectDBX Classes
 90
        0
 91
        3
280
     0
281
     0
  0
ENDSEC
  0
SECTION
  2
TABLES
  0
TABLE
  2
VPORT
  5
8
330
0
100
AcDbSymbolTable
 70
     1
  0
VPORT
  5
29
330
8
100
AcDbSymbolTableRecord
100
AcDbViewportTableRecord
  2
*Active
 70
     0
 10
0.0
 20
0.0
 11
1.0
 21
1.0
 12
10.42990654205607
 22
4.5
 13
0.0
 23
0.0
 14
0.5
 24
0.5
 15
0.5
 25
0.5
 16
0.0
 26
0.0
 36
1.0
 17
0.0
 27
0.0
 37
0.0
 40
9.0
 41
1.972972972850329
 42
50.0
 43
0.0
 44
0.0
 50
0.0
 51
0.0
 71
     0
 72
   100
 73
     1
 74
     3
 75
     0
 76
     0
 77
     0
 78
     0
281
     0
 65
     1
110
0.0
120
0.0
130
0.0
111
1.0
121
0.0
131
0.0
112
0.0
122
1.0
132
0.0
 79
     0
146
0.0
  0
ENDTAB
  0
TABLE
  2
LTYPE
  5
5
330
0
100
AcDbSymbolTable
 70
     9
  0
LTYPE
  5
14
330
5
100
AcDbSymbolTableRecord
100
AcDbLinetypeTableRecord
  2
ByBlock
 70
     0
  3

 72
    65
 73
     0
 40
0.0
  0
LTYPE
  5
15
330
5
100
AcDbSymbolTableRecord
100
AcDbLinetypeTableRecord
  2
ByLayer
 70
     0
  3

 72
    65
 73
     0
 40
0.0
  0
LTYPE
  5
16
330
5
100
AcDbSymbolTableRecord
100
AcDbLinetypeTableRecord
  2
Continuous
 70
     0
  3
Solid line
 72
    65
 73
     0
 40
0.0
  0
LTYPE
  5
68
330
5
100
AcDbSymbolTableRecord
100
AcDbLinetypeTableRecord
  2
DOT
 70
     0
  3
DOT
 72
    65
 73
     2
 40
4.0
 49
6.0
 74
     0
 49
-2.0
 74
     0
  0
LTYPE
  5
69
330
5
100
AcDbSymbolTableRecord
100
AcDbLinetypeTableRecord
  2
HIDDEN
 70
     0
  3
HIDDEN
 72
    65
 73
     2
 40
4.2
 49
8.4
 74
     0
 49
-4.2
 74
     0
  0
LTYPE
  5
6A
330
5
100
AcDbSymbolTableRecord
100
AcDbLinetypeTableRecord
  2
DASHDOT
 70
     0
  3
DASHDOT
 72
    65
 73
     4
 40
14.5
 49
30.0
 74
     0
 49
-9.0
 74
     0
 49
2.5
 74
     0
 49
-9.0
 74
     0
  0
LTYPE
  5
6B
330
5
100
AcDbSymbolTableRecord
100
AcDbLinetypeTableRecord
  2
PHANTOM
 70
     0
  3
PHANTOM
 72
    65
 73
     6
 40
12.0
 49
30.0
 74
     0
 49
-9.0
 74
     0
 49
2.5
 74
     0
 49
-5.0
 74
     0
 49
2.5
 74
     0
 49
-9.0
 74
     0
  0
LTYPE
  5
6C
330
5
100
AcDbSymbolTableRecord
100
AcDbLinetypeTableRecord
  2
ACAD_ISO14W100
 70
     0
  3
ACAD_ISO14W100
 72
    65
 73
     8
 40
1.5
 49
12.0
 74
     0
 49
-3.0
 74
     0
 49
0.5
 74
     0
 49
-3.0
 74
     0
 49
0.5
 74
     0
 49
-3.0
 74
     0
 49
0.5
 74
     0
 49
-3.0
 74
     0
  0
LTYPE
  5
6D
330
5
100
AcDbSymbolTableRecord
100
AcDbLinetypeTableRecord
  2
ACAD_ISO06W100
 70
     0
  3
ACAD_ISO06W100
 72
    65
 73
     8
 40
13.5
 49
24.0
 74
     0
 49
-3.0
 74
     0
 49
0.5
 74
     0
 49
-3.0
 74
     0
 49
0.5
 74
     0
 49
-3.0
 74
     0
 49
0.5
 74
     0
 49
-3.0
 74
     0
  0
LTYPE
  5
6E
330
5
100
AcDbSymbolTableRecord
100
AcDbLinetypeTableRecord
  2
ACAD_ISO11W100
 70
     0
  3
ACAD_ISO11W100
 72
    65
 73
     6
 40
15.5
 49
12.0
 74
     0
 49
-3.0
 74
     0
 49
12.0
 74
     0
 49
-3.0
 74
     0
 49
0.5
 74
     0
 49
-3.0
 74
     0
  0
LTYPE
  5
6F
330
5
100
AcDbSymbolTableRecord
100
AcDbLinetypeTableRecord
  2
ACAD_ISO13W100
 70
     0
  3
ACAD_ISO13W100
 72
    65
 73
     8
 40
13.0
 49
12.0
 74
     0
 49
-3.0
 74
     0
 49
12.0
 74
     0
 49
-3.0
 74
     0
 49
0.5
 74
     0
 49
-3.0
 74
     0
 49
0.5
 74
     0
 49
-3.0
 74
     0
  0
ENDTAB
  0
TABLE
  2
LAYER
  5
2
330
0
100
AcDbSymbolTable
 70
    41
  0
LAYER
  5
10
330
2
100
AcDbSymbolTableRecord
100
AcDbLayerTableRecord
  2
0
 70
     0
 62
     7
  6
Continuous
370
    -3
390
F
  0
LAYER
  5
70
330
2
100
AcDbSymbolTableRecord
100
AcDbLayerTableRecord
  2
1
 70
     0
 62
    45
  6
Continuous
370
    -3
390
F
  0
LAYER
  5
71
330
2
100
AcDbSymbolTableRecord
100
AcDbLayerTableRecord
  2
2
 70
     0
 62
    90
  6
Continuous
370
    -3
390
F
  0
LAYER
  5
72
330
2
100
AcDbSymbolTableRecord
100
AcDbLayerTableRecord
  2
3
 70
     0
 62
     6
  6
Continuous
370
    -3
390
F
  0
LAYER
  5
73
330
2
100
AcDbSymbolTableRecord
100
AcDbLayerTableRecord
  2
4
 70
     0
 62
    30
  6
Continuous
370
    -3
390
F
  0
LAYER
  5
74
330
2
100
AcDbSymbolTableRecord
100
AcDbLayerTableRecord
  2
5
 70
     0
 62
     2
  6
Continuous
370
    -3
390
F
  0
LAYER
  5
75
330
2
100
AcDbSymbolTableRecord
100
AcDbLayerTableRecord
  2
6
 70
     0
 62
     7
  6
Continuous
370
    -3
390
F
  0
LAYER
  5
76
330
2
100
AcDbSymbolTableRecord
100
AcDbLayerTableRecord
  2
7
 70
     0
 62
   132
  6
Continuous
370
    -3
390
F
  0
LAYER
  5
77
330
2
100
AcDbSymbolTableRecord
100
AcDbLayerTableRecord
  2
8
 70
     0
 62
   171
  6
Continuous
370
    -3
390
F
  0
LAYER
  5
78
330
2
100
AcDbSymbolTableRecord
100
AcDbLayerTableRecord
  2
9
 70
     0
 62
   170
  6
Continuous
370
    -3
390
F
  0
LAYER
  5
79
330
2
100
AcDbSymbolTableRecord
100
AcDbLayerTableRecord
  2
10
 70
     0
 62
   172
  6
Continuous
370
    -3
390
F
  0
LAYER
  5
7A
330
2
100
AcDbSymbolTableRecord
100
AcDbLayerTableRecord
  2
11
 70
     0
 62
    16
  6
Continuous
370
    -3
390
F
  0
LAYER
  5
7B
330
2
100
AcDbSymbolTableRecord
100
AcDbLayerTableRecord
  2
12
 70
     0
 62
   136
  6
Continuous
370
    -3
390
F
  0
LAYER
  5
7C
330
2
100
AcDbSymbolTableRecord
100
AcDbLayerTableRecord
  2
13
 70
     0
 62
   216
  6
Continuous
370
    -3
390
F
  0
LAYER
  5
7D
330
2
100
AcDbSymbolTableRecord
100
AcDbLayerTableRecord
  2
14
 70
     0
 62
     7
  6
Continuous
370
    -3
390
F
  0
LAYER
  5
7E
330
2
100
AcDbSymbolTableRecord
100
AcDbLayerTableRecord
  2
15
 70
     0
 62
    14
  6
Continuous
370
    -3
390
F
  0
LAYER
  5
7F
330
2
100
AcDbSymbolTableRecord
100
AcDbLayerTableRecord
  2
16
 70
     0
 62
    94
  6
Continuous
370
    -3
390
F
  0
LAYER
  5
80
330
2
100
AcDbSymbolTableRecord
100
AcDbLayerTableRecord
  2
17
 70
     0
 62
   230
  6
Continuous
370
    -3
390
F
  0
LAYER
  5
81
330
2
100
AcDbSymbolTableRecord
100
AcDbLayerTableRecord
  2
18
 70
     0
 62
     7
  6
Continuous
370
    -3
390
F
  0
LAYER
  5
82
330
2
100
AcDbSymbolTableRecord
100
AcDbLayerTableRecord
  2
19
 70
     0
 62
   216
  6
Continuous
370
    -3
390
F
  0
LAYER
  5
83
330
2
100
AcDbSymbolTableRecord
100
AcDbLayerTableRecord
  2
20
 70
     0
 62
   134
  6
Continuous
370
    -3
390
F
  0
LAYER
  5
84
330
2
100
AcDbSymbolTableRecord
100
AcDbLayerTableRecord
  2
21
 70
     0
 62
   214
  6
Continuous
370
    -3
390
F
  0
LAYER
  5
85
330
2
100
AcDbSymbolTableRecord
100
AcDbLayerTableRecord
  2
22
 70
     0
 62
     7
  6
Continuous
370
    -3
390
F
  0
LAYER
  5
86
330
2
100
AcDbSymbolTableRecord
100
AcDbLayerTableRecord
  2
128
 70
     0
 62
     7
  6
Continuous
370
    -3
390
F
  0
LAYER
  5
87
330
2
100
AcDbSymbolTableRecord
100
AcDbLayerTableRecord
  2
129
 70
     0
 62
     7
  6
Continuous
370
    -3
390
F
  0
LAYER
  5
88
330
2
100
AcDbSymbolTableRecord
100
AcDbLayerTableRecord
  2
130
 70
     0
 62
     7
  6
Continuous
370
    -3
390
F
  0
LAYER
  5
89
330
2
100
AcDbSymbolTableRecord
100
AcDbLayerTableRecord
  2
131
 70
     0
 62
     7
  6
Continuous
370
    -3
390
F
  0
LAYER
  5
8A
330
2
100
AcDbSymbolTableRecord
100
AcDbLayerTableRecord
  2
132
 70
     0
 62
     7
  6
Continuous
370
    -3
390
F
  0
LAYER
  5
8B
330
2
100
AcDbSymbolTableRecord
100
AcDbLayerTableRecord
  2
133
 70
     0
 62
     4
  6
Continuous
370
    -3
390
F
  0
LAYER
  5
8C
330
2
100
AcDbSymbolTableRecord
100
AcDbLayerTableRecord
  2
134
 70
     0
 62
     7
  6
Continuous
370
    -3
390
F
  0
LAYER
  5
8D
330
2
100
AcDbSymbolTableRecord
100
AcDbLayerTableRecord
  2
135
 70
     0
 62
     7
  6
Continuous
370
    -3
390
F
  0
LAYER
  5
8E
330
2
100
AcDbSymbolTableRecord
100
AcDbLayerTableRecord
  2
136
 70
     0
 62
     1
  6
Continuous
370
    -3
390
F
  0
LAYER
  5
8F
330
2
100
AcDbSymbolTableRecord
100
AcDbLayerTableRecord
  2
137
 70
     0
 62
     4
  6
Continuous
370
    -3
390
F
  0
LAYER
  5
90
330
2
100
AcDbSymbolTableRecord
100
AcDbLayerTableRecord
  2
138
 70
     0
 62
     7
  6
Continuous
370
    -3
390
F
  0
LAYER
  5
91
330
2
100
AcDbSymbolTableRecord
100
AcDbLayerTableRecord
  2
139
 70
     0
 62
     7
  6
Continuous
370
    -3
390
F
  0
LAYER
  5
92
330
2
100
AcDbSymbolTableRecord
100
AcDbLayerTableRecord
  2
140
 70
     0
 62
     5
  6
Continuous
370
    -3
390
F
  0
LAYER
  5
93
330
2
100
AcDbSymbolTableRecord
100
AcDbLayerTableRecord
  2
141
 70
     0
 62
     7
  6
Continuous
370
    -3
390
F
  0
LAYER
  5
94
330
2
100
AcDbSymbolTableRecord
100
AcDbLayerTableRecord
  2
142
 70
     0
 62
     7
  6
Continuous
370
    -3
390
F
  0
LAYER
  5
95
330
2
100
AcDbSymbolTableRecord
100
AcDbLayerTableRecord
  2
143
 70
     0
 62
     3
  6
Continuous
370
    -3
390
F
  0
LAYER
  5
96
330
2
100
AcDbSymbolTableRecord
100
AcDbLayerTableRecord
  2
144
 70
     0
 62
   171
  6
Continuous
370
    -3
390
F
  0
LAYER
  5
97
330
2
100
AcDbSymbolTableRecord
100
AcDbLayerTableRecord
  2
145
 70
     0
 62
     5
  6
Continuous
370
    -3
390
F
  0
ENDTAB
  0
TABLE
  2
STYLE
  5
3
330
0
100
AcDbSymbolTable
 70
     2
  0
STYLE
  5
11
330
3
100
AcDbSymbolTableRecord
100
AcDbTextStyleTableRecord
  2
Standard
 70
     0
 40
0.0
 41
1.0
 50
0.0
 71
     0
 42
0.2
  3
txt
  4
bigfont
  0
STYLE
  5
2C
330
3
100
AcDbSymbolTableRecord
100
AcDbTextStyleTableRecord
  2
T_STANDARD
 70
     4
 40
10.0
 41
1.0
 50
0.0
 71
     0
 42
10.0
  3
txt
  4
bigfont
  0
ENDTAB
  0
TABLE
  2
VIEW
  5
6
330
0
100
AcDbSymbolTable
 70
     0
  0
ENDTAB
  0
TABLE
  2
UCS
  5
7
330
0
100
AcDbSymbolTable
 70
     0
  0
ENDTAB
  0
TABLE
  2
APPID
  5
9
330
0
100
AcDbSymbolTable
 70
     2
  0
APPID
  5
12
330
9
100
AcDbSymbolTableRecord
100
AcDbRegAppTableRecord
  2
ACAD
 70
     0
  0
APPID
  5
2B
330
9
100
AcDbSymbolTableRecord
100
AcDbRegAppTableRecord
  2
ODA
 70
     0
  0
ENDTAB
  0
TABLE
  2
DIMSTYLE
  5
A
330
0
100
AcDbSymbolTable
 70
     1
100
AcDbDimStyleTable
  0
DIMSTYLE
105
27
330
A
100
AcDbSymbolTableRecord
100
AcDbDimStyleTableRecord
  2
Standard
 70
     0
340
11
  0
ENDTAB
  0
TABLE
  2
BLOCK_RECORD
  5
1
330
0
100
AcDbSymbolTable
 70
    12
  0
BLOCK_RECORD
  5
1F
330
1
100
AcDbSymbolTableRecord
100
AcDbBlockTableRecord
  2
*Model_Space
340
22
  0
BLOCK_RECORD
  5
1B
330
1
100
AcDbSymbolTableRecord
100
AcDbBlockTableRecord
  2
*Paper_Space
340
1E
  0
BLOCK_RECORD
  5
23
330
1
100
AcDbSymbolTableRecord
100
AcDbBlockTableRecord
  2
*Paper_Space0
340
26
  0
BLOCK_RECORD
  5
2D
330
1
100
AcDbSymbolTableRecord
100
AcDbBlockTableRecord
  2
_ORIGIN
340
0
  0
BLOCK_RECORD
  5
32
330
1
100
AcDbSymbolTableRecord
100
AcDbBlockTableRecord
  2
_DOTBLANK
340
0
  0
BLOCK_RECORD
  5
37
330
1
100
AcDbSymbolTableRecord
100
AcDbBlockTableRecord
  2
_DOT
340
0
  0
BLOCK_RECORD
  5
3C
330
1
100
AcDbSymbolTableRecord
100
AcDbBlockTableRecord
  2
_OPEN
340
0
  0
BLOCK_RECORD
  5
42
330
1
100
AcDbSymbolTableRecord
100
AcDbBlockTableRecord
  2
_CLOSED
340
0
  0
BLOCK_RECORD
  5
49
330
1
100
AcDbSymbolTableRecord
100
AcDbBlockTableRecord
  2
_CLOSEDBLANK
340
0
  0
BLOCK_RECORD
  5
4F
330
1
100
AcDbSymbolTableRecord
100
AcDbBlockTableRecord
  2
_BOXBLANK
340
0
  0
BLOCK_RECORD
  5
57
330
1
100
AcDbSymbolTableRecord
100
AcDbBlockTableRecord
  2
_BOXFILLED
340
0
  0
BLOCK_RECORD
  5
5C
330
1
100
AcDbSymbolTableRecord
100
AcDbBlockTableRecord
  2
_INTEGRAL
340
0
  0
BLOCK_RECORD
  5
61
330
1
100
AcDbSymbolTableRecord
100
AcDbBlockTableRecord
  2
_OBLIQUE
340
0
  0
BLOCK_RECORD
  5
65
330
1
100
AcDbSymbolTableRecord
100
AcDbBlockTableRecord
  2
_NONE
340
0
  0
ENDTAB
  0
ENDSEC
  0
SECTION
  2
BLOCKS
  0
BLOCK
  5
20
330
1F
100
AcDbEntity
  8
0
100
AcDbBlockBegin
  2
*Model_Space
 70
     0
 71
     0
 10
0.0
 20
0.0
 30
0.0
  3
*Model_Space
  1

  0
ENDBLK
  5
21
330
1F
100
AcDbEntity
  8
0
100
AcDbBlockEnd
  0
BLOCK
  5
1C
330
1B
100
AcDbEntity
 67
     1
  8
0
100
AcDbBlockBegin
  2
*Paper_Space
 70
     0
 71
     0
 10
0.0
 20
0.0
 30
0.0
  3
*Paper_Space
  1

  0
ENDBLK
  5
1D
330
1B
100
AcDbEntity
 67
     1
  8
0
100
AcDbBlockEnd
  0
BLOCK
  5
24
330
23
100
AcDbEntity
  8
0
100
AcDbBlockBegin
  2
*Paper_Space0
 70
     0
 71
     0
 10
0.0
 20
0.0
 30
0.0
  3
*Paper_Space0
  1

  0
ENDBLK
  5
25
330
23
100
AcDbEntity
  8
0
100
AcDbBlockEnd
  0
BLOCK
  5
30
330
2D
100
AcDbEntity
  8
0
100
AcDbBlockBegin
  2
_ORIGIN
 70
     0
 71
     0
 10
0.0
 20
0.0
 30
0.0
  3
_ORIGIN
  1

  0
CIRCLE
  5
2E
330
2D
100
AcDbEntity
  8
0
100
AcDbCircle
 10
0.0
 20
0.0
 30
0.0
 40
0.5
  0
LINE
  5
2F
330
2D
100
AcDbEntity
  8
0
100
AcDbLine
 10
0.0
 20
0.0
 30
0.0
 11
-1.0
 21
0.0
 31
0.0
  0
ENDBLK
  5
31
330
2D
100
AcDbEntity
  8
0
100
AcDbBlockEnd
  0
BLOCK
  5
35
330
32
100
AcDbEntity
  8
0
100
AcDbBlockBegin
  2
_DOTBLANK
 70
     0
 71
     0
 10
0.0
 20
0.0
 30
0.0
  3
_DOTBLANK
  1

  0
CIRCLE
  5
33
330
32
100
AcDbEntity
  8
0
100
AcDbCircle
 10
0.0
 20
0.0
 30
0.0
 40
0.5
  0
LINE
  5
34
330
32
100
AcDbEntity
  8
0
100
AcDbLine
 10
-0.5
 20
0.0
 30
0.0
 11
-1.0
 21
0.0
 31
0.0
  0
ENDBLK
  5
36
330
32
100
AcDbEntity
  8
0
100
AcDbBlockEnd
  0
BLOCK
  5
3A
330
37
100
AcDbEntity
  8
0
100
AcDbBlockBegin
  2
_DOT
 70
     0
 71
     0
 10
0.0
 20
0.0
 30
0.0
  3
_DOT
  1

  0
LWPOLYLINE
  5
38
330
37
100
AcDbEntity
  8
0
100
AcDbPolyline
 90
        2
 70
     1
 43
0.5
 10
-0.25
 20
0.0
 42
1.0
 10
0.25
 20
0.0
 42
1.0
  0
LINE
  5
39
330
37
100
AcDbEntity
  8
0
100
AcDbLine
 10
-0.5
 20
0.0
 30
0.0
 11
-1.0
 21
0.0
 31
0.0
  0
ENDBLK
  5
3B
330
37
100
AcDbEntity
  8
0
100
AcDbBlockEnd
  0
BLOCK
  5
40
330
3C
100
AcDbEntity
  8
0
100
AcDbBlockBegin
  2
_OPEN
 70
     0
 71
     0
 10
0.0
 20
0.0
 30
0.0
  3
_OPEN
  1

  0
LINE
  5
3D
330
3C
100
AcDbEntity
  8
0
100
AcDbLine
 10
-1.0
 20
0.1666666666666667
 30
0.0
 11
0.0
 21
0.0
 31
0.0
  0
LINE
  5
3E
330
3C
100
AcDbEntity
  8
0
100
AcDbLine
 10
-1.0
 20
-0.1666666666666667
 30
0.0
 11
0.0
 21
0.0
 31
0.0
  0
LINE
  5
3F
330
3C
100
AcDbEntity
  8
0
100
AcDbLine
 10
0.0
 20
0.0
 30
0.0
 11
-1.0
 21
0.0
 31
0.0
  0
ENDBLK
  5
41
330
3C
100
AcDbEntity
  8
0
100
AcDbBlockEnd
  0
BLOCK
  5
47
330
42
100
AcDbEntity
  8
0
100
AcDbBlockBegin
  2
_CLOSED
 70
     0
 71
     0
 10
0.0
 20
0.0
 30
0.0
  3
_CLOSED
  1

  0
LINE
  5
43
330
42
100
AcDbEntity
  8
0
100
AcDbLine
 10
-1.0
 20
0.1666666666666667
 30
0.0
 11
0.0
 21
0.0
 31
0.0
  0
LINE
  5
44
330
42
100
AcDbEntity
  8
0
100
AcDbLine
 10
0.0
 20
0.0
 30
0.0
 11
-1.0
 21
-0.1666666666666667
 31
0.0
  0
LINE
  5
45
330
42
100
AcDbEntity
  8
0
100
AcDbLine
 10
-1.0
 20
0.1666666666666667
 30
0.0
 11
-1.0
 21
-0.1666666666666667
 31
0.0
  0
LINE
  5
46
330
42
100
AcDbEntity
  8
0
100
AcDbLine
 10
0.0
 20
0.0
 30
0.0
 11
-1.0
 21
0.0
 31
0.0
  0
ENDBLK
  5
48
330
42
100
AcDbEntity
  8
0
100
AcDbBlockEnd
  0
BLOCK
  5
4D
330
49
100
AcDbEntity
  8
0
100
AcDbBlockBegin
  2
_CLOSEDBLANK
 70
     0
 71
     0
 10
0.0
 20
0.0
 30
0.0
  3
_CLOSEDBLANK
  1

  0
LINE
  5
4A
330
49
100
AcDbEntity
  8
0
100
AcDbLine
 10
-1.0
 20
0.1666666666666667
 30
0.0
 11
0.0
 21
0.0
 31
0.0
  0
LINE
  5
4B
330
49
100
AcDbEntity
  8
0
100
AcDbLine
 10
0.0
 20
0.0
 30
0.0
 11
-1.0
 21
-0.1666666666666667
 31
0.0
  0
LINE
  5
4C
330
49
100
AcDbEntity
  8
0
100
AcDbLine
 10
-1.0
 20
0.1666666666666667
 30
0.0
 11
-1.0
 21
-0.1666666666666667
 31
0.0
  0
ENDBLK
  5
4E
330
49
100
AcDbEntity
  8
0
100
AcDbBlockEnd
  0
BLOCK
  5
55
330
4F
100
AcDbEntity
  8
0
100
AcDbBlockBegin
  2
_BOXBLANK
 70
     0
 71
     0
 10
0.0
 20
0.0
 30
0.0
  3
_BOXBLANK
  1

  0
LINE
  5
50
330
4F
100
AcDbEntity
  8
0
100
AcDbLine
 10
-0.5
 20
-0.5
 30
0.0
 11
0.5
 21
-0.5
 31
0.0
  0
LINE
  5
51
330
4F
100
AcDbEntity
  8
0
100
AcDbLine
 10
0.5
 20
-0.5
 30
0.0
 11
0.5
 21
0.5
 31
0.0
  0
LINE
  5
52
330
4F
100
AcDbEntity
  8
0
100
AcDbLine
 10
0.5
 20
0.5
 30
0.0
 11
-0.5
 21
0.5
 31
0.0
  0
LINE
  5
53
330
4F
100
AcDbEntity
  8
0
100
AcDbLine
 10
-0.5
 20
0.5
 30
0.0
 11
-0.5
 21
-0.5
 31
0.0
  0
LINE
  5
54
330
4F
100
AcDbEntity
  8
0
100
AcDbLine
 10
-0.5
 20
0.0
 30
0.0
 11
-1.0
 21
0.0
 31
0.0
  0
ENDBLK
  5
56
330
4F
100
AcDbEntity
  8
0
100
AcDbBlockEnd
  0
BLOCK
  5
5A
330
57
100
AcDbEntity
  8
0
100
AcDbBlockBegin
  2
_BOXFILLED
 70
     0
 71
     0
 10
0.0
 20
0.0
 30
0.0
  3
_BOXFILLED
  1

  0
SOLID
  5
58
330
57
100
AcDbEntity
  8
0
100
AcDbTrace
 10
-0.5
 20
0.5
 30
0.0
 11
0.5
 21
0.5
 31
0.0
 12
-0.5
 22
-0.5
 32
0.0
 13
0.5
 23
-0.5
 33
0.0
  0
LINE
  5
59
330
57
100
AcDbEntity
  8
0
100
AcDbLine
 10
-0.5
 20
0.0
 30
0.0
 11
-1.0
 21
0.0
 31
0.0
  0
ENDBLK
  5
5B
330
57
100
AcDbEntity
  8
0
100
AcDbBlockEnd
  0
BLOCK
  5
5F
330
5C
100
AcDbEntity
  8
0
100
AcDbBlockBegin
  2
_INTEGRAL
 70
     0
 71
     0
 10
0.0
 20
0.0
 30
0.0
  3
_INTEGRAL
  1

  0
ARC
  5
5D
330
5C
100
AcDbEntity
  8
0
100
AcDbCircle
 10
0.444888
 20
-0.0913346
 30
0.0
 40
0.4541666
100
AcDbArc
 50
5844.169510334396
 51
9625.69095819783
  0
ARC
  5
5E
330
5C
100
AcDbEntity
  8
0
100
AcDbCircle
 10
-0.444888
 20
0.0913346
 30
0.0
 40
0.4541666
100
AcDbArc
 50
16157.40982268921
 51
19938.93127055265
  0
ENDBLK
  5
60
330
5C
100
AcDbEntity
  8
0
100
AcDbBlockEnd
  0
BLOCK
  5
63
330
61
100
AcDbEntity
  8
0
100
AcDbBlockBegin
  2
_OBLIQUE
 70
     0
 71
     0
 10
0.0
 20
0.0
 30
0.0
  3
_OBLIQUE
  1

  0
LINE
  5
62
330
61
100
AcDbEntity
  8
0
100
AcDbLine
 10
-0.5
 20
-0.5
 30
0.0
 11
0.5
 21
0.5
 31
0.0
  0
ENDBLK
  5
64
330
61
100
AcDbEntity
  8
0
100
AcDbBlockEnd
  0
BLOCK
  5
66
330
65
100
AcDbEntity
  8
0
100
AcDbBlockBegin
  2
_NONE
 70
     0
 71
     0
 10
0.0
 20
0.0
 30
0.0
  3
_NONE
  1

  0
ENDBLK
  5
67
330
65
100
AcDbEntity
  8
0
100
AcDbBlockEnd
  0
ENDSEC
  0
SECTION
  2
ENTITIES
  0
TEXT
  5
98
330
1F
100
AcDbEntity
  8
135
  6
Continuous
 62
     7
370
    15
100
AcDbText
 10
31.79607395110867
 20
135.0763648428488
 30
0.0
 40
2.5
  1
6
 50
89.99999999999991
100
AcDbText
  0
ARC
  5
99
330
1F
100
AcDbEntity
  8
140
  6
Continuous
 62
     5
370
    15
100
AcDbCircle
 10
99.79496634022826
 20
199.6104391297338
 30
0.0
 40
36.0
100
AcDbArc
 50
4.650709004879439
 51
45.00000000058899
  0
ARC
  5
9A
330
1F
100
AcDbEntity
  8
140
  6
Continuous
 62
     5
370
    15
100
AcDbCircle
 10
99.79496634022826
 20
199.6104391297338
 30
0.0
 40
39.0
100
AcDbArc
 50
4.528063013808153
 51
45.00000000055215
  0
ARC
  5
9B
330
1F
100
AcDbEntity
  8
140
  6
Continuous
 62
     5
370
    15
100
AcDbCircle
 10
99.79496634022826
 20
199.6104391297338
 30
0.0
 40
36.5
100
AcDbArc
 50
4.650709004879641
 51
45.0000000005811
  0
ARC
  5
9C
330
1F
100
AcDbEntity
  8
140
  6
Continuous
 62
     5
370
    15
100
AcDbCircle
 10
99.79496634022826
 20
199.6104391297338
 30
0.0
 40
38.5
100
AcDbArc
 50
4.528063013808159
 51
45.00000000055965
  0
ARC
  5
9D
330
1F
100
AcDbEntity
  8
136
  6
DASHDOT
 62
     1
370
    15
100
AcDbCircle
 10
99.79496634022826
 20
199.6104391297338
 30
0.0
 40
37.5
100
AcDbArc
 50
359.9999999999993
 51
180.0
  0
ARC
  5
9E
330
1F
100
AcDbEntity
  8
140
  6
Continuous
 62
     5
370
    15
100
AcDbCircle
 10
99.79496634022826
 20
199.6104391297338
 30
0.0
 40
49.0
100
AcDbArc
 50
0.0
 51
179.9999999999998
  0
ARC
  5
9F
330
1F
100
AcDbEntity
  8
140
  6
Continuous
 62
     5
370
    15
100
AcDbCircle
 10
99.79496634022826
 20
199.6104391297338
 30
0.0
 40
52.0
100
AcDbArc
 50
0.0
 51
179.9999999999998
  0
ARC
  5
A0
330
1F
100
AcDbEntity
  8
140
  6
Continuous
 62
     5
370
    15
100
AcDbCircle
 10
99.79496634022826
 20
199.6104391297338
 30
0.0
 40
52.5
100
AcDbArc
 50
0.0
 51
179.9999999999998
  0
ARC
  5
A1
330
1F
100
AcDbEntity
  8
140
  6
Continuous
 62
     5
370
    15
100
AcDbCircle
 10
99.79496634022848
 20
199.6104391297878
 30
0.0
 40
34.0
100
AcDbArc
 50
1.13189152185422
 51
88.86810847805533
  0
LINE
  5
A2
330
1F
100
AcDbEntity
  8
140
  6
Continuous
 62
     5
370
    15
100
AcDbLine
 10
164.794966340203
 20
218.3604391297338
 30
0.0
 11
164.794966340203
 21
199.6104391297338
 31
0.0
  0
ARC
  5
A3
330
1F
100
AcDbEntity
  8
140
  6
Continuous
 62
     5
370
    15
100
AcDbCircle
 10
99.79496634022826
 20
199.6104391297338
 30
0.0
 40
36.0
100
AcDbArc
 50
134.9999999994108
 51
175.3492909951202
  0
ARC
  5
A4
330
1F
100
AcDbEntity
  8
140
  6
Continuous
 62
     5
370
    15
100
AcDbCircle
 10
99.79496634022826
 20
199.6104391297338
 30
0.0
 40
39.0
100
AcDbArc
 50
134.9999999994477
 51
175.4719369861915
  0
ARC
  5
A5
330
1F
100
AcDbEntity
  8
140
  6
Continuous
 62
     5
370
    15
100
AcDbCircle
 10
99.79496634022826
 20
199.6104391297338
 30
0.0
 40
36.5
100
AcDbArc
 50
134.9999999994186
 51
175.34929099512
  0
ARC
  5
A6
330
1F
100
AcDbEntity
  8
140
  6
Continuous
 62
     5
370
    15
100
AcDbCircle
 10
99.79496634022826
 20
199.6104391297338
 30
0.0
 40
38.5
100
AcDbArc
 50
134.9999999994401
 51
175.4719369861915
  0
ARC
  5
A7
330
1F
100
AcDbEntity
  8
140
  6
Continuous
 62
     5
370
    15
100
AcDbCircle
 10
99.79496634022848
 20
199.6104391297338
 30
0.0
 40
22.5
100
AcDbArc
 50
359.9999999999991
 51
180.0000000000002
  0
ARC
  5
A8
330
1F
100
AcDbEntity
  8
140
  6
Continuous
 62
     5
370
    15
100
AcDbCircle
 10
99.79496634022826
 20
199.6104391297338
 30
0.0
 40
27.49999999978922
100
AcDbArc
 50
359.9999999999992
 51
180.0000000000001
  0
ARC
  5
A9
330
1F
100
AcDbEntity
  8
140
  6
Continuous
 62
     5
370
    15
100
AcDbCircle
 10
99.79496634022848
 20
199.6104391297878
 30
0.0
 40
34.0
100
AcDbArc
 50
91.13189152185346
 51
178.8681084780545
  0
ARC
  5
AA
330
1F
100
AcDbEntity
  8
140
  6
Continuous
 62
     5
370
    15
100
AcDbCircle
 10
99.79496634022848
 20
199.6104391297878
 30
0.0
 40
33.0
100
AcDbArc
 50
359.9999999999055
 51
180.0000000000937
  0
ELLIPSE
  5
AB
330
1F
100
AcDbEntity
  8
140
  6
Continuous
 62
     5
370
    15
100
AcDbEllipse
 10
134.3976199767824
 20
199.6104391297609
 30
0.0
 11
2.019430718040733E-15
 21
-1.25
 31
0.0
210
0.0
220
0.0
230
1.0
 40
0.5779442907577504
 41
1.570796326794897
 42
3.141592653589799
  0
ELLIPSE
  5
AC
330
1F
100
AcDbEntity
  8
140
  6
Continuous
 62
     5
370
    15
100
AcDbEllipse
 10
134.3976199767824
 20
199.6104391297609
 30
0.0
 11
2.019430718040733E-15
 21
-1.25
 31
0.0
210
0.0
220
0.0
230
1.0
 40
0.9613678097724915
 41
3.141592653589799
 42
4.712388980384696
  0
ARC
  5
AD
330
1F
100
AcDbEntity
  8
140
  6
Continuous
 62
     5
370
    15
100
AcDbCircle
 10
137.67636018998
 20
202.6104391297338
 30
0.0
 40
1.0
100
AcDbArc
 50
269.9999999999998
 51
4.528063013807974
  0
ARC
  5
AE
330
1F
100
AcDbEntity
  8
140
  6
Continuous
 62
     5
370
    15
100
AcDbCircle
 10
137.67636018998
 20
202.6104391297338
 30
0.0
 40
0.5
100
AcDbArc
 50
269.9999999999998
 51
4.528063013807717
  0
ARC
  5
AF
330
1F
100
AcDbEntity
  8
140
  6
Continuous
 62
     5
370
    15
100
AcDbCircle
 10
136.6731441693998
 20
202.6104391297338
 30
0.0
 40
0.5
100
AcDbArc
 50
184.6507090048771
 51
269.9999999999998
  0
LINE
  5
B0
330
1F
100
AcDbEntity
  8
140
  6
Continuous
 62
     5
370
    15
100
AcDbLine
 10
136.6731441693998
 20
202.1104391297338
 30
0.0
 11
137.67636018998
 21
202.1104391297338
 31
0.0
  0
LINE
  5
B1
330
1F
100
AcDbEntity
  8
140
  6
Continuous
 62
     5
370
    15
100
AcDbLine
 10
136.6731441693998
 20
201.6104391297338
 30
0.0
 11
137.67636018998
 21
201.6104391297338
 31
0.0
  0
ARC
  5
B2
330
1F
100
AcDbEntity
  8
140
  6
Continuous
 62
     5
370
    15
100
AcDbCircle
 10
136.6731441693998
 20
202.6104391297338
 30
0.0
 40
1.0
100
AcDbArc
 50
184.6507090048803
 51
269.9999999999998
  0
LINE
  5
B3
330
1F
100
AcDbEntity
  8
140
  6
Continuous
 62
     5
370
    15
100
AcDbLine
 10
122.2268075486536
 20
201.3604391297338
 30
0.0
 11
77.36312513180337
 21
201.3604391297338
 31
0.0
  0
LINE
  5
B4
330
1F
100
AcDbEntity
  8
140
  6
Continuous
 62
     5
370
    15
100
AcDbLine
 10
122.2602172847428
 20
200.8604391297338
 30
0.0
 11
77.32971539571417
 21
200.8604391297338
 31
0.0
  0
ELLIPSE
  5
B5
330
1F
100
AcDbEntity
  8
140
  6
Continuous
 62
     5
370
    15
100
AcDbEllipse
 10
65.19231270367413
 20
199.610439129815
 30
0.0
 11
2.019430718040733E-15
 21
1.25
 31
0.0
210
0.0
220
0.0
230
1.0
 40
0.5779442907577504
 41
0.0
 42
1.570796326794897
  0
ELLIPSE
  5
B6
330
1F
100
AcDbEntity
  8
140
  6
Continuous
 62
     5
370
    15
100
AcDbEllipse
 10
65.19231270367413
 20
199.610439129815
 30
0.0
 11
2.019430718040733E-15
 21
1.25
 31
0.0
210
0.0
220
0.0
230
1.0
 40
0.9613678097724915
 41
4.712388980384696
 42
6.283185307179592
  0
LINE
  5
B7
330
1F
100
AcDbEntity
  8
140
  6
Continuous
 62
     5
370
    15
100
AcDbLine
 10
62.91678851105689
 20
202.1104391297338
 30
0.0
 11
61.91357249047655
 21
202.1104391297338
 31
0.0
  0
LINE
  5
B8
330
1F
100
AcDbEntity
  8
140
  6
Continuous
 62
     5
370
    15
100
AcDbLine
 10
62.91678851105689
 20
201.6104391297338
 30
0.0
 11
61.91357249047655
 21
201.6104391297338
 31
0.0
  0
ARC
  5
B9
330
1F
100
AcDbEntity
  8
140
  6
Continuous
 62
     5
370
    15
100
AcDbCircle
 10
62.91678851105689
 20
202.6104391297338
 30
0.0
 40
1.0
100
AcDbArc
 50
269.9999999999998
 51
355.349290995119
  0
ARC
  5
BA
330
1F
100
AcDbEntity
  8
140
  6
Continuous
 62
     5
370
    15
100
AcDbCircle
 10
62.91678851105689
 20
202.6104391297338
 30
0.0
 40
0.5
100
AcDbArc
 50
269.9999999999998
 51
355.3492909951223
  0
ARC
  5
BB
330
1F
100
AcDbEntity
  8
140
  6
Continuous
 62
     5
370
    15
100
AcDbCircle
 10
61.91357249047655
 20
202.6104391297338
 30
0.0
 40
1.0
100
AcDbArc
 50
175.471936986192
 51
269.9999999999998
  0
ARC
  5
BC
330
1F
100
AcDbEntity
  8
140
  6
Continuous
 62
     5
370
    15
100
AcDbCircle
 10
61.91357249047655
 20
202.6104391297338
 30
0.0
 40
0.5
100
AcDbArc
 50
175.4719369861923
 51
269.9999999999998
  0
CIRCLE
  5
BD
330
1F
100
AcDbEntity
  8
140
  6
Continuous
 62
     5
370
    15
100
AcDbCircle
 10
62.34833765352266
 20
201.6104391297338
 30
0.0
 40
0.5
  0
CIRCLE
  5
BE
330
1F
100
AcDbEntity
  8
140
  6
Continuous
 62
     5
370
    15
100
AcDbCircle
 10
62.34833765352266
 20
201.6104391297338
 30
0.0
 40
0.25
  0
ARC
  5
BF
330
1F
100
AcDbEntity
  8
140
  6
Continuous
 62
     5
370
    15
100
AcDbCircle
 10
99.79496634065731
 20
199.6104391301629
 30
0.0
 40
36.0
100
AcDbArc
 50
94.65070900466169
 51
135.0000000003692
  0
ARC
  5
C0
330
1F
100
AcDbEntity
  8
140
  6
Continuous
 62
     5
370
    15
100
AcDbCircle
 10
99.79496634065731
 20
199.6104391301629
 30
0.0
 40
39.0
100
AcDbArc
 50
94.5280630135857
 51
135.0000000003323
  0
ARC
  5
C1
330
1F
100
AcDbEntity
  8
140
  6
Continuous
 62
     5
370
    15
100
AcDbCircle
 10
99.79496634065731
 20
199.6104391301629
 30
0.0
 40
36.5
100
AcDbArc
 50
94.65070900466169
 51
135.0000000003613
  0
ARC
  5
C2
330
1F
100
AcDbEntity
  8
140
  6
Continuous
 62
     5
370
    15
100
AcDbCircle
 10
99.79496634065731
 20
199.6104391301629
 30
0.0
 40
38.5
100
AcDbArc
 50
94.5280630135857
 51
135.0000000003399
  0
ARC
  5
C3
330
1F
100
AcDbEntity
  8
140
  6
Continuous
 62
     5
370
    15
100
AcDbCircle
 10
99.7949663397992
 20
199.6104391301629
 30
0.0
 40
36.0
100
AcDbArc
 50
44.9999999996307
 51
85.34929099533832
  0
ARC
  5
C4
330
1F
100
AcDbEntity
  8
140
  6
Continuous
 62
     5
370
    15
100
AcDbCircle
 10
99.7949663397992
 20
199.6104391301629
 30
0.0
 40
39.0
100
AcDbArc
 50
44.99999999966755
 51
85.47193698640778
  0
ARC
  5
C5
330
1F
100
AcDbEntity
  8
140
  6
Continuous
 62
     5
370
    15
100
AcDbCircle
 10
99.7949663397992
 20
199.6104391301629
 30
0.0
 40
36.5
100
AcDbArc
 50
44.9999999996386
 51
85.34929099533832
  0
ARC
  5
C6
330
1F
100
AcDbEntity
  8
140
  6
Continuous
 62
     5
370
    15
100
AcDbCircle
 10
99.7949663397992
 20
199.6104391301629
 30
0.0
 40
38.5
100
AcDbArc
 50
44.99999999966003
 51
85.47193698640778
  0
ARC
  5
C7
330
1F
100
AcDbEntity
  8
140
  6
Continuous
 62
     5
370
    15
100
AcDbCircle
 10
149.5603749496267
 20
222.1104391297338
 30
0.0
 40
2.5
100
AcDbArc
 50
25.20830211115853
 51
89.99999999999991
  0
ARC
  5
C8
330
1F
100
AcDbEntity
  8
140
  6
Continuous
 62
     5
370
    15
100
AcDbCircle
 10
155.4397256665725
 20
221.3604391297338
 30
0.0
 40
2.5
100
AcDbArc
 50
205.2083021111576
 51
269.9999999999998
  0
ARC
  5
C9
330
1F
100
AcDbEntity
  8
140
  6
Continuous
 62
     5
370
    15
100
AcDbCircle
 10
164.294966340203
 20
218.3604391297338
 30
0.0
 40
0.5
100
AcDbArc
 50
0.0
 51
89.99999999999991
  0
LINE
  5
CA
330
1F
100
AcDbEntity
  8
140
  6
Continuous
 62
     5
370
    15
100
AcDbLine
 10
164.294966340203
 20
218.8604391297338
 30
0.0
 11
155.4397256665725
 21
218.8604391297338
 31
0.0
  0
LINE
  5
CB
330
1F
100
AcDbEntity
  8
140
  6
Continuous
 62
     5
370
    15
100
AcDbLine
 10
153.1778122968237
 20
220.2956631402643
 30
0.0
 11
151.8222883193758
 21
223.1752151192036
 31
0.0
  0
LINE
  5
CC
330
1F
100
AcDbEntity
  8
140
  6
Continuous
 62
     5
370
    15
100
AcDbLine
 10
149.5603749496267
 20
224.6104391297338
 30
0.0
 11
145.9604296217766
 21
224.6104391297338
 31
0.0
  0
ARC
  5
CD
330
1F
100
AcDbEntity
  8
140
  6
Continuous
 62
     5
370
    15
100
AcDbCircle
 10
96.79496634080238
 20
237.4918329799261
 30
0.0
 40
1.0
100
AcDbArc
 50
359.9999999997798
 51
94.52806301358565
  0
ARC
  5
CE
330
1F
100
AcDbEntity
  8
140
  6
Continuous
 62
     5
370
    15
100
AcDbCircle
 10
96.79496634080238
 20
237.4918329799261
 30
0.0
 40
0.5
100
AcDbArc
 50
359.9999999997814
 51
94.52806301358565
  0
ARC
  5
CF
330
1F
100
AcDbEntity
  8
140
  6
Continuous
 62
     5
370
    15
100
AcDbCircle
 10
96.79496634079851
 20
236.4886169593458
 30
0.0
 40
1.0
100
AcDbArc
 50
274.6507090046613
 51
359.9999999997798
  0
ELLIPSE
  5
D0
330
1F
100
AcDbEntity
  8
140
  6
Continuous
 62
     5
370
    15
100
AcDbEllipse
 10
99.79496634025531
 20
234.2130927663418
 30
0.0
 11
1.25
 21
0.0
 31
0.0
210
0.0
220
0.0
230
1.0
 40
0.9613678097724915
 41
3.141592653589799
 42
6.283185307179592
  0
CIRCLE
  5
D1
330
1F
100
AcDbEntity
  8
140
  6
Continuous
 62
     5
370
    15
100
AcDbCircle
 10
99.79496634022826
 20
234.4333049224612
 30
0.0
 40
0.5
  0
CIRCLE
  5
D2
330
1F
100
AcDbEntity
  8
140
  6
Continuous
 62
     5
370
    15
100
AcDbCircle
 10
99.79496634022826
 20
234.4333049224612
 30
0.0
 40
0.25
  0
ARC
  5
D3
330
1F
100
AcDbEntity
  8
140
  6
Continuous
 62
     5
370
    15
100
AcDbCircle
 10
96.79496634079851
 20
236.4886169593458
 30
0.0
 40
0.5
100
AcDbArc
 50
274.6507090046547
 51
359.9999999997814
  0
LINE
  5
D4
330
1F
100
AcDbEntity
  8
140
  6
Continuous
 62
     5
370
    15
100
AcDbLine
 10
97.29496634079851
 20
236.4886169593439
 30
0.0
 11
97.29496634080238
 21
237.491832979924
 31
0.0
  0
LINE
  5
D5
330
1F
100
AcDbEntity
  8
140
  6
Continuous
 62
     5
370
    15
100
AcDbLine
 10
97.79496634079862
 20
236.488616959342
 30
0.0
 11
97.79496634080238
 21
237.4918329799221
 31
0.0
  0
ARC
  5
D6
330
1F
100
AcDbEntity
  8
140
  6
Continuous
 62
     5
370
    15
100
AcDbCircle
 10
102.7949663396541
 20
237.4918329799261
 30
0.0
 40
1.0
100
AcDbArc
 50
85.47193698640785
 51
180.0000000002179
  0
ARC
  5
D7
330
1F
100
AcDbEntity
  8
140
  6
Continuous
 62
     5
370
    15
100
AcDbCircle
 10
102.7949663396578
 20
236.4886169593458
 30
0.0
 40
1.0
100
AcDbArc
 50
180.0000000002179
 51
265.3492909953379
  0
ARC
  5
D8
330
1F
100
AcDbEntity
  8
140
  6
Continuous
 62
     5
370
    15
100
AcDbCircle
 10
102.7949663396541
 20
237.4918329799261
 30
0.0
 40
0.5
100
AcDbArc
 50
85.47193698641435
 51
180.0000000002179
  0
ARC
  5
D9
330
1F
100
AcDbEntity
  8
140
  6
Continuous
 62
     5
370
    15
100
AcDbCircle
 10
102.7949663396578
 20
236.4886169593458
 30
0.0
 40
0.5
100
AcDbArc
 50
180.0000000002179
 51
265.3492909953445
  0
LINE
  5
DA
330
1F
100
AcDbEntity
  8
140
  6
Continuous
 62
     5
370
    15
100
AcDbLine
 10
102.2949663396578
 20
236.4886169593438
 30
0.0
 11
102.294966339654
 21
237.491832979924
 31
0.0
  0
LINE
  5
DB
330
1F
100
AcDbEntity
  8
140
  6
Continuous
 62
     5
370
    15
100
AcDbLine
 10
101.7949663396579
 20
236.4886169593419
 30
0.0
 11
101.7949663396539
 21
237.491832979922
 31
0.0
  0
ELLIPSE
  5
DC
330
1F
100
AcDbEntity
  8
140
  6
Continuous
 62
     5
370
    15
100
AcDbEllipse
 10
99.79496634025531
 20
234.2130927663418
 30
0.0
 11
1.25
 21
0.0
 31
0.0
210
0.0
220
0.0
230
1.0
 40
0.5779442907577732
 41
0.0
 42
3.141592653589799
  0
LINE
  5
DD
330
1F
100
AcDbEntity
  8
138
  6
Continuous
 62
     7
370
    15
100
AcDbLine
 10
96.84099415615015
 20
235.4744813724759
 30
0.0
 11
99.79496634022826
 21
234.4333049224612
 31
0.0
  0
LINE
  5
DE
330
1F
100
AcDbEntity
  8
138
  6
Continuous
 62
     7
370
    15
100
AcDbLine
 10
99.79496634022826
 20
234.4333049224612
 30
0.0
 11
71.37746109791186
 21
255.1671765853527
 31
0.0
  0
LINE
  5
DF
330
1F
100
AcDbEntity
  8
138
  6
Continuous
 62
     7
370
    15
100
AcDbLine
 10
99.79496634022826
 20
234.4333049224612
 30
0.0
 11
97.90193078242078
 21
236.9285837528226
 31
0.0
  0
LINE
  5
E0
330
1F
100
AcDbEntity
  8
134
  6
Continuous
 62
     7
370
    15
100
AcDbLine
 10
0.0
 20
0.0
 30
0.0
 11
0.0
 21
297.0
 31
0.0
  0
LINE
  5
E1
330
1F
100
AcDbEntity
  8
132
  6
Continuous
 62
     7
370
    35
100
AcDbLine
 10
15.99999999999989
 20
12.0
 30
0.0
 11
15.99999999999989
 21
285.0
 31
0.0
  0
LINE
  5
E2
330
1F
100
AcDbEntity
  8
132
  6
Continuous
 62
     7
370
    35
100
AcDbLine
 10
198.0
 20
12.0
 30
0.0
 11
198.0
 21
285.0
 31
0.0
  0
LINE
  5
E3
330
1F
100
AcDbEntity
  8
134
  6
Continuous
 62
     7
370
    15
100
AcDbLine
 10
210.0
 20
0.0
 30
0.0
 11
210.0
 21
297.0
 31
0.0
  0
LINE
  5
E4
330
1F
100
AcDbEntity
  8
134
  6
Continuous
 62
     7
370
    15
100
AcDbLine
 10
210.0
 20
0.0
 30
0.0
 11
0.0
 21
0.0
 31
0.0
  0
LINE
  5
E5
330
1F
100
AcDbEntity
  8
132
  6
Continuous
 62
     7
370
    35
100
AcDbLine
 10
198.0
 20
12.0
 30
0.0
 11
15.99999999999989
 21
12.0
 31
0.0
  0
LINE
  5
E6
330
1F
100
AcDbEntity
  8
138
  6
Continuous
 62
     7
370
    15
100
AcDbLine
 10
27.61050134022832
 20
199.6104391297336
 30
0.0
 11
170.3435113402282
 21
199.6104391297336
 31
0.0
  0
LINE
  5
E7
330
1F
100
AcDbEntity
  8
136
  6
DASHDOT
 62
     1
370
    15
100
AcDbLine
 10
99.79496634022826
 20
193.6104391297336
 30
0.0
 11
99.79496634022831
 21
258.1104391297338
 31
0.0
  0
LINE
  5
E8
330
1F
100
AcDbEntity
  8
134
  6
Continuous
 62
     7
370
    15
100
AcDbLine
 10
198.0
 20
281.5
 30
0.0
 11
91.0
 21
281.5
 31
0.0
  0
LINE
  5
E9
330
1F
100
AcDbEntity
  8
134
  6
Continuous
 62
     7
370
    15
100
AcDbLine
 10
210.0
 20
297.0
 30
0.0
 11
0.0
 21
297.0
 31
0.0
  0
LINE
  5
EA
330
1F
100
AcDbEntity
  8
132
  6
Continuous
 62
     7
370
    35
100
AcDbLine
 10
198.0
 20
285.0
 30
0.0
 11
15.99999999999989
 21
285.0
 31
0.0
  0
LINE
  5
EB
330
1F
100
AcDbEntity
  8
134
  6
Continuous
 62
     7
370
    15
100
AcDbLine
 10
91.0
 20
274.5000000000001
 30
0.0
 11
91.0
 21
284.9999999999999
 31
0.0
  0
LINE
  5
EC
330
1F
100
AcDbEntity
  8
134
  6
Continuous
 62
     7
370
    15
100
AcDbLine
 10
97.99999999999994
 20
274.5000000000001
 30
0.0
 11
98.0
 21
284.9999999999999
 31
0.0
  0
TEXT
  5
ED
330
1F
100
AcDbEntity
  8
133
  6
Continuous
 62
     4
370
    15
100
AcDbText
 10
91.86821014549093
 20
282.0927013999436
 30
0.0
 40
2.5
  1
記号
 41
0.96
100
AcDbText
  0
TEXT
  5
EE
330
1F
100
AcDbEntity
  8
133
  6
Continuous
 62
     4
370
    15
100
AcDbText
 10
148.9468543973055
 20
282.0927013999436
 30
0.0
 40
2.5
  1
訂 正 年 月 日
 41
0.9599999999999997
100
AcDbText
  0
TEXT
  5
EF
330
1F
100
AcDbEntity
  8
133
  6
Continuous
 62
     4
370
    15
100
AcDbText
 10
111.8682766820858
 20
282.0927013999436
 30
0.0
 40
2.5
  1
訂　 正　 記　 事
 41
0.96
100
AcDbText
  0
LINE
  5
F0
330
1F
100
AcDbEntity
  8
134
  6
Continuous
 62
     7
370
    15
100
AcDbLine
 10
148.0
 20
274.5000000000001
 30
0.0
 11
148.0
 21
284.9999999999999
 31
0.0
  0
TEXT
  5
F1
330
1F
100
AcDbEntity
  8
133
  6
Continuous
 62
     4
370
    15
100
AcDbText
 10
174.0335588819848
 20
282.1531610554545
 30
0.0
 40
2.5
  1
備　　　　　考
 41
0.96
100
AcDbText
  0
LINE
  5
F2
330
1F
100
AcDbEntity
  8
134
  6
Continuous
 62
     7
370
    15
100
AcDbLine
 10
168.0
 20
274.5000000000001
 30
0.0
 11
168.0
 21
284.9999999999999
 31
0.0
  0
TEXT
  5
F3
330
1F
100
AcDbEntity
  8
135
  6
Continuous
 62
     7
370
    15
100
AcDbText
 10
40.55754896328239
 20
255.9247957565223
 30
0.0
 40
2.5
  1
水抜き穴 ４－φ５キリ穴
 41
0.9599999999999997
100
AcDbText
  0
LINE
  5
F4
330
1F
100
AcDbEntity
  8
137
  6
Continuous
 62
     4
370
    15
100
AcDbLine
 10
68.1054371730404
 20
90.48085265071569
 30
0.0
 11
68.1054371730404
 21
73.91867433975966
 31
0.0
  0
LINE
  5
F5
330
1F
100
AcDbEntity
  8
137
  6
Continuous
 62
     4
370
    15
100
AcDbLine
 10
164.7949663406231
 20
90.08391492253662
 30
0.0
 11
164.7949663406231
 21
67.91867433975972
 31
0.0
  0
LINE
  5
F6
330
1F
100
AcDbEntity
  8
137
  6
Continuous
 62
     4
370
    15
100
AcDbLine
 10
99.7949663406232
 20
84.05341371238131
 30
0.0
 11
99.7949663406232
 21
73.91867433975966
 31
0.0
  0
LINE
  5
F7
330
1F
100
AcDbEntity
  8
137
  6
Continuous
 62
     4
370
    15
100
AcDbLine
 10
99.7949663406232
 20
84.05341371238131
 30
0.0
 11
99.7949663406232
 21
73.91867433975966
 31
0.0
  0
LINE
  5
F8
330
1F
100
AcDbEntity
  8
137
  6
Continuous
 62
     4
370
    15
100
AcDbLine
 10
99.7949663406232
 20
74.41867433975966
 30
0.0
 11
68.1054371730404
 21
74.41867433975966
 31
0.0
  0
LINE
  5
F9
330
1F
100
AcDbEntity
  8
137
  6
Continuous
 62
     4
370
    15
100
AcDbLine
 10
164.7949663406231
 20
74.41867433975966
 30
0.0
 11
99.7949663406232
 21
74.41867433975966
 31
0.0
  0
LINE
  5
FA
330
1F
100
AcDbEntity
  8
137
  6
Continuous
 62
     4
370
    15
100
AcDbLine
 10
62.29496634076918
 20
171.4195040005954
 30
0.0
 11
137.2949663404772
 21
171.4195040005954
 31
0.0
  0
LINE
  5
FB
330
1F
100
AcDbEntity
  8
137
  6
Continuous
 62
     4
370
    15
100
AcDbLine
 10
47.29496634062298
 20
177.4240089906037
 30
0.0
 11
152.2949663406235
 21
177.4240089906037
 31
0.0
  0
LINE
  5
FC
330
1F
100
AcDbEntity
  8
140
  6
Continuous
 62
     5
370
    15
100
AcDbLine
 10
151.1917877888252
 20
89.4158248947731
 30
0.0
 11
72.84346051747502
 21
89.41582489480686
 31
0.0
  0
LINE
  5
FD
330
1F
100
AcDbEntity
  8
140
  6
Continuous
 62
     5
370
    15
100
AcDbLine
 10
150.8989877405726
 20
91.91582489477321
 30
0.0
 11
72.84058624056195
 21
91.91582489480697
 31
0.0
  0
LINE
  5
FE
330
1F
100
AcDbEntity
  8
137
  6
Continuous
 62
     4
370
    15
100
AcDbLine
 10
122.2949663406232
 20
147.4103427362748
 30
0.0
 11
77.29496634062355
 21
147.4103427362748
 31
0.0
  0
LINE
  5
FF
330
1F
100
AcDbEntity
  8
137
  6
Continuous
 62
     4
370
    15
100
AcDbLine
 10
127.2949663407448
 20
153.4151848326418
 30
0.0
 11
72.2949663405858
 21
153.4151848326418
 31
0.0
  0
LINE
  5
100
330
1F
100
AcDbEntity
  8
140
  6
Continuous
 62
     5
370
    15
100
AcDbLine
 10
99.7949663406232
 20
134.9140826165863
 30
0.0
 11
72.4597399927444
 21
134.9140826165863
 31
0.0
  0
LINE
  5
101
330
1F
100
AcDbEntity
  8
136
  6
DASHDOT
 62
     1
370
    15
100
AcDbLine
 10
131.8965541818071
 20
133.4140826165863
 30
0.0
 11
67.30599120431611
 21
133.4140826165863
 31
0.0
  0
LINE
  5
102
330
1F
100
AcDbEntity
  8
140
  6
Continuous
 62
     5
370
    15
100
AcDbLine
 10
99.7949663406232
 20
131.9140826165863
 30
0.0
 11
72.29496634058546
 21
131.9140826164044
 31
0.0
  0
LINE
  5
103
330
1F
100
AcDbEntity
  8
140
  6
Continuous
 62
     5
370
    15
100
AcDbLine
 10
71.09936763557585
 20
129.4140826164015
 30
0.0
 11
99.79496634058546
 21
129.4140826164647
 31
0.0
  0
LINE
  5
104
330
1F
100
AcDbEntity
  8
140
  6
Continuous
 62
     5
370
    15
100
AcDbLine
 10
99.79496634058569
 20
137.4140826164654
 30
0.0
 11
67.24107819644519
 21
137.4140826163931
 31
0.0
  0
LINE
  5
105
330
1F
100
AcDbEntity
  8
137
  6
Continuous
 62
     4
370
    15
100
AcDbLine
 10
132.7949663407074
 20
165.4217359636412
 30
0.0
 11
66.7949663406232
 21
165.4217359636412
 31
0.0
  0
LINE
  5
106
330
1F
100
AcDbEntity
  8
137
  6
Continuous
 62
     4
370
    15
100
AcDbLine
 10
130.2949663407433
 20
159.4178750502274
 30
0.0
 11
69.29496634058546
 21
159.4178750502274
 31
0.0
  0
LINE
  5
107
330
1F
100
AcDbEntity
  8
137
  6
Continuous
 62
     4
370
    15
100
AcDbLine
 10
137.2949663404772
 20
138.9123416215771
 30
0.0
 11
137.2949663404772
 21
171.9195040005954
 31
0.0
  0
LINE
  5
108
330
1F
100
AcDbEntity
  8
137
  6
Continuous
 62
     4
370
    15
100
AcDbLine
 10
152.2949663406235
 20
132.6140826342025
 30
0.0
 11
152.2949663406235
 21
177.9240089906037
 31
0.0
  0
LINE
  5
109
330
1F
100
AcDbEntity
  8
138
  6
Continuous
 62
     7
370
    15
100
AcDbLine
 10
135.6118672051455
 20
134.0878079310919
 30
0.0
 11
149.1091565279783
 21
151.2296006610507
 31
0.0
  0
ARC
  5
10A
330
1F
100
AcDbEntity
  8
140
  6
Continuous
 62
     5
370
    15
100
AcDbCircle
 10
163.794966340623
 20
91.17991972352661
 30
0.0
 40
1.0
100
AcDbArc
 50
268.8999999999941
 51
0.0
  0
LINE
  5
10B
330
1F
100
AcDbEntity
  8
137
  6
Continuous
 62
     4
370
    15
100
AcDbLine
 10
152.3917878067064
 20
89.4158248947731
 30
0.0
 11
192.8628533099782
 21
89.4158248947731
 31
0.0
  0
LINE
  5
10C
330
1F
100
AcDbEntity
  8
136
  6
DASHDOT
 62
     1
370
    15
100
AcDbLine
 10
177.9041934169722
 20
109.4140826163211
 30
0.0
 11
145.0561482485214
 21
109.4140826163211
 31
0.0
  0
LINE
  5
10D
330
1F
100
AcDbEntity
  8
136
  6
DASHDOT
 62
     1
370
    15
100
AcDbLine
 10
177.9986153606867
 20
109.0565958586504
 30
0.0
 11
158.4111992441555
 21
109.4261555613348
 31
0.0
  0
ARC
  5
10E
330
1F
100
AcDbEntity
  8
140
  6
Continuous
 62
     5
370
    15
100
AcDbCircle
 10
163.794966340623
 20
127.686647470929
 30
0.0
 40
1.0
100
AcDbArc
 50
0.0
 51
88.89999999999446
  0
LINE
  5
10F
330
1F
100
AcDbEntity
  8
137
  6
Continuous
 62
     4
370
    15
100
AcDbLine
 10
179.1986153785679
 20
109.0565958586504
 30
0.0
 11
192.8628533099783
 21
109.0565958586504
 31
0.0
  0
LINE
  5
110
330
1F
100
AcDbEntity
  8
137
  6
Continuous
 62
     4
370
    15
100
AcDbLine
 10
192.3628533099782
 20
89.4158248947731
 30
0.0
 11
192.3628533099782
 21
109.0565958586504
 31
0.0
  0
LINE
  5
111
330
1F
100
AcDbEntity
  8
137
  6
Continuous
 62
     4
370
    15
100
AcDbLine
 10
186.8794396700021
 20
123.7532739159469
 30
0.0
 11
186.3074174531343
 21
93.96197212710058
 31
0.0
  0
LINE
  5
112
330
1F
100
AcDbEntity
  8
137
  6
Continuous
 62
     4
370
    15
100
AcDbLine
 10
165.9947452130466
 20
94.48829928958207
 30
0.0
 11
186.8073047869796
 21
93.95130459510756
 31
0.0
  0
LINE
  5
113
330
1F
100
AcDbEntity
  8
137
  6
Continuous
 62
     4
370
    15
100
AcDbLine
 10
165.9947452130478
 20
124.2937920806119
 30
0.0
 11
187.3793876922736
 21
123.745767078003
 31
0.0
  0
LINE
  5
114
330
1F
100
AcDbEntity
  8
137
  6
Continuous
 62
     4
370
    15
100
AcDbLine
 10
79.65467566179882
 20
129.4140826163689
 30
0.0
 11
79.65467566179882
 21
91.91582489477321
 31
0.0
  0
LINE
  5
115
330
1F
100
AcDbEntity
  8
137
  6
Continuous
 62
     4
370
    15
100
AcDbLine
 10
79.65467566179882
 20
129.4140826163689
 30
0.0
 11
79.65467566179882
 21
143.6003127504688
 31
0.0
  0
LINE
  5
116
330
1F
100
AcDbEntity
  8
140
  6
Continuous
 62
     5
370
    15
100
AcDbLine
 10
164.7949663406231
 20
127.686647470929
 30
0.0
 11
164.7949663406231
 21
91.17991972352661
 31
0.0
  0
LINE
  5
117
330
1F
100
AcDbEntity
  8
140
  6
Continuous
 62
     5
370
    15
100
AcDbLine
 10
154.0449602446715
 20
125.5362405417334
 30
0.0
 11
147.3283407477636
 21
129.4140826163248
 31
0.0
  0
LINE
  5
118
330
1F
100
AcDbEntity
  8
136
  6
DASHDOT
 62
     1
370
    15
100
AcDbLine
 10
99.79496634022831
 20
141.4140826164654
 30
0.0
 11
99.79496634022826
 21
85.41582489479526
 31
0.0
  0
LINE
  5
119
330
1F
100
AcDbEntity
  8
137
  6
Continuous
 62
     4
370
    15
100
AcDbLine
 10
89.9574335085839
 20
134.9140826164044
 30
0.0
 11
89.9574335085839
 21
122.18628155974
 31
0.0
  0
LINE
  5
11A
330
1F
100
AcDbEntity
  8
137
  6
Continuous
 62
     4
370
    15
100
AcDbLine
 10
126.4030533581097
 20
96.91582489479464
 30
0.0
 11
139.6572317941873
 21
96.91582489478827
 31
0.0
  0
LINE
  5
11B
330
1F
100
AcDbEntity
  8
140
  6
Continuous
 62
     5
370
    15
100
AcDbLine
 10
164.0449663406231
 20
123.8311375865924
 30
0.0
 11
164.0449663406231
 21
95.02582911740933
 31
0.0
  0
LINE
  5
11C
330
1F
100
AcDbEntity
  8
140
  6
Continuous
 62
     5
370
    15
100
AcDbLine
 10
154.794966340623
 20
124.2372129945572
 30
0.0
 11
154.794966340623
 21
94.59095223808481
 31
0.0
  0
ARC
  5
11D
330
1F
100
AcDbEntity
  8
140
  6
Continuous
 62
     5
370
    15
100
AcDbCircle
 10
154.411226964971
 20
87.85945159765959
 30
0.0
 40
2.5
100
AcDbArc
 50
88.89999999999448
 51
114.8181745838309
  0
ARC
  5
11E
330
1F
100
AcDbEntity
  8
140
  6
Continuous
 62
     5
370
    15
100
AcDbCircle
 10
153.294966340623
 20
94.59095223808481
 30
0.0
 40
1.5
100
AcDbArc
 50
299.768992899766
 51
0.0
  0
LINE
  5
11F
330
1F
100
AcDbEntity
  8
140
  6
Continuous
 62
     5
370
    15
100
AcDbLine
 10
164.7949663406232
 20
94.51133622080499
 30
0.0
 11
164.0449663406232
 21
95.02582911740933
 31
0.0
  0
LINE
  5
120
330
1F
100
AcDbEntity
  8
140
  6
Continuous
 62
     5
370
    15
100
AcDbLine
 10
163.7757688982232
 20
90.1801040114052
 30
0.0
 11
154.4592205709703
 21
90.35899087796372
 31
0.0
  0
LINE
  5
121
330
1F
100
AcDbEntity
  8
140
  6
Continuous
 62
     5
370
    15
100
AcDbLine
 10
164.0449663406234
 20
95.02582911740922
 30
0.0
 11
154.804565061823
 21
95.20325388594426
 31
0.0
  0
LINE
  5
122
330
1F
100
AcDbEntity
  8
140
  6
Continuous
 62
     5
370
    15
100
AcDbLine
 10
164.7949663406225
 20
94.51133622080522
 30
0.0
 11
154.794966340623
 21
94.70334602988373
 31
0.0
  0
ARC
  5
123
330
1F
100
AcDbEntity
  8
140
  6
Continuous
 62
     5
370
    15
100
AcDbCircle
 10
142.8683765772378
 20
112.8196720479363
 30
0.0
 40
22.5
100
AcDbArc
 50
292.483047154538
 51
299.7689928997655
  0
ARC
  5
124
330
1F
100
AcDbEntity
  8
140
  6
Continuous
 62
     5
370
    15
100
AcDbCircle
 10
150.8989877405731
 20
93.41582489477321
 30
0.0
 40
1.5
100
AcDbArc
 50
269.9999999999998
 51
292.4830471545383
  0
ARC
  5
125
330
1F
100
AcDbEntity
  8
140
  6
Continuous
 62
     5
370
    15
100
AcDbCircle
 10
151.191787788826
 20
91.9158248947731
 30
0.0
 40
2.5
100
AcDbArc
 50
269.9999999999998
 51
291.7112624749179
  0
ARC
  5
126
330
1F
100
AcDbEntity
  8
140
  6
Continuous
 62
     5
370
    15
100
AcDbCircle
 10
142.8683765772378
 20
112.8196720479363
 30
0.0
 40
25.0
100
AcDbArc
 50
291.7112624749173
 51
294.8181745838304
  0
ARC
  5
127
330
1F
100
AcDbEntity
  8
140
  6
Continuous
 62
     5
370
    15
100
AcDbCircle
 10
153.294966340623
 20
124.2372129945572
 30
0.0
 40
1.5
100
AcDbArc
 50
0.0
 51
60.23100710023412
  0
LINE
  5
128
330
1F
100
AcDbEntity
  8
140
  6
Continuous
 62
     5
370
    15
100
AcDbLine
 10
164.794966340623
 20
124.316829011835
 30
0.0
 11
164.0449663406231
 21
123.8311375865926
 31
0.0
  0
LINE
  5
129
330
1F
100
AcDbEntity
  8
140
  6
Continuous
 62
     5
370
    15
100
AcDbLine
 10
164.0449663406232
 20
123.8311375865924
 30
0.0
 11
154.7853676194229
 21
124.0089309648527
 31
0.0
  0
LINE
  5
12A
330
1F
100
AcDbEntity
  8
140
  6
Continuous
 62
     5
370
    15
100
AcDbLine
 10
164.7949663406238
 20
124.316829011835
 30
0.0
 11
154.7949663406225
 21
124.5088388209133
 31
0.0
  0
LINE
  5
12B
330
1F
100
AcDbEntity
  8
137
  6
Continuous
 62
     4
370
    15
100
AcDbLine
 10
79.65467566180808
 20
89.4158248948039
 30
0.0
 11
79.65467566180274
 21
84.64445286530241
 31
0.0
  0
LINE
  5
12C
330
1F
100
AcDbEntity
  8
137
  6
Continuous
 62
     4
370
    15
100
AcDbLine
 10
125.2030533402283
 20
103.8968214852051
 30
0.0
 11
70.0762729957957
 21
103.8968214852051
 31
0.0
  0
LINE
  5
12D
330
1F
100
AcDbEntity
  8
137
  6
Continuous
 62
     4
370
    15
100
AcDbLine
 10
125.2030533402283
 20
97.98814685437327
 30
0.0
 11
125.2030533402283
 21
104.3968214852051
 31
0.0
  0
LINE
  5
12E
330
1F
100
AcDbEntity
  8
137
  6
Continuous
 62
     4
370
    15
100
AcDbLine
 10
70.0762729957957
 20
98.82858900395587
 30
0.0
 11
70.07627299579565
 21
104.3968214852051
 31
0.0
  0
LINE
  5
12F
330
1F
100
AcDbEntity
  8
140
  6
Continuous
 62
     5
370
    15
100
AcDbLine
 10
127.2949663407412
 20
131.914082616385
 30
0.0
 11
99.79496634074121
 21
131.9140826164655
 31
0.0
  0
LINE
  5
130
330
1F
100
AcDbEntity
  8
140
  6
Continuous
 62
     5
370
    15
100
AcDbLine
 10
127.2949663407435
 20
134.914082616385
 30
0.0
 11
99.79496634074326
 21
134.9140826164655
 31
0.0
  0
LINE
  5
131
330
1F
100
AcDbEntity
  8
140
  6
Continuous
 62
     5
370
    15
100
AcDbLine
 10
128.2231176645467
 20
129.4140826163818
 30
0.0
 11
99.7949663407395
 21
129.4140826164646
 31
0.0
  0
LINE
  5
132
330
1F
100
AcDbEntity
  8
140
  6
Continuous
 62
     5
370
    15
100
AcDbLine
 10
99.7949663406232
 20
131.9140826165863
 30
0.0
 11
129.2949663406233
 21
131.9140826165863
 31
0.0
  0
LINE
  5
133
330
1F
100
AcDbEntity
  8
140
  6
Continuous
 62
     5
370
    15
100
AcDbLine
 10
99.7949663406232
 20
134.9140826165863
 30
0.0
 11
129.2949663406233
 21
134.9140826165863
 31
0.0
  0
LINE
  5
134
330
1F
100
AcDbEntity
  8
140
  6
Continuous
 62
     5
370
    15
100
AcDbLine
 10
99.79496634074485
 20
137.4140826164654
 30
0.0
 11
132.3488544848851
 21
137.41408261637
 31
0.0
  0
LINE
  5
135
330
1F
100
AcDbEntity
  8
137
  6
Continuous
 62
     4
370
    15
100
AcDbLine
 10
122.2949663406232
 20
133.4140826165862
 30
0.0
 11
122.2949663406231
 21
147.9103427362748
 31
0.0
  0
LINE
  5
136
330
1F
100
AcDbEntity
  8
137
  6
Continuous
 62
     4
370
    15
100
AcDbLine
 10
127.2949663407448
 20
137.9140826163849
 30
0.0
 11
127.2949663407448
 21
153.9151848326418
 31
0.0
  0
LINE
  5
137
330
1F
100
AcDbEntity
  8
137
  6
Continuous
 62
     4
370
    15
100
AcDbLine
 10
132.7949663407074
 20
137.9140826163772
 30
0.0
 11
132.7949663407074
 21
165.9217359636412
 31
0.0
  0
LINE
  5
138
330
1F
100
AcDbEntity
  8
137
  6
Continuous
 62
     4
370
    15
100
AcDbLine
 10
130.2949663407433
 20
137.914082616376
 30
0.0
 11
130.2949663407432
 21
159.9178750502274
 31
0.0
  0
LINE
  5
139
330
1F
100
AcDbEntity
  8
140
  6
Continuous
 62
     5
370
    15
100
AcDbLine
 10
140.9658350982887
 20
131.9140826163549
 30
0.0
 11
148.7590293490184
 21
134.0022627223093
 31
0.0
  0
LINE
  5
13A
330
1F
100
AcDbEntity
  8
140
  6
HIDDEN
 62
     5
370
    15
100
AcDbLine
 10
141.6160666920534
 20
129.5001211957722
 30
0.0
 11
148.7590679572543
 21
131.4140826163284
 31
0.0
  0
LINE
  5
13B
330
1F
100
AcDbEntity
  8
140
  6
Continuous
 62
     5
370
    15
100
AcDbLine
 10
138.3700224229533
 20
134.0022627222916
 30
0.0
 11
148.4085715289475
 21
134.0022627222916
 31
0.0
  0
LINE
  5
13C
330
1F
100
AcDbEntity
  8
140
  6
Continuous
 62
     5
370
    15
100
AcDbLine
 10
133.1378234835603
 20
134.4140826163864
 30
0.0
 11
151.5449663406232
 21
134.4140826163222
 31
0.0
  0
LINE
  5
13D
330
1F
100
AcDbEntity
  8
140
  6
Continuous
 62
     5
370
    15
100
AcDbLine
 10
127.2949663407391
 20
129.4140826164136
 30
0.0
 11
147.3283407477634
 21
129.4140826163247
 31
0.0
  0
ARC
  5
13E
330
1F
100
AcDbEntity
  8
140
  6
Continuous
 62
     5
370
    15
100
AcDbCircle
 10
154.8858388647234
 20
131.3583565839626
 30
0.0
 40
2.5
100
AcDbArc
 50
194.0362434679179
 51
268.8999999999941
  0
LINE
  5
13F
330
1F
100
AcDbEntity
  8
140
  6
Continuous
 62
     5
370
    15
100
AcDbLine
 10
163.8141637830229
 20
128.6864631830508
 30
0.0
 11
154.8378452587242
 21
128.8588173036585
 31
0.0
  0
LINE
  5
140
330
1F
100
AcDbEntity
  8
140
  6
Continuous
 62
     5
370
    15
100
AcDbLine
 10
148.7589345460143
 20
134.0022373199226
 30
0.0
 11
148.7949663405769
 21
134.4140826163348
 31
0.0
  0
LINE
  5
141
330
1F
100
AcDbEntity
  8
140
  6
Continuous
 62
     5
370
    15
100
AcDbLine
 10
151.5449663406232
 20
134.4140826163222
 30
0.0
 11
152.4604826143602
 21
130.7520175213722
 31
0.0
  0
LINE
  5
142
330
1F
100
AcDbEntity
  8
140
  6
HIDDEN
 62
     5
370
    15
100
AcDbLine
 10
148.7590679572555
 20
131.414082616329
 30
0.0
 11
151.9961797189626
 21
131.4140826163218
 31
0.0
  0
LINE
  5
143
330
1F
100
AcDbEntity
  8
140
  6
Continuous
 62
     5
370
    15
100
AcDbLine
 10
133.3685346109301
 20
132.8585583638501
 30
0.0
 11
129.9240588634824
 21
129.4140826164025
 31
0.0
  0
ARC
  5
144
330
1F
100
AcDbEntity
  8
140
  6
Continuous
 62
     5
370
    15
100
AcDbCircle
 10
132.348854484884
 20
136.91408261637
 30
0.0
 40
0.5
100
AcDbArc
 50
6.519801751615199
 51
89.99999999999991
  0
LINE
  5
145
330
1F
100
AcDbEntity
  8
136
  6
DASHDOT
 62
     1
370
    15
100
AcDbLine
 10
135.4121043880814
 20
133.1343611880347
 30
0.0
 11
128.9923319197653
 21
126.714588719719
 31
0.0
  0
LINE
  5
146
330
1F
100
AcDbEntity
  8
138
  6
Continuous
 62
     7
370
    15
100
AcDbLine
 10
135.6118672051455
 20
134.0878079310919
 30
0.0
 11
136.1799731390215
 21
135.5287510392316
 31
0.0
  0
LINE
  5
147
330
1F
100
AcDbEntity
  8
138
  6
Continuous
 62
     7
370
    15
100
AcDbLine
 10
136.9097799491961
 20
134.9994612189147
 30
0.0
 11
135.6118672051455
 21
134.0878079310919
 31
0.0
  0
LINE
  5
148
330
1F
100
AcDbEntity
  8
140
  6
Continuous
 62
     5
370
    15
100
AcDbLine
 10
135.9595927693827
 20
131.9140826163699
 30
0.0
 11
133.4595927694
 21
129.4140826163874
 31
0.0
  0
ARC
  5
149
330
1F
100
AcDbEntity
  8
140
  6
Continuous
 62
     5
370
    15
100
AcDbCircle
 10
135.0156877309814
 20
132.9140826163762
 30
0.0
 40
1.0
100
AcDbArc
 50
269.9999999999998
 51
350.0212021414353
  0
LINE
  5
14A
330
1F
100
AcDbEntity
  8
140
  6
Continuous
 62
     5
370
    15
100
AcDbLine
 10
134.7618733367337
 20
131.914082616378
 30
0.0
 11
137.2949663404772
 21
131.9140826163607
 31
0.0
  0
LINE
  5
14B
330
1F
100
AcDbEntity
  8
136
  6
DASHDOT
 62
     1
370
    15
100
AcDbLine
 10
137.2949663404772
 20
137.7123416036957
 30
0.0
 11
137.2949663404772
 21
130.4108443024301
 31
0.0
  0
ARC
  5
14C
330
1F
100
AcDbEntity
  8
140
  6
Continuous
 62
     5
370
    15
100
AcDbCircle
 10
139.5848209854075
 20
132.9140826163591
 30
0.0
 40
1.0
100
AcDbArc
 50
190.329051022202
 51
269.9999999999998
  0
LINE
  5
14D
330
1F
100
AcDbEntity
  8
140
  6
Continuous
 62
     5
370
    15
100
AcDbLine
 10
136.2949663406228
 20
134.4140826163678
 30
0.0
 11
136.0005596745829
 21
132.7407988759186
 31
0.0
  0
LINE
  5
14E
330
1F
100
AcDbEntity
  8
140
  6
Continuous
 62
     5
370
    15
100
AcDbLine
 10
138.2949663406233
 20
134.4140826163632
 30
0.0
 11
138.6010267330994
 21
132.7347815591249
 31
0.0
  0
LINE
  5
14F
330
1F
100
AcDbEntity
  8
140
  6
Continuous
 62
     5
370
    15
100
AcDbLine
 10
132.8456208212123
 20
136.9708559119504
 30
0.0
 11
133.2715743277594
 21
133.243762729638
 31
0.0
  0
ARC
  5
150
330
1F
100
AcDbEntity
  8
140
  6
Continuous
 62
     5
370
    15
100
AcDbCircle
 10
134.761873336744
 20
133.414082616378
 30
0.0
 40
1.5
100
AcDbArc
 50
186.5198017516146
 51
269.9999999999998
  0
LINE
  5
151
330
1F
100
AcDbEntity
  8
140
  6
Continuous
 62
     5
370
    15
100
AcDbLine
 10
137.2949663404775
 20
131.9140826163662
 30
0.0
 11
140.9658350982886
 21
131.9140826163549
 31
0.0
  0
LINE
  5
152
330
1F
100
AcDbEntity
  8
140
  6
Continuous
 62
     5
370
    15
100
AcDbLine
 10
126.8930244081921
 20
134.3336942301
 30
0.0
 11
122.2949663406232
 21
133.4140826165863
 31
0.0
  0
LINE
  5
153
330
1F
100
AcDbEntity
  8
140
  6
Continuous
 62
     5
370
    15
100
AcDbLine
 10
126.8930244081921
 20
132.4944710030725
 30
0.0
 11
122.2949663406232
 21
133.4140826165863
 31
0.0
  0
LINE
  5
154
330
1F
100
AcDbEntity
  8
140
  6
Continuous
 62
     5
370
    15
100
AcDbLine
 10
127.2949663407448
 20
137.4140826163848
 30
0.0
 11
127.2949663407433
 21
134.9140826163849
 31
0.0
  0
ARC
  5
155
330
1F
100
AcDbEntity
  8
140
  6
Continuous
 62
     5
370
    15
100
AcDbCircle
 10
126.7949663406232
 20
134.8239845679454
 30
0.0
 40
0.5
100
AcDbArc
 50
281.3099324740173
 51
0.0
  0
LINE
  5
156
330
1F
100
AcDbEntity
  8
140
  6
Continuous
 62
     5
370
    15
100
AcDbLine
 10
127.2949663406232
 20
134.8239845679454
 30
0.0
 11
127.2949663406232
 21
134.9140826165863
 31
0.0
  0
ARC
  5
157
330
1F
100
AcDbEntity
  8
140
  6
Continuous
 62
     5
370
    15
100
AcDbCircle
 10
126.7949663406232
 20
132.0041806652267
 30
0.0
 40
0.5
100
AcDbArc
 50
0.0
 51
78.69006752598236
  0
LINE
  5
158
330
1F
100
AcDbEntity
  8
140
  6
Continuous
 62
     5
370
    15
100
AcDbLine
 10
127.2949663406232
 20
132.0041806652267
 30
0.0
 11
127.2949663406232
 21
131.9140826165863
 31
0.0
  0
LINE
  5
159
330
1F
100
AcDbEntity
  8
140
  6
Continuous
 62
     5
370
    15
100
AcDbLine
 10
127.2949663407411
 20
131.9140826163849
 30
0.0
 11
127.2949663407396
 21
129.4140826163846
 31
0.0
  0
ARC
  5
15A
330
1F
100
AcDbEntity
  8
140
  6
Continuous
 62
     5
370
    15
100
AcDbCircle
 10
129.294966340623
 20
132.414082616586
 30
0.0
 40
0.5
100
AcDbArc
 50
269.9999999999998
 51
0.0
  0
ARC
  5
15B
330
1F
100
AcDbEntity
  8
140
  6
Continuous
 62
     5
370
    15
100
AcDbCircle
 10
129.294966340623
 20
134.414082616586
 30
0.0
 40
0.5
100
AcDbArc
 50
0.0
 51
89.99999999999991
  0
LINE
  5
15C
330
1F
100
AcDbEntity
  8
140
  6
Continuous
 62
     5
370
    15
100
AcDbLine
 10
129.7949663406232
 20
134.4140826165863
 30
0.0
 11
129.7949663406232
 21
132.414082616586
 31
0.0
  0
LINE
  5
15D
330
1F
100
AcDbEntity
  8
140
  6
Continuous
 62
     5
370
    15
100
AcDbLine
 10
130.2949663407433
 20
134.9140826163758
 30
0.0
 11
130.2949663407411
 21
131.9140826163758
 31
0.0
  0
LINE
  5
15E
330
1F
100
AcDbEntity
  8
140
  6
Continuous
 62
     5
370
    15
100
AcDbLine
 10
130.2949663407411
 20
131.914082616376
 30
0.0
 11
127.2949663407411
 21
131.9140826163849
 31
0.0
  0
LINE
  5
15F
330
1F
100
AcDbEntity
  8
140
  6
Continuous
 62
     5
370
    15
100
AcDbLine
 10
127.2949663407433
 20
134.9140826163849
 30
0.0
 11
130.2949663407433
 21
134.914082616376
 31
0.0
  0
LINE
  5
160
330
1F
100
AcDbEntity
  8
137
  6
Continuous
 62
     4
370
    15
100
AcDbLine
 10
62.29496634076918
 20
138.9123416215771
 30
0.0
 11
62.29496634076912
 21
171.9195040005954
 31
0.0
  0
LINE
  5
161
330
1F
100
AcDbEntity
  8
137
  6
Continuous
 62
     4
370
    15
100
AcDbLine
 10
47.29496634062298
 20
133.20504439079
 30
0.0
 11
47.29496634062298
 21
177.9240089906037
 31
0.0
  0
LINE
  5
162
330
1F
100
AcDbEntity
  8
140
  6
Continuous
 62
     5
370
    15
100
AcDbLine
 10
62.35697020428222
 20
125.783349002254
 30
0.0
 11
62.1591174588749
 21
128.0448162304865
 31
0.0
  0
LINE
  5
163
330
1F
100
AcDbEntity
  8
140
  6
HIDDEN
 62
     5
370
    15
100
AcDbLine
 10
66.25861728676682
 20
123.716058158801
 30
0.0
 11
66.0791896326175
 21
127.0484948718096
 31
0.0
  0
LINE
  5
164
330
1F
100
AcDbEntity
  8
140
  6
Continuous
 62
     5
370
    15
100
AcDbLine
 10
70.34416689688078
 20
94.28206966877917
 30
0.0
 11
68.60294829189934
 21
126.7803273903739
 31
0.0
  0
LINE
  5
165
330
1F
100
AcDbEntity
  8
137
  6
Continuous
 62
     4
370
    15
100
AcDbLine
 10
32.29822195110881
 20
134.4140826163223
 30
0.0
 11
32.29822195110881
 21
89.41582489480686
 31
0.0
  0
LINE
  5
166
330
1F
100
AcDbEntity
  8
137
  6
Continuous
 62
     4
370
    15
100
AcDbLine
 10
71.64346049959363
 20
89.41582489480686
 30
0.0
 11
25.79822195110887
 21
89.41582489480686
 31
0.0
  0
LINE
  5
167
330
1F
100
AcDbEntity
  8
140
  6
Continuous
 62
     5
370
    15
100
AcDbLine
 10
67.85069753580433
 20
94.14700038394062
 30
0.0
 11
66.29745560118931
 21
122.9947299696407
 31
0.0
  0
ARC
  5
168
330
1F
100
AcDbEntity
  8
140
  6
Continuous
 62
     5
370
    15
100
AcDbCircle
 10
72.8434656440146
 20
94.41582489480686
 30
0.0
 40
5.0
100
AcDbArc
 50
183.0819880307192
 51
269.9999999999998
  0
ARC
  5
169
330
1F
100
AcDbEntity
  8
140
  6
Continuous
 62
     5
370
    15
100
AcDbCircle
 10
72.84058624056297
 20
94.41582489480686
 30
0.0
 40
2.5
100
AcDbArc
 50
183.0669083214895
 51
269.9999999999998
  0
LINE
  5
16A
330
1F
100
AcDbEntity
  8
138
  6
Continuous
 62
     7
370
    15
100
AcDbLine
 10
62.90836318841593
 20
125.524269721955
 30
0.0
 11
56.98878627599288
 21
117.3621109608957
 31
0.0
  0
LINE
  5
16B
330
1F
100
AcDbEntity
  8
138
  6
Continuous
 62
     7
370
    15
100
AcDbLine
 10
62.90836318841593
 20
125.524269721955
 30
0.0
 11
62.39199770499613
 21
124.045802034237
 31
0.0
  0
LINE
  5
16C
330
1F
100
AcDbEntity
  8
138
  6
Continuous
 62
     7
370
    15
100
AcDbLine
 10
61.66343362401744
 20
124.5741905695788
 30
0.0
 11
62.90836318841593
 21
125.524269721955
 31
0.0
  0
ARC
  5
16D
330
1F
100
AcDbEntity
  8
140
  6
Continuous
 62
     5
370
    15
100
AcDbCircle
 10
63.85126225141994
 20
125.9140826163766
 30
0.0
 40
1.5
100
AcDbArc
 50
185.0000000000408
 51
269.9999999999998
  0
ARC
  5
16E
330
1F
100
AcDbEntity
  8
140
  6
Continuous
 62
     5
370
    15
100
AcDbCircle
 10
64.79962516872627
 20
122.9140826163808
 30
0.0
 40
1.5
100
AcDbArc
 50
3.081988030719578
 51
89.99999999999991
  0
LINE
  5
16F
330
1F
100
AcDbEntity
  8
140
  6
Continuous
 62
     5
370
    15
100
AcDbLine
 10
64.79962516871956
 20
124.4140826163808
 30
0.0
 11
63.85126225142653
 21
124.4140826163766
 31
0.0
  0
LINE
  5
170
330
1F
100
AcDbEntity
  8
137
  6
Continuous
 62
     4
370
    15
100
AcDbLine
 10
46.84496632274204
 20
134.4140826163223
 30
0.0
 11
31.79822195110887
 21
134.4140826163223
 31
0.0
  0
LINE
  5
171
330
1F
100
AcDbEntity
  8
137
  6
Continuous
 62
     4
370
    15
100
AcDbLine
 10
66.04107817856402
 20
137.4140826163931
 30
0.0
 11
25.79822195110881
 21
137.4140826163931
 31
0.0
  0
LINE
  5
172
330
1F
100
AcDbEntity
  8
137
  6
Continuous
 62
     4
370
    15
100
AcDbLine
 10
46.84496632274204
 20
134.4140826163223
 30
0.0
 11
31.79822195110881
 21
134.4140826163223
 31
0.0
  0
LINE
  5
173
330
1F
100
AcDbEntity
  8
137
  6
Continuous
 62
     4
370
    15
100
AcDbLine
 10
77.29496634062355
 20
133.4140826165863
 30
0.0
 11
77.29496634062349
 21
147.9103427362748
 31
0.0
  0
LINE
  5
174
330
1F
100
AcDbEntity
  8
137
  6
Continuous
 62
     4
370
    15
100
AcDbLine
 10
66.79496634062315
 20
137.9140826163971
 30
0.0
 11
66.7949663406232
 21
165.9217359636412
 31
0.0
  0
LINE
  5
175
330
1F
100
AcDbEntity
  8
137
  6
Continuous
 62
     4
370
    15
100
AcDbLine
 10
72.2949663405858
 20
137.9140826164085
 30
0.0
 11
72.2949663405858
 21
153.9151848326418
 31
0.0
  0
LINE
  5
176
330
1F
100
AcDbEntity
  8
137
  6
Continuous
 62
     4
370
    15
100
AcDbLine
 10
69.29496634058546
 20
137.9140826163976
 30
0.0
 11
69.29496634058546
 21
159.9178750502274
 31
0.0
  0
LINE
  5
177
330
1F
100
AcDbEntity
  8
140
  6
Continuous
 62
     5
370
    15
100
AcDbLine
 10
61.21991025829334
 20
134.0022627222916
 30
0.0
 11
51.1813611522989
 21
134.0022627222916
 31
0.0
  0
LINE
  5
178
330
1F
100
AcDbEntity
  8
140
  6
Continuous
 62
     5
370
    15
100
AcDbLine
 10
58.62409758295803
 20
131.9140826163549
 30
0.0
 11
50.83090333222822
 21
134.0022627223093
 31
0.0
  0
LINE
  5
179
330
1F
100
AcDbEntity
  8
140
  6
Continuous
 62
     5
370
    15
100
AcDbLine
 10
58.29496634062298
 20
129.4140826159165
 30
0.0
 11
50.83086472399236
 21
131.4140826163284
 31
0.0
  0
LINE
  5
17A
330
1F
100
AcDbEntity
  8
140
  6
Continuous
 62
     5
370
    15
100
AcDbLine
 10
66.2788156639192
 20
134.4140826163857
 30
0.0
 11
48.0449663406232
 21
134.4140826163223
 31
0.0
  0
LINE
  5
17B
330
1F
100
AcDbEntity
  8
137
  6
Continuous
 62
     4
370
    15
100
AcDbLine
 10
61.2949663406232
 20
134.9140826163684
 30
0.0
 11
61.2949663406232
 21
142.7429394745115
 31
0.0
  0
LINE
  5
17C
330
1F
100
AcDbEntity
  8
137
  6
Continuous
 62
     4
370
    15
100
AcDbLine
 10
63.29496634062394
 20
134.9140826163754
 30
0.0
 11
63.29496634062394
 21
142.7429394745115
 31
0.0
  0
LINE
  5
17D
330
1F
100
AcDbEntity
  8
140
  6
Continuous
 62
     5
370
    15
100
AcDbLine
 10
66.2799903135608
 20
133.2999661206059
 30
0.0
 11
70.29784484494894
 21
129.2821115892177
 31
0.0
  0
LINE
  5
17E
330
1F
100
AcDbEntity
  8
136
  6
DASHDOT
 62
     1
370
    15
100
AcDbLine
 10
64.17782829316525
 20
133.634361188035
 30
0.0
 11
70.59760076148132
 21
127.214588719719
 31
0.0
  0
LINE
  5
17F
330
1F
100
AcDbEntity
  8
140
  6
Continuous
 62
     5
370
    15
100
AcDbLine
 10
64.1303399118583
 20
131.9140826163756
 30
0.0
 11
68.6466124938836
 21
127.3978100343502
 31
0.0
  0
LINE
  5
180
330
1F
100
AcDbEntity
  8
140
  6
Continuous
 62
     5
370
    15
100
AcDbLine
 10
72.2949663405858
 20
137.4140826164044
 30
0.0
 11
72.2949663405858
 21
134.9140826164044
 31
0.0
  0
LINE
  5
181
330
1F
100
AcDbEntity
  8
140
  6
Continuous
 62
     5
370
    15
100
AcDbLine
 10
72.2949663405858
 20
134.9140826165863
 30
0.0
 11
70.2949663406232
 21
134.9140826165863
 31
0.0
  0
ARC
  5
182
330
1F
100
AcDbEntity
  8
140
  6
Continuous
 62
     5
370
    15
100
AcDbCircle
 10
72.7949663406232
 20
134.8239845679456
 30
0.0
 40
0.5
100
AcDbArc
 50
179.9999999999998
 51
258.6900675259756
  0
LINE
  5
183
330
1F
100
AcDbEntity
  8
140
  6
Continuous
 62
     5
370
    15
100
AcDbLine
 10
72.29496634062332
 20
134.8239845679456
 30
0.0
 11
72.29496634062332
 21
134.9140826165863
 31
0.0
  0
ARC
  5
184
330
1F
100
AcDbEntity
  8
140
  6
Continuous
 62
     5
370
    15
100
AcDbCircle
 10
72.7949663406232
 20
132.0041806652268
 30
0.0
 40
0.5
100
AcDbArc
 50
101.3099324740177
 51
179.9999999999998
  0
ARC
  5
185
330
1F
100
AcDbEntity
  8
140
  6
Continuous
 62
     5
370
    15
100
AcDbCircle
 10
70.29496634062309
 20
132.4140826165863
 30
0.0
 40
0.5
100
AcDbArc
 50
179.9999999999998
 51
269.9999999999998
  0
ARC
  5
186
330
1F
100
AcDbEntity
  8
140
  6
Continuous
 62
     5
370
    15
100
AcDbCircle
 10
70.29496634062309
 20
134.4140826165863
 30
0.0
 40
0.5
100
AcDbArc
 50
89.99999999999991
 51
179.9999999999998
  0
LINE
  5
187
330
1F
100
AcDbEntity
  8
140
  6
Continuous
 62
     5
370
    15
100
AcDbLine
 10
72.29496634062332
 20
132.0041806652268
 30
0.0
 11
72.29496634062332
 21
131.9140826165863
 31
0.0
  0
LINE
  5
188
330
1F
100
AcDbEntity
  8
140
  6
Continuous
 62
     5
370
    15
100
AcDbLine
 10
69.7949663406232
 20
134.4140826165863
 30
0.0
 11
69.7949663406232
 21
132.4140826165863
 31
0.0
  0
LINE
  5
189
330
1F
100
AcDbEntity
  8
140
  6
Continuous
 62
     5
370
    15
100
AcDbLine
 10
72.29496634058546
 20
131.9140826164044
 30
0.0
 11
72.29496634058546
 21
129.4140826164041
 31
0.0
  0
LINE
  5
18A
330
1F
100
AcDbEntity
  8
140
  6
Continuous
 62
     5
370
    15
100
AcDbLine
 10
69.29496634058546
 20
131.9140826163978
 30
0.0
 11
72.29496634058546
 21
131.9140826164044
 31
0.0
  0
LINE
  5
18B
330
1F
100
AcDbEntity
  8
140
  6
Continuous
 62
     5
370
    15
100
AcDbLine
 10
69.29496634058546
 20
134.9140826163974
 30
0.0
 11
69.29496634058546
 21
131.9140826163974
 31
0.0
  0
LINE
  5
18C
330
1F
100
AcDbEntity
  8
140
  6
Continuous
 62
     5
370
    15
100
AcDbLine
 10
72.29496634058546
 20
134.9140826164044
 30
0.0
 11
69.29496634058546
 21
134.9140826163978
 31
0.0
  0
LINE
  5
18D
330
1F
100
AcDbEntity
  8
140
  6
Continuous
 62
     5
370
    15
100
AcDbLine
 10
72.69690827305408
 20
134.3336942301
 30
0.0
 11
77.2949663406232
 21
133.4140826165864
 31
0.0
  0
LINE
  5
18E
330
1F
100
AcDbEntity
  8
140
  6
Continuous
 62
     5
370
    15
100
AcDbLine
 10
72.69690827305396
 20
132.4944710030725
 30
0.0
 11
77.2949663406232
 21
133.4140826165863
 31
0.0
  0
ARC
  5
18F
330
1F
100
AcDbEntity
  8
140
  6
Continuous
 62
     5
370
    15
100
AcDbCircle
 10
71.09936763558153
 20
126.9140826164014
 30
0.0
 40
2.5
100
AcDbArc
 50
89.99999999999991
 51
183.0669083214889
  0
ARC
  5
190
330
1F
100
AcDbEntity
  8
140
  6
Continuous
 62
     5
370
    15
100
AcDbCircle
 10
60.0051116958391
 20
132.9140826163591
 30
0.0
 40
1.0
100
AcDbArc
 50
269.9999999999998
 51
349.6709489777973
  0
LINE
  5
191
330
1F
100
AcDbEntity
  8
140
  6
Continuous
 62
     5
370
    15
100
AcDbLine
 10
60.66482541173082
 20
129.414082616364
 30
0.0
 11
58.29496634062298
 21
129.4140826163538
 31
0.0
  0
LINE
  5
192
330
1F
100
AcDbEntity
  8
140
  6
Continuous
 62
     5
370
    15
100
AcDbLine
 10
62.29496634076918
 20
131.9140826163662
 30
0.0
 11
58.62409758295803
 21
131.9140826163549
 31
0.0
  0
LINE
  5
193
330
1F
100
AcDbEntity
  8
136
  6
DASHDOT
 62
     1
370
    15
100
AcDbLine
 10
62.29496634076918
 20
137.7123416036957
 30
0.0
 11
62.29496634076918
 21
130.4108443024301
 31
0.0
  0
LINE
  5
194
330
1F
100
AcDbEntity
  8
140
  6
HIDDEN
 62
     5
370
    15
100
AcDbLine
 10
63.58280557850208
 20
129.4140826163764
 30
0.0
 11
61.32205519183481
 21
129.4140826163668
 31
0.0
  0
LINE
  5
195
330
1F
100
AcDbEntity
  8
140
  6
Continuous
 62
     5
370
    15
100
AcDbLine
 10
63.294966340624
 20
134.4140826163678
 30
0.0
 11
63.58937300666389
 21
132.7407988759186
 31
0.0
  0
LINE
  5
196
330
1F
100
AcDbEntity
  8
140
  6
Continuous
 62
     5
370
    15
100
AcDbLine
 10
61.2949663406232
 20
134.4140826163632
 30
0.0
 11
60.98890594814725
 21
132.7347815591249
 31
0.0
  0
LINE
  5
197
330
1F
100
AcDbEntity
  8
140
  6
Continuous
 62
     5
370
    15
100
AcDbLine
 10
66.74431186011805
 20
136.9708559119733
 30
0.0
 11
66.16828495772177
 21
133.1882607647665
 31
0.0
  0
ARC
  5
198
330
1F
100
AcDbEntity
  8
140
  6
Continuous
 62
     5
370
    15
100
AcDbCircle
 10
64.68538088417733
 20
133.4140826163771
 30
0.0
 40
1.5
100
AcDbArc
 50
269.9999999999998
 51
351.3413204473246
  0
ARC
  5
199
330
1F
100
AcDbEntity
  8
140
  6
Continuous
 62
     5
370
    15
100
AcDbCircle
 10
67.24107819644621
 20
136.914082616393
 30
0.0
 40
0.5
100
AcDbArc
 50
89.99999999999991
 51
173.480198248346
  0
ARC
  5
19A
330
1F
100
AcDbEntity
  8
140
  6
Continuous
 62
     5
370
    15
100
AcDbCircle
 10
64.57424495026498
 20
132.9140826163762
 30
0.0
 40
1.0
100
AcDbArc
 50
189.9787978585624
 51
269.9999999999998
  0
LINE
  5
19B
330
1F
100
AcDbEntity
  8
140
  6
Continuous
 62
     5
370
    15
100
AcDbLine
 10
64.68538088418745
 20
131.914082616377
 30
0.0
 11
62.29496634076918
 21
131.9140826163606
 31
0.0
  0
ARC
  5
19C
330
1F
100
AcDbEntity
  8
140
  6
HIDDEN
 62
     5
370
    15
100
AcDbCircle
 10
63.58280557851253
 20
126.9140826163764
 30
0.0
 40
2.5
100
AcDbArc
 50
3.081988030719555
 51
89.99999999999991
  0
ARC
  5
19D
330
1F
100
AcDbEntity
  8
140
  6
Continuous
 62
     5
370
    15
100
AcDbCircle
 10
60.66482541173718
 20
127.914082616364
 30
0.0
 40
1.5
100
AcDbArc
 50
5.000000000041124
 51
89.99999999999991
  0
LINE
  5
19E
330
1F
100
AcDbEntity
  8
140
  6
Continuous
 62
     5
370
    15
100
AcDbLine
 10
48.04496634062343
 20
134.4140826163223
 30
0.0
 11
47.29496634062343
 21
131.4140826163214
 31
0.0
  0
LINE
  5
19F
330
1F
100
AcDbEntity
  8
140
  6
Continuous
 62
     5
370
    15
100
AcDbLine
 10
50.830864723991
 20
131.414082616329
 30
0.0
 11
47.29496634062298
 21
131.4140826163211
 31
0.0
  0
LINE
  5
1A0
330
1F
100
AcDbEntity
  8
140
  6
Continuous
 62
     5
370
    15
100
AcDbLine
 10
50.83099813523245
 20
134.0022373199226
 30
0.0
 11
50.79496634066959
 21
134.4140826163348
 31
0.0
  0
LINE
  5
1A1
330
1F
100
AcDbEntity
  8
137
  6
Continuous
 62
     4
370
    15
100
AcDbLine
 10
32.29822195110876
 20
134.4140826163222
 30
0.0
 11
32.29822195110876
 21
137.4140826163931
 31
0.0
  0
TEXT
  5
1A2
330
1F
100
AcDbEntity
  8
135
  6
Continuous
 62
     7
370
    15
100
AcDbText
 10
129.9539895745821
 20
74.9208223397597
 30
0.0
 40
2.5
  1
130
100
AcDbText
  0
TEXT
  5
1A3
330
1F
100
AcDbEntity
  8
135
  6
Continuous
 62
     7
370
    15
100
AcDbText
 10
80.83096196815825
 20
74.9208223397597
 30
0.0
 40
2.5
  1
63.5
 41
0.9
100
AcDbText
  0
TEXT
  5
1A4
330
1F
100
AcDbEntity
  8
135
  6
Continuous
 62
     7
370
    15
100
AcDbText
 10
31.79607395110872
 20
110.3068458353124
 30
0.0
 40
2.5
  1
90
 50
89.99999999999991
100
AcDbText
  0
LINE
  5
1A5
330
1F
100
AcDbEntity
  8
138
  6
Continuous
 62
     7
370
    15
100
AcDbLine
 10
149.1091565279783
 20
151.2296006610507
 30
0.0
 11
184.9939391791619
 21
151.2296006610507
 31
0.0
  0
TEXT
  5
1A6
330
1F
100
AcDbEntity
  8
135
  6
Continuous
 62
     7
370
    15
100
AcDbText
 10
153.3372004238519
 20
151.9872198322203
 30
0.0
 40
2.5
  1
水抜き穴 ４－φ５キリ穴
 41
0.9599999999999997
100
AcDbText
  0
LINE
  5
1A7
330
1F
100
AcDbEntity
  8
139
  6
Continuous
 62
     7
370
    15
100
AcDbLine
 10
77.10804374834731
 20
133.3766980981311
 30
0.0
 11
77.01458245220937
 21
133.4701593942691
 31
0.0
  0
LINE
  5
1A8
330
1F
100
AcDbEntity
  8
139
  6
Continuous
 62
     7
370
    15
100
AcDbLine
 10
76.8134160151136
 20
133.3177725514844
 30
0.0
 11
76.57264062896945
 21
133.5585477589171
 31
0.0
  0
LINE
  5
1A9
330
1F
100
AcDbEntity
  8
139
  6
Continuous
 62
     7
370
    15
100
AcDbLine
 10
76.51878812527025
 20
133.2588469735157
 30
0.0
 11
76.13069934209182
 21
133.6469360162926
 31
0.0
  0
LINE
  5
1AA
330
1F
100
AcDbEntity
  8
139
  6
Continuous
 62
     7
370
    15
100
AcDbLine
 10
76.22416041501401
 20
133.1999214314644
 30
0.0
 11
75.68875745220936
 21
133.735324394269
 31
0.0
  0
LINE
  5
1AB
330
1F
100
AcDbEntity
  8
139
  6
Continuous
 62
     7
370
    15
100
AcDbLine
 10
75.92953291501397
 20
133.1409959314645
 30
0.0
 11
75.24681620220952
 21
133.823712644269
 31
0.0
  0
LINE
  5
1AC
330
1F
100
AcDbEntity
  8
139
  6
Continuous
 62
     7
370
    15
100
AcDbLine
 10
75.63490541501409
 20
133.0820704314644
 30
0.0
 11
74.8048749522095
 21
133.912100894269
 31
0.0
  0
LINE
  5
1AD
330
1F
100
AcDbEntity
  8
139
  6
Continuous
 62
     7
370
    15
100
AcDbLine
 10
75.3402763888995
 20
133.0231446262416
 30
0.0
 11
74.36293195868001
 21
134.0004894929749
 31
0.0
  0
LINE
  5
1AE
330
1F
100
AcDbEntity
  8
139
  6
Continuous
 62
     7
370
    15
100
AcDbLine
 10
75.04564888532889
 20
132.9642191255274
 30
0.0
 11
73.9209907694376
 21
134.0888777308234
 31
0.0
  0
LINE
  5
1AF
330
1F
100
AcDbEntity
  8
139
  6
Continuous
 62
     7
370
    15
100
AcDbLine
 10
74.75102124834729
 20
132.9052935981312
 30
0.0
 11
73.47904870220958
 21
134.1772661442689
 31
0.0
  0
LINE
  5
1B0
330
1F
100
AcDbEntity
  8
139
  6
Continuous
 62
     7
370
    15
100
AcDbLine
 10
74.45639308866407
 20
132.8463679661945
 30
0.0
 11
73.0371071972574
 21
134.2656544452594
 31
0.0
  0
LINE
  5
1B1
330
1F
100
AcDbEntity
  8
139
  6
Continuous
 62
     7
370
    15
100
AcDbLine
 10
74.1617660103501
 20
132.7874425505317
 30
0.0
 11
72.57350154959238
 21
134.3757063660065
 31
0.0
  0
LINE
  5
1B2
330
1F
100
AcDbEntity
  8
139
  6
Continuous
 62
     7
370
    15
100
AcDbLine
 10
73.86713791501398
 20
132.7285169314645
 30
0.0
 11
71.6815722298922
 21
134.9140826165862
 31
0.0
  0
LINE
  5
1B3
330
1F
100
AcDbEntity
  8
139
  6
Continuous
 62
     7
370
    15
100
AcDbLine
 10
73.27788208168067
 20
132.6106657647978
 30
0.0
 11
70.97446522989208
 21
134.9140826165863
 31
0.0
  0
LINE
  5
1B4
330
1F
100
AcDbEntity
  8
139
  6
Continuous
 62
     7
370
    15
100
AcDbLine
 10
73.572510415014
 20
132.6695914314645
 30
0.0
 11
71.32801922989228
 21
134.9140826165862
 31
0.0
  0
LINE
  5
1B5
330
1F
100
AcDbEntity
  8
139
  6
Continuous
 62
     7
370
    15
100
AcDbLine
 10
76.86157734893737
 20
133.3274048182491
 30
0.0
 11
77.006040346166
 21
133.4718678154778
 31
0.0
  0
LINE
  5
1B6
330
1F
100
AcDbEntity
  8
139
  6
Continuous
 62
     7
370
    15
100
AcDbLine
 10
76.41963537572445
 20
133.2390164236065
 30
0.0
 11
76.71141254494717
 21
133.5307933757215
 31
0.0
  0
LINE
  5
1B7
330
1F
100
AcDbEntity
  8
139
  6
Continuous
 62
     7
370
    15
100
AcDbLine
 10
75.97769437409465
 20
133.1506282232806
 30
0.0
 11
76.41678478429134
 21
133.5897189278527
 31
0.0
  0
LINE
  5
1B8
330
1F
100
AcDbEntity
  8
139
  6
Continuous
 62
     7
370
    15
100
AcDbLine
 10
75.53575234893742
 20
133.0622398182491
 30
0.0
 11
76.1221570128327
 21
133.6486444821444
 31
0.0
  0
LINE
  5
1B9
330
1F
100
AcDbEntity
  8
139
  6
Continuous
 62
     7
370
    15
100
AcDbLine
 10
75.09381037601213
 20
132.973851423664
 30
0.0
 11
75.82752932077204
 21
133.7075700205565
 31
0.0
  0
LINE
  5
1BA
330
1F
100
AcDbEntity
  8
139
  6
Continuous
 62
     7
370
    15
100
AcDbLine
 10
74.6518690607046
 20
132.8854631606026
 30
0.0
 11
75.53290182595896
 21
133.7664955195191
 31
0.0
  0
LINE
  5
1BB
330
1F
100
AcDbEntity
  8
139
  6
Continuous
 62
     7
370
    15
100
AcDbLine
 10
74.20992609893733
 20
132.7970745682491
 30
0.0
 11
75.23827284616601
 21
133.8254213154777
 31
0.0
  0
LINE
  5
1BC
330
1F
100
AcDbEntity
  8
139
  6
Continuous
 62
     7
370
    15
100
AcDbLine
 10
73.76798484893754
 20
132.7086863182492
 30
0.0
 11
74.94364534616585
 21
133.8843468154778
 31
0.0
  0
LINE
  5
1BD
330
1F
100
AcDbEntity
  8
139
  6
Continuous
 62
     7
370
    15
100
AcDbLine
 10
73.32604359893742
 20
132.6202980682492
 30
0.0
 11
74.64901784616586
 21
133.9432723154777
 31
0.0
  0
LINE
  5
1BE
330
1F
100
AcDbEntity
  8
139
  6
Continuous
 62
     7
370
    15
100
AcDbLine
 10
72.88410127006176
 20
132.5319096024741
 30
0.0
 11
74.35439013562825
 21
134.0021978575852
 31
0.0
  0
LINE
  5
1BF
330
1F
100
AcDbEntity
  8
139
  6
Continuous
 62
     7
370
    15
100
AcDbLine
 10
71.91272114709182
 20
131.9140826164035
 30
0.0
 11
74.0597620128325
 21
134.0611234821444
 31
0.0
  0
LINE
  5
1C0
330
1F
100
AcDbEntity
  8
139
  6
Continuous
 62
     7
370
    15
100
AcDbLine
 10
71.55916852678172
 20
131.9140826164027
 30
0.0
 11
73.76513397538804
 21
134.1200490896332
 31
0.0
  0
LINE
  5
1C1
330
1F
100
AcDbEntity
  8
139
  6
Continuous
 62
     7
370
    15
100
AcDbLine
 10
71.20561579786806
 20
131.914082616402
 30
0.0
 11
73.47050650623612
 21
134.1789745834636
 31
0.0
  0
LINE
  5
1C2
330
1F
100
AcDbEntity
  8
139
  6
Continuous
 62
     7
370
    15
100
AcDbLine
 10
69.81125745139497
 20
132.2874899213716
 30
0.0
 11
72.2974980779723
 21
134.7737319296557
 31
0.0
  0
LINE
  5
1C3
330
1F
100
AcDbEntity
  8
139
  6
Continuous
 62
     7
370
    15
100
AcDbLine
 10
69.93963573058465
 20
132.0623154242989
 30
0.0
 11
72.39769698361124
 21
134.5203778190428
 31
0.0
  0
LINE
  5
1C4
330
1F
100
AcDbEntity
  8
139
  6
Continuous
 62
     7
370
    15
100
AcDbLine
 10
70.16275241267391
 20
131.9318798819857
 30
0.0
 11
72.59610448358404
 21
134.3652319528959
 31
0.0
  0
LINE
  5
1C5
330
1F
100
AcDbEntity
  8
139
  6
Continuous
 62
     7
370
    15
100
AcDbLine
 10
70.49850761202612
 20
131.9140826164004
 30
0.0
 11
72.88125155803147
 21
134.2968255731045
 31
0.0
  0
LINE
  5
1C6
330
1F
100
AcDbEntity
  8
139
  6
Continuous
 62
     7
370
    15
100
AcDbLine
 10
70.85206214708961
 20
131.9140826164012
 30
0.0
 11
73.17587951283258
 21
134.2378999821443
 31
0.0
  0
LINE
  5
1C7
330
1F
100
AcDbEntity
  8
139
  6
Continuous
 62
     7
370
    15
100
AcDbLine
 10
69.7949663406232
 20
134.0389652278916
 30
0.0
 11
70.67008324279362
 21
134.9140826164008
 31
0.0
  0
LINE
  5
1C8
330
1F
100
AcDbEntity
  8
139
  6
Continuous
 62
     7
370
    15
100
AcDbLine
 10
69.7949663406232
 20
133.6854123234735
 30
0.0
 11
71.0236360628603
 21
134.9140826164016
 31
0.0
  0
LINE
  5
1C9
330
1F
100
AcDbEntity
  8
139
  6
Continuous
 62
     7
370
    15
100
AcDbLine
 10
69.7949663406232
 20
133.331859809935
 30
0.0
 11
71.37718914709058
 21
134.9140826164023
 31
0.0
  0
LINE
  5
1CA
330
1F
100
AcDbEntity
  8
139
  6
Continuous
 62
     7
370
    15
100
AcDbLine
 10
69.7949663406232
 20
132.9783073185812
 30
0.0
 11
71.73074244216781
 21
134.9140826164031
 31
0.0
  0
LINE
  5
1CB
330
1F
100
AcDbEntity
  8
139
  6
Continuous
 62
     7
370
    15
100
AcDbLine
 10
69.7949663406232
 20
132.6247528099348
 30
0.0
 11
72.08429614709212
 21
134.9140826164039
 31
0.0
  0
LINE
  5
1CC
330
1F
100
AcDbEntity
  8
139
  6
Continuous
 62
     7
370
    15
100
AcDbLine
 10
69.7949663406232
 20
134.3925181323099
 30
0.0
 11
70.31653053485854
 21
134.9140826164001
 31
0.0
  0
LINE
  5
1CD
330
1F
100
AcDbEntity
  8
139
  6
Continuous
 62
     7
370
    15
100
AcDbLine
 10
72.34668822866132
 20
134.6025195947875
 30
0.0
 11
72.03512508028012
 21
134.9140826165863
 31
0.0
  0
LINE
  5
1CE
330
1F
100
AcDbEntity
  8
139
  6
Continuous
 62
     7
370
    15
100
AcDbLine
 10
71.85314622989227
 20
131.9140826165863
 30
0.0
 11
69.79496634062326
 21
133.9722625058553
 31
0.0
  0
LINE
  5
1CF
330
1F
100
AcDbEntity
  8
139
  6
Continuous
 62
     7
370
    15
100
AcDbLine
 10
71.49959222989236
 20
131.9140826165863
 30
0.0
 11
69.7949663406232
 21
133.6187085058552
 31
0.0
  0
LINE
  5
1D0
330
1F
100
AcDbEntity
  8
139
  6
Continuous
 62
     7
370
    15
100
AcDbLine
 10
72.20669922989231
 20
131.9140826165863
 30
0.0
 11
69.7949663406232
 21
134.3258155058554
 31
0.0
  0
LINE
  5
1D1
330
1F
100
AcDbEntity
  8
139
  6
Continuous
 62
     7
370
    15
100
AcDbLine
 10
72.31851543515609
 20
132.1558201544095
 30
0.0
 11
69.84410159683739
 21
134.6302329874189
 31
0.0
  0
LINE
  5
1D2
330
1F
100
AcDbEntity
  8
139
  6
Continuous
 62
     7
370
    15
100
AcDbLine
 10
72.45607566592258
 20
132.3718124247376
 30
0.0
 11
70.00586201831868
 21
134.8220270868576
 31
0.0
  0
LINE
  5
1D3
330
1F
100
AcDbEntity
  8
139
  6
Continuous
 62
     7
370
    15
100
AcDbLine
 10
72.68868702423208
 20
132.4927548222465
 30
0.0
 11
70.26808249420202
 21
134.9133593522766
 31
0.0
  0
LINE
  5
1D4
330
1F
100
AcDbEntity
  8
139
  6
Continuous
 62
     7
370
    15
100
AcDbLine
 10
72.98325477252877
 20
132.5517403029675
 30
0.0
 11
70.62091348690296
 21
134.9140826165863
 31
0.0
  0
LINE
  5
1D5
330
1F
100
AcDbEntity
  8
139
  6
Continuous
 62
     7
370
    15
100
AcDbLine
 10
70.43893251684239
 20
131.9140826165863
 30
0.0
 11
69.7949663406232
 21
132.5580490594409
 31
0.0
  0
LINE
  5
1D6
330
1F
100
AcDbEntity
  8
139
  6
Continuous
 62
     7
370
    15
100
AcDbLine
 10
70.7924862298924
 20
131.9140826165863
 30
0.0
 11
69.7949663406232
 21
132.9116025058554
 31
0.0
  0
LINE
  5
1D7
330
1F
100
AcDbEntity
  8
139
  6
Continuous
 62
     7
370
    15
100
AcDbLine
 10
71.14603942556136
 20
131.9140826165863
 30
0.0
 11
69.7949663406232
 21
133.2651562894554
 31
0.0
  0
LINE
  5
1D8
330
1F
100
AcDbEntity
  8
139
  6
Continuous
 62
     7
370
    15
100
AcDbLine
 10
126.6066779089577
 20
132.5517403029675
 30
0.0
 11
128.9690191945836
 21
134.9140826165863
 31
0.0
  0
LINE
  5
1D9
330
1F
100
AcDbEntity
  8
139
  6
Continuous
 62
     7
370
    15
100
AcDbLine
 10
127.2714172463304
 20
132.1558201544095
 30
0.0
 11
129.7458310846491
 21
134.6302329874189
 31
0.0
  0
LINE
  5
1DA
330
1F
100
AcDbEntity
  8
139
  6
Continuous
 62
     7
370
    15
100
AcDbLine
 10
127.1338570155639
 20
132.3718124247376
 30
0.0
 11
129.5840706631678
 21
134.8220270868576
 31
0.0
  0
LINE
  5
1DB
330
1F
100
AcDbEntity
  8
139
  6
Continuous
 62
     7
370
    15
100
AcDbLine
 10
126.9012456572544
 20
132.4927548222465
 30
0.0
 11
129.3218501872845
 21
134.9133593522766
 31
0.0
  0
LINE
  5
1DC
330
1F
100
AcDbEntity
  8
139
  6
Continuous
 62
     7
370
    15
100
AcDbLine
 10
127.3832334515942
 20
131.9140826165863
 30
0.0
 11
129.7949663408633
 21
134.3258155058554
 31
0.0
  0
LINE
  5
1DD
330
1F
100
AcDbEntity
  8
139
  6
Continuous
 62
     7
370
    15
100
AcDbLine
 10
129.4271802688126
 20
131.9318798819857
 30
0.0
 11
126.9938281979025
 21
134.3652319528959
 31
0.0
  0
LINE
  5
1DE
330
1F
100
AcDbEntity
  8
139
  6
Continuous
 62
     7
370
    15
100
AcDbLine
 10
129.7786752300916
 20
132.2874899213716
 30
0.0
 11
127.2924346035142
 21
134.7737319296557
 31
0.0
  0
LINE
  5
1DF
330
1F
100
AcDbEntity
  8
139
  6
Continuous
 62
     7
370
    15
100
AcDbLine
 10
129.6502969509019
 20
132.0623154242989
 30
0.0
 11
127.1922356978753
 21
134.5203778190428
 31
0.0
  0
LINE
  5
1E0
330
1F
100
AcDbEntity
  8
139
  6
Continuous
 62
     7
370
    15
100
AcDbLine
 10
129.7949663408633
 20
132.6247528099348
 30
0.0
 11
127.5056365343944
 21
134.9140826164039
 31
0.0
  0
LINE
  5
1E1
330
1F
100
AcDbEntity
  8
139
  6
Continuous
 62
     7
370
    15
100
AcDbLine
 10
129.7949663408633
 20
132.9783073185812
 30
0.0
 11
127.8591902393187
 21
134.9140826164031
 31
0.0
  0
LINE
  5
1E2
330
1F
100
AcDbEntity
  8
139
  6
Continuous
 62
     7
370
    15
100
AcDbLine
 10
129.7949663408633
 20
133.331859809935
 30
0.0
 11
128.2127435343959
 21
134.9140826164023
 31
0.0
  0
LINE
  5
1E3
330
1F
100
AcDbEntity
  8
139
  6
Continuous
 62
     7
370
    15
100
AcDbLine
 10
129.7949663408633
 20
133.6854123234735
 30
0.0
 11
128.5662966186262
 21
134.9140826164016
 31
0.0
  0
LINE
  5
1E4
330
1F
100
AcDbEntity
  8
139
  6
Continuous
 62
     7
370
    15
100
AcDbLine
 10
129.7949663408633
 20
134.0389652278916
 30
0.0
 11
128.9198494386929
 21
134.9140826164008
 31
0.0
  0
LINE
  5
1E5
330
1F
100
AcDbEntity
  8
139
  6
Continuous
 62
     7
370
    15
100
AcDbLine
 10
129.7949663408633
 20
134.3925181323099
 30
0.0
 11
129.273402146628
 21
134.9140826164001
 31
0.0
  0
LINE
  5
1E6
330
1F
100
AcDbEntity
  8
139
  6
Continuous
 62
     7
370
    15
100
AcDbLine
 10
125.7227947664725
 20
132.7285169314645
 30
0.0
 11
127.9083604515943
 21
134.9140826165862
 31
0.0
  0
LINE
  5
1E7
330
1F
100
AcDbEntity
  8
139
  6
Continuous
 62
     7
370
    15
100
AcDbLine
 10
126.0174222664725
 20
132.6695914314645
 30
0.0
 11
128.2619134515942
 21
134.9140826165862
 31
0.0
  0
LINE
  5
1E8
330
1F
100
AcDbEntity
  8
139
  6
Continuous
 62
     7
370
    15
100
AcDbLine
 10
126.3120505998058
 20
132.6106657647978
 30
0.0
 11
128.6154674515944
 21
134.9140826165863
 31
0.0
  0
LINE
  5
1E9
330
1F
100
AcDbEntity
  8
139
  6
Continuous
 62
     7
370
    15
100
AcDbLine
 10
127.2432444528252
 20
134.6025195947875
 30
0.0
 11
127.5548076012064
 21
134.9140826165863
 31
0.0
  0
LINE
  5
1EA
330
1F
100
AcDbEntity
  8
139
  6
Continuous
 62
     7
370
    15
100
AcDbLine
 10
127.7367864515942
 20
131.9140826165863
 30
0.0
 11
129.7949663408633
 21
133.9722625058553
 31
0.0
  0
LINE
  5
1EB
330
1F
100
AcDbEntity
  8
139
  6
Continuous
 62
     7
370
    15
100
AcDbLine
 10
128.0903404515942
 20
131.9140826165863
 30
0.0
 11
129.7949663408633
 21
133.6187085058552
 31
0.0
  0
LINE
  5
1EC
330
1F
100
AcDbEntity
  8
139
  6
Continuous
 62
     7
370
    15
100
AcDbLine
 10
128.4438932559252
 20
131.9140826165863
 30
0.0
 11
129.7949663408633
 21
133.2651562894554
 31
0.0
  0
LINE
  5
1ED
330
1F
100
AcDbEntity
  8
139
  6
Continuous
 62
     7
370
    15
100
AcDbLine
 10
128.7378705343969
 20
131.9140826164012
 30
0.0
 11
126.4140531686539
 21
134.2378999821443
 31
0.0
  0
LINE
  5
1EE
330
1F
100
AcDbEntity
  8
139
  6
Continuous
 62
     7
370
    15
100
AcDbLine
 10
129.0914250694604
 20
131.9140826164004
 30
0.0
 11
126.7086811234551
 21
134.2968255731045
 31
0.0
  0
LINE
  5
1EF
330
1F
100
AcDbEntity
  8
139
  6
Continuous
 62
     7
370
    15
100
AcDbLine
 10
128.7974464515941
 20
131.9140826165863
 30
0.0
 11
129.7949663408633
 21
132.9116025058554
 31
0.0
  0
LINE
  5
1F0
330
1F
100
AcDbEntity
  8
139
  6
Continuous
 62
     7
370
    15
100
AcDbLine
 10
129.1510001646441
 20
131.9140826165863
 30
0.0
 11
129.7949663408633
 21
132.5580490594409
 31
0.0
  0
LINE
  5
1F1
330
1F
100
AcDbEntity
  8
139
  6
Continuous
 62
     7
370
    15
100
AcDbLine
 10
128.0307641547048
 20
131.9140826164027
 30
0.0
 11
125.8247987060985
 21
134.1200490896332
 31
0.0
  0
LINE
  5
1F2
330
1F
100
AcDbEntity
  8
139
  6
Continuous
 62
     7
370
    15
100
AcDbLine
 10
127.6772115343947
 20
131.9140826164035
 30
0.0
 11
125.530170668654
 21
134.0611234821444
 31
0.0
  0
LINE
  5
1F3
330
1F
100
AcDbEntity
  8
139
  6
Continuous
 62
     7
370
    15
100
AcDbLine
 10
128.3843168836185
 20
131.914082616402
 30
0.0
 11
126.1194261752504
 21
134.1789745834636
 31
0.0
  0
LINE
  5
1F4
330
1F
100
AcDbEntity
  8
139
  6
Continuous
 62
     7
370
    15
100
AcDbLine
 10
126.7058314114248
 20
132.5319096024741
 30
0.0
 11
125.2355425458583
 21
134.0021978575852
 31
0.0
  0
LINE
  5
1F5
330
1F
100
AcDbEntity
  8
139
  6
Continuous
 62
     7
370
    15
100
AcDbLine
 10
124.5442837961576
 20
132.9642191255274
 30
0.0
 11
125.6689419120489
 21
134.0888777308234
 31
0.0
  0
LINE
  5
1F6
330
1F
100
AcDbEntity
  8
139
  6
Continuous
 62
     7
370
    15
100
AcDbLine
 10
124.8389114331392
 20
132.9052935981312
 30
0.0
 11
126.1108839792769
 21
134.1772661442689
 31
0.0
  0
LINE
  5
1F7
330
1F
100
AcDbEntity
  8
139
  6
Continuous
 62
     7
370
    15
100
AcDbLine
 10
125.1335395928224
 20
132.8463679661945
 30
0.0
 11
126.5528254842291
 21
134.2656544452594
 31
0.0
  0
LINE
  5
1F8
330
1F
100
AcDbEntity
  8
139
  6
Continuous
 62
     7
370
    15
100
AcDbLine
 10
125.4281666711364
 20
132.7874425505317
 30
0.0
 11
127.0164311318941
 21
134.3757063660065
 31
0.0
  0
LINE
  5
1F9
330
1F
100
AcDbEntity
  8
139
  6
Continuous
 62
     7
370
    15
100
AcDbLine
 10
126.2638890825491
 20
132.6202980682492
 30
0.0
 11
124.9409148353207
 21
133.9432723154777
 31
0.0
  0
LINE
  5
1FA
330
1F
100
AcDbEntity
  8
139
  6
Continuous
 62
     7
370
    15
100
AcDbLine
 10
125.821947832549
 20
132.7086863182492
 30
0.0
 11
124.6462873353207
 21
133.8843468154778
 31
0.0
  0
LINE
  5
1FB
330
1F
100
AcDbEntity
  8
139
  6
Continuous
 62
     7
370
    15
100
AcDbLine
 10
123.0711445562163
 20
133.2588469735157
 30
0.0
 11
123.4592333393947
 21
133.6469360162926
 31
0.0
  0
LINE
  5
1FC
330
1F
100
AcDbEntity
  8
139
  6
Continuous
 62
     7
370
    15
100
AcDbLine
 10
122.4818889331392
 20
133.3766980981311
 30
0.0
 11
122.5753502292771
 21
133.4701593942691
 31
0.0
  0
LINE
  5
1FD
330
1F
100
AcDbEntity
  8
139
  6
Continuous
 62
     7
370
    15
100
AcDbLine
 10
122.7283553325491
 20
133.3274048182491
 30
0.0
 11
122.5838923353205
 21
133.4718678154778
 31
0.0
  0
LINE
  5
1FE
330
1F
100
AcDbEntity
  8
139
  6
Continuous
 62
     7
370
    15
100
AcDbLine
 10
122.7765166663729
 20
133.3177725514844
 30
0.0
 11
123.0172920525171
 21
133.5585477589171
 31
0.0
  0
LINE
  5
1FF
330
1F
100
AcDbEntity
  8
139
  6
Continuous
 62
     7
370
    15
100
AcDbLine
 10
123.1702973057621
 20
133.2390164236065
 30
0.0
 11
122.8785201365394
 21
133.5307933757215
 31
0.0
  0
LINE
  5
200
330
1F
100
AcDbEntity
  8
139
  6
Continuous
 62
     7
370
    15
100
AcDbLine
 10
123.6122383073919
 20
133.1506282232806
 30
0.0
 11
123.1731478971952
 21
133.5897189278527
 31
0.0
  0
LINE
  5
201
330
1F
100
AcDbEntity
  8
139
  6
Continuous
 62
     7
370
    15
100
AcDbLine
 10
124.0541803325491
 20
133.0622398182491
 30
0.0
 11
123.4677756686538
 21
133.6486444821444
 31
0.0
  0
LINE
  5
202
330
1F
100
AcDbEntity
  8
139
  6
Continuous
 62
     7
370
    15
100
AcDbLine
 10
124.4961223054744
 20
132.973851423664
 30
0.0
 11
123.7624033607145
 21
133.7075700205565
 31
0.0
  0
LINE
  5
203
330
1F
100
AcDbEntity
  8
139
  6
Continuous
 62
     7
370
    15
100
AcDbLine
 10
124.9380636207819
 20
132.8854631606026
 30
0.0
 11
124.0570308555276
 21
133.7664955195191
 31
0.0
  0
LINE
  5
204
330
1F
100
AcDbEntity
  8
139
  6
Continuous
 62
     7
370
    15
100
AcDbLine
 10
123.3657722664725
 20
133.1999214314644
 30
0.0
 11
123.9011752292772
 21
133.735324394269
 31
0.0
  0
LINE
  5
205
330
1F
100
AcDbEntity
  8
139
  6
Continuous
 62
     7
370
    15
100
AcDbLine
 10
123.6603997664726
 20
133.1409959314645
 30
0.0
 11
124.343116479277
 21
133.823712644269
 31
0.0
  0
LINE
  5
206
330
1F
100
AcDbEntity
  8
139
  6
Continuous
 62
     7
370
    15
100
AcDbLine
 10
123.9550272664724
 20
133.0820704314644
 30
0.0
 11
124.785057729277
 21
133.912100894269
 31
0.0
  0
LINE
  5
207
330
1F
100
AcDbEntity
  8
139
  6
Continuous
 62
     7
370
    15
100
AcDbLine
 10
125.3800065825492
 20
132.7970745682491
 30
0.0
 11
124.3516598353205
 21
133.8254213154777
 31
0.0
  0
LINE
  5
208
330
1F
100
AcDbEntity
  8
139
  6
Continuous
 62
     7
370
    15
100
AcDbLine
 10
124.249656292587
 20
133.0231446262416
 30
0.0
 11
125.2270007228065
 21
134.0004894929749
 31
0.0
  0
LINE
  5
209
330
1F
100
AcDbEntity
  8
139
  6
Continuous
 62
     7
370
    15
100
AcDbLine
 10
66.75713907078182
 20
114.4572161861832
 30
0.0
 11
69.13576231536553
 21
116.8358394307669
 31
0.0
  0
LINE
  5
20A
330
1F
100
AcDbEntity
  8
139
  6
Continuous
 62
     7
370
    15
100
AcDbLine
 10
66.72101166465842
 20
115.1281957800599
 30
0.0
 11
69.09980300768302
 21
117.5069871230846
 31
0.0
  0
LINE
  5
20B
330
1F
100
AcDbEntity
  8
139
  6
Continuous
 62
     7
370
    15
100
AcDbLine
 10
66.97390345643021
 20
110.4313395718316
 30
0.0
 11
69.35151811060598
 21
112.8089542260074
 31
0.0
  0
LINE
  5
20C
330
1F
100
AcDbEntity
  8
139
  6
Continuous
 62
     7
370
    15
100
AcDbLine
 10
66.93777605030687
 20
111.1023191657084
 30
0.0
 11
69.31555880292348
 21
113.4801019183251
 31
0.0
  0
LINE
  5
20D
330
1F
100
AcDbEntity
  8
139
  6
Continuous
 62
     7
370
    15
100
AcDbLine
 10
66.90164864418347
 20
111.7732987595849
 30
0.0
 11
69.27959949524109
 21
114.1512496106426
 31
0.0
  0
LINE
  5
20E
330
1F
100
AcDbEntity
  8
139
  6
Continuous
 62
     7
370
    15
100
AcDbLine
 10
66.86552128915196
 20
112.4442774045533
 30
0.0
 11
69.24364023841275
 21
114.8223963538142
 31
0.0
  0
LINE
  5
20F
330
1F
100
AcDbEntity
  8
139
  6
Continuous
 62
     7
370
    15
100
AcDbLine
 10
66.82939383193673
 20
113.1152579473383
 30
0.0
 11
69.2076808798762
 21
115.4935449952778
 31
0.0
  0
LINE
  5
210
330
1F
100
AcDbEntity
  8
139
  6
Continuous
 62
     7
370
    15
100
AcDbLine
 10
66.79326647690522
 20
113.7862365923066
 30
0.0
 11
69.17172162304792
 21
116.1646917384493
 31
0.0
  0
LINE
  5
211
330
1F
100
AcDbEntity
  8
139
  6
Continuous
 62
     7
370
    15
100
AcDbLine
 10
67.22679519711022
 20
105.7344843125116
 30
0.0
 11
69.60323316267477
 21
108.1109222780761
 31
0.0
  0
LINE
  5
212
330
1F
100
AcDbEntity
  8
139
  6
Continuous
 62
     7
370
    15
100
AcDbLine
 10
67.190667835076
 20
106.4054630875381
 30
0.0
 11
69.56727385218011
 21
108.7820700228797
 31
0.0
  0
LINE
  5
213
330
1F
100
AcDbEntity
  8
139
  6
Continuous
 62
     7
370
    15
100
AcDbLine
 10
67.1545403906685
 20
107.07644339245
 30
0.0
 11
69.53131459978738
 21
109.4532166832667
 31
0.0
  0
LINE
  5
214
330
1F
100
AcDbEntity
  8
139
  6
Continuous
 62
     7
370
    15
100
AcDbLine
 10
67.11841302983197
 20
107.7474221452334
 30
0.0
 11
69.49535529048148
 21
110.1243644058831
 31
0.0
  0
LINE
  5
215
330
1F
100
AcDbEntity
  8
139
  6
Continuous
 62
     7
370
    15
100
AcDbLine
 10
67.08228562370857
 20
108.41840173911
 30
0.0
 11
69.4593959827991
 21
110.7955120982006
 31
0.0
  0
LINE
  5
216
330
1F
100
AcDbEntity
  8
139
  6
Continuous
 62
     7
370
    15
100
AcDbLine
 10
67.04615821979729
 20
109.089381291901
 30
0.0
 11
69.42343672402797
 21
111.4666588776348
 31
0.0
  0
LINE
  5
217
330
1F
100
AcDbEntity
  8
139
  6
Continuous
 62
     7
370
    15
100
AcDbLine
 10
67.01003086153906
 20
109.7603599967974
 30
0.0
 11
69.38747737056588
 21
112.1378074243864
 31
0.0
  0
TEXT
  5
218
330
1F
100
AcDbEntity
  8
135
  6
Continuous
 62
     7
370
    15
100
AcDbText
 10
43.40511244358538
 20
118.1197301320653
 30
0.0
 40
2.5
  1
補強３ヶ所
 41
0.96
100
AcDbText
  0
TEXT
  5
219
330
1F
100
AcDbEntity
  8
135
  6
Continuous
 62
     7
370
    15
100
AcDbText
 10
89.45528550858387
 20
139.3685007699284
 30
0.0
 40
2.5
  1
5
 50
89.99999999999991
100
AcDbText
  0
TEXT
  5
21A
330
1F
100
AcDbEntity
  8
135
  6
Continuous
 62
     7
370
    15
100
AcDbText
 10
89.45528550858393
 20
122.8788665252527
 30
0.0
 40
2.5
  1
6.5
 50
89.99999999999991
 41
0.8666666666666666
100
AcDbText
  0
TEXT
  5
21B
330
1F
100
AcDbEntity
  8
135
  6
Continuous
 62
     7
370
    15
100
AcDbText
 10
79.15252766179884
 20
109.2401952751293
 30
0.0
 40
2.5
  1
75
 50
89.99999999999991
100
AcDbText
  0
TEXT
  5
21C
330
1F
100
AcDbEntity
  8
135
  6
Continuous
 62
     7
370
    15
100
AcDbText
 10
96.34948484228255
 20
104.3989694852051
 30
0.0
 40
2.5
  1
110
100
AcDbText
  0
TEXT
  5
21D
330
1F
100
AcDbEntity
  8
135
  6
Continuous
 62
     7
370
    15
100
AcDbText
 10
57.82878348252223
 20
142.7450874745116
 30
0.0
 40
2.5
  1
4
100
AcDbText
  0
LINE
  5
21E
330
1F
100
AcDbEntity
  8
140
  6
Continuous
 62
     5
370
    15
100
AcDbLine
 10
70.29496634062309
 20
131.9140826165863
 30
0.0
 11
72.29496634062332
 21
131.9140826164044
 31
0.0
  0
LINE
  5
21F
330
1F
100
AcDbEntity
  8
137
  6
Continuous
 62
     4
370
    15
100
AcDbLine
 10
122.2949663406231
 20
147.4103427362749
 30
0.0
 11
120.794966340623
 21
147.0084182949101
 31
0.0
  0
LINE
  5
220
330
1F
100
AcDbEntity
  8
137
  6
Continuous
 62
     4
370
    15
100
AcDbLine
 10
122.2949663406231
 20
147.4103427362749
 30
0.0
 11
120.794966340623
 21
147.8122661423628
 31
0.0
  0
LINE
  5
221
330
1F
100
AcDbEntity
  8
137
  6
Continuous
 62
     4
370
    15
100
AcDbLine
 10
77.29496634062355
 20
147.4103427362748
 30
0.0
 11
78.79496634062366
 21
147.8122661423628
 31
0.0
  0
LINE
  5
222
330
1F
100
AcDbEntity
  8
137
  6
Continuous
 62
     4
370
    15
100
AcDbLine
 10
77.29496634062355
 20
147.4103427362748
 30
0.0
 11
78.79496634062366
 21
147.0084182949101
 31
0.0
  0
LINE
  5
223
330
1F
100
AcDbEntity
  8
137
  6
Continuous
 62
     4
370
    15
100
AcDbLine
 10
72.29496634058586
 20
153.4151848326418
 30
0.0
 11
73.79496634058597
 21
153.0132603912771
 31
0.0
  0
LINE
  5
224
330
1F
100
AcDbEntity
  8
137
  6
Continuous
 62
     4
370
    15
100
AcDbLine
 10
72.29496634058586
 20
153.4151848326418
 30
0.0
 11
73.79496634058597
 21
153.8171082387298
 31
0.0
  0
LINE
  5
225
330
1F
100
AcDbEntity
  8
137
  6
Continuous
 62
     4
370
    15
100
AcDbLine
 10
69.29496634058552
 20
159.4178750502275
 30
0.0
 11
70.79496634058563
 21
159.0159506088627
 31
0.0
  0
LINE
  5
226
330
1F
100
AcDbEntity
  8
137
  6
Continuous
 62
     4
370
    15
100
AcDbLine
 10
69.29496634058552
 20
159.4178750502275
 30
0.0
 11
70.79496634058563
 21
159.8197984563154
 31
0.0
  0
LINE
  5
227
330
1F
100
AcDbEntity
  8
137
  6
Continuous
 62
     4
370
    15
100
AcDbLine
 10
66.79496634062326
 20
165.4217359636412
 30
0.0
 11
68.29496634062338
 21
165.0198115222765
 31
0.0
  0
LINE
  5
228
330
1F
100
AcDbEntity
  8
137
  6
Continuous
 62
     4
370
    15
100
AcDbLine
 10
66.79496634062326
 20
165.4217359636412
 30
0.0
 11
68.29496634062338
 21
165.8236593697292
 31
0.0
  0
LINE
  5
229
330
1F
100
AcDbEntity
  8
137
  6
Continuous
 62
     4
370
    15
100
AcDbLine
 10
62.29496634076924
 20
171.4195040005954
 30
0.0
 11
63.79496634076935
 21
171.0175795592307
 31
0.0
  0
LINE
  5
22A
330
1F
100
AcDbEntity
  8
137
  6
Continuous
 62
     4
370
    15
100
AcDbLine
 10
62.29496634076924
 20
171.4195040005954
 30
0.0
 11
63.79496634076935
 21
171.8214274066834
 31
0.0
  0
LINE
  5
22B
330
1F
100
AcDbEntity
  8
137
  6
Continuous
 62
     4
370
    15
100
AcDbLine
 10
47.29496634062303
 20
177.4240089906038
 30
0.0
 11
48.79496634062315
 21
177.022084549239
 31
0.0
  0
LINE
  5
22C
330
1F
100
AcDbEntity
  8
137
  6
Continuous
 62
     4
370
    15
100
AcDbLine
 10
47.29496634062303
 20
177.4240089906038
 30
0.0
 11
48.79496634062315
 21
177.8259323966917
 31
0.0
  0
LINE
  5
22D
330
1F
100
AcDbEntity
  8
137
  6
Continuous
 62
     4
370
    15
100
AcDbLine
 10
127.294966340745
 20
153.4151848326418
 30
0.0
 11
125.7949663407448
 21
153.8171082387298
 31
0.0
  0
LINE
  5
22E
330
1F
100
AcDbEntity
  8
137
  6
Continuous
 62
     4
370
    15
100
AcDbLine
 10
127.294966340745
 20
153.4151848326418
 30
0.0
 11
125.7949663407448
 21
153.0132603912771
 31
0.0
  0
LINE
  5
22F
330
1F
100
AcDbEntity
  8
137
  6
Continuous
 62
     4
370
    15
100
AcDbLine
 10
130.2949663407433
 20
159.4178750502275
 30
0.0
 11
128.7949663407432
 21
159.8197984563154
 31
0.0
  0
LINE
  5
230
330
1F
100
AcDbEntity
  8
137
  6
Continuous
 62
     4
370
    15
100
AcDbLine
 10
130.2949663407433
 20
159.4178750502275
 30
0.0
 11
128.7949663407432
 21
159.0159506088627
 31
0.0
  0
LINE
  5
231
330
1F
100
AcDbEntity
  8
137
  6
Continuous
 62
     4
370
    15
100
AcDbLine
 10
132.7949663407075
 20
165.4217359636412
 30
0.0
 11
131.2949663407074
 21
165.8236593697292
 31
0.0
  0
LINE
  5
232
330
1F
100
AcDbEntity
  8
137
  6
Continuous
 62
     4
370
    15
100
AcDbLine
 10
132.7949663407075
 20
165.4217359636412
 30
0.0
 11
131.2949663407074
 21
165.0198115222765
 31
0.0
  0
LINE
  5
233
330
1F
100
AcDbEntity
  8
137
  6
Continuous
 62
     4
370
    15
100
AcDbLine
 10
137.2949663404773
 20
171.4195040005954
 30
0.0
 11
135.7949663404772
 21
171.8214274066834
 31
0.0
  0
LINE
  5
234
330
1F
100
AcDbEntity
  8
137
  6
Continuous
 62
     4
370
    15
100
AcDbLine
 10
137.2949663404773
 20
171.4195040005954
 30
0.0
 11
135.7949663404772
 21
171.0175795592307
 31
0.0
  0
LINE
  5
235
330
1F
100
AcDbEntity
  8
137
  6
Continuous
 62
     4
370
    15
100
AcDbLine
 10
152.2949663406237
 20
177.4240089906038
 30
0.0
 11
150.7949663406235
 21
177.8259323966917
 31
0.0
  0
LINE
  5
236
330
1F
100
AcDbEntity
  8
137
  6
Continuous
 62
     4
370
    15
100
AcDbLine
 10
152.2949663406237
 20
177.4240089906038
 30
0.0
 11
150.7949663406235
 21
177.022084549239
 31
0.0
  0
TEXT
  5
237
330
1F
100
AcDbEntity
  8
135
  6
Continuous
 62
     7
370
    15
100
AcDbText
 10
79.15252766181021
 20
85.42167622556258
 30
0.0
 40
2.5
  1
5
 50
89.99999999999991
100
AcDbText
  0
LINE
  5
238
330
1F
100
AcDbEntity
  8
137
  6
Continuous
 62
     4
370
    15
100
AcDbLine
 10
79.65467566179882
 20
91.9158248947731
 30
0.0
 11
79.65467566180808
 21
89.41582489480396
 31
0.0
  0
LINE
  5
239
330
1F
100
AcDbEntity
  8
137
  6
Continuous
 62
     4
370
    15
100
AcDbLine
 10
164.7949663406231
 20
68.41867433975966
 30
0.0
 11
47.29496634062303
 21
68.41867433975966
 31
0.0
  0
LINE
  5
23A
330
1F
100
AcDbEntity
  8
137
  6
Continuous
 62
     4
370
    15
100
AcDbLine
 10
47.29496634062298
 20
130.262088499976
 30
0.0
 11
47.29496634062298
 21
67.91867433975972
 31
0.0
  0
TEXT
  5
23B
330
1F
100
AcDbEntity
  8
135
  6
Continuous
 62
     7
370
    15
100
AcDbText
 10
103.4169325353457
 20
68.9208223397597
 30
0.0
 40
2.5
  1
235
100
AcDbText
  0
LINE
  5
23C
330
1F
100
AcDbEntity
  8
137
  6
Continuous
 62
     4
370
    15
100
AcDbLine
 10
26.29822195110881
 20
137.4140826163931
 30
0.0
 11
26.29822195110881
 21
89.41582489480686
 31
0.0
  0
LINE
  5
23D
330
1F
100
AcDbEntity
  8
137
  6
Continuous
 62
     4
370
    15
100
AcDbLine
 10
68.1054371730404
 20
74.41867433975966
 30
0.0
 11
69.60543717304051
 21
74.01674989839495
 31
0.0
  0
LINE
  5
23E
330
1F
100
AcDbEntity
  8
137
  6
Continuous
 62
     4
370
    15
100
AcDbLine
 10
68.1054371730404
 20
74.41867433975966
 30
0.0
 11
69.60543717304051
 21
74.82059774584758
 31
0.0
  0
LINE
  5
23F
330
1F
100
AcDbEntity
  8
137
  6
Continuous
 62
     4
370
    15
100
AcDbLine
 10
99.7949663406232
 20
74.41867433975966
 30
0.0
 11
98.29496634062309
 21
74.82059774584758
 31
0.0
  0
LINE
  5
240
330
1F
100
AcDbEntity
  8
137
  6
Continuous
 62
     4
370
    15
100
AcDbLine
 10
99.7949663406232
 20
74.41867433975966
 30
0.0
 11
98.29496634062309
 21
74.01674989839495
 31
0.0
  0
LINE
  5
241
330
1F
100
AcDbEntity
  8
137
  6
Continuous
 62
     4
370
    15
100
AcDbLine
 10
47.29496634062303
 20
68.41867433975966
 30
0.0
 11
48.79496634062315
 21
68.82059774584758
 31
0.0
  0
LINE
  5
242
330
1F
100
AcDbEntity
  8
137
  6
Continuous
 62
     4
370
    15
100
AcDbLine
 10
47.29496634062303
 20
68.41867433975966
 30
0.0
 11
48.79496634062315
 21
68.01674989839495
 31
0.0
  0
LINE
  5
243
330
1F
100
AcDbEntity
  8
137
  6
Continuous
 62
     4
370
    15
100
AcDbLine
 10
99.7949663406232
 20
74.41867433975966
 30
0.0
 11
101.2949663406233
 21
74.82059774584758
 31
0.0
  0
LINE
  5
244
330
1F
100
AcDbEntity
  8
137
  6
Continuous
 62
     4
370
    15
100
AcDbLine
 10
99.7949663406232
 20
74.41867433975966
 30
0.0
 11
101.2949663406233
 21
74.01674989839495
 31
0.0
  0
LINE
  5
245
330
1F
100
AcDbEntity
  8
137
  6
Continuous
 62
     4
370
    15
100
AcDbLine
 10
164.7949663406231
 20
74.41867433975966
 30
0.0
 11
163.294966340623
 21
74.01674989839495
 31
0.0
  0
LINE
  5
246
330
1F
100
AcDbEntity
  8
137
  6
Continuous
 62
     4
370
    15
100
AcDbLine
 10
164.7949663406231
 20
74.41867433975966
 30
0.0
 11
163.294966340623
 21
74.82059774584758
 31
0.0
  0
LINE
  5
247
330
1F
100
AcDbEntity
  8
137
  6
Continuous
 62
     4
370
    15
100
AcDbLine
 10
164.7949663406231
 20
68.41867433975966
 30
0.0
 11
163.294966340623
 21
68.82059774584758
 31
0.0
  0
LINE
  5
248
330
1F
100
AcDbEntity
  8
137
  6
Continuous
 62
     4
370
    15
100
AcDbLine
 10
164.7949663406231
 20
68.41867433975966
 30
0.0
 11
163.294966340623
 21
68.01674989839495
 31
0.0
  0
TEXT
  5
249
330
1F
100
AcDbEntity
  8
135
  6
Continuous
 62
     7
370
    15
100
AcDbText
 10
79.15252766179879
 20
139.3885108573901
 30
0.0
 40
2.5
  1
16
 50
89.99999999999991
100
AcDbText
  0
LINE
  5
24A
330
1F
100
AcDbEntity
  8
137
  6
Continuous
 62
     4
370
    15
100
AcDbLine
 10
70.07627299579576
 20
103.8968214852051
 30
0.0
 11
71.57627299579588
 21
103.4948970438404
 31
0.0
  0
LINE
  5
24B
330
1F
100
AcDbEntity
  8
137
  6
Continuous
 62
     4
370
    15
100
AcDbLine
 10
70.07627299579576
 20
103.8968214852051
 30
0.0
 11
71.57627299579588
 21
104.298744891293
 31
0.0
  0
LINE
  5
24C
330
1F
100
AcDbEntity
  8
137
  6
Continuous
 62
     4
370
    15
100
AcDbLine
 10
125.2030533402282
 20
103.8968214852051
 30
0.0
 11
123.7030533402281
 21
104.298744891293
 31
0.0
  0
LINE
  5
24D
330
1F
100
AcDbEntity
  8
137
  6
Continuous
 62
     4
370
    15
100
AcDbLine
 10
125.2030533402282
 20
103.8968214852051
 30
0.0
 11
123.7030533402281
 21
103.4948970438404
 31
0.0
  0
TEXT
  5
24E
330
1F
100
AcDbEntity
  8
135
  6
Continuous
 62
     7
370
    15
100
AcDbText
 10
138.1222231491436
 20
97.30693536862623
 30
0.0
 40
2.5
  1
10
 50
89.99999999999991
100
AcDbText
  0
LINE
  5
24F
330
1F
100
AcDbEntity
  8
137
  6
Continuous
 62
     4
370
    15
100
AcDbLine
 10
138.6243711491436
 20
91.91582489477855
 30
0.0
 11
138.2361421491436
 21
90.46693689477854
 31
0.0
  0
LINE
  5
250
330
1F
100
AcDbEntity
  8
137
  6
Continuous
 62
     4
370
    15
100
AcDbLine
 10
138.6243711491436
 20
91.91582489477855
 30
0.0
 11
139.0125991491436
 21
90.46693689477854
 31
0.0
  0
LINE
  5
251
330
1F
100
AcDbEntity
  8
137
  6
Continuous
 62
     4
370
    15
100
AcDbLine
 10
138.6243711491467
 20
96.9158248947889
 30
0.0
 11
138.2361421491466
 21
98.3647138947889
 31
0.0
  0
LINE
  5
252
330
1F
100
AcDbEntity
  8
137
  6
Continuous
 62
     4
370
    15
100
AcDbLine
 10
138.6243711491467
 20
96.9158248947889
 30
0.0
 11
139.0125991491466
 21
98.3647138947889
 31
0.0
  0
LINE
  5
253
330
1F
100
AcDbEntity
  8
137
  6
Continuous
 62
     4
370
    15
100
AcDbLine
 10
138.6243711491435
 20
100.8755416685929
 30
0.0
 11
138.6243711491436
 21
89.81938544376766
 31
0.0
  0
TEXT
  5
254
330
1F
100
AcDbEntity
  8
135
  6
Continuous
 62
     7
370
    15
100
AcDbText
 10
63.16818311285198
 20
108.3524959963834
 30
0.0
 40
2.5
  1
5
 50
2.99999999999909
100
AcDbText
  0
LINE
  5
255
330
1F
100
AcDbEntity
  8
137
  6
Continuous
 62
     4
370
    15
100
AcDbLine
 10
69.57992857978104
 20
108.1856842168349
 30
0.0
 11
71.09890798188928
 21
107.8628145333127
 31
0.0
  0
LINE
  5
256
330
1F
100
AcDbEntity
  8
137
  6
Continuous
 62
     4
370
    15
100
AcDbLine
 10
69.57992857978104
 20
108.1856842168349
 30
0.0
 11
71.05683783611897
 21
108.6655607352279
 31
0.0
  0
LINE
  5
257
330
1F
100
AcDbEntity
  8
137
  6
Continuous
 62
     4
370
    15
100
AcDbLine
 10
67.08394188136702
 20
108.0548750968512
 30
0.0
 11
65.60703267921127
 21
107.5749975446002
 31
0.0
  0
LINE
  5
258
330
1F
100
AcDbEntity
  8
137
  6
Continuous
 62
     4
370
    15
100
AcDbLine
 10
67.08394188136702
 20
108.0548750968512
 30
0.0
 11
65.56496253344096
 21
108.3777437465153
 31
0.0
  0
LINE
  5
259
330
1F
100
AcDbEntity
  8
137
  6
Continuous
 62
     4
370
    15
100
AcDbLine
 10
72.2590061553376
 20
108.3260887230967
 30
0.0
 11
62.09280380750442
 21
107.7933006343051
 31
0.0
  0
LINE
  5
25A
330
1F
100
AcDbEntity
  8
138
  6
Continuous
 62
     7
370
    15
100
AcDbLine
 10
39.68996009331988
 20
255.1671765853527
 30
0.0
 11
71.37746109791186
 21
255.1671765853527
 31
0.0
  0
LINE
  5
25B
330
1F
100
AcDbEntity
  8
138
  6
Continuous
 62
     7
370
    15
100
AcDbLine
 10
42.49976281662441
 20
117.3621109608957
 30
0.0
 11
56.98878627599288
 21
117.3621109608957
 31
0.0
  0
LINE
  5
25C
330
1F
100
AcDbEntity
  8
137
  6
Continuous
 62
     4
370
    15
100
AcDbLine
 10
32.29822195110881
 20
134.4140826163223
 30
0.0
 11
31.90999295110879
 21
135.8629716163223
 31
0.0
  0
LINE
  5
25D
330
1F
100
AcDbEntity
  8
137
  6
Continuous
 62
     4
370
    15
100
AcDbLine
 10
32.29822195110881
 20
134.4140826163223
 30
0.0
 11
32.68644995110878
 21
135.8629716163223
 31
0.0
  0
LINE
  5
25E
330
1F
100
AcDbEntity
  8
137
  6
Continuous
 62
     4
370
    15
100
AcDbLine
 10
32.29822195110881
 20
134.4140826163223
 30
0.0
 11
32.68644995110878
 21
132.9651946163223
 31
0.0
  0
LINE
  5
25F
330
1F
100
AcDbEntity
  8
137
  6
Continuous
 62
     4
370
    15
100
AcDbLine
 10
32.29822195110881
 20
134.4140826163223
 30
0.0
 11
31.90999295110879
 21
132.9651946163223
 31
0.0
  0
LINE
  5
260
330
1F
100
AcDbEntity
  8
137
  6
Continuous
 62
     4
370
    15
100
AcDbLine
 10
32.29822195110876
 20
89.41582489480692
 30
0.0
 11
32.68644995110873
 21
90.86471389480693
 31
0.0
  0
LINE
  5
261
330
1F
100
AcDbEntity
  8
137
  6
Continuous
 62
     4
370
    15
100
AcDbLine
 10
32.29822195110876
 20
89.41582489480692
 30
0.0
 11
31.90999295110873
 21
90.86471389480693
 31
0.0
  0
LINE
  5
262
330
1F
100
AcDbEntity
  8
137
  6
Continuous
 62
     4
370
    15
100
AcDbLine
 10
26.29822195110881
 20
89.41582489480686
 30
0.0
 11
26.68644995110878
 21
90.86471389480687
 31
0.0
  0
LINE
  5
263
330
1F
100
AcDbEntity
  8
137
  6
Continuous
 62
     4
370
    15
100
AcDbLine
 10
26.29822195110881
 20
89.41582489480686
 30
0.0
 11
25.90999295110879
 21
90.86471389480687
 31
0.0
  0
LINE
  5
264
330
1F
100
AcDbEntity
  8
137
  6
Continuous
 62
     4
370
    15
100
AcDbLine
 10
32.29822195110881
 20
137.4140826163931
 30
0.0
 11
32.68644995110878
 21
135.9651946163931
 31
0.0
  0
LINE
  5
265
330
1F
100
AcDbEntity
  8
137
  6
Continuous
 62
     4
370
    15
100
AcDbLine
 10
32.29822195110881
 20
137.4140826163931
 30
0.0
 11
31.90999295110879
 21
135.9651946163931
 31
0.0
  0
LINE
  5
266
330
1F
100
AcDbEntity
  8
137
  6
Continuous
 62
     4
370
    15
100
AcDbLine
 10
26.29822195110881
 20
137.4140826163931
 30
0.0
 11
26.68644995110878
 21
135.9651946163931
 31
0.0
  0
LINE
  5
267
330
1F
100
AcDbEntity
  8
137
  6
Continuous
 62
     4
370
    15
100
AcDbLine
 10
26.29822195110881
 20
137.4140826163931
 30
0.0
 11
25.90999295110879
 21
135.9651946163931
 31
0.0
  0
TEXT
  5
268
330
1F
100
AcDbEntity
  8
135
  6
Continuous
 62
     7
370
    15
100
AcDbText
 10
25.79607395110872
 20
111.8068458353478
 30
0.0
 40
2.5
  1
96
 50
89.99999999999991
100
AcDbText
  0
LINE
  5
269
330
1F
100
AcDbEntity
  8
137
  6
Continuous
 62
     4
370
    15
100
AcDbLine
 10
79.65467566180814
 20
89.41582489480408
 30
0.0
 11
79.26644666180812
 21
87.96693689480406
 31
0.0
  0
LINE
  5
26A
330
1F
100
AcDbEntity
  8
137
  6
Continuous
 62
     4
370
    15
100
AcDbLine
 10
79.65467566180814
 20
89.41582489480408
 30
0.0
 11
80.04290366180811
 21
87.96693689480406
 31
0.0
  0
LINE
  5
26B
330
1F
100
AcDbEntity
  8
137
  6
Continuous
 62
     4
370
    15
100
AcDbLine
 10
79.65467566179882
 20
91.91582489477327
 30
0.0
 11
79.2664466617988
 21
93.36471389477327
 31
0.0
  0
LINE
  5
26C
330
1F
100
AcDbEntity
  8
137
  6
Continuous
 62
     4
370
    15
100
AcDbLine
 10
79.65467566179882
 20
91.91582489477327
 30
0.0
 11
80.04290366179879
 21
93.36471389477327
 31
0.0
  0
LINE
  5
26D
330
1F
100
AcDbEntity
  8
137
  6
Continuous
 62
     4
370
    15
100
AcDbLine
 10
63.29496634062389
 20
142.2429394745116
 30
0.0
 11
64.794966340624
 21
141.8410150331468
 31
0.0
  0
LINE
  5
26E
330
1F
100
AcDbEntity
  8
137
  6
Continuous
 62
     4
370
    15
100
AcDbLine
 10
63.29496634062389
 20
142.2429394745116
 30
0.0
 11
64.794966340624
 21
142.6448628805995
 31
0.0
  0
LINE
  5
26F
330
1F
100
AcDbEntity
  8
137
  6
Continuous
 62
     4
370
    15
100
AcDbLine
 10
61.2949663406232
 20
142.2429394745116
 30
0.0
 11
59.79496634062309
 21
141.8410150331468
 31
0.0
  0
LINE
  5
270
330
1F
100
AcDbEntity
  8
137
  6
Continuous
 62
     4
370
    15
100
AcDbLine
 10
61.2949663406232
 20
142.2429394745116
 30
0.0
 11
59.79496634062309
 21
142.6448628805995
 31
0.0
  0
LINE
  5
271
330
1F
100
AcDbEntity
  8
137
  6
Continuous
 62
     4
370
    15
100
AcDbLine
 10
65.29712470174599
 20
142.2429394745116
 30
0.0
 11
56.94538104888966
 21
142.2429394745116
 31
0.0
  0
LINE
  5
272
330
1F
100
AcDbEntity
  8
137
  6
Continuous
 62
     4
370
    15
100
AcDbLine
 10
79.65467566181644
 20
129.4140826164204
 30
0.0
 11
79.26644666181642
 21
127.9651946164203
 31
0.0
  0
LINE
  5
273
330
1F
100
AcDbEntity
  8
137
  6
Continuous
 62
     4
370
    15
100
AcDbLine
 10
79.65467566181644
 20
129.4140826164204
 30
0.0
 11
80.04290366181641
 21
127.9651946164203
 31
0.0
  0
LINE
  5
274
330
1F
100
AcDbEntity
  8
137
  6
Continuous
 62
     4
370
    15
100
AcDbLine
 10
79.65467566179882
 20
137.4140826164207
 30
0.0
 11
80.04290366179879
 21
138.8629716164207
 31
0.0
  0
LINE
  5
275
330
1F
100
AcDbEntity
  8
137
  6
Continuous
 62
     4
370
    15
100
AcDbLine
 10
79.65467566179882
 20
137.4140826164207
 30
0.0
 11
79.2664466617988
 21
138.8629716164207
 31
0.0
  0
LINE
  5
276
330
1F
100
AcDbEntity
  8
137
  6
Continuous
 62
     4
370
    15
100
AcDbLine
 10
89.9574335085839
 20
137.4140826164436
 30
0.0
 11
89.56920450858388
 21
138.8629716164436
 31
0.0
  0
LINE
  5
277
330
1F
100
AcDbEntity
  8
137
  6
Continuous
 62
     4
370
    15
100
AcDbLine
 10
89.9574335085839
 20
137.4140826164436
 30
0.0
 11
90.34566150858387
 21
138.8629716164436
 31
0.0
  0
LINE
  5
278
330
1F
100
AcDbEntity
  8
137
  6
Continuous
 62
     4
370
    15
100
AcDbLine
 10
89.95743350860164
 20
134.9140826164701
 30
0.0
 11
90.34566150860161
 21
133.4651946164701
 31
0.0
  0
LINE
  5
279
330
1F
100
AcDbEntity
  8
137
  6
Continuous
 62
     4
370
    15
100
AcDbLine
 10
89.95743350860164
 20
134.9140826164701
 30
0.0
 11
89.56920450860162
 21
133.4651946164701
 31
0.0
  0
LINE
  5
27A
330
1F
100
AcDbEntity
  8
137
  6
Continuous
 62
     4
370
    15
100
AcDbLine
 10
89.9574335085839
 20
141.9318062219415
 30
0.0
 11
89.9574335085839
 21
134.9140826165863
 31
0.0
  0
LINE
  5
27B
330
1F
100
AcDbEntity
  8
139
  6
Continuous
 62
     7
370
    15
100
AcDbLine
 10
66.6848843126084
 20
115.7991743696532
 30
0.0
 11
69.06384370707997
 21
118.1781346832716
 31
0.0
  0
LINE
  5
27C
330
1F
100
AcDbEntity
  8
139
  6
Continuous
 62
     7
370
    15
100
AcDbLine
 10
66.64875684823244
 20
116.4701550454308
 30
0.0
 11
69.02788443490414
 21
118.8492817128911
 31
0.0
  0
LINE
  5
27D
330
1F
100
AcDbEntity
  8
139
  6
Continuous
 62
     7
370
    15
100
AcDbLine
 10
66.61262949738017
 20
117.1411336127812
 30
0.0
 11
68.99192513548991
 21
119.5204292508911
 31
0.0
  0
LINE
  5
27E
330
1F
100
AcDbEntity
  8
139
  6
Continuous
 62
     7
370
    15
100
AcDbLine
 10
66.57650209125677
 20
117.8121132066581
 30
0.0
 11
68.95596582780746
 21
120.1915769432089
 31
0.0
  0
LINE
  5
27F
330
1F
100
AcDbEntity
  8
139
  6
Continuous
 62
     7
370
    15
100
AcDbLine
 10
66.54037467736134
 20
118.4830929448819
 30
0.0
 11
68.92000655914472
 21
120.8627239072592
 31
0.0
  0
LINE
  5
280
330
1F
100
AcDbEntity
  8
139
  6
Continuous
 62
     7
370
    15
100
AcDbLine
 10
66.50424733907153
 20
119.1540712789126
 30
0.0
 11
68.88404722546579
 21
121.5338720847784
 31
0.0
  0
LINE
  5
281
330
1F
100
AcDbEntity
  8
139
  6
Continuous
 62
     7
370
    15
100
AcDbLine
 10
66.4681199239784
 20
119.8250510393797
 30
0.0
 11
68.84808795561429
 21
122.2050190710156
 31
0.0
  0
LINE
  5
282
330
1F
100
AcDbEntity
  8
139
  6
Continuous
 62
     7
370
    15
100
AcDbLine
 10
66.43199251785501
 20
120.4960306332565
 30
0.0
 11
68.8121286479319
 21
122.8761667633333
 31
0.0
  0
LINE
  5
283
330
1F
100
AcDbEntity
  8
139
  6
Continuous
 62
     7
370
    15
100
AcDbLine
 10
66.39586511173167
 20
121.167010227133
 30
0.0
 11
68.7761693402494
 21
123.5473144556508
 31
0.0
  0
LINE
  5
284
330
1F
100
AcDbEntity
  8
139
  6
Continuous
 62
     7
370
    15
100
AcDbLine
 10
66.35973775670016
 20
121.8379888721014
 30
0.0
 11
68.74021008342112
 21
124.2184611988225
 31
0.0
  0
LINE
  5
285
330
1F
100
AcDbEntity
  8
139
  6
Continuous
 62
     7
370
    15
100
AcDbLine
 10
66.32361029948493
 20
122.5089694148862
 30
0.0
 11
68.70425072488462
 21
124.8896098402859
 31
0.0
  0
LINE
  5
286
330
1F
100
AcDbEntity
  8
139
  6
Continuous
 62
     7
370
    15
100
AcDbLine
 10
66.27761826966787
 20
123.1700833850691
 30
0.0
 11
68.6682914680564
 21
125.5607565834576
 31
0.0
  0
LINE
  5
287
330
1F
100
AcDbEntity
  8
139
  6
Continuous
 62
     7
370
    15
100
AcDbLine
 10
66.08601062901477
 20
123.6855827444161
 30
0.0
 11
68.63233216037383
 21
126.2319042757752
 31
0.0
  0
LINE
  5
288
330
1F
100
AcDbEntity
  8
139
  6
Continuous
 62
     7
370
    15
100
AcDbLine
 10
65.75981102973185
 20
124.0664901451331
 30
0.0
 11
68.59938050929384
 21
126.9060596246952
 31
0.0
  0
LINE
  5
289
330
1F
100
AcDbEntity
  8
139
  6
Continuous
 62
     7
370
    15
100
AcDbLine
 10
65.31058783232322
 20
124.3243723583877
 30
0.0
 11
68.51531838198667
 21
127.5291041462471
 31
0.0
  0
LINE
  5
28A
330
1F
100
AcDbEntity
  8
139
  6
Continuous
 62
     7
370
    15
100
AcDbLine
 10
64.69318866361937
 20
124.4140826163803
 30
0.0
 11
68.1617649578044
 21
127.8826575704294
 31
0.0
  0
LINE
  5
28B
330
1F
100
AcDbEntity
  8
139
  6
Continuous
 62
     7
370
    15
100
AcDbLine
 10
63.98608350097618
 20
124.4140826163772
 30
0.0
 11
67.80821170641633
 21
128.2362108218175
 31
0.0
  0
LINE
  5
28C
330
1F
100
AcDbEntity
  8
139
  6
Continuous
 62
     7
370
    15
100
AcDbLine
 10
63.36126584037964
 20
124.4963719557806
 30
0.0
 11
67.45465820641641
 21
128.5897643218174
 31
0.0
  0
LINE
  5
28D
330
1F
100
AcDbEntity
  8
139
  6
Continuous
 62
     7
370
    15
100
AcDbLine
 10
62.90665596369217
 20
124.7488706351538
 30
0.0
 11
67.10110473867991
 21
128.9433177895539
 31
0.0
  0
LINE
  5
28E
330
1F
100
AcDbEntity
  8
139
  6
Continuous
 62
     7
370
    15
100
AcDbLine
 10
62.57562321861286
 20
125.1249406405706
 30
0.0
 11
66.74755174719428
 21
129.2968707810395
 31
0.0
  0
LINE
  5
28F
330
1F
100
AcDbEntity
  8
139
  6
Continuous
 62
     7
370
    15
100
AcDbLine
 10
62.37763195410918
 20
125.6340580695101
 30
0.0
 11
66.39399820641637
 21
129.6504243218174
 31
0.0
  0
LINE
  5
290
330
1F
100
AcDbEntity
  8
139
  6
Continuous
 62
     7
370
    15
100
AcDbLine
 10
62.31375604038743
 20
126.2772891557884
 30
0.0
 11
66.0404447064164
 21
130.0039778218175
 31
0.0
  0
LINE
  5
291
330
1F
100
AcDbEntity
  8
139
  6
Continuous
 62
     7
370
    15
100
AcDbLine
 10
62.25686915183832
 20
126.9275092672394
 30
0.0
 11
65.6868912064163
 21
130.3575313218175
 31
0.0
  0
LINE
  5
292
330
1F
100
AcDbEntity
  8
139
  6
Continuous
 62
     7
370
    15
100
AcDbLine
 10
62.19998234373958
 20
127.5777284591406
 30
0.0
 11
65.33333820641639
 21
130.7110843218175
 31
0.0
  0
LINE
  5
293
330
1F
100
AcDbEntity
  8
139
  6
Continuous
 62
     7
370
    15
100
AcDbLine
 10
62.13361669317896
 20
128.21847080858
 30
0.0
 11
64.97978420641641
 21
131.0646383218175
 31
0.0
  0
LINE
  5
294
330
1F
100
AcDbEntity
  8
139
  6
Continuous
 62
     7
370
    15
100
AcDbLine
 10
61.92919585099463
 20
128.721155966396
 30
0.0
 11
64.62623120641632
 21
131.4181913218176
 31
0.0
  0
LINE
  5
295
330
1F
100
AcDbEntity
  8
139
  6
Continuous
 62
     7
370
    15
100
AcDbLine
 10
61.59320045336869
 20
129.0922675687699
 30
0.0
 11
64.27267770641635
 21
131.7717448218175
 31
0.0
  0
LINE
  5
296
330
1F
100
AcDbEntity
  8
139
  6
Continuous
 62
     7
370
    15
100
AcDbLine
 10
61.13298066133677
 20
129.3391547767378
 30
0.0
 11
63.70790850096915
 21
131.9140826163702
 31
0.0
  0
LINE
  5
297
330
1F
100
AcDbEntity
  8
139
  6
Continuous
 62
     7
370
    15
100
AcDbLine
 10
60.50080494863101
 20
129.4140826163633
 30
0.0
 11
63.00080398272098
 21
131.9140826163654
 31
0.0
  0
LINE
  5
298
330
1F
100
AcDbEntity
  8
139
  6
Continuous
 62
     7
370
    15
100
AcDbLine
 10
66.63542221558134
 20
136.2558104179314
 30
0.0
 11
67.7936948615602
 21
137.4140826163943
 31
0.0
  0
LINE
  5
299
330
1F
100
AcDbEntity
  8
139
  6
Continuous
 62
     7
370
    15
100
AcDbLine
 10
59.08658850095628
 20
129.4140826163572
 30
0.0
 11
61.58658850096305
 21
131.914082616364
 31
0.0
  0
LINE
  5
29A
330
1F
100
AcDbEntity
  8
139
  6
Continuous
 62
     7
370
    15
100
AcDbLine
 10
58.37948150095343
 20
129.4140826163541
 30
0.0
 11
60.87948150096111
 21
131.9140826163618
 31
0.0
  0
LINE
  5
29B
330
1F
100
AcDbEntity
  8
139
  6
Continuous
 62
     7
370
    15
100
AcDbLine
 10
57.80394085522221
 20
129.5456524981935
 30
0.0
 11
60.17237188846696
 21
131.9140826163596
 31
0.0
  0
LINE
  5
29C
330
1F
100
AcDbEntity
  8
139
  6
Continuous
 62
     7
370
    15
100
AcDbLine
 10
57.24626967712589
 20
129.6950800400074
 30
0.0
 11
59.46527139613113
 21
131.9140826163575
 31
0.0
  0
LINE
  5
29D
330
1F
100
AcDbEntity
  8
139
  6
Continuous
 62
     7
370
    15
100
AcDbLine
 10
56.6885890092102
 20
129.8445101246108
 30
0.0
 11
58.75816150095466
 21
131.9140826163553
 31
0.0
  0
LINE
  5
29E
330
1F
100
AcDbEntity
  8
139
  6
Continuous
 62
     7
370
    15
100
AcDbLine
 10
56.13091130081278
 20
129.9939394162136
 30
0.0
 11
58.17215275313055
 21
132.0351808685313
 31
0.0
  0
LINE
  5
29F
330
1F
100
AcDbEntity
  8
139
  6
Continuous
 62
     7
370
    15
100
AcDbLine
 10
55.57323359241576
 20
130.1433687078163
 30
0.0
 11
57.61447504473347
 21
132.1846101601341
 31
0.0
  0
LINE
  5
2A0
330
1F
100
AcDbEntity
  8
139
  6
Continuous
 62
     7
370
    15
100
AcDbLine
 10
55.01555667269361
 20
130.2927977880942
 30
0.0
 11
57.05679812501126
 21
132.334039240412
 31
0.0
  0
LINE
  5
2A1
330
1F
100
AcDbEntity
  8
139
  6
Continuous
 62
     7
370
    15
100
AcDbLine
 10
54.45787817562115
 20
130.4422272910219
 30
0.0
 11
56.49911962793885
 21
132.4834687433397
 31
0.0
  0
LINE
  5
2A2
330
1F
100
AcDbEntity
  8
139
  6
Continuous
 62
     7
370
    15
100
AcDbLine
 10
53.90020125589848
 20
130.5916563712999
 30
0.0
 11
55.9414427082163
 21
132.6328978236177
 31
0.0
  0
LINE
  5
2A3
330
1F
100
AcDbEntity
  8
139
  6
Continuous
 62
     7
370
    15
100
AcDbLine
 10
53.34252354750129
 20
130.7410856629027
 30
0.0
 11
55.38376499981911
 21
132.7823271152205
 31
0.0
  0
LINE
  5
2A4
330
1F
100
AcDbEntity
  8
139
  6
Continuous
 62
     7
370
    15
100
AcDbLine
 10
52.78484583910455
 20
130.8905149545053
 30
0.0
 11
54.82608729142231
 21
132.9317564068231
 31
0.0
  0
LINE
  5
2A5
330
1F
100
AcDbEntity
  8
139
  6
Continuous
 62
     7
370
    15
100
AcDbLine
 10
52.2271733709099
 20
131.039942842
 30
0.0
 11
54.26841420122798
 21
133.0811844609821
 31
0.0
  0
LINE
  5
2A6
330
1F
100
AcDbEntity
  8
139
  6
Continuous
 62
     7
370
    15
100
AcDbLine
 10
51.66948579336969
 20
131.1893747780317
 30
0.0
 11
53.71072786768735
 21
133.2306160636851
 31
0.0
  0
LINE
  5
2A7
330
1F
100
AcDbEntity
  8
139
  6
Continuous
 62
     7
370
    15
100
AcDbLine
 10
51.11181350258829
 20
131.3388026179886
 30
0.0
 11
53.15305495490605
 21
133.3800440703064
 31
0.0
  0
LINE
  5
2A8
330
1F
100
AcDbEntity
  8
139
  6
Continuous
 62
     7
370
    15
100
AcDbLine
 10
50.47998650092796
 20
131.4140826163282
 30
0.0
 11
52.59537724650897
 21
133.5294733619092
 31
0.0
  0
LINE
  5
2A9
330
1F
100
AcDbEntity
  8
139
  6
Continuous
 62
     7
370
    15
100
AcDbLine
 10
49.77287287043305
 20
131.4140826163266
 30
0.0
 11
52.03769499893485
 21
133.6789038697807
 31
0.0
  0
LINE
  5
2AA
330
1F
100
AcDbEntity
  8
139
  6
Continuous
 62
     7
370
    15
100
AcDbLine
 10
49.06578041409887
 20
131.4140826163251
 30
0.0
 11
51.48002733497708
 21
133.828330469984
 31
0.0
  0
LINE
  5
2AB
330
1F
100
AcDbEntity
  8
139
  6
Continuous
 62
     7
370
    15
100
AcDbLine
 10
48.35866650092316
 20
131.4140826163235
 30
0.0
 11
50.92234490999243
 21
133.9777610253927
 31
0.0
  0
LINE
  5
2AC
330
1F
100
AcDbEntity
  8
139
  6
Continuous
 62
     7
370
    15
100
AcDbLine
 10
47.65155950092151
 20
131.4140826163219
 30
0.0
 11
50.65155950093083
 21
134.4140826163313
 31
0.0
  0
LINE
  5
2AD
330
1F
100
AcDbEntity
  8
139
  6
Continuous
 62
     7
370
    15
100
AcDbLine
 10
47.41180428719088
 20
131.8814344025911
 30
0.0
 11
49.94445250092855
 21
134.4140826163289
 31
0.0
  0
LINE
  5
2AE
330
1F
100
AcDbEntity
  8
139
  6
Continuous
 62
     7
370
    15
100
AcDbLine
 10
47.64750628719071
 20
132.824242402591
 30
0.0
 11
49.23734650092598
 21
134.4140826163264
 31
0.0
  0
LINE
  5
2AF
330
1F
100
AcDbEntity
  8
139
  6
Continuous
 62
     7
370
    15
100
AcDbLine
 10
47.88320895385732
 20
133.7670530692577
 30
0.0
 11
48.53023850092347
 21
134.414082616324
 31
0.0
  0
LINE
  5
2B0
330
1F
100
AcDbEntity
  8
139
  6
Continuous
 62
     7
370
    15
100
AcDbLine
 10
67.26292256008628
 20
105.0635055199931
 30
0.0
 11
69.63919247410013
 21
107.4397745158997
 31
0.0
  0
LINE
  5
2B1
330
1F
100
AcDbEntity
  8
139
  6
Continuous
 62
     7
370
    15
100
AcDbLine
 10
67.29905000021483
 20
104.3925252945523
 30
0.0
 11
69.67515172225364
 21
106.7686279346338
 31
0.0
  0
LINE
  5
2B2
330
1F
100
AcDbEntity
  8
139
  6
Continuous
 62
     7
370
    15
100
AcDbLine
 10
67.33517736438853
 20
103.7215464797907
 30
0.0
 11
69.71111103486783
 21
106.0974801502701
 31
0.0
  0
LINE
  5
2B3
330
1F
100
AcDbEntity
  8
139
  6
Continuous
 62
     7
370
    15
100
AcDbLine
 10
67.37130477051187
 20
103.0505668859138
 30
0.0
 11
69.74707034255033
 21
105.4263324579522
 31
0.0
  0
LINE
  5
2B4
330
1F
100
AcDbEntity
  8
139
  6
Continuous
 62
     7
370
    15
100
AcDbLine
 10
67.40743217663527
 20
102.3795872920373
 30
0.0
 11
69.78302965023272
 21
104.7551847656347
 31
0.0
  0
LINE
  5
2B5
330
1F
100
AcDbEntity
  8
139
  6
Continuous
 62
     7
370
    15
100
AcDbLine
 10
67.44355953166678
 20
101.7086086470687
 30
0.0
 11
69.818988907061
 21
104.0840380224631
 31
0.0
  0
LINE
  5
2B6
330
1F
100
AcDbEntity
  8
139
  6
Continuous
 62
     7
370
    15
100
AcDbLine
 10
67.47968698888195
 20
101.0376281042843
 30
0.0
 11
69.8549482655975
 21
103.4128893809998
 31
0.0
  0
LINE
  5
2B7
330
1F
100
AcDbEntity
  8
139
  6
Continuous
 62
     7
370
    15
100
AcDbLine
 10
67.51581434391352
 20
100.3666494593155
 30
0.0
 11
69.89090752242589
 21
102.7417426378278
 31
0.0
  0
LINE
  5
2B8
330
1F
100
AcDbEntity
  8
139
  6
Continuous
 62
     7
370
    15
100
AcDbLine
 10
67.55194175003692
 20
99.6956698654389
 30
0.0
 11
69.92686683010828
 21
102.0705949455103
 31
0.0
  0
LINE
  5
2B9
330
1F
100
AcDbEntity
  8
139
  6
Continuous
 62
     7
370
    15
100
AcDbLine
 10
67.58806915616032
 20
99.02469027156229
 30
0.0
 11
69.96282613779073
 21
101.3994472531927
 31
0.0
  0
LINE
  5
2BA
330
1F
100
AcDbEntity
  8
139
  6
Continuous
 62
     7
370
    15
100
AcDbLine
 10
67.6241965491455
 20
98.35371092169663
 30
0.0
 11
69.9987853857395
 21
100.7283006757488
 31
0.0
  0
LINE
  5
2BB
330
1F
100
AcDbEntity
  8
139
  6
Continuous
 62
     7
370
    15
100
AcDbLine
 10
67.66032393165108
 20
97.68273176646335
 30
0.0
 11
70.03474476322384
 21
100.0571516806433
 31
0.0
  0
LINE
  5
2BC
330
1F
100
AcDbEntity
  8
139
  6
Continuous
 62
     7
370
    15
100
AcDbLine
 10
67.69645132343862
 20
97.01175243884063
 30
0.0
 11
70.0707040099839
 21
99.3860051253859
 31
0.0
  0
LINE
  5
2BD
330
1F
100
AcDbEntity
  8
139
  6
Continuous
 62
     7
370
    15
100
AcDbLine
 10
67.73257872956196
 20
96.34077284496414
 30
0.0
 11
70.10666331766629
 21
98.71485743306846
 31
0.0
  0
LINE
  5
2BE
330
1F
100
AcDbEntity
  8
139
  6
Continuous
 62
     7
370
    15
100
AcDbLine
 10
67.76870610252229
 20
95.66979386701229
 30
0.0
 11
70.14262263898326
 21
98.0437094862753
 31
0.0
  0
LINE
  5
2BF
330
1F
100
AcDbEntity
  8
139
  6
Continuous
 62
     7
370
    15
100
AcDbLine
 10
67.80483352268237
 20
94.9988140124371
 30
0.0
 11
70.17858186735378
 21
97.37256327424183
 31
0.0
  0
LINE
  5
2C0
330
1F
100
AcDbEntity
  8
139
  6
Continuous
 62
     7
370
    15
100
AcDbLine
 10
72.82846827157334
 20
89.41584738697549
 30
0.0
 11
75.32844577940381
 21
91.91582489480584
 31
0.0
  0
LINE
  5
2C1
330
1F
100
AcDbEntity
  8
139
  6
Continuous
 62
     7
370
    15
100
AcDbLine
 10
72.16727244384327
 20
89.46175961909216
 30
0.0
 11
74.62133677139258
 21
91.91582489480624
 31
0.0
  0
LINE
  5
2C2
330
1F
100
AcDbEntity
  8
139
  6
Continuous
 62
     7
370
    15
100
AcDbLine
 10
71.57722644041309
 20
89.57881773342467
 30
0.0
 11
73.91423450473269
 21
91.91582489480652
 31
0.0
  0
LINE
  5
2C3
330
1F
100
AcDbEntity
  8
139
  6
Continuous
 62
     7
370
    15
100
AcDbLine
 10
71.04267097981699
 20
89.7513700952191
 30
0.0
 11
73.20712577940458
 21
91.9158248948068
 31
0.0
  0
LINE
  5
2C4
330
1F
100
AcDbEntity
  8
139
  6
Continuous
 62
     7
370
    15
100
AcDbLine
 10
70.55464856234971
 20
89.97045467775195
 30
0.0
 11
72.52058368909582
 21
91.9363898044981
 31
0.0
  0
LINE
  5
2C5
330
1F
100
AcDbEntity
  8
139
  6
Continuous
 62
     7
370
    15
100
AcDbLine
 10
70.10773045544386
 20
90.23064234466455
 30
0.0
 11
71.95501606156984
 21
92.07792723706433
 31
0.0
  0
LINE
  5
2C6
330
1F
100
AcDbEntity
  8
139
  6
Continuous
 62
     7
370
    15
100
AcDbLine
 10
69.69863842843984
 20
90.52865860248278
 30
0.0
 11
71.48514345478037
 21
92.31516431906647
 31
0.0
  0
LINE
  5
2C7
330
1F
100
AcDbEntity
  8
139
  6
Continuous
 62
     7
370
    15
100
AcDbLine
 10
69.32559219524194
 20
90.86271831064414
 30
0.0
 11
71.09197827190127
 21
92.62910438730358
 31
0.0
  0
LINE
  5
2C8
330
1F
100
AcDbEntity
  8
139
  6
Continuous
 62
     7
370
    15
100
AcDbLine
 10
68.98799090433863
 20
91.2322240197409
 30
0.0
 11
70.77025733532895
 21
93.01449045073127
 31
0.0
  0
LINE
  5
2C9
330
1F
100
AcDbEntity
  8
139
  6
Continuous
 62
     7
370
    15
100
AcDbLine
 10
68.68632428582913
 20
91.63766440123135
 30
0.0
 11
70.52416632821036
 21
93.47550644361263
 31
0.0
  0
LINE
  5
2CA
330
1F
100
AcDbEntity
  8
139
  6
Continuous
 62
     7
370
    15
100
AcDbLine
 10
68.42224808974294
 20
92.08069420514511
 30
0.0
 11
70.37067523616503
 21
94.02912135156737
 31
0.0
  0
LINE
  5
2CB
330
1F
100
AcDbEntity
  8
139
  6
Continuous
 62
     7
370
    15
100
AcDbLine
 10
68.19886642413638
 20
92.5644205395385
 30
0.0
 11
70.32241906205263
 21
94.68797317745481
 31
0.0
  0
LINE
  5
2CC
330
1F
100
AcDbEntity
  8
139
  6
Continuous
 62
     7
370
    15
100
AcDbLine
 10
68.02134947877857
 20
93.0940095941807
 30
0.0
 11
70.2864598052243
 21
95.35911992062643
 31
0.0
  0
LINE
  5
2CD
330
1F
100
AcDbEntity
  8
139
  6
Continuous
 62
     7
370
    15
100
AcDbLine
 10
67.89820760080403
 20
93.67797471620605
 30
0.0
 11
70.25050049754196
 21
96.03026761294387
 31
0.0
  0
LINE
  5
2CE
330
1F
100
AcDbEntity
  8
139
  6
Continuous
 62
     7
370
    15
100
AcDbLine
 10
67.84096089684027
 20
94.32783501224259
 30
0.0
 11
70.21454118985946
 21
96.70141530526183
 31
0.0
  0
LINE
  5
2CF
330
1F
100
AcDbEntity
  8
139
  6
Continuous
 62
     7
370
    15
100
AcDbLine
 10
84.84926077939866
 20
89.41582489480169
 30
0.0
 11
87.34926077939758
 21
91.91582489480066
 31
0.0
  0
LINE
  5
2D0
330
1F
100
AcDbEntity
  8
139
  6
Continuous
 62
     7
370
    15
100
AcDbLine
 10
85.55636777939827
 20
89.4158248948014
 30
0.0
 11
88.05636777939742
 21
91.91582489480038
 31
0.0
  0
LINE
  5
2D1
330
1F
100
AcDbEntity
  8
139
  6
Continuous
 62
     7
370
    15
100
AcDbLine
 10
86.26347477939788
 20
89.41582489480112
 30
0.0
 11
88.76347477939692
 21
91.9158248948001
 31
0.0
  0
LINE
  5
2D2
330
1F
100
AcDbEntity
  8
139
  6
Continuous
 62
     7
370
    15
100
AcDbLine
 10
86.97058077939784
 20
89.41582489480083
 30
0.0
 11
89.47058077939664
 21
91.91582489479975
 31
0.0
  0
LINE
  5
2D3
330
1F
100
AcDbEntity
  8
139
  6
Continuous
 62
     7
370
    15
100
AcDbLine
 10
87.67768877939739
 20
89.4158248948005
 30
0.0
 11
90.17768877939636
 21
91.91582489479947
 31
0.0
  0
LINE
  5
2D4
330
1F
100
AcDbEntity
  8
139
  6
Continuous
 62
     7
370
    15
100
AcDbLine
 10
88.38479477939723
 20
89.41582489480021
 30
0.0
 11
90.88479477939615
 21
91.91582489479919
 31
0.0
  0
LINE
  5
2D5
330
1F
100
AcDbEntity
  8
139
  6
Continuous
 62
     7
370
    15
100
AcDbLine
 10
89.09190177939678
 20
89.41582489479987
 30
0.0
 11
91.59190177939576
 21
91.91582489479885
 31
0.0
  0
LINE
  5
2D6
330
1F
100
AcDbEntity
  8
139
  6
Continuous
 62
     7
370
    15
100
AcDbLine
 10
89.79900877939656
 20
89.41582489479958
 30
0.0
 11
92.29900877939559
 21
91.9158248947985
 31
0.0
  0
LINE
  5
2D7
330
1F
100
AcDbEntity
  8
139
  6
Continuous
 62
     7
370
    15
100
AcDbLine
 10
90.50611472191247
 20
89.41582489479924
 30
0.0
 11
93.00611375599914
 21
91.91582489479828
 31
0.0
  0
LINE
  5
2D8
330
1F
100
AcDbEntity
  8
139
  6
Continuous
 62
     7
370
    15
100
AcDbLine
 10
91.21322311956362
 20
89.41582489479896
 30
0.0
 11
93.71322408547519
 21
91.91582489479794
 31
0.0
  0
LINE
  5
2D9
330
1F
100
AcDbEntity
  8
139
  6
Continuous
 62
     7
370
    15
100
AcDbLine
 10
91.92032877939562
 20
89.41582489479862
 30
0.0
 11
94.42032877939454
 21
91.91582489479765
 31
0.0
  0
LINE
  5
2DA
330
1F
100
AcDbEntity
  8
139
  6
Continuous
 62
     7
370
    15
100
AcDbLine
 10
92.62743577939528
 20
89.41582489479833
 30
0.0
 11
95.12743577939426
 21
91.91582489479737
 31
0.0
  0
LINE
  5
2DB
330
1F
100
AcDbEntity
  8
139
  6
Continuous
 62
     7
370
    15
100
AcDbLine
 10
93.33454396761374
 20
89.4158248947981
 30
0.0
 11
95.83454493352531
 21
91.91582489479697
 31
0.0
  0
LINE
  5
2DC
330
1F
100
AcDbEntity
  8
139
  6
Continuous
 62
     7
370
    15
100
AcDbLine
 10
94.04164730849283
 20
89.41582489479771
 30
0.0
 11
96.54164634257961
 21
91.91582489479674
 31
0.0
  0
LINE
  5
2DD
330
1F
100
AcDbEntity
  8
139
  6
Continuous
 62
     7
370
    15
100
AcDbLine
 10
94.74875577939446
 20
89.41582489479742
 30
0.0
 11
97.24875577939343
 21
91.91582489479646
 31
0.0
  0
LINE
  5
2DE
330
1F
100
AcDbEntity
  8
139
  6
Continuous
 62
     7
370
    15
100
AcDbLine
 10
84.1421561333147
 20
89.41582489480197
 30
0.0
 11
86.64215516740148
 21
91.915824894801
 31
0.0
  0
LINE
  5
2DF
330
1F
100
AcDbEntity
  8
139
  6
Continuous
 62
     7
370
    15
100
AcDbLine
 10
83.43504514279965
 20
89.41582489480231
 30
0.0
 11
85.93504610871105
 21
91.91582489480129
 31
0.0
  0
LINE
  5
2E0
330
1F
100
AcDbEntity
  8
139
  6
Continuous
 62
     7
370
    15
100
AcDbLine
 10
82.72794077939989
 20
89.4158248948026
 30
0.0
 11
85.22794077939892
 21
91.91582489480163
 31
0.0
  0
LINE
  5
2E1
330
1F
100
AcDbEntity
  8
139
  6
Continuous
 62
     7
370
    15
100
AcDbLine
 10
82.02083377940022
 20
89.41582489480294
 30
0.0
 11
84.5208337793992
 21
91.91582489480197
 31
0.0
  0
LINE
  5
2E2
330
1F
100
AcDbEntity
  8
139
  6
Continuous
 62
     7
370
    15
100
AcDbLine
 10
81.31372429474948
 20
89.41582489480328
 30
0.0
 11
83.81372526066099
 21
91.9158248948022
 31
0.0
  0
LINE
  5
2E3
330
1F
100
AcDbEntity
  8
139
  6
Continuous
 62
     7
370
    15
100
AcDbLine
 10
80.60662354673428
 20
89.41582489480356
 30
0.0
 11
83.10662258082101
 21
91.91582489480248
 31
0.0
  0
LINE
  5
2E4
330
1F
100
AcDbEntity
  8
139
  6
Continuous
 62
     7
370
    15
100
AcDbLine
 10
79.89951377940122
 20
89.41582489480385
 30
0.0
 11
82.39951377940031
 21
91.91582489480282
 31
0.0
  0
LINE
  5
2E5
330
1F
100
AcDbEntity
  8
139
  6
Continuous
 62
     7
370
    15
100
AcDbLine
 10
79.19240677940132
 20
89.41582489480419
 30
0.0
 11
81.69240677940024
 21
91.91582489480317
 31
0.0
  0
LINE
  5
2E6
330
1F
100
AcDbEntity
  8
139
  6
Continuous
 62
     7
370
    15
100
AcDbLine
 10
78.48529977940183
 20
89.41582489480442
 30
0.0
 11
80.9852997794008
 21
91.91582489480345
 31
0.0
  0
LINE
  5
2E7
330
1F
100
AcDbEntity
  8
139
  6
Continuous
 62
     7
370
    15
100
AcDbLine
 10
77.7781937794021
 20
89.41582489480476
 30
0.0
 11
80.27819377940102
 21
91.91582489480379
 31
0.0
  0
LINE
  5
2E8
330
1F
100
AcDbEntity
  8
139
  6
Continuous
 62
     7
370
    15
100
AcDbLine
 10
77.07108577940238
 20
89.4158248948051
 30
0.0
 11
79.57108577940136
 21
91.91582489480408
 31
0.0
  0
LINE
  5
2E9
330
1F
100
AcDbEntity
  8
139
  6
Continuous
 62
     7
370
    15
100
AcDbLine
 10
76.36397977940209
 20
89.41582489480538
 30
0.0
 11
78.86397977940106
 21
91.91582489480436
 31
0.0
  0
LINE
  5
2EA
330
1F
100
AcDbEntity
  8
139
  6
Continuous
 62
     7
370
    15
100
AcDbLine
 10
75.65687277940248
 20
89.41582489480561
 30
0.0
 11
78.15687277940157
 21
91.91582489480464
 31
0.0
  0
LINE
  5
2EB
330
1F
100
AcDbEntity
  8
139
  6
Continuous
 62
     7
370
    15
100
AcDbLine
 10
74.94976577940332
 20
89.41582489480595
 30
0.0
 11
77.44976577940236
 21
91.91582489480498
 31
0.0
  0
LINE
  5
2EC
330
1F
100
AcDbEntity
  8
139
  6
Continuous
 62
     7
370
    15
100
AcDbLine
 10
74.2426649581364
 20
89.41582489480629
 30
0.0
 11
76.74266399222319
 21
91.91582489480527
 31
0.0
  0
LINE
  5
2ED
330
1F
100
AcDbEntity
  8
139
  6
Continuous
 62
     7
370
    15
100
AcDbLine
 10
73.53554631798539
 20
89.41582489480658
 30
0.0
 11
76.03554728389696
 21
91.91582489480567
 31
0.0
  0
LINE
  5
2EE
330
1F
100
AcDbEntity
  8
139
  6
Continuous
 62
     7
370
    15
100
AcDbLine
 10
99.69850377939213
 20
89.41582489479532
 30
0.0
 11
102.198503779391
 21
91.91582489479435
 31
0.0
  0
LINE
  5
2EF
330
1F
100
AcDbEntity
  8
139
  6
Continuous
 62
     7
370
    15
100
AcDbLine
 10
100.4056121484185
 20
89.41582489479504
 30
0.0
 11
102.9056111825053
 21
91.91582489479401
 31
0.0
  0
LINE
  5
2F0
330
1F
100
AcDbEntity
  8
139
  6
Continuous
 62
     7
370
    15
100
AcDbLine
 10
101.1127156930479
 20
89.41582489479475
 30
0.0
 11
103.6127166589593
 21
91.91582489479373
 31
0.0
  0
LINE
  5
2F1
330
1F
100
AcDbEntity
  8
139
  6
Continuous
 62
     7
370
    15
100
AcDbLine
 10
101.8198237793912
 20
89.41582489479435
 30
0.0
 11
104.3198237793902
 21
91.91582489479333
 31
0.0
  0
LINE
  5
2F2
330
1F
100
AcDbEntity
  8
139
  6
Continuous
 62
     7
370
    15
100
AcDbLine
 10
102.5269307793908
 20
89.41582489479407
 30
0.0
 11
105.0269307793898
 21
91.9158248947931
 31
0.0
  0
LINE
  5
2F3
330
1F
100
AcDbEntity
  8
139
  6
Continuous
 62
     7
370
    15
100
AcDbLine
 10
103.2340365410979
 20
89.41582489479384
 30
0.0
 11
105.7340375070092
 21
91.91582489479276
 31
0.0
  0
LINE
  5
2F4
330
1F
100
AcDbEntity
  8
139
  6
Continuous
 62
     7
370
    15
100
AcDbLine
 10
103.9411447349989
 20
89.41582489479345
 30
0.0
 11
106.4411437690857
 21
91.91582489479242
 31
0.0
  0
LINE
  5
2F5
330
1F
100
AcDbEntity
  8
139
  6
Continuous
 62
     7
370
    15
100
AcDbLine
 10
114.5477457793854
 20
89.41582489478895
 30
0.0
 11
117.0477457793844
 21
91.91582489478782
 31
0.0
  0
LINE
  5
2F6
330
1F
100
AcDbEntity
  8
139
  6
Continuous
 62
     7
370
    15
100
AcDbLine
 10
113.8406359101769
 20
89.41582489478918
 30
0.0
 11
116.3406349442636
 21
91.91582489478822
 31
0.0
  0
LINE
  5
2F7
330
1F
100
AcDbEntity
  8
139
  6
Continuous
 62
     7
370
    15
100
AcDbLine
 10
113.1335353659122
 20
89.41582489478958
 30
0.0
 11
115.6335363318237
 21
91.91582489478844
 31
0.0
  0
LINE
  5
2F8
330
1F
100
AcDbEntity
  8
139
  6
Continuous
 62
     7
370
    15
100
AcDbLine
 10
112.4264257793861
 20
89.41582489478981
 30
0.0
 11
114.9264257793851
 21
91.91582489478878
 31
0.0
  0
LINE
  5
2F9
330
1F
100
AcDbEntity
  8
139
  6
Continuous
 62
     7
370
    15
100
AcDbLine
 10
111.7193187793866
 20
89.41582489479009
 30
0.0
 11
114.2193187793855
 21
91.91582489478907
 31
0.0
  0
LINE
  5
2FA
330
1F
100
AcDbEntity
  8
139
  6
Continuous
 62
     7
370
    15
100
AcDbLine
 10
111.0122145178619
 20
89.41582489479049
 30
0.0
 11
113.5122154837733
 21
91.91582489478941
 31
0.0
  0
LINE
  5
2FB
330
1F
100
AcDbEntity
  8
139
  6
Continuous
 62
     7
370
    15
100
AcDbLine
 10
110.3051033235966
 20
89.41582489479072
 30
0.0
 11
112.8051023576835
 21
91.9158248947897
 31
0.0
  0
LINE
  5
2FC
330
1F
100
AcDbEntity
  8
139
  6
Continuous
 62
     7
370
    15
100
AcDbLine
 10
109.5979987793876
 20
89.41582489479106
 30
0.0
 11
112.0979987793866
 21
91.91582489479003
 31
0.0
  0
LINE
  5
2FD
330
1F
100
AcDbEntity
  8
139
  6
Continuous
 62
     7
370
    15
100
AcDbLine
 10
108.8908917793878
 20
89.4158248947914
 30
0.0
 11
111.3908917793868
 21
91.91582489479032
 31
0.0
  0
LINE
  5
2FE
330
1F
100
AcDbEntity
  8
139
  6
Continuous
 62
     7
370
    15
100
AcDbLine
 10
108.1837847793882
 20
89.41582489479168
 30
0.0
 11
110.6837847793872
 21
91.9158248947906
 31
0.0
  0
LINE
  5
2FF
330
1F
100
AcDbEntity
  8
139
  6
Continuous
 62
     7
370
    15
100
AcDbLine
 10
107.4766787793884
 20
89.41582489479197
 30
0.0
 11
109.9766787793873
 21
91.91582489479089
 31
0.0
  0
LINE
  5
300
330
1F
100
AcDbEntity
  8
139
  6
Continuous
 62
     7
370
    15
100
AcDbLine
 10
106.7695707793887
 20
89.41582489479225
 30
0.0
 11
109.2695707793876
 21
91.91582489479123
 31
0.0
  0
LINE
  5
301
330
1F
100
AcDbEntity
  8
139
  6
Continuous
 62
     7
370
    15
100
AcDbLine
 10
106.0624647793891
 20
89.41582489479254
 30
0.0
 11
108.5624647793881
 21
91.91582489479151
 31
0.0
  0
LINE
  5
302
330
1F
100
AcDbEntity
  8
139
  6
Continuous
 62
     7
370
    15
100
AcDbLine
 10
105.3553577793894
 20
89.41582489479288
 30
0.0
 11
107.8553577793886
 21
91.91582489479185
 31
0.0
  0
LINE
  5
303
330
1F
100
AcDbEntity
  8
139
  6
Continuous
 62
     7
370
    15
100
AcDbLine
 10
104.6482507793896
 20
89.41582489479316
 30
0.0
 11
107.1482507793886
 21
91.91582489479214
 31
0.0
  0
LINE
  5
304
330
1F
100
AcDbEntity
  8
139
  6
Continuous
 62
     7
370
    15
100
AcDbLine
 10
98.99139677939246
 20
89.4158248947956
 30
0.0
 11
101.4913967793913
 21
91.91582489479458
 31
0.0
  0
LINE
  5
305
330
1F
100
AcDbEntity
  8
139
  6
Continuous
 62
     7
370
    15
100
AcDbLine
 10
98.2842897793928
 20
89.41582489479595
 30
0.0
 11
100.7842897793917
 21
91.91582489479492
 31
0.0
  0
LINE
  5
306
330
1F
100
AcDbEntity
  8
139
  6
Continuous
 62
     7
370
    15
100
AcDbLine
 10
95.45586277939361
 20
89.41582489479714
 30
0.0
 11
97.9558627793927
 21
91.91582489479612
 31
0.0
  0
LINE
  5
307
330
1F
100
AcDbEntity
  8
139
  6
Continuous
 62
     7
370
    15
100
AcDbLine
 10
96.16296977939317
 20
89.41582489479686
 30
0.0
 11
98.66296977939209
 21
91.91582489479578
 31
0.0
  0
LINE
  5
308
330
1F
100
AcDbEntity
  8
139
  6
Continuous
 62
     7
370
    15
100
AcDbLine
 10
96.8700757793934
 20
89.41582489479657
 30
0.0
 11
99.37007577939227
 21
91.91582489479555
 31
0.0
  0
LINE
  5
309
330
1F
100
AcDbEntity
  8
139
  6
Continuous
 62
     7
370
    15
100
AcDbLine
 10
97.57718377939312
 20
89.41582489479623
 30
0.0
 11
100.0771837793919
 21
91.91582489479521
 31
0.0
  0
LINE
  5
30A
330
1F
100
AcDbEntity
  8
139
  6
Continuous
 62
     7
370
    15
100
AcDbLine
 10
66.50839752039923
 20
135.4216775092553
 30
0.0
 11
68.50080185774436
 21
137.4140826163959
 31
0.0
  0
LINE
  5
30B
330
1F
100
AcDbEntity
  8
139
  6
Continuous
 62
     7
370
    15
100
AcDbLine
 10
66.3813732455809
 20
134.5875473609821
 30
0.0
 11
69.20790850099627
 21
137.4140826163975
 31
0.0
  0
LINE
  5
30C
330
1F
100
AcDbEntity
  8
139
  6
Continuous
 62
     7
370
    15
100
AcDbLine
 10
66.2543487683904
 20
133.7534158837915
 30
0.0
 11
69.91501550099804
 21
137.414082616399
 31
0.0
  0
LINE
  5
30D
330
1F
100
AcDbEntity
  8
139
  6
Continuous
 62
     7
370
    15
100
AcDbLine
 10
66.3939981593827
 20
133.185958274784
 30
0.0
 11
70.62212250099952
 21
137.4140826164006
 31
0.0
  0
LINE
  5
30E
330
1F
100
AcDbEntity
  8
139
  6
Continuous
 62
     7
370
    15
100
AcDbLine
 10
71.6576565010019
 20
134.914082616403
 30
0.0
 11
72.29496634058575
 21
135.5513924559868
 31
0.0
  0
LINE
  5
30F
330
1F
100
AcDbEntity
  8
139
  6
Continuous
 62
     7
370
    15
100
AcDbLine
 10
70.95054950100024
 20
134.9140826164014
 30
0.0
 11
72.2949663405858
 21
136.258499455987
 31
0.0
  0
LINE
  5
310
330
1F
100
AcDbEntity
  8
139
  6
Continuous
 62
     7
370
    15
100
AcDbLine
 10
70.24344250099875
 20
134.9140826163999
 30
0.0
 11
72.2949663405858
 21
136.9656064559871
 31
0.0
  0
LINE
  5
311
330
1F
100
AcDbEntity
  8
139
  6
Continuous
 62
     7
370
    15
100
AcDbLine
 10
69.53633650099698
 20
134.9140826163983
 30
0.0
 11
72.0363365010025
 21
137.4140826164038
 31
0.0
  0
LINE
  5
312
330
1F
100
AcDbEntity
  8
139
  6
Continuous
 62
     7
370
    15
100
AcDbLine
 10
69.92953225227245
 20
129.6504241818942
 30
0.0
 11
72.19319156138084
 21
131.9140826164042
 31
0.0
  0
LINE
  5
313
330
1F
100
AcDbEntity
  8
139
  6
Continuous
 62
     7
370
    15
100
AcDbLine
 10
69.57597865938271
 20
130.0039777747839
 30
0.0
 11
71.48608350100136
 21
131.9140826164026
 31
0.0
  0
LINE
  5
314
330
1F
100
AcDbEntity
  8
139
  6
Continuous
 62
     7
370
    15
100
AcDbLine
 10
70.2830849934515
 20
129.2968714407152
 30
0.0
 11
72.29496634058546
 21
131.3087535651697
 31
0.0
  0
LINE
  5
315
330
1F
100
AcDbEntity
  8
139
  6
Continuous
 62
     7
370
    15
100
AcDbLine
 10
69.22242515938285
 20
130.3575312747838
 30
0.0
 11
70.77897650099993
 21
131.914082616401
 31
0.0
  0
LINE
  5
316
330
1F
100
AcDbEntity
  8
139
  6
Continuous
 62
     7
370
    15
100
AcDbLine
 10
66.74755115938274
 20
132.8324052747839
 30
0.0
 11
71.32922850100096
 21
137.4140826164022
 31
0.0
  0
LINE
  5
317
330
1F
100
AcDbEntity
  8
139
  6
Continuous
 62
     7
370
    15
100
AcDbLine
 10
67.10110515938277
 20
132.4788512747839
 30
0.0
 11
69.29496634058552
 21
134.6727124559868
 31
0.0
  0
LINE
  5
318
330
1F
100
AcDbEntity
  8
139
  6
Continuous
 62
     7
370
    15
100
AcDbLine
 10
67.45465815938275
 20
132.1252982747839
 30
0.0
 11
69.29496634058546
 21
133.9656064559866
 31
0.0
  0
LINE
  5
319
330
1F
100
AcDbEntity
  8
139
  6
Continuous
 62
     7
370
    15
100
AcDbLine
 10
67.80821165938278
 20
131.7717447747839
 30
0.0
 11
69.29496634058546
 21
133.2584994559866
 31
0.0
  0
LINE
  5
31A
330
1F
100
AcDbEntity
  8
139
  6
Continuous
 62
     7
370
    15
100
AcDbLine
 10
68.16176515938275
 20
131.4181912747839
 30
0.0
 11
69.29496634058546
 21
132.5513924559865
 31
0.0
  0
LINE
  5
31B
330
1F
100
AcDbEntity
  8
139
  6
Continuous
 62
     7
370
    15
100
AcDbLine
 10
68.51531835865916
 20
131.0646380755075
 30
0.0
 11
69.36476257135394
 21
131.9140826163979
 31
0.0
  0
LINE
  5
31C
330
1F
100
AcDbEntity
  8
139
  6
Continuous
 62
     7
370
    15
100
AcDbLine
 10
68.86887203314791
 20
130.7110844010188
 30
0.0
 11
70.07187071332498
 21
131.9140826163995
 31
0.0
  0
LINE
  5
31D
330
1F
100
AcDbEntity
  8
139
  6
Continuous
 62
     7
370
    15
100
AcDbLine
 10
59.79369550095896
 20
129.4140826163602
 30
0.0
 11
62.29369550096487
 21
131.9140826163661
 31
0.0
  0
LINE
  5
31E
330
1F
100
AcDbEntity
  8
139
  6
Continuous
 62
     7
370
    15
100
AcDbLine
 10
71.10740350100025
 20
129.4140826164015
 30
0.0
 11
72.29496634058552
 21
130.6016454559868
 31
0.0
  0
LINE
  5
31F
330
1F
100
AcDbEntity
  8
139
  6
Continuous
 62
     7
370
    15
100
AcDbLine
 10
71.81451050100185
 20
129.414082616403
 30
0.0
 11
72.29496634058546
 21
129.8945384559867
 31
0.0
  0
LINE
  5
320
330
1F
100
AcDbEntity
  8
139
  6
Continuous
 62
     7
370
    15
100
AcDbLine
 10
127.9827747793793
 20
89.41582489478316
 30
0.0
 11
130.4827747793782
 21
91.91582489478213
 31
0.0
  0
LINE
  5
321
330
1F
100
AcDbEntity
  8
139
  6
Continuous
 62
     7
370
    15
100
AcDbLine
 10
128.6898807793789
 20
89.41582489478287
 30
0.0
 11
131.1898807793777
 21
91.91582489478185
 31
0.0
  0
LINE
  5
322
330
1F
100
AcDbEntity
  8
139
  6
Continuous
 62
     7
370
    15
100
AcDbLine
 10
129.3969887793785
 20
89.41582489478259
 30
0.0
 11
131.8969887793774
 21
91.91582489478151
 31
0.0
  0
LINE
  5
323
330
1F
100
AcDbEntity
  8
139
  6
Continuous
 62
     7
370
    15
100
AcDbLine
 10
116.6690657793846
 20
89.41582489478805
 30
0.0
 11
119.1690657793836
 21
91.91582489478708
 31
0.0
  0
LINE
  5
324
330
1F
100
AcDbEntity
  8
139
  6
Continuous
 62
     7
370
    15
100
AcDbLine
 10
118.0832797793833
 20
89.41582489478748
 30
0.0
 11
120.5832797793822
 21
91.9158248947864
 31
0.0
  0
LINE
  5
325
330
1F
100
AcDbEntity
  8
139
  6
Continuous
 62
     7
370
    15
100
AcDbLine
 10
120.9117067793826
 20
89.41582489478623
 30
0.0
 11
123.4117067793815
 21
91.9158248947852
 31
0.0
  0
LINE
  5
326
330
1F
100
AcDbEntity
  8
139
  6
Continuous
 62
     7
370
    15
100
AcDbLine
 10
123.033025693038
 20
89.41582489478537
 30
0.0
 11
125.5330266589494
 21
91.91582489478435
 31
0.0
  0
LINE
  5
327
330
1F
100
AcDbEntity
  8
139
  6
Continuous
 62
     7
370
    15
100
AcDbLine
 10
126.5685607793798
 20
89.41582489478378
 30
0.0
 11
129.0685607793787
 21
91.91582489478276
 31
0.0
  0
LINE
  5
328
330
1F
100
AcDbEntity
  8
139
  6
Continuous
 62
     7
370
    15
100
AcDbLine
 10
121.6188137793823
 20
89.41582489478594
 30
0.0
 11
124.1188137793811
 21
91.91582489478498
 31
0.0
  0
LINE
  5
329
330
1F
100
AcDbEntity
  8
139
  6
Continuous
 62
     7
370
    15
100
AcDbLine
 10
123.7401337793814
 20
89.41582489478498
 30
0.0
 11
126.2401337793804
 21
91.91582489478395
 31
0.0
  0
LINE
  5
32A
330
1F
100
AcDbEntity
  8
139
  6
Continuous
 62
     7
370
    15
100
AcDbLine
 10
124.4472407793809
 20
89.41582489478469
 30
0.0
 11
126.9472407793799
 21
91.91582489478373
 31
0.0
  0
LINE
  5
32B
330
1F
100
AcDbEntity
  8
139
  6
Continuous
 62
     7
370
    15
100
AcDbLine
 10
125.154346541088
 20
89.41582489478446
 30
0.0
 11
127.6543475069993
 21
91.91582489478338
 31
0.0
  0
LINE
  5
32C
330
1F
100
AcDbEntity
  8
139
  6
Continuous
 62
     7
370
    15
100
AcDbLine
 10
125.8614547349891
 20
89.41582489478407
 30
0.0
 11
128.3614537690759
 21
91.91582489478304
 31
0.0
  0
LINE
  5
32D
330
1F
100
AcDbEntity
  8
139
  6
Continuous
 62
     7
370
    15
100
AcDbLine
 10
127.2756677793795
 20
89.4158248947835
 30
0.0
 11
129.7756677793788
 21
91.91582489478247
 31
0.0
  0
LINE
  5
32E
330
1F
100
AcDbEntity
  8
139
  6
Continuous
 62
     7
370
    15
100
AcDbLine
 10
122.3259221484087
 20
89.41582489478566
 30
0.0
 11
124.8259211824954
 21
91.91582489478463
 31
0.0
  0
LINE
  5
32F
330
1F
100
AcDbEntity
  8
139
  6
Continuous
 62
     7
370
    15
100
AcDbLine
 10
120.2045997793829
 20
89.41582489478657
 30
0.0
 11
122.7045997793818
 21
91.91582489478554
 31
0.0
  0
LINE
  5
330
330
1F
100
AcDbEntity
  8
139
  6
Continuous
 62
     7
370
    15
100
AcDbLine
 10
119.4974937793833
 20
89.41582489478685
 30
0.0
 11
121.9974937793821
 21
91.91582489478583
 31
0.0
  0
LINE
  5
331
330
1F
100
AcDbEntity
  8
139
  6
Continuous
 62
     7
370
    15
100
AcDbLine
 10
118.7903857793835
 20
89.41582489478719
 30
0.0
 11
121.2903857793824
 21
91.91582489478617
 31
0.0
  0
LINE
  5
332
330
1F
100
AcDbEntity
  8
139
  6
Continuous
 62
     7
370
    15
100
AcDbLine
 10
117.3761727793838
 20
89.41582489478776
 30
0.0
 11
119.8761727793828
 21
91.91582489478674
 31
0.0
  0
LINE
  5
333
330
1F
100
AcDbEntity
  8
139
  6
Continuous
 62
     7
370
    15
100
AcDbLine
 10
115.2548539676039
 20
89.41582489478873
 30
0.0
 11
117.7548549335154
 21
91.91582489478759
 31
0.0
  0
LINE
  5
334
330
1F
100
AcDbEntity
  8
139
  6
Continuous
 62
     7
370
    15
100
AcDbLine
 10
115.961957308483
 20
89.41582489478833
 30
0.0
 11
118.4619563425697
 21
91.91582489478736
 31
0.0
  0
LINE
  5
335
330
1F
100
AcDbEntity
  8
139
  6
Continuous
 62
     7
370
    15
100
AcDbLine
 10
130.8112017793779
 20
89.41582489478202
 30
0.0
 11
133.3112017793769
 21
91.91582489478094
 31
0.0
  0
LINE
  5
336
330
1F
100
AcDbEntity
  8
139
  6
Continuous
 62
     7
370
    15
100
AcDbLine
 10
132.9325245178521
 20
89.41582489478111
 30
0.0
 11
135.4325254837635
 21
91.91582489478003
 31
0.0
  0
LINE
  5
337
330
1F
100
AcDbEntity
  8
139
  6
Continuous
 62
     7
370
    15
100
AcDbLine
 10
133.6396287793768
 20
89.41582489478071
 30
0.0
 11
136.1396287793756
 21
91.91582489477969
 31
0.0
  0
LINE
  5
338
330
1F
100
AcDbEntity
  8
139
  6
Continuous
 62
     7
370
    15
100
AcDbLine
 10
134.3467357793763
 20
89.41582489478043
 30
0.0
 11
136.8467357793752
 21
91.9158248947794
 31
0.0
  0
LINE
  5
339
330
1F
100
AcDbEntity
  8
139
  6
Continuous
 62
     7
370
    15
100
AcDbLine
 10
135.760945910167
 20
89.4158248947798
 30
0.0
 11
138.2609449442538
 21
91.91582489477884
 31
0.0
  0
LINE
  5
33A
330
1F
100
AcDbEntity
  8
139
  6
Continuous
 62
     7
370
    15
100
AcDbLine
 10
135.0538453659024
 20
89.4158248947802
 30
0.0
 11
137.5538463318138
 21
91.91582489477906
 31
0.0
  0
LINE
  5
33B
330
1F
100
AcDbEntity
  8
139
  6
Continuous
 62
     7
370
    15
100
AcDbLine
 10
130.1040947793784
 20
89.4158248947823
 30
0.0
 11
132.6040947793773
 21
91.91582489478122
 31
0.0
  0
LINE
  5
33C
330
1F
100
AcDbEntity
  8
139
  6
Continuous
 62
     7
370
    15
100
AcDbLine
 10
131.5183087793778
 20
89.41582489478168
 30
0.0
 11
134.0183087793767
 21
91.91582489478066
 31
0.0
  0
LINE
  5
33D
330
1F
100
AcDbEntity
  8
139
  6
Continuous
 62
     7
370
    15
100
AcDbLine
 10
132.2254133235867
 20
89.41582489478134
 30
0.0
 11
134.7254123576736
 21
91.91582489478031
 31
0.0
  0
LINE
  5
33E
330
1F
100
AcDbEntity
  8
139
  6
Continuous
 62
     7
370
    15
100
AcDbLine
 10
136.4680557793756
 20
89.41582489477958
 30
0.0
 11
138.9680557793745
 21
91.91582489477844
 31
0.0
  0
LINE
  5
33F
330
1F
100
AcDbEntity
  8
139
  6
Continuous
 62
     7
370
    15
100
AcDbLine
 10
149.903085865713
 20
89.41582489477366
 30
0.0
 11
153.4509997065812
 21
92.96373873564175
 31
0.0
  0
LINE
  5
340
330
1F
100
AcDbEntity
  8
139
  6
Continuous
 62
     7
370
    15
100
AcDbLine
 10
149.1959759965044
 20
89.41582489477389
 30
0.0
 11
152.0652998191393
 21
92.28514982601513
 31
0.0
  0
LINE
  5
341
330
1F
100
AcDbEntity
  8
139
  6
Continuous
 62
     7
370
    15
100
AcDbLine
 10
145.6604434099241
 20
89.41582489477543
 30
0.0
 11
148.160442444011
 21
91.9158248947744
 31
0.0
  0
LINE
  5
342
330
1F
100
AcDbEntity
  8
139
  6
Continuous
 62
     7
370
    15
100
AcDbLine
 10
144.9533388657152
 20
89.41582489477577
 30
0.0
 11
147.4533388657141
 21
91.91582489477474
 31
0.0
  0
LINE
  5
343
330
1F
100
AcDbEntity
  8
139
  6
Continuous
 62
     7
370
    15
100
AcDbLine
 10
143.5391248657158
 20
89.41582489477639
 30
0.0
 11
146.0391248657147
 21
91.91582489477531
 31
0.0
  0
LINE
  5
344
330
1F
100
AcDbEntity
  8
139
  6
Continuous
 62
     7
370
    15
100
AcDbLine
 10
148.4888754522398
 20
89.41582489477429
 30
0.0
 11
150.9888764181512
 21
91.91582489477315
 31
0.0
  0
LINE
  5
345
330
1F
100
AcDbEntity
  8
139
  6
Continuous
 62
     7
370
    15
100
AcDbLine
 10
147.7817658657137
 20
89.41582489477452
 30
0.0
 11
150.2817658657126
 21
91.9158248947735
 31
0.0
  0
LINE
  5
346
330
1F
100
AcDbEntity
  8
139
  6
Continuous
 62
     7
370
    15
100
AcDbLine
 10
147.0746588657142
 20
89.4158248947748
 30
0.0
 11
149.574658865713
 21
91.91582489477378
 31
0.0
  0
LINE
  5
347
330
1F
100
AcDbEntity
  8
139
  6
Continuous
 62
     7
370
    15
100
AcDbLine
 10
146.3675546041895
 20
89.4158248947752
 30
0.0
 11
148.8675555701009
 21
91.91582489477412
 31
0.0
  0
LINE
  5
348
330
1F
100
AcDbEntity
  8
139
  6
Continuous
 62
     7
370
    15
100
AcDbLine
 10
144.2462318657153
 20
89.41582489477611
 30
0.0
 11
146.7462318657143
 21
91.91582489477503
 31
0.0
  0
LINE
  5
349
330
1F
100
AcDbEntity
  8
139
  6
Continuous
 62
     7
370
    15
100
AcDbLine
 10
142.8320188657159
 20
89.41582489477668
 30
0.0
 11
145.3320188657148
 21
91.9158248947756
 31
0.0
  0
LINE
  5
34A
330
1F
100
AcDbEntity
  8
139
  6
Continuous
 62
     7
370
    15
100
AcDbLine
 10
142.1249108657163
 20
89.41582489477696
 30
0.0
 11
144.6249108657152
 21
91.91582489477594
 31
0.0
  0
LINE
  5
34B
330
1F
100
AcDbEntity
  8
139
  6
Continuous
 62
     7
370
    15
100
AcDbLine
 10
141.4178048657167
 20
89.41582489477724
 30
0.0
 11
143.9178048657157
 21
91.91582489477622
 31
0.0
  0
LINE
  5
34C
330
1F
100
AcDbEntity
  8
139
  6
Continuous
 62
     7
370
    15
100
AcDbLine
 10
140.710697865717
 20
89.41582489477759
 30
0.0
 11
143.2106978657162
 21
91.91582489477656
 31
0.0
  0
LINE
  5
34D
330
1F
100
AcDbEntity
  8
139
  6
Continuous
 62
     7
370
    15
100
AcDbLine
 10
139.2964848213265
 20
89.41582489477815
 30
0.0
 11
141.7964838554133
 21
91.91582489477713
 31
0.0
  0
LINE
  5
34E
330
1F
100
AcDbEntity
  8
139
  6
Continuous
 62
     7
370
    15
100
AcDbLine
 10
138.5893766274254
 20
89.41582489477855
 30
0.0
 11
141.0893775933367
 21
91.91582489477747
 31
0.0
  0
LINE
  5
34F
330
1F
100
AcDbEntity
  8
139
  6
Continuous
 62
     7
370
    15
100
AcDbLine
 10
137.8822708657183
 20
89.41582489477878
 30
0.0
 11
140.3822708657173
 21
91.91582489477781
 31
0.0
  0
LINE
  5
350
330
1F
100
AcDbEntity
  8
139
  6
Continuous
 62
     7
370
    15
100
AcDbLine
 10
137.1751638657188
 20
89.41582489477906
 30
0.0
 11
139.6751638657178
 21
91.91582489477804
 31
0.0
  0
LINE
  5
351
330
1F
100
AcDbEntity
  8
139
  6
Continuous
 62
     7
370
    15
100
AcDbLine
 10
140.0035908657172
 20
89.41582489477787
 30
0.0
 11
142.5035908657161
 21
91.91582489477685
 31
0.0
  0
LINE
  5
352
330
1F
100
AcDbEntity
  8
139
  6
Continuous
 62
     7
370
    15
100
AcDbLine
 10
160.6273103907951
 20
90.24055750309554
 30
0.0
 11
164.7949663406231
 21
94.40821506315984
 31
0.0
  0
LINE
  5
353
330
1F
100
AcDbEntity
  8
139
  6
Continuous
 62
     7
370
    15
100
AcDbLine
 10
161.3210989125771
 20
90.22723608293472
 30
0.0
 11
164.7949663406231
 21
93.70110351098066
 31
0.0
  0
LINE
  5
354
330
1F
100
AcDbEntity
  8
139
  6
Continuous
 62
     7
370
    15
100
AcDbLine
 10
150.6101927244156
 20
89.41582489477332
 30
0.0
 11
155.8769389245984
 21
94.68257109495602
 31
0.0
  0
LINE
  5
355
330
1F
100
AcDbEntity
  8
139
  6
Continuous
 62
     7
370
    15
100
AcDbLine
 10
151.3206215594222
 20
89.41914672977987
 30
0.0
 11
156.5707245598618
 21
94.66924973021918
 31
0.0
  0
LINE
  5
356
330
1F
100
AcDbEntity
  8
139
  6
Continuous
 62
     7
370
    15
100
AcDbLine
 10
152.2589322690667
 20
89.6503504394243
 30
0.0
 11
157.2645101951247
 21
94.65592836548234
 31
0.0
  0
LINE
  5
357
330
1F
100
AcDbEntity
  8
139
  6
Continuous
 62
     7
370
    15
100
AcDbLine
 10
153.5051764279409
 20
90.18948859829874
 30
0.0
 11
157.9582948492271
 21
94.64260701958477
 31
0.0
  0
LINE
  5
358
330
1F
100
AcDbEntity
  8
139
  6
Continuous
 62
     7
370
    15
100
AcDbLine
 10
154.3820774830666
 20
90.35928165342432
 30
0.0
 11
158.6520814656509
 21
94.62928563600872
 31
0.0
  0
LINE
  5
359
330
1F
100
AcDbEntity
  8
139
  6
Continuous
 62
     7
370
    15
100
AcDbLine
 10
155.770815792793
 20
90.33380696315072
 30
0.0
 11
160.0396517550165
 21
94.60264292537425
 31
0.0
  0
LINE
  5
35A
330
1F
100
AcDbEntity
  8
139
  6
Continuous
 62
     7
370
    15
100
AcDbLine
 10
157.8521744958695
 20
90.29384283443056
 30
0.0
 11
162.1210120763498
 21
94.56267876558195
 31
0.0
  0
LINE
  5
35B
330
1F
100
AcDbEntity
  8
139
  6
Continuous
 62
     7
370
    15
100
AcDbLine
 10
158.5459573526852
 20
90.28052152304264
 30
0.0
 11
162.8147933149085
 21
94.54935748526623
 31
0.0
  0
LINE
  5
35C
330
1F
100
AcDbEntity
  8
139
  6
Continuous
 62
     7
370
    15
100
AcDbLine
 10
159.2397429879481
 20
90.26720015830591
 30
0.0
 11
163.5085789501713
 21
94.53603612052939
 31
0.0
  0
LINE
  5
35D
330
1F
100
AcDbEntity
  8
139
  6
Continuous
 62
     7
370
    15
100
AcDbLine
 10
159.933531237423
 20
90.25387874337366
 30
0.0
 11
164.2023688179034
 21
94.52271467452499
 31
0.0
  0
LINE
  5
35E
330
1F
100
AcDbEntity
  8
139
  6
Continuous
 62
     7
370
    15
100
AcDbLine
 10
155.07703015753
 20
90.34712832788756
 30
0.0
 11
159.3458661197534
 21
94.6159642901111
 31
0.0
  0
LINE
  5
35F
330
1F
100
AcDbEntity
  8
139
  6
Continuous
 62
     7
370
    15
100
AcDbLine
 10
156.4646014280563
 20
90.32048559841394
 30
0.0
 11
160.7334373902797
 21
94.58932156063747
 31
0.0
  0
LINE
  5
360
330
1F
100
AcDbEntity
  8
139
  6
Continuous
 62
     7
370
    15
100
AcDbLine
 10
157.1583845571807
 20
90.30716428179738
 30
0.0
 11
161.4272189011483
 21
94.57600027509301
 31
0.0
  0
LINE
  5
361
330
1F
100
AcDbEntity
  8
139
  6
Continuous
 62
     7
370
    15
100
AcDbLine
 10
162.7402233648864
 20
90.23214394871786
 30
0.0
 11
164.7949663406231
 21
92.28688613057403
 31
0.0
  0
LINE
  5
362
330
1F
100
AcDbEntity
  8
139
  6
Continuous
 62
     7
370
    15
100
AcDbLine
 10
162.0331137783603
 20
90.23214394871809
 30
0.0
 11
164.7949663406231
 21
92.99399651098093
 31
0.0
  0
LINE
  5
363
330
1F
100
AcDbEntity
  8
139
  6
Continuous
 62
     7
370
    15
100
AcDbLine
 10
164.1544337783596
 20
90.23214394871724
 30
0.0
 11
164.7183634013262
 21
90.79607357168368
 31
0.0
  0
LINE
  5
364
330
1F
100
AcDbEntity
  8
139
  6
Continuous
 62
     7
370
    15
100
AcDbLine
 10
163.4473239091511
 20
90.23214394871746
 30
0.0
 11
164.7949663406231
 21
91.57978690087145
 31
0.0
  0
LINE
  5
365
330
1F
100
AcDbEntity
  8
139
  6
Continuous
 62
     7
370
    15
100
AcDbLine
 10
154.7610526992881
 20
94.27379172834873
 30
0.0
 11
155.1831534279704
 21
94.69589245703094
 31
0.0
  0
LINE
  5
366
330
1F
100
AcDbEntity
  8
139
  6
Continuous
 62
     7
370
    15
100
AcDbLine
 10
161.3564291540987
 20
124.3828522987043
 30
0.0
 11
164.7869093370038
 21
127.8133324816093
 31
0.0
  0
LINE
  5
367
330
1F
100
AcDbEntity
  8
139
  6
Continuous
 62
     7
370
    15
100
AcDbLine
 10
162.7439994434643
 20
124.3562095880699
 30
0.0
 11
164.7949663406231
 21
126.4071764852287
 31
0.0
  0
LINE
  5
368
330
1F
100
AcDbEntity
  8
139
  6
Continuous
 62
     7
370
    15
100
AcDbLine
 10
162.0502147893617
 20
124.3695309339675
 30
0.0
 11
164.7949663406231
 21
127.1142824852287
 31
0.0
  0
LINE
  5
369
330
1F
100
AcDbEntity
  8
139
  6
Continuous
 62
     7
370
    15
100
AcDbLine
 10
160.6626435188355
 20
124.3961736634411
 30
0.0
 11
164.5767132121634
 21
128.3102433567691
 31
0.0
  0
LINE
  5
36A
330
1F
100
AcDbEntity
  8
139
  6
Continuous
 62
     7
370
    15
100
AcDbLine
 10
159.9688599749967
 20
124.4094949880205
 30
0.0
 11
164.1721495135956
 21
128.6127861506235
 31
0.0
  0
LINE
  5
36B
330
1F
100
AcDbEntity
  8
139
  6
Continuous
 62
     7
370
    15
100
AcDbLine
 10
164.1315707139906
 20
124.3295668585963
 30
0.0
 11
164.794966340623
 21
124.9929624852287
 31
0.0
  0
LINE
  5
36C
330
1F
100
AcDbEntity
  8
139
  6
Continuous
 62
     7
370
    15
100
AcDbLine
 10
163.4377840975666
 20
124.3428882421724
 30
0.0
 11
164.7949663406231
 21
125.700070485229
 31
0.0
  0
LINE
  5
36D
330
1F
100
AcDbEntity
  8
139
  6
Continuous
 62
     7
370
    15
100
AcDbLine
 10
159.2750699489582
 20
124.4228164370645
 30
0.0
 11
163.5439059111818
 21
128.6916523992882
 31
0.0
  0
LINE
  5
36E
330
1F
100
AcDbEntity
  8
139
  6
Continuous
 62
     7
370
    15
100
AcDbLine
 10
155.8061462095557
 20
124.4894231755555
 30
0.0
 11
160.0749805535233
 21
128.7582591688513
 31
0.0
  0
LINE
  5
36F
330
1F
100
AcDbEntity
  8
139
  6
Continuous
 62
     7
370
    15
100
AcDbLine
 10
156.499929370227
 20
124.4761018583333
 30
0.0
 11
160.7687653324507
 21
128.744937820557
 31
0.0
  0
LINE
  5
370
330
1F
100
AcDbEntity
  8
139
  6
Continuous
 62
     7
370
    15
100
AcDbLine
 10
157.1937150054903
 20
124.4627804935965
 30
0.0
 11
161.462550967714
 21
128.7316164558202
 31
0.0
  0
LINE
  5
371
330
1F
100
AcDbEntity
  8
139
  6
Continuous
 62
     7
370
    15
100
AcDbLine
 10
158.5812852948558
 20
124.4361377829621
 30
0.0
 11
162.8501212570796
 21
128.7049737451858
 31
0.0
  0
LINE
  5
372
330
1F
100
AcDbEntity
  8
139
  6
Continuous
 62
     7
370
    15
100
AcDbLine
 10
157.8875006407533
 20
124.4494591288596
 30
0.0
 11
162.1563366029771
 21
128.7182950910833
 31
0.0
  0
LINE
  5
373
330
1F
100
AcDbEntity
  8
139
  6
Continuous
 62
     7
370
    15
100
AcDbLine
 10
155.1123558003499
 20
124.5027446319567
 30
0.0
 11
159.3811917625735
 21
128.7715805941804
 31
0.0
  0
LINE
  5
374
330
1F
100
AcDbEntity
  8
139
  6
Continuous
 62
     7
370
    15
100
AcDbLine
 10
151.7905701149066
 20
126.8378132900141
 30
0.0
 11
153.9807159201743
 21
129.0279590952816
 31
0.0
  0
LINE
  5
375
330
1F
100
AcDbEntity
  8
139
  6
Continuous
 62
     7
370
    15
100
AcDbLine
 10
152.238857355738
 20
126.5789945308453
 30
0.0
 11
154.5419800937587
 21
128.8821172688659
 31
0.0
  0
LINE
  5
376
330
1F
100
AcDbEntity
  8
139
  6
Continuous
 62
     7
370
    15
100
AcDbLine
 10
151.3422822401008
 20
127.0966324152081
 30
0.0
 11
153.5140099166793
 21
129.2683600917866
 31
0.0
  0
LINE
  5
377
330
1F
100
AcDbEntity
  8
139
  6
Continuous
 62
     7
370
    15
100
AcDbLine
 10
150.8939943652949
 20
127.3554515404022
 30
0.0
 11
153.1236108342799
 21
129.5850680093873
 31
0.0
  0
LINE
  5
378
330
1F
100
AcDbEntity
  8
139
  6
Continuous
 62
     7
370
    15
100
AcDbLine
 10
150.4457078583449
 20
127.6142698758644
 30
0.0
 11
152.8046456778182
 21
129.9732086067488
 31
0.0
  0
LINE
  5
379
330
1F
100
AcDbEntity
  8
139
  6
Continuous
 62
     7
370
    15
100
AcDbLine
 10
152.6871445965693
 20
126.3201757716766
 30
0.0
 11
155.2184776139653
 21
128.8515087890726
 31
0.0
  0
LINE
  5
37A
330
1F
100
AcDbEntity
  8
139
  6
Continuous
 62
     7
370
    15
100
AcDbLine
 10
153.1354354381696
 20
126.0613549336029
 30
0.0
 11
155.9122667880825
 21
128.8381873563863
 31
0.0
  0
LINE
  5
37B
330
1F
100
AcDbEntity
  8
139
  6
Continuous
 62
     7
370
    15
100
AcDbLine
 10
153.5837218319008
 20
125.8025366635076
 30
0.0
 11
156.6060511838425
 21
128.8248660154492
 31
0.0
  0
LINE
  5
37C
330
1F
100
AcDbEntity
  8
139
  6
Continuous
 62
     7
370
    15
100
AcDbLine
 10
154.0320097067067
 20
125.5437175383135
 30
0.0
 11
157.2998368191056
 21
128.8115446507124
 31
0.0
  0
LINE
  5
37D
330
1F
100
AcDbEntity
  8
139
  6
Continuous
 62
     7
370
    15
100
AcDbLine
 10
154.69027523492
 20
124.7877700665268
 30
0.0
 11
158.6874071084712
 21
128.784901940078
 31
0.0
  0
LINE
  5
37E
330
1F
100
AcDbEntity
  8
139
  6
Continuous
 62
     7
370
    15
100
AcDbLine
 10
154.4222142169585
 20
125.2268150485654
 30
0.0
 11
157.9936224543688
 21
128.7982232859755
 31
0.0
  0
LINE
  5
37F
330
1F
100
AcDbEntity
  8
139
  6
Continuous
 62
     7
370
    15
100
AcDbLine
 10
147.2957687542169
 20
129.4140826163247
 30
0.0
 11
151.6951268233414
 21
133.8134406854492
 31
0.0
  0
LINE
  5
380
330
1F
100
AcDbEntity
  8
139
  6
Continuous
 62
     7
370
    15
100
AcDbLine
 10
147.7559781721382
 20
129.1671860342461
 30
0.0
 11
151.8365480233413
 21
133.2477558854492
 31
0.0
  0
LINE
  5
381
330
1F
100
AcDbEntity
  8
139
  6
Continuous
 62
     7
370
    15
100
AcDbLine
 10
146.5886617542199
 20
129.414082616328
 30
0.0
 11
151.5537054233414
 21
134.3791262854494
 31
0.0
  0
LINE
  5
382
330
1F
100
AcDbEntity
  8
139
  6
Continuous
 62
     7
370
    15
100
AcDbLine
 10
145.8815547542231
 20
129.4140826163311
 30
0.0
 11
150.8815547542164
 21
134.4140826163245
 31
0.0
  0
LINE
  5
383
330
1F
100
AcDbEntity
  8
139
  6
Continuous
 62
     7
370
    15
100
AcDbLine
 10
145.1744499187731
 20
129.4140826163342
 30
0.0
 11
150.1744479869412
 21
134.4140826163269
 31
0.0
  0
LINE
  5
384
330
1F
100
AcDbEntity
  8
139
  6
Continuous
 62
     7
370
    15
100
AcDbLine
 10
144.4673384107289
 20
129.4140826163373
 30
0.0
 11
149.4673384107207
 21
134.4140826163294
 31
0.0
  0
LINE
  5
385
330
1F
100
AcDbEntity
  8
139
  6
Continuous
 62
     7
370
    15
100
AcDbLine
 10
140.9318079966973
 20
129.4140826163531
 30
0.0
 11
144.3344149267258
 21
132.8166908610298
 31
0.0
  0
LINE
  5
386
330
1F
100
AcDbEntity
  8
139
  6
Continuous
 62
     7
370
    15
100
AcDbLine
 10
141.6389124107415
 20
129.4140826163499
 30
0.0
 11
145.3003393152875
 21
133.075509520896
 31
0.0
  0
LINE
  5
387
330
1F
100
AcDbEntity
  8
139
  6
Continuous
 62
     7
370
    15
100
AcDbLine
 10
142.3460194107382
 20
129.4140826163468
 30
0.0
 11
146.2662654404834
 21
133.334328646092
 31
0.0
  0
LINE
  5
388
330
1F
100
AcDbEntity
  8
139
  6
Continuous
 62
     7
370
    15
100
AcDbLine
 10
143.7602324107319
 20
129.4140826163405
 30
0.0
 11
148.19811632485
 21
133.8519665304584
 31
0.0
  0
LINE
  5
389
330
1F
100
AcDbEntity
  8
139
  6
Continuous
 62
     7
370
    15
100
AcDbLine
 10
143.053126410735
 20
129.4140826163436
 30
0.0
 11
147.2321915656793
 21
133.5931477712878
 31
0.0
  0
LINE
  5
38A
330
1F
100
AcDbEntity
  8
139
  6
Continuous
 62
     7
370
    15
100
AcDbLine
 10
148.2042654129694
 20
128.9083672750775
 30
0.0
 11
151.9779692233412
 21
132.6820710854493
 31
0.0
  0
LINE
  5
38B
330
1F
100
AcDbEntity
  8
139
  6
Continuous
 62
     7
370
    15
100
AcDbLine
 10
149.9974183979127
 20
127.8730899165203
 30
0.0
 11
152.561674570219
 21
130.4373460888265
 31
0.0
  0
LINE
  5
38C
330
1F
100
AcDbEntity
  8
139
  6
Continuous
 62
     7
370
    15
100
AcDbLine
 10
149.5491305231069
 20
128.1319090417144
 30
0.0
 11
152.4022338920411
 21
130.9850124106487
 31
0.0
  0
LINE
  5
38D
330
1F
100
AcDbEntity
  8
139
  6
Continuous
 62
     7
370
    15
100
AcDbLine
 10
149.100842648301
 20
128.3907281669085
 30
0.0
 11
152.2608124920412
 21
131.5506980106487
 31
0.0
  0
LINE
  5
38E
330
1F
100
AcDbEntity
  8
139
  6
Continuous
 62
     7
370
    15
100
AcDbLine
 10
148.6525560658717
 20
128.6495465459487
 30
0.0
 11
152.1193912318546
 21
132.1163830513954
 31
0.0
  0
LINE
  5
38F
330
1F
100
AcDbEntity
  8
139
  6
Continuous
 62
     7
370
    15
100
AcDbLine
 10
135.9820557237654
 20
129.414082616375
 30
0.0
 11
138.482055723753
 21
131.9140826163625
 31
0.0
  0
LINE
  5
390
330
1F
100
AcDbEntity
  8
139
  6
Continuous
 62
     7
370
    15
100
AcDbLine
 10
136.6891617237625
 20
129.4140826163718
 30
0.0
 11
139.1891617237511
 21
131.9140826163603
 31
0.0
  0
LINE
  5
391
330
1F
100
AcDbEntity
  8
139
  6
Continuous
 62
     7
370
    15
100
AcDbLine
 10
135.274948723769
 20
129.4140826163781
 30
0.0
 11
137.7749487237556
 21
131.9140826163647
 31
0.0
  0
LINE
  5
392
330
1F
100
AcDbEntity
  8
139
  6
Continuous
 62
     7
370
    15
100
AcDbLine
 10
134.567841723772
 20
129.4140826163813
 30
0.0
 11
137.067841723753
 21
131.9140826163623
 31
0.0
  0
LINE
  5
393
330
1F
100
AcDbEntity
  8
139
  6
Continuous
 62
     7
370
    15
100
AcDbLine
 10
133.8607380120715
 20
129.4140826163843
 30
0.0
 11
136.3607370461419
 21
131.9140826163671
 31
0.0
  0
LINE
  5
394
330
1F
100
AcDbEntity
  8
139
  6
Continuous
 62
     7
370
    15
100
AcDbLine
 10
129.618096089996
 20
129.4140826164033
 30
0.0
 11
133.2967076794955
 21
133.0926956271898
 31
0.0
  0
LINE
  5
395
330
1F
100
AcDbEntity
  8
139
  6
Continuous
 62
     7
370
    15
100
AcDbLine
 10
137.3962677237595
 20
129.4140826163687
 30
0.0
 11
139.8962677237488
 21
131.9140826163581
 31
0.0
  0
LINE
  5
396
330
1F
100
AcDbEntity
  8
139
  6
Continuous
 62
     7
370
    15
100
AcDbLine
 10
140.2246980672472
 20
129.4140826163562
 30
0.0
 11
143.3684865956656
 21
132.5578711447743
 31
0.0
  0
LINE
  5
397
330
1F
100
AcDbEntity
  8
139
  6
Continuous
 62
     7
370
    15
100
AcDbLine
 10
139.5175910672507
 20
129.4140826163593
 30
0.0
 11
142.4025604704699
 21
132.2990520195784
 31
0.0
  0
LINE
  5
398
330
1F
100
AcDbEntity
  8
139
  6
Continuous
 62
     7
370
    15
100
AcDbLine
 10
138.8104840672535
 20
129.4140826163624
 30
0.0
 11
141.4366343452734
 21
132.0402328943824
 31
0.0
  0
LINE
  5
399
330
1F
100
AcDbEntity
  8
139
  6
Continuous
 62
     7
370
    15
100
AcDbLine
 10
138.1033799341471
 20
129.4140826163656
 30
0.0
 11
140.6033789682252
 21
131.914082616356
 31
0.0
  0
LINE
  5
39A
330
1F
100
AcDbEntity
  8
139
  6
Continuous
 62
     7
370
    15
100
AcDbLine
 10
130.1683426932655
 20
134.9140826163764
 30
0.0
 11
132.6004375471661
 21
137.3461774702768
 31
0.0
  0
LINE
  5
39B
330
1F
100
AcDbEntity
  8
139
  6
Continuous
 62
     7
370
    15
100
AcDbLine
 10
127.2949663407407
 20
131.3336002638512
 30
0.0
 11
127.8754486932726
 21
131.9140826163832
 31
0.0
  0
LINE
  5
39C
330
1F
100
AcDbEntity
  8
139
  6
Continuous
 62
     7
370
    15
100
AcDbLine
 10
129.4612356932681
 20
134.9140826163785
 30
0.0
 11
131.9612356932607
 21
137.4140826163712
 31
0.0
  0
LINE
  5
39D
330
1F
100
AcDbEntity
  8
139
  6
Continuous
 62
     7
370
    15
100
AcDbLine
 10
128.75412869327
 20
134.9140826163806
 30
0.0
 11
131.2541286932625
 21
137.4140826163732
 31
0.0
  0
LINE
  5
39E
330
1F
100
AcDbEntity
  8
139
  6
Continuous
 62
     7
370
    15
100
AcDbLine
 10
128.0470239803109
 20
134.9140826163827
 30
0.0
 11
130.5470230143914
 21
137.4140826163753
 31
0.0
  0
LINE
  5
39F
330
1F
100
AcDbEntity
  8
139
  6
Continuous
 62
     7
370
    15
100
AcDbLine
 10
127.3399123497737
 20
134.9140826163848
 30
0.0
 11
129.8399123497663
 21
137.4140826163774
 31
0.0
  0
LINE
  5
3A0
330
1F
100
AcDbEntity
  8
139
  6
Continuous
 62
     7
370
    15
100
AcDbLine
 10
127.2949663407446
 20
136.9904556073556
 30
0.0
 11
127.7185933497726
 21
137.4140826163836
 31
0.0
  0
LINE
  5
3A1
330
1F
100
AcDbEntity
  8
139
  6
Continuous
 62
     7
370
    15
100
AcDbLine
 10
127.2949663407437
 20
135.5762426073549
 30
0.0
 11
129.1328063497682
 21
137.4140826163794
 31
0.0
  0
LINE
  5
3A2
330
1F
100
AcDbEntity
  8
139
  6
Continuous
 62
     7
370
    15
100
AcDbLine
 10
127.2949663407441
 20
136.2833486073553
 30
0.0
 11
128.4257003497704
 21
137.4140826163815
 31
0.0
  0
LINE
  5
3A3
330
1F
100
AcDbEntity
  8
139
  6
Continuous
 62
     7
370
    15
100
AcDbLine
 10
127.2949663407403
 20
130.6264942638509
 30
0.0
 11
128.5825546932704
 21
131.9140826163811
 31
0.0
  0
LINE
  5
3A4
330
1F
100
AcDbEntity
  8
139
  6
Continuous
 62
     7
370
    15
100
AcDbLine
 10
128.9109850367958
 20
129.4140826164064
 30
0.0
 11
133.2171221044026
 21
133.7202196840129
 31
0.0
  0
LINE
  5
3A5
330
1F
100
AcDbEntity
  8
139
  6
Continuous
 62
     7
370
    15
100
AcDbLine
 10
128.2038780367994
 20
129.4140826164096
 30
0.0
 11
133.1445983095313
 21
134.3548028891413
 31
0.0
  0
LINE
  5
3A6
330
1F
100
AcDbEntity
  8
139
  6
Continuous
 62
     7
370
    15
100
AcDbLine
 10
127.4967710368026
 20
129.4140826164127
 30
0.0
 11
133.0720745146598
 21
134.98938609427
 31
0.0
  0
LINE
  5
3A7
330
1F
100
AcDbEntity
  8
139
  6
Continuous
 62
     7
370
    15
100
AcDbLine
 10
127.2949663407399
 20
129.9193811249397
 30
0.0
 11
129.2896670614965
 21
131.9140826163791
 31
0.0
  0
LINE
  5
3A8
330
1F
100
AcDbEntity
  8
139
  6
Continuous
 62
     7
370
    15
100
AcDbLine
 10
130.2949663407417
 20
132.9193822840368
 30
0.0
 11
132.9995508830048
 21
135.6239678712566
 31
0.0
  0
LINE
  5
3A9
330
1F
100
AcDbEntity
  8
139
  6
Continuous
 62
     7
370
    15
100
AcDbLine
 10
130.2949663407423
 20
133.626494263853
 30
0.0
 11
132.9270266845581
 21
136.2585546076688
 31
0.0
  0
LINE
  5
3AA
330
1F
100
AcDbEntity
  8
139
  6
Continuous
 62
     7
370
    15
100
AcDbLine
 10
130.2949663407428
 20
134.3336002638534
 30
0.0
 11
132.854502992251
 21
136.8931369153614
 31
0.0
  0
TEXT
  5
3AB
330
1F
100
AcDbEntity
  8
135
  6
Continuous
 62
     7
370
    15
100
AcDbText
 10
186.0671121617683
 20
101.2134650804171
 30
0.0
 40
2.5
  1
Rc2(59.6)
 50
89.0000000000015
 41
0.9555555555555555
100
AcDbText
  0
TEXT
  5
3AC
330
1F
100
AcDbEntity
  8
135
  6
Continuous
 62
     7
370
    15
100
AcDbText
 10
174.4125640774845
 20
121.3704563389199
 30
0.0
 40
2.5
  1
1°10'
 50
-67.99999999999866
 41
1.6
100
AcDbText
  0
TEXT
  5
3AD
330
1F
100
AcDbEntity
  8
135
  6
Continuous
 62
     7
370
    15
100
AcDbText
 10
191.8607053099782
 20
96.11194894496441
 30
0.0
 40
2.5
  1
39.5
 50
89.99999999999991
 41
0.9
100
AcDbText
  0
LINE
  5
3AE
330
1F
100
AcDbEntity
  8
137
  6
Continuous
 62
     4
370
    15
100
AcDbLine
 10
192.3628533099782
 20
109.0565958586507
 30
0.0
 11
191.9746243099782
 21
107.6077078586507
 31
0.0
  0
LINE
  5
3AF
330
1F
100
AcDbEntity
  8
137
  6
Continuous
 62
     4
370
    15
100
AcDbLine
 10
192.3628533099782
 20
109.0565958586507
 30
0.0
 11
192.7510813099782
 21
107.6077078586507
 31
0.0
  0
LINE
  5
3B0
330
1F
100
AcDbEntity
  8
137
  6
Continuous
 62
     4
370
    15
100
AcDbLine
 10
192.3628533099782
 20
89.41582489477298
 30
0.0
 11
192.7510813099782
 21
90.86471389477299
 31
0.0
  0
LINE
  5
3B1
330
1F
100
AcDbEntity
  8
137
  6
Continuous
 62
     4
370
    15
100
AcDbLine
 10
192.3628533099782
 20
89.41582489477298
 30
0.0
 11
191.9746243099782
 21
90.86471389477299
 31
0.0
  0
LINE
  5
3B2
330
1F
100
AcDbEntity
  8
137
  6
Continuous
 62
     4
370
    15
100
AcDbLine
 10
186.8794396700021
 20
123.7532739159469
 30
0.0
 11
186.4659832169011
 21
122.3113821189059
 31
0.0
  0
LINE
  5
3B3
330
1F
100
AcDbEntity
  8
137
  6
Continuous
 62
     4
370
    15
100
AcDbLine
 10
186.8794396700021
 20
123.7532739159469
 30
0.0
 11
187.2423219587391
 21
122.2978310757608
 31
0.0
  0
LINE
  5
3B4
330
1F
100
AcDbEntity
  8
137
  6
Continuous
 62
     4
370
    15
100
AcDbLine
 10
186.3074174531344
 20
93.9619721271003
 30
0.0
 11
185.944534182002
 21
95.41741598458651
 31
0.0
  0
LINE
  5
3B5
330
1F
100
AcDbEntity
  8
137
  6
Continuous
 62
     4
370
    15
100
AcDbLine
 10
186.3074174531344
 20
93.9619721271003
 30
0.0
 11
186.7208729238401
 21
95.40386494144144
 31
0.0
  0
LINE
  5
3B6
330
1F
100
AcDbEntity
  8
137
  6
Continuous
 62
     4
370
    15
100
AcDbLine
 10
177.0927525916524
 20
109.0714732738719
 30
0.0
 11
177.4064847105365
 21
107.6046503213284
 31
0.0
  0
LINE
  5
3B7
330
1F
100
AcDbEntity
  8
137
  6
Continuous
 62
     4
370
    15
100
AcDbLine
 10
177.0927525916524
 20
109.0714732738719
 30
0.0
 11
176.6310407808269
 21
107.6443011060066
 31
0.0
  0
LINE
  5
3B8
330
1F
100
AcDbEntity
  8
137
  6
Continuous
 62
     4
370
    15
100
AcDbLine
 10
177.0955658200768
 20
109.4140826163211
 30
0.0
 11
177.4150475617149
 21
110.8796650026321
 31
0.0
  0
LINE
  5
3B9
330
1F
100
AcDbEntity
  8
137
  6
Continuous
 62
     4
370
    15
100
AcDbLine
 10
177.0955658200768
 20
109.4140826163211
 30
0.0
 11
176.6394541055258
 21
110.8430553923428
 31
0.0
  0
ARC
  5
3BA
330
1F
100
AcDbEntity
  8
137
  6
Continuous
 62
     4
370
    15
100
AcDbCircle
 10
156.2318004058308
 20
109.4140826163211
 30
0.0
 40
20.8637654142459
100
AcDbArc
 50
351.6088244902708
 51
45.64656007684869
  0
LINE
  5
3BB
330
1F
100
AcDbEntity
  8
137
  6
Continuous
 62
     4
370
    15
100
AcDbLine
 10
89.95743350857055
 20
134.9140826165863
 30
0.0
 11
90.34566150857052
 21
136.3629716165863
 31
0.0
  0
LINE
  5
3BC
330
1F
100
AcDbEntity
  8
137
  6
Continuous
 62
     4
370
    15
100
AcDbLine
 10
89.95743350857055
 20
134.9140826165863
 30
0.0
 11
89.56920450857052
 21
136.3629716165863
 31
0.0
  0
LINE
  5
3BD
330
1F
100
AcDbEntity
  8
137
  6
Continuous
 62
     4
370
    15
100
AcDbLine
 10
89.95743350862148
 20
131.9140826165874
 30
0.0
 11
89.56920450862145
 21
130.4651946165874
 31
0.0
  0
LINE
  5
3BE
330
1F
100
AcDbEntity
  8
137
  6
Continuous
 62
     4
370
    15
100
AcDbLine
 10
89.95743350862148
 20
131.9140826165874
 30
0.0
 11
90.34566150862145
 21
130.4651946165874
 31
0.0
  0
TEXT
  5
3BF
330
1F
100
AcDbEntity
  8
135
  6
Continuous
 62
     7
370
    15
100
AcDbText
 10
95.66607186030961
 20
147.9124907362749
 30
0.0
 40
2.5
  1
φ90
 41
1.6
100
AcDbText
  0
TEXT
  5
3C0
330
1F
100
AcDbEntity
  8
135
  6
Continuous
 62
     7
370
    15
100
AcDbText
 10
94.67782387657252
 20
153.9173328326418
 30
0.0
 40
2.5
  1
φ110
 41
1.68
100
AcDbText
  0
LINE
  5
3C1
330
1F
100
AcDbEntity
  8
138
  6
Continuous
 62
     7
370
    15
100
AcDbLine
 10
146.8115600775706
 20
157.724256853331
 30
0.0
 11
163.9115019710758
 21
157.724256853331
 31
0.0
  0
TEXT
  5
3C2
330
1F
100
AcDbEntity
  8
135
  6
Continuous
 62
     7
370
    15
100
AcDbText
 10
149.7362726479722
 20
158.4818760245006
 30
0.0
 40
2.5
  1
ゴムリング
 41
0.96
100
AcDbText
  0
LINE
  5
3C3
330
1F
100
AcDbEntity
  8
138
  6
Continuous
 62
     7
370
    15
100
AcDbLine
 10
129.7120176968467
 20
135.2708214211459
 30
0.0
 11
128.414104952796
 21
134.3591681333231
 31
0.0
  0
LINE
  5
3C4
330
1F
100
AcDbEntity
  8
138
  6
Continuous
 62
     7
370
    15
100
AcDbLine
 10
128.414104952796
 20
134.3591681333231
 30
0.0
 11
146.8115600775706
 21
157.724256853331
 31
0.0
  0
LINE
  5
3C5
330
1F
100
AcDbEntity
  8
138
  6
Continuous
 62
     7
370
    15
100
AcDbLine
 10
128.414104952796
 20
134.3591681333231
 30
0.0
 11
128.982210886672
 21
135.8001112414627
 31
0.0
  0
TEXT
  5
3C6
330
1F
100
AcDbEntity
  8
135
  6
Continuous
 62
     7
370
    15
100
AcDbText
 10
94.67782387657252
 20
159.9200230502275
 30
0.0
 40
2.5
  1
φ121
 41
1.68
100
AcDbText
  0
TEXT
  5
3C7
330
1F
100
AcDbEntity
  8
135
  6
Continuous
 62
     7
370
    15
100
AcDbText
 10
94.67782387657252
 20
165.9238839636412
 30
0.0
 40
2.5
  1
φ132
 41
1.68
100
AcDbText
  0
TEXT
  5
3C8
330
1F
100
AcDbEntity
  8
135
  6
Continuous
 62
     7
370
    15
100
AcDbText
 10
94.67782387657257
 20
171.9216520005954
 30
0.0
 40
2.5
  1
φ150
 41
1.68
100
AcDbText
  0
TEXT
  5
3C9
330
1F
100
AcDbEntity
  8
135
  6
Continuous
 62
     7
370
    15
100
AcDbText
 10
94.67782387657252
 20
177.9261569906038
 30
0.0
 40
2.5
  1
φ210
 41
1.68
100
AcDbText
  0
LINE
  5
3CA
330
1F
100
AcDbEntity
  8
144
  6
Continuous
 62
   171
370
    25
100
AcDbLine
 10
198.0
 20
28.0
 30
0.0
 11
162.0
 21
28.0
 31
0.0
  0
LINE
  5
3CB
330
1F
100
AcDbEntity
  8
144
  6
Continuous
 62
   171
370
    25
100
AcDbLine
 10
162.0
 20
24.0
 30
0.0
 11
198.0
 21
24.0
 31
0.0
  0
LINE
  5
3CC
330
1F
100
AcDbEntity
  8
144
  6
Continuous
 62
   171
370
    25
100
AcDbLine
 10
198.0
 20
18.0
 30
0.0
 11
162.0
 21
18.0
 31
0.0
  0
LINE
  5
3CD
330
1F
100
AcDbEntity
  8
145
  6
Continuous
 62
     5
370
    25
100
AcDbLine
 10
198.0
 20
36.0
 30
0.0
 11
98.0
 21
36.0
 31
0.0
  0
TEXT
  5
3CE
330
1F
100
AcDbEntity
  8
144
  6
Continuous
 62
   171
370
    15
100
AcDbText
 10
163.8
 20
15.39999999999998
 30
0.0
 40
2.399999999999977
  1
作　成
 41
1.08
100
AcDbText
  0
LINE
  5
3CF
330
1F
100
AcDbEntity
  8
144
  6
Continuous
 62
   171
370
    25
100
AcDbLine
 10
162.0
 20
36.0
 30
0.0
 11
162.0
 21
12.0
 31
0.0
  0
LINE
  5
3D0
330
1F
100
AcDbEntity
  8
145
  6
Continuous
 62
     5
370
    25
100
AcDbLine
 10
98.0
 20
36.0
 30
0.0
 11
98.0
 21
12.0
 31
0.0
  0
LINE
  5
3D1
330
1F
100
AcDbEntity
  8
144
  6
Continuous
 62
   171
370
    25
100
AcDbLine
 10
103.0
 20
36.0
 30
0.0
 11
103.0
 21
12.0
 31
0.0
  0
TEXT
  5
3D2
330
1F
100
AcDbEntity
  8
144
  6
Continuous
 62
   171
370
    15
100
AcDbText
 10
163.8
 20
12.5
 30
0.0
 40
2.399999999999977
  1
年月日
 41
1.08
100
AcDbText
  0
LINE
  5
3D3
330
1F
100
AcDbEntity
  8
144
  6
Continuous
 62
   171
370
    25
100
AcDbLine
 10
162.0
 20
20.0
 30
0.0
 11
98.0
 21
20.0
 31
0.0
  0
LINE
  5
3D4
330
1F
100
AcDbEntity
  8
144
  6
Continuous
 62
   171
370
    25
100
AcDbLine
 10
150.0
 20
28.0
 30
0.0
 11
98.0
 21
28.0
 31
0.0
  0
TEXT
  5
3D5
330
1F
100
AcDbEntity
  8
144
  6
Continuous
 62
   171
370
    15
100
AcDbText
 10
105.0999999999999
 20
22.19999999999999
 30
0.0
 40
3.600000000000023
  1
ＨＦＴ－５Ｚ
 41
0.7199999999999999
100
AcDbText
  0
TEXT
  5
3D6
330
1F
100
AcDbEntity
  8
144
  6
Continuous
 62
   171
370
    15
100
AcDbText
 10
151.5
 20
32.14999999999998
 30
0.0
 40
2.699999999999989
  1
縮　尺
 41
1.0
100
AcDbText
  0
LINE
  5
3D7
330
1F
100
AcDbEntity
  8
144
  6
Continuous
 62
   171
370
    25
100
AcDbLine
 10
150.0
 20
36.0
 30
0.0
 11
150.0
 21
20.0
 31
0.0
  0
LINE
  5
3D8
330
1F
100
AcDbEntity
  8
144
  6
Continuous
 62
   171
370
    25
100
AcDbLine
 10
150.0
 20
31.0
 30
0.0
 11
162.0
 21
31.0
 31
0.0
  0
TEXT
  5
3D9
330
1F
100
AcDbEntity
  8
144
  6
Continuous
 62
   171
370
    15
100
AcDbText
 10
151.8
 20
23.5
 30
0.0
 40
3.600000000000023
  1
１：２
 41
0.7000000000000001
100
AcDbText
  0
TEXT
  5
3DA
330
1F
100
AcDbEntity
  8
144
  6
Continuous
 62
   171
370
    15
100
AcDbText
 10
164.25
 20
24.64999999999998
 30
0.0
 40
2.699999999999989
  1
承 認
100
AcDbText
  0
TEXT
  5
3DB
330
1F
100
AcDbEntity
  8
144
  6
Continuous
 62
   171
370
    15
100
AcDbText
 10
163.0
 20
19.19999999999999
 30
0.0
 40
3.600000000000023
  1
島 英
100
AcDbText
  0
TEXT
  5
3DC
330
1F
100
AcDbEntity
  8
144
  6
Continuous
 62
   171
370
    15
100
AcDbText
 10
175.0
 20
13.64999999999998
 30
0.0
 40
2.699999999999989
  1
２００５年０１月３１日
 41
0.6599999999999999
100
AcDbText
  0
LINE
  5
3DD
330
1F
100
AcDbEntity
  8
144
  6
Continuous
 62
   171
370
    25
100
AcDbLine
 10
174.0
 20
28.0
 30
0.0
 11
174.0
 21
12.0
 31
0.0
  0
TEXT
  5
3DE
330
1F
100
AcDbEntity
  8
144
  6
Continuous
 62
   171
370
    15
100
AcDbText
 10
176.25
 20
24.64999999999998
 30
0.0
 40
2.699999999999989
  1
検 図
100
AcDbText
  0
TEXT
  5
3DF
330
1F
100
AcDbEntity
  8
144
  6
Continuous
 62
   171
370
    15
100
AcDbText
 10
176.0
 20
19.19999999999999
 30
0.0
 40
3.600000000000023
  1
隠塚
100
AcDbText
  0
TEXT
  5
3E0
330
1F
100
AcDbEntity
  8
144
  6
Continuous
 62
   171
370
    15
100
AcDbText
 10
188.25
 20
24.64999999999998
 30
0.0
 40
2.699999999999989
  1
設 計
100
AcDbText
  0
LINE
  5
3E1
330
1F
100
AcDbEntity
  8
144
  6
Continuous
 62
   171
370
    25
100
AcDbLine
 10
186.0
 20
28.0
 30
0.0
 11
186.0
 21
18.0
 31
0.0
  0
TEXT
  5
3E2
330
1F
100
AcDbEntity
  8
144
  6
Continuous
 62
   171
370
    15
100
AcDbText
 10
188.0
 20
19.19999999999999
 30
0.0
 40
3.600000000000023
  1
飯田
 41
0.9959999999999999
100
AcDbText
  0
TEXT
  5
3E3
330
1F
100
AcDbEntity
  8
144
  6
Continuous
 62
   171
370
    15
100
AcDbText
 10
105.0999999999999
 20
30.19999999999999
 30
0.0
 40
3.600000000000023
  1
横引き防水マス
 41
0.7200000000000001
100
AcDbText
  0
ARC
  5
3E4
330
1F
100
AcDbEntity
  8
140
  6
Continuous
 62
     5
370
    15
100
AcDbCircle
 10
130.2030533402283
 20
94.41582489479532
 30
0.0
 40
2.5
100
AcDbArc
 50
179.9999999999998
 51
269.9999999999998
  0
ARC
  5
3E5
330
1F
100
AcDbEntity
  8
140
  6
Continuous
 62
     5
370
    15
100
AcDbCircle
 10
125.2030533402283
 20
94.41582489479532
 30
0.0
 40
2.5
100
AcDbArc
 50
0.0
 51
89.99999999999991
  0
LINE
  5
3E6
330
1F
100
AcDbEntity
  8
140
  6
Continuous
 62
     5
370
    15
100
AcDbLine
 10
99.79496634022826
 20
96.91582489479532
 30
0.0
 11
125.2030533402283
 21
96.91582489479532
 31
0.0
  0
LINE
  5
3E7
330
1F
100
AcDbEntity
  8
140
  6
Continuous
 62
     5
370
    15
100
AcDbLine
 10
99.79496634022826
 20
96.91582489479532
 30
0.0
 11
72.57269234022829
 21
96.91582489479532
 31
0.0
  0
ARC
  5
3E8
330
1F
100
AcDbEntity
  8
140
  6
Continuous
 62
     5
370
    15
100
AcDbCircle
 10
72.57269234022829
 20
99.41582489479532
 30
0.0
 40
2.5
100
AcDbArc
 50
183.0669080000015
 51
269.9999999999998
  0
LINE
  5
3E9
330
1F
100
AcDbEntity
  8
137
  6
Continuous
 62
     4
370
    15
100
AcDbLine
 10
134.5065224090432
 20
103.2107477554299
 30
0.0
 11
126.998848043626
 21
96.20972814786944
 31
0.0
  0
TEXT
  5
3EA
330
1F
100
AcDbEntity
  8
135
  6
Continuous
 62
     7
370
    15
100
AcDbText
 10
131.2152074744063
 20
100.715727831698
 30
0.0
 40
2.5
  1
R5
 50
42.00000000000102
100
AcDbText
  0
LINE
  5
3EB
330
1F
100
AcDbEntity
  8
137
  6
Continuous
 62
     4
370
    15
100
AcDbLine
 10
126.998848043626
 20
96.20972814786944
 30
0.0
 11
125.3862040992544
 21
94.70591334117432
 31
0.0
  0
LINE
  5
3EC
330
1F
100
AcDbEntity
  8
137
  6
Continuous
 62
     4
370
    15
100
AcDbLine
 10
126.9708202931948
 20
96.18359184776176
 30
0.0
 11
125.5996779308862
 21
95.4545432356312
 31
0.0
  0
LINE
  5
3ED
330
1F
100
AcDbEntity
  8
137
  6
Continuous
 62
     4
370
    15
100
AcDbLine
 10
126.9708202931948
 20
96.18359184776176
 30
0.0
 11
126.1479008445887
 21
94.86664613685815
 31
0.0
  0
TEXT
  5
3EE
330
1F
100
AcDbEntity
  8
133
  6
Continuous
 62
     4
370
    15
100
AcDbText
 10
99.75820129157489
 20
278.5927013999436
 30
0.0
 40
2.5
  1
形状変更の為に改定
 41
0.96
100
AcDbText
  0
LINE
  5
3EF
330
1F
100
AcDbEntity
  8
134
  6
Continuous
 62
     7
370
    15
100
AcDbLine
 10
198.0
 20
278.0
 30
0.0
 11
91.0
 21
278.0
 31
0.0
  0
LINE
  5
3F0
330
1F
100
AcDbEntity
  8
138
  6
Continuous
 62
     7
370
    15
100
AcDbLine
 10
96.15000000000009
 20
278.317084
 30
0.0
 11
94.5
 21
281.1749676000001
 31
0.0
  0
TEXT
  5
3F1
330
1F
100
AcDbEntity
  8
133
  6
Continuous
 62
     4
370
    15
100
AcDbText
 10
93.85597418397765
 20
278.4734429203794
 30
0.0
 40
2.0
  1
1
100
AcDbText
  0
LINE
  5
3F2
330
1F
100
AcDbEntity
  8
138
  6
Continuous
 62
     7
370
    15
100
AcDbLine
 10
92.85000000000002
 20
278.317084
 30
0.0
 11
94.5
 21
281.1749676000001
 31
0.0
  0
LINE
  5
3F3
330
1F
100
AcDbEntity
  8
138
  6
Continuous
 62
     7
370
    15
100
AcDbLine
 10
92.85000000000002
 20
278.317084
 30
0.0
 11
96.15000000000009
 21
278.317084
 31
0.0
  0
LINE
  5
3F4
330
1F
100
AcDbEntity
  8
138
  6
Continuous
 62
     7
370
    15
100
AcDbLine
 10
91.8832158878514
 20
104.3631749494569
 30
0.0
 11
95.18321588785147
 21
104.3631749494569
 31
0.0
  0
LINE
  5
3F5
330
1F
100
AcDbEntity
  8
138
  6
Continuous
 62
     7
370
    15
100
AcDbLine
 10
95.18321588785147
 20
104.3631749494569
 30
0.0
 11
93.5332158878515
 21
107.2210585494569
 31
0.0
  0
TEXT
  5
3F6
330
1F
100
AcDbEntity
  8
133
  6
Continuous
 62
     4
370
    15
100
AcDbText
 10
92.88919007182915
 20
104.5195338698363
 30
0.0
 40
2.0
  1
1
100
AcDbText
  0
LINE
  5
3F7
330
1F
100
AcDbEntity
  8
138
  6
Continuous
 62
     7
370
    15
100
AcDbLine
 10
91.8832158878514
 20
104.3631749494569
 30
0.0
 11
93.5332158878515
 21
107.2210585494569
 31
0.0
  0
LINE
  5
3F8
330
1F
100
AcDbEntity
  8
138
  6
Continuous
 62
     7
370
    15
100
AcDbLine
 10
138.1520060504886
 20
93.38865131142637
 30
0.0
 11
135.2941224504885
 21
95.03865131142646
 31
0.0
  0
TEXT
  5
3F9
330
1F
100
AcDbEntity
  8
133
  6
Continuous
 62
     4
370
    15
100
AcDbText
 10
137.9956471301093
 20
94.39462549540411
 30
0.0
 40
2.0
  1
1
 50
89.99999999999991
100
AcDbText
  0
LINE
  5
3FA
330
1F
100
AcDbEntity
  8
138
  6
Continuous
 62
     7
370
    15
100
AcDbLine
 10
138.1520060504886
 20
96.68865131142644
 30
0.0
 11
135.2941224504885
 21
95.03865131142646
 31
0.0
  0
LINE
  5
3FB
330
1F
100
AcDbEntity
  8
138
  6
Continuous
 62
     7
370
    15
100
AcDbLine
 10
138.1520060504886
 20
93.38865131142637
 30
0.0
 11
138.1520060504886
 21
96.68865131142644
 31
0.0
  0
TEXT
  5
3FC
330
1F
100
AcDbEntity
  8
133
  6
Continuous
 62
     4
370
    15
100
AcDbText
 10
148.0078476093246
 20
278.5927013999436
 30
0.0
 40
2.5
  1
２０１１年０４月２５日
 41
0.6599999999999998
100
AcDbText
  0
TEXT
  5
3FD
330
1F
100
AcDbEntity
  8
144
  6
Continuous
 62
   171
370
    15
100
AcDbText
 10
164.0
 20
29.75
 30
0.0
 40
4.5
  1
株式会社シマブン
 41
0.8039999999999999
100
AcDbText
  0
LINE
  5
3FE
330
1F
100
AcDbEntity
  8
134
  6
Continuous
 62
     7
370
    15
100
AcDbLine
 10
198.0000000000001
 20
274.5000000000001
 30
0.0
 11
91.00000000000011
 21
274.5000000000001
 31
0.0
  0
TEXT
  5
3FF
330
1F
100
AcDbEntity
  8
133
  6
Continuous
 62
     4
370
    15
100
AcDbText
 10
99.758201291575
 20
275.0927013999437
 30
0.0
 40
2.5
  1
品番変更
 41
0.96
100
AcDbText
  0
TEXT
  5
400
330
1F
100
AcDbEntity
  8
133
  6
Continuous
 62
     4
370
    15
100
AcDbText
 10
148.0078476093247
 20
275.0927013999437
 30
0.0
 40
2.5
  1
２０１３年０３月１３日
 41
0.6599999999999998
100
AcDbText
  0
TEXT
  5
401
330
1F
100
AcDbEntity
  8
144
  6
Continuous
 62
   171
370
    15
100
AcDbText
 10
98.61604525217217
 20
32.65467822253623
 30
0.0
 40
3.0
  1
品
 41
1.2
100
AcDbText
  0
TEXT
  5
402
330
1F
100
AcDbEntity
  8
144
  6
Continuous
 62
   171
370
    15
100
AcDbText
 10
98.61604525217217
 20
28.81731009514056
 30
0.0
 40
3.0
  1
名
 41
1.2
100
AcDbText
  0
TEXT
  5
403
330
1F
100
AcDbEntity
  8
144
  6
Continuous
 62
   171
370
    15
100
AcDbText
 10
98.61604525217217
 20
24.65467822253623
 30
0.0
 40
3.0
  1
品
 41
1.2
100
AcDbText
  0
TEXT
  5
404
330
1F
100
AcDbEntity
  8
144
  6
Continuous
 62
   171
370
    15
100
AcDbText
 10
98.61604525217217
 20
20.81731009514056
 30
0.0
 40
3.0
  1
番
 41
1.2
100
AcDbText
  0
TEXT
  5
405
330
1F
100
AcDbEntity
  8
144
  6
Continuous
 62
   171
370
    15
100
AcDbText
 10
98.61604525217217
 20
12.81731009514056
 30
0.0
 40
3.0
  1
考
 41
1.2
100
AcDbText
  0
TEXT
  5
406
330
1F
100
AcDbEntity
  8
144
  6
Continuous
 62
   171
370
    15
100
AcDbText
 10
98.61604525217217
 20
16.65467822253623
 30
0.0
 40
3.0
  1
備
 41
1.2
100
AcDbText
  0
VIEWPORT
  5
2A
330
1B
100
AcDbEntity
 67
     1
  8
0
100
AcDbViewport
 10
105.0
 20
148.5
 30
0.0
 40
210.0
 41
297.0
 68
     1
 69
     1
 12
105.0
 22
148.5
 13
0.0
 23
0.0
 14
0.5
 24
0.5
 15
0.5
 25
0.5
 16
0.0
 26
0.0
 36
1.0
 17
0.0
 27
0.0
 37
0.0
 42
50.0
 43
0.0
 44
0.0
 45
9.0
 50
0.0
 51
0.0
 72
   100
 90
    32800
  1

281
     0
 71
     1
 74
     0
110
0.0
120
0.0
130
0.0
111
1.0
121
0.0
131
0.0
112
0.0
122
1.0
132
0.0
 79
     0
146
0.0
170
     0
  0
ENDSEC
  0
SECTION
  2
OBJECTS
  0
DICTIONARY
  5
C
330
0
100
AcDbDictionary
281
     1
  3
ACAD_GROUP
350
D
  3
ACAD_LAYOUT
350
1A
  3
ACAD_MLINESTYLE
350
17
  3
ACAD_PLOTSETTINGS
350
19
  3
ACAD_PLOTSTYLENAME
350
E
  0
DICTIONARY
  5
D
102
{ACAD_REACTORS
330
C
102
}
330
C
100
AcDbDictionary
281
     1
  0
DICTIONARY
  5
1A
102
{ACAD_REACTORS
330
C
102
}
330
C
100
AcDbDictionary
281
     1
  3
Layout1
350
1E
  3
Layout2
350
26
  3
Model
350
22
  0
DICTIONARY
  5
17
102
{ACAD_REACTORS
330
C
102
}
330
C
100
AcDbDictionary
281
     1
  3
Standard
350
18
  0
DICTIONARY
  5
19
102
{ACAD_REACTORS
330
C
102
}
330
C
100
AcDbDictionary
281
     1
  0
ACDBDICTIONARYWDFLT
  5
E
102
{ACAD_REACTORS
330
C
102
}
330
C
100
AcDbDictionary
281
     1
  3
Normal
350
F
100
AcDbDictionaryWithDefault
340
F
  0
LAYOUT
  5
1E
102
{ACAD_REACTORS
330
1A
102
}
330
1A
100
AcDbPlotSettings
  1

  2

  4

  6

 40
0.0
 41
0.0
 42
0.0
 43
0.0
 44
0.0
 45
0.0
 46
0.0
 47
0.0
 48
0.0
 49
0.0
140
0.0
141
0.0
142
1.0
143
1.0
 70
   688
 72
     0
 73
     0
 74
     5
  7

 75
    16
 76
     0
 77
     2
 78
   300
147
1.0
148
0.0
149
0.0
100
AcDbLayout
  1
Layout1
 70
     1
 71
     1
 10
0.0
 20
0.0
 11
210.0
 21
297.0
 12
0.0
 22
0.0
 32
0.0
 14
0.0
 24
0.0
 34
0.0
 15
210.0
 25
297.0
 35
0.0
146
0.0
 13
0.0
 23
0.0
 33
0.0
 16
1.0
 26
0.0
 36
0.0
 17
0.0
 27
1.0
 37
0.0
 76
     0
330
1B
331
2A
  0
LAYOUT
  5
26
102
{ACAD_REACTORS
330
1A
102
}
330
1A
100
AcDbPlotSettings
  1

  2

  4

  6

 40
0.0
 41
0.0
 42
0.0
 43
0.0
 44
0.0
 45
0.0
 46
0.0
 47
0.0
 48
0.0
 49
0.0
140
0.0
141
0.0
142
1.0
143
1.0
 70
   688
 72
     0
 73
     0
 74
     5
  7

 75
    16
 76
     0
 77
     2
 78
   300
147
1.0
148
0.0
149
0.0
100
AcDbLayout
  1
Layout2
 70
     1
 71
     2
 10
0.0
 20
0.0
 11
0.0
 21
0.0
 12
0.0
 22
0.0
 32
0.0
 14
0.0
 24
0.0
 34
0.0
 15
0.0
 25
0.0
 35
0.0
146
0.0
 13
0.0
 23
0.0
 33
0.0
 16
1.0
 26
0.0
 36
0.0
 17
0.0
 27
1.0
 37
0.0
 76
     0
330
23
  0
LAYOUT
  5
22
102
{ACAD_REACTORS
330
1A
102
}
330
1A
100
AcDbPlotSettings
  1

  2

  4

  6

 40
0.0
 41
0.0
 42
0.0
 43
0.0
 44
0.0
 45
0.0
 46
0.0
 47
0.0
 48
0.0
 49
0.0
140
0.0
141
0.0
142
1.0
143
1.0
 70
  1712
 72
     0
 73
     0
 74
     0
  7

 75
     0
 76
     0
 77
     2
 78
   300
147
1.0
148
0.0
149
0.0
100
AcDbLayout
  1
Model
 70
     1
 71
     0
 10
0.0
 20
0.0
 11
210.0
 21
297.0
 12
0.0
 22
0.0
 32
0.0
 14
0.0
 24
0.0
 34
0.0
 15
210.0
 25
297.0
 35
0.0
146
0.0
 13
0.0
 23
0.0
 33
0.0
 16
1.0
 26
0.0
 36
0.0
 17
0.0
 27
1.0
 37
0.0
 76
     0
330
1F
  0
MLINESTYLE
  5
18
102
{ACAD_REACTORS
330
17
102
}
330
17
100
AcDbMlineStyle
  2
Standard
 70
     0
  3

 62
   256
 51
90.0
 52
90.0
 71
     2
 49
0.5
 62
   256
  6
BYLAYER
 49
-0.5
 62
   256
  6
BYLAYER
  0
ACDBPLACEHOLDER
  5
F
102
{ACAD_REACTORS
330
E
102
}
330
E
  0
ENDSEC
  0
EOF
