  0
SECTION
  2
HEADER
  9
$ACADVER
  1
AC1009
  9
$INSBASE
 10
0
 20
0
 30
0
  9
$EXTMIN
 10
0
 20
0
  9
$EXTMAX
 10
2376
 20
1680
  9
$LIMMIN
 10
0
 20
0
  9
$LIMMAX
 10
2376
 20
1680
  9
$LTSCALE
 40
8
  0
ENDSEC
  0
SECTION
  2
TABLES
  0
TABLE
  2
LTYPE
 70
     9
  0
LTYPE
  2
CONTINUOUS
 70
    64
  3
実線
 72
    65
 73
     0
 40
0.0
  0
LTYPE
  2
DASHED1
 70
    64
  3
--  --  --  --  --  --  --  --  
 72
    65
 73
     2
 40
2.5
 49
1.25
 49
-1.25
  0
LTYPE
  2
DASHED2
 70
    64
  3
----    ----    ----    ----    
 72
    65
 73
     2
 40
5.0
 49
2.5
 49
-2.5
  0
LTYPE
  2
DASHED3
 70
    64
  3
------  ------  ------  ------  
 72
    65
 73
     2
 40
5.0
 49
3.75
 49
-1.25
  0
LTYPE
  2
CENTER1
 70
    64
  3
----- - ----- - ----- - ----- - 
 72
    65
 73
     4
 40
10.0
 49
6.25
 49
-1.25
 49
1.25
 49
-1.25
  0
LTYPE
  2
CENTER2
 70
    64
  3
----------  --  ----------  --  
 72
    65
 73
     4
 40
20.0
 49
12.5
 49
-2.5
 49
2.5
 49
-2.5
  0
LTYPE
  2
PHANTOM1
 70
    64
  3
--- - - --- - - --- - - --- - - 
 72
    65
 73
     6
 40
10.0
 49
3.25
 49
-1.25
 49
1.25
 49
-1.25
 49
1.25
 49
-1.25
  0
LTYPE
  2
PHANTOM2
 70
    64
  3
--------  -  -  --------  -  -  
 72
    65
 73
     6
 40
20.0
 49
10.0
 49
-2.5
 49
1.25
 49
-2.5
 49
1.25
 49
-2.5
  0
LTYPE
  2
DOT
 70
    64
  3
-   -   -   -   -   -   -   -   
 72
    65
 73
     2
 40
2.5
 49
0.625
 49
-1.875
  0
LTYPE
  2
DUMMY
 70
    64
  3
ダミー
 72
    65
 73
     0
 40
0.0
  0
LTYPE
  2
RAND1
 70
    64
  3
ランダム線1
 72
    65
 73
     4
 40
10.0
 49
1.0
 49
-2.0
 49
3.0
 49
-4.0
  0
LTYPE
  2
RAND2
 70
    64
  3
ランダム線2
 72
    65
 73
     4
 40
14.0
 49
2.0
 49
-3.0
 49
4.0
 49
-5.0
  0
LTYPE
  2
RAND3
 70
    64
  3
ランダム線3
 72
    65
 73
     4
 40
18.0
 49
3.0
 49
-4.0
 49
5.0
 49
-6.0
  0
LTYPE
  2
RAND4
 70
    64
  3
ランダム線4
 72
    65
 73
     4
 40
22.0
 49
4.0
 49
-5.0
 49
6.0
 49
-7.0
  0
LTYPE
  2
RAND5
 70
    64
  3
ランダム線5
 72
    65
 73
     4
 40
26.0
 49
5.0
 49
-6.0
 49
7.0
 49
-8.0
  0
LTYPE
  2
LONG1
 70
    64
  3
----------  --  ----------  --  
 72
    65
 73
     4
 40
40.0
 49
32.5
 49
-2.5
 49
2.5
 49
-2.5
  0
LTYPE
  2
LONG2
 70
    64
  3
--------  -  -  --------  -  -  
 72
    65
 73
     6
 40
40.0
 49
30.0
 49
-2.5
 49
1.25
 49
-2.5
 49
1.25
 49
-2.5
  0
LTYPE
  2
LONG3
 70
    64
  3
+++++++++++++++..+++++++++++++++
 72
    65
 73
     2
 40
40.0
 49
37.5
 49
-2.5
  0
LTYPE
  2
LONG4
 70
    64
  3
+++++++++++++++..+++++++++++++++
 72
    65
 73
     2
 40
80.0
 49
75.0
 49
-5.0
  0
LTYPE
  2
LONG5
 70
    64
  3
----------  --  ----------  --  
 72
    65
 73
     4
 40
60.0
 49
37.5
 49
-7.5
 49
7.5
 49
-7.5
  0
LTYPE
  2
dashed
 70
   64
  3
-------   -------------   ------
 72
   65
 73
    2
 40
7.5
 49
6
 49
-1.5
  0
LTYPE
  2
dashed_spaced
 70
   64
  3
----        --------        ----
 72
   65
 73
    2
 40
12
 49
6
 49
-6
  0
LTYPE
  2
long_dashed_dotted
 70
   64
  3
------------- --- --------------
 72
   65
 73
    4
 40
15.25
 49
12
 49
-1.5
 49
0.25
 49
-1.5
  0
LTYPE
  2
long_dashed_double-dotted
 70
   64
  3
----------- --- --- ------------
 72
   65
 73
    6
 40
17
 49
12
 49
-1.5
 49
0.25
 49
-1.5
 49
0.25
 49
-1.5
  0
LTYPE
  2
long_dashed_triplicate-dotted
 70
   64
  3
--------- --- --- --- ----------
 72
   65
 73
    8
 40
18.75
 49
12
 49
-1.5
 49
0.25
 49
-1.5
 49
0.25
 49
-1.5
 49
0.25
 49
-1.5
  0
LTYPE
  2
dotted
 70
   64
  3
   -       -       -       -    
 72
   65
 73
    2
 40
1.75
 49
0.25
 49
-1.5
  0
LTYPE
  2
chain
 70
   64
  3
-------------- -- --------------
 72
   65
 73
    4
 40
18.5
 49
12
 49
-1.5
 49
3.5
 49
-1.5
  0
LTYPE
  2
chain_double_dash
 70
   64
  3
------------ -- -- -------------
 72
   65
 73
    6
 40
23.5
 49
12
 49
-1.5
 49
3.5
 49
-1.5
 49
3.5
 49
-1.5
  0
LTYPE
  2
dashed_dotted
 70
   64
  3
-----------     -     ----------
 72
   65
 73
    4
 40
9.25
 49
6
 49
-1.5
 49
0.25
 49
-1.5
  0
LTYPE
  2
double-dashed_dotted
 70
   64
  3
------   -----------   -   -----
 72
   65
 73
    6
 40
16.75
 49
6
 49
-1.5
 49
6
 49
-1.5
 49
0.25
 49
-1.5
  0
LTYPE
  2
dashed_double-dotted
 70
   64
  3
---------    -    -    ---------
 72
   65
 73
    6
 40
11
 49
6
 49
-1.5
 49
0.25
 49
-1.5
 49
0.25
 49
-1.5
  0
LTYPE
  2
double-dashed_double-dotted
 70
   64
  3
-----   ---------   -   -   ----
 72
   65
 73
    8
 40
18.5
 49
6
 49
-1.5
 49
6
 49
-1.5
 49
0.25
 49
-1.5
 49
0.25
 49
-1.5
  0
LTYPE
  2
dashed_triplicate-dotted
 70
   64
  3
-------    -    -    -    ------
 72
   65
 73
    8
 40
12.75
 49
6
 49
-1.5
 49
0.25
 49
-1.5
 49
0.25
 49
-1.5
 49
0.25
 49
-1.5
  0
LTYPE
  2
double-dashed_triplicate-dotted
 70
   64
  3
-----  ---------  -  -  -  -----
 72
   65
 73
   10
 40
20.25
 49
6
 49
-1.5
 49
6
 49
-1.5
 49
0.25
 49
-1.5
 49
0.25
 49
-1.5
 49
0.25
 49
-1.5
  0
LTYPE
  2
undefined
 70
   64
  3
--------------------------------
 72
   65
 73
    0
 40
0
  0
ENDTAB
  0
TABLE
  2
STYLE
  5
3
100
AcDbSymbolTable
 70
     1
  0
STYLE
  5
10
100
AcDbSymbolTableRecord
100
AcDbTextStyleTableRecord
  2
STANDARD
 70
     0
 40
0.0
 41
1.0
 50
0.0
 71
     0
 42
0.2
  3
txt
  4
bigfont.shx
  0
STYLE
  5
26
100
AcDbSymbolTableRecord
100
AcDbTextStyleTableRecord
  2
TATEGAKI
 70
    68
 40
0.0
 41
1.0
 50
0.0
 71
     0
 42
1.0
  3
txt
  4
bigfont.shx
  0
ENDTAB
  0
TABLE
  2
LAYER
 70
   12
  0
LAYER
  2
_0-0_計極細
 70
   64
 62
    7
  6
CONTINUOUS
  0
LAYER
  2
_0-1_計細線
 70
   64
 62
    7
  6
CONTINUOUS
  0
LAYER
  2
_0-5_寸法線
 70
   64
 62
    7
  6
CONTINUOUS
  0
LAYER
  2
_0-7_枠細線
 70
   64
 62
    7
  6
CONTINUOUS
  0
LAYER
  2
_0-8_枠中線
 70
   64
 62
    7
  6
CONTINUOUS
  0
LAYER
  2
_0-a_極細1
 70
   64
 62
    7
  6
CONTINUOUS
  0
LAYER
  2
_0-b_細線1
 70
   64
 62
    7
  6
CONTINUOUS
  0
LAYER
  2
_0-d_寸法1
 70
   64
 62
    7
  6
CONTINUOUS
  0
LAYER
  2
_1-2_極細3
 70
   64
 62
    7
  6
CONTINUOUS
  0
LAYER
  2
_1-3_細線3
 70
   64
 62
    7
  6
CONTINUOUS
  0
LAYER
  2
_1-5_寸法3
 70
   64
 62
    7
  6
CONTINUOUS
  0
LAYER
  2
ADD_LINE
 70
   64
 62
    7
  6
CONTINUOUS
  0
ENDTAB
  0
ENDSEC
  0
SECTION
  2
BLOCKS
  0
ENDSEC
  0
SECTION
  2
ENTITIES
  0
LINE
  8
_0-8_枠中線
  6
CONTINUOUS
 62
    5
 10
96
 20
96
 11
96
 21
1536
  0
LINE
  8
_0-8_枠中線
  6
CONTINUOUS
 62
    5
 10
96
 20
1536
 11
2280
 21
1536
  0
LINE
  8
_0-8_枠中線
  6
CONTINUOUS
 62
    5
 10
2280
 20
1536
 11
2280
 21
96
  0
LINE
  8
_0-8_枠中線
  6
CONTINUOUS
 62
    5
 10
2280
 20
96
 11
96
 21
96
  0
LINE
  8
_0-7_枠細線
  6
CONTINUOUS
 62
    5
 10
1896
 20
288
 11
1896
 21
160
  0
TEXT
  8
_0-7_枠細線
 62
    5
 10
1500
 20
156
 40
28
 41
1
 50
0
  1
備考
  7
TATEGAKI
  0
TEXT
  8
_0-7_枠細線
 62
    5
 10
1500
 20
220
 40
28
 41
1
 50
0
  1
品番
  7
TATEGAKI
  0
TEXT
  8
_0-7_枠細線
 62
    5
 10
1500
 20
284
 40
28
 41
1
 50
0
  1
品名
  7
TATEGAKI
  0
LINE
  8
_0-7_枠細線
  6
CONTINUOUS
 62
    5
 10
1896
 20
224
 11
1480
 21
224
  0
LINE
  8
_0-7_枠細線
  6
CONTINUOUS
 62
    5
 10
1520
 20
288
 11
1520
 21
96
  0
LINE
  8
_0-8_枠中線
  6
CONTINUOUS
 62
    5
 10
2280
 20
288
 11
1480
 21
288
  0
LINE
  8
_0-8_枠中線
  6
CONTINUOUS
 62
    5
 10
1480
 20
288
 11
1480
 21
96
  0
LINE
  8
_0-7_枠細線
  6
CONTINUOUS
 62
    5
 10
1992
 20
288
 11
1992
 21
96
  0
TEXT
  8
_0-7_枠細線
 62
    5
 10
1908
 20
256
 40
24
 41
1
 50
0
  1
縮　尺
  0
LINE
  8
_0-7_枠細線
  6
CONTINUOUS
 62
    5
 10
1896
 20
248
 11
1992
 21
248
  0
LINE
  8
_0-7_枠細線
  6
CONTINUOUS
 62
    5
 10
1992
 20
160
 11
1480
 21
160
  0
LINE
  8
_0-7_枠細線
  6
CONTINUOUS
 62
    5
 10
2280
 20
144
 11
1992
 21
144
  0
LINE
  8
_0-7_枠細線
  6
CONTINUOUS
 62
    5
 10
1992
 20
192
 11
2280
 21
192
  0
LINE
  8
_0-7_枠細線
  6
CONTINUOUS
 62
    5
 10
2280
 20
224
 11
1992
 21
224
  0
TEXT
  8
_0-7_枠細線
 62
    5
 10
2008
 20
236
 40
40
 41
0.8
 50
0
  1
株式会社シマブン
  0
TEXT
  8
_0-7_枠細線
 62
    5
 10
2004
 20
96
 40
24
 41
1
 50
0
  1
年月日
  0
TEXT
  8
_0-7_枠細線
 62
    5
 10
2004
 20
120
 40
24
 41
1
 50
0
  1
作　成
  0
TEXT
  8
_0-7_枠細線
 62
    5
 10
2010
 20
196
 40
24
 41
1
 50
0
  1
承 認
  0
LINE
  8
_0-7_枠細線
  6
CONTINUOUS
 62
    5
 10
2088
 20
224
 11
2088
 21
96
  0
TEXT
  8
_0-7_枠細線
 62
    5
 10
2106
 20
196
 40
24
 41
1
 50
0
  1
検 図
  0
LINE
  8
_0-7_枠細線
  6
CONTINUOUS
 62
    5
 10
2184
 20
224
 11
2184
 21
144
  0
TEXT
  8
_0-7_枠細線
 62
    5
 10
2202
 20
196
 40
24
 41
1
 50
0
  1
設 計
  0
LINE
  8
_0-7_枠細線
  6
CONTINUOUS
 62
    5
 10
2280
 20
1508
 11
1424
 21
1508
  0
TEXT
  8
_0-7_枠細線
 62
    5
 10
1432
 20
1511.9999999999995
 40
20
 41
1
 50
0
  1
記号
  0
TEXT
  8
_0-7_枠細線
 62
    5
 10
1595
 20
1512
 40
20
 41
1
 50
0
  1
訂　 正　 記　 事
  0
TEXT
  8
_0-7_枠細線
 62
    5
 10
1890
 20
1512
 40
20
 41
1
 50
0
  1
訂 正 年 月 日
  0
TEXT
  8
_0-7_枠細線
 62
    5
 10
2090
 20
1512
 40
20
 41
1
 50
0
  1
備　　　　　考
  0
TEXT
  8
_0-7_枠細線
 62
    5
 10
1536.8000000000002
 20
112
 40
32.000000000000007
 41
0.5999999999999997
 50
0
  1
品番については表参照のこと
  0
TEXT
  8
_0-7_枠細線
 62
    5
 10
1536.8000000000002
 20
239.24855752183839
 40
32
 41
0.6
 50
0
  1
排水ユニット ＳＵＳグレーチング 深型
  0
TEXT
  8
_0-7_枠細線
 62
    5
 10
1910.4000000000001
 20
188
 40
32
 41
0.6999999999999999
 50
0
  1
１：８
  0
LINE
  8
_0-7_枠細線
  6
CONTINUOUS
 62
    5
 10
2040
 20
1508
 11
2040
 21
1535.9999999999991
  0
LINE
  8
_0-7_枠細線
  6
CONTINUOUS
 62
    5
 10
1880
 20
1508
 11
1880
 21
1535.9999999999991
  0
LINE
  8
_0-7_枠細線
  6
CONTINUOUS
 62
    5
 10
1480
 20
1508
 11
1480
 21
1535.9999999999991
  0
LINE
  8
_0-7_枠細線
  6
CONTINUOUS
 62
    5
 10
1424
 20
1508
 11
1424
 21
1535.9999999999991
  0
TEXT
  8
_0-7_枠細線
 62
    5
 10
1720.999756471007
 20
1378.8208963018415
 40
28
 41
1
 50
0
  1
品番寸法表
  0
LINE
  8
_0-7_枠細線
  6
CONTINUOUS
 62
    5
 10
1709.8635219031125
 20
1370.8208963018415
 11
1709.8635219031125
 21
1170.8208963018415
  0
LINE
  8
_0-7_枠細線
  6
CONTINUOUS
 62
    5
 10
1709.8635219031125
 20
1052.8568755439601
 11
1709.8635219031125
 21
852.85687554396054
  0
TEXT
  8
_0-7_枠細線
 62
    5
 10
1717.794650581835
 20
1060.8568755439601
 40
28
 41
1
 50
0
  1
アンカー位置寸法表
  0
LINE
  8
_0-7_枠細線
  6
CONTINUOUS
 62
    5
 10
2165.8635219031089
 20
1370.8208963018415
 11
2165.8635219031089
 21
1170.8208963018415
  0
LINE
  8
_0-7_枠細線
  6
CONTINUOUS
 62
    5
 10
2245.863521903108
 20
1370.8208963018415
 11
2245.863521903108
 21
1170.8208963018415
  0
TEXT
  8
_0-7_枠細線
 62
    5
 10
2196.2635219031085
 20
1338.820896301841
 40
24
 41
0.7999999999999998
 50
0
  1
Ｃ
  0
TEXT
  8
_0-7_枠細線
 62
    5
 10
2193.8635219031089
 20
1298.8208963018419
 40
24
 41
1
 50
0
  1
914
  0
TEXT
  8
_0-7_枠細線
 62
    5
 10
2181.8635219031089
 20
1258.8208963018415
 40
24
 41
1
 50
0
  1
1114
  0
TEXT
  8
_0-7_枠細線
 62
    5
 10
2181.8635219031089
 20
1218.8208963018415
 40
24
 41
1
 50
0
  1
1414
  0
TEXT
  8
_0-7_枠細線
 62
    5
 10
2181.8635219031089
 20
1178.8208963018415
 40
24
 41
1
 50
0
  1
1714
  0
TEXT
  8
_0-7_枠細線
 62
    5
 10
2108.2635219031104
 20
1338.820896301841
 40
24
 41
0.7999999999999998
 50
0
  1
Ｂ
  0
TEXT
  8
_0-7_枠細線
 62
    5
 10
1940.2635219031122
 20
1338.820896301841
 40
24
 41
0.7999999999999998
 50
0
  1
Ｌ
  0
LINE
  8
_0-7_枠細線
  6
CONTINUOUS
 62
    5
 10
1709.8635219031125
 20
1370.8208963018415
 11
2245.8635219031098
 21
1370.8208963018415
  0
LINE
  8
_0-7_枠細線
  6
CONTINUOUS
 62
    5
 10
1709.8635219031125
 20
1330.820896301841
 11
2245.8635219031098
 21
1330.820896301841
  0
LINE
  8
_0-7_枠細線
  6
CONTINUOUS
 62
    5
 10
1709.8635219031125
 20
1290.8208963018415
 11
2245.8635219031098
 21
1290.8208963018415
  0
LINE
  8
_0-7_枠細線
  6
CONTINUOUS
 62
    5
 10
1709.8635219031125
 20
1250.8208963018415
 11
2245.8635219031098
 21
1250.8208963018415
  0
LINE
  8
_0-7_枠細線
  6
CONTINUOUS
 62
    5
 10
1709.8635219031125
 20
1210.8208963018415
 11
2245.8635219031098
 21
1210.8208963018415
  0
LINE
  8
_0-7_枠細線
  6
CONTINUOUS
 62
    5
 10
1709.8635219031125
 20
1170.8208963018415
 11
2245.8635219031098
 21
1170.8208963018415
  0
LINE
  8
_0-7_枠細線
  6
CONTINUOUS
 62
    5
 10
1909.8635219031125
 20
1370.8208963018415
 11
1909.8635219031125
 21
1170.8208963018415
  0
LINE
  8
_0-7_枠細線
  6
CONTINUOUS
 62
    5
 10
1989.8635219031116
 20
1370.8208963018415
 11
1989.8635219031116
 21
1170.8208963018415
  0
LINE
  8
_0-7_枠細線
  6
CONTINUOUS
 62
    5
 10
2069.8635219031107
 20
1370.8208963018415
 11
2069.8635219031107
 21
1170.8208963018415
  0
TEXT
  8
_0-7_枠細線
 62
    5
 10
2020.2635219031113
 20
1338.820896301841
 40
24
 41
0.7999999999999998
 50
0
  1
Ａ
  0
TEXT
  8
_0-7_枠細線
 62
    5
 10
1925.8635219031125
 20
1258.8208963018415
 40
24
 41
1
 50
0
  1
1194
  0
TEXT
  8
_0-7_枠細線
 62
    5
 10
1937.8635219031125
 20
1298.8208963018419
 40
24
 41
1
 50
0
  1
994
  0
TEXT
  8
_0-7_枠細線
 62
    5
 10
1925.8635219031125
 20
1218.8208963018415
 40
24
 41
1
 50
0
  1
1494
  0
TEXT
  8
_0-7_枠細線
 62
    5
 10
2017.8635219031107
 20
1298.8208963018419
 40
24
 41
1
 50
0
  1
970
  0
TEXT
  8
_0-7_枠細線
 62
    5
 10
2005.8635219031107
 20
1258.8208963018415
 40
24
 41
1
 50
0
  1
1170
  0
TEXT
  8
_0-7_枠細線
 62
    5
 10
2005.8635219031107
 20
1218.8208963018415
 40
24
 41
1
 50
0
  1
1470
  0
TEXT
  8
_0-7_枠細線
 62
    5
 10
1925.8635219031125
 20
1178.8208963018415
 40
24
 41
1
 50
0
  1
1794
  0
TEXT
  8
_0-7_枠細線
 62
    5
 10
2005.8635219031107
 20
1178.8208963018415
 40
24
 41
1
 50
0
  1
1770
  0
TEXT
  8
_0-7_枠細線
 62
    5
 10
2081.8635219031098
 20
1298.8208963018415
 40
24
 41
1
 50
0
  1
483×2
  0
TEXT
  8
_0-7_枠細線
 62
    5
 10
2081.8635219031098
 20
1258.8208963018415
 40
24
 41
1
 50
0
  1
583×2
  0
TEXT
  8
_0-7_枠細線
 62
    5
 10
2081.8635219031098
 20
1218.8208963018415
 40
24
 41
1
 50
0
  1
488×3
  0
TEXT
  8
_0-7_枠細線
 62
    5
 10
2081.8635219031098
 20
1178.8208963018415
 40
24
 41
1
 50
0
  1
588×3
  0
LINE
  8
_0-7_枠細線
  6
CONTINUOUS
 62
    5
 10
1909.8635219031125
 20
1052.8568755439601
 11
1909.8635219031125
 21
852.85687554396054
  0
LINE
  8
_0-7_枠細線
  6
CONTINUOUS
 62
    5
 10
1989.8635219031116
 20
1052.8568755439601
 11
1989.8635219031116
 21
852.85687554396054
  0
LINE
  8
_0-7_枠細線
  6
CONTINUOUS
 62
    5
 10
2069.8635219031107
 20
1052.8568755439601
 11
2069.8635219031107
 21
852.85687554396054
  0
TEXT
  8
_0-7_枠細線
 62
    5
 10
1937.8635219031125
 20
980.856875543961
 40
24
 41
1
 50
0
  1
924
  0
TEXT
  8
_0-7_枠細線
 62
    5
 10
1925.8635219031125
 20
940.85687554396054
 40
24
 41
1
 50
0
  1
1124
  0
TEXT
  8
_0-7_枠細線
 62
    5
 10
1925.8635219031125
 20
900.85687554396054
 40
24
 41
1
 50
0
  1
1424
  0
TEXT
  8
_0-7_枠細線
 62
    5
 10
1925.8635219031125
 20
860.85687554396054
 40
24
 41
1
 50
0
  1
1724
  0
LINE
  8
_0-7_枠細線
  6
CONTINUOUS
 62
    5
 10
2149.8635219031089
 20
1052.8568755439601
 11
2149.8635219031089
 21
852.85687554396054
  0
LINE
  8
_0-7_枠細線
  6
CONTINUOUS
 62
    5
 10
1709.8635219031125
 20
1052.8568755439601
 11
2149.8635219031089
 21
1052.8568755439601
  0
LINE
  8
_0-7_枠細線
  6
CONTINUOUS
 62
    5
 10
1709.8635219031125
 20
1012.8568755439601
 11
2149.8635219031089
 21
1012.8568755439601
  0
LINE
  8
_0-7_枠細線
  6
CONTINUOUS
 62
    5
 10
1709.8635219031125
 20
972.85687554396054
 11
2149.8635219031089
 21
972.85687554396054
  0
LINE
  8
_0-7_枠細線
  6
CONTINUOUS
 62
    5
 10
1709.8635219031125
 20
932.85687554396054
 11
2149.8635219031089
 21
932.85687554396054
  0
LINE
  8
_0-7_枠細線
  6
CONTINUOUS
 62
    5
 10
1709.8635219031125
 20
892.85687554396054
 11
2149.8635219031089
 21
892.85687554396054
  0
LINE
  8
_0-7_枠細線
  6
CONTINUOUS
 62
    5
 10
1709.8635219031125
 20
852.85687554396054
 11
2149.8635219031089
 21
852.85687554396054
  0
TEXT
  8
_0-7_枠細線
 62
    5
 10
2000.8667130838435
 20
900.85687554396054
 40
24
 41
1
 50
0
  1
474.7
  0
TEXT
  8
_0-7_枠細線
 62
    5
 10
2000.6060032878763
 20
980.85687554396054
 40
24
 41
1
 50
0
  1
462
  0
TEXT
  8
_0-7_枠細線
 62
    5
 10
2000.6060032878763
 20
940.85687554396054
 40
24
 41
1
 50
0
  1
562
  0
TEXT
  8
_0-7_枠細線
 62
    5
 10
2000.6060032878763
 20
860.85687554396054
 40
24
 41
1
 50
0
  1
431
  0
TEXT
  8
_0-7_枠細線
 62
    5
 10
2104.0718189730137
 20
980.856875543961
 40
24
 41
1
 50
0
  1
2
  0
TEXT
  8
_0-7_枠細線
 62
    5
 10
2104.0718189730137
 20
940.85687554396054
 40
24
 41
1
 50
0
  1
2
  0
TEXT
  8
_0-7_枠細線
 62
    5
 10
2104.0718189730137
 20
900.85687554396054
 40
24
 41
1
 50
0
  1
3
  0
TEXT
  8
_0-7_枠細線
 62
    5
 10
2104.0718189730137
 20
860.85687554396054
 40
24
 41
1
 50
0
  1
4
  0
TEXT
  8
_0-7_枠細線
 62
    5
 10
1940.2635219031131
 20
1020.8568755439601
 40
24
 41
0.7999999999999998
 50
0
  1
Ｄ
  0
TEXT
  8
_0-7_枠細線
 62
    5
 10
2021.3318905328347
 20
1020.8568755439601
 40
24
 41
0.7999999999999998
 50
0
  1
Ｅ
  0
TEXT
  8
_0-7_枠細線
 62
    5
 10
2101.100578280631
 20
1020.8568755439601
 40
24
 41
0.7999999999999998
 50
0
  1
Ｎ
  0
TEXT
  8
_0-7_枠細線
 62
    5
 10
2008
 20
152
 40
32
 41
1
 50
0
  1
大野
  0
TEXT
  8
_0-7_枠細線
 62
    5
 10
2200
 20
152
 40
32
 41
1
 50
0
  1
久野
  0
TEXT
  8
_0-7_枠細線
 62
    5
 10
2104
 20
152
 40
32
 41
1
 50
0
  1
中村
  0
TEXT
  8
_0-7_枠細線
 62
    5
 10
2096
 20
108
 40
24
 41
0.6666666666666666
 50
0
  1
２０２０年０４月０１日
  0
TEXT
  8
_0-7_枠細線
 62
    5
 10
1892.7524752035631
 20
417.84131827931037
 40
40
 41
0.8
 50
0
  1
表面形状
  0
TEXT
  8
_0-7_枠細線
 62
    5
 10
1725.8635219031125
 20
1298.8208963018415
 40
24
 41
1
 50
0
  1
HSFY-15L1000-J
  0
TEXT
  8
_0-7_枠細線
 62
    5
 10
1725.8635219031125
 20
980.85687554396054
 40
24
 41
1
 50
0
  1
HSFY-15L1000-J
  0
TEXT
  8
_0-7_枠細線
 62
    5
 10
1725.8635219031125
 20
1258.820896301841
 40
24
 41
1
 50
0
  1
HSFY-15L1200-J
  0
TEXT
  8
_0-7_枠細線
 62
    5
 10
1725.8635219031125
 20
940.85687554396009
 40
24
 41
1
 50
0
  1
HSFY-15L1200-J
  0
TEXT
  8
_0-7_枠細線
 62
    5
 10
1725.8635219031125
 20
1218.820896301841
 40
24
 41
1
 50
0
  1
HSFY-15L1500-J
  0
TEXT
  8
_0-7_枠細線
 62
    5
 10
1725.8635219031125
 20
900.85687554396009
 40
24
 41
1
 50
0
  1
HSFY-15L1500-J
  0
TEXT
  8
_0-7_枠細線
 62
    5
 10
1725.8635219031125
 20
1178.820896301841
 40
24
 41
1
 50
0
  1
HSFY-15L1800-J
  0
TEXT
  8
_0-7_枠細線
 62
    5
 10
1725.8635219031125
 20
860.85687554396009
 40
24
 41
1
 50
0
  1
HSFY-15L1800-J
  0
TEXT
  8
_0-7_枠細線
 62
    5
 10
1536.8000000000002
 20
176
 40
32.000000000000014
 41
0.5499999999999998
 50
0
  1
ＨＳＦＹ－１５Ｌ１０００～１８００－Ｊ
  0
TEXT
  8
_0-7_枠細線
 62
    5
 10
1771.463521903114
 20
1338.820896301841
 40
24
 41
0.7999999999999998
 50
0
  1
品　　番
  0
TEXT
  8
_0-7_枠細線
 62
    5
 10
1771.463521903114
 20
1020.8568755439596
 40
24
 41
0.7999999999999998
 50
0
  1
品　　番
  0
LINE
  8
_0-1_計細線
  6
CONTINUOUS
 62
    3
 10
357.46047467434255
 20
1118.7336586827312
 11
357.46047467434255
 21
1262.7336586827312
  0
LINE
  8
_0-1_計細線
  6
CONTINUOUS
 62
    3
 10
357.46047467434255
 20
1262.7336586827312
 11
1351.4604746743425
 21
1262.7336586827312
  0
LINE
  8
_0-1_計細線
  6
CONTINUOUS
 62
    3
 10
1351.4604746743425
 20
1262.7336586827312
 11
1351.4604746743425
 21
1118.7336586827312
  0
LINE
  8
_0-1_計細線
  6
CONTINUOUS
 62
    3
 10
1351.4604746743425
 20
1118.7336586827312
 11
357.46047467434255
 21
1118.7336586827312
  0
LINE
  8
_0-1_計細線
  6
CONTINUOUS
 62
    3
 10
1339.4604746743425
 20
1250.7336586827312
 11
369.46047467434255
 21
1250.7336586827312
  0
LINE
  8
_0-1_計細線
  6
CONTINUOUS
 62
    3
 10
369.46047467434255
 20
1250.7336586827312
 11
369.46047467434255
 21
1130.7336586827312
  0
LINE
  8
_0-1_計細線
  6
CONTINUOUS
 62
    3
 10
369.46047467434255
 20
1130.7336586827312
 11
1339.4604746743425
 21
1130.7336586827312
  0
LINE
  8
_0-1_計細線
  6
CONTINUOUS
 62
    3
 10
1339.4604746743425
 20
1130.7336586827312
 11
1339.4604746743425
 21
1250.7336586827312
  0
LINE
  8
_0-0_計極細
  6
CENTER1
 62
    2
 10
345.16047467434328
 20
1190.7336586827312
 11
1373.4104746743433
 21
1190.7336586827312
  0
LINE
  8
_0-1_計細線
  6
CONTINUOUS
 62
    3
 10
1299.4604746743425
 20
1130.7336586827312
 11
1299.4604746743425
 21
1132.7336586827312
  0
LINE
  8
_0-1_計細線
  6
CONTINUOUS
 62
    3
 10
1243.4604746743425
 20
1130.7336586827312
 11
1243.4604746743425
 21
1132.7336586827312
  0
LINE
  8
_0-1_計細線
  6
CONTINUOUS
 62
    3
 10
1299.4604746743425
 20
1250.7336586827312
 11
1299.4604746743425
 21
1248.7336586827312
  0
LINE
  8
_0-1_計細線
  6
CONTINUOUS
 62
    3
 10
1243.4604746743425
 20
1250.7336586827312
 11
1243.4604746743425
 21
1248.7336586827312
  0
ARC
  8
_0-1_計細線
  6
CONTINUOUS
 62
    3
 10
1310.0762334095407
 20
1204.9334635707366
 40
0.501740082747087
 50
330.00000000009186
 51
20.189990999954205
  0
ARC
  8
_0-1_計細線
  6
CONTINUOUS
 62
    3
 10
1310.0762334095407
 20
1176.5338537947275
 40
0.501740082747087
 50
339.81000900004506
 51
29.999999999907399
  0
LINE
  8
_0-1_計細線
  6
CONTINUOUS
 62
    3
 10
1272.7650398833403
 20
1192.9914980864512
 11
1271.461471787924
 21
1195.2493374901703
  0
LINE
  8
_0-1_計細線
  6
CONTINUOUS
 62
    3
 10
1272.7650398833403
 20
1192.9914980864512
 11
1252.6251485275925
 21
1227.8748098077579
  0
LINE
  8
_0-1_計細線
  6
CONTINUOUS
 62
    3
 10
1272.7650398833403
 20
1192.9914980864512
 11
1275.3721700532669
 21
1192.9914980864512
  0
LINE
  8
_0-1_計細線
  6
CONTINUOUS
 62
    3
 10
1268.8543476389032
 20
1190.7336586827312
 11
1248.7144562831536
 21
1225.6169704040401
  0
ARC
  8
_0-1_計細線
  6
CONTINUOUS
 62
    3
 10
1239.8566994243492
 20
1164.3921989726712
 40
0.501740082747087
 50
219.81000899998574
 51
269.99999999999977
  0
LINE
  8
_0-1_計細線
  6
CONTINUOUS
 62
    3
 10
1272.7650398833403
 20
1188.4758192790121
 11
1252.6251485275925
 21
1153.5925075577049
  0
LINE
  8
_0-1_計細線
  6
CONTINUOUS
 62
    3
 10
1268.8543476389032
 20
1190.7336586827312
 11
1248.7144562831536
 21
1155.8503469614241
  0
ARC
  8
_0-1_計細線
  6
CONTINUOUS
 62
    3
 10
1271.461471787924
 20
1190.7336586827312
 40
46.4111412917104
 50
89.999999999999915
 51
269.99999999999977
  0
ARC
  8
_0-1_計細線
  6
CONTINUOUS
 62
    3
 10
1271.461471787924
 20
1190.7336586827312
 40
57.198598227560829
 50
89.999999999999915
 51
269.99999999999977
  0
CIRCLE
  8
_0-1_計細線
  6
CONTINUOUS
 62
    3
 10
1271.461471787924
 20
1190.7336586827312
 40
58.202084413960065
  0
LINE
  8
_0-1_計細線
  6
CONTINUOUS
 62
    3
 10
1272.7650398833403
 20
1192.9914980864512
 11
1313.0448165739317
 21
1192.9914980864512
  0
LINE
  8
_0-1_計細線
  6
CONTINUOUS
 62
    3
 10
1272.7650398833403
 20
1188.4758192790121
 11
1313.0448165739317
 21
1188.4758192790121
  0
ARC
  8
_0-1_計細線
  6
CONTINUOUS
 62
    3
 10
1271.461471787924
 20
1190.7336586827312
 40
46.4111412917104
 50
269.99999999999977
 51
89.999999999999545
  0
ARC
  8
_0-1_計細線
  6
CONTINUOUS
 62
    3
 10
1271.461471787924
 20
1190.7336586827312
 40
57.198598227560829
 50
269.99999999999977
 51
89.999999999999545
  0
ARC
  8
_0-1_計細線
  6
CONTINUOUS
 62
    3
 10
1271.461471787924
 20
1190.7336586827312
 40
41.644595453350369
 50
89.999999999999915
 51
116.89207624474167
  0
ARC
  8
_0-1_計細線
  6
CONTINUOUS
 62
    3
 10
1271.461471787924
 20
1190.7336586827312
 40
41.644595453350369
 50
123.10791868693909
 51
236.89208131305983
  0
ARC
  8
_0-1_計細線
  6
CONTINUOUS
 62
    3
 10
1271.461471787924
 20
1190.7336586827312
 40
41.644595453350369
 50
243.10792375525773
 51
269.99999999999977
  0
ARC
  8
_0-1_計細線
  6
CONTINUOUS
 62
    3
 10
1271.461471787924
 20
1190.7336586827312
 40
41.644595453350369
 50
269.99999999999977
 51
356.89207858909316
  0
ARC
  8
_0-1_計細線
  6
CONTINUOUS
 62
    3
 10
1271.461471787924
 20
1190.7336586827312
 40
41.644595453350369
 50
3.1079214109077289
 51
89.999999999999915
  0
ARC
  8
_0-0_計極細
  6
CONTINUOUS
 62
    2
 10
1271.461471787924
 20
1190.7336586827312
 40
50.153133796808191
 50
269.99999999999977
 51
89.999999999999545
  0
ARC
  8
_0-0_計極細
  6
CONTINUOUS
 62
    2
 10
1271.461471787924
 20
1190.7336586827312
 40
50.153133796808191
 50
89.999999999999915
 51
269.99999999999977
  0
ARC
  8
_0-0_計極細
  6
CONTINUOUS
 62
    2
 10
1257.8464707434168
 20
1161.6326164531399
 40
0.501740082747087
 50
149.9999756859755
 51
210.00002243784951
  0
ARC
  8
_0-0_計極細
  6
CONTINUOUS
 62
    2
 10
1271.7511555938736
 20
1184.712753606145
 40
1.0034861863992508
 50
29.999999999951111
 51
149.99999999997101
  0
ARC
  8
_0-0_計極細
  6
CONTINUOUS
 62
    2
 10
1271.7511555938736
 20
1184.712753606145
 40
1.0034861863992508
 50
29.999999999951111
 51
106.77865499997519
  0
ARC
  8
_0-0_計極細
  6
CONTINUOUS
 62
    2
 10
1266.1023785764528
 20
1187.9740791962647
 40
1.0034861863992508
 50
329.9999999999776
 51
89.999999999999545
  0
ARC
  8
_0-0_計極細
  6
CONTINUOUS
 62
    2
 10
1230.9662554878878
 20
1198.0124194818243
 40
0.501740082747087
 50
89.993779917003238
 51
169.80868012341165
  0
ARC
  8
_0-0_計極細
  6
CONTINUOUS
 62
    2
 10
1230.9646897824541
 20
1183.4618961490698
 40
0.501740082747087
 50
190.17882981053808
 51
269.99383436894158
  0
ARC
  8
_0-0_計極細
  6
CONTINUOUS
 62
    2
 10
1230.9129574918479
 20
1193.4967450793654
 40
1.0034861863992508
 50
176.10042624738671
 51
269.99385985768839
  0
ARC
  8
_0-0_計極細
  6
CONTINUOUS
 62
    2
 10
1271.461471787924
 20
1190.7336586827312
 40
37.630656728658437
 50
317.45760300000074
 51
327.38710800000064
  0
ARC
  8
_0-0_計極細
  6
CONTINUOUS
 62
    2
 10
1271.461471787924
 20
1190.7336586827312
 40
37.630656728658437
 50
32.612891999999583
 51
42.54239699999939
  0
LINE
  8
_0-0_計極細
  6
CONTINUOUS
 62
    2
 10
1306.6356895589124
 20
1171.4547206275058
 11
1297.6776003379118
 21
1186.9705930098673
  0
LINE
  8
_0-0_計極細
  6
CONTINUOUS
 62
    2
 10
1305.2288629414334
 20
1166.867025774445
 11
1292.8978626965281
 21
1188.2249462271855
  0
LINE
  8
_0-0_計極細
  6
CONTINUOUS
 62
    2
 10
1300.6069272012019
 20
1162.8306411156275
 11
1286.6697240881122
 21
1186.9705930098673
  0
LINE
  8
_0-0_計極細
  6
CONTINUOUS
 62
    2
 10
1306.6356895589124
 20
1210.0125967379579
 11
1297.6776003379118
 21
1194.4967243555973
  0
LINE
  8
_0-0_計極細
  6
CONTINUOUS
 62
    2
 10
1305.2288629414334
 20
1214.6002915910183
 11
1292.8978626965281
 21
1193.2423711382773
  0
LINE
  8
_0-0_計極細
  6
CONTINUOUS
 62
    2
 10
1300.6069272012019
 20
1218.6366702289317
 11
1286.6697240881122
 21
1194.4967243555973
  0
LINE
  8
_0-0_計極細
  6
CONTINUOUS
 62
    2
 10
1269.4545054360315
 20
1163.7140222875598
 11
1269.4545054360315
 21
1171.6314341915038
  0
LINE
  8
_0-0_計極細
  6
CONTINUOUS
 62
    2
 10
1269.9562455187779
 20
1163.6814311283799
 11
1269.9562455187779
 21
1170.7623948154649
  0
ARC
  8
_0-0_計極細
  6
CONTINUOUS
 62
    2
 10
1271.461471787924
 20
1190.7336586827312
 40
37.630656728658437
 50
213.59599499999973
 51
225.50677599999941
  0
LINE
  8
_0-0_計極細
  6
CONTINUOUS
 62
    2
 10
1298.4438086761484
 20
1159.5528904964615
 11
1281.8899864467285
 21
1188.2249462271855
  0
LINE
  8
_0-0_計極細
  6
CONTINUOUS
 62
    2
 10
1293.2559560259588
 20
1156.4967031632057
 11
1275.6618478383125
 21
1186.9705930098673
  0
LINE
  8
_0-0_計極細
  6
CONTINUOUS
 62
    2
 10
1275.2468870604343
 20
1149.5569236792619
 11
1262.9158868155291
 21
1170.9148441320028
  0
LINE
  8
_0-0_計極細
  6
CONTINUOUS
 62
    2
 10
1281.0534659790092
 20
1151.5414440970296
 11
1267.1162628659176
 21
1175.6813959912686
  0
LINE
  8
_0-0_計極細
  6
CONTINUOUS
 62
    2
 10
1284.9736471698479
 20
1151.7758860989036
 11
1268.4198249404308
 21
1180.4479478505339
  0
LINE
  8
_0-0_計極細
  6
CONTINUOUS
 62
    2
 10
1290.2143031575588
 20
1154.7406098631388
 11
1272.6202009908193
 21
1185.2144936888938
  0
LINE
  8
_0-0_計極細
  6
CONTINUOUS
 62
    2
 10
1239.8566994243492
 20
1163.8904588899243
 11
1253.0667337477198
 21
1163.8904588899243
  0
ARC
  8
_0-0_計極細
  6
CONTINUOUS
 62
    2
 10
1249.5905642017542
 20
1159.3747800824847
 40
1.0034861863992508
 50
329.99999999997061
 51
89.999999999999545
  0
ARC
  8
_0-0_計極細
  6
CONTINUOUS
 62
    2
 10
1271.461471787924
 20
1190.7336586827312
 40
37.630656728658437
 50
233.77152300000051
 51
236.31964599999873
  0
ARC
  8
_0-0_計極細
  6
CONTINUOUS
 62
    2
 10
1245.6095839114514
 20
1159.3747800824847
 40
1.0034861863992508
 50
89.999999999999915
 51
230.49823000001433
  0
LINE
  8
_0-0_計極細
  6
CONTINUOUS
 62
    2
 10
1245.6095839114514
 20
1160.3782602479789
 11
1249.5905642017542
 21
1160.3782602479789
  0
ARC
  8
_0-0_計極細
  6
CONTINUOUS
 62
    2
 10
1271.461471787924
 20
1190.7336586827312
 40
37.630656728658437
 50
272.61289200000084
 51
282.54239699999982
  0
ARC
  8
_0-0_計極細
  6
CONTINUOUS
 62
    2
 10
1275.6814097589058
 20
1149.8077967310876
 40
0.501740082747087
 50
210.00000000005619
 51
275.88706200007852
  0
LINE
  8
_0-0_計極細
  6
CONTINUOUS
 62
    2
 10
1270.5704139620202
 20
1150.6324198903783
 11
1261.6123247410196
 21
1166.1482982936438
  0
LINE
  8
_0-0_計極細
  6
CONTINUOUS
 62
    2
 10
1264.0169658523164
 20
1149.9415210328414
 11
1257.4119486906311
 21
1161.381746434379
  0
ARC
  8
_0-0_計極細
  6
CONTINUOUS
 62
    2
 10
1271.461471787924
 20
1190.7336586827312
 40
37.630656728658437
 50
254.49322400000062
 51
266.40400500000192
  0
ARC
  8
_0-0_計極細
  6
CONTINUOUS
 62
    2
 10
1253.0667337477198
 20
1164.3921989726712
 40
0.501740082747087
 50
269.99999999999977
 51
329.999999999995
  0
ARC
  8
_0-0_計極細
  6
CONTINUOUS
 62
    2
 10
1257.229834374778
 20
1152.6658240364629
 40
1.0034861863992508
 50
249.50177000010669
 51
29.999999999924803
  0
LINE
  8
_0-0_計極細
  6
CONTINUOUS
 62
    2
 10
1258.0988737508196
 20
1153.1675641192103
 11
1256.1083866161198
 21
1156.6151945751119
  0
ARC
  8
_0-0_計極細
  6
CONTINUOUS
 62
    2
 10
1260.7432793440757
 20
1165.6465521899925
 40
1.0034861863992508
 50
29.999999999977071
 51
150.00000000002294
  0
ARC
  8
_0-0_計極細
  6
CONTINUOUS
 62
    2
 10
1271.461471787924
 20
1190.7336586827312
 40
27.094072844634088
 50
244.78019200000111
 51
249.77896100000117
  0
ARC
  8
_0-0_計極細
  6
CONTINUOUS
 62
    2
 10
1271.461471787924
 20
1190.7336586827312
 40
37.630656728658437
 50
243.68035399999945
 51
246.22847699999966
  0
ARC
  8
_0-0_計極細
  6
CONTINUOUS
 62
    2
 10
1255.2393412191759
 20
1156.1134544923668
 40
1.0034861863992508
 50
30.000000000003038
 51
149.99999999999699
  0
ARC
  8
_0-0_計極細
  6
CONTINUOUS
 62
    2
 10
1269.7013745859813
 20
1150.1306798076328
 40
1.0034861863992508
 50
267.51783600007144
 51
29.999999999976708
  0
ARC
  8
_0-0_計極細
  6
CONTINUOUS
 62
    2
 10
1264.4514885507879
 20
1150.1923940846671
 40
0.501740082747087
 50
210.00000000000426
 51
260.18999099984632
  0
ARC
  8
_0-0_計極細
  6
CONTINUOUS
 62
    2
 10
1271.461471787924
 20
1190.7336586827312
 40
27.094072844634088
 50
260.29098300000101
 51
275.3756820000018
  0
ARC
  8
_0-0_計極細
  6
CONTINUOUS
 62
    2
 10
1271.461471787924
 20
1190.7336586827312
 40
37.630656728658437
 50
288.07291800000053
 51
297.3252260000009
  0
ARC
  8
_0-0_計極細
  6
CONTINUOUS
 62
    2
 10
1271.461471787924
 20
1190.7336586827312
 40
27.094072844634088
 50
283.31934900000306
 51
296.28378000000106
  0
ARC
  8
_0-0_計極細
  6
CONTINUOUS
 62
    2
 10
1285.4081638474154
 20
1152.0267591507297
 40
0.501740082747087
 50
210.00000000000426
 51
289.81487199991307
  0
ARC
  8
_0-0_計極細
  6
CONTINUOUS
 62
    2
 10
1280.1844205820644
 20
1151.0397040142832
 40
1.0034861863992508
 50
282.39403400005705
 51
29.999999999976708
  0
ARC
  8
_0-0_計極細
  6
CONTINUOUS
 62
    2
 10
1271.461471787924
 20
1190.7336586827312
 40
37.630656728658437
 50
302.67477400000098
 51
311.92708200000021
  0
ARC
  8
_0-0_計極細
  6
CONTINUOUS
 62
    2
 10
1294.1249954019977
 20
1156.9984492668584
 40
1.0034861863992508
 50
209.9999999999992
 51
303.89344999997104
  0
ARC
  8
_0-0_計極細
  6
CONTINUOUS
 62
    2
 10
1298.0092859776751
 20
1159.3020174446358
 40
0.501740082747087
 50
310.18512800003361
 51
29.999999999959307
  0
ARC
  8
_0-0_計極細
  6
CONTINUOUS
 62
    2
 10
1289.3452637815208
 20
1154.2388637594861
 40
1.0034861863992508
 50
296.10654999997791
 51
30.000000000025157
  0
LINE
  8
_0-0_計極細
  6
CONTINUOUS
 62
    2
 10
1237.178311842842
 20
1169.91136396651
 11
1255.0945023266522
 21
1169.91136396651
  0
ARC
  8
_0-0_計極細
  6
CONTINUOUS
 62
    2
 10
1249.5905642017542
 20
1222.0925372829795
 40
1.0034861863992508
 50
269.99999999999977
 51
30.000000000051159
  0
LINE
  8
_0-0_計極細
  6
CONTINUOUS
 62
    2
 10
1239.8566994243492
 20
1217.5768584755399
 11
1253.0667337477198
 21
1217.5768584755399
  0
LINE
  8
_0-0_計極細
  6
CONTINUOUS
 62
    2
 10
1237.178311842842
 20
1211.5559533989533
 11
1255.0945023266522
 21
1211.5559533989533
  0
LINE
  8
_0-0_計極細
  6
CONTINUOUS
 62
    2
 10
1233.9086713828119
 20
1208.0437607779147
 11
1258.5706718726206
 21
1208.0437607779147
  0
LINE
  8
_0-0_計極細
  6
CONTINUOUS
 62
    2
 10
1232.7240282044686
 20
1202.0228557013295
 11
1260.5984404515539
 21
1202.0228557013295
  0
LINE
  8
_0-0_計極細
  6
CONTINUOUS
 62
    2
 10
1230.9669715595874
 20
1198.5106630802891
 11
1264.0746099975186
 21
1198.5106630802891
  0
LINE
  8
_0-0_計極細
  6
CONTINUOUS
 62
    2
 10
1230.9141622011621
 20
1192.4897580037039
 11
1266.1023785764528
 21
1192.4897580037039
  0
LINE
  8
_0-0_計極細
  6
CONTINUOUS
 62
    2
 10
1233.9086713828119
 20
1173.4235565875495
 11
1258.5706718726206
 21
1173.4235565875495
  0
LINE
  8
_0-0_計極細
  6
CONTINUOUS
 62
    2
 10
1232.7240282044686
 20
1179.4444616641351
 11
1260.5984404515539
 21
1179.4444616641351
  0
LINE
  8
_0-0_計極細
  6
CONTINUOUS
 62
    2
 10
1230.9669715595874
 20
1182.9566542851751
 11
1264.0746099975186
 21
1182.9566542851751
  0
LINE
  8
_0-0_計極細
  6
CONTINUOUS
 62
    2
 10
1230.9141622011621
 20
1188.9775593617589
 11
1266.1023785764528
 21
1188.9775593617589
  0
ARC
  8
_0-0_計極細
  6
CONTINUOUS
 62
    2
 10
1271.461471787924
 20
1190.7336586827312
 40
27.094072844634088
 50
140.2909829999995
 51
155.37568199999922
  0
ARC
  8
_0-0_計極細
  6
CONTINUOUS
 62
    2
 10
1271.461471787924
 20
1190.7336586827312
 40
37.630656728658437
 50
152.61289199999945
 51
162.54239699999926
  0
ARC
  8
_0-0_計極細
  6
CONTINUOUS
 62
    2
 10
1232.7240282044686
 20
1203.02634188773
 40
1.0034861863992508
 50
162.39403400003678
 51
269.99999999999977
  0
ARC
  8
_0-0_計極細
  6
CONTINUOUS
 62
    2
 10
1237.178311842842
 20
1168.9078777801094
 40
1.0034861863992508
 50
89.999999999999915
 51
212.48216400001331
  0
ARC
  8
_0-0_計極細
  6
CONTINUOUS
 62
    2
 10
1271.461471787924
 20
1190.7336586827312
 40
37.630656728658437
 50
168.07291799999925
 51
177.32522600000007
  0
ARC
  8
_0-0_計極細
  6
CONTINUOUS
 62
    2
 10
1271.461471787924
 20
1190.7336586827312
 40
37.630656728658437
 50
182.67477399999888
 51
191.9270819999997
  0
ARC
  8
_0-0_計極細
  6
CONTINUOUS
 62
    2
 10
1271.461471787924
 20
1190.7336586827312
 40
37.630656728658437
 50
197.45760299999972
 51
207.38710799999959
  0
ARC
  8
_0-0_計極細
  6
CONTINUOUS
 62
    2
 10
1230.9141622011621
 20
1187.9740791962656
 40
1.0034861863992508
 50
89.999999999999915
 51
183.89344999999844
  0
ARC
  8
_0-0_計極細
  6
CONTINUOUS
 62
    2
 10
1232.7240282044686
 20
1178.4409754777359
 40
1.0034861863992508
 50
89.999999999999915
 51
197.6059659999876
  0
ARC
  8
_0-0_計極細
  6
CONTINUOUS
 62
    2
 10
1233.9086713828119
 20
1173.9252966702954
 40
0.501740082747087
 50
204.1129380000705
 51
269.99999999999977
  0
ARC
  8
_0-0_計極細
  6
CONTINUOUS
 62
    2
 10
1271.461471787924
 20
1190.7336586827312
 40
27.094072844634088
 50
163.31934899999897
 51
176.28377999999944
  0
ARC
  8
_0-0_計極細
  6
CONTINUOUS
 62
    2
 10
1271.461471787924
 20
1190.7336586827312
 40
27.094072844634088
 50
183.71621999999925
 51
196.68065099999976
  0
ARC
  8
_0-0_計極細
  6
CONTINUOUS
 62
    2
 10
1271.461471787924
 20
1190.7336586827312
 40
27.094072844634088
 50
204.62431799999953
 51
219.70901699999865
  0
ARC
  8
_0-0_計極細
  6
CONTINUOUS
 62
    2
 10
1233.9086713828119
 20
1207.5420206951687
 40
0.501740082747087
 50
89.999999999999915
 51
155.88706199992916
  0
ARC
  8
_0-0_計極細
  6
CONTINUOUS
 62
    2
 10
1237.178311842842
 20
1212.5594395853543
 40
1.0034861863992508
 50
147.51783599998632
 51
269.99999999999977
  0
ARC
  8
_0-0_計極細
  6
CONTINUOUS
 62
    2
 10
1271.461471787924
 20
1190.7336586827312
 40
37.630656728658437
 50
123.68035400000058
 51
126.22847699999913
  0
ARC
  8
_0-0_計極細
  6
CONTINUOUS
 62
    2
 10
1271.461471787924
 20
1190.7336586827312
 40
37.630656728658437
 50
134.49322399999971
 51
146.40400499999933
  0
ARC
  8
_0-0_計極細
  6
CONTINUOUS
 62
    2
 10
1239.8566994243492
 20
1217.0751183927935
 40
0.501740082747087
 50
89.999999999999915
 51
140.18999100005377
  0
ARC
  8
_0-0_計極細
  6
CONTINUOUS
 62
    2
 10
1245.6095839114514
 20
1222.0925372829795
 40
1.0034861863992508
 50
129.50176999998527
 51
269.99999999999977
  0
LINE
  8
_0-0_計極細
  6
CONTINUOUS
 62
    2
 10
1245.6095839114514
 20
1221.0890571174853
 11
1249.5905642017542
 21
1221.0890571174853
  0
ARC
  8
_0-0_計極細
  6
CONTINUOUS
 62
    2
 10
1271.461471787924
 20
1190.7336586827312
 40
37.630656728658437
 50
77.457603000000148
 51
87.387107999998889
  0
ARC
  8
_0-0_計極細
  6
CONTINUOUS
 62
    2
 10
1271.461471787924
 20
1190.7336586827312
 40
37.630656728658437
 50
77.457603000000148
 51
87.387107999998889
  0
ARC
  8
_0-0_計極細
  6
CONTINUOUS
 62
    2
 10
1276.5308932352591
 20
1187.4723330926138
 40
1.0034861863992508
 50
89.999999999999915
 51
209.99999999994725
  0
ARC
  8
_0-0_計極細
  6
CONTINUOUS
 62
    2
 10
1276.5308932352591
 20
1193.9949842728518
 40
1.0034861863992508
 50
150.00000000005238
 51
269.99999999999977
  0
ARC
  8
_0-0_計極細
  6
CONTINUOUS
 62
    2
 10
1275.6814097589058
 20
1231.6595206343738
 40
0.501740082747087
 50
84.112937999921115
 51
149.9999999999884
  0
LINE
  8
_0-0_計極細
  6
CONTINUOUS
 62
    2
 10
1281.0534659790092
 20
1229.9258672475273
 11
1267.1162628659176
 21
1205.7859213741956
  0
LINE
  8
_0-0_計極細
  6
CONTINUOUS
 62
    2
 10
1284.9736471698479
 20
1229.6914252456561
 11
1268.4198249404308
 21
1201.0193695149303
  0
LINE
  8
_0-0_計極細
  6
CONTINUOUS
 62
    2
 10
1290.2143031575588
 20
1226.7267075023253
 11
1272.6202009908193
 21
1196.2528236765704
  0
LINE
  8
_0-0_計極細
  6
CONTINUOUS
 62
    2
 10
1269.4545054360315
 20
1198.7255070361368
 11
1269.4545054360315
 21
1202.8114919109755
  0
LINE
  8
_0-0_計極細
  6
CONTINUOUS
 62
    2
 10
1269.9562455187779
 20
1197.8564676600979
 11
1269.9562455187779
 21
1203.6805373079185
  0
ARC
  8
_0-0_計極細
  6
CONTINUOUS
 62
    2
 10
1260.5984404515539
 20
1203.02634188773
 40
1.0034861863992508
 50
269.99999999999977
 51
30.000000000025157
  0
LINE
  8
_0-0_計極細
  6
CONTINUOUS
 62
    2
 10
1272.9666980570719
 20
1196.8529814737001
 11
1272.9666980570719
 21
1208.8947916268696
  0
LINE
  8
_0-0_計極細
  6
CONTINUOUS
 62
    2
 10
1273.4684441607233
 20
1197.7220268706426
 11
1273.4684441607233
 21
1209.7638370238149
  0
ARC
  8
_0-0_計極細
  6
CONTINUOUS
 62
    2
 10
1260.5984404515539
 20
1178.4409754777359
 40
1.0034861863992508
 50
329.99999999995163
 51
89.999999999999545
  0
ARC
  8
_0-0_計極細
  6
CONTINUOUS
 62
    2
 10
1258.5706718726206
 20
1173.9252966702954
 40
0.501740082747087
 50
269.99999999999977
 51
329.99999999989114
  0
ARC
  8
_0-0_計極細
  6
CONTINUOUS
 62
    2
 10
1271.461471787924
 20
1190.7336586827312
 40
27.094072844634088
 50
230.2210390000003
 51
235.21980800000028
  0
ARC
  8
_0-0_計極細
  6
CONTINUOUS
 62
    2
 10
1255.0945023266522
 20
1168.9078777801094
 40
1.0034861863992508
 50
329.99999999997414
 51
89.999999999999545
  0
ARC
  8
_0-0_計極細
  6
CONTINUOUS
 62
    2
 10
1263.3504095140024
 20
1171.1657171838299
 40
0.501740082747087
 50
149.9999999999884
 51
210.00000000005619
  0
LINE
  8
_0-0_計極細
  6
CONTINUOUS
 62
    2
 10
1269.4545054360315
 20
1178.6558254544886
 11
1269.4545054360315
 21
1182.7418103293273
  0
LINE
  8
_0-0_計極細
  6
CONTINUOUS
 62
    2
 10
1269.9562455187779
 20
1177.7867800575439
 11
1269.9562455187779
 21
1183.6108497053658
  0
ARC
  8
_0-0_計極細
  6
CONTINUOUS
 62
    2
 10
1264.0746099975186
 20
1183.4584003888265
 40
0.501740082747087
 50
269.99999999999977
 51
330.00000000009186
  0
ARC
  8
_0-0_計極細
  6
CONTINUOUS
 62
    2
 10
1268.8543476389032
 20
1180.6988148814542
 40
0.501740082747087
 50
149.99999999999537
 51
209.9999999999593
  0
ARC
  8
_0-0_計極細
  6
CONTINUOUS
 62
    2
 10
1266.2472174689738
 20
1175.1796559085212
 40
1.0034861863992508
 50
30.000000000025526
 51
149.99999999997448
  0
ARC
  8
_0-0_計極細
  6
CONTINUOUS
 62
    2
 10
1268.8543476389032
 20
1200.7685024840091
 40
0.501740082747087
 50
149.99999999999537
 51
209.9999999999593
  0
ARC
  8
_0-0_計極細
  6
CONTINUOUS
 62
    2
 10
1271.7511555938736
 20
1196.7545637593178
 40
1.0034861863992508
 50
210.00000000005113
 51
330.00000000002603
  0
ARC
  8
_0-0_計極細
  6
CONTINUOUS
 62
    2
 10
1264.0746099975186
 20
1198.0089169766363
 40
0.501740082747087
 50
29.999999999907736
 51
89.999999999999901
  0
ARC
  8
_0-0_計極細
  6
CONTINUOUS
 62
    2
 10
1266.1023785764528
 20
1193.4932381691985
 40
1.0034861863992508
 50
269.99999999999977
 51
29.999999999976708
  0
LINE
  8
_0-0_計極細
  6
CONTINUOUS
 62
    2
 10
1272.9666980570719
 20
1172.5725257385936
 11
1272.9666980570719
 21
1184.6143358917654
  0
LINE
  8
_0-0_計極細
  6
CONTINUOUS
 62
    2
 10
1273.4684441607233
 20
1171.7034803416507
 11
1273.4684441607233
 21
1183.7452904948207
  0
ARC
  8
_0-0_計極細
  6
CONTINUOUS
 62
    2
 10
1271.7511555938736
 20
1196.7545637593178
 40
1.0034861863992508
 50
253.22134500003193
 51
330.00000000002603
  0
LINE
  8
_0-0_計極細
  6
CONTINUOUS
 62
    2
 10
1270.5704139620202
 20
1230.8348914541809
 11
1261.6123247410196
 21
1215.3190190718199
  0
ARC
  8
_0-0_計極細
  6
CONTINUOUS
 62
    2
 10
1271.461471787924
 20
1190.7336586827312
 40
37.630656728658437
 50
93.595994999997728
 51
105.50677599999884
  0
LINE
  8
_0-0_計極細
  6
CONTINUOUS
 62
    2
 10
1264.0169658523164
 20
1231.5257963326251
 11
1257.4119486906311
 21
1220.0855709310847
  0
LINE
  8
_0-0_計極細
  6
CONTINUOUS
 62
    2
 10
1275.2468870604343
 20
1231.9103936862009
 11
1262.9158868155291
 21
1210.5524732334595
  0
ARC
  8
_0-0_計極細
  6
CONTINUOUS
 62
    2
 10
1263.3504095140024
 20
1210.3016001816343
 40
0.501740082747087
 50
149.9999999999884
 51
210.00000000001123
  0
ARC
  8
_0-0_計極細
  6
CONTINUOUS
 62
    2
 10
1271.461471787924
 20
1190.7336586827312
 40
27.094072844634088
 50
110.2210389999981
 51
115.21980799999808
  0
ARC
  8
_0-0_計極細
  6
CONTINUOUS
 62
    2
 10
1260.7432793440757
 20
1215.8207651754731
 40
1.0034861863992508
 50
209.99999999997672
 51
330.00000000002257
  0
ARC
  8
_0-0_計極細
  6
CONTINUOUS
 62
    2
 10
1257.8464713891026
 20
1219.8346978792586
 40
0.501740082747087
 50
150.00000000004732
 51
209.99999999990737
  0
ARC
  8
_0-0_計極細
  6
CONTINUOUS
 62
    2
 10
1271.461471787924
 20
1190.7336586827312
 40
37.630656728658437
 50
113.7715229999997
 51
116.31964599999986
  0
ARC
  8
_0-0_計極細
  6
CONTINUOUS
 62
    2
 10
1257.229834374778
 20
1228.8014933290012
 40
1.0034861863992508
 50
330.00000000007446
 51
110.4982299998926
  0
ARC
  8
_0-0_計極細
  6
CONTINUOUS
 62
    2
 10
1255.2393412191759
 20
1225.3538628730964
 40
1.0034861863992508
 50
210.00000000002515
 51
329.99999999997414
  0
LINE
  8
_0-0_計極細
  6
CONTINUOUS
 62
    2
 10
1258.0988737508196
 20
1228.2997532462539
 11
1256.1083866161198
 21
1224.8521227903518
  0
ARC
  8
_0-0_計極細
  6
CONTINUOUS
 62
    2
 10
1271.461471787924
 20
1190.7336586827312
 40
27.094072844634088
 50
124.78019199999827
 51
129.77896099999876
  0
ARC
  8
_0-0_計極細
  6
CONTINUOUS
 62
    2
 10
1253.0667337477198
 20
1217.0751183927935
 40
0.501740082747087
 50
29.99999999995967
 51
89.999999999999901
  0
ARC
  8
_0-0_計極細
  6
CONTINUOUS
 62
    2
 10
1255.0945023266522
 20
1212.5594395853543
 40
1.0034861863992508
 50
269.99999999999977
 51
30.000000000025157
  0
ARC
  8
_0-0_計極細
  6
CONTINUOUS
 62
    2
 10
1258.5706718726206
 20
1207.5420206951687
 40
0.501740082747087
 50
30.000000000063526
 51
89.999999999999915
  0
LINE
  8
_0-0_計極細
  6
CONTINUOUS
 62
    2
 10
1269.9562455187779
 20
1210.7049225499993
 11
1269.9562455187779
 21
1217.7858862370842
  0
LINE
  8
_0-0_計極細
  6
CONTINUOUS
 62
    2
 10
1269.4545054360315
 20
1209.8358831739608
 11
1269.4545054360315
 21
1217.7532950779043
  0
ARC
  8
_0-0_計極細
  6
CONTINUOUS
 62
    2
 10
1269.7013745859813
 20
1231.3366375578346
 40
1.0034861863992508
 50
330.00000000000011
 51
92.482163999927849
  0
ARC
  8
_0-0_計極細
  6
CONTINUOUS
 62
    2
 10
1271.461471787924
 20
1190.7336586827312
 40
27.094072844634088
 50
84.624317999997899
 51
99.709016999998497
  0
ARC
  8
_0-0_計極細
  6
CONTINUOUS
 62
    2
 10
1264.4514885507879
 20
1231.2749232807998
 40
0.501740082747087
 50
99.810009000153329
 51
150.00000000004033
  0
ARC
  8
_0-0_計極細
  6
CONTINUOUS
 62
    2
 10
1266.2472174689738
 20
1206.2876614569416
 40
1.0034861863992508
 50
210.00000000002515
 51
329.99999999997414
  0
ARC
  8
_0-0_計極細
  6
CONTINUOUS
 62
    2
 10
1271.461471787924
 20
1190.7336586827312
 40
27.094072844634088
 50
84.624317999997899
 51
89.999999999999915
  0
ARC
  8
_0-0_計極細
  6
CONTINUOUS
 62
    2
 10
1271.461471787924
 20
1190.7336586827312
 40
27.094072844634088
 50
20.290983000000907
 51
35.375681999999564
  0
LINE
  8
_0-0_計極細
  6
CONTINUOUS
 62
    2
 10
1298.4438086761484
 20
1221.914426869004
 11
1281.8899864467285
 21
1193.2423711382773
  0
LINE
  8
_0-0_計極細
  6
CONTINUOUS
 62
    2
 10
1293.2559560259588
 20
1224.970614202258
 11
1275.6618478383125
 21
1194.4967243555973
  0
ARC
  8
_0-0_計極細
  6
CONTINUOUS
 62
    2
 10
1271.461471787924
 20
1190.7336586827312
 40
27.094072844634088
 50
303.71622000000309
 51
316.68065100000058
  0
ARC
  8
_0-0_計極細
  6
CONTINUOUS
 62
    2
 10
1287.5387634641511
 20
1187.4723330926138
 40
1.0034861863992508
 50
89.999999999999915
 51
209.9999999999992
  0
ARC
  8
_0-0_計極細
  6
CONTINUOUS
 62
    2
 10
1281.455463748257
 20
1187.9740791962656
 40
0.501740082747087
 50
30.000000000004636
 51
89.999999999999915
  0
ARC
  8
_0-0_計極細
  6
CONTINUOUS
 62
    2
 10
1287.5387634641511
 20
1193.9949842728518
 40
1.0034861863992508
 50
150.00000000000043
 51
269.99999999999977
  0
ARC
  8
_0-0_計極細
  6
CONTINUOUS
 62
    2
 10
1281.455463748257
 20
1193.4932381691985
 40
0.501740082747087
 50
269.99999999999977
 51
329.999999999995
  0
ARC
  8
_0-0_計極細
  6
CONTINUOUS
 62
    2
 10
1271.461471787924
 20
1190.7336586827312
 40
27.094072844634088
 50
324.62431800000087
 51
339.70901700000059
  0
ARC
  8
_0-0_計極細
  6
CONTINUOUS
 62
    2
 10
1271.461471787924
 20
1190.7336586827312
 40
27.094072844634088
 50
350.22103900000002
 51
355.21980800000068
  0
ARC
  8
_0-0_計極細
  6
CONTINUOUS
 62
    2
 10
1271.461471787924
 20
1190.7336586827312
 40
27.094072844634088
 50
4.7801919999998796
 51
9.7789610000005673
  0
ARC
  8
_0-0_計極細
  6
CONTINUOUS
 62
    2
 10
1298.5466397139508
 20
1187.4723330926138
 40
1.0034861863992508
 50
89.999999999999915
 51
209.9999999999992
  0
ARC
  8
_0-0_計極細
  6
CONTINUOUS
 62
    2
 10
1292.4633399980567
 20
1187.9740791962656
 40
0.501740082747087
 50
30.000000000004636
 51
89.999999999999915
  0
ARC
  8
_0-0_計極細
  6
CONTINUOUS
 62
    2
 10
1298.5466397139508
 20
1193.9949842728518
 40
1.0034861863992508
 50
150.00000000000043
 51
269.99999999999977
  0
ARC
  8
_0-0_計極細
  6
CONTINUOUS
 62
    2
 10
1292.4633399980567
 20
1193.4932381691985
 40
0.501740082747087
 50
269.99999999999977
 51
329.999999999995
  0
ARC
  8
_0-0_計極細
  6
CONTINUOUS
 62
    2
 10
1271.461471787924
 20
1190.7336586827312
 40
27.094072844634088
 50
43.319348999999789
 51
56.283779999997591
  0
ARC
  8
_0-0_計極細
  6
CONTINUOUS
 62
    2
 10
1271.461471787924
 20
1190.7336586827312
 40
37.630656728658437
 50
62.67477399999909
 51
71.927081999999317
  0
ARC
  8
_0-0_計極細
  6
CONTINUOUS
 62
    2
 10
1271.461471787924
 20
1190.7336586827312
 40
27.094072844634088
 50
63.716219999999019
 51
76.680650999997013
  0
ARC
  8
_0-0_計極細
  6
CONTINUOUS
 62
    2
 10
1285.4081638474154
 20
1229.440558214734
 40
0.501740082747087
 50
70.18512800008655
 51
150.00000000004033
  0
ARC
  8
_0-0_計極細
  6
CONTINUOUS
 62
    2
 10
1280.1844205820644
 20
1230.427613351181
 40
1.0034861863992508
 50
330.00000000002257
 51
77.605965999942228
  0
ARC
  8
_0-0_計極細
  6
CONTINUOUS
 62
    2
 10
1271.461471787924
 20
1190.7336586827312
 40
37.630656728658437
 50
48.072918000000342
 51
57.325225999999049
  0
ARC
  8
_0-0_計極細
  6
CONTINUOUS
 62
    2
 10
1294.1249954019977
 20
1224.4688680986062
 40
1.0034861863992508
 50
56.106550000014117
 51
150.00000000002294
  0
ARC
  8
_0-0_計極細
  6
CONTINUOUS
 62
    2
 10
1298.0092859776751
 20
1222.1652938999243
 40
0.501740082747087
 50
330.00000000003996
 51
49.814871999965682
  0
ARC
  8
_0-0_計極細
  6
CONTINUOUS
 62
    2
 10
1289.3452637815208
 20
1227.2284536059767
 40
1.0034861863992508
 50
329.99999999997414
 51
63.893450000021375
  0
ARC
  8
_0-0_計極細
  6
CONTINUOUS
 62
    2
 10
1301.4759725981448
 20
1163.3323872192802
 40
1.0034861863992508
 50
209.9999999999992
 51
317.60596599999053
  0
ARC
  8
_0-0_計極細
  6
CONTINUOUS
 62
    2
 10
1304.794346263865
 20
1166.6161527226193
 40
0.501740082747087
 50
324.11293799996702
 51
30.000000000011212
  0
ARC
  8
_0-0_計極細
  6
CONTINUOUS
 62
    2
 10
1271.461471787924
 20
1190.7336586827312
 40
37.630656728658437
 50
14.493223999999607
 51
26.404004999999916
  0
LINE
  8
_0-0_計極細
  6
CONTINUOUS
 62
    2
 10
1310.5107561080122
 20
1204.6825965398164
 11
1303.9057389463278
 21
1193.2423711382773
  0
ARC
  8
_0-0_計極細
  6
CONTINUOUS
 62
    2
 10
1311.5450091193534
 20
1184.0247026367094
 40
1.0034861863992508
 50
210.00000000000267
 51
350.4982300000064
  0
ARC
  8
_0-0_計極細
  6
CONTINUOUS
 62
    2
 10
1311.5450091193534
 20
1197.4426147287547
 40
1.0034861863992508
 50
9.5017699999932326
 51
149.99999999997448
  0
ARC
  8
_0-0_計極細
  6
CONTINUOUS
 62
    2
 10
1271.461471787924
 20
1190.7336586827312
 40
37.630656728658437
 50
3.6803540000000869
 51
6.2284770000002219
  0
ARC
  8
_0-0_計極細
  6
CONTINUOUS
 62
    2
 10
1271.461471787924
 20
1190.7336586827312
 40
37.630656728658437
 50
353.7715230000008
 51
356.31964600000026
  0
ARC
  8
_0-0_計極細
  6
CONTINUOUS
 62
    2
 10
1271.461471787924
 20
1190.7336586827312
 40
37.630656728658437
 50
333.59599500000036
 51
345.50677600000074
  0
ARC
  8
_0-0_計極細
  6
CONTINUOUS
 62
    2
 10
1307.5047349558563
 20
1171.9564607102527
 40
1.0034861863992508
 50
210.00000000000267
 51
332.48216400001218
  0
ARC
  8
_0-0_計極細
  6
CONTINUOUS
 62
    2
 10
1309.5545159637486
 20
1187.4723330926138
 40
1.0034861863992508
 50
89.999999999999915
 51
209.9999999999992
  0
ARC
  8
_0-0_計極細
  6
CONTINUOUS
 62
    2
 10
1303.4712162478545
 20
1187.9740791962656
 40
0.501740082747087
 50
29.99999999995271
 51
89.999999999999929
  0
LINE
  8
_0-0_計極細
  6
CONTINUOUS
 62
    2
 10
1310.6759637224104
 20
1183.522962553963
 11
1308.6854765877097
 21
1186.9705930098673
  0
LINE
  8
_0-0_計極細
  6
CONTINUOUS
 62
    2
 10
1310.5107561080122
 20
1176.7847208256487
 11
1303.9057389463278
 21
1188.2249462271855
  0
ARC
  8
_0-0_計極細
  6
CONTINUOUS
 62
    2
 10
1309.5545159637486
 20
1193.9949842728518
 40
1.0034861863992508
 50
150.00000000000043
 51
269.99999999999977
  0
ARC
  8
_0-0_計極細
  6
CONTINUOUS
 62
    2
 10
1303.4712162478545
 20
1193.4932381691985
 40
0.501740082747087
 50
269.99999999999977
 51
330.00000000004695
  0
LINE
  8
_0-0_計極細
  6
CONTINUOUS
 62
    2
 10
1310.6759637224104
 20
1197.9443548115012
 11
1308.6854765877097
 21
1194.4967243555973
  0
ARC
  8
_0-0_計極細
  6
CONTINUOUS
 62
    2
 10
1301.4759725981448
 20
1218.1349301461839
 40
1.0034861863992508
 50
42.394034000009064
 51
150.00000000000043
  0
ARC
  8
_0-0_計極細
  6
CONTINUOUS
 62
    2
 10
1304.794346263865
 20
1214.8511646428444
 40
0.501740082747087
 50
329.99999999998801
 51
35.887062000032259
  0
ARC
  8
_0-0_計極細
  6
CONTINUOUS
 62
    2
 10
1307.5047349558563
 20
1209.5108566552115
 40
1.0034861863992508
 50
27.517836000010465
 51
149.99999999997448
  0
LINE
  8
_0-0_計極細
  6
CONTINUOUS
 62
    2
 10
1272.9666980570719
 20
1163.6814299910131
 11
1272.9666980570719
 21
1165.5481416411069
  0
LINE
  8
_0-0_計極細
  6
CONTINUOUS
 62
    2
 10
1273.4684441607233
 20
1163.7140205429416
 11
1273.4684441607233
 21
1164.6790916095485
  0
LINE
  8
_0-0_計極細
  6
CONTINUOUS
 62
    2
 10
1272.9666980570719
 20
1215.9191731969547
 11
1272.9666980570719
 21
1217.7858873744492
  0
LINE
  8
_0-0_計極細
  6
CONTINUOUS
 62
    2
 10
1273.4684441607233
 20
1216.7882230117573
 11
1273.4684441607233
 21
1217.7532968225207
  0
LINE
  8
_0-1_計細線
  6
CONTINUOUS
 62
    3
 10
1243.4604746743425
 20
1248.7336586827312
 11
1231.3183390506119
 21
1236.5915230590001
  0
ARC
  8
_0-1_計細線
  6
CONTINUOUS
 62
    3
 10
1217.1762034268804
 20
1250.7336586827312
 40
20
 50
269.99999999999977
 51
315.00000000000057
  0
LINE
  8
_0-1_計細線
  6
CONTINUOUS
 62
    3
 10
1183.695731770159
 20
1150.7336586827312
 11
1217.1762034268804
 21
1150.7336586827312
  0
LINE
  8
_0-1_計細線
  6
CONTINUOUS
 62
    3
 10
1243.4604746743425
 20
1132.7336586827312
 11
1231.3183390506119
 21
1144.8757943064622
  0
ARC
  8
_0-1_計細線
  6
CONTINUOUS
 62
    3
 10
1217.1762034268804
 20
1130.7336586827312
 40
20
 50
44.999999999999076
 51
89.999999999999915
  0
LINE
  8
_0-1_計細線
  6
CONTINUOUS
 62
    3
 10
1299.4604746743425
 20
1132.7336586827312
 11
1311.6026102980732
 21
1144.8757943064622
  0
LINE
  8
_0-1_計細線
  6
CONTINUOUS
 62
    3
 10
1325.7447459218047
 20
1150.7336586827312
 11
1339.4604746743425
 21
1150.7336586827312
  0
ARC
  8
_0-1_計細線
  6
CONTINUOUS
 62
    3
 10
1325.7447459218047
 20
1130.7336586827312
 40
20
 50
89.999999999999915
 51
135.00000000000091
  0
LINE
  8
_0-1_計細線
  6
CONTINUOUS
 62
    3
 10
1299.4604746743425
 20
1248.7336586827312
 11
1311.6026102980732
 21
1236.5915230590001
  0
LINE
  8
_0-1_計細線
  6
CONTINUOUS
 62
    3
 10
1325.7447459218047
 20
1230.7336586827312
 11
1339.4604746743425
 21
1230.7336586827312
  0
ARC
  8
_0-1_計細線
  6
CONTINUOUS
 62
    3
 10
1325.7447459218047
 20
1250.7336586827312
 40
20
 50
224.99999999999872
 51
269.99999999999977
  0
LINE
  8
_0-1_計細線
  6
CONTINUOUS
 62
    3
 10
1197.9170839098806
 20
1230.7336586827312
 11
1217.1762034268804
 21
1230.7336586827312
  0
ARC
  8
_0-0_計極細
  6
CONTINUOUS
 62
    2
 10
1144.7303091231661
 20
1219.7336586826452
 40
54.312365187078854
 50
327.72737804884258
 51
32.272621951371519
  0
ARC
  8
_0-0_計極細
  6
CONTINUOUS
 62
    2
 10
1236.574372888218
 20
1161.7336586828212
 40
54.312365187078854
 50
147.72737804884292
 51
212.27262195137578
  0
ARC
  8
_0-0_計極細
  6
CONTINUOUS
 62
    2
 10
1144.7303091231661
 20
1219.7336586826448
 40
54.312365187078854
 50
327.72737804884258
 51
32.272621951371519
  0
ARC
  8
_0-0_計極細
  6
CONTINUOUS
 62
    2
 10
1236.574372888218
 20
1161.7336586828208
 40
54.312365187078854
 50
147.72737804884292
 51
212.27262195137578
  0
LINE
  8
_0-5_寸法線
  6
CONTINUOUS
 62
    7
 10
357.46047467434255
 20
1278.7336586827312
 11
357.46047467434255
 21
1462.7336586827312
  0
LINE
  8
_0-5_寸法線
  6
CONTINUOUS
 62
    7
 10
357.46047467434255
 20
1454.7336586827312
 11
372.91528789496761
 21
1458.8747634043716
  0
LINE
  8
_0-5_寸法線
  6
CONTINUOUS
 62
    7
 10
357.46047467434255
 20
1454.7336586827312
 11
372.91528789496761
 21
1450.5925539610907
  0
LINE
  8
_0-5_寸法線
  6
CONTINUOUS
 62
    7
 10
1351.4604746743425
 20
1278.7336586827312
 11
1351.4604746743425
 21
1462.7336586827312
  0
LINE
  8
_0-5_寸法線
  6
CONTINUOUS
 62
    7
 10
1351.4604746743425
 20
1454.7336586827312
 11
1336.0056614537175
 21
1450.592553961091
  0
LINE
  8
_0-5_寸法線
  6
CONTINUOUS
 62
    7
 10
1351.4604746743425
 20
1454.7336586827312
 11
1336.0056614537175
 21
1458.8747634043716
  0
LINE
  8
_0-5_寸法線
  6
CONTINUOUS
 62
    7
 10
357.46047467434255
 20
1454.7336586827312
 11
1351.4604746743425
 21
1454.7336586827312
  0
TEXT
  8
_0-5_寸法線
 62
    7
 10
842.46047467434255
 20
1454.7336586827312
 40
24
 41
1
 50
0
  1
Ｌ
  0
LINE
  8
_0-5_寸法線
  6
CONTINUOUS
 62
    7
 10
357.46047467434255
 20
1102.7336586827312
 11
357.46047467434255
 21
1030.7336586827312
  0
LINE
  8
_0-5_寸法線
  6
CONTINUOUS
 62
    7
 10
357.46047467434255
 20
1038.7336586827312
 11
372.91528789496761
 21
1042.8747634043716
  0
LINE
  8
_0-5_寸法線
  6
CONTINUOUS
 62
    7
 10
357.46047467434255
 20
1038.7336586827312
 11
372.91528789496761
 21
1034.5925539610907
  0
LINE
  8
_0-5_寸法線
  6
CONTINUOUS
 62
    7
 10
1271.4604746743425
 20
1102.7336586827312
 11
1271.4604746743425
 21
1030.7336586827312
  0
LINE
  8
_0-5_寸法線
  6
CONTINUOUS
 62
    7
 10
1271.4604746743425
 20
1038.7336586827312
 11
1256.0056614537175
 21
1034.592553961091
  0
LINE
  8
_0-5_寸法線
  6
CONTINUOUS
 62
    7
 10
1271.4604746743425
 20
1038.7336586827312
 11
1256.0056614537175
 21
1042.8747634043716
  0
LINE
  8
_0-5_寸法線
  6
CONTINUOUS
 62
    7
 10
357.46047467434255
 20
1038.7336586827312
 11
1271.4604746743425
 21
1038.7336586827312
  0
TEXT
  8
_0-5_寸法線
 62
    7
 10
802.46047467434255
 20
1038.7336586827312
 40
24
 41
1
 50
0
  1
Ｃ
  0
LINE
  8
_0-5_寸法線
  6
CONTINUOUS
 62
    7
 10
1271.4604746743425
 20
1038.7336586827312
 11
1286.9152878949676
 21
1042.8747634043714
  0
LINE
  8
_0-5_寸法線
  6
CONTINUOUS
 62
    7
 10
1271.4604746743425
 20
1038.7336586827312
 11
1286.9152878949676
 21
1034.5925539610907
  0
LINE
  8
_0-5_寸法線
  6
CONTINUOUS
 62
    7
 10
1351.4604746743425
 20
1102.7336586827312
 11
1351.4604746743425
 21
1030.7336586827312
  0
LINE
  8
_0-5_寸法線
  6
CONTINUOUS
 62
    7
 10
1351.4604746743425
 20
1038.7336586827312
 11
1336.0056614537175
 21
1034.592553961091
  0
LINE
  8
_0-5_寸法線
  6
CONTINUOUS
 62
    7
 10
1351.4604746743425
 20
1038.7336586827312
 11
1336.0056614537175
 21
1042.8747634043716
  0
LINE
  8
_0-5_寸法線
  6
CONTINUOUS
 62
    7
 10
1271.4604746743425
 20
1038.7336586827312
 11
1351.4604746743425
 21
1038.7336586827312
  0
TEXT
  8
_0-5_寸法線
 62
    7
 10
1299.4604746743425
 20
1038.7336586827312
 40
24
 41
1
 50
0
  1
80
  0
LINE
  8
_0-5_寸法線
  6
CONTINUOUS
 62
    7
 10
357.46047467434255
 20
1398.7336586827312
 11
342.00566145371749
 21
1394.592553961091
  0
LINE
  8
_0-5_寸法線
  6
CONTINUOUS
 62
    7
 10
357.46047467434255
 20
1398.7336586827312
 11
342.00566145371749
 21
1402.8747634043716
  0
LINE
  8
_0-5_寸法線
  6
CONTINUOUS
 62
    7
 10
369.46047467434255
 20
1278.7336586827312
 11
369.46047467434255
 21
1406.7336586827312
  0
LINE
  8
_0-5_寸法線
  6
CONTINUOUS
 62
    7
 10
317.46047467434255
 20
1398.7336586827312
 11
369.46047467434255
 21
1398.7336586827312
  0
TEXT
  8
_0-5_寸法線
 62
    7
 10
315.48676340906604
 20
1398.7336586827312
 40
24
 41
1
 50
0
  1
12
  0
LINE
  8
_0-5_寸法線
  6
CONTINUOUS
 62
    7
 10
369.46047467434255
 20
1398.7336586827312
 11
384.91528789496761
 21
1402.8747634043714
  0
LINE
  8
_0-5_寸法線
  6
CONTINUOUS
 62
    7
 10
369.46047467434255
 20
1398.7336586827312
 11
384.91528789496761
 21
1394.5925539610907
  0
LINE
  8
_0-5_寸法線
  6
CONTINUOUS
 62
    7
 10
1339.4604746743425
 20
1278.7336586827312
 11
1339.4604746743425
 21
1406.7336586827312
  0
LINE
  8
_0-5_寸法線
  6
CONTINUOUS
 62
    7
 10
1339.4604746743425
 20
1398.7336586827312
 11
1324.0056614537175
 21
1394.592553961091
  0
LINE
  8
_0-5_寸法線
  6
CONTINUOUS
 62
    7
 10
1339.4604746743425
 20
1398.7336586827312
 11
1324.0056614537175
 21
1402.8747634043716
  0
LINE
  8
_0-5_寸法線
  6
CONTINUOUS
 62
    7
 10
369.46047467434255
 20
1398.7336586827312
 11
1339.4604746743425
 21
1398.7336586827312
  0
TEXT
  8
_0-5_寸法線
 62
    7
 10
842.46047467434255
 20
1398.7336586827312
 40
24
 41
1
 50
0
  1
Ａ
  0
LINE
  8
_0-5_寸法線
  6
CONTINUOUS
 62
    7
 10
1351.4604746743425
 20
1398.7336586827312
 11
1366.9152878949676
 21
1402.8747634043714
  0
LINE
  8
_0-5_寸法線
  6
CONTINUOUS
 62
    7
 10
1351.4604746743425
 20
1398.7336586827312
 11
1366.9152878949676
 21
1394.5925539610907
  0
LINE
  8
_0-5_寸法線
  6
CONTINUOUS
 62
    7
 10
1339.4604746743425
 20
1398.7336586827312
 11
1391.4604746743425
 21
1398.7336586827312
  0
TEXT
  8
_0-5_寸法線
 62
    7
 10
1363.7515991760938
 20
1398.7336586827312
 40
24
 41
1
 50
0
  1
12
  0
LINE
  8
_0-5_寸法線
  6
CONTINUOUS
 62
    7
 10
407.60979042549297
 20
1149.8301595972264
 11
417.48882387203412
 21
1137.244266773826
  0
LINE
  8
_0-5_寸法線
  6
CONTINUOUS
 62
    7
 10
407.60979042549297
 20
1149.8301595972264
 11
409.87233794333349
 21
1133.9909399595829
  0
LINE
  8
_0-5_寸法線
  6
CONTINUOUS
 62
    7
 10
407.60979042549297
 20
1149.8301595972264
 11
440.86783006367011
 21
1071.9685104658365
  0
LINE
  8
_0-5_寸法線
  6
CONTINUOUS
 62
    7
 10
440.86783006367011
 20
1071.9685104658365
 11
618.77360784144889
 21
1071.9685104658365
  0
TEXT
  8
_0-5_寸法線
 62
    7
 10
445.97360784144882
 20
1071.9685104658365
 40
24
 41
0.8000000000000001
 50
0
  1
ＳＵＳグレーチング
  0
LINE
  8
_0-5_寸法線
  6
CONTINUOUS
 62
    7
 10
651.32835231156423
 20
1125.2660743777458
 11
660.83598476167651
 21
1112.3973166601736
  0
LINE
  8
_0-5_寸法線
  6
CONTINUOUS
 62
    7
 10
651.32835231156423
 20
1125.2660743777458
 11
653.12782468442072
 21
1109.3675870541251
  0
LINE
  8
_0-5_寸法線
  6
CONTINUOUS
 62
    7
 10
651.32835231156423
 20
1125.2660743777458
 11
672.32638262152511
 21
1071.843426160849
  0
LINE
  8
_0-5_寸法線
  6
CONTINUOUS
 62
    7
 10
672.32638262152511
 20
1071.843426160849
 11
787.52638262152504
 21
1071.843426160849
  0
TEXT
  8
_0-5_寸法線
 62
    7
 10
672.32638262152511
 20
1071.843426160849
 40
24
 41
0.8000000000000001
 50
0
  1
排水ユニット
  0
LINE
  8
_0-1_計細線
  6
CONTINUOUS
 62
    3
 10
1431.4604746743425
 20
1262.7336586827307
 11
1431.4604746743425
 21
1118.7336586827312
  0
LINE
  8
_0-1_計細線
  6
CONTINUOUS
 62
    3
 10
1431.4604746743425
 20
1118.7336586827312
 11
1439.4604746743425
 21
1118.7336586827312
  0
LINE
  8
_0-1_計細線
  6
CONTINUOUS
 62
    3
 10
1439.4604746743425
 20
1118.7336586827312
 11
1439.4604746743425
 21
1262.7336586827307
  0
LINE
  8
_0-1_計細線
  6
CONTINUOUS
 62
    3
 10
1439.4604746743425
 20
1262.7336586827307
 11
1431.4604746743425
 21
1262.7336586827307
  0
LINE
  8
_0-1_計細線
  6
CONTINUOUS
 62
    3
 10
1519.4604746743428
 20
1129.7336586827312
 11
1554.4604746743428
 21
1129.7336586827312
  0
LINE
  8
_0-1_計細線
  6
CONTINUOUS
 62
    3
 10
1554.4604746743428
 20
1129.7336586827312
 11
1554.4604746743428
 21
1128.5336586827314
  0
LINE
  8
_0-1_計細線
  6
CONTINUOUS
 62
    3
 10
1554.4604746743428
 20
1128.5336586827314
 11
1519.4604746743428
 21
1128.5336586827314
  0
LINE
  8
_0-1_計細線
  6
CONTINUOUS
 62
    3
 10
1519.4604746743428
 20
1128.5336586827314
 11
1519.4604746743428
 21
1129.7336586827312
  0
LINE
  8
_0-1_計細線
  6
CONTINUOUS
 62
    3
 10
1521.4604746743428
 20
1128.5336586827314
 11
1521.4604746743428
 21
1129.7336586827312
  0
LINE
  8
_0-1_計細線
  6
CONTINUOUS
 62
    3
 10
1531.4604746743428
 20
1128.5336586827314
 11
1531.4604746743428
 21
1129.7336586827312
  0
LINE
  8
_0-1_計細線
  6
CONTINUOUS
 62
    3
 10
1533.4604746743428
 20
1128.5336586827314
 11
1533.4604746743428
 21
1129.7336586827312
  0
LINE
  8
_0-1_計細線
  6
CONTINUOUS
 62
    3
 10
1535.4604746743428
 20
1128.5336586827314
 11
1535.4604746743428
 21
1129.7336586827312
  0
LINE
  8
_0-1_計細線
  6
CONTINUOUS
 62
    3
 10
1537.4604746743428
 20
1128.5336586827314
 11
1537.4604746743428
 21
1129.7336586827312
  0
LINE
  8
_0-1_計細線
  6
CONTINUOUS
 62
    3
 10
1551.4604746743428
 20
1128.5336586827314
 11
1551.4604746743428
 21
1129.7336586827312
  0
LINE
  8
_0-1_計細線
  6
CONTINUOUS
 62
    3
 10
1519.4604746743428
 20
1252.933658682731
 11
1554.4604746743428
 21
1252.933658682731
  0
LINE
  8
_0-1_計細線
  6
CONTINUOUS
 62
    3
 10
1554.4604746743428
 20
1252.933658682731
 11
1554.4604746743428
 21
1251.7336586827312
  0
LINE
  8
_0-1_計細線
  6
CONTINUOUS
 62
    3
 10
1554.4604746743428
 20
1251.7336586827312
 11
1519.4604746743428
 21
1251.7336586827312
  0
LINE
  8
_0-1_計細線
  6
CONTINUOUS
 62
    3
 10
1519.4604746743428
 20
1251.7336586827312
 11
1519.4604746743428
 21
1252.933658682731
  0
LINE
  8
_0-1_計細線
  6
CONTINUOUS
 62
    3
 10
1521.4604746743428
 20
1251.7336586827312
 11
1521.4604746743428
 21
1252.933658682731
  0
LINE
  8
_0-1_計細線
  6
CONTINUOUS
 62
    3
 10
1531.4604746743428
 20
1251.7336586827312
 11
1531.4604746743428
 21
1252.933658682731
  0
LINE
  8
_0-1_計細線
  6
CONTINUOUS
 62
    3
 10
1533.4604746743428
 20
1251.7336586827312
 11
1533.4604746743428
 21
1252.933658682731
  0
LINE
  8
_0-1_計細線
  6
CONTINUOUS
 62
    3
 10
1535.4604746743428
 20
1251.7336586827312
 11
1535.4604746743428
 21
1252.933658682731
  0
LINE
  8
_0-1_計細線
  6
CONTINUOUS
 62
    3
 10
1537.4604746743428
 20
1251.7336586827312
 11
1537.4604746743428
 21
1252.933658682731
  0
LINE
  8
_0-1_計細線
  6
CONTINUOUS
 62
    3
 10
1551.4604746743428
 20
1251.7336586827312
 11
1551.4604746743428
 21
1252.933658682731
  0
LINE
  8
_0-1_計細線
  6
CONTINUOUS
 62
    3
 10
1531.4604746743428
 20
1251.7336586827312
 11
1531.4604746743428
 21
1129.7336586827312
  0
LINE
  8
_0-1_計細線
  6
CONTINUOUS
 62
    3
 10
1439.4604746743428
 20
1251.7336586827312
 11
1531.4604746743428
 21
1251.7336586827312
  0
LINE
  8
_0-1_計細線
  6
CONTINUOUS
 62
    3
 10
1531.4604746743428
 20
1129.7336586827312
 11
1439.4604746743423
 21
1129.7336586827312
  0
LINE
  8
_0-1_計細線
  6
CONTINUOUS
 62
    3
 10
1535.4604746743428
 20
1241.7336586827312
 11
1535.4604746743428
 21
1190.7336586827312
  0
ARC
  8
_0-1_計細線
  6
CONTINUOUS
 62
    3
 10
1531.9604746743428
 20
1249.7336586827312
 40
0.5
 50
179.99999999999983
 51
269.99999999999977
  0
LINE
  8
_0-1_計細線
  6
CONTINUOUS
 62
    3
 10
1535.4604746743428
 20
1247.7336586827312
 11
1535.4604746743428
 21
1241.7336586827312
  0
LINE
  8
_0-1_計細線
  6
CONTINUOUS
 62
    3
 10
1531.9604746743428
 20
1249.2336586827312
 11
1533.9604746743428
 21
1249.2336586827312
  0
ARC
  8
_0-1_計細線
  6
CONTINUOUS
 62
    3
 10
1533.9604746743428
 20
1247.7336586827312
 40
1.5
 50
0
 51
89.999999999999915
  0
LINE
  8
_0-1_計細線
  6
CONTINUOUS
 62
    3
 10
1535.4604746743428
 20
1139.7336586827312
 11
1535.4604746743428
 21
1190.7336586827312
  0
ARC
  8
_0-1_計細線
  6
CONTINUOUS
 62
    3
 10
1531.9604746743428
 20
1131.7336586827312
 40
0.5
 50
89.999999999999915
 51
179.99999999999983
  0
LINE
  8
_0-1_計細線
  6
CONTINUOUS
 62
    3
 10
1535.4604746743428
 20
1133.7336586827312
 11
1535.4604746743428
 21
1139.7336586827312
  0
LINE
  8
_0-1_計細線
  6
CONTINUOUS
 62
    3
 10
1531.9604746743428
 20
1132.2336586827312
 11
1533.9604746743428
 21
1132.2336586827312
  0
ARC
  8
_0-1_計細線
  6
CONTINUOUS
 62
    3
 10
1533.9604746743428
 20
1133.7336586827312
 40
1.5
 50
269.99999999999977
 51
359.99999999999966
  0
LINE
  8
_0-5_寸法線
  6
CONTINUOUS
 62
    7
 10
357.46047467434255
 20
894.73365868273117
 11
357.46047467434255
 21
966.73365868273117
  0
LINE
  8
_0-5_寸法線
  6
CONTINUOUS
 62
    7
 10
357.46047467434255
 20
958.73365868273117
 11
372.91528789496761
 21
962.87476340437149
  0
LINE
  8
_0-5_寸法線
  6
CONTINUOUS
 62
    7
 10
357.46047467434255
 20
958.73365868273117
 11
372.91528789496761
 21
954.59255396109086
  0
LINE
  8
_0-5_寸法線
  6
CONTINUOUS
 62
    7
 10
392.46047467434255
 20
894.73365868273117
 11
392.46047467434255
 21
966.73365868273117
  0
LINE
  8
_0-5_寸法線
  6
CONTINUOUS
 62
    7
 10
392.46047467434255
 20
958.73365868273117
 11
377.00566145371749
 21
954.59255396109086
  0
LINE
  8
_0-5_寸法線
  6
CONTINUOUS
 62
    7
 10
392.46047467434255
 20
958.73365868273117
 11
377.00566145371749
 21
962.87476340437161
  0
LINE
  8
_0-5_寸法線
  6
CONTINUOUS
 62
    7
 10
357.46047467434255
 20
958.73365868273117
 11
392.46047467434255
 21
958.73365868273117
  0
TEXT
  8
_0-5_寸法線
 62
    7
 10
362.96047467434255
 20
958.73365868273117
 40
24
 41
1
 50
0
  1
35
  0
LINE
  8
_0-5_寸法線
  6
CONTINUOUS
 62
    7
 10
392.46047467434255
 20
958.73365868273117
 11
407.91528789496761
 21
962.87476340437138
  0
LINE
  8
_0-5_寸法線
  6
CONTINUOUS
 62
    7
 10
392.46047467434255
 20
958.73365868273117
 11
407.91528789496761
 21
954.59255396109074
  0
LINE
  8
_0-5_寸法線
  6
CONTINUOUS
 62
    7
 10
1316.4604746743425
 20
894.73365868273117
 11
1316.4604746743425
 21
966.73365868273117
  0
LINE
  8
_0-5_寸法線
  6
CONTINUOUS
 62
    7
 10
1316.4604746743425
 20
958.73365868273117
 11
1301.0056614537175
 21
954.59255396109086
  0
LINE
  8
_0-5_寸法線
  6
CONTINUOUS
 62
    7
 10
1316.4604746743425
 20
958.73365868273117
 11
1301.0056614537175
 21
962.87476340437161
  0
LINE
  8
_0-5_寸法線
  6
CONTINUOUS
 62
    7
 10
392.46047467434255
 20
958.73365868273117
 11
1316.4604746743425
 21
958.73365868273117
  0
TEXT
  8
_0-5_寸法線
 62
    7
 10
794.46047467434255
 20
958.73365868273117
 40
24
 41
1
 50
0
  1
Ｄ＝Ｎ×Ｅ
  0
LINE
  8
_0-5_寸法線
  6
CONTINUOUS
 62
    7
 10
1316.4604746743425
 20
958.73365868273117
 11
1331.9152878949676
 21
962.87476340437138
  0
LINE
  8
_0-5_寸法線
  6
CONTINUOUS
 62
    7
 10
1316.4604746743425
 20
958.73365868273117
 11
1331.9152878949676
 21
954.59255396109074
  0
LINE
  8
_0-5_寸法線
  6
CONTINUOUS
 62
    7
 10
1351.4604746743425
 20
894.73365868273117
 11
1351.4604746743425
 21
966.73365868273117
  0
LINE
  8
_0-5_寸法線
  6
CONTINUOUS
 62
    7
 10
1351.4604746743425
 20
958.73365868273117
 11
1336.0056614537175
 21
954.59255396109086
  0
LINE
  8
_0-5_寸法線
  6
CONTINUOUS
 62
    7
 10
1351.4604746743425
 20
958.73365868273117
 11
1336.0056614537175
 21
962.87476340437161
  0
LINE
  8
_0-5_寸法線
  6
CONTINUOUS
 62
    7
 10
1316.4604746743425
 20
958.73365868273117
 11
1351.4604746743425
 21
958.73365868273117
  0
TEXT
  8
_0-5_寸法線
 62
    7
 10
1321.9604746743425
 20
958.73365868273117
 40
24
 41
1
 50
0
  1
35
  0
LINE
  8
_0-1_計細線
  6
CONTINUOUS
 62
    3
 10
1271.4604746743423
 20
778.73365868273129
 11
1196.4604743681909
 21
778.73365868273129
  0
LINE
  8
_0-1_計細線
  6
CONTINUOUS
 62
    3
 10
357.46047467434209
 20
870.73365868273129
 11
1271.4604746743423
 21
870.73365868273129
  0
LINE
  8
_0-1_計細線
  6
CONTINUOUS
 62
    3
 10
368.46047467434209
 20
798.73365868273129
 11
368.46047467434209
 21
870.73365868273129
  0
LINE
  8
_0-1_計細線
  6
CONTINUOUS
 62
    3
 10
1271.4604746743423
 20
858.73365868273129
 11
1337.9604746743423
 21
858.73365868273129
  0
LINE
  8
_0-1_計細線
  6
CONTINUOUS
 62
    3
 10
1271.4604746743423
 20
874.83365868273142
 11
1337.9604746743423
 21
874.83365868273142
  0
LINE
  8
_0-1_計細線
  6
CONTINUOUS
 62
    3
 10
1337.9604746743423
 20
878.73365868273129
 11
1337.9604746743423
 21
858.73365868273129
  0
LINE
  8
_0-0_計極細
  6
CONTINUOUS
 62
    2
 10
1271.4604746743423
 20
877.63365868273138
 11
1337.9604746743423
 21
877.63365868273138
  0
LINE
  8
_0-1_計細線
  6
CONTINUOUS
 62
    3
 10
384.46047482742279
 20
798.3471852489389
 11
368.46047467434209
 21
798.73365868273129
  0
LINE
  8
_0-5_寸法線
  6
CONTINUOUS
 62
    7
 10
392.46047467434209
 20
775.14134966119298
 11
401.18576209467847
 21
761.72981136640658
  0
LINE
  8
_0-5_寸法線
  6
CONTINUOUS
 62
    7
 10
392.46047467434209
 20
775.14134966119298
 11
393.31102608828087
 21
759.16397308391197
  0
LINE
  8
_0-5_寸法線
  6
CONTINUOUS
 62
    7
 10
392.46047467434209
 20
775.14134966119298
 11
405.60102797901482
 21
734.8120783434041
  0
LINE
  8
_0-5_寸法線
  6
CONTINUOUS
 62
    7
 10
405.60102797901482
 20
734.8120783434041
 11
482.40102797901488
 21
734.8120783434041
  0
TEXT
  8
_0-5_寸法線
 62
    7
 10
405.60102797901482
 20
734.8120783434041
 40
24
 41
0.8000000000000001
 50
0
  1
アンカー
  0
LINE
  8
_0-1_計細線
  6
CONTINUOUS
 62
    3
 10
846.46047482742301
 20
787.18776495495774
 11
400.2840970126058
 21
797.96497215253714
  0
LINE
  8
_0-1_計細線
  6
CONTINUOUS
 62
    3
 10
1196.4604743681909
 20
778.73365868273129
 11
862.2717952795208
 21
786.80584900186739
  0
LINE
  8
_0-1_計細線
  6
CONTINUOUS
 62
    3
 10
386.46047482742279
 20
810.14134966119298
 11
384.46047482742279
 21
808.14134966119298
  0
LINE
  8
_0-1_計細線
  6
CONTINUOUS
 62
    3
 10
384.46047482742279
 20
798.14134966119298
 11
384.46047482742279
 21
808.14134966119298
  0
LINE
  8
_0-1_計細線
  6
CONTINUOUS
 62
    3
 10
400.4604745212614
 20
798.14134966119298
 11
400.4604745212614
 21
808.14134966119298
  0
LINE
  8
_0-1_計細線
  6
CONTINUOUS
 62
    3
 10
386.46047482742279
 20
794.14134966119298
 11
384.46047482742279
 21
792.14134966119298
  0
LINE
  8
_0-1_計細線
  6
CONTINUOUS
 62
    3
 10
386.46047482742279
 20
796.14134966119298
 11
386.46047482742279
 21
794.14134966119298
  0
LINE
  8
_0-1_計細線
  6
CONTINUOUS
 62
    3
 10
384.46047482742279
 20
798.14134966119298
 11
386.46047482742279
 21
796.14134966119298
  0
LINE
  8
_0-1_計細線
  6
CONTINUOUS
 62
    3
 10
398.4604745212614
 20
794.14134966119298
 11
400.4604745212614
 21
792.14134966119298
  0
LINE
  8
_0-1_計細線
  6
CONTINUOUS
 62
    3
 10
398.4604745212614
 20
796.14134966119298
 11
398.4604745212614
 21
794.14134966119298
  0
LINE
  8
_0-1_計細線
  6
CONTINUOUS
 62
    3
 10
400.4604745212614
 20
798.14134966119298
 11
398.4604745212614
 21
796.14134966119298
  0
LINE
  8
_0-1_計細線
  6
CONTINUOUS
 62
    3
 10
384.46047482742279
 20
792.14134966119298
 11
384.46047482742279
 21
778.14134966119298
  0
ARC
  8
_0-1_計細線
  6
CONTINUOUS
 62
    3
 10
387.46047482742279
 20
778.14134966119298
 40
3
 50
179.99999999999983
 51
269.99999999999977
  0
LINE
  8
_0-1_計細線
  6
CONTINUOUS
 62
    3
 10
387.46047482742279
 20
775.14134966119298
 11
397.4604745212614
 21
775.14134966119298
  0
LINE
  8
_0-1_計細線
  6
CONTINUOUS
 62
    3
 10
400.4604745212614
 20
792.14134966119298
 11
400.4604745212614
 21
778.14134966119298
  0
ARC
  8
_0-1_計細線
  6
CONTINUOUS
 62
    3
 10
397.4604745212614
 20
778.14134966119298
 40
3
 50
269.99999999999977
 51
359.99999999999966
  0
LINE
  8
_0-1_計細線
  6
CONTINUOUS
 62
    3
 10
386.46047482742279
 20
810.14134966119298
 11
398.4604745212614
 21
810.14134966119298
  0
LINE
  8
_0-1_計細線
  6
CONTINUOUS
 62
    3
 10
400.4604745212614
 20
808.14134966119298
 11
398.4604745212614
 21
810.14134966119298
  0
LINE
  8
_0-0_計極細
  6
CENTER1
 62
    2
 10
392.46047467434209
 20
770.35846793545409
 11
392.46047467434209
 21
815.41216801299186
  0
LINE
  8
_0-1_計細線
  6
CONTINUOUS
 62
    3
 10
848.46047482742301
 20
798.99452824360822
 11
846.46047482742301
 21
796.99452824360822
  0
LINE
  8
_0-1_計細線
  6
CONTINUOUS
 62
    3
 10
846.46047482742301
 20
786.99452824360822
 11
846.46047482742301
 21
796.99452824360822
  0
LINE
  8
_0-1_計細線
  6
CONTINUOUS
 62
    3
 10
862.46047452126163
 20
786.99452824360822
 11
862.46047452126163
 21
796.99452824360822
  0
LINE
  8
_0-1_計細線
  6
CONTINUOUS
 62
    3
 10
848.46047482742301
 20
782.99452824360822
 11
846.46047482742301
 21
780.99452824360822
  0
LINE
  8
_0-1_計細線
  6
CONTINUOUS
 62
    3
 10
848.46047482742301
 20
784.99452824360822
 11
848.46047482742301
 21
782.99452824360822
  0
LINE
  8
_0-1_計細線
  6
CONTINUOUS
 62
    3
 10
846.46047482742301
 20
786.99452824360822
 11
848.46047482742301
 21
784.99452824360822
  0
LINE
  8
_0-1_計細線
  6
CONTINUOUS
 62
    3
 10
860.46047452126163
 20
782.99452824360822
 11
862.46047452126163
 21
780.99452824360822
  0
LINE
  8
_0-1_計細線
  6
CONTINUOUS
 62
    3
 10
860.46047452126163
 20
784.99452824360822
 11
860.46047452126163
 21
782.99452824360822
  0
LINE
  8
_0-1_計細線
  6
CONTINUOUS
 62
    3
 10
862.46047452126163
 20
786.99452824360822
 11
860.46047452126163
 21
784.99452824360822
  0
LINE
  8
_0-1_計細線
  6
CONTINUOUS
 62
    3
 10
846.46047482742301
 20
780.99452824360822
 11
846.46047482742301
 21
766.99452824360822
  0
ARC
  8
_0-1_計細線
  6
CONTINUOUS
 62
    3
 10
849.46047482742301
 20
766.99452824360822
 40
3
 50
179.99999999999983
 51
269.99999999999977
  0
LINE
  8
_0-1_計細線
  6
CONTINUOUS
 62
    3
 10
849.46047482742301
 20
763.99452824360822
 11
859.46047452126163
 21
763.99452824360822
  0
LINE
  8
_0-1_計細線
  6
CONTINUOUS
 62
    3
 10
862.46047452126163
 20
780.99452824360822
 11
862.46047452126163
 21
766.99452824360822
  0
ARC
  8
_0-1_計細線
  6
CONTINUOUS
 62
    3
 10
859.46047452126163
 20
766.99452824360822
 40
3
 50
269.99999999999977
 51
359.99999999999966
  0
LINE
  8
_0-1_計細線
  6
CONTINUOUS
 62
    3
 10
848.46047482742301
 20
798.99452824360822
 11
860.46047452126163
 21
798.99452824360822
  0
LINE
  8
_0-1_計細線
  6
CONTINUOUS
 62
    3
 10
862.46047452126163
 20
796.99452824360822
 11
860.46047452126163
 21
798.99452824360822
  0
LINE
  8
_0-0_計極細
  6
CENTER1
 62
    2
 10
854.46047467434232
 20
759.2116465178691
 11
854.46047467434232
 21
804.2653465954071
  0
LINE
  8
_0-1_計細線
  6
DASHED2
 62
    3
 10
1324.4604745212616
 20
788.73365868273129
 11
1322.4604745212616
 21
790.73365868273129
  0
LINE
  8
_0-1_計細線
  6
DASHED2
 62
    3
 10
1310.460474827423
 20
790.73365868273129
 11
1322.4604745212616
 21
790.73365868273129
  0
ARC
  8
_0-1_計細線
  6
DASHED2
 62
    3
 10
1321.4604745212616
 20
758.73365868273129
 40
3
 50
269.99999999999977
 51
359.99999999999966
  0
LINE
  8
_0-1_計細線
  6
DASHED2
 62
    3
 10
1324.4604745212616
 20
772.73365868273129
 11
1324.4604745212616
 21
758.73365868273129
  0
LINE
  8
_0-1_計細線
  6
DASHED2
 62
    3
 10
1311.460474827423
 20
755.73365868273129
 11
1321.4604745212616
 21
755.73365868273129
  0
ARC
  8
_0-1_計細線
  6
DASHED2
 62
    3
 10
1311.460474827423
 20
758.73365868273129
 40
3
 50
179.99999999999983
 51
269.99999999999977
  0
LINE
  8
_0-1_計細線
  6
DASHED2
 62
    3
 10
1308.460474827423
 20
772.73365868273129
 11
1308.460474827423
 21
758.73365868273129
  0
LINE
  8
_0-1_計細線
  6
DASHED2
 62
    3
 10
1324.4604745212616
 20
778.73365868273129
 11
1322.4604745212616
 21
776.73365868273129
  0
LINE
  8
_0-1_計細線
  6
DASHED2
 62
    3
 10
1322.4604745212616
 20
776.73365868273129
 11
1322.4604745212616
 21
774.73365868273129
  0
LINE
  8
_0-1_計細線
  6
DASHED2
 62
    3
 10
1322.4604745212616
 20
774.73365868273129
 11
1324.4604745212616
 21
772.73365868273129
  0
LINE
  8
_0-1_計細線
  6
DASHED2
 62
    3
 10
1308.460474827423
 20
778.73365868273129
 11
1310.460474827423
 21
776.73365868273129
  0
LINE
  8
_0-1_計細線
  6
DASHED2
 62
    3
 10
1310.460474827423
 20
776.73365868273129
 11
1310.460474827423
 21
774.73365868273129
  0
LINE
  8
_0-1_計細線
  6
DASHED2
 62
    3
 10
1310.460474827423
 20
774.73365868273129
 11
1308.460474827423
 21
772.73365868273129
  0
LINE
  8
_0-1_計細線
  6
DASHED2
 62
    3
 10
1324.4604745212616
 20
778.73365868273129
 11
1324.4604745212616
 21
788.73365868273129
  0
LINE
  8
_0-1_計細線
  6
DASHED2
 62
    3
 10
1308.460474827423
 20
778.73365868273129
 11
1308.460474827423
 21
788.73365868273129
  0
LINE
  8
_0-1_計細線
  6
DASHED2
 62
    3
 10
1310.460474827423
 20
790.73365868273129
 11
1308.460474827423
 21
788.73365868273129
  0
LINE
  8
_0-0_計極細
  6
DASHED2
 62
    2
 10
1316.4604746743423
 20
750.9507769569924
 11
1316.4604746743423
 21
796.00447703453017
  0
ARC
  8
_0-1_計細線
  6
CONTINUOUS
 62
    3
 10
1330.4604746743423
 20
778.23365868273129
 40
1.5
 50
89.999999999999915
 51
179.99999999999983
  0
LINE
  8
_0-1_計細線
  6
CONTINUOUS
 62
    3
 10
1328.9604746743423
 20
778.23365868273129
 11
1328.9604746743423
 21
776.23365868273129
  0
ARC
  8
_0-1_計細線
  6
CONTINUOUS
 62
    3
 10
1328.4604746743423
 20
776.23365868273129
 40
1.5
 50
269.99999999999977
 51
359.99999999999966
  0
LINE
  8
_0-1_計細線
  6
CONTINUOUS
 62
    3
 10
1329.9604746743423
 20
778.23365868273129
 11
1329.9604746743423
 21
776.23365868273129
  0
ARC
  8
_0-1_計細線
  6
CONTINUOUS
 62
    3
 10
1330.4604746743423
 20
778.23365868273129
 40
0.5
 50
89.999999999999915
 51
179.99999999999983
  0
LINE
  8
_0-1_計細線
  6
CONTINUOUS
 62
    3
 10
1339.4604746743423
 20
778.73365868273129
 11
1330.4604746743423
 21
778.73365868273129
  0
ARC
  8
_0-1_計細線
  6
CONTINUOUS
 62
    3
 10
1328.4604746743423
 20
776.23365868273129
 40
0.5
 50
269.99999999999977
 51
359.99999999999966
  0
LINE
  8
_0-1_計細線
  6
CONTINUOUS
 62
    3
 10
1339.4604746743423
 20
779.73365868273129
 11
1330.4604746743423
 21
779.73365868273129
  0
ARC
  8
_0-1_計細線
  6
CONTINUOUS
 62
    3
 10
1339.4604746743423
 20
779.73365868273129
 40
1
 50
269.99999999999977
 51
359.99999999999966
  0
LINE
  8
_0-1_計細線
  6
CONTINUOUS
 62
    3
 10
1340.4604746743423
 20
877.73365868273129
 11
1340.4604746743423
 21
779.73365868273129
  0
LINE
  8
_0-1_計細線
  6
CONTINUOUS
 62
    3
 10
1339.4604746743423
 20
877.73365868273129
 11
1339.4604746743423
 21
779.73365868273129
  0
ARC
  8
_0-1_計細線
  6
CONTINUOUS
 62
    3
 10
1340.4604746743423
 20
877.73365868273129
 40
1
 50
89.999999999999915
 51
179.99999999999983
  0
LINE
  8
_0-1_計細線
  6
CONTINUOUS
 62
    3
 10
1350.4604746743423
 20
878.73365868273129
 11
1340.4604746743423
 21
878.73365868273129
  0
ARC
  8
_0-1_計細線
  6
CONTINUOUS
 62
    3
 10
1350.4604746743423
 20
877.73365868273129
 40
1
 50
0
 51
89.999999999999915
  0
LINE
  8
_0-1_計細線
  6
CONTINUOUS
 62
    3
 10
1351.4604746743423
 20
870.73365868273129
 11
1351.4604746743423
 21
877.73365868273129
  0
LINE
  8
_0-1_計細線
  6
CONTINUOUS
 62
    3
 10
1350.4604746743423
 20
870.73365868273129
 11
1351.4604746743423
 21
870.73365868273129
  0
LINE
  8
_0-1_計細線
  6
CONTINUOUS
 62
    3
 10
1350.4604746743423
 20
877.73365868273129
 11
1340.4604746743423
 21
877.73365868273129
  0
LINE
  8
_0-1_計細線
  6
CONTINUOUS
 62
    3
 10
1350.4604746743423
 20
870.73365868273129
 11
1350.4604746743423
 21
877.73365868273129
  0
LINE
  8
_0-1_計細線
  6
CONTINUOUS
 62
    3
 10
357.46047467434209
 20
870.73365868273129
 11
357.46047467434209
 21
877.73365868273129
  0
LINE
  8
_0-1_計細線
  6
CONTINUOUS
 62
    3
 10
1340.4604746743423
 20
878.73365868273129
 11
358.46047467434209
 21
878.73365868273129
  0
ARC
  8
_0-1_計細線
  6
CONTINUOUS
 62
    3
 10
358.46047467434209
 20
877.73365868273129
 40
1
 50
89.999999999999915
 51
179.99999999999983
  0
LINE
  8
_0-5_寸法線
  6
CONTINUOUS
 62
    7
 10
352.46047467434209
 20
798.73365868273129
 11
269.46047467434209
 21
798.73365868273152
  0
LINE
  8
_0-5_寸法線
  6
CONTINUOUS
 62
    7
 10
277.46047467434209
 20
798.73365868273152
 11
273.31936995270178
 21
814.18847190335657
  0
LINE
  8
_0-5_寸法線
  6
CONTINUOUS
 62
    7
 10
277.46047467434209
 20
798.73365868273152
 11
281.60157939598253
 21
814.18847190335657
  0
LINE
  8
_0-5_寸法線
  6
CONTINUOUS
 62
    7
 10
341.46047467434209
 20
878.73365868273129
 11
269.46047467434209
 21
878.73365868273152
  0
LINE
  8
_0-5_寸法線
  6
CONTINUOUS
 62
    7
 10
277.46047467434209
 20
878.73365868273152
 11
281.60157939598253
 21
863.27884546210646
  0
LINE
  8
_0-5_寸法線
  6
CONTINUOUS
 62
    7
 10
277.46047467434209
 20
878.73365868273152
 11
273.31936995270178
 21
863.27884546210646
  0
LINE
  8
_0-5_寸法線
  6
CONTINUOUS
 62
    7
 10
277.46047467434209
 20
798.73365868273152
 11
277.46047467434209
 21
878.73365868273152
  0
TEXT
  8
_0-5_寸法線
 62
    7
 10
277.46047467434209
 20
826.73365868273186
 40
24
 41
1
 50
90
  1
80
  0
LINE
  8
_0-1_計細線
  6
CONTINUOUS
 62
    3
 10
1320.9298586743423
 20
719.28547468273234
 11
1320.9298586743423
 21
749.51230668273274
  0
LINE
  8
_0-1_計細線
  6
CONTINUOUS
 62
    3
 10
1320.9298586743423
 20
719.28547468273234
 11
1356.6849626743422
 21
718.40384268273181
  0
LINE
  8
_0-1_計細線
  6
CONTINUOUS
 62
    3
 10
1356.6849626743422
 20
664.52629068273188
 11
1356.6849626743422
 21
718.40384268273181
  0
LINE
  8
_0-1_計細線
  6
CONTINUOUS
 62
    3
 10
1320.9298586743423
 20
663.64465868273135
 11
1356.6849626743422
 21
664.52629068273188
  0
LINE
  8
_0-1_計細線
  6
CONTINUOUS
 62
    3
 10
1229.8278186743416
 20
663.64465868273135
 11
1320.9298586743423
 21
663.64465868273135
  0
ARC
  8
_0-1_計細線
  6
CONTINUOUS
 62
    3
 10
1229.8278186743416
 20
671.48139468273246
 40
7.8367360000000001
 50
179.99999999999983
 51
269.99999999999977
  0
LINE
  8
_0-1_計細線
  6
CONTINUOUS
 62
    3
 10
1221.9910826743414
 20
671.48139468273246
 11
1221.9910826743414
 21
749.51230668273274
  0
LINE
  8
_0-1_計細線
  6
CONTINUOUS
 62
    3
 10
1271.4604746743423
 20
753.75406668273172
 11
1219.5421066743418
 21
753.75406668273172
  0
LINE
  8
_0-1_計細線
  6
CONTINUOUS
 62
    3
 10
1271.4604746743423
 20
749.51230668273274
 11
1221.9910826743414
 21
749.51230668273274
  0
ARC
  8
_0-1_計細線
  6
CONTINUOUS
 62
    3
 10
1217.0931226743412
 20
749.51230668273274
 40
4.8979599999999994
 50
0
 51
59.999999999998458
  0
LINE
  8
_0-1_計細線
  6
CONTINUOUS
 62
    3
 10
1219.5421066743418
 20
753.75406668273172
 11
1219.5421066743418
 21
771.3867146827323
  0
LINE
  8
_0-1_計細線
  6
CONTINUOUS
 62
    3
 10
1215.7216986743422
 20
771.3867146827323
 11
1215.7216986743422
 21
775.30508268273104
  0
LINE
  8
_0-1_計細線
  6
CONTINUOUS
 62
    3
 10
1271.4604746743423
 20
771.3867146827323
 11
1215.7216986743422
 21
771.3867146827323
  0
LINE
  8
_0-1_計細線
  6
CONTINUOUS
 62
    3
 10
1214.6441466743415
 20
775.30508268273104
 11
1271.4604746743423
 21
775.30508268273104
  0
LINE
  8
_0-1_計細線
  6
CONTINUOUS
 62
    3
 10
1214.6441466743415
 20
775.30508268273104
 11
1214.6441466743415
 21
778.73365868273129
  0
LINE
  8
_0-1_計細線
  6
CONTINUOUS
 62
    3
 10
1327.1992506743425
 20
761.59080268273283
 11
1327.1992506743425
 21
777.63512268273178
  0
LINE
  8
_0-1_計細線
  6
CONTINUOUS
 62
    3
 10
1323.378842674342
 20
761.59080268273283
 11
1327.1992506743425
 21
761.59080268273283
  0
ARC
  8
_0-1_計細線
  6
CONTINUOUS
 62
    3
 10
1325.8278186743416
 20
749.51230668273274
 40
4.8979599999999994
 50
120.00000000000155
 51
179.99999999999983
  0
LINE
  8
_0-1_計細線
  6
CONTINUOUS
 62
    3
 10
1323.378842674342
 20
753.75406668273172
 11
1323.378842674342
 21
761.59080268273283
  0
LINE
  8
_0-0_計極細
  6
CONTINUOUS
 62
    2
 10
1318.970674674342
 20
756.69284268273259
 11
1318.970674674342
 21
759.5405786827323
  0
LINE
  8
_0-0_計極細
  6
CONTINUOUS
 62
    2
 10
1320.4194906743421
 20
755.9091706827312
 11
1318.970674674342
 21
756.69284268273259
  0
LINE
  8
_0-0_計極細
  6
CONTINUOUS
 62
    2
 10
1271.4604746743423
 20
755.9091706827312
 11
1295.9502586743417
 21
755.9091706827312
  0
LINE
  8
_0-0_計極細
  6
CONTINUOUS
 62
    2
 10
1309.909450674342
 20
693.99896268273176
 11
1309.909450674342
 21
720.44793868273143
  0
LINE
  8
_0-0_計極細
  6
CONTINUOUS
 62
    2
 10
1298.1543466743422
 20
682.24385868273191
 11
1295.9502666743417
 21
682.24385868273191
  0
ARC
  8
_0-0_計極細
  6
CONTINUOUS
 62
    2
 10
1298.1543466743422
 20
693.99896268273176
 40
11.755103999999999
 50
269.99999999999977
 51
359.99999999999966
  0
LINE
  8
_0-0_計極細
  6
CONTINUOUS
 62
    2
 10
1318.4808826743417
 20
727.37137868273192
 11
1318.4808826743417
 21
755.9091706827312
  0
LINE
  8
_0-0_計極細
  6
CONTINUOUS
 62
    2
 10
1327.1992506743425
 20
775.30508268273104
 11
1320.4194906743421
 21
774.52141068273147
  0
LINE
  8
_0-0_計極細
  6
CONTINUOUS
 62
    2
 10
1271.4604746743414
 20
682.24385868273191
 11
1298.1543466743422
 21
682.24385868273191
  0
LINE
  8
_0-0_計極細
  6
CONTINUOUS
 62
    2
 10
1309.909450674342
 20
693.99896268273176
 11
1309.909450674342
 21
749.83569868273116
  0
LINE
  8
_0-0_計極細
  6
CONTINUOUS
 62
    2
 10
1307.9502666743417
 20
693.99896268273176
 11
1307.9502666743417
 21
749.83569868273116
  0
LINE
  8
_0-0_計極細
  6
CONTINUOUS
 62
    2
 10
1271.4604746743423
 20
684.20304268273128
 11
1298.1543466743422
 21
684.20304268273128
  0
ARC
  8
_0-0_計極細
  6
CONTINUOUS
 62
    2
 10
1298.1543466743422
 20
693.99896268273176
 40
9.7959199999999989
 50
269.99999999999977
 51
359.99999999999966
  0
ARC
  8
_0-0_計極細
  6
CONTINUOUS
 62
    2
 10
1308.9298586743423
 20
749.83569868273116
 40
0.979592
 50
0
 51
89.999999999999915
  0
ARC
  8
_0-0_計極細
  6
CONTINUOUS
 62
    2
 10
1308.9298586743423
 20
749.83569868273116
 40
0.979592
 50
89.999999999999915
 51
179.99999999999983
  0
LINE
  8
_0-0_計極細
  6
CONTINUOUS
 62
    2
 10
1308.9298586743423
 20
750.81529068273267
 11
1297.9094506743411
 21
750.81529068273267
  0
LINE
  8
_0-0_計極細
  6
CONTINUOUS
 62
    2
 10
1298.4552426743419
 20
759.5405786827323
 11
1308.1935066743424
 21
759.5405786827323
  0
LINE
  8
_0-0_計極細
  6
CONTINUOUS
 62
    2
 10
1271.4604746743423
 20
777.66302668273227
 11
1327.1992506743425
 21
777.66302668273227
  0
LINE
  8
_0-0_計極細
  6
CONTINUOUS
 62
    2
 10
1271.4604746743423
 20
776.68343468273258
 11
1320.4194906743421
 21
776.68343468273258
  0
LINE
  8
_0-0_計極細
  6
CONTINUOUS
 62
    2
 10
1310.8890426743417
 20
763.45894668273286
 11
1314.8563866743423
 21
763.45894668273286
  0
LINE
  8
_0-0_計極細
  6
CONTINUOUS
 62
    2
 10
1317.7375866743421
 20
774.23445068273202
 11
1316.5706746743424
 21
774.23445068273202
  0
LINE
  8
_0-0_計極細
  6
CONTINUOUS
 62
    2
 10
1314.8563866743423
 20
762.18547468273209
 11
1314.8563866743423
 21
772.52017068273187
  0
ARC
  8
_0-0_計極細
  6
CONTINUOUS
 62
    2
 10
1316.5706746743424
 20
772.52017068273187
 40
1.714288
 50
89.999999999999915
 51
179.99999999999983
  0
ARC
  8
_0-0_計極細
  6
CONTINUOUS
 62
    2
 10
1320.4194906743421
 20
774.96914668273155
 40
1.714288
 50
89.999999999999915
 51
175.84900999999962
  0
ARC
  8
_0-0_計極細
  6
CONTINUOUS
 62
    2
 10
1317.7375866743421
 20
775.2140426827317
 40
0.979592
 50
269.99999999999977
 51
356.64911199998573
  0
LINE
  8
_0-0_計極細
  6
CONTINUOUS
 62
    2
 10
1320.4194906743421
 20
776.68343468273258
 11
1327.2972026743425
 21
777.66302668273227
  0
LINE
  8
_0-0_計極細
  6
CONTINUOUS
 62
    2
 10
1320.5161786743427
 20
776.00457068273124
 11
1327.1992506743425
 21
776.9564426827327
  0
ARC
  8
_0-0_計極細
  6
CONTINUOUS
 62
    2
 10
1320.4194906743421
 20
774.96914668273155
 40
1.0285679999999999
 50
89.999999999999915
 51
175.84900999999238
  0
ARC
  8
_0-0_計極細
  6
CONTINUOUS
 62
    2
 10
1317.7375866743421
 20
775.2140426827317
 40
1.6653040000000001
 50
269.99999999999977
 51
356.64911199999722
  0
LINE
  8
_0-0_計極細
  6
CONTINUOUS
 62
    2
 10
1317.7375866743421
 20
773.5487386827316
 11
1316.5706746743424
 21
773.5487386827316
  0
ARC
  8
_0-0_計極細
  6
CONTINUOUS
 62
    2
 10
1316.5706746743424
 20
772.52017068273187
 40
1.0285679999999999
 50
89.999999999999915
 51
179.99999999999983
  0
LINE
  8
_0-0_計極細
  6
CONTINUOUS
 62
    2
 10
1315.5421066743418
 20
761.49976268273167
 11
1315.5421066743418
 21
772.52017068273187
  0
LINE
  8
_0-0_計極細
  6
CONTINUOUS
 62
    2
 10
1320.4194906743421
 20
760.98939468273238
 11
1320.4194906743421
 21
775.99080268273235
  0
LINE
  8
_0-0_計極細
  6
CONTINUOUS
 62
    2
 10
1320.4194906743421
 20
760.98939468273238
 11
1318.970674674342
 21
759.5405786827323
  0
LINE
  8
_0-0_計極細
  6
CONTINUOUS
 62
    2
 10
1313.5829226743424
 20
757.58139468273293
 11
1313.5829226743424
 21
763.45894668273286
  0
LINE
  8
_0-0_計極細
  6
CONTINUOUS
 62
    2
 10
1311.378842674342
 20
759.63929868273226
 11
1311.378842674342
 21
763.45894668273286
  0
LINE
  8
_0-0_計極細
  6
CONTINUOUS
 62
    2
 10
1313.5829226743424
 20
761.49976268273167
 11
1315.5421066743418
 21
761.49976268273167
  0
LINE
  8
_0-0_計極細
  6
CONTINUOUS
 62
    2
 10
1313.5829226743424
 20
762.18547468273209
 11
1314.8563866743423
 21
762.18547468273209
  0
LINE
  8
_0-0_計極細
  6
CONTINUOUS
 62
    2
 10
1312.769682674342
 20
757.58139468273293
 11
1313.5829226743424
 21
757.58139468273293
  0
LINE
  8
_0-0_計極細
  6
CONTINUOUS
 62
    2
 10
1313.5829226743424
 20
759.5405786827323
 11
1318.970674674342
 21
759.5405786827323
  0
LINE
  8
_0-0_計極細
  6
CONTINUOUS
 62
    2
 10
1300.638898674342
 20
757.8752746827322
 11
1305.5368586743423
 21
757.8752746827322
  0
LINE
  8
_0-0_計極細
  6
CONTINUOUS
 62
    2
 10
1300.638898674342
 20
757.8752746827322
 11
1300.638898674342
 21
759.5405786827323
  0
LINE
  8
_0-0_計極細
  6
CONTINUOUS
 62
    2
 10
1305.5368586743423
 20
757.8752746827322
 11
1305.5368586743423
 21
759.5405786827323
  0
LINE
  8
_0-0_計極細
  6
CONTINUOUS
 62
    2
 10
1302.108290674342
 20
757.8752746827322
 11
1302.108290674342
 21
759.5405786827323
  0
LINE
  8
_0-0_計極細
  6
CONTINUOUS
 62
    2
 10
1314.8563866743423
 20
774.23445068273202
 11
1316.7665946743425
 21
774.23445068273202
  0
LINE
  8
_0-0_計極細
  6
CONTINUOUS
 62
    2
 10
1314.8563866743423
 20
771.29568268273204
 11
1314.8563866743423
 21
774.23445068273202
  0
LINE
  8
_0-0_計極細
  6
CONTINUOUS
 62
    2
 10
1313.7788426743425
 20
770.80588268273266
 11
1313.7788426743425
 21
771.78547468273234
  0
ARC
  8
_0-0_計極細
  6
CONTINUOUS
 62
    2
 10
1314.366594674342
 20
771.29568268273204
 40
0.489792
 50
269.99999999999977
 51
359.99999999999966
  0
LINE
  8
_0-0_計極細
  6
CONTINUOUS
 62
    2
 10
1271.6563866743425
 20
771.78547468273234
 11
1313.7788426743425
 21
771.78547468273234
  0
LINE
  8
_0-0_計極細
  6
CONTINUOUS
 62
    2
 10
1271.6563866743425
 20
770.80588268273266
 11
1314.366594674342
 21
770.80588268273266
  0
LINE
  8
_0-0_計極細
  6
CONTINUOUS
 62
    2
 10
1271.4604746743423
 20
769.73431468273145
 11
1314.7094506743422
 21
769.73431468273145
  0
LINE
  8
_0-0_計極細
  6
CONTINUOUS
 62
    2
 10
1310.3992506743423
 20
769.73431468273145
 11
1310.3992506743423
 21
769.24452268273114
  0
LINE
  8
_0-0_計極細
  6
CONTINUOUS
 62
    2
 10
1313.9257786743426
 20
768.26493068273146
 11
1314.7094506743422
 21
769.73431468273145
  0
LINE
  8
_0-0_計極細
  6
CONTINUOUS
 62
    2
 10
1309.909450674342
 20
766.50166668273232
 11
1310.3992506743423
 21
766.99145868273263
  0
LINE
  8
_0-0_計極細
  6
CONTINUOUS
 62
    2
 10
1310.3992506743423
 20
766.01186668273112
 11
1309.909450674342
 21
766.50166668273232
  0
LINE
  8
_0-0_計極細
  6
CONTINUOUS
 62
    2
 10
1310.3992506743423
 20
768.26493068273146
 11
1309.909450674342
 21
768.75472268273177
  0
LINE
  8
_0-0_計極細
  6
CONTINUOUS
 62
    2
 10
1309.909450674342
 20
768.75472268273177
 11
1310.3992506743423
 21
769.24452268273114
  0
LINE
  8
_0-0_計極細
  6
CONTINUOUS
 62
    2
 10
1271.4604746743423
 20
768.75472268273177
 11
1309.909450674342
 21
768.75472268273177
  0
LINE
  8
_0-0_計極細
  6
CONTINUOUS
 62
    2
 10
1271.4604746743423
 20
766.50166668273232
 11
1309.909450674342
 21
766.50166668273232
  0
LINE
  8
_0-0_計極細
  6
CONTINUOUS
 62
    2
 10
1271.4604746743423
 20
765.52207468273264
 11
1313.9257786743426
 21
765.52207468273264
  0
LINE
  8
_0-0_計極細
  6
CONTINUOUS
 62
    2
 10
1313.9257786743426
 20
768.26493068273146
 11
1313.9257786743426
 21
765.52207468273264
  0
LINE
  8
_0-0_計極細
  6
CONTINUOUS
 62
    2
 10
1310.3992506743423
 20
766.01186668273112
 11
1310.3992506743423
 21
765.52207468273264
  0
LINE
  8
_0-0_計極細
  6
CONTINUOUS
 62
    2
 10
1310.3992506743423
 20
768.26493068273146
 11
1310.3992506743423
 21
766.99145868273263
  0
LINE
  8
_0-0_計極細
  6
CONTINUOUS
 62
    2
 10
1296.9298586743423
 20
701.0597066827321
 11
1271.4604746743423
 21
701.0597066827321
  0
ARC
  8
_0-0_計極細
  6
CONTINUOUS
 62
    2
 10
1296.9298586743423
 20
702.03929868273178
 40
0.979592
 50
269.99999999999977
 51
359.99999999999966
  0
LINE
  8
_0-0_計極細
  6
CONTINUOUS
 62
    2
 10
1297.909450674342
 20
702.03929868273178
 11
1297.9094506743411
 21
757.06713068273166
  0
ARC
  8
_0-0_計極細
  6
CONTINUOUS
 62
    2
 10
1303.7870026743419
 20
757.06713068273166
 40
5.8775519999999997
 50
55.166294000004285
 51
179.99999999999983
  0
ARC
  8
_0-0_計極細
  6
CONTINUOUS
 62
    2
 10
1305.2563866743419
 20
759.63929868273226
 40
2.9387759999999998
 50
0
 51
50.029502999999771
  0
LINE
  8
_0-0_計極細
  6
CONTINUOUS
 62
    2
 10
1308.1951626743419
 20
756.70052268273139
 11
1308.1951626743419
 21
759.63929868273226
  0
LINE
  8
_0-0_計極細
  6
CONTINUOUS
 62
    2
 10
1311.1339386743418
 20
756.70052268273139
 11
1308.1951626743419
 21
756.70052268273139
  0
ARC
  8
_0-0_計極細
  6
CONTINUOUS
 62
    2
 10
1311.1339386743418
 20
758.65970668273258
 40
1.959184
 50
269.99999999999977
 51
359.99999999999966
  0
LINE
  8
_0-0_計極細
  6
CONTINUOUS
 62
    2
 10
1313.0931226743421
 20
758.65970668273258
 11
1313.0931226743421
 21
759.63929868273226
  0
LINE
  8
_0-0_計極細
  6
CONTINUOUS
 62
    2
 10
1313.0931226743421
 20
759.63929868273226
 11
1310.8890426743417
 21
759.63929868273226
  0
LINE
  8
_0-0_計極細
  6
CONTINUOUS
 62
    2
 10
1314.0727146743418
 20
763.94950668273123
 11
1271.4604746743423
 21
763.94950668273123
  0
LINE
  8
_0-0_計極細
  6
CONTINUOUS
 62
    2
 10
1314.0727146743418
 20
763.94950668273123
 11
1314.0727146743418
 21
765.41889068273122
  0
LINE
  8
_0-0_計極細
  6
CONTINUOUS
 62
    2
 10
1314.0727146743418
 20
765.41889068273122
 11
1271.4604746743423
 21
765.41889068273122
  0
LINE
  8
_0-0_計極細
  6
CONTINUOUS
 62
    2
 10
1314.0727146743418
 20
769.92501068273111
 11
1271.4604746743423
 21
769.92501068273111
  0
LINE
  8
_0-0_計極細
  6
CONTINUOUS
 62
    2
 10
1314.0727146743418
 20
769.92501068273111
 11
1314.0727146743418
 21
770.80588268273266
  0
LINE
  8
_0-0_計極細
  6
CONTINUOUS
 62
    2
 10
1310.8890426743417
 20
759.63929868273226
 11
1310.8890426743417
 21
763.94950668273123
  0
LINE
  8
_0-0_計極細
  6
CONTINUOUS
 62
    2
 10
1297.909450674342
 20
756.69284268273259
 11
1318.970674674342
 21
756.69284268273259
  0
LINE
  8
_0-0_計極細
  6
CONTINUOUS
 62
    2
 10
1297.9094506743411
 20
755.9091706827312
 11
1320.4194906743421
 21
755.9091706827312
  0
LINE
  8
_0-0_計極細
  6
CONTINUOUS
 62
    2
 10
1295.9502586743417
 20
702.03929868273178
 11
1295.9502586743417
 21
755.9091706827312
  0
ARC
  8
_0-0_計極細
  6
CONTINUOUS
 62
    2
 10
1296.9298506743423
 20
702.03929868273178
 40
0.979592
 50
179.99999999999983
 51
269.99999999999977
  0
LINE
  8
_0-0_計極細
  6
CONTINUOUS
 62
    2
 10
1320.8815626743424
 20
665.60325068273221
 11
1356.6366666743422
 21
666.48488268273093
  0
LINE
  8
_0-0_計極細
  6
CONTINUOUS
 62
    2
 10
1271.4604746743423
 20
665.60384268273253
 11
1320.9298586743423
 21
665.60384268273253
  0
LINE
  8
_0-0_計極細
  6
CONTINUOUS
 62
    2
 10
1309.9818266743421
 20
717.59565068273139
 11
1356.6366666743422
 21
716.44525868273183
  0
LINE
  8
_0-0_計極細
  6
CONTINUOUS
 62
    2
 10
1318.5532586743418
 20
727.37137868273192
 11
1312.920602674342
 21
727.37137868273192
  0
ARC
  8
_0-0_計極細
  6
CONTINUOUS
 62
    2
 10
1312.920602674342
 20
724.43260268273104
 40
2.9387759999999998
 50
89.999999999999915
 51
179.99999999999983
  0
LINE
  8
_0-0_計極細
  6
CONTINUOUS
 62
    2
 10
1318.4808826743417
 20
755.12702668273232
 11
1319.2630266743424
 21
755.9091706827312
  0
LINE
  8
_0-0_計極細
  6
CONTINUOUS
 62
    2
 10
1297.901154674342
 20
701.9121706827317
 11
1297.901170674342
 21
701.91217868273259
  0
LINE
  8
_0-0_計極細
  6
CENTER1
 62
    2
 10
1247.1196555156782
 20
689.73365868273129
 11
1377.4710629230829
 21
689.73365868273129
  0
LINE
  8
_0-1_計細線
  6
CONTINUOUS
 62
    3
 10
1328.4604746743423
 20
775.73365868273129
 11
1327.1992506743427
 21
775.73365868273129
  0
LINE
  8
_0-1_計細線
  6
CONTINUOUS
 62
    3
 10
1328.4604746743423
 20
774.73365868273129
 11
1327.1992506743427
 21
774.73365868273129
  0
LINE
  8
_0-0_計極細
  6
CENTER1
 62
    2
 10
1271.4604746743425
 20
1274.5002948113022
 11
1271.4604746743425
 21
587.02851270633346
  0
LINE
  8
_0-5_寸法線
  6
CONTINUOUS
 62
    7
 10
1271.4604746743423
 20
647.64465868273135
 11
1271.4604746743423
 21
575.64465868273157
  0
LINE
  8
_0-5_寸法線
  6
CONTINUOUS
 62
    7
 10
1271.4604746743423
 20
583.64465868273157
 11
1286.9152878949674
 21
587.78576340437189
  0
LINE
  8
_0-5_寸法線
  6
CONTINUOUS
 62
    7
 10
1271.4604746743423
 20
583.64465868273157
 11
1286.9152878949674
 21
579.50355396109126
  0
LINE
  8
_0-5_寸法線
  6
CONTINUOUS
 62
    7
 10
1320.9298586743423
 20
647.64465868273135
 11
1320.9298586743423
 21
575.64465868273157
  0
LINE
  8
_0-5_寸法線
  6
CONTINUOUS
 62
    7
 10
1320.9298586743423
 20
583.64465868273157
 11
1305.4750454537173
 21
579.50355396109126
  0
LINE
  8
_0-5_寸法線
  6
CONTINUOUS
 62
    7
 10
1320.9298586743423
 20
583.64465868273157
 11
1305.4750454537173
 21
587.78576340437201
  0
LINE
  8
_0-5_寸法線
  6
CONTINUOUS
 62
    7
 10
1271.4604746743423
 20
583.64465868273157
 11
1320.9298586743423
 21
583.64465868273157
  0
TEXT
  8
_0-5_寸法線
 62
    7
 10
1284.1951666743423
 20
583.64465868273135
 40
24
 41
1
 50
0
  1
51
  0
LINE
  8
_0-5_寸法線
  6
CONTINUOUS
 62
    7
 10
1320.9298586743423
 20
583.64465868273157
 11
1336.3846718949674
 21
587.78576340437178
  0
LINE
  8
_0-5_寸法線
  6
CONTINUOUS
 62
    7
 10
1320.9298586743423
 20
583.64465868273157
 11
1336.3846718949674
 21
579.50355396109114
  0
LINE
  8
_0-5_寸法線
  6
CONTINUOUS
 62
    7
 10
1356.6849626743422
 20
648.52629068273188
 11
1356.6849626743422
 21
575.64465868273157
  0
LINE
  8
_0-5_寸法線
  6
CONTINUOUS
 62
    7
 10
1356.6849626743422
 20
583.64465868273157
 11
1341.2301494537171
 21
579.50355396109126
  0
LINE
  8
_0-5_寸法線
  6
CONTINUOUS
 62
    7
 10
1356.6849626743422
 20
583.64465868273157
 11
1341.2301494537171
 21
587.78576340437201
  0
LINE
  8
_0-5_寸法線
  6
CONTINUOUS
 62
    7
 10
1320.9298586743423
 20
583.64465868273157
 11
1356.6849626743422
 21
583.64465868273157
  0
TEXT
  8
_0-5_寸法線
 62
    7
 10
1326.8074106743422
 20
583.64465868273135
 40
24
 41
1
 50
0
  1
36
  0
LINE
  8
_0-5_寸法線
  6
CONTINUOUS
 62
    7
 10
1271.4604746743421
 20
647.64465868273135
 11
1271.4604746743405
 21
519.64465868273135
  0
LINE
  8
_0-5_寸法線
  6
CONTINUOUS
 62
    7
 10
1271.4604746743405
 20
527.64465868273135
 11
1286.9152878949656
 21
531.78576340437166
  0
LINE
  8
_0-5_寸法線
  6
CONTINUOUS
 62
    7
 10
1271.4604746743405
 20
527.64465868273135
 11
1286.9152878949656
 21
523.50355396109103
  0
LINE
  8
_0-5_寸法線
  6
CONTINUOUS
 62
    7
 10
1356.6849626743419
 20
647.64465868273135
 11
1356.6849626743403
 21
519.64465868273135
  0
LINE
  8
_0-5_寸法線
  6
CONTINUOUS
 62
    7
 10
1356.6849626743403
 20
527.64465868273135
 11
1341.2301494537153
 21
523.50355396109103
  0
LINE
  8
_0-5_寸法線
  6
CONTINUOUS
 62
    7
 10
1356.6849626743403
 20
527.64465868273135
 11
1341.2301494537153
 21
531.78576340437178
  0
LINE
  8
_0-5_寸法線
  6
CONTINUOUS
 62
    7
 10
1271.4604746743405
 20
527.64465868273135
 11
1356.6849626743403
 21
527.64465868273135
  0
TEXT
  8
_0-5_寸法線
 62
    7
 10
1302.0727186743404
 20
527.64465868273135
 40
24
 41
1
 50
0
  1
87
  0
LINE
  8
_0-5_寸法線
  6
CONTINUOUS
 62
    7
 10
1372.6849626743422
 20
664.52629068273188
 11
1612.6849626743422
 21
664.52629068273109
  0
LINE
  8
_0-5_寸法線
  6
CONTINUOUS
 62
    7
 10
1604.6849626743422
 20
664.52629068273109
 11
1600.543857952702
 21
679.98110390335614
  0
LINE
  8
_0-5_寸法線
  6
CONTINUOUS
 62
    7
 10
1604.6849626743422
 20
664.52629068273109
 11
1608.8260673959826
 21
679.98110390335614
  0
LINE
  8
_0-5_寸法線
  6
CONTINUOUS
 62
    7
 10
1367.4604746743423
 20
878.73365868273129
 11
1612.6849626743422
 21
878.73365868273061
  0
LINE
  8
_0-5_寸法線
  6
CONTINUOUS
 62
    7
 10
1604.6849626743422
 20
878.73365868273061
 11
1608.8260673959826
 21
863.27884546210555
  0
LINE
  8
_0-5_寸法線
  6
CONTINUOUS
 62
    7
 10
1604.6849626743422
 20
878.73365868273061
 11
1600.543857952702
 21
863.27884546210555
  0
LINE
  8
_0-5_寸法線
  6
CONTINUOUS
 62
    7
 10
1604.6849626743422
 20
664.52629068273109
 11
1604.6849626743422
 21
878.73365868273061
  0
TEXT
  8
_0-5_寸法線
 62
    7
 10
1604.6849626743422
 20
753.6299746827309
 40
24
 41
1
 50
90
  1
217
  0
LINE
  8
_0-5_寸法線
  6
CONTINUOUS
 62
    7
 10
1356.4604746743423
 20
778.73365868273129
 11
1556.6849626743422
 21
778.73365868273061
  0
LINE
  8
_0-5_寸法線
  6
CONTINUOUS
 62
    7
 10
1548.6849626743422
 20
778.73365868273061
 11
1544.543857952702
 21
794.18847190335566
  0
LINE
  8
_0-5_寸法線
  6
CONTINUOUS
 62
    7
 10
1548.6849626743422
 20
778.73365868273061
 11
1552.8260673959826
 21
794.18847190335566
  0
LINE
  8
_0-5_寸法線
  6
CONTINUOUS
 62
    7
 10
1367.4604746743423
 20
878.73365868273129
 11
1556.6849626743422
 21
878.73365868273072
  0
LINE
  8
_0-5_寸法線
  6
CONTINUOUS
 62
    7
 10
1548.6849626743422
 20
878.73365868273072
 11
1552.8260673959826
 21
863.27884546210566
  0
LINE
  8
_0-5_寸法線
  6
CONTINUOUS
 62
    7
 10
1548.6849626743422
 20
878.73365868273072
 11
1544.543857952702
 21
863.27884546210566
  0
LINE
  8
_0-5_寸法線
  6
CONTINUOUS
 62
    7
 10
1548.6849626743422
 20
778.73365868273061
 11
1548.6849626743422
 21
878.73365868273072
  0
TEXT
  8
_0-5_寸法線
 62
    7
 10
1548.6849626743424
 20
810.73365868273049
 40
24
 41
1
 50
90
  1
100
  0
LINE
  8
_0-5_寸法線
  6
CONTINUOUS
 62
    7
 10
1372.6849626743422
 20
664.52629068273188
 11
1500.6849626743422
 21
664.52629068273143
  0
LINE
  8
_0-5_寸法線
  6
CONTINUOUS
 62
    7
 10
1492.6849626743422
 20
664.52629068273143
 11
1488.543857952702
 21
679.98110390335648
  0
LINE
  8
_0-5_寸法線
  6
CONTINUOUS
 62
    7
 10
1492.6849626743422
 20
664.52629068273143
 11
1496.8260673959826
 21
679.98110390335648
  0
LINE
  8
_0-5_寸法線
  6
CONTINUOUS
 62
    7
 10
1372.6849626743422
 20
718.40384268273181
 11
1500.6849626743422
 21
718.40384268273135
  0
LINE
  8
_0-5_寸法線
  6
CONTINUOUS
 62
    7
 10
1492.6849626743422
 20
718.40384268273135
 11
1496.8260673959826
 21
702.9490294621063
  0
LINE
  8
_0-5_寸法線
  6
CONTINUOUS
 62
    7
 10
1492.6849626743422
 20
718.40384268273135
 11
1488.543857952702
 21
702.9490294621063
  0
LINE
  8
_0-5_寸法線
  6
CONTINUOUS
 62
    7
 10
1492.6849626743422
 20
664.52629068273143
 11
1492.6849626743422
 21
718.40384268273135
  0
TEXT
  8
_0-5_寸法線
 62
    7
 10
1492.6849626743424
 20
661.4650666827315
 40
24
 41
1
 50
90
  1
VU-50
  0
LINE
  8
_0-5_寸法線
  6
CONTINUOUS
 62
    7
 10
1372.6849626743422
 20
689.73365868273129
 11
1444.6849626743422
 21
689.73365868273106
  0
LINE
  8
_0-5_寸法線
  6
CONTINUOUS
 62
    7
 10
1436.6849626743422
 20
689.73365868273106
 11
1432.543857952702
 21
705.18847190335612
  0
LINE
  8
_0-5_寸法線
  6
CONTINUOUS
 62
    7
 10
1436.6849626743422
 20
689.73365868273106
 11
1440.8260673959826
 21
705.18847190335612
  0
LINE
  8
_0-5_寸法線
  6
CONTINUOUS
 62
    7
 10
1356.4604746743423
 20
778.73365868273129
 11
1444.6849626743422
 21
778.73365868273106
  0
LINE
  8
_0-5_寸法線
  6
CONTINUOUS
 62
    7
 10
1436.6849626743422
 20
778.73365868273106
 11
1440.8260673959826
 21
763.27884546210601
  0
LINE
  8
_0-5_寸法線
  6
CONTINUOUS
 62
    7
 10
1436.6849626743422
 20
778.73365868273106
 11
1432.543857952702
 21
763.27884546210601
  0
LINE
  8
_0-5_寸法線
  6
CONTINUOUS
 62
    7
 10
1436.6849626743422
 20
689.73365868273106
 11
1436.6849626743422
 21
778.73365868273106
  0
TEXT
  8
_0-5_寸法線
 62
    7
 10
1436.6849626743422
 20
722.23365868273106
 40
24
 41
1
 50
90
  1
89
  0
TEXT
  8
_0-7_枠細線
 62
    5
 10
395.13525007802195
 20
130.73050495111897
 40
40
 41
0.8
 50
0
  1
断面詳細図
  0
TEXT
  8
_0-7_枠細線
 62
    5
 10
579.05360167669119
 20
130.73050495111897
 40
32
 41
0.6
 50
0
  1
Ｓ＝１：３
  0
LINE
  8
_0-5_寸法線
  6
CONTINUOUS
 62
    7
 10
341.46047467434255
 20
1262.7336586827312
 11
213.46047467434255
 21
1262.7336586827312
  0
LINE
  8
_0-5_寸法線
  6
CONTINUOUS
 62
    7
 10
221.46047467434255
 20
1262.7336586827312
 11
225.60157939598298
 21
1247.2788454621061
  0
LINE
  8
_0-5_寸法線
  6
CONTINUOUS
 62
    7
 10
221.46047467434255
 20
1262.7336586827312
 11
217.31936995270235
 21
1247.2788454621061
  0
LINE
  8
_0-5_寸法線
  6
CONTINUOUS
 62
    7
 10
341.46047467434255
 20
1118.7336586827312
 11
213.46047467434255
 21
1118.7336586827312
  0
LINE
  8
_0-5_寸法線
  6
CONTINUOUS
 62
    7
 10
221.46047467434255
 20
1118.7336586827312
 11
217.31936995270235
 21
1134.1884719033562
  0
LINE
  8
_0-5_寸法線
  6
CONTINUOUS
 62
    7
 10
221.46047467434255
 20
1118.7336586827312
 11
225.60157939598298
 21
1134.1884719033562
  0
LINE
  8
_0-5_寸法線
  6
CONTINUOUS
 62
    7
 10
221.46047467434255
 20
1262.7336586827312
 11
221.46047467434255
 21
1118.7336586827312
  0
TEXT
  8
_0-5_寸法線
 62
    7
 10
221.46047467434255
 20
1172.7336586827316
 40
24
 41
1
 50
89.999999999999815
  1
144
  0
LINE
  8
_0-5_寸法線
  6
CONTINUOUS
 62
    7
 10
277.46047467434255
 20
1262.7336586827312
 11
273.31936995270235
 21
1278.1884719033562
  0
LINE
  8
_0-5_寸法線
  6
CONTINUOUS
 62
    7
 10
277.46047467434255
 20
1262.7336586827312
 11
281.60157939598298
 21
1278.1884719033562
  0
LINE
  8
_0-5_寸法線
  6
CONTINUOUS
 62
    7
 10
341.46047467434255
 20
1250.7336586827312
 11
269.46047467434255
 21
1250.7336586827312
  0
LINE
  8
_0-5_寸法線
  6
CONTINUOUS
 62
    7
 10
277.46047467434255
 20
1302.7336586827312
 11
277.46047467434255
 21
1250.7336586827312
  0
TEXT
  8
_0-5_寸法線
 62
    7
 10
277.46047467434346
 20
1274.4149024016826
 40
24
 41
1
 50
89.99999999999973
  1
12
  0
LINE
  8
_0-5_寸法線
  6
CONTINUOUS
 62
    7
 10
277.46047467434255
 20
1250.7336586827312
 11
281.60157939598287
 21
1235.2788454621061
  0
LINE
  8
_0-5_寸法線
  6
CONTINUOUS
 62
    7
 10
277.46047467434255
 20
1250.7336586827312
 11
273.31936995270223
 21
1235.2788454621061
  0
LINE
  8
_0-5_寸法線
  6
CONTINUOUS
 62
    7
 10
341.46047467434255
 20
1130.7336586827312
 11
269.46047467434255
 21
1130.7336586827312
  0
LINE
  8
_0-5_寸法線
  6
CONTINUOUS
 62
    7
 10
277.46047467434255
 20
1130.7336586827312
 11
273.31936995270235
 21
1146.1884719033562
  0
LINE
  8
_0-5_寸法線
  6
CONTINUOUS
 62
    7
 10
277.46047467434255
 20
1130.7336586827312
 11
281.60157939598298
 21
1146.1884719033562
  0
LINE
  8
_0-5_寸法線
  6
CONTINUOUS
 62
    7
 10
277.46047467434255
 20
1250.7336586827312
 11
277.46047467434255
 21
1130.7336586827312
  0
TEXT
  8
_0-5_寸法線
 62
    7
 10
277.46047467434346
 20
1172.7336586827316
 40
24
 41
1
 50
89.999999999999815
  1
120
  0
LINE
  8
_0-5_寸法線
  6
CONTINUOUS
 62
    7
 10
277.46047467434255
 20
1118.7336586827312
 11
281.60157939598287
 21
1103.2788454621061
  0
LINE
  8
_0-5_寸法線
  6
CONTINUOUS
 62
    7
 10
277.46047467434255
 20
1118.7336586827312
 11
273.31936995270223
 21
1103.2788454621061
  0
LINE
  8
_0-5_寸法線
  6
CONTINUOUS
 62
    7
 10
277.46047467434255
 20
1130.7336586827312
 11
277.46047467434255
 21
1078.7336586827312
  0
TEXT
  8
_0-5_寸法線
 62
    7
 10
277.46047467434346
 20
1081.2879965576315
 40
24
 41
1
 50
90
  1
12
  0
LINE
  8
_0-5_寸法線
  6
CONTINUOUS
 62
    7
 10
1431.4604746743444
 20
1278.7336586827312
 11
1431.4604746743444
 21
1350.7336586827303
  0
LINE
  8
_0-5_寸法線
  6
CONTINUOUS
 62
    7
 10
1431.4604746743444
 20
1342.7336586827303
 11
1446.9152878949694
 21
1346.8747634043707
  0
LINE
  8
_0-5_寸法線
  6
CONTINUOUS
 62
    7
 10
1431.4604746743444
 20
1342.7336586827303
 11
1446.9152878949694
 21
1338.5925539610898
  0
LINE
  8
_0-5_寸法線
  6
CONTINUOUS
 62
    7
 10
1531.4604746743444
 20
1268.933658682731
 11
1531.4604746743444
 21
1350.7336586827303
  0
LINE
  8
_0-5_寸法線
  6
CONTINUOUS
 62
    7
 10
1531.4604746743444
 20
1342.7336586827303
 11
1516.0056614537193
 21
1338.5925539610901
  0
LINE
  8
_0-5_寸法線
  6
CONTINUOUS
 62
    7
 10
1531.4604746743444
 20
1342.7336586827303
 11
1516.0056614537193
 21
1346.8747634043707
  0
LINE
  8
_0-5_寸法線
  6
CONTINUOUS
 62
    7
 10
1431.4604746743444
 20
1342.7336586827303
 11
1531.4604746743444
 21
1342.7336586827303
  0
TEXT
  8
_0-5_寸法線
 62
    7
 10
1463.4604746743444
 20
1342.7336586827298
 40
24
 41
1
 50
0
  1
100
  0
LINE
  8
_0-5_寸法線
  6
CONTINUOUS
 62
    7
 10
1554.4604746743444
 20
1268.933658682731
 11
1554.4604746743444
 21
1350.7336586827303
  0
LINE
  8
_0-5_寸法線
  6
CONTINUOUS
 62
    7
 10
1554.4604746743444
 20
1342.7336586827303
 11
1569.9152878949694
 21
1346.8747634043705
  0
LINE
  8
_0-5_寸法線
  6
CONTINUOUS
 62
    7
 10
1554.4604746743444
 20
1342.7336586827303
 11
1569.9152878949694
 21
1338.5925539610898
  0
LINE
  8
_0-5_寸法線
  6
CONTINUOUS
 62
    7
 10
1531.4604746743444
 20
1342.7336586827303
 11
1594.4604746743444
 21
1342.7336586827303
  0
TEXT
  8
_0-5_寸法線
 62
    7
 10
1572.826779971585
 20
1342.7336586827298
 40
24
 41
1
 50
0
  1
23
  0
LINE
  8
_0-5_寸法線
  6
CONTINUOUS
 62
    7
 10
1431.4604746743425
 20
1278.7336586827312
 11
1431.4604746743435
 21
1406.7336586827321
  0
LINE
  8
_0-5_寸法線
  6
CONTINUOUS
 62
    7
 10
1431.4604746743435
 20
1398.7336586827321
 11
1446.9152878949685
 21
1402.8747634043725
  0
LINE
  8
_0-5_寸法線
  6
CONTINUOUS
 62
    7
 10
1431.4604746743435
 20
1398.7336586827321
 11
1446.9152878949685
 21
1394.5925539610917
  0
LINE
  8
_0-5_寸法線
  6
CONTINUOUS
 62
    7
 10
1554.4604746743444
 20
1268.933658682731
 11
1554.4604746743453
 21
1406.7336586827321
  0
LINE
  8
_0-5_寸法線
  6
CONTINUOUS
 62
    7
 10
1554.4604746743453
 20
1398.7336586827321
 11
1539.0056614537202
 21
1394.5925539610919
  0
LINE
  8
_0-5_寸法線
  6
CONTINUOUS
 62
    7
 10
1554.4604746743453
 20
1398.7336586827321
 11
1539.0056614537202
 21
1402.8747634043725
  0
LINE
  8
_0-5_寸法線
  6
CONTINUOUS
 62
    7
 10
1431.4604746743435
 20
1398.7336586827321
 11
1554.4604746743453
 21
1398.7336586827321
  0
TEXT
  8
_0-5_寸法線
 62
    7
 10
1474.9604746743444
 20
1398.7336586827316
 40
24
 41
1
 50
0
  1
123
  0
LINE
  8
_0-5_寸法線
  6
CONTINUOUS
 62
    7
 10
854.96047485248346
 20
1278.733658667511
 11
854.96047485248357
 21
1350.733658667511
  0
LINE
  8
_0-5_寸法線
  6
CONTINUOUS
 62
    7
 10
854.96047485248357
 20
1342.733658667511
 11
870.41528807310863
 21
1346.8747633891514
  0
LINE
  8
_0-5_寸法線
  6
CONTINUOUS
 62
    7
 10
854.96047485248357
 20
1342.733658667511
 11
870.41528807310863
 21
1338.5925539458706
  0
LINE
  8
_0-5_寸法線
  6
CONTINUOUS
 62
    7
 10
1337.9604748524835
 20
1278.733658667511
 11
1337.9604748524835
 21
1350.733658667511
  0
LINE
  8
_0-5_寸法線
  6
CONTINUOUS
 62
    7
 10
1337.9604748524835
 20
1342.733658667511
 11
1322.5056616318584
 21
1338.5925539458708
  0
LINE
  8
_0-5_寸法線
  6
CONTINUOUS
 62
    7
 10
1337.9604748524835
 20
1342.733658667511
 11
1322.5056616318584
 21
1346.8747633891514
  0
LINE
  8
_0-5_寸法線
  6
CONTINUOUS
 62
    7
 10
854.96047485248357
 20
1342.733658667511
 11
1337.9604748524835
 21
1342.733658667511
  0
TEXT
  8
_0-5_寸法線
 62
    7
 10
1084.4604748524837
 20
1342.7336586675108
 40
24
 41
1
 50
0
  1
Ｂ
  0
LINE
  8
_0-5_寸法線
  6
CONTINUOUS
 62
    7
 10
370.96047485248619
 20
1278.733658667511
 11
370.9604748524863
 21
1350.733658667511
  0
LINE
  8
_0-5_寸法線
  6
CONTINUOUS
 62
    7
 10
370.9604748524863
 20
1342.733658667511
 11
386.41528807311147
 21
1346.8747633891514
  0
LINE
  8
_0-5_寸法線
  6
CONTINUOUS
 62
    7
 10
370.9604748524863
 20
1342.733658667511
 11
386.41528807311147
 21
1338.5925539458706
  0
LINE
  8
_0-5_寸法線
  6
CONTINUOUS
 62
    7
 10
853.96047485248346
 20
1278.7336586675112
 11
853.96047485248357
 21
1350.733658667511
  0
LINE
  8
_0-5_寸法線
  6
CONTINUOUS
 62
    7
 10
853.96047485248357
 20
1342.733658667511
 11
838.50566163185852
 21
1338.5925539458708
  0
LINE
  8
_0-5_寸法線
  6
CONTINUOUS
 62
    7
 10
853.96047485248357
 20
1342.733658667511
 11
838.50566163185852
 21
1346.8747633891514
  0
LINE
  8
_0-5_寸法線
  6
CONTINUOUS
 62
    7
 10
370.9604748524863
 20
1342.733658667511
 11
853.96047485248357
 21
1342.733658667511
  0
TEXT
  8
_0-5_寸法線
 62
    7
 10
600.46047485248505
 20
1342.7336586675108
 40
24
 41
1
 50
0
  1
Ｂ
  0
LINE
  8
_0-0_計極細
  6
CENTER1
 62
    2
 10
1420.2358282948248
 20
1190.7336586827312
 11
1559.0131719901703
 21
1190.7336586827312
  0
LINE
  8
_0-5_寸法線
  6
CONTINUOUS
 62
    7
 10
1240.3654074007798
 20
708.37655513077414
 11
1233.4219389008147
 21
693.96169317548674
  0
LINE
  8
_0-5_寸法線
  6
CONTINUOUS
 62
    7
 10
1240.3654074007798
 20
708.37655513077414
 11
1227.1447563117893
 21
699.36465273543195
  0
LINE
  8
_0-5_寸法線
  6
CONTINUOUS
 62
    7
 10
1240.3654074007798
 20
708.37655513077414
 11
1186.4752202033997
 21
645.76669454574585
  0
LINE
  8
_0-5_寸法線
  6
CONTINUOUS
 62
    7
 10
1186.4752202033997
 20
645.76669454574585
 11
974.25596094507682
 21
645.76669454574585
  0
TEXT
  8
_0-5_寸法線
 62
    7
 10
974.25596094507671
 20
645.82384388115065
 40
24
 41
0.7999999999999997
 50
0
  1
横引き排水トラップ一式
  0
LINE
  8
_1-3_細線3
  6
CONTINUOUS
 62
    4
 10
366.13348945838038
 20
406.52019457545271
 11
362.93348945837874
 21
406.52019457545271
  0
LINE
  8
_1-3_細線3
  6
CONTINUOUS
 62
    4
 10
330.93348945837874
 20
406.52019457545271
 11
334.13348945837811
 21
406.52019457545271
  0
LINE
  8
_1-3_細線3
  6
CONTINUOUS
 62
    4
 10
618.93348945837602
 20
406.52019457545271
 11
622.13348945837629
 21
406.52019457545271
  0
LINE
  8
_1-3_細線3
  6
CONTINUOUS
 62
    4
 10
586.93348945837602
 20
406.52019457545271
 11
590.13348945837811
 21
406.52019457545271
  0
LINE
  8
_1-3_細線3
  6
CONTINUOUS
 62
    4
 10
367.23927821009215
 20
406.52019457545271
 11
367.23927821009215
 21
403.85352790878574
  0
LINE
  8
_1-3_細線3
  6
CONTINUOUS
 62
    4
 10
321.90594487676094
 20
406.52019457545271
 11
321.90594487676094
 21
403.85352790878574
  0
LINE
  8
_1-3_細線3
  6
CONTINUOUS
 62
    4
 10
321.90594487676094
 20
406.52019457545271
 11
367.23927821009215
 21
406.52019457545271
  0
LINE
  8
_1-3_細線3
  6
CONTINUOUS
 62
    4
 10
585.82770070666243
 20
406.52019457545271
 11
585.82770070666243
 21
403.85352790878574
  0
LINE
  8
_1-3_細線3
  6
CONTINUOUS
 62
    4
 10
631.16103403999546
 20
406.52019457545271
 11
631.16103403999546
 21
403.85352790878574
  0
LINE
  8
_1-3_細線3
  6
CONTINUOUS
 62
    4
 10
631.16103403999546
 20
406.52019457545271
 11
585.82770070666243
 21
406.52019457545271
  0
LINE
  8
_1-3_細線3
  6
CONTINUOUS
 62
    4
 10
583.20015612504608
 20
402.52019457545271
 11
584.53348945837956
 21
403.85352790878574
  0
LINE
  8
_1-3_細線3
  6
CONTINUOUS
 62
    4
 10
583.20015612504608
 20
399.85352790878574
 11
583.20015612504608
 21
402.52019457545271
  0
LINE
  8
_1-3_細線3
  6
CONTINUOUS
 62
    4
 10
584.53348945837956
 20
398.52019457545271
 11
583.20015612504608
 21
399.85352790878574
  0
LINE
  8
_1-3_細線3
  6
CONTINUOUS
 62
    4
 10
631.2001561250438
 20
398.52019457545271
 11
584.53348945837956
 21
398.52019457545271
  0
LINE
  8
_1-3_細線3
  6
CONTINUOUS
 62
    4
 10
635.20015612504608
 20
350.52019457545271
 11
636.53348945837956
 21
351.85352790878574
  0
LINE
  8
_1-3_細線3
  6
CONTINUOUS
 62
    4
 10
632.53348945837956
 20
350.52019457545271
 11
635.20015612504608
 21
350.52019457545271
  0
LINE
  8
_1-3_細線3
  6
CONTINUOUS
 62
    4
 10
631.2001561250438
 20
351.85352790878574
 11
632.53348945837956
 21
350.52019457545271
  0
LINE
  8
_1-3_細線3
  6
CONTINUOUS
 62
    4
 10
631.2001561250438
 20
398.52019457545271
 11
631.2001561250438
 21
351.85352790878574
  0
LINE
  8
_1-3_細線3
  6
CONTINUOUS
 62
    4
 10
631.2001561250438
 20
403.85352790878574
 11
584.53348945837956
 21
403.85352790878574
  0
LINE
  8
_1-3_細線3
  6
CONTINUOUS
 62
    4
 10
636.53348945837956
 20
398.52019457545271
 11
636.53348945837956
 21
351.85352790878574
  0
ARC
  8
_1-3_細線3
  6
CONTINUOUS
 62
    4
 10
631.2001561250438
 20
398.52019457545271
 40
5.3333333333333321
 50
0
 51
89.999999999999915
  0
LINE
  8
_1-3_細線3
  6
CONTINUOUS
 62
    4
 10
369.86682279171032
 20
402.52019457545271
 11
368.53348945837729
 21
403.85352790878574
  0
LINE
  8
_1-3_細線3
  6
CONTINUOUS
 62
    4
 10
369.86682279171032
 20
399.85352790878574
 11
369.86682279171032
 21
402.52019457545271
  0
LINE
  8
_1-3_細線3
  6
CONTINUOUS
 62
    4
 10
368.53348945837729
 20
398.52019457545271
 11
369.86682279171032
 21
399.85352790878574
  0
LINE
  8
_1-3_細線3
  6
CONTINUOUS
 62
    4
 10
321.86682279171032
 20
398.52019457545271
 11
368.53348945837729
 21
398.52019457545271
  0
LINE
  8
_1-3_細線3
  6
CONTINUOUS
 62
    4
 10
317.86682279171032
 20
350.52019457545271
 11
316.53348945837729
 21
351.85352790878574
  0
LINE
  8
_1-3_細線3
  6
CONTINUOUS
 62
    4
 10
320.53348945837729
 20
350.52019457545271
 11
317.86682279171032
 21
350.52019457545271
  0
LINE
  8
_1-3_細線3
  6
CONTINUOUS
 62
    4
 10
321.86682279171032
 20
351.85352790878574
 11
320.53348945837729
 21
350.52019457545271
  0
LINE
  8
_1-3_細線3
  6
CONTINUOUS
 62
    4
 10
321.86682279171032
 20
398.52019457545271
 11
321.86682279171032
 21
351.85352790878574
  0
LINE
  8
_1-3_細線3
  6
CONTINUOUS
 62
    4
 10
316.53348945837729
 20
398.52019457545271
 11
316.53348945837729
 21
351.85352790878574
  0
LINE
  8
_1-3_細線3
  6
CONTINUOUS
 62
    4
 10
321.86682279171032
 20
403.85352790878574
 11
368.53348945837729
 21
403.85352790878574
  0
ARC
  8
_1-3_細線3
  6
CONTINUOUS
 62
    4
 10
321.86682279171032
 20
398.52019457545271
 40
5.3333333333333321
 50
89.999999999999915
 51
179.99999999999983
  0
LINE
  8
_1-3_細線3
  6
CONTINUOUS
 62
    4
 10
584.53348945837956
 20
398.52019457545271
 11
592.80015612793818
 21
398.52019457545271
  0
LINE
  8
_1-3_細線3
  6
CONTINUOUS
 62
    4
 10
368.53348945837729
 20
398.52019457545271
 11
360.26682278881867
 21
398.52019457545271
  0
LINE
  8
_1-3_細線3
  6
CONTINUOUS
 62
    4
 10
349.60015612118673
 20
398.52019457545271
 11
340.5334894545183
 21
398.52019457545271
  0
LINE
  8
_1-3_細線3
  6
CONTINUOUS
 62
    4
 10
287.2001561250438
 20
438.52019457545271
 11
284.53348945837729
 21
438.52019457545271
  0
LINE
  8
_1-3_細線3
  6
CONTINUOUS
 62
    4
 10
287.2001561250438
 20
457.18686124211968
 11
287.2001561250438
 21
438.52019457545271
  0
LINE
  8
_1-3_細線3
  6
CONTINUOUS
 62
    4
 10
313.86682279171032
 20
457.18686124211968
 11
287.2001561250438
 21
457.18686124211968
  0
LINE
  8
_1-3_細線3
  6
CONTINUOUS
 62
    4
 10
665.86682279171032
 20
457.18686124211968
 11
639.2001561250438
 21
457.18686124211968
  0
LINE
  8
_1-3_細線3
  6
CONTINUOUS
 62
    4
 10
665.86682279171032
 20
438.52019457545271
 11
665.86682279171032
 21
457.18686124211968
  0
LINE
  8
_1-3_細線3
  6
CONTINUOUS
 62
    4
 10
668.53348945837774
 20
438.52019457545271
 11
665.86682279171032
 21
438.52019457545271
  0
LINE
  8
_1-3_細線3
  6
CONTINUOUS
 62
    4
 10
668.53348945837774
 20
459.85352790878574
 11
668.53348945837774
 21
438.52019457545271
  0
LINE
  8
_1-3_細線3
  6
CONTINUOUS
 62
    4
 10
636.53348945837774
 20
459.85352790878574
 11
668.53348945837774
 21
459.85352790878574
  0
LINE
  8
_1-3_細線3
  6
CONTINUOUS
 62
    4
 10
284.53348945837729
 20
459.85352790878574
 11
316.53348945837729
 21
459.85352790878574
  0
LINE
  8
_1-3_細線3
  6
CONTINUOUS
 62
    4
 10
284.53348945837729
 20
438.52019457545271
 11
284.53348945837729
 21
459.85352790878574
  0
LINE
  8
_1-5_寸法3
  6
CONTINUOUS
 62
    7
 10
684.53348945837774
 20
459.85352790878608
 11
756.53348945837774
 21
459.85352790878773
  0
LINE
  8
_1-5_寸法3
  6
CONTINUOUS
 62
    7
 10
748.53348945837774
 20
459.85352790878756
 11
752.67459418001806
 21
444.39871468816244
  0
LINE
  8
_1-5_寸法3
  6
CONTINUOUS
 62
    7
 10
748.53348945837774
 20
459.85352790878756
 11
744.39238473673743
 21
444.39871468816244
  0
LINE
  8
_1-5_寸法3
  6
CONTINUOUS
 62
    7
 10
684.53348945837774
 20
438.52019457545305
 11
756.53348945837774
 21
438.5201945754547
  0
LINE
  8
_1-5_寸法3
  6
CONTINUOUS
 62
    7
 10
748.53348945837774
 20
438.52019457545452
 11
744.39238473673743
 21
453.97500779607964
  0
LINE
  8
_1-5_寸法3
  6
CONTINUOUS
 62
    7
 10
748.53348945837774
 20
438.52019457545452
 11
752.67459418001806
 21
453.97500779607964
  0
LINE
  8
_1-5_寸法3
  6
CONTINUOUS
 62
    7
 10
748.53348945837774
 20
459.85352790878756
 11
748.53348945837774
 21
438.52019457545452
  0
TEXT
  8
_1-5_寸法3
 62
    7
 10
748.53348945837774
 20
443.18686124212149
 40
24
 41
1
 50
90
  1
8
  0
LINE
  8
_1-5_寸法3
  6
CONTINUOUS
 62
    7
 10
316.53348945837729
 20
335.85352790878574
 11
316.53348945837729
 21
314.52019457545271
  0
LINE
  8
_1-5_寸法3
  6
CONTINUOUS
 62
    7
 10
316.53348945837729
 20
322.52019457545271
 11
331.98830267900235
 21
326.66129929709302
  0
LINE
  8
_1-5_寸法3
  6
CONTINUOUS
 62
    7
 10
316.53348945837729
 20
322.52019457545271
 11
331.98830267900235
 21
318.37908985381239
  0
LINE
  8
_1-5_寸法3
  6
CONTINUOUS
 62
    7
 10
369.86682279171032
 20
381.18686124211877
 11
369.86682279171032
 21
314.52019457545271
  0
LINE
  8
_1-5_寸法3
  6
CONTINUOUS
 62
    7
 10
369.86682279171032
 20
322.52019457545271
 11
354.41200957108526
 21
318.3790898538125
  0
LINE
  8
_1-5_寸法3
  6
CONTINUOUS
 62
    7
 10
369.86682279171032
 20
322.52019457545271
 11
354.41200957108526
 21
326.66129929709314
  0
LINE
  8
_1-5_寸法3
  6
CONTINUOUS
 62
    7
 10
316.53348945837729
 20
322.52019457545271
 11
369.86682279171032
 21
322.52019457545271
  0
TEXT
  8
_1-5_寸法3
 62
    7
 10
331.20015612504426
 20
322.52019457545271
 40
24
 41
1
 50
0
  1
20
  0
LINE
  8
_1-5_寸法3
  6
CONTINUOUS
 62
    7
 10
369.86682279171032
 20
322.52019457545271
 11
385.32163601233538
 21
326.66129929709291
  0
LINE
  8
_1-5_寸法3
  6
CONTINUOUS
 62
    7
 10
369.86682279171032
 20
322.52019457545271
 11
385.32163601233538
 21
318.37908985381227
  0
LINE
  8
_1-5_寸法3
  6
CONTINUOUS
 62
    7
 10
583.2001561250438
 20
381.18686124211877
 11
583.2001561250438
 21
314.52019457545271
  0
LINE
  8
_1-5_寸法3
  6
CONTINUOUS
 62
    7
 10
583.2001561250438
 20
322.52019457545271
 11
567.74534290441875
 21
318.3790898538125
  0
LINE
  8
_1-5_寸法3
  6
CONTINUOUS
 62
    7
 10
583.2001561250438
 20
322.52019457545271
 11
567.74534290441875
 21
326.66129929709314
  0
LINE
  8
_1-5_寸法3
  6
CONTINUOUS
 62
    7
 10
369.86682279171032
 20
322.52019457545271
 11
583.2001561250438
 21
322.52019457545271
  0
TEXT
  8
_1-5_寸法3
 62
    7
 10
464.53348945837729
 20
322.52019457545271
 40
24
 41
1
 50
0
  1
80
  0
LINE
  8
_1-5_寸法3
  6
CONTINUOUS
 62
    7
 10
583.2001561250438
 20
322.52019457545271
 11
598.65496934566897
 21
326.66129929709291
  0
LINE
  8
_1-5_寸法3
  6
CONTINUOUS
 62
    7
 10
583.2001561250438
 20
322.52019457545271
 11
598.65496934566886
 21
318.37908985381227
  0
LINE
  8
_1-5_寸法3
  6
CONTINUOUS
 62
    7
 10
636.53348945837774
 20
335.85352790878574
 11
636.53348945837774
 21
314.52019457545271
  0
LINE
  8
_1-5_寸法3
  6
CONTINUOUS
 62
    7
 10
636.53348945837774
 20
322.52019457545271
 11
621.07867623775269
 21
318.3790898538125
  0
LINE
  8
_1-5_寸法3
  6
CONTINUOUS
 62
    7
 10
636.53348945837774
 20
322.52019457545271
 11
621.07867623775269
 21
326.66129929709314
  0
LINE
  8
_1-5_寸法3
  6
CONTINUOUS
 62
    7
 10
583.2001561250438
 20
322.52019457545271
 11
636.53348945837774
 21
322.52019457545271
  0
TEXT
  8
_1-5_寸法3
 62
    7
 10
597.86682279171032
 20
322.52019457545271
 40
24
 41
1
 50
0
  1
20
  0
LINE
  8
_1-3_細線3
  6
CONTINUOUS
 62
    4
 10
313.86682279171032
 20
193.18686124211877
 11
313.86682279171032
 21
457.18686124211968
  0
LINE
  8
_1-3_細線3
  6
CONTINUOUS
 62
    4
 10
639.2001561250438
 20
193.18686124211877
 11
313.86682279171032
 21
193.18686124211877
  0
LINE
  8
_1-3_細線3
  6
CONTINUOUS
 62
    4
 10
639.2001561250438
 20
457.18686124211968
 11
639.2001561250438
 21
193.18686124211877
  0
LINE
  8
_1-3_細線3
  6
CONTINUOUS
 62
    4
 10
636.53348945837774
 20
195.85352790878574
 11
636.53348945837774
 21
459.85352790878574
  0
LINE
  8
_1-3_細線3
  6
CONTINUOUS
 62
    4
 10
316.53348945837729
 20
195.85352790878574
 11
636.53348945837774
 21
195.85352790878574
  0
LINE
  8
_1-3_細線3
  6
CONTINUOUS
 62
    4
 10
316.53348945837729
 20
459.85352790878574
 11
316.53348945837729
 21
195.85352790878574
  0
LINE
  8
_1-5_寸法3
  6
CONTINUOUS
 62
    7
 10
297.86682279171032
 20
193.18686124211888
 11
196.53348945837729
 21
193.18686124211968
  0
LINE
  8
_1-5_寸法3
  6
CONTINUOUS
 62
    7
 10
204.53348945837729
 20
193.18686124211968
 11
200.39238473673697
 21
208.64167446274473
  0
LINE
  8
_1-5_寸法3
  6
CONTINUOUS
 62
    7
 10
204.53348945837729
 20
193.18686124211968
 11
208.67459418001761
 21
208.64167446274473
  0
LINE
  8
_1-5_寸法3
  6
CONTINUOUS
 62
    7
 10
268.53348945837729
 20
459.85352790878579
 11
196.53348945837729
 21
459.85352790878574
  0
LINE
  8
_1-5_寸法3
  6
CONTINUOUS
 62
    7
 10
204.53348945837729
 20
459.85352790878574
 11
208.67459418001761
 21
444.39871468816062
  0
LINE
  8
_1-5_寸法3
  6
CONTINUOUS
 62
    7
 10
204.53348945837729
 20
459.85352790878574
 11
200.39238473673697
 21
444.39871468816062
  0
LINE
  8
_1-5_寸法3
  6
CONTINUOUS
 62
    7
 10
204.53348945837729
 20
193.18686124211968
 11
204.53348945837729
 21
459.85352790878574
  0
TEXT
  8
_1-5_寸法3
 62
    7
 10
204.53348945837729
 20
284.52019457545271
 40
24
 41
1
 50
90
  1
80～100
  0
LINE
  8
_1-5_寸法3
  6
CONTINUOUS
 62
    7
 10
284.53348945837729
 20
467.85352790878574
 11
284.53348945837729
 21
659.85352790878551
  0
LINE
  8
_1-5_寸法3
  6
CONTINUOUS
 62
    7
 10
284.53348945837729
 20
651.85352790878551
 11
299.98830267900235
 21
655.99463263042583
  0
LINE
  8
_1-5_寸法3
  6
CONTINUOUS
 62
    7
 10
284.53348945837729
 20
651.85352790878551
 11
299.98830267900235
 21
647.71242318714519
  0
LINE
  8
_1-5_寸法3
  6
CONTINUOUS
 62
    7
 10
668.53348945837956
 20
467.85352790878574
 11
668.53348945837956
 21
659.85352790878551
  0
LINE
  8
_1-5_寸法3
  6
CONTINUOUS
 62
    7
 10
668.53348945837956
 20
651.85352790878551
 11
653.07867623775451
 21
647.71242318714519
  0
LINE
  8
_1-5_寸法3
  6
CONTINUOUS
 62
    7
 10
668.53348945837956
 20
651.85352790878551
 11
653.07867623775451
 21
655.99463263042594
  0
LINE
  8
_1-5_寸法3
  6
CONTINUOUS
 62
    7
 10
284.53348945837729
 20
651.85352790878551
 11
668.53348945837956
 21
651.85352790878551
  0
TEXT
  8
_1-5_寸法3
 62
    7
 10
458.53348945838002
 20
651.85352790878551
 40
24
 41
1
 50
0
  1
144
  0
LINE
  8
_1-5_寸法3
  6
CONTINUOUS
 62
    7
 10
284.53348945837729
 20
595.85352790878551
 11
299.98830267900235
 21
599.99463263042583
  0
LINE
  8
_1-5_寸法3
  6
CONTINUOUS
 62
    7
 10
284.53348945837729
 20
595.85352790878551
 11
299.98830267900235
 21
591.71242318714519
  0
LINE
  8
_1-5_寸法3
  6
CONTINUOUS
 62
    7
 10
316.53348945837729
 20
466.52019457545271
 11
316.53348945837729
 21
603.85352790878551
  0
LINE
  8
_1-5_寸法3
  6
CONTINUOUS
 62
    7
 10
316.53348945837729
 20
595.85352790878551
 11
301.07867623775223
 21
591.71242318714519
  0
LINE
  8
_1-5_寸法3
  6
CONTINUOUS
 62
    7
 10
316.53348945837729
 20
595.85352790878551
 11
301.07867623775223
 21
599.99463263042594
  0
LINE
  8
_1-5_寸法3
  6
CONTINUOUS
 62
    7
 10
284.53348945837729
 20
595.85352790878551
 11
316.53348945837729
 21
595.85352790878551
  0
TEXT
  8
_1-5_寸法3
 62
    7
 10
288.29013073179726
 20
595.85352790878551
 40
24
 41
1
 50
0
  1
12
  0
LINE
  8
_1-5_寸法3
  6
CONTINUOUS
 62
    7
 10
321.86682279171032
 20
462.52019190610213
 11
321.86682279171032
 21
603.85352790878551
  0
LINE
  8
_1-5_寸法3
  6
CONTINUOUS
 62
    7
 10
316.53348945837729
 20
595.85352790878551
 11
321.86682279171032
 21
595.85352790878551
  0
TEXT
  8
_1-5_寸法3
 62
    7
 10
326.68124184290923
 20
571.85352790878551
 40
24
 41
1
 50
0
  1
2
  0
LINE
  8
_1-5_寸法3
  6
CONTINUOUS
 62
    7
 10
321.86682279171032
 20
595.85352790878551
 11
337.32163601233538
 21
599.99463263042583
  0
LINE
  8
_1-5_寸法3
  6
CONTINUOUS
 62
    7
 10
321.86682279171032
 20
595.85352790878551
 11
337.32163601233538
 21
591.71242318714519
  0
LINE
  8
_1-5_寸法3
  6
CONTINUOUS
 62
    7
 10
631.2001561250438
 20
462.52019190610213
 11
631.2001561250438
 21
603.85352790878551
  0
LINE
  8
_1-5_寸法3
  6
CONTINUOUS
 62
    7
 10
631.2001561250438
 20
595.85352790878551
 11
615.74534290441875
 21
591.71242318714519
  0
LINE
  8
_1-5_寸法3
  6
CONTINUOUS
 62
    7
 10
631.2001561250438
 20
595.85352790878551
 11
615.74534290441875
 21
599.99463263042594
  0
LINE
  8
_1-5_寸法3
  6
CONTINUOUS
 62
    7
 10
321.86682279171032
 20
595.85352790878551
 11
631.2001561250438
 21
595.85352790878551
  0
TEXT
  8
_1-5_寸法3
 62
    7
 10
458.53348945837956
 20
595.85352790878551
 40
24
 41
1
 50
0
  1
116
  0
LINE
  8
_1-5_寸法3
  6
CONTINUOUS
 62
    7
 10
636.53348945837956
 20
466.52019457545271
 11
636.53348945837956
 21
603.85352790878551
  0
LINE
  8
_1-5_寸法3
  6
CONTINUOUS
 62
    7
 10
631.2001561250438
 20
595.85352790878551
 11
636.53348945837956
 21
595.85352790878551
  0
TEXT
  8
_1-5_寸法3
 62
    7
 10
614.61013073179697
 20
571.85352790878551
 40
24
 41
1
 50
0
  1
2
  0
LINE
  8
_1-5_寸法3
  6
CONTINUOUS
 62
    7
 10
636.53348945837956
 20
595.85352790878551
 11
651.98830267900462
 21
599.99463263042583
  0
LINE
  8
_1-5_寸法3
  6
CONTINUOUS
 62
    7
 10
636.53348945837956
 20
595.85352790878551
 11
651.98830267900462
 21
591.71242318714519
  0
LINE
  8
_1-5_寸法3
  6
CONTINUOUS
 62
    7
 10
668.53348945837956
 20
595.85352790878551
 11
653.07867623775451
 21
591.71242318714519
  0
LINE
  8
_1-5_寸法3
  6
CONTINUOUS
 62
    7
 10
668.53348945837956
 20
595.85352790878551
 11
653.07867623775451
 21
599.99463263042594
  0
LINE
  8
_1-5_寸法3
  6
CONTINUOUS
 62
    7
 10
636.53348945837956
 20
595.85352790878551
 11
668.53348945837956
 21
595.85352790878551
  0
TEXT
  8
_1-5_寸法3
 62
    7
 10
640.69309369476127
 20
595.85352790878551
 40
24
 41
1
 50
0
  1
12
  0
LINE
  8
_1-5_寸法3
  6
CONTINUOUS
 62
    7
 10
321.86682279171077
 20
475.85352790878483
 11
321.86682279171077
 21
547.85352790878574
  0
LINE
  8
_1-5_寸法3
  6
CONTINUOUS
 62
    7
 10
321.86682279171077
 20
539.85352790878574
 11
337.32163601233583
 21
543.99463263042605
  0
LINE
  8
_1-5_寸法3
  6
CONTINUOUS
 62
    7
 10
321.86682279171077
 20
539.85352790878574
 11
337.32163601233583
 21
535.71242318714542
  0
LINE
  8
_1-5_寸法3
  6
CONTINUOUS
 62
    7
 10
476.53348945837843
 20
475.18686124212218
 11
476.53348945837843
 21
547.85352790878574
  0
LINE
  8
_1-5_寸法3
  6
CONTINUOUS
 62
    7
 10
476.53348945837843
 20
539.85352790878574
 11
461.07867623775337
 21
535.71242318714542
  0
LINE
  8
_1-5_寸法3
  6
CONTINUOUS
 62
    7
 10
476.53348945837843
 20
539.85352790878574
 11
461.07867623775337
 21
543.99463263042617
  0
LINE
  8
_1-5_寸法3
  6
CONTINUOUS
 62
    7
 10
321.86682279171077
 20
539.85352790878574
 11
476.53348945837843
 21
539.85352790878574
  0
TEXT
  8
_1-5_寸法3
 62
    7
 10
387.2001561250446
 20
539.85352790878574
 40
24
 41
1
 50
0
  1
58
  0
LINE
  8
_1-5_寸法3
  6
CONTINUOUS
 62
    7
 10
476.53348945837843
 20
539.85352790878574
 11
491.98830267900348
 21
543.99463263042594
  0
LINE
  8
_1-5_寸法3
  6
CONTINUOUS
 62
    7
 10
476.53348945837843
 20
539.85352790878574
 11
491.98830267900348
 21
535.7124231871453
  0
LINE
  8
_1-5_寸法3
  6
CONTINUOUS
 62
    7
 10
631.20015612504517
 20
475.85352790878574
 11
631.20015612504517
 21
547.85352790878574
  0
LINE
  8
_1-5_寸法3
  6
CONTINUOUS
 62
    7
 10
631.20015612504517
 20
539.85352790878574
 11
615.74534290442011
 21
535.71242318714542
  0
LINE
  8
_1-5_寸法3
  6
CONTINUOUS
 62
    7
 10
631.20015612504517
 20
539.85352790878574
 11
615.74534290442011
 21
543.99463263042617
  0
LINE
  8
_1-5_寸法3
  6
CONTINUOUS
 62
    7
 10
476.53348945837843
 20
539.85352790878574
 11
631.20015612504517
 21
539.85352790878574
  0
TEXT
  8
_1-5_寸法3
 62
    7
 10
541.8668227917118
 20
539.85352790878562
 40
24
 41
1
 50
0
  1
58
  0
LINE
  8
_1-2_極細3
  6
CENTER1
 62
    2
 10
648.80029756689351
 20
433.85352790878375
 11
305.88710154711384
 21
433.85352790878375
  0
LINE
  8
_1-3_細線3
  6
CONTINUOUS
 62
    4
 10
323.19877782046979
 20
428.59312862662324
 11
324.53211115380373
 21
427.82332826770295
  0
ARC
  8
_1-3_細線3
  6
CONTINUOUS
 62
    4
 10
324.53211115380191
 20
430.90252970338321
 40
2.6666666666666665
 50
179.99999999999983
 51
239.99999999997968
  0
LINE
  8
_1-3_細線3
  6
CONTINUOUS
 62
    4
 10
321.86544448713948
 20
435.20452611418801
 11
321.86544448713948
 21
430.90252970338321
  0
ARC
  8
_1-3_細線3
  6
CONTINUOUS
 62
    4
 10
324.53211115380191
 20
435.20452611418801
 40
2.6666666666666665
 50
119.99999999998613
 51
179.99999999999983
  0
LINE
  8
_1-3_細線3
  6
CONTINUOUS
 62
    4
 10
324.53211115380373
 20
438.28372754986327
 11
323.19877782047342
 21
437.51392719094571
  0
LINE
  8
_1-3_細線3
  6
CONTINUOUS
 62
    4
 10
329.86544448713767
 20
459.85352790878602
 11
329.86544448713948
 21
406.52019457545259
  0
ARC
  8
_1-3_細線3
  6
CONTINUOUS
 62
    4
 10
329.06544445289592
 20
407.32019459815649
 40
0.800000034239626
 50
270.00000245217564
 51
359.99999999999966
  0
LINE
  8
_1-3_細線3
  6
CONTINUOUS
 62
    4
 10
329.86544448713403
 20
459.05352790878811
 11
329.86544448713403
 21
407.32019457545323
  0
ARC
  8
_1-3_細線3
  6
CONTINUOUS
 62
    4
 10
329.06544447909664
 20
459.05352788282977
 40
0.8000000259586764
 50
0
 51
89.999999424312506
  0
LINE
  8
_1-3_細線3
  6
CONTINUOUS
 62
    4
 10
322.66544448713512
 20
459.85352790878829
 11
329.06544448713476
 21
459.85352790878829
  0
ARC
  8
_1-3_細線3
  6
CONTINUOUS
 62
    4
 10
322.66544452446078
 20
459.05352785840665
 40
0.8000000373270587
 50
90.000002673253533
 51
179.99999999999983
  0
LINE
  8
_1-3_細線3
  6
CONTINUOUS
 62
    4
 10
321.86544448713403
 20
455.32019457545317
 11
321.86544448713403
 21
459.05352790878811
  0
ARC
  8
_1-3_細線3
  6
CONTINUOUS
 62
    4
 10
322.6654445203153
 20
455.32019459721556
 40
0.8000000217604497
 50
179.99999999999983
 51
269.99999762364394
  0
LINE
  8
_1-3_細線3
  6
CONTINUOUS
 62
    4
 10
323.73211115380082
 20
454.52019457545526
 11
322.66544448713512
 21
454.52019457545526
  0
ARC
  8
_1-3_細線3
  6
CONTINUOUS
 62
    4
 10
323.73211114268315
 20
453.7201945712564
 40
0.8000000111193609
 50
0
 51
89.999999203756033
  0
LINE
  8
_1-3_細線3
  6
CONTINUOUS
 62
    4
 10
324.53211115380191
 20
412.65352790878671
 11
324.53211115380191
 21
453.72019457545463
  0
ARC
  8
_1-3_細線3
  6
CONTINUOUS
 62
    4
 10
323.73211112849322
 20
412.65352792671194
 40
0.8000000179235944
 50
270.0000018125229
 51
359.99999999999966
  0
LINE
  8
_1-3_細線3
  6
CONTINUOUS
 62
    4
 10
322.66544448713512
 20
411.85352790878835
 11
323.73211115380082
 21
411.85352790878835
  0
ARC
  8
_1-3_細線3
  6
CONTINUOUS
 62
    4
 10
322.66544448786817
 20
411.05352790827885
 40
0.8000000007317187
 50
90.000000052501036
 51
179.99999999999983
  0
LINE
  8
_1-3_細線3
  6
CONTINUOUS
 62
    4
 10
321.86544448713403
 20
407.32019457545323
 11
321.86544448713403
 21
411.05352790878817
  0
ARC
  8
_1-3_細線3
  6
CONTINUOUS
 62
    4
 10
322.6654445337449
 20
407.32019459065771
 40
0.8000000152023871
 50
179.99999999999983
 51
269.99999666181975
  0
LINE
  8
_1-3_細線3
  6
CONTINUOUS
 62
    4
 10
329.06544448713476
 20
406.52019457545532
 11
322.66544448713512
 21
406.52019457545532
  0
ARC
  8
_1-3_細線3
  6
CONTINUOUS
 62
    4
 10
623.99877784853243
 20
407.3201945824386
 40
0.8000000280644599
 50
179.99999999999983
 51
269.99999799010897
  0
LINE
  8
_1-3_細線3
  6
CONTINUOUS
 62
    4
 10
623.19877782046615
 20
459.05352790878629
 11
623.19877782046615
 21
407.32019457545368
  0
ARC
  8
_1-3_細線3
  6
CONTINUOUS
 62
    4
 10
623.99877781929763
 20
459.05352790842477
 40
0.8000000003642828
 50
89.999999916102567
 51
179.99999999999983
  0
LINE
  8
_1-3_細線3
  6
CONTINUOUS
 62
    4
 10
630.39877782046688
 20
459.8535279087892
 11
623.99877782046906
 21
459.8535279087892
  0
ARC
  8
_1-3_細線3
  6
CONTINUOUS
 62
    4
 10
630.39877780049073
 20
459.0535279004817
 40
0.8000000199784456
 50
0
 51
89.999998569314286
  0
LINE
  8
_1-3_細線3
  6
CONTINUOUS
 62
    4
 10
631.19877782046615
 20
455.32019457545363
 11
631.19877782046615
 21
459.05352790878629
  0
ARC
  8
_1-3_細線3
  6
CONTINUOUS
 62
    4
 10
630.39877782214035
 20
455.32019458276596
 40
0.8000000073103971
 50
269.99999988014616
 51
359.99999999999966
  0
LINE
  8
_1-3_細線3
  6
CONTINUOUS
 62
    4
 10
629.33211115380118
 20
454.52019457545572
 11
630.39877782046688
 21
454.52019457545572
  0
ARC
  8
_1-3_細線3
  6
CONTINUOUS
 62
    4
 10
629.3321111711216
 20
453.72019455610376
 40
0.8000000173178707
 50
90.000001240483471
 51
179.99999999999983
  0
LINE
  8
_1-3_細線3
  6
CONTINUOUS
 62
    4
 10
628.53211115380191
 20
412.65352790878717
 11
628.53211115380191
 21
453.72019457545281
  0
ARC
  8
_1-3_細線3
  6
CONTINUOUS
 62
    4
 10
629.33211118040208
 20
412.65352792725855
 40
0.8000000184692912
 50
179.99999999999983
 51
269.99999809485047
  0
LINE
  8
_1-3_細線3
  6
CONTINUOUS
 62
    4
 10
630.39877782046688
 20
411.85352790878926
 11
629.33211115380118
 21
411.85352790878926
  0
ARC
  8
_1-3_細線3
  6
CONTINUOUS
 62
    4
 10
630.39877783719066
 20
411.05352795059855
 40
0.7999999832773039
 50
0
 51
90.00000119775315
  0
LINE
  8
_1-3_細線3
  6
CONTINUOUS
 62
    4
 10
631.19877782046615
 20
407.32019457545368
 11
631.19877782046615
 21
411.05352790878635
  0
ARC
  8
_1-3_細線3
  6
CONTINUOUS
 62
    4
 10
630.3987778087162
 20
407.32019457621038
 40
0.8000000007547593
 50
270.00000084157949
 51
359.99999999999966
  0
LINE
  8
_1-3_細線3
  6
CONTINUOUS
 62
    4
 10
623.99877782046906
 20
406.52019457545578
 11
630.39877782046688
 21
406.52019457545578
  0
LINE
  8
_1-3_細線3
  6
CONTINUOUS
 62
    4
 10
623.19877782046979
 20
406.5201945754535
 11
329.86544448713767
 21
406.52019457545259
  0
LINE
  8
_1-3_細線3
  6
CONTINUOUS
 62
    4
 10
623.19877782046979
 20
459.85352790878648
 11
623.19877782046979
 21
406.5201945754535
  0
LINE
  8
_1-3_細線3
  6
CONTINUOUS
 62
    4
 10
629.86544448713767
 20
428.5931286266237
 11
628.53211115380191
 21
427.82332826770386
  0
ARC
  8
_1-3_細線3
  6
CONTINUOUS
 62
    4
 10
628.53211115380191
 20
430.90252970338366
 40
2.6666666666666665
 50
299.99999999998579
 51
359.99999999999966
  0
LINE
  8
_1-3_細線3
  6
CONTINUOUS
 62
    4
 10
631.19877782046979
 20
435.20452611418847
 11
631.19877782046979
 21
430.90252970338366
  0
ARC
  8
_1-3_細線3
  6
CONTINUOUS
 62
    4
 10
628.53211115380191
 20
435.20452611418847
 40
2.6666666666666665
 50
0
 51
60.000000000013891
  0
LINE
  8
_1-3_細線3
  6
CONTINUOUS
 62
    4
 10
628.53211115380191
 20
438.28372754986373
 11
629.86544448713767
 21
437.51392719094616
  0
LINE
  8
_1-3_細線3
  6
CONTINUOUS
 62
    4
 10
329.86544448713767
 20
459.85352790878602
 11
623.19877782046979
 21
459.85352790878648
  0
LINE
  8
_1-3_細線3
  6
CONTINUOUS
 62
    4
 10
623.19877782046979
 20
456.12019457545426
 11
329.86544448713767
 21
456.12019457545381
  0
CIRCLE
  8
_1-3_細線3
  6
CONTINUOUS
 62
    4
 10
476.53211115380191
 20
433.85352790878648
 40
5.8666666666661813
  0
CIRCLE
  8
_1-3_細線3
  6
CONTINUOUS
 62
    4
 10
476.53211115380191
 20
433.85352790878648
 40
8
  0
LINE
  8
_1-5_寸法3
  6
CONTINUOUS
 62
    7
 10
462.78592682454246
 20
418.05576966642337
 11
413.98911364521211
 21
459.00115760782518
  0
LINE
  8
_1-5_寸法3
  6
CONTINUOUS
 62
    7
 10
420.117469190164
 20
453.85885673033295
 11
415.97636446852368
 21
469.31366995095806
  0
LINE
  8
_1-5_寸法3
  6
CONTINUOUS
 62
    7
 10
420.117469190164
 20
453.85885673033295
 11
424.25857391180443
 21
469.31366995095806
  0
LINE
  8
_1-5_寸法3
  6
CONTINUOUS
 62
    7
 10
462.78592682454246
 20
471.3891029997564
 11
413.98911364521211
 21
512.33449094115826
  0
LINE
  8
_1-5_寸法3
  6
CONTINUOUS
 62
    7
 10
420.117469190164
 20
507.19219006366598
 11
424.25857391180443
 21
491.73737684304086
  0
LINE
  8
_1-5_寸法3
  6
CONTINUOUS
 62
    7
 10
420.117469190164
 20
507.19219006366598
 11
415.97636446852368
 21
491.73737684304086
  0
LINE
  8
_1-5_寸法3
  6
CONTINUOUS
 62
    7
 10
420.117469190164
 20
453.85885673033295
 11
420.117469190164
 21
507.19219006366598
  0
TEXT
  8
_1-5_寸法3
 62
    7
 10
420.117469190164
 20
469.01979928449668
 40
24
 41
1
 50
90
  1
20
  0
ARC
  8
_0-a_極細1
  6
CONTINUOUS
 62
    7
 10
2018.8342976988567
 20
545.19253202597997
 40
40.55999999997205
 50
329.9999999999622
 51
30.00000000001284
  0
ARC
  8
_0-a_極細1
  6
CONTINUOUS
 62
    7
 10
2089.0862784537057
 20
504.63253202599321
 40
40.559999999917665
 50
149.99999999994984
 51
210.000000000104
  0
ARC
  8
_0-a_極細1
  6
CONTINUOUS
 62
    7
 10
1812.8668629518913
 20
545.19253202597997
 40
40.55999999997205
 50
329.99999999996334
 51
30.000000000012331
  0
ARC
  8
_0-a_極細1
  6
CONTINUOUS
 62
    7
 10
1883.1188437067401
 20
504.63253202599321
 40
40.559999999917665
 50
149.99999999994853
 51
210.000000000104
  0
LINE
  8
_0-b_細線1
  6
CONTINUOUS
 62
    7
 10
1852.136739791317
 20
555.34094929243224
 11
2058.1041745382827
 21
555.34094929243224
  0
LINE
  8
_0-d_寸法1
  6
CONTINUOUS
 62
    7
 10
1830.1176628645342
 20
491.34094929243241
 11
1752.9433912802299
 21
491.34094929243327
  0
LINE
  8
_0-d_寸法1
  6
CONTINUOUS
 62
    7
 10
1760.9433912802299
 20
491.34094929243315
 11
1756.8022865585897
 21
506.79576251305826
  0
LINE
  8
_0-d_寸法1
  6
CONTINUOUS
 62
    7
 10
1760.9433912802299
 20
491.34094929243315
 11
1765.0844960018703
 21
506.79576251305826
  0
LINE
  8
_0-d_寸法1
  6
CONTINUOUS
 62
    7
 10
1836.136739791317
 20
555.34094929243236
 11
1752.9433912802299
 21
555.34094929243327
  0
LINE
  8
_0-d_寸法1
  6
CONTINUOUS
 62
    7
 10
1760.9433912802299
 20
555.34094929243315
 11
1765.0844960018703
 21
539.8861360718081
  0
LINE
  8
_0-d_寸法1
  6
CONTINUOUS
 62
    7
 10
1760.9433912802299
 20
555.34094929243315
 11
1756.8022865585897
 21
539.8861360718081
  0
LINE
  8
_0-d_寸法1
  6
CONTINUOUS
 62
    7
 10
1760.9433912802299
 20
491.34094929243315
 11
1760.9433912802299
 21
555.34094929243315
  0
TEXT
  8
_0-d_寸法1
 62
    7
 10
1760.9433912802299
 20
517.34094929243315
 40
24
 41
1
 50
90
  1
8
  0
LINE
  8
_0-b_細線1
  6
CONTINUOUS
 62
    7
 10
2050.7659518837218
 20
491.34094929243224
 11
1844.7985171367561
 21
491.34094929243224
  0
LINE
  8
_0-a_極細1
  6
CONTINUOUS
 62
    7
 10
2049.4513398822037
 20
496.01944637526299
 11
2004.9602126943275
 21
555.34094929243179
  0
LINE
  8
_0-a_極細1
  6
CONTINUOUS
 62
    7
 10
2053.0421058588827
 20
523.23175840635736
 11
2028.9602126943275
 21
555.34094929243179
  0
LINE
  8
_0-a_極細1
  6
CONTINUOUS
 62
    7
 10
2053.4346147994029
 20
523.97348543253133
 11
2028.9602126943275
 21
491.34094929243179
  0
LINE
  8
_0-a_極細1
  6
CONTINUOUS
 62
    7
 10
2052.9602126943219
 20
555.34094929243179
 11
2059.3622363633758
 21
546.80491771262473
  0
LINE
  8
_0-a_極細1
  6
CONTINUOUS
 62
    7
 10
1884.9602126943275
 20
555.34094929243179
 11
1842.9137106785013
 21
499.27894648217421
  0
LINE
  8
_0-a_極細1
  6
CONTINUOUS
 62
    7
 10
1884.9602126943275
 20
491.34094929243179
 11
1852.1485323012741
 21
535.08985648315843
  0
LINE
  8
_0-a_極細1
  6
CONTINUOUS
 62
    7
 10
2004.9602126943221
 20
555.34094929243179
 11
1956.9602126943221
 21
491.34094929243179
  0
LINE
  8
_0-a_極細1
  6
CONTINUOUS
 62
    7
 10
2004.9602126943275
 20
491.34094929243179
 11
1956.9602126943275
 21
555.34094929243179
  0
LINE
  8
_0-a_極細1
  6
CONTINUOUS
 62
    7
 10
2028.9602126943221
 20
555.34094929243179
 11
1980.9602126943221
 21
491.34094929243179
  0
LINE
  8
_0-a_極細1
  6
CONTINUOUS
 62
    7
 10
2028.9602126943275
 20
491.34094929243179
 11
1980.9602126943275
 21
555.34094929243179
  0
LINE
  8
_0-a_極細1
  6
CONTINUOUS
 62
    7
 10
2052.9602126943219
 20
555.34094929243179
 11
2004.9602126943275
 21
491.34094929243179
  0
LINE
  8
_0-a_極細1
  6
CONTINUOUS
 62
    7
 10
1908.9602126943275
 20
555.34094929243179
 11
1860.9602126943275
 21
491.34094929243179
  0
LINE
  8
_0-a_極細1
  6
CONTINUOUS
 62
    7
 10
1956.9602126943275
 20
555.34094929243179
 11
1908.9602126943275
 21
491.34094929243179
  0
LINE
  8
_0-a_極細1
  6
CONTINUOUS
 62
    7
 10
1908.9602126943275
 20
491.34094929243179
 11
1860.9602126943275
 21
555.34094929243179
  0
LINE
  8
_0-a_極細1
  6
CONTINUOUS
 62
    7
 10
1932.9602126943275
 20
491.34094929243179
 11
1884.9602126943275
 21
555.34094929243179
  0
LINE
  8
_0-a_極細1
  6
CONTINUOUS
 62
    7
 10
1932.9602126943221
 20
555.34094929243179
 11
1884.9602126943221
 21
491.34094929243179
  0
LINE
  8
_0-a_極細1
  6
CONTINUOUS
 62
    7
 10
1956.9602126943275
 20
491.34094929243179
 11
1908.9602126943275
 21
555.34094929243179
  0
LINE
  8
_0-a_極細1
  6
CONTINUOUS
 62
    7
 10
1980.9602126943275
 20
491.34094929243179
 11
1932.9602126943275
 21
555.34094929243179
  0
LINE
  8
_0-a_極細1
  6
CONTINUOUS
 62
    7
 10
1980.9602126943275
 20
555.34094929243179
 11
1932.9602126943275
 21
491.34094929243179
  0
LINE
  8
_0-a_極細1
  6
CONTINUOUS
 62
    7
 10
1860.960212694318
 20
491.34094929243224
 11
1843.7310439904215
 21
514.31317423095516
  0
LINE
  8
_0-1_計細線
  6
CONTINUOUS
 62
    3
 10
1190.4604746743425
 20
1245.7336586827307
 11
1192.4150342687528
 21
1245.7336586827307
  0
LINE
  8
_0-1_計細線
  6
CONTINUOUS
 62
    3
 10
455.14047467434284
 20
1135.7336586827312
 11
455.14047467434284
 21
1245.7336586827312
  0
LINE
  8
_0-1_計細線
  6
CONTINUOUS
 62
    3
 10
455.14047467434284
 20
1245.7336586827312
 11
463.14047467434284
 21
1245.7336586827312
  0
LINE
  8
_0-1_計細線
  6
CONTINUOUS
 62
    3
 10
463.14047467434284
 20
1245.7336586827312
 11
463.14047467434284
 21
1135.7336586827312
  0
LINE
  8
_0-1_計細線
  6
CONTINUOUS
 62
    3
 10
463.14047467434284
 20
1135.7336586827312
 11
455.14047467434284
 21
1135.7336586827312
  0
LINE
  8
_0-1_計細線
  6
CONTINUOUS
 62
    3
 10
441.11047467434219
 20
1135.7336586827312
 11
441.11047467434219
 21
1245.7336586827312
  0
LINE
  8
_0-1_計細線
  6
CONTINUOUS
 62
    3
 10
441.11047467434219
 20
1245.7336586827312
 11
449.11047467434219
 21
1245.7336586827312
  0
LINE
  8
_0-1_計細線
  6
CONTINUOUS
 62
    3
 10
449.11047467434219
 20
1245.7336586827312
 11
449.11047467434219
 21
1135.7336586827312
  0
LINE
  8
_0-1_計細線
  6
CONTINUOUS
 62
    3
 10
449.11047467434219
 20
1135.7336586827312
 11
441.11047467434219
 21
1135.7336586827312
  0
LINE
  8
_0-1_計細線
  6
CONTINUOUS
 62
    3
 10
427.08047467434244
 20
1135.7336586827312
 11
427.08047467434244
 21
1245.7336586827312
  0
LINE
  8
_0-1_計細線
  6
CONTINUOUS
 62
    3
 10
427.08047467434244
 20
1245.7336586827312
 11
435.08047467434244
 21
1245.7336586827312
  0
LINE
  8
_0-1_計細線
  6
CONTINUOUS
 62
    3
 10
435.08047467434244
 20
1245.7336586827312
 11
435.08047467434244
 21
1135.7336586827312
  0
LINE
  8
_0-1_計細線
  6
CONTINUOUS
 62
    3
 10
435.08047467434244
 20
1135.7336586827312
 11
427.08047467434244
 21
1135.7336586827312
  0
LINE
  8
_0-1_計細線
  6
CONTINUOUS
 62
    3
 10
413.05047467434269
 20
1135.7336586827312
 11
413.05047467434269
 21
1245.7336586827312
  0
LINE
  8
_0-1_計細線
  6
CONTINUOUS
 62
    3
 10
413.05047467434269
 20
1245.7336586827312
 11
421.05047467434269
 21
1245.7336586827312
  0
LINE
  8
_0-1_計細線
  6
CONTINUOUS
 62
    3
 10
421.05047467434269
 20
1245.7336586827312
 11
421.05047467434269
 21
1135.7336586827312
  0
LINE
  8
_0-1_計細線
  6
CONTINUOUS
 62
    3
 10
421.05047467434269
 20
1135.7336586827312
 11
413.05047467434269
 21
1135.7336586827312
  0
LINE
  8
_0-1_計細線
  6
CONTINUOUS
 62
    3
 10
399.02047467434204
 20
1135.7336586827312
 11
399.02047467434204
 21
1245.7336586827312
  0
LINE
  8
_0-1_計細線
  6
CONTINUOUS
 62
    3
 10
399.02047467434204
 20
1245.7336586827312
 11
407.02047467434204
 21
1245.7336586827312
  0
LINE
  8
_0-1_計細線
  6
CONTINUOUS
 62
    3
 10
407.02047467434204
 20
1245.7336586827312
 11
407.02047467434204
 21
1135.7336586827312
  0
LINE
  8
_0-1_計細線
  6
CONTINUOUS
 62
    3
 10
407.02047467434204
 20
1135.7336586827312
 11
399.02047467434204
 21
1135.7336586827312
  0
LINE
  8
_0-1_計細線
  6
CONTINUOUS
 62
    3
 10
384.99047467434229
 20
1135.7336586827312
 11
384.99047467434229
 21
1245.7336586827312
  0
LINE
  8
_0-1_計細線
  6
CONTINUOUS
 62
    3
 10
384.99047467434229
 20
1245.7336586827312
 11
392.99047467434229
 21
1245.7336586827312
  0
LINE
  8
_0-1_計細線
  6
CONTINUOUS
 62
    3
 10
392.99047467434229
 20
1245.7336586827312
 11
392.99047467434229
 21
1135.7336586827312
  0
LINE
  8
_0-1_計細線
  6
CONTINUOUS
 62
    3
 10
392.99047467434229
 20
1135.7336586827312
 11
384.99047467434229
 21
1135.7336586827312
  0
LINE
  8
_0-1_計細線
  6
CONTINUOUS
 62
    3
 10
370.96047467434255
 20
1135.7336586827312
 11
370.96047467434255
 21
1245.7336586827312
  0
LINE
  8
_0-1_計細線
  6
CONTINUOUS
 62
    3
 10
370.96047467434255
 20
1245.7336586827312
 11
378.96047467434255
 21
1245.7336586827312
  0
LINE
  8
_0-1_計細線
  6
CONTINUOUS
 62
    3
 10
378.96047467434255
 20
1245.7336586827312
 11
378.96047467434255
 21
1135.7336586827312
  0
LINE
  8
_0-1_計細線
  6
CONTINUOUS
 62
    3
 10
378.96047467434255
 20
1135.7336586827312
 11
370.96047467434255
 21
1135.7336586827312
  0
LINE
  8
_0-1_計細線
  6
CONTINUOUS
 62
    3
 10
370.96047467434255
 20
1248.7336586827312
 11
853.96047467434255
 21
1248.7336586827312
  0
LINE
  8
_0-1_計細線
  6
CONTINUOUS
 62
    3
 10
853.96047467434255
 20
1248.7336586827312
 11
853.96047467434255
 21
1245.7336586827312
  0
LINE
  8
_0-1_計細線
  6
CONTINUOUS
 62
    3
 10
853.96047467434255
 20
1245.7336586827312
 11
370.96047467434255
 21
1245.7336586827312
  0
LINE
  8
_0-1_計細線
  6
CONTINUOUS
 62
    3
 10
370.96047467434255
 20
1245.7336586827312
 11
370.96047467434255
 21
1248.7336586827312
  0
LINE
  8
_0-1_計細線
  6
CONTINUOUS
 62
    3
 10
370.96047467434255
 20
1132.7336586827312
 11
853.96047467434255
 21
1132.7336586827312
  0
LINE
  8
_0-1_計細線
  6
CONTINUOUS
 62
    3
 10
853.96047467434255
 20
1132.7336586827312
 11
853.96047467434255
 21
1135.7336586827312
  0
LINE
  8
_0-1_計細線
  6
CONTINUOUS
 62
    3
 10
853.96047467434255
 20
1135.7336586827312
 11
370.96047467434255
 21
1135.7336586827312
  0
LINE
  8
_0-1_計細線
  6
CONTINUOUS
 62
    3
 10
370.96047467434255
 20
1135.7336586827312
 11
370.96047467434255
 21
1132.7336586827312
  0
LINE
  8
_0-1_計細線
  6
CONTINUOUS
 62
    3
 10
845.96047467434255
 20
1135.7336586827312
 11
845.96047467434255
 21
1245.7336586827312
  0
LINE
  8
_0-1_計細線
  6
CONTINUOUS
 62
    3
 10
845.96047467434255
 20
1245.7336586827312
 11
853.96047467434255
 21
1245.7336586827312
  0
LINE
  8
_0-1_計細線
  6
CONTINUOUS
 62
    3
 10
853.96047467434255
 20
1245.7336586827312
 11
853.96047467434255
 21
1135.7336586827312
  0
LINE
  8
_0-1_計細線
  6
CONTINUOUS
 62
    3
 10
853.96047467434255
 20
1135.7336586827312
 11
845.96047467434255
 21
1135.7336586827312
  0
LINE
  8
_0-1_計細線
  6
CONTINUOUS
 62
    3
 10
833.95047467434233
 20
1135.7336586827312
 11
833.95047467434233
 21
1245.7336586827312
  0
LINE
  8
_0-1_計細線
  6
CONTINUOUS
 62
    3
 10
833.95047467434233
 20
1245.7336586827312
 11
841.95047467434233
 21
1245.7336586827312
  0
LINE
  8
_0-1_計細線
  6
CONTINUOUS
 62
    3
 10
841.95047467434233
 20
1245.7336586827312
 11
841.95047467434233
 21
1135.7336586827312
  0
LINE
  8
_0-1_計細線
  6
CONTINUOUS
 62
    3
 10
841.95047467434233
 20
1135.7336586827312
 11
833.95047467434233
 21
1135.7336586827312
  0
LINE
  8
_0-1_計細線
  6
CONTINUOUS
 62
    3
 10
819.92047467434168
 20
1135.7336586827312
 11
819.92047467434168
 21
1245.7336586827312
  0
LINE
  8
_0-1_計細線
  6
CONTINUOUS
 62
    3
 10
819.92047467434168
 20
1245.7336586827312
 11
827.92047467434168
 21
1245.7336586827312
  0
LINE
  8
_0-1_計細線
  6
CONTINUOUS
 62
    3
 10
827.92047467434168
 20
1245.7336586827312
 11
827.92047467434168
 21
1135.7336586827312
  0
LINE
  8
_0-1_計細線
  6
CONTINUOUS
 62
    3
 10
827.92047467434168
 20
1135.7336586827312
 11
819.92047467434168
 21
1135.7336586827312
  0
LINE
  8
_0-1_計細線
  6
CONTINUOUS
 62
    3
 10
805.89047467434193
 20
1135.7336586827312
 11
805.89047467434193
 21
1245.7336586827312
  0
LINE
  8
_0-1_計細線
  6
CONTINUOUS
 62
    3
 10
805.89047467434193
 20
1245.7336586827312
 11
813.89047467434193
 21
1245.7336586827312
  0
LINE
  8
_0-1_計細線
  6
CONTINUOUS
 62
    3
 10
813.89047467434193
 20
1245.7336586827312
 11
813.89047467434193
 21
1135.7336586827312
  0
LINE
  8
_0-1_計細線
  6
CONTINUOUS
 62
    3
 10
813.89047467434193
 20
1135.7336586827312
 11
805.89047467434193
 21
1135.7336586827312
  0
LINE
  8
_0-1_計細線
  6
CONTINUOUS
 62
    3
 10
791.86047467434219
 20
1135.7336586827312
 11
791.86047467434219
 21
1245.7336586827312
  0
LINE
  8
_0-1_計細線
  6
CONTINUOUS
 62
    3
 10
791.86047467434219
 20
1245.7336586827312
 11
799.86047467434219
 21
1245.7336586827312
  0
LINE
  8
_0-1_計細線
  6
CONTINUOUS
 62
    3
 10
799.86047467434219
 20
1245.7336586827312
 11
799.86047467434219
 21
1135.7336586827312
  0
LINE
  8
_0-1_計細線
  6
CONTINUOUS
 62
    3
 10
799.86047467434219
 20
1135.7336586827312
 11
791.86047467434219
 21
1135.7336586827312
  0
LINE
  8
_0-1_計細線
  6
CONTINUOUS
 62
    3
 10
777.83047467434153
 20
1135.7336586827312
 11
777.83047467434153
 21
1245.7336586827312
  0
LINE
  8
_0-1_計細線
  6
CONTINUOUS
 62
    3
 10
777.83047467434153
 20
1245.7336586827312
 11
785.83047467434153
 21
1245.7336586827312
  0
LINE
  8
_0-1_計細線
  6
CONTINUOUS
 62
    3
 10
785.83047467434153
 20
1245.7336586827312
 11
785.83047467434153
 21
1135.7336586827312
  0
LINE
  8
_0-1_計細線
  6
CONTINUOUS
 62
    3
 10
785.83047467434153
 20
1135.7336586827312
 11
777.83047467434153
 21
1135.7336586827312
  0
LINE
  8
_0-1_計細線
  6
CONTINUOUS
 62
    3
 10
763.80047467434179
 20
1135.7336586827312
 11
763.80047467434179
 21
1245.7336586827312
  0
LINE
  8
_0-1_計細線
  6
CONTINUOUS
 62
    3
 10
763.80047467434179
 20
1245.7336586827312
 11
771.80047467434179
 21
1245.7336586827312
  0
LINE
  8
_0-1_計細線
  6
CONTINUOUS
 62
    3
 10
771.80047467434179
 20
1245.7336586827312
 11
771.80047467434179
 21
1135.7336586827312
  0
LINE
  8
_0-1_計細線
  6
CONTINUOUS
 62
    3
 10
771.80047467434179
 20
1135.7336586827312
 11
763.80047467434179
 21
1135.7336586827312
  0
LINE
  8
_0-1_計細線
  6
CONTINUOUS
 62
    3
 10
749.77047467434204
 20
1135.7336586827312
 11
749.77047467434204
 21
1245.7336586827312
  0
LINE
  8
_0-1_計細線
  6
CONTINUOUS
 62
    3
 10
749.77047467434204
 20
1245.7336586827312
 11
757.77047467434204
 21
1245.7336586827312
  0
LINE
  8
_0-1_計細線
  6
CONTINUOUS
 62
    3
 10
757.77047467434204
 20
1245.7336586827312
 11
757.77047467434204
 21
1135.7336586827312
  0
LINE
  8
_0-1_計細線
  6
CONTINUOUS
 62
    3
 10
757.77047467434204
 20
1135.7336586827312
 11
749.77047467434204
 21
1135.7336586827312
  0
LINE
  8
_0-1_計細線
  6
CONTINUOUS
 62
    3
 10
735.74047467434229
 20
1135.7336586827312
 11
735.74047467434229
 21
1245.7336586827312
  0
LINE
  8
_0-1_計細線
  6
CONTINUOUS
 62
    3
 10
735.74047467434229
 20
1245.7336586827312
 11
743.74047467434229
 21
1245.7336586827312
  0
LINE
  8
_0-1_計細線
  6
CONTINUOUS
 62
    3
 10
743.74047467434229
 20
1245.7336586827312
 11
743.74047467434229
 21
1135.7336586827312
  0
LINE
  8
_0-1_計細線
  6
CONTINUOUS
 62
    3
 10
743.74047467434229
 20
1135.7336586827312
 11
735.74047467434229
 21
1135.7336586827312
  0
LINE
  8
_0-1_計細線
  6
CONTINUOUS
 62
    3
 10
721.71047467434255
 20
1135.7336586827312
 11
721.71047467434255
 21
1245.7336586827312
  0
LINE
  8
_0-1_計細線
  6
CONTINUOUS
 62
    3
 10
721.71047467434255
 20
1245.7336586827312
 11
729.71047467434255
 21
1245.7336586827312
  0
LINE
  8
_0-1_計細線
  6
CONTINUOUS
 62
    3
 10
729.71047467434255
 20
1245.7336586827312
 11
729.71047467434255
 21
1135.7336586827312
  0
LINE
  8
_0-1_計細線
  6
CONTINUOUS
 62
    3
 10
729.71047467434255
 20
1135.7336586827312
 11
721.71047467434255
 21
1135.7336586827312
  0
LINE
  8
_0-1_計細線
  6
CONTINUOUS
 62
    3
 10
707.68047467434189
 20
1135.7336586827312
 11
707.68047467434189
 21
1245.7336586827312
  0
LINE
  8
_0-1_計細線
  6
CONTINUOUS
 62
    3
 10
707.68047467434189
 20
1245.7336586827312
 11
715.68047467434189
 21
1245.7336586827312
  0
LINE
  8
_0-1_計細線
  6
CONTINUOUS
 62
    3
 10
715.68047467434189
 20
1245.7336586827312
 11
715.68047467434189
 21
1135.7336586827312
  0
LINE
  8
_0-1_計細線
  6
CONTINUOUS
 62
    3
 10
715.68047467434189
 20
1135.7336586827312
 11
707.68047467434189
 21
1135.7336586827312
  0
LINE
  8
_0-1_計細線
  6
CONTINUOUS
 62
    3
 10
693.65047467434215
 20
1135.7336586827312
 11
693.65047467434215
 21
1245.7336586827312
  0
LINE
  8
_0-1_計細線
  6
CONTINUOUS
 62
    3
 10
693.65047467434215
 20
1245.7336586827312
 11
701.65047467434215
 21
1245.7336586827312
  0
LINE
  8
_0-1_計細線
  6
CONTINUOUS
 62
    3
 10
701.65047467434215
 20
1245.7336586827312
 11
701.65047467434215
 21
1135.7336586827312
  0
LINE
  8
_0-1_計細線
  6
CONTINUOUS
 62
    3
 10
701.65047467434215
 20
1135.7336586827312
 11
693.65047467434215
 21
1135.7336586827312
  0
LINE
  8
_0-1_計細線
  6
CONTINUOUS
 62
    3
 10
679.6204746743424
 20
1135.7336586827312
 11
679.6204746743424
 21
1245.7336586827312
  0
LINE
  8
_0-1_計細線
  6
CONTINUOUS
 62
    3
 10
679.6204746743424
 20
1245.7336586827312
 11
687.6204746743424
 21
1245.7336586827312
  0
LINE
  8
_0-1_計細線
  6
CONTINUOUS
 62
    3
 10
687.6204746743424
 20
1245.7336586827312
 11
687.6204746743424
 21
1135.7336586827312
  0
LINE
  8
_0-1_計細線
  6
CONTINUOUS
 62
    3
 10
687.6204746743424
 20
1135.7336586827312
 11
679.6204746743424
 21
1135.7336586827312
  0
LINE
  8
_0-1_計細線
  6
CONTINUOUS
 62
    3
 10
665.59047467434175
 20
1135.7336586827312
 11
665.59047467434175
 21
1245.7336586827312
  0
LINE
  8
_0-1_計細線
  6
CONTINUOUS
 62
    3
 10
665.59047467434175
 20
1245.7336586827312
 11
673.59047467434175
 21
1245.7336586827312
  0
LINE
  8
_0-1_計細線
  6
CONTINUOUS
 62
    3
 10
673.59047467434175
 20
1245.7336586827312
 11
673.59047467434175
 21
1135.7336586827312
  0
LINE
  8
_0-1_計細線
  6
CONTINUOUS
 62
    3
 10
673.59047467434175
 20
1135.7336586827312
 11
665.59047467434175
 21
1135.7336586827312
  0
LINE
  8
_0-1_計細線
  6
CONTINUOUS
 62
    3
 10
651.560474674342
 20
1135.7336586827312
 11
651.560474674342
 21
1245.7336586827312
  0
LINE
  8
_0-1_計細線
  6
CONTINUOUS
 62
    3
 10
651.560474674342
 20
1245.7336586827312
 11
659.560474674342
 21
1245.7336586827312
  0
LINE
  8
_0-1_計細線
  6
CONTINUOUS
 62
    3
 10
659.560474674342
 20
1245.7336586827312
 11
659.560474674342
 21
1135.7336586827312
  0
LINE
  8
_0-1_計細線
  6
CONTINUOUS
 62
    3
 10
659.560474674342
 20
1135.7336586827312
 11
651.560474674342
 21
1135.7336586827312
  0
LINE
  8
_0-1_計細線
  6
CONTINUOUS
 62
    3
 10
637.53047467434226
 20
1135.7336586827312
 11
637.53047467434226
 21
1245.7336586827312
  0
LINE
  8
_0-1_計細線
  6
CONTINUOUS
 62
    3
 10
637.53047467434226
 20
1245.7336586827312
 11
645.53047467434226
 21
1245.7336586827312
  0
LINE
  8
_0-1_計細線
  6
CONTINUOUS
 62
    3
 10
645.53047467434226
 20
1245.7336586827312
 11
645.53047467434226
 21
1135.7336586827312
  0
LINE
  8
_0-1_計細線
  6
CONTINUOUS
 62
    3
 10
645.53047467434226
 20
1135.7336586827312
 11
637.53047467434226
 21
1135.7336586827312
  0
LINE
  8
_0-1_計細線
  6
CONTINUOUS
 62
    3
 10
623.50047467434251
 20
1135.7336586827312
 11
623.50047467434251
 21
1245.7336586827312
  0
LINE
  8
_0-1_計細線
  6
CONTINUOUS
 62
    3
 10
623.50047467434251
 20
1245.7336586827312
 11
631.50047467434251
 21
1245.7336586827312
  0
LINE
  8
_0-1_計細線
  6
CONTINUOUS
 62
    3
 10
631.50047467434251
 20
1245.7336586827312
 11
631.50047467434251
 21
1135.7336586827312
  0
LINE
  8
_0-1_計細線
  6
CONTINUOUS
 62
    3
 10
631.50047467434251
 20
1135.7336586827312
 11
623.50047467434251
 21
1135.7336586827312
  0
LINE
  8
_0-1_計細線
  6
CONTINUOUS
 62
    3
 10
609.47047467434277
 20
1135.7336586827312
 11
609.47047467434277
 21
1245.7336586827312
  0
LINE
  8
_0-1_計細線
  6
CONTINUOUS
 62
    3
 10
609.47047467434277
 20
1245.7336586827312
 11
617.47047467434277
 21
1245.7336586827312
  0
LINE
  8
_0-1_計細線
  6
CONTINUOUS
 62
    3
 10
617.47047467434277
 20
1245.7336586827312
 11
617.47047467434277
 21
1135.7336586827312
  0
LINE
  8
_0-1_計細線
  6
CONTINUOUS
 62
    3
 10
617.47047467434277
 20
1135.7336586827312
 11
609.47047467434277
 21
1135.7336586827312
  0
LINE
  8
_0-1_計細線
  6
CONTINUOUS
 62
    3
 10
595.44047467434211
 20
1135.7336586827312
 11
595.44047467434211
 21
1245.7336586827312
  0
LINE
  8
_0-1_計細線
  6
CONTINUOUS
 62
    3
 10
595.44047467434211
 20
1245.7336586827312
 11
603.44047467434211
 21
1245.7336586827312
  0
LINE
  8
_0-1_計細線
  6
CONTINUOUS
 62
    3
 10
603.44047467434211
 20
1245.7336586827312
 11
603.44047467434211
 21
1135.7336586827312
  0
LINE
  8
_0-1_計細線
  6
CONTINUOUS
 62
    3
 10
603.44047467434211
 20
1135.7336586827312
 11
595.44047467434211
 21
1135.7336586827312
  0
LINE
  8
_0-1_計細線
  6
CONTINUOUS
 62
    3
 10
581.41047467434237
 20
1135.7336586827312
 11
581.41047467434237
 21
1245.7336586827312
  0
LINE
  8
_0-1_計細線
  6
CONTINUOUS
 62
    3
 10
581.41047467434237
 20
1245.7336586827312
 11
589.41047467434237
 21
1245.7336586827312
  0
LINE
  8
_0-1_計細線
  6
CONTINUOUS
 62
    3
 10
589.41047467434237
 20
1245.7336586827312
 11
589.41047467434237
 21
1135.7336586827312
  0
LINE
  8
_0-1_計細線
  6
CONTINUOUS
 62
    3
 10
589.41047467434237
 20
1135.7336586827312
 11
581.41047467434237
 21
1135.7336586827312
  0
LINE
  8
_0-1_計細線
  6
CONTINUOUS
 62
    3
 10
567.38047467434262
 20
1135.7336586827312
 11
567.38047467434262
 21
1245.7336586827312
  0
LINE
  8
_0-1_計細線
  6
CONTINUOUS
 62
    3
 10
567.38047467434262
 20
1245.7336586827312
 11
575.38047467434262
 21
1245.7336586827312
  0
LINE
  8
_0-1_計細線
  6
CONTINUOUS
 62
    3
 10
575.38047467434262
 20
1245.7336586827312
 11
575.38047467434262
 21
1135.7336586827312
  0
LINE
  8
_0-1_計細線
  6
CONTINUOUS
 62
    3
 10
575.38047467434262
 20
1135.7336586827312
 11
567.38047467434262
 21
1135.7336586827312
  0
LINE
  8
_0-1_計細線
  6
CONTINUOUS
 62
    3
 10
553.35047467434197
 20
1135.7336586827312
 11
553.35047467434197
 21
1245.7336586827312
  0
LINE
  8
_0-1_計細線
  6
CONTINUOUS
 62
    3
 10
553.35047467434197
 20
1245.7336586827312
 11
561.35047467434197
 21
1245.7336586827312
  0
LINE
  8
_0-1_計細線
  6
CONTINUOUS
 62
    3
 10
561.35047467434197
 20
1245.7336586827312
 11
561.35047467434197
 21
1135.7336586827312
  0
LINE
  8
_0-1_計細線
  6
CONTINUOUS
 62
    3
 10
561.35047467434197
 20
1135.7336586827312
 11
553.35047467434197
 21
1135.7336586827312
  0
LINE
  8
_0-1_計細線
  6
CONTINUOUS
 62
    3
 10
539.32047467434222
 20
1135.7336586827312
 11
539.32047467434222
 21
1245.7336586827312
  0
LINE
  8
_0-1_計細線
  6
CONTINUOUS
 62
    3
 10
539.32047467434222
 20
1245.7336586827312
 11
547.32047467434222
 21
1245.7336586827312
  0
LINE
  8
_0-1_計細線
  6
CONTINUOUS
 62
    3
 10
547.32047467434222
 20
1245.7336586827312
 11
547.32047467434222
 21
1135.7336586827312
  0
LINE
  8
_0-1_計細線
  6
CONTINUOUS
 62
    3
 10
547.32047467434222
 20
1135.7336586827312
 11
539.32047467434222
 21
1135.7336586827312
  0
LINE
  8
_0-1_計細線
  6
CONTINUOUS
 62
    3
 10
525.29047467434248
 20
1135.7336586827312
 11
525.29047467434248
 21
1245.7336586827312
  0
LINE
  8
_0-1_計細線
  6
CONTINUOUS
 62
    3
 10
525.29047467434248
 20
1245.7336586827312
 11
533.29047467434248
 21
1245.7336586827312
  0
LINE
  8
_0-1_計細線
  6
CONTINUOUS
 62
    3
 10
533.29047467434248
 20
1245.7336586827312
 11
533.29047467434248
 21
1135.7336586827312
  0
LINE
  8
_0-1_計細線
  6
CONTINUOUS
 62
    3
 10
533.29047467434248
 20
1135.7336586827312
 11
525.29047467434248
 21
1135.7336586827312
  0
LINE
  8
_0-1_計細線
  6
CONTINUOUS
 62
    3
 10
511.26047467434182
 20
1135.7336586827312
 11
511.26047467434182
 21
1245.7336586827312
  0
LINE
  8
_0-1_計細線
  6
CONTINUOUS
 62
    3
 10
511.26047467434182
 20
1245.7336586827312
 11
519.26047467434182
 21
1245.7336586827312
  0
LINE
  8
_0-1_計細線
  6
CONTINUOUS
 62
    3
 10
519.26047467434182
 20
1245.7336586827312
 11
519.26047467434182
 21
1135.7336586827312
  0
LINE
  8
_0-1_計細線
  6
CONTINUOUS
 62
    3
 10
519.26047467434182
 20
1135.7336586827312
 11
511.26047467434182
 21
1135.7336586827312
  0
LINE
  8
_0-1_計細線
  6
CONTINUOUS
 62
    3
 10
497.23047467434208
 20
1135.7336586827312
 11
497.23047467434208
 21
1245.7336586827312
  0
LINE
  8
_0-1_計細線
  6
CONTINUOUS
 62
    3
 10
497.23047467434208
 20
1245.7336586827312
 11
505.23047467434208
 21
1245.7336586827312
  0
LINE
  8
_0-1_計細線
  6
CONTINUOUS
 62
    3
 10
505.23047467434208
 20
1245.7336586827312
 11
505.23047467434208
 21
1135.7336586827312
  0
LINE
  8
_0-1_計細線
  6
CONTINUOUS
 62
    3
 10
505.23047467434208
 20
1135.7336586827312
 11
497.23047467434208
 21
1135.7336586827312
  0
LINE
  8
_0-1_計細線
  6
CONTINUOUS
 62
    3
 10
483.20047467434233
 20
1135.7336586827312
 11
483.20047467434233
 21
1245.7336586827312
  0
LINE
  8
_0-1_計細線
  6
CONTINUOUS
 62
    3
 10
483.20047467434233
 20
1245.7336586827312
 11
491.20047467434233
 21
1245.7336586827312
  0
LINE
  8
_0-1_計細線
  6
CONTINUOUS
 62
    3
 10
491.20047467434233
 20
1245.7336586827312
 11
491.20047467434233
 21
1135.7336586827312
  0
LINE
  8
_0-1_計細線
  6
CONTINUOUS
 62
    3
 10
491.20047467434233
 20
1135.7336586827312
 11
483.20047467434233
 21
1135.7336586827312
  0
LINE
  8
_0-1_計細線
  6
CONTINUOUS
 62
    3
 10
469.17047467434259
 20
1135.7336586827312
 11
469.17047467434259
 21
1245.7336586827312
  0
LINE
  8
_0-1_計細線
  6
CONTINUOUS
 62
    3
 10
469.17047467434259
 20
1245.7336586827312
 11
477.17047467434259
 21
1245.7336586827312
  0
LINE
  8
_0-1_計細線
  6
CONTINUOUS
 62
    3
 10
477.17047467434259
 20
1245.7336586827312
 11
477.17047467434259
 21
1135.7336586827312
  0
LINE
  8
_0-1_計細線
  6
CONTINUOUS
 62
    3
 10
477.17047467434259
 20
1135.7336586827312
 11
469.17047467434259
 21
1135.7336586827312
  0
LINE
  8
_0-0_計極細
  6
CONTINUOUS
 62
    2
 10
841.95047467434233
 20
1193.7336586827312
 11
845.96047467434255
 21
1193.7336586827312
  0
LINE
  8
_0-0_計極細
  6
CONTINUOUS
 62
    2
 10
841.95047467434233
 20
1187.7336586827312
 11
845.96047467434255
 21
1187.7336586827312
  0
LINE
  8
_0-0_計極細
  6
CONTINUOUS
 62
    2
 10
827.92047467434168
 20
1192.7336586827312
 11
833.95047467434233
 21
1192.7336586827312
  0
LINE
  8
_0-0_計極細
  6
CONTINUOUS
 62
    2
 10
827.92047467434168
 20
1188.7336586827312
 11
833.95047467434233
 21
1188.7336586827312
  0
LINE
  8
_0-0_計極細
  6
CONTINUOUS
 62
    2
 10
813.89047467434193
 20
1192.7336586827312
 11
819.92047467434259
 21
1192.7336586827312
  0
LINE
  8
_0-0_計極細
  6
CONTINUOUS
 62
    2
 10
813.89047467434193
 20
1188.7336586827312
 11
819.92047467434259
 21
1188.7336586827312
  0
LINE
  8
_0-0_計極細
  6
CONTINUOUS
 62
    2
 10
799.86047467434219
 20
1192.7336586827312
 11
805.89047467434193
 21
1192.7336586827312
  0
LINE
  8
_0-0_計極細
  6
CONTINUOUS
 62
    2
 10
799.86047467434219
 20
1188.7336586827312
 11
805.89047467434193
 21
1188.7336586827312
  0
LINE
  8
_0-0_計極細
  6
CONTINUOUS
 62
    2
 10
785.83047467434153
 20
1192.7336586827312
 11
791.86047467434219
 21
1192.7336586827312
  0
LINE
  8
_0-0_計極細
  6
CONTINUOUS
 62
    2
 10
785.83047467434153
 20
1188.7336586827312
 11
791.86047467434219
 21
1188.7336586827312
  0
LINE
  8
_0-0_計極細
  6
CONTINUOUS
 62
    2
 10
771.80047467434179
 20
1192.7336586827312
 11
777.83047467434244
 21
1192.7336586827312
  0
LINE
  8
_0-0_計極細
  6
CONTINUOUS
 62
    2
 10
771.80047467434179
 20
1188.7336586827312
 11
777.83047467434244
 21
1188.7336586827312
  0
LINE
  8
_0-0_計極細
  6
CONTINUOUS
 62
    2
 10
757.77047467434204
 20
1192.7336586827312
 11
763.80047467434269
 21
1192.7336586827312
  0
LINE
  8
_0-0_計極細
  6
CONTINUOUS
 62
    2
 10
757.77047467434204
 20
1188.7336586827312
 11
763.80047467434269
 21
1188.7336586827312
  0
LINE
  8
_0-0_計極細
  6
CONTINUOUS
 62
    2
 10
743.74047467434229
 20
1192.7336586827312
 11
749.77047467434204
 21
1192.7336586827312
  0
LINE
  8
_0-0_計極細
  6
CONTINUOUS
 62
    2
 10
743.74047467434229
 20
1188.7336586827312
 11
749.77047467434204
 21
1188.7336586827312
  0
LINE
  8
_0-0_計極細
  6
CONTINUOUS
 62
    2
 10
729.71047467434255
 20
1192.7336586827312
 11
735.74047467434229
 21
1192.7336586827312
  0
LINE
  8
_0-0_計極細
  6
CONTINUOUS
 62
    2
 10
729.71047467434255
 20
1188.7336586827312
 11
735.74047467434229
 21
1188.7336586827312
  0
LINE
  8
_0-0_計極細
  6
CONTINUOUS
 62
    2
 10
715.68047467434189
 20
1192.7336586827312
 11
721.71047467434255
 21
1192.7336586827312
  0
LINE
  8
_0-0_計極細
  6
CONTINUOUS
 62
    2
 10
715.68047467434189
 20
1188.7336586827312
 11
721.71047467434255
 21
1188.7336586827312
  0
LINE
  8
_0-0_計極細
  6
CONTINUOUS
 62
    2
 10
701.65047467434215
 20
1192.7336586827312
 11
707.68047467434189
 21
1192.7336586827312
  0
LINE
  8
_0-0_計極細
  6
CONTINUOUS
 62
    2
 10
701.65047467434215
 20
1188.7336586827312
 11
707.68047467434189
 21
1188.7336586827312
  0
LINE
  8
_0-0_計極細
  6
CONTINUOUS
 62
    2
 10
687.6204746743424
 20
1192.7336586827312
 11
693.65047467434215
 21
1192.7336586827312
  0
LINE
  8
_0-0_計極細
  6
CONTINUOUS
 62
    2
 10
687.6204746743424
 20
1188.7336586827312
 11
693.65047467434215
 21
1188.7336586827312
  0
LINE
  8
_0-0_計極細
  6
CONTINUOUS
 62
    2
 10
673.59047467434175
 20
1192.7336586827312
 11
679.6204746743424
 21
1192.7336586827312
  0
LINE
  8
_0-0_計極細
  6
CONTINUOUS
 62
    2
 10
673.59047467434175
 20
1188.7336586827312
 11
679.6204746743424
 21
1188.7336586827312
  0
LINE
  8
_0-0_計極細
  6
CONTINUOUS
 62
    2
 10
659.560474674342
 20
1192.7336586827312
 11
665.59047467434266
 21
1192.7336586827312
  0
LINE
  8
_0-0_計極細
  6
CONTINUOUS
 62
    2
 10
659.560474674342
 20
1188.7336586827312
 11
665.59047467434266
 21
1188.7336586827312
  0
LINE
  8
_0-0_計極細
  6
CONTINUOUS
 62
    2
 10
645.53047467434226
 20
1192.7336586827312
 11
651.56047467434291
 21
1192.7336586827312
  0
LINE
  8
_0-0_計極細
  6
CONTINUOUS
 62
    2
 10
645.53047467434226
 20
1188.7336586827312
 11
651.56047467434291
 21
1188.7336586827312
  0
LINE
  8
_0-0_計極細
  6
CONTINUOUS
 62
    2
 10
631.50047467434251
 20
1192.7336586827312
 11
637.53047467434226
 21
1192.7336586827312
  0
LINE
  8
_0-0_計極細
  6
CONTINUOUS
 62
    2
 10
631.50047467434251
 20
1188.7336586827312
 11
637.53047467434226
 21
1188.7336586827312
  0
LINE
  8
_0-0_計極細
  6
CONTINUOUS
 62
    2
 10
617.47047467434277
 20
1192.7336586827312
 11
623.50047467434251
 21
1192.7336586827312
  0
LINE
  8
_0-0_計極細
  6
CONTINUOUS
 62
    2
 10
617.47047467434277
 20
1188.7336586827312
 11
623.50047467434251
 21
1188.7336586827312
  0
LINE
  8
_0-0_計極細
  6
CONTINUOUS
 62
    2
 10
603.44047467434211
 20
1192.7336586827312
 11
609.47047467434277
 21
1192.7336586827312
  0
LINE
  8
_0-0_計極細
  6
CONTINUOUS
 62
    2
 10
603.44047467434211
 20
1188.7336586827312
 11
609.47047467434277
 21
1188.7336586827312
  0
LINE
  8
_0-0_計極細
  6
CONTINUOUS
 62
    2
 10
589.41047467434237
 20
1192.7336586827312
 11
595.44047467434211
 21
1192.7336586827312
  0
LINE
  8
_0-0_計極細
  6
CONTINUOUS
 62
    2
 10
589.41047467434237
 20
1188.7336586827312
 11
595.44047467434211
 21
1188.7336586827312
  0
LINE
  8
_0-0_計極細
  6
CONTINUOUS
 62
    2
 10
575.38047467434262
 20
1192.7336586827312
 11
581.41047467434237
 21
1192.7336586827312
  0
LINE
  8
_0-0_計極細
  6
CONTINUOUS
 62
    2
 10
575.38047467434262
 20
1188.7336586827312
 11
581.41047467434237
 21
1188.7336586827312
  0
LINE
  8
_0-0_計極細
  6
CONTINUOUS
 62
    2
 10
561.35047467434197
 20
1192.7336586827312
 11
567.38047467434262
 21
1192.7336586827312
  0
LINE
  8
_0-0_計極細
  6
CONTINUOUS
 62
    2
 10
561.35047467434197
 20
1188.7336586827312
 11
567.38047467434262
 21
1188.7336586827312
  0
LINE
  8
_0-0_計極細
  6
CONTINUOUS
 62
    2
 10
547.32047467434222
 20
1192.7336586827312
 11
553.35047467434197
 21
1192.7336586827312
  0
LINE
  8
_0-0_計極細
  6
CONTINUOUS
 62
    2
 10
547.32047467434222
 20
1188.7336586827312
 11
553.35047467434197
 21
1188.7336586827312
  0
LINE
  8
_0-0_計極細
  6
CONTINUOUS
 62
    2
 10
533.29047467434248
 20
1192.7336586827312
 11
539.32047467434222
 21
1192.7336586827312
  0
LINE
  8
_0-0_計極細
  6
CONTINUOUS
 62
    2
 10
533.29047467434248
 20
1188.7336586827312
 11
539.32047467434222
 21
1188.7336586827312
  0
LINE
  8
_0-0_計極細
  6
CONTINUOUS
 62
    2
 10
519.26047467434182
 20
1192.7336586827312
 11
525.29047467434248
 21
1192.7336586827312
  0
LINE
  8
_0-0_計極細
  6
CONTINUOUS
 62
    2
 10
519.26047467434182
 20
1188.7336586827312
 11
525.29047467434248
 21
1188.7336586827312
  0
LINE
  8
_0-0_計極細
  6
CONTINUOUS
 62
    2
 10
505.23047467434208
 20
1192.7336586827312
 11
511.26047467434273
 21
1192.7336586827312
  0
LINE
  8
_0-0_計極細
  6
CONTINUOUS
 62
    2
 10
505.23047467434208
 20
1188.7336586827312
 11
511.26047467434273
 21
1188.7336586827312
  0
LINE
  8
_0-0_計極細
  6
CONTINUOUS
 62
    2
 10
491.20047467434233
 20
1192.7336586827312
 11
497.23047467434299
 21
1192.7336586827312
  0
LINE
  8
_0-0_計極細
  6
CONTINUOUS
 62
    2
 10
491.20047467434233
 20
1188.7336586827312
 11
497.23047467434299
 21
1188.7336586827312
  0
LINE
  8
_0-0_計極細
  6
CONTINUOUS
 62
    2
 10
477.17047467434259
 20
1192.7336586827312
 11
483.20047467434233
 21
1192.7336586827312
  0
LINE
  8
_0-0_計極細
  6
CONTINUOUS
 62
    2
 10
477.17047467434259
 20
1188.7336586827312
 11
483.20047467434233
 21
1188.7336586827312
  0
LINE
  8
_0-0_計極細
  6
CONTINUOUS
 62
    2
 10
463.14047467434284
 20
1192.7336586827312
 11
469.17047467434259
 21
1192.7336586827312
  0
LINE
  8
_0-0_計極細
  6
CONTINUOUS
 62
    2
 10
463.14047467434284
 20
1188.7336586827312
 11
469.17047467434259
 21
1188.7336586827312
  0
LINE
  8
_0-0_計極細
  6
CONTINUOUS
 62
    2
 10
449.11047467434219
 20
1192.7336586827312
 11
455.14047467434284
 21
1192.7336586827312
  0
LINE
  8
_0-0_計極細
  6
CONTINUOUS
 62
    2
 10
449.11047467434219
 20
1188.7336586827312
 11
455.14047467434284
 21
1188.7336586827312
  0
LINE
  8
_0-0_計極細
  6
CONTINUOUS
 62
    2
 10
435.08047467434244
 20
1192.7336586827312
 11
441.11047467434219
 21
1192.7336586827312
  0
LINE
  8
_0-0_計極細
  6
CONTINUOUS
 62
    2
 10
435.08047467434244
 20
1188.7336586827312
 11
441.11047467434219
 21
1188.7336586827312
  0
LINE
  8
_0-0_計極細
  6
CONTINUOUS
 62
    2
 10
421.05047467434269
 20
1192.7336586827312
 11
427.08047467434244
 21
1192.7336586827312
  0
LINE
  8
_0-0_計極細
  6
CONTINUOUS
 62
    2
 10
421.05047467434269
 20
1188.7336586827312
 11
427.08047467434244
 21
1188.7336586827312
  0
LINE
  8
_0-0_計極細
  6
CONTINUOUS
 62
    2
 10
407.02047467434204
 20
1192.7336586827312
 11
413.05047467434269
 21
1192.7336586827312
  0
LINE
  8
_0-0_計極細
  6
CONTINUOUS
 62
    2
 10
407.02047467434204
 20
1188.7336586827312
 11
413.05047467434269
 21
1188.7336586827312
  0
LINE
  8
_0-0_計極細
  6
CONTINUOUS
 62
    2
 10
392.99047467434229
 20
1192.7336586827312
 11
399.02047467434204
 21
1192.7336586827312
  0
LINE
  8
_0-0_計極細
  6
CONTINUOUS
 62
    2
 10
392.99047467434229
 20
1188.7336586827312
 11
399.02047467434204
 21
1188.7336586827312
  0
LINE
  8
_0-0_計極細
  6
CONTINUOUS
 62
    2
 10
378.96047467434255
 20
1188.7336586827312
 11
384.99047467434229
 21
1188.7336586827312
  0
LINE
  8
_0-0_計極細
  6
CONTINUOUS
 62
    2
 10
378.96047467434255
 20
1192.7336586827312
 11
384.99047467434229
 21
1192.7336586827312
  0
LINE
  8
_0-1_計細線
  6
CONTINUOUS
 62
    3
 10
939.14047467434284
 20
1135.7336586827307
 11
939.14047467434284
 21
1245.7336586827307
  0
LINE
  8
_0-1_計細線
  6
CONTINUOUS
 62
    3
 10
939.14047467434284
 20
1245.7336586827307
 11
947.14047467434284
 21
1245.7336586827307
  0
LINE
  8
_0-1_計細線
  6
CONTINUOUS
 62
    3
 10
947.14047467434284
 20
1245.7336586827307
 11
947.14047467434284
 21
1135.7336586827307
  0
LINE
  8
_0-1_計細線
  6
CONTINUOUS
 62
    3
 10
947.14047467434284
 20
1135.7336586827307
 11
939.14047467434284
 21
1135.7336586827307
  0
LINE
  8
_0-1_計細線
  6
CONTINUOUS
 62
    3
 10
925.11047467434219
 20
1135.7336586827307
 11
925.11047467434219
 21
1245.7336586827307
  0
LINE
  8
_0-1_計細線
  6
CONTINUOUS
 62
    3
 10
925.11047467434219
 20
1245.7336586827307
 11
933.11047467434219
 21
1245.7336586827307
  0
LINE
  8
_0-1_計細線
  6
CONTINUOUS
 62
    3
 10
933.11047467434219
 20
1245.7336586827307
 11
933.11047467434219
 21
1135.7336586827307
  0
LINE
  8
_0-1_計細線
  6
CONTINUOUS
 62
    3
 10
933.11047467434219
 20
1135.7336586827307
 11
925.11047467434219
 21
1135.7336586827307
  0
LINE
  8
_0-1_計細線
  6
CONTINUOUS
 62
    3
 10
911.08047467434244
 20
1135.7336586827307
 11
911.08047467434244
 21
1245.7336586827307
  0
LINE
  8
_0-1_計細線
  6
CONTINUOUS
 62
    3
 10
911.08047467434244
 20
1245.7336586827307
 11
919.08047467434244
 21
1245.7336586827307
  0
LINE
  8
_0-1_計細線
  6
CONTINUOUS
 62
    3
 10
919.08047467434244
 20
1245.7336586827307
 11
919.08047467434244
 21
1135.7336586827307
  0
LINE
  8
_0-1_計細線
  6
CONTINUOUS
 62
    3
 10
919.08047467434244
 20
1135.7336586827307
 11
911.08047467434244
 21
1135.7336586827307
  0
LINE
  8
_0-1_計細線
  6
CONTINUOUS
 62
    3
 10
897.05047467434269
 20
1135.7336586827307
 11
897.05047467434269
 21
1245.7336586827307
  0
LINE
  8
_0-1_計細線
  6
CONTINUOUS
 62
    3
 10
897.05047467434269
 20
1245.7336586827307
 11
905.05047467434269
 21
1245.7336586827307
  0
LINE
  8
_0-1_計細線
  6
CONTINUOUS
 62
    3
 10
905.05047467434269
 20
1245.7336586827307
 11
905.05047467434269
 21
1135.7336586827307
  0
LINE
  8
_0-1_計細線
  6
CONTINUOUS
 62
    3
 10
905.05047467434269
 20
1135.7336586827307
 11
897.05047467434269
 21
1135.7336586827307
  0
LINE
  8
_0-1_計細線
  6
CONTINUOUS
 62
    3
 10
883.02047467434204
 20
1135.7336586827307
 11
883.02047467434204
 21
1245.7336586827307
  0
LINE
  8
_0-1_計細線
  6
CONTINUOUS
 62
    3
 10
883.02047467434204
 20
1245.7336586827307
 11
891.02047467434204
 21
1245.7336586827307
  0
LINE
  8
_0-1_計細線
  6
CONTINUOUS
 62
    3
 10
891.02047467434204
 20
1245.7336586827307
 11
891.02047467434204
 21
1135.7336586827307
  0
LINE
  8
_0-1_計細線
  6
CONTINUOUS
 62
    3
 10
891.02047467434204
 20
1135.7336586827307
 11
883.02047467434204
 21
1135.7336586827307
  0
LINE
  8
_0-1_計細線
  6
CONTINUOUS
 62
    3
 10
868.99047467434229
 20
1135.7336586827307
 11
868.99047467434229
 21
1245.7336586827307
  0
LINE
  8
_0-1_計細線
  6
CONTINUOUS
 62
    3
 10
868.99047467434229
 20
1245.7336586827307
 11
876.99047467434229
 21
1245.7336586827307
  0
LINE
  8
_0-1_計細線
  6
CONTINUOUS
 62
    3
 10
876.99047467434229
 20
1245.7336586827307
 11
876.99047467434229
 21
1135.7336586827307
  0
LINE
  8
_0-1_計細線
  6
CONTINUOUS
 62
    3
 10
876.99047467434229
 20
1135.7336586827307
 11
868.99047467434229
 21
1135.7336586827307
  0
LINE
  8
_0-1_計細線
  6
CONTINUOUS
 62
    3
 10
854.96047467434255
 20
1135.7336586827307
 11
854.96047467434255
 21
1245.7336586827307
  0
LINE
  8
_0-1_計細線
  6
CONTINUOUS
 62
    3
 10
854.96047467434255
 20
1245.7336586827307
 11
862.96047467434255
 21
1245.7336586827307
  0
LINE
  8
_0-1_計細線
  6
CONTINUOUS
 62
    3
 10
862.96047467434255
 20
1245.7336586827307
 11
862.96047467434255
 21
1135.7336586827307
  0
LINE
  8
_0-1_計細線
  6
CONTINUOUS
 62
    3
 10
862.96047467434255
 20
1135.7336586827307
 11
854.96047467434255
 21
1135.7336586827307
  0
LINE
  8
_0-1_計細線
  6
CONTINUOUS
 62
    3
 10
1163.6204746743424
 20
1135.7336586827307
 11
1163.6204746743424
 21
1245.7336586827307
  0
LINE
  8
_0-1_計細線
  6
CONTINUOUS
 62
    3
 10
1163.6204746743424
 20
1245.7336586827307
 11
1171.6204746743424
 21
1245.7336586827307
  0
LINE
  8
_0-1_計細線
  6
CONTINUOUS
 62
    3
 10
1171.6204746743424
 20
1245.7336586827307
 11
1171.6204746743424
 21
1135.7336586827307
  0
LINE
  8
_0-1_計細線
  6
CONTINUOUS
 62
    3
 10
1171.6204746743424
 20
1135.7336586827307
 11
1163.6204746743424
 21
1135.7336586827307
  0
LINE
  8
_0-1_計細線
  6
CONTINUOUS
 62
    3
 10
1149.5904746743417
 20
1135.7336586827307
 11
1149.5904746743417
 21
1245.7336586827307
  0
LINE
  8
_0-1_計細線
  6
CONTINUOUS
 62
    3
 10
1149.5904746743417
 20
1245.7336586827307
 11
1157.5904746743417
 21
1245.7336586827307
  0
LINE
  8
_0-1_計細線
  6
CONTINUOUS
 62
    3
 10
1157.5904746743417
 20
1245.7336586827307
 11
1157.5904746743417
 21
1135.7336586827307
  0
LINE
  8
_0-1_計細線
  6
CONTINUOUS
 62
    3
 10
1157.5904746743417
 20
1135.7336586827307
 11
1149.5904746743417
 21
1135.7336586827307
  0
LINE
  8
_0-1_計細線
  6
CONTINUOUS
 62
    3
 10
1135.560474674342
 20
1135.7336586827307
 11
1135.560474674342
 21
1245.7336586827307
  0
LINE
  8
_0-1_計細線
  6
CONTINUOUS
 62
    3
 10
1135.560474674342
 20
1245.7336586827307
 11
1143.560474674342
 21
1245.7336586827307
  0
LINE
  8
_0-1_計細線
  6
CONTINUOUS
 62
    3
 10
1143.560474674342
 20
1245.7336586827307
 11
1143.560474674342
 21
1135.7336586827307
  0
LINE
  8
_0-1_計細線
  6
CONTINUOUS
 62
    3
 10
1143.560474674342
 20
1135.7336586827307
 11
1135.560474674342
 21
1135.7336586827307
  0
LINE
  8
_0-1_計細線
  6
CONTINUOUS
 62
    3
 10
1121.5304746743423
 20
1135.7336586827307
 11
1121.5304746743423
 21
1245.7336586827307
  0
LINE
  8
_0-1_計細線
  6
CONTINUOUS
 62
    3
 10
1121.5304746743423
 20
1245.7336586827307
 11
1129.5304746743423
 21
1245.7336586827307
  0
LINE
  8
_0-1_計細線
  6
CONTINUOUS
 62
    3
 10
1129.5304746743423
 20
1245.7336586827307
 11
1129.5304746743423
 21
1135.7336586827307
  0
LINE
  8
_0-1_計細線
  6
CONTINUOUS
 62
    3
 10
1129.5304746743423
 20
1135.7336586827307
 11
1121.5304746743423
 21
1135.7336586827307
  0
LINE
  8
_0-1_計細線
  6
CONTINUOUS
 62
    3
 10
1107.5004746743425
 20
1135.7336586827307
 11
1107.5004746743425
 21
1245.7336586827307
  0
LINE
  8
_0-1_計細線
  6
CONTINUOUS
 62
    3
 10
1107.5004746743425
 20
1245.7336586827307
 11
1115.5004746743425
 21
1245.7336586827307
  0
LINE
  8
_0-1_計細線
  6
CONTINUOUS
 62
    3
 10
1115.5004746743425
 20
1245.7336586827307
 11
1115.5004746743425
 21
1135.7336586827307
  0
LINE
  8
_0-1_計細線
  6
CONTINUOUS
 62
    3
 10
1115.5004746743425
 20
1135.7336586827307
 11
1107.5004746743425
 21
1135.7336586827307
  0
LINE
  8
_0-1_計細線
  6
CONTINUOUS
 62
    3
 10
1093.4704746743428
 20
1135.7336586827307
 11
1093.4704746743428
 21
1245.7336586827307
  0
LINE
  8
_0-1_計細線
  6
CONTINUOUS
 62
    3
 10
1093.4704746743428
 20
1245.7336586827307
 11
1101.4704746743428
 21
1245.7336586827307
  0
LINE
  8
_0-1_計細線
  6
CONTINUOUS
 62
    3
 10
1101.4704746743428
 20
1245.7336586827307
 11
1101.4704746743428
 21
1135.7336586827307
  0
LINE
  8
_0-1_計細線
  6
CONTINUOUS
 62
    3
 10
1101.4704746743428
 20
1135.7336586827307
 11
1093.4704746743428
 21
1135.7336586827307
  0
LINE
  8
_0-1_計細線
  6
CONTINUOUS
 62
    3
 10
1079.4404746743421
 20
1135.7336586827307
 11
1079.4404746743421
 21
1245.7336586827307
  0
LINE
  8
_0-1_計細線
  6
CONTINUOUS
 62
    3
 10
1079.4404746743421
 20
1245.7336586827307
 11
1087.4404746743421
 21
1245.7336586827307
  0
LINE
  8
_0-1_計細線
  6
CONTINUOUS
 62
    3
 10
1087.4404746743421
 20
1245.7336586827307
 11
1087.4404746743421
 21
1135.7336586827307
  0
LINE
  8
_0-1_計細線
  6
CONTINUOUS
 62
    3
 10
1087.4404746743421
 20
1135.7336586827307
 11
1079.4404746743421
 21
1135.7336586827307
  0
LINE
  8
_0-1_計細線
  6
CONTINUOUS
 62
    3
 10
1065.4104746743424
 20
1135.7336586827307
 11
1065.4104746743424
 21
1245.7336586827307
  0
LINE
  8
_0-1_計細線
  6
CONTINUOUS
 62
    3
 10
1065.4104746743424
 20
1245.7336586827307
 11
1073.4104746743424
 21
1245.7336586827307
  0
LINE
  8
_0-1_計細線
  6
CONTINUOUS
 62
    3
 10
1073.4104746743424
 20
1245.7336586827307
 11
1073.4104746743424
 21
1135.7336586827307
  0
LINE
  8
_0-1_計細線
  6
CONTINUOUS
 62
    3
 10
1073.4104746743424
 20
1135.7336586827307
 11
1065.4104746743424
 21
1135.7336586827307
  0
LINE
  8
_0-1_計細線
  6
CONTINUOUS
 62
    3
 10
1051.3804746743426
 20
1135.7336586827307
 11
1051.3804746743426
 21
1245.7336586827307
  0
LINE
  8
_0-1_計細線
  6
CONTINUOUS
 62
    3
 10
1051.3804746743426
 20
1245.7336586827307
 11
1059.3804746743426
 21
1245.7336586827307
  0
LINE
  8
_0-1_計細線
  6
CONTINUOUS
 62
    3
 10
1059.3804746743426
 20
1245.7336586827307
 11
1059.3804746743426
 21
1135.7336586827307
  0
LINE
  8
_0-1_計細線
  6
CONTINUOUS
 62
    3
 10
1059.3804746743426
 20
1135.7336586827307
 11
1051.3804746743426
 21
1135.7336586827307
  0
LINE
  8
_0-1_計細線
  6
CONTINUOUS
 62
    3
 10
1037.350474674342
 20
1135.7336586827307
 11
1037.350474674342
 21
1245.7336586827307
  0
LINE
  8
_0-1_計細線
  6
CONTINUOUS
 62
    3
 10
1037.350474674342
 20
1245.7336586827307
 11
1045.350474674342
 21
1245.7336586827307
  0
LINE
  8
_0-1_計細線
  6
CONTINUOUS
 62
    3
 10
1045.350474674342
 20
1245.7336586827307
 11
1045.350474674342
 21
1135.7336586827307
  0
LINE
  8
_0-1_計細線
  6
CONTINUOUS
 62
    3
 10
1045.350474674342
 20
1135.7336586827307
 11
1037.350474674342
 21
1135.7336586827307
  0
LINE
  8
_0-1_計細線
  6
CONTINUOUS
 62
    3
 10
1023.3204746743422
 20
1135.7336586827307
 11
1023.3204746743422
 21
1245.7336586827307
  0
LINE
  8
_0-1_計細線
  6
CONTINUOUS
 62
    3
 10
1023.3204746743422
 20
1245.7336586827307
 11
1031.3204746743422
 21
1245.7336586827307
  0
LINE
  8
_0-1_計細線
  6
CONTINUOUS
 62
    3
 10
1031.3204746743422
 20
1245.7336586827307
 11
1031.3204746743422
 21
1135.7336586827307
  0
LINE
  8
_0-1_計細線
  6
CONTINUOUS
 62
    3
 10
1031.3204746743422
 20
1135.7336586827307
 11
1023.3204746743422
 21
1135.7336586827307
  0
LINE
  8
_0-1_計細線
  6
CONTINUOUS
 62
    3
 10
1009.2904746743425
 20
1135.7336586827307
 11
1009.2904746743425
 21
1245.7336586827307
  0
LINE
  8
_0-1_計細線
  6
CONTINUOUS
 62
    3
 10
1009.2904746743425
 20
1245.7336586827307
 11
1017.2904746743425
 21
1245.7336586827307
  0
LINE
  8
_0-1_計細線
  6
CONTINUOUS
 62
    3
 10
1017.2904746743425
 20
1245.7336586827307
 11
1017.2904746743425
 21
1135.7336586827307
  0
LINE
  8
_0-1_計細線
  6
CONTINUOUS
 62
    3
 10
1017.2904746743425
 20
1135.7336586827307
 11
1009.2904746743425
 21
1135.7336586827307
  0
LINE
  8
_0-1_計細線
  6
CONTINUOUS
 62
    3
 10
995.26047467434182
 20
1135.7336586827307
 11
995.26047467434182
 21
1245.7336586827307
  0
LINE
  8
_0-1_計細線
  6
CONTINUOUS
 62
    3
 10
995.26047467434182
 20
1245.7336586827307
 11
1003.2604746743418
 21
1245.7336586827307
  0
LINE
  8
_0-1_計細線
  6
CONTINUOUS
 62
    3
 10
1003.2604746743418
 20
1245.7336586827307
 11
1003.2604746743418
 21
1135.7336586827307
  0
LINE
  8
_0-1_計細線
  6
CONTINUOUS
 62
    3
 10
1003.2604746743418
 20
1135.7336586827307
 11
995.26047467434182
 21
1135.7336586827307
  0
LINE
  8
_0-1_計細線
  6
CONTINUOUS
 62
    3
 10
981.23047467434208
 20
1135.7336586827307
 11
981.23047467434208
 21
1245.7336586827307
  0
LINE
  8
_0-1_計細線
  6
CONTINUOUS
 62
    3
 10
981.23047467434208
 20
1245.7336586827307
 11
989.23047467434208
 21
1245.7336586827307
  0
LINE
  8
_0-1_計細線
  6
CONTINUOUS
 62
    3
 10
989.23047467434208
 20
1245.7336586827307
 11
989.23047467434208
 21
1135.7336586827307
  0
LINE
  8
_0-1_計細線
  6
CONTINUOUS
 62
    3
 10
989.23047467434208
 20
1135.7336586827307
 11
981.23047467434208
 21
1135.7336586827307
  0
LINE
  8
_0-1_計細線
  6
CONTINUOUS
 62
    3
 10
967.20047467434233
 20
1135.7336586827307
 11
967.20047467434233
 21
1245.7336586827307
  0
LINE
  8
_0-1_計細線
  6
CONTINUOUS
 62
    3
 10
967.20047467434233
 20
1245.7336586827307
 11
975.20047467434233
 21
1245.7336586827307
  0
LINE
  8
_0-1_計細線
  6
CONTINUOUS
 62
    3
 10
975.20047467434233
 20
1245.7336586827307
 11
975.20047467434233
 21
1135.7336586827307
  0
LINE
  8
_0-1_計細線
  6
CONTINUOUS
 62
    3
 10
975.20047467434233
 20
1135.7336586827307
 11
967.20047467434233
 21
1135.7336586827307
  0
LINE
  8
_0-1_計細線
  6
CONTINUOUS
 62
    3
 10
953.17047467434259
 20
1135.7336586827307
 11
953.17047467434259
 21
1245.7336586827307
  0
LINE
  8
_0-1_計細線
  6
CONTINUOUS
 62
    3
 10
953.17047467434259
 20
1245.7336586827307
 11
961.17047467434259
 21
1245.7336586827307
  0
LINE
  8
_0-1_計細線
  6
CONTINUOUS
 62
    3
 10
961.17047467434259
 20
1245.7336586827307
 11
961.17047467434259
 21
1135.7336586827307
  0
LINE
  8
_0-1_計細線
  6
CONTINUOUS
 62
    3
 10
961.17047467434259
 20
1135.7336586827307
 11
953.17047467434259
 21
1135.7336586827307
  0
LINE
  8
_0-0_計極細
  6
CONTINUOUS
 62
    2
 10
1185.6504746743421
 20
1192.7336586827307
 11
1191.6804746743419
 21
1192.7336586827307
  0
LINE
  8
_0-0_計極細
  6
CONTINUOUS
 62
    2
 10
1171.6204746743424
 20
1192.7336586827307
 11
1177.6504746743421
 21
1192.7336586827307
  0
LINE
  8
_0-0_計極細
  6
CONTINUOUS
 62
    2
 10
1171.6204746743424
 20
1188.7336586827307
 11
1177.6504746743421
 21
1188.7336586827307
  0
LINE
  8
_0-0_計極細
  6
CONTINUOUS
 62
    2
 10
1157.5904746743417
 20
1192.7336586827307
 11
1163.6204746743424
 21
1192.7336586827307
  0
LINE
  8
_0-0_計極細
  6
CONTINUOUS
 62
    2
 10
1157.5904746743417
 20
1188.7336586827307
 11
1163.6204746743424
 21
1188.7336586827307
  0
LINE
  8
_0-0_計極細
  6
CONTINUOUS
 62
    2
 10
1143.560474674342
 20
1192.7336586827307
 11
1149.5904746743427
 21
1192.7336586827307
  0
LINE
  8
_0-0_計極細
  6
CONTINUOUS
 62
    2
 10
1143.560474674342
 20
1188.7336586827307
 11
1149.5904746743427
 21
1188.7336586827307
  0
LINE
  8
_0-0_計極細
  6
CONTINUOUS
 62
    2
 10
1129.5304746743423
 20
1192.7336586827307
 11
1135.5604746743429
 21
1192.7336586827307
  0
LINE
  8
_0-0_計極細
  6
CONTINUOUS
 62
    2
 10
1129.5304746743423
 20
1188.7336586827307
 11
1135.5604746743429
 21
1188.7336586827307
  0
LINE
  8
_0-0_計極細
  6
CONTINUOUS
 62
    2
 10
1115.5004746743425
 20
1192.7336586827307
 11
1121.5304746743423
 21
1192.7336586827307
  0
LINE
  8
_0-0_計極細
  6
CONTINUOUS
 62
    2
 10
1115.5004746743425
 20
1188.7336586827307
 11
1121.5304746743423
 21
1188.7336586827307
  0
LINE
  8
_0-0_計極細
  6
CONTINUOUS
 62
    2
 10
1101.4704746743428
 20
1192.7336586827307
 11
1107.5004746743425
 21
1192.7336586827307
  0
LINE
  8
_0-0_計極細
  6
CONTINUOUS
 62
    2
 10
1101.4704746743428
 20
1188.7336586827307
 11
1107.5004746743425
 21
1188.7336586827307
  0
LINE
  8
_0-0_計極細
  6
CONTINUOUS
 62
    2
 10
1087.4404746743421
 20
1192.7336586827307
 11
1093.4704746743428
 21
1192.7336586827307
  0
LINE
  8
_0-0_計極細
  6
CONTINUOUS
 62
    2
 10
1087.4404746743421
 20
1188.7336586827307
 11
1093.4704746743428
 21
1188.7336586827307
  0
LINE
  8
_0-0_計極細
  6
CONTINUOUS
 62
    2
 10
1073.4104746743424
 20
1192.7336586827307
 11
1079.4404746743421
 21
1192.7336586827307
  0
LINE
  8
_0-0_計極細
  6
CONTINUOUS
 62
    2
 10
1073.4104746743424
 20
1188.7336586827307
 11
1079.4404746743421
 21
1188.7336586827307
  0
LINE
  8
_0-0_計極細
  6
CONTINUOUS
 62
    2
 10
1059.3804746743426
 20
1192.7336586827307
 11
1065.4104746743424
 21
1192.7336586827307
  0
LINE
  8
_0-0_計極細
  6
CONTINUOUS
 62
    2
 10
1059.3804746743426
 20
1188.7336586827307
 11
1065.4104746743424
 21
1188.7336586827307
  0
LINE
  8
_0-0_計極細
  6
CONTINUOUS
 62
    2
 10
1045.350474674342
 20
1192.7336586827307
 11
1051.3804746743426
 21
1192.7336586827307
  0
LINE
  8
_0-0_計極細
  6
CONTINUOUS
 62
    2
 10
1045.350474674342
 20
1188.7336586827307
 11
1051.3804746743426
 21
1188.7336586827307
  0
LINE
  8
_0-0_計極細
  6
CONTINUOUS
 62
    2
 10
1031.3204746743422
 20
1192.7336586827307
 11
1037.350474674342
 21
1192.7336586827307
  0
LINE
  8
_0-0_計極細
  6
CONTINUOUS
 62
    2
 10
1031.3204746743422
 20
1188.7336586827307
 11
1037.350474674342
 21
1188.7336586827307
  0
LINE
  8
_0-0_計極細
  6
CONTINUOUS
 62
    2
 10
1017.2904746743425
 20
1192.7336586827307
 11
1023.3204746743422
 21
1192.7336586827307
  0
LINE
  8
_0-0_計極細
  6
CONTINUOUS
 62
    2
 10
1017.2904746743425
 20
1188.7336586827307
 11
1023.3204746743422
 21
1188.7336586827307
  0
LINE
  8
_0-0_計極細
  6
CONTINUOUS
 62
    2
 10
1003.2604746743418
 20
1192.7336586827307
 11
1009.2904746743425
 21
1192.7336586827307
  0
LINE
  8
_0-0_計極細
  6
CONTINUOUS
 62
    2
 10
1003.2604746743418
 20
1188.7336586827307
 11
1009.2904746743425
 21
1188.7336586827307
  0
LINE
  8
_0-0_計極細
  6
CONTINUOUS
 62
    2
 10
989.23047467434208
 20
1192.7336586827307
 11
995.26047467434273
 21
1192.7336586827307
  0
LINE
  8
_0-0_計極細
  6
CONTINUOUS
 62
    2
 10
989.23047467434208
 20
1188.7336586827307
 11
995.26047467434273
 21
1188.7336586827307
  0
LINE
  8
_0-0_計極細
  6
CONTINUOUS
 62
    2
 10
975.20047467434233
 20
1192.7336586827307
 11
981.23047467434299
 21
1192.7336586827307
  0
LINE
  8
_0-0_計極細
  6
CONTINUOUS
 62
    2
 10
975.20047467434233
 20
1188.7336586827307
 11
981.23047467434299
 21
1188.7336586827307
  0
LINE
  8
_0-0_計極細
  6
CONTINUOUS
 62
    2
 10
961.17047467434259
 20
1192.7336586827307
 11
967.20047467434233
 21
1192.7336586827307
  0
LINE
  8
_0-0_計極細
  6
CONTINUOUS
 62
    2
 10
961.17047467434259
 20
1188.7336586827307
 11
967.20047467434233
 21
1188.7336586827307
  0
LINE
  8
_0-0_計極細
  6
CONTINUOUS
 62
    2
 10
947.14047467434284
 20
1192.7336586827307
 11
953.17047467434259
 21
1192.7336586827307
  0
LINE
  8
_0-0_計極細
  6
CONTINUOUS
 62
    2
 10
947.14047467434284
 20
1188.7336586827307
 11
953.17047467434259
 21
1188.7336586827307
  0
LINE
  8
_0-0_計極細
  6
CONTINUOUS
 62
    2
 10
933.11047467434219
 20
1192.7336586827307
 11
939.14047467434284
 21
1192.7336586827307
  0
LINE
  8
_0-0_計極細
  6
CONTINUOUS
 62
    2
 10
933.11047467434219
 20
1188.7336586827307
 11
939.14047467434284
 21
1188.7336586827307
  0
LINE
  8
_0-0_計極細
  6
CONTINUOUS
 62
    2
 10
919.08047467434244
 20
1192.7336586827307
 11
925.11047467434219
 21
1192.7336586827307
  0
LINE
  8
_0-0_計極細
  6
CONTINUOUS
 62
    2
 10
919.08047467434244
 20
1188.7336586827307
 11
925.11047467434219
 21
1188.7336586827307
  0
LINE
  8
_0-0_計極細
  6
CONTINUOUS
 62
    2
 10
905.05047467434269
 20
1192.7336586827307
 11
911.08047467434244
 21
1192.7336586827307
  0
LINE
  8
_0-0_計極細
  6
CONTINUOUS
 62
    2
 10
905.05047467434269
 20
1188.7336586827307
 11
911.08047467434244
 21
1188.7336586827307
  0
LINE
  8
_0-0_計極細
  6
CONTINUOUS
 62
    2
 10
891.02047467434204
 20
1192.7336586827307
 11
897.05047467434269
 21
1192.7336586827307
  0
LINE
  8
_0-0_計極細
  6
CONTINUOUS
 62
    2
 10
891.02047467434204
 20
1188.7336586827307
 11
897.05047467434269
 21
1188.7336586827307
  0
LINE
  8
_0-0_計極細
  6
CONTINUOUS
 62
    2
 10
876.99047467434229
 20
1192.7336586827307
 11
883.02047467434204
 21
1192.7336586827307
  0
LINE
  8
_0-0_計極細
  6
CONTINUOUS
 62
    2
 10
876.99047467434229
 20
1188.7336586827307
 11
883.02047467434204
 21
1188.7336586827307
  0
LINE
  8
_0-0_計極細
  6
CONTINUOUS
 62
    2
 10
862.96047467434255
 20
1188.7336586827307
 11
868.99047467434229
 21
1188.7336586827307
  0
LINE
  8
_0-0_計極細
  6
CONTINUOUS
 62
    2
 10
862.96047467434255
 20
1192.7336586827307
 11
868.99047467434229
 21
1192.7336586827307
  0
LINE
  8
_0-1_計細線
  6
CONTINUOUS
 62
    3
 10
854.96047467434255
 20
1248.7336586827307
 11
1190.6523410055822
 21
1248.7336586827307
  0
LINE
  8
_0-1_計細線
  6
CONTINUOUS
 62
    3
 10
854.96047467434255
 20
1132.7336586827307
 11
1190.6523410058041
 21
1132.7336586827307
  0
LINE
  8
_0-1_計細線
  6
CONTINUOUS
 62
    3
 10
1188.889647742634
 20
1135.7336586827307
 11
854.96047467434255
 21
1135.7336586827307
  0
LINE
  8
_0-1_計細線
  6
CONTINUOUS
 62
    3
 10
854.96047467434255
 20
1135.7336586827307
 11
854.96047467434255
 21
1132.7336586827307
  0
LINE
  8
_0-1_計細線
  6
CONTINUOUS
 62
    3
 10
1192.4150342687533
 20
1245.7336586827307
 11
854.96047467434255
 21
1245.7336586827307
  0
LINE
  8
_0-1_計細線
  6
CONTINUOUS
 62
    3
 10
854.96047467434255
 20
1245.7336586827307
 11
854.96047467434255
 21
1248.7336586827307
  0
LINE
  8
_0-1_計細線
  6
CONTINUOUS
 62
    3
 10
1177.6504746743421
 20
1135.7336586827307
 11
1177.6504746743421
 21
1245.7336586827307
  0
LINE
  8
_0-1_計細線
  6
CONTINUOUS
 62
    3
 10
1177.6504746743421
 20
1245.7336586827307
 11
1185.6504746743421
 21
1245.7336586827307
  0
LINE
  8
_0-1_計細線
  6
CONTINUOUS
 62
    3
 10
1185.6504746743421
 20
1245.7336586827307
 11
1185.6504746743421
 21
1180.6172389290941
  0
LINE
  8
_0-1_計細線
  6
CONTINUOUS
 62
    3
 10
1185.6504746743421
 20
1142.8500784365483
 11
1185.6504746743421
 21
1135.7336586827307
  0
LINE
  8
_0-1_計細線
  6
CONTINUOUS
 62
    3
 10
1185.6504746743421
 20
1135.7336586827307
 11
1177.6504746743421
 21
1135.7336586827307
  0
LINE
  8
_0-0_計極細
  6
CONTINUOUS
 62
    2
 10
1185.6504746743421
 20
1188.7336586827307
 11
1189.4486579098809
 21
1188.7336586827307
  0
LINE
  8
_0-1_計細線
  6
CONTINUOUS
 62
    3
 10
1191.6804746743419
 20
1192.4295387200491
 11
1191.6804746743419
 21
1245.7336586827307
  0
LINE
  8
_0-1_計細線
  6
CONTINUOUS
 62
    3
 10
1191.6804746743419
 20
1245.7336586827307
 11
1192.4150342687533
 21
1245.7336586827307
  0
LINE
  8
_0-5_寸法線
  6
CONTINUOUS
 62
    7
 10
1372.6849626743422
 20
664.52629068273188
 11
1444.6849626743422
 21
664.52629068273166
  0
LINE
  8
_0-5_寸法線
  6
CONTINUOUS
 62
    7
 10
1436.6849626743422
 20
664.52629068273166
 11
1432.543857952702
 21
679.98110390335671
  0
LINE
  8
_0-5_寸法線
  6
CONTINUOUS
 62
    7
 10
1436.6849626743422
 20
664.52629068273166
 11
1440.8260673959826
 21
679.98110390335671
  0
LINE
  8
_0-5_寸法線
  6
CONTINUOUS
 62
    7
 10
1372.6849626743422
 20
689.73365868273129
 11
1444.6849626743422
 21
689.73365868273106
  0
LINE
  8
_0-5_寸法線
  6
CONTINUOUS
 62
    7
 10
1436.6849626743422
 20
689.73365868273106
 11
1440.8260673959826
 21
674.27884546210601
  0
LINE
  8
_0-5_寸法線
  6
CONTINUOUS
 62
    7
 10
1436.6849626743422
 20
689.73365868273106
 11
1432.543857952702
 21
674.27884546210601
  0
LINE
  8
_0-5_寸法線
  6
CONTINUOUS
 62
    7
 10
1436.6849626743422
 20
664.52629068273166
 11
1436.6849626743422
 21
689.73365868273106
  0
TEXT
  8
_0-5_寸法線
 62
    7
 10
1436.6849626743424
 20
665.12997468273147
 40
24
 41
1
 50
90
  1
28
  0
TEXT
  8
_0-7_枠細線
 62
    5
 10
926.94100991401683
 20
334.91700971987882
 40
40
 41
0.8
 50
0
  1
側面詳細図
  0
TEXT
  8
_0-7_枠細線
 62
    5
 10
1110.8847304175665
 20
334.32466645858585
 40
32
 41
0.6
 50
0
  1
Ｓ＝１：３
  0
LINE
  8
_1-2_極細3
  6
CENTER1
 62
    2
 10
859.05373807836645
 20
433.18686124212036
 11
1136.6620920272037
 21
433.18686124212036
  0
ARC
  8
_1-2_極細3
  6
CONTINUOUS
 62
    2
 10
1087.419654683493
 20
418.8122923979945
 40
33.712972029084177
 50
330.03871396148293
 51
25.238104023878119
  0
ARC
  8
_1-2_極細3
  6
CONTINUOUS
 62
    2
 10
1148.4093670480972
 20
447.56143008624531
 40
33.712972029084177
 50
150.0387139614817
 51
205.23810402387812
  0
ARC
  8
_1-2_極細3
  6
CONTINUOUS
 62
    2
 10
857.99457027620906
 20
418.8122923979945
 40
33.712972029084177
 50
330.03871396148213
 51
25.238104023877458
  0
ARC
  8
_1-2_極細3
  6
CONTINUOUS
 62
    2
 10
918.98428264081326
 20
447.56143008624531
 40
33.712972029084177
 50
150.0387139614825
 51
205.23810402387878
  0
LINE
  8
_1-5_寸法3
  6
CONTINUOUS
 62
    7
 10
1022.824802855079
 20
475.85352790878733
 11
1022.824802855079
 21
547.85352790878733
  0
LINE
  8
_1-5_寸法3
  6
CONTINUOUS
 62
    7
 10
1022.824802855079
 20
539.85352790878733
 11
1038.2796160757041
 21
543.99463263042765
  0
LINE
  8
_1-5_寸法3
  6
CONTINUOUS
 62
    7
 10
1022.824802855079
 20
539.85352790878733
 11
1038.2796160757041
 21
535.71242318714701
  0
LINE
  8
_1-5_寸法3
  6
CONTINUOUS
 62
    7
 10
1060.158136188413
 20
475.85352790878733
 11
1060.158136188413
 21
547.85352790878733
  0
LINE
  8
_1-5_寸法3
  6
CONTINUOUS
 62
    7
 10
1060.158136188413
 20
539.85352790878733
 11
1044.7033229677879
 21
535.71242318714701
  0
LINE
  8
_1-5_寸法3
  6
CONTINUOUS
 62
    7
 10
1060.158136188413
 20
539.85352790878733
 11
1044.7033229677879
 21
543.99463263042776
  0
LINE
  8
_1-5_寸法3
  6
CONTINUOUS
 62
    7
 10
1022.824802855079
 20
539.85352790878733
 11
1060.158136188413
 21
539.85352790878733
  0
TEXT
  8
_1-5_寸法3
 62
    7
 10
1029.4914695217451
 20
539.85352790878733
 40
24
 41
1
 50
0
  1
14
  0
LINE
  8
_1-5_寸法3
  6
CONTINUOUS
 62
    7
 10
1060.158136188413
 20
539.85352790878733
 11
1075.612949409038
 21
543.99463263042753
  0
LINE
  8
_1-5_寸法3
  6
CONTINUOUS
 62
    7
 10
1060.158136188413
 20
539.85352790878733
 11
1075.612949409038
 21
535.7124231871469
  0
LINE
  8
_1-5_寸法3
  6
CONTINUOUS
 62
    7
 10
1097.4914695217469
 20
475.85352790878733
 11
1097.4914695217469
 21
547.85352790878733
  0
LINE
  8
_1-5_寸法3
  6
CONTINUOUS
 62
    7
 10
1097.4914695217469
 20
539.85352790878733
 11
1082.0366563011219
 21
535.71242318714701
  0
LINE
  8
_1-5_寸法3
  6
CONTINUOUS
 62
    7
 10
1097.4914695217469
 20
539.85352790878733
 11
1082.0366563011219
 21
543.99463263042776
  0
LINE
  8
_1-5_寸法3
  6
CONTINUOUS
 62
    7
 10
1060.158136188413
 20
539.85352790878733
 11
1097.4914695217469
 21
539.85352790878733
  0
TEXT
  8
_1-5_寸法3
 62
    7
 10
1066.82480285508
 20
539.85352790878733
 40
24
 41
1
 50
0
  1
14
  0
LINE
  8
_1-5_寸法3
  6
CONTINUOUS
 62
    7
 10
900.15813618841298
 20
475.85352790878733
 11
900.15813618841298
 21
547.85352790878733
  0
LINE
  8
_1-5_寸法3
  6
CONTINUOUS
 62
    7
 10
900.15813618841298
 20
539.85352790878733
 11
884.70332296778793
 21
535.71242318714701
  0
LINE
  8
_1-5_寸法3
  6
CONTINUOUS
 62
    7
 10
900.15813618841298
 20
539.85352790878733
 11
884.70332296778793
 21
543.99463263042776
  0
LINE
  8
_1-5_寸法3
  6
CONTINUOUS
 62
    7
 10
921.49146952174692
 20
475.85352790878733
 11
921.49146952174692
 21
547.85352790878733
  0
CIRCLE
  8
_1-5_寸法3
  6
CONTINUOUS
 62
    1
 10
921.49146952174692
 20
539.85352790878733
 40
2.4000000000000004
  0
LINE
  8
_1-5_寸法3
  6
CONTINUOUS
 62
    7
 10
860.15813618841298
 20
539.85352790878733
 11
921.49146952174692
 21
539.85352790878733
  0
TEXT
  8
_1-5_寸法3
 62
    7
 10
872.1494417090837
 20
539.85352790878733
 40
24
 41
1
 50
0
  1
8
  0
LINE
  8
_1-5_寸法3
  6
CONTINUOUS
 62
    7
 10
937.49146952174692
 20
475.85352790878733
 11
937.49146952174692
 21
547.85352790878733
  0
LINE
  8
_1-5_寸法3
  6
CONTINUOUS
 62
    7
 10
937.49146952174692
 20
539.85352790878733
 11
952.94628274237209
 21
543.99463263042753
  0
LINE
  8
_1-5_寸法3
  6
CONTINUOUS
 62
    7
 10
937.49146952174692
 20
539.85352790878733
 11
952.94628274237198
 21
535.7124231871469
  0
LINE
  8
_1-5_寸法3
  6
CONTINUOUS
 62
    7
 10
921.49146952174692
 20
539.85352790878733
 11
977.49146952174692
 21
539.85352790878733
  0
TEXT
  8
_1-5_寸法3
 62
    7
 10
953.04465158562766
 20
539.85352790878733
 40
24
 41
1
 50
0
  1
6
  0
ARC
  8
_1-3_細線3
  6
CONTINUOUS
 62
    4
 10
1106.291469521788
 20
457.98686124207751
 40
1.8666666667086855
 50
269.99999999999977
 51
89.999999999999545
  0
LINE
  8
_1-3_細線3
  6
CONTINUOUS
 62
    4
 10
1088.691469521744
 20
459.85352790878864
 11
1106.2914695217448
 21
459.85352790878619
  0
ARC
  8
_1-3_細線3
  6
CONTINUOUS
 62
    4
 10
1088.6914695219025
 20
457.98686124207512
 40
1.8666666666213438
 50
89.999999999999915
 51
269.99999999999977
  0
LINE
  8
_1-3_細線3
  6
CONTINUOUS
 62
    4
 10
1095.6248028550783
 20
408.38686124212148
 11
1095.6248028550783
 21
456.12019457545381
  0
LINE
  8
_1-3_細線3
  6
CONTINUOUS
 62
    4
 10
1095.6248028550783
 20
456.12019457545381
 11
1088.691469521744
 21
456.12019457545381
  0
ARC
  8
_1-3_細線3
  6
CONTINUOUS
 62
    4
 10
1097.4914695217376
 20
408.38686124211841
 40
1.8666666666729728
 50
179.99999999990578
 51
0.0000000000938484
  0
LINE
  8
_1-3_細線3
  6
CONTINUOUS
 62
    4
 10
1099.3581361884105
 20
456.12019457545381
 11
1099.3581361884105
 21
408.38686124212148
  0
ARC
  8
_1-3_細線3
  6
CONTINUOUS
 62
    4
 10
1092.3359139665827
 20
439.85352790976185
 40
3.9999999989889581
 50
53.130102350277838
 51
89.999999999999915
  0
LINE
  8
_1-3_細線3
  6
CONTINUOUS
 62
    4
 10
1095.6248028550831
 20
442.38686124212387
 11
1094.7359139661926
 21
443.0535279087905
  0
ARC
  8
_1-3_細線3
  6
CONTINUOUS
 62
    4
 10
1092.3359139661093
 20
427.8535279089478
 40
4.0000000001770006
 50
269.99999999999977
 51
306.86989764543398
  0
LINE
  8
_1-3_細線3
  6
CONTINUOUS
 62
    4
 10
1095.6248028550831
 20
425.32019457545579
 11
1094.7359139661926
 21
424.65352790878904
  0
LINE
  8
_1-3_細線3
  6
CONTINUOUS
 62
    4
 10
1062.9136917439728
 20
443.0535279087905
 11
1062.0248028550823
 21
442.38686124212387
  0
ARC
  8
_1-3_細線3
  6
CONTINUOUS
 62
    4
 10
1065.313691744394
 20
439.85352790732162
 40
4.0000000014693802
 50
89.999999999999915
 51
126.86989763804931
  0
LINE
  8
_1-3_細線3
  6
CONTINUOUS
 62
    4
 10
1092.3359139661936
 20
443.85352790879102
 11
1065.313691743972
 21
443.85352790879102
  0
LINE
  8
_1-3_細線3
  6
CONTINUOUS
 62
    4
 10
1062.9136917439728
 20
424.65352790878904
 11
1062.0248028550823
 21
425.32019457545579
  0
ARC
  8
_1-3_細線3
  6
CONTINUOUS
 62
    4
 10
1065.3136917438646
 20
427.85352790860975
 40
3.9999999998187383
 50
233.13010235385192
 51
269.99999999999977
  0
LINE
  8
_1-3_細線3
  6
CONTINUOUS
 62
    4
 10
1092.3359139661936
 20
423.85352790879102
 11
1065.313691743972
 21
423.85352790879102
  0
ARC
  8
_1-3_細線3
  6
CONTINUOUS
 62
    4
 10
1068.95813618839
 20
457.98686124207751
 40
1.8666666667086855
 50
269.99999999999977
 51
89.999999999999545
  0
LINE
  8
_1-3_細線3
  6
CONTINUOUS
 62
    4
 10
1051.3581361884108
 20
459.85352790878864
 11
1068.9581361884118
 21
459.85352790878619
  0
ARC
  8
_1-3_細線3
  6
CONTINUOUS
 62
    4
 10
1051.3581361885244
 20
457.98686124207512
 40
1.8666666666213438
 50
89.999999999999915
 51
269.99999999999977
  0
LINE
  8
_1-3_細線3
  6
CONTINUOUS
 62
    4
 10
1058.2914695217451
 20
408.38686124212148
 11
1058.2914695217451
 21
456.12019457545381
  0
LINE
  8
_1-3_細線3
  6
CONTINUOUS
 62
    4
 10
1058.2914695217451
 20
456.12019457545381
 11
1051.3581361884108
 21
456.12019457545381
  0
ARC
  8
_1-3_細線3
  6
CONTINUOUS
 62
    4
 10
1060.1581361883395
 20
408.38686124211841
 40
1.8666666667379712
 50
179.99999999990578
 51
0.0000000000938484
  0
LINE
  8
_1-3_細線3
  6
CONTINUOUS
 62
    4
 10
1062.0248028550775
 20
456.12019457545381
 11
1062.0248028550775
 21
408.38686124212148
  0
ARC
  8
_1-3_細線3
  6
CONTINUOUS
 62
    4
 10
1055.0025806326394
 20
439.85352790756821
 40
4.0000000011114274
 50
53.130102362111579
 51
89.999999999999915
  0
LINE
  8
_1-3_細線3
  6
CONTINUOUS
 62
    4
 10
1058.2914695217523
 20
442.38686124212387
 11
1057.4025806328618
 21
443.0535279087905
  0
ARC
  8
_1-3_細線3
  6
CONTINUOUS
 62
    4
 10
1055.0025806329531
 20
427.85352790877346
 40
3.9999999999327946
 50
269.99999999999977
 51
306.86989764493126
  0
LINE
  8
_1-3_細線3
  6
CONTINUOUS
 62
    4
 10
1058.2914695217523
 20
425.32019457545579
 11
1057.4025806328618
 21
424.65352790878904
  0
LINE
  8
_1-3_細線3
  6
CONTINUOUS
 62
    4
 10
1025.5803584106393
 20
443.0535279087905
 11
1024.6914695217488
 21
442.38686124212387
  0
ARC
  8
_1-3_細線3
  6
CONTINUOUS
 62
    4
 10
1027.9803584104457
 20
439.85352790951316
 40
3.9999999992778918
 50
89.999999999999915
 51
126.8698976498347
  0
LINE
  8
_1-3_細線3
  6
CONTINUOUS
 62
    4
 10
1025.5803584106393
 20
424.65352790878904
 11
1024.6914695217488
 21
425.32019457545579
  0
ARC
  8
_1-3_細線3
  6
CONTINUOUS
 62
    4
 10
1027.9803584107058
 20
427.85352790878193
 40
3.9999999999909059
 50
233.13010235332905
 51
269.99999999999977
  0
ARC
  8
_1-3_細線3
  6
CONTINUOUS
 62
    4
 10
1031.6248028549899
 20
457.98686124207751
 40
1.8666666667086855
 50
269.99999999999977
 51
89.999999999999545
  0
LINE
  8
_1-3_細線3
  6
CONTINUOUS
 62
    4
 10
1014.0248028550773
 20
459.85352790878864
 11
1031.6248028550781
 21
459.85352790878619
  0
ARC
  8
_1-3_細線3
  6
CONTINUOUS
 62
    4
 10
1014.0248028551428
 20
457.98686124207512
 40
1.8666666666213438
 50
89.999999999999915
 51
269.99999999999977
  0
LINE
  8
_1-3_細線3
  6
CONTINUOUS
 62
    4
 10
1020.9581361884116
 20
408.38686124212148
 11
1020.9581361884116
 21
456.12019457545381
  0
LINE
  8
_1-3_細線3
  6
CONTINUOUS
 62
    4
 10
1020.9581361884116
 20
456.12019457545381
 11
1014.0248028550773
 21
456.12019457545381
  0
ARC
  8
_1-3_細線3
  6
CONTINUOUS
 62
    4
 10
1022.8248028550811
 20
408.38686124197653
 40
1.8666666666627865
 50
179.99999999555087
 51
0.0000000044487933
  0
LINE
  8
_1-3_細線3
  6
CONTINUOUS
 62
    4
 10
1024.6914695217438
 20
456.12019457545381
 11
1024.6914695217438
 21
408.38686124212148
  0
ARC
  8
_1-3_細線3
  6
CONTINUOUS
 62
    4
 10
1017.6692472997174
 20
439.85352790911776
 40
3.9999999996247064
 50
53.130102353510139
 51
89.999999999999915
  0
LINE
  8
_1-3_細線3
  6
CONTINUOUS
 62
    4
 10
1020.9581361884188
 20
442.38686124212387
 11
1020.0692472995283
 21
443.0535279087905
  0
ARC
  8
_1-3_細線3
  6
CONTINUOUS
 62
    4
 10
1017.6692472991876
 20
427.85352790975759
 40
4.0000000009791261
 50
269.99999999999977
 51
306.86989764142373
  0
LINE
  8
_1-3_細線3
  6
CONTINUOUS
 62
    4
 10
1020.9581361884188
 20
425.32019457545579
 11
1020.0692472995283
 21
424.65352790878904
  0
LINE
  8
_1-3_細線3
  6
CONTINUOUS
 62
    4
 10
1055.0025806328629
 20
443.85352790879102
 11
1027.9803584106382
 21
443.85352790879102
  0
LINE
  8
_1-3_細線3
  6
CONTINUOUS
 62
    4
 10
1055.0025806328629
 20
423.85352790879102
 11
1027.9803584106382
 21
423.85352790879102
  0
LINE
  8
_1-3_細線3
  6
CONTINUOUS
 62
    4
 10
988.24702507730603
 20
443.0535279087905
 11
987.35813618841553
 21
442.38686124212387
  0
ARC
  8
_1-3_細線3
  6
CONTINUOUS
 62
    4
 10
990.64702507752486
 20
439.85352790796355
 40
4.000000000827459
 50
89.999999999999915
 51
126.8698976412458
  0
LINE
  8
_1-3_細線3
  6
CONTINUOUS
 62
    4
 10
988.24702507730603
 20
424.65352790878904
 11
987.35813618841553
 21
425.32019457545579
  0
ARC
  8
_1-3_細線3
  6
CONTINUOUS
 62
    4
 10
990.64702507775667
 20
427.85352791024644
 40
4.0000000014554349
 50
233.13010236151524
 51
269.99999999999977
  0
ARC
  8
_1-3_細線3
  6
CONTINUOUS
 62
    4
 10
994.29146952187307
 20
457.98686124207751
 40
1.8666666667086855
 50
269.99999999999977
 51
89.999999999999545
  0
LINE
  8
_1-3_細線3
  6
CONTINUOUS
 62
    4
 10
976.69146952174401
 20
459.85352790878864
 11
994.29146952174494
 21
459.85352790878619
  0
ARC
  8
_1-3_細線3
  6
CONTINUOUS
 62
    4
 10
976.69146952176197
 20
457.98686124207512
 40
1.8666666666213438
 50
89.999999999999915
 51
269.99999999999977
  0
LINE
  8
_1-3_細線3
  6
CONTINUOUS
 62
    4
 10
983.62480285507831
 20
408.38686124212148
 11
983.62480285507831
 21
456.12019457545381
  0
LINE
  8
_1-3_細線3
  6
CONTINUOUS
 62
    4
 10
983.62480285507831
 20
456.12019457545381
 11
976.69146952174401
 21
456.12019457545381
  0
ARC
  8
_1-3_細線3
  6
CONTINUOUS
 62
    4
 10
985.49146952168053
 20
408.3868612422603
 40
1.8666666667302103
 50
180.00000000426033
 51
359.9999999957389
  0
LINE
  8
_1-3_細線3
  6
CONTINUOUS
 62
    4
 10
987.35813618841064
 20
456.12019457545381
 11
987.35813618841064
 21
408.38686124212148
  0
LINE
  8
_1-3_細線3
  6
CONTINUOUS
 62
    4
 10
1017.6692472995292
 20
443.85352790879102
 11
990.6470250773051
 21
443.85352790879102
  0
LINE
  8
_1-3_細線3
  6
CONTINUOUS
 62
    4
 10
1017.6692472995292
 20
423.85352790879102
 11
990.6470250773051
 21
423.85352790879102
  0
LINE
  8
_1-3_細線3
  6
CONTINUOUS
 62
    4
 10
994.29146952174494
 20
456.12019457545381
 11
987.35813618841053
 21
456.12019457545381
  0
LINE
  8
_1-3_細線3
  6
CONTINUOUS
 62
    4
 10
1031.6248028550781
 20
456.12019457545381
 11
1024.6914695217438
 21
456.12019457545381
  0
LINE
  8
_1-3_細線3
  6
CONTINUOUS
 62
    4
 10
1068.9581361884118
 20
456.12019457545381
 11
1062.0248028550775
 21
456.12019457545381
  0
LINE
  8
_1-3_細線3
  6
CONTINUOUS
 62
    4
 10
1106.2914695217448
 20
456.12019457545381
 11
1099.3581361884105
 21
456.12019457545381
  0
ARC
  8
_1-3_細線3
  6
CONTINUOUS
 62
    4
 10
980.33591396597274
 20
439.85352790756696
 40
4.0000000011114274
 50
53.130102362111579
 51
89.999999999999915
  0
LINE
  8
_1-3_細線3
  6
CONTINUOUS
 62
    4
 10
983.6248028550857
 20
442.38686124212262
 11
982.7359139661952
 21
443.05352790878925
  0
ARC
  8
_1-3_細線3
  6
CONTINUOUS
 62
    4
 10
980.33591396628651
 20
427.85352790877221
 40
3.9999999999327946
 50
269.99999999999977
 51
306.86989764493126
  0
LINE
  8
_1-3_細線3
  6
CONTINUOUS
 62
    4
 10
983.6248028550857
 20
425.32019457545454
 11
982.7359139661952
 21
424.65352790878779
  0
LINE
  8
_1-3_細線3
  6
CONTINUOUS
 62
    4
 10
950.91369174397266
 20
443.05352790878925
 11
950.02480285508216
 21
442.38686124212262
  0
ARC
  8
_1-3_細線3
  6
CONTINUOUS
 62
    4
 10
953.31369174377903
 20
439.85352790951191
 40
3.9999999992778918
 50
89.999999999999915
 51
126.8698976498347
  0
LINE
  8
_1-3_細線3
  6
CONTINUOUS
 62
    4
 10
950.91369174397266
 20
424.65352790878779
 11
950.02480285508216
 21
425.32019457545454
  0
ARC
  8
_1-3_細線3
  6
CONTINUOUS
 62
    4
 10
953.31369174403915
 20
427.85352790878068
 40
3.9999999999909059
 50
233.13010235332905
 51
269.99999999999977
  0
ARC
  8
_1-3_細線3
  6
CONTINUOUS
 62
    4
 10
956.95813618832324
 20
457.98686124207626
 40
1.8666666667086855
 50
269.99999999999977
 51
89.999999999999545
  0
LINE
  8
_1-3_細線3
  6
CONTINUOUS
 62
    4
 10
939.35813618841064
 20
459.85352790878738
 11
956.95813618841146
 21
459.85352790878494
  0
ARC
  8
_1-3_細線3
  6
CONTINUOUS
 62
    4
 10
939.35813618847612
 20
457.98686124207387
 40
1.8666666666213438
 50
89.999999999999915
 51
269.99999999999977
  0
LINE
  8
_1-3_細線3
  6
CONTINUOUS
 62
    4
 10
946.29146952174494
 20
408.38686124212023
 11
946.29146952174494
 21
456.12019457545256
  0
LINE
  8
_1-3_細線3
  6
CONTINUOUS
 62
    4
 10
946.29146952174494
 20
456.12019457545256
 11
939.35813618841064
 21
456.12019457545256
  0
ARC
  8
_1-3_細線3
  6
CONTINUOUS
 62
    4
 10
948.15813618841446
 20
408.38686124197528
 40
1.8666666666627865
 50
179.99999999555087
 51
0.0000000044487933
  0
LINE
  8
_1-3_細線3
  6
CONTINUOUS
 62
    4
 10
950.02480285507716
 20
456.12019457545256
 11
950.02480285507716
 21
408.38686124212023
  0
ARC
  8
_1-3_細線3
  6
CONTINUOUS
 62
    4
 10
943.0025806330508
 20
439.85352790911651
 40
3.9999999996247064
 50
53.130102353510139
 51
89.999999999999915
  0
LINE
  8
_1-3_細線3
  6
CONTINUOUS
 62
    4
 10
946.29146952175222
 20
442.38686124212262
 11
945.40258063286171
 21
443.05352790878925
  0
ARC
  8
_1-3_細線3
  6
CONTINUOUS
 62
    4
 10
943.00258063252102
 20
427.85352790975634
 40
4.0000000009791261
 50
269.99999999999977
 51
306.86989764142373
  0
LINE
  8
_1-3_細線3
  6
CONTINUOUS
 62
    4
 10
946.29146952175222
 20
425.32019457545454
 11
945.40258063286171
 21
424.65352790878779
  0
LINE
  8
_1-3_細線3
  6
CONTINUOUS
 62
    4
 10
980.33591396619624
 20
443.85352790878977
 11
953.31369174397162
 21
443.85352790878977
  0
LINE
  8
_1-3_細線3
  6
CONTINUOUS
 62
    4
 10
980.33591396619624
 20
423.85352790878977
 11
953.31369174397162
 21
423.85352790878977
  0
LINE
  8
_1-3_細線3
  6
CONTINUOUS
 62
    4
 10
913.58035841063941
 20
443.05352790878925
 11
912.6914695217489
 21
442.38686124212262
  0
ARC
  8
_1-3_細線3
  6
CONTINUOUS
 62
    4
 10
915.98035841085823
 20
439.8535279079623
 40
4.000000000827459
 50
89.999999999999915
 51
126.8698976412458
  0
LINE
  8
_1-3_細線3
  6
CONTINUOUS
 62
    4
 10
913.58035841063941
 20
424.65352790878779
 11
912.6914695217489
 21
425.32019457545454
  0
ARC
  8
_1-3_細線3
  6
CONTINUOUS
 62
    4
 10
915.98035841109004
 20
427.85352791024519
 40
4.0000000014554349
 50
233.13010236151524
 51
269.99999999999977
  0
ARC
  8
_1-3_細線3
  6
CONTINUOUS
 62
    4
 10
919.62480285520644
 20
457.98686124207626
 40
1.8666666667086855
 50
269.99999999999977
 51
89.999999999999545
  0
LINE
  8
_1-3_細線3
  6
CONTINUOUS
 62
    4
 10
902.02480285507738
 20
459.85352790878738
 11
919.62480285507831
 21
459.85352790878494
  0
ARC
  8
_1-3_細線3
  6
CONTINUOUS
 62
    4
 10
902.02480285509534
 20
457.98686124207387
 40
1.8666666666213438
 50
89.999999999999915
 51
269.99999999999977
  0
LINE
  8
_1-3_細線3
  6
CONTINUOUS
 62
    4
 10
908.95813618841169
 20
408.38686124212023
 11
908.95813618841169
 21
456.12019457545256
  0
LINE
  8
_1-3_細線3
  6
CONTINUOUS
 62
    4
 10
908.95813618841169
 20
456.12019457545256
 11
902.02480285507738
 21
456.12019457545256
  0
ARC
  8
_1-3_細線3
  6
CONTINUOUS
 62
    4
 10
910.8248028550139
 20
408.38686124225904
 40
1.8666666667302103
 50
180.00000000426033
 51
359.9999999957389
  0
LINE
  8
_1-3_細線3
  6
CONTINUOUS
 62
    4
 10
912.69146952174401
 20
456.12019457545256
 11
912.69146952174401
 21
408.38686124212023
  0
LINE
  8
_1-3_細線3
  6
CONTINUOUS
 62
    4
 10
943.00258063286253
 20
443.85352790878977
 11
915.98035841063847
 21
443.85352790878977
  0
LINE
  8
_1-3_細線3
  6
CONTINUOUS
 62
    4
 10
943.00258063286253
 20
423.85352790878977
 11
915.98035841063847
 21
423.85352790878977
  0
LINE
  8
_1-3_細線3
  6
CONTINUOUS
 62
    4
 10
919.62480285507831
 20
456.12019457545256
 11
912.6914695217439
 21
456.12019457545256
  0
LINE
  8
_1-3_細線3
  6
CONTINUOUS
 62
    4
 10
956.95813618841146
 20
456.12019457545256
 11
950.02480285507716
 21
456.12019457545256
  0
LINE
  8
_1-3_細線3
  6
CONTINUOUS
 62
    4
 10
1100.2470250773058
 20
443.0535279087905
 11
1099.3581361884153
 21
442.38686124212387
  0
ARC
  8
_1-3_細線3
  6
CONTINUOUS
 62
    4
 10
1102.647025077727
 20
439.85352790732162
 40
4.0000000014693802
 50
89.999999999999915
 51
126.86989763804931
  0
LINE
  8
_1-3_細線3
  6
CONTINUOUS
 62
    4
 10
1100.2470250773058
 20
424.65352790878904
 11
1099.3581361884153
 21
425.32019457545579
  0
ARC
  8
_1-3_細線3
  6
CONTINUOUS
 62
    4
 10
1102.6470250771977
 20
427.85352790860975
 40
3.9999999998187383
 50
233.13010235385192
 51
269.99999999999977
  0
LINE
  8
_1-3_細線3
  6
CONTINUOUS
 62
    4
 10
1114.9009211802829
 20
443.85352790879102
 11
1102.647025077305
 21
443.85352790879102
  0
LINE
  8
_1-3_細線3
  6
CONTINUOUS
 62
    4
 10
1120.7535777583203
 20
423.85352790879102
 11
1102.647025077305
 21
423.85352790879102
  0
ARC
  8
_1-3_細線3
  6
CONTINUOUS
 62
    4
 10
905.66924729971754
 20
439.85352790911651
 40
3.9999999996247064
 50
53.130102353510139
 51
89.999999999999915
  0
LINE
  8
_1-3_細線3
  6
CONTINUOUS
 62
    4
 10
908.95813618841896
 20
442.38686124212262
 11
908.06924729952846
 21
443.05352790878925
  0
ARC
  8
_1-3_細線3
  6
CONTINUOUS
 62
    4
 10
905.66924729918776
 20
427.85352790975634
 40
4.0000000009791261
 50
269.99999999999977
 51
306.86989764142373
  0
LINE
  8
_1-3_細線3
  6
CONTINUOUS
 62
    4
 10
908.95813618841896
 20
425.32019457545454
 11
908.06924729952846
 21
424.65352790878779
  0
LINE
  8
_1-3_細線3
  6
CONTINUOUS
 62
    4
 10
905.66924729952927
 20
443.85352790878977
 11
885.47583677299906
 21
443.85352790878977
  0
LINE
  8
_1-3_細線3
  6
CONTINUOUS
 62
    4
 10
905.66924729952927
 20
423.85352790878977
 11
891.3284933510364
 21
423.85352790878977
  0
LINE
  8
_1-3_細線3
  6
CONTINUOUS
 62
    4
 10
1117.0171894531161
 20
459.85352790878864
 11
887.59210504583211
 21
459.85352790878864
  0
LINE
  8
_1-3_細線3
  6
CONTINUOUS
 62
    4
 10
889.38674787119146
 20
406.52019457545435
 11
1118.8118322784755
 21
406.52019457545435
  0
LINE
  8
_1-5_寸法3
  6
CONTINUOUS
 62
    7
 10
872.06910943085222
 20
459.85352790878909
 11
799.59210504583234
 21
459.85352790878903
  0
LINE
  8
_1-5_寸法3
  6
CONTINUOUS
 62
    7
 10
807.59210504583234
 20
459.85352790878903
 11
811.73320976747266
 21
444.39871468816392
  0
LINE
  8
_1-5_寸法3
  6
CONTINUOUS
 62
    7
 10
807.59210504583234
 20
459.85352790878903
 11
803.45100032419202
 21
444.39871468816392
  0
LINE
  8
_1-5_寸法3
  6
CONTINUOUS
 62
    7
 10
872.06910943085222
 20
406.52019457545606
 11
799.59210504583234
 21
406.520194575456
  0
LINE
  8
_1-5_寸法3
  6
CONTINUOUS
 62
    7
 10
807.59210504583234
 20
406.520194575456
 11
803.45100032419202
 21
421.97500779608112
  0
LINE
  8
_1-5_寸法3
  6
CONTINUOUS
 62
    7
 10
807.59210504583234
 20
406.520194575456
 11
811.73320976747266
 21
421.97500779608112
  0
LINE
  8
_1-5_寸法3
  6
CONTINUOUS
 62
    7
 10
807.59210504583234
 20
459.85352790878903
 11
807.59210504583234
 21
406.520194575456
  0
TEXT
  8
_1-5_寸法3
 62
    7
 10
807.59210504583234
 20
421.18686124212297
 40
24
 41
1
 50
90
  1
20
  0
LINE
  8
_1-2_極細3
  6
CENTER1
 62
    2
 10
476.53348945837729
 20
473.15893777249346
 11
476.53348945837729
 21
389.37390819277482
  0
LINE
  8
_0-5_寸法線
  6
CONTINUOUS
 62
    7
 10
1372.6849626743422
 20
664.52629068273188
 11
1556.6849626743422
 21
664.52629068273131
  0
LINE
  8
_0-5_寸法線
  6
CONTINUOUS
 62
    7
 10
1548.6849626743422
 20
664.52629068273131
 11
1544.543857952702
 21
679.98110390335637
  0
LINE
  8
_0-5_寸法線
  6
CONTINUOUS
 62
    7
 10
1548.6849626743422
 20
664.52629068273131
 11
1552.8260673959826
 21
679.98110390335637
  0
LINE
  8
_0-5_寸法線
  6
CONTINUOUS
 62
    7
 10
1356.4604746743423
 20
778.73365868273129
 11
1556.6849626743422
 21
778.73365868273061
  0
LINE
  8
_0-5_寸法線
  6
CONTINUOUS
 62
    7
 10
1548.6849626743422
 20
778.73365868273061
 11
1552.8260673959826
 21
763.27884546210555
  0
LINE
  8
_0-5_寸法線
  6
CONTINUOUS
 62
    7
 10
1548.6849626743422
 20
778.73365868273061
 11
1544.543857952702
 21
763.27884546210555
  0
LINE
  8
_0-5_寸法線
  6
CONTINUOUS
 62
    7
 10
1548.6849626743422
 20
664.52629068273131
 11
1548.6849626743422
 21
778.73365868273061
  0
TEXT
  8
_0-5_寸法線
 62
    7
 10
1548.6849626743424
 20
703.62997468273102
 40
24
 41
1
 50
90
  1
117
  0
ENDSEC
  0
EOF
