  0
SECTION
  2
HEADER
  9
$ACADVER
  1
AC1009
  9
$INSBASE
 10
0
 20
0
 30
0
  9
$EXTMIN
 10
0
 20
0
  9
$EXTMAX
 10
2376
 20
1680
  9
$LIMMIN
 10
0
 20
0
  9
$LIMMAX
 10
2376
 20
1680
  9
$LTSCALE
 40
8
  0
ENDSEC
  0
SECTION
  2
TABLES
  0
TABLE
  2
LTYPE
 70
     9
  0
LTYPE
  2
CONTINUOUS
 70
    64
  3
実線
 72
    65
 73
     0
 40
0.0
  0
LTYPE
  2
DASHED1
 70
    64
  3
--  --  --  --  --  --  --  --  
 72
    65
 73
     2
 40
2.5
 49
1.25
 49
-1.25
  0
LTYPE
  2
DASHED2
 70
    64
  3
----    ----    ----    ----    
 72
    65
 73
     2
 40
5.0
 49
2.5
 49
-2.5
  0
LTYPE
  2
DASHED3
 70
    64
  3
------  ------  ------  ------  
 72
    65
 73
     2
 40
5.0
 49
3.75
 49
-1.25
  0
LTYPE
  2
CENTER1
 70
    64
  3
----- - ----- - ----- - ----- - 
 72
    65
 73
     4
 40
10.0
 49
6.25
 49
-1.25
 49
1.25
 49
-1.25
  0
LTYPE
  2
CENTER2
 70
    64
  3
----------  --  ----------  --  
 72
    65
 73
     4
 40
20.0
 49
12.5
 49
-2.5
 49
2.5
 49
-2.5
  0
LTYPE
  2
PHANTOM1
 70
    64
  3
--- - - --- - - --- - - --- - - 
 72
    65
 73
     6
 40
10.0
 49
3.25
 49
-1.25
 49
1.25
 49
-1.25
 49
1.25
 49
-1.25
  0
LTYPE
  2
PHANTOM2
 70
    64
  3
--------  -  -  --------  -  -  
 72
    65
 73
     6
 40
20.0
 49
10.0
 49
-2.5
 49
1.25
 49
-2.5
 49
1.25
 49
-2.5
  0
LTYPE
  2
DOT
 70
    64
  3
-   -   -   -   -   -   -   -   
 72
    65
 73
     2
 40
2.5
 49
0.625
 49
-1.875
  0
LTYPE
  2
DUMMY
 70
    64
  3
ダミー
 72
    65
 73
     0
 40
0.0
  0
LTYPE
  2
RAND1
 70
    64
  3
ランダム線1
 72
    65
 73
     4
 40
10.0
 49
1.0
 49
-2.0
 49
3.0
 49
-4.0
  0
LTYPE
  2
RAND2
 70
    64
  3
ランダム線2
 72
    65
 73
     4
 40
14.0
 49
2.0
 49
-3.0
 49
4.0
 49
-5.0
  0
LTYPE
  2
RAND3
 70
    64
  3
ランダム線3
 72
    65
 73
     4
 40
18.0
 49
3.0
 49
-4.0
 49
5.0
 49
-6.0
  0
LTYPE
  2
RAND4
 70
    64
  3
ランダム線4
 72
    65
 73
     4
 40
22.0
 49
4.0
 49
-5.0
 49
6.0
 49
-7.0
  0
LTYPE
  2
RAND5
 70
    64
  3
ランダム線5
 72
    65
 73
     4
 40
26.0
 49
5.0
 49
-6.0
 49
7.0
 49
-8.0
  0
LTYPE
  2
LONG1
 70
    64
  3
----------  --  ----------  --  
 72
    65
 73
     4
 40
40.0
 49
32.5
 49
-2.5
 49
2.5
 49
-2.5
  0
LTYPE
  2
LONG2
 70
    64
  3
--------  -  -  --------  -  -  
 72
    65
 73
     6
 40
40.0
 49
30.0
 49
-2.5
 49
1.25
 49
-2.5
 49
1.25
 49
-2.5
  0
LTYPE
  2
LONG3
 70
    64
  3
+++++++++++++++..+++++++++++++++
 72
    65
 73
     2
 40
40.0
 49
37.5
 49
-2.5
  0
LTYPE
  2
LONG4
 70
    64
  3
+++++++++++++++..+++++++++++++++
 72
    65
 73
     2
 40
80.0
 49
75.0
 49
-5.0
  0
LTYPE
  2
LONG5
 70
    64
  3
----------  --  ----------  --  
 72
    65
 73
     4
 40
60.0
 49
37.5
 49
-7.5
 49
7.5
 49
-7.5
  0
LTYPE
  2
dashed
 70
   64
  3
-------   -------------   ------
 72
   65
 73
    2
 40
7.5
 49
6
 49
-1.5
  0
LTYPE
  2
dashed_spaced
 70
   64
  3
----        --------        ----
 72
   65
 73
    2
 40
12
 49
6
 49
-6
  0
LTYPE
  2
long_dashed_dotted
 70
   64
  3
------------- --- --------------
 72
   65
 73
    4
 40
15.25
 49
12
 49
-1.5
 49
0.25
 49
-1.5
  0
LTYPE
  2
long_dashed_double-dotted
 70
   64
  3
----------- --- --- ------------
 72
   65
 73
    6
 40
17
 49
12
 49
-1.5
 49
0.25
 49
-1.5
 49
0.25
 49
-1.5
  0
LTYPE
  2
long_dashed_triplicate-dotted
 70
   64
  3
--------- --- --- --- ----------
 72
   65
 73
    8
 40
18.75
 49
12
 49
-1.5
 49
0.25
 49
-1.5
 49
0.25
 49
-1.5
 49
0.25
 49
-1.5
  0
LTYPE
  2
dotted
 70
   64
  3
   -       -       -       -    
 72
   65
 73
    2
 40
1.75
 49
0.25
 49
-1.5
  0
LTYPE
  2
chain
 70
   64
  3
-------------- -- --------------
 72
   65
 73
    4
 40
18.5
 49
12
 49
-1.5
 49
3.5
 49
-1.5
  0
LTYPE
  2
chain_double_dash
 70
   64
  3
------------ -- -- -------------
 72
   65
 73
    6
 40
23.5
 49
12
 49
-1.5
 49
3.5
 49
-1.5
 49
3.5
 49
-1.5
  0
LTYPE
  2
dashed_dotted
 70
   64
  3
-----------     -     ----------
 72
   65
 73
    4
 40
9.25
 49
6
 49
-1.5
 49
0.25
 49
-1.5
  0
LTYPE
  2
double-dashed_dotted
 70
   64
  3
------   -----------   -   -----
 72
   65
 73
    6
 40
16.75
 49
6
 49
-1.5
 49
6
 49
-1.5
 49
0.25
 49
-1.5
  0
LTYPE
  2
dashed_double-dotted
 70
   64
  3
---------    -    -    ---------
 72
   65
 73
    6
 40
11
 49
6
 49
-1.5
 49
0.25
 49
-1.5
 49
0.25
 49
-1.5
  0
LTYPE
  2
double-dashed_double-dotted
 70
   64
  3
-----   ---------   -   -   ----
 72
   65
 73
    8
 40
18.5
 49
6
 49
-1.5
 49
6
 49
-1.5
 49
0.25
 49
-1.5
 49
0.25
 49
-1.5
  0
LTYPE
  2
dashed_triplicate-dotted
 70
   64
  3
-------    -    -    -    ------
 72
   65
 73
    8
 40
12.75
 49
6
 49
-1.5
 49
0.25
 49
-1.5
 49
0.25
 49
-1.5
 49
0.25
 49
-1.5
  0
LTYPE
  2
double-dashed_triplicate-dotted
 70
   64
  3
-----  ---------  -  -  -  -----
 72
   65
 73
   10
 40
20.25
 49
6
 49
-1.5
 49
6
 49
-1.5
 49
0.25
 49
-1.5
 49
0.25
 49
-1.5
 49
0.25
 49
-1.5
  0
LTYPE
  2
undefined
 70
   64
  3
--------------------------------
 72
   65
 73
    0
 40
0
  0
ENDTAB
  0
TABLE
  2
STYLE
  5
3
100
AcDbSymbolTable
 70
     1
  0
STYLE
  5
10
100
AcDbSymbolTableRecord
100
AcDbTextStyleTableRecord
  2
STANDARD
 70
     0
 40
0.0
 41
1.0
 50
0.0
 71
     0
 42
0.2
  3
txt
  4
bigfont.shx
  0
STYLE
  5
26
100
AcDbSymbolTableRecord
100
AcDbTextStyleTableRecord
  2
TATEGAKI
 70
    68
 40
0.0
 41
1.0
 50
0.0
 71
     0
 42
1.0
  3
txt
  4
bigfont.shx
  0
ENDTAB
  0
TABLE
  2
LAYER
 70
   12
  0
LAYER
  2
_0-0_計極細
 70
   64
 62
    7
  6
CONTINUOUS
  0
LAYER
  2
_0-1_計細線
 70
   64
 62
    7
  6
CONTINUOUS
  0
LAYER
  2
_0-5_寸法線
 70
   64
 62
    7
  6
CONTINUOUS
  0
LAYER
  2
_0-7_枠細線
 70
   64
 62
    7
  6
CONTINUOUS
  0
LAYER
  2
_0-8_枠中線
 70
   64
 62
    7
  6
CONTINUOUS
  0
LAYER
  2
_0-a_極細1
 70
   64
 62
    7
  6
CONTINUOUS
  0
LAYER
  2
_0-b_細線1
 70
   64
 62
    7
  6
CONTINUOUS
  0
LAYER
  2
_0-d_寸法1
 70
   64
 62
    7
  6
CONTINUOUS
  0
LAYER
  2
_1-2_極細3
 70
   64
 62
    7
  6
CONTINUOUS
  0
LAYER
  2
_1-3_細線3
 70
   64
 62
    7
  6
CONTINUOUS
  0
LAYER
  2
_1-5_寸法3
 70
   64
 62
    7
  6
CONTINUOUS
  0
LAYER
  2
ADD_LINE
 70
   64
 62
    7
  6
CONTINUOUS
  0
ENDTAB
  0
ENDSEC
  0
SECTION
  2
BLOCKS
  0
ENDSEC
  0
SECTION
  2
ENTITIES
  0
LINE
  8
_0-8_枠中線
  6
CONTINUOUS
 62
    5
 10
96
 20
96
 11
96
 21
1536
  0
LINE
  8
_0-8_枠中線
  6
CONTINUOUS
 62
    5
 10
96
 20
1536
 11
2280
 21
1536
  0
LINE
  8
_0-8_枠中線
  6
CONTINUOUS
 62
    5
 10
2280
 20
1536
 11
2280
 21
96
  0
LINE
  8
_0-8_枠中線
  6
CONTINUOUS
 62
    5
 10
2280
 20
96
 11
96
 21
96
  0
LINE
  8
_0-7_枠細線
  6
CONTINUOUS
 62
    5
 10
1896
 20
288
 11
1896
 21
160
  0
TEXT
  8
_0-7_枠細線
 62
    5
 10
1500
 20
156
 40
28
 41
1
 50
0
  1
備考
  7
TATEGAKI
  0
TEXT
  8
_0-7_枠細線
 62
    5
 10
1500
 20
220
 40
28
 41
1
 50
0
  1
品番
  7
TATEGAKI
  0
TEXT
  8
_0-7_枠細線
 62
    5
 10
1500
 20
284
 40
28
 41
1
 50
0
  1
品名
  7
TATEGAKI
  0
LINE
  8
_0-7_枠細線
  6
CONTINUOUS
 62
    5
 10
1896
 20
224
 11
1480
 21
224
  0
LINE
  8
_0-7_枠細線
  6
CONTINUOUS
 62
    5
 10
1520
 20
288
 11
1520
 21
96
  0
LINE
  8
_0-8_枠中線
  6
CONTINUOUS
 62
    5
 10
2280
 20
288
 11
1480
 21
288
  0
LINE
  8
_0-8_枠中線
  6
CONTINUOUS
 62
    5
 10
1480
 20
288
 11
1480
 21
96
  0
LINE
  8
_0-7_枠細線
  6
CONTINUOUS
 62
    5
 10
1992
 20
288
 11
1992
 21
96
  0
TEXT
  8
_0-7_枠細線
 62
    5
 10
1908
 20
256
 40
24
 41
1
 50
0
  1
縮　尺
  0
LINE
  8
_0-7_枠細線
  6
CONTINUOUS
 62
    5
 10
1896
 20
248
 11
1992
 21
248
  0
LINE
  8
_0-7_枠細線
  6
CONTINUOUS
 62
    5
 10
1992
 20
160
 11
1480
 21
160
  0
LINE
  8
_0-7_枠細線
  6
CONTINUOUS
 62
    5
 10
2280
 20
144
 11
1992
 21
144
  0
LINE
  8
_0-7_枠細線
  6
CONTINUOUS
 62
    5
 10
1992
 20
192
 11
2280
 21
192
  0
LINE
  8
_0-7_枠細線
  6
CONTINUOUS
 62
    5
 10
2280
 20
224
 11
1992
 21
224
  0
TEXT
  8
_0-7_枠細線
 62
    5
 10
2008
 20
236
 40
40
 41
0.8
 50
0
  1
株式会社シマブン
  0
TEXT
  8
_0-7_枠細線
 62
    5
 10
2004
 20
96
 40
24
 41
1
 50
0
  1
年月日
  0
TEXT
  8
_0-7_枠細線
 62
    5
 10
2004
 20
120
 40
24
 41
1
 50
0
  1
作　成
  0
TEXT
  8
_0-7_枠細線
 62
    5
 10
2010
 20
196
 40
24
 41
1
 50
0
  1
承 認
  0
LINE
  8
_0-7_枠細線
  6
CONTINUOUS
 62
    5
 10
2088
 20
224
 11
2088
 21
96
  0
TEXT
  8
_0-7_枠細線
 62
    5
 10
2106
 20
196
 40
24
 41
1
 50
0
  1
検 図
  0
LINE
  8
_0-7_枠細線
  6
CONTINUOUS
 62
    5
 10
2184
 20
224
 11
2184
 21
144
  0
TEXT
  8
_0-7_枠細線
 62
    5
 10
2202
 20
196
 40
24
 41
1
 50
0
  1
設 計
  0
LINE
  8
_0-7_枠細線
  6
CONTINUOUS
 62
    5
 10
2280
 20
1508
 11
1424
 21
1508
  0
TEXT
  8
_0-7_枠細線
 62
    5
 10
1432
 20
1511.9999999999995
 40
20
 41
1
 50
0
  1
記号
  0
TEXT
  8
_0-7_枠細線
 62
    5
 10
1595
 20
1512
 40
20
 41
1
 50
0
  1
訂　 正　 記　 事
  0
TEXT
  8
_0-7_枠細線
 62
    5
 10
1890
 20
1512
 40
20
 41
1
 50
0
  1
訂 正 年 月 日
  0
TEXT
  8
_0-7_枠細線
 62
    5
 10
2090
 20
1512
 40
20
 41
1
 50
0
  1
備　　　　　考
  0
TEXT
  8
_0-7_枠細線
 62
    5
 10
1536.8000000000002
 20
112
 40
32.000000000000007
 41
0.5999999999999997
 50
0
  1
品番については表参照のこと
  0
TEXT
  8
_0-7_枠細線
 62
    5
 10
1910.4000000000001
 20
188
 40
32
 41
0.6999999999999999
 50
0
  1
１：８
  0
LINE
  8
_0-7_枠細線
  6
CONTINUOUS
 62
    5
 10
2040
 20
1508
 11
2040
 21
1535.9999999999991
  0
LINE
  8
_0-7_枠細線
  6
CONTINUOUS
 62
    5
 10
1880
 20
1508
 11
1880
 21
1535.9999999999991
  0
LINE
  8
_0-7_枠細線
  6
CONTINUOUS
 62
    5
 10
1480
 20
1508
 11
1480
 21
1535.9999999999991
  0
LINE
  8
_0-7_枠細線
  6
CONTINUOUS
 62
    5
 10
1424
 20
1508
 11
1424
 21
1535.9999999999991
  0
TEXT
  8
_0-7_枠細線
 62
    5
 10
1720.999756471007
 20
1378.8208963018415
 40
28
 41
1
 50
0
  1
品番寸法表
  0
LINE
  8
_0-7_枠細線
  6
CONTINUOUS
 62
    5
 10
1709.8635219031125
 20
1370.8208963018415
 11
1709.8635219031125
 21
1170.8208963018415
  0
LINE
  8
_0-7_枠細線
  6
CONTINUOUS
 62
    5
 10
1709.8635219031125
 20
1052.8568755439601
 11
1709.8635219031125
 21
852.85687554396054
  0
TEXT
  8
_0-7_枠細線
 62
    5
 10
1717.794650581835
 20
1060.8568755439601
 40
28
 41
1
 50
0
  1
アンカー位置寸法表
  0
LINE
  8
_0-7_枠細線
  6
CONTINUOUS
 62
    5
 10
2165.8635219031089
 20
1370.8208963018415
 11
2165.8635219031089
 21
1170.8208963018415
  0
LINE
  8
_0-7_枠細線
  6
CONTINUOUS
 62
    5
 10
2245.863521903108
 20
1370.8208963018415
 11
2245.863521903108
 21
1170.8208963018415
  0
TEXT
  8
_0-7_枠細線
 62
    5
 10
2196.2635219031085
 20
1338.820896301841
 40
24
 41
0.7999999999999998
 50
0
  1
Ｃ
  0
TEXT
  8
_0-7_枠細線
 62
    5
 10
2193.8635219031089
 20
1298.8208963018419
 40
24
 41
1
 50
0
  1
914
  0
TEXT
  8
_0-7_枠細線
 62
    5
 10
2181.8635219031089
 20
1258.8208963018415
 40
24
 41
1
 50
0
  1
1114
  0
TEXT
  8
_0-7_枠細線
 62
    5
 10
2181.8635219031089
 20
1218.8208963018415
 40
24
 41
1
 50
0
  1
1414
  0
TEXT
  8
_0-7_枠細線
 62
    5
 10
2181.8635219031089
 20
1178.8208963018415
 40
24
 41
1
 50
0
  1
1714
  0
TEXT
  8
_0-7_枠細線
 62
    5
 10
2108.2635219031104
 20
1338.820896301841
 40
24
 41
0.7999999999999998
 50
0
  1
Ｂ
  0
TEXT
  8
_0-7_枠細線
 62
    5
 10
1940.2635219031122
 20
1338.820896301841
 40
24
 41
0.7999999999999998
 50
0
  1
Ｌ
  0
LINE
  8
_0-7_枠細線
  6
CONTINUOUS
 62
    5
 10
1709.8635219031125
 20
1370.8208963018415
 11
2245.8635219031098
 21
1370.8208963018415
  0
LINE
  8
_0-7_枠細線
  6
CONTINUOUS
 62
    5
 10
1709.8635219031125
 20
1330.820896301841
 11
2245.8635219031098
 21
1330.820896301841
  0
LINE
  8
_0-7_枠細線
  6
CONTINUOUS
 62
    5
 10
1709.8635219031125
 20
1290.8208963018415
 11
2245.8635219031098
 21
1290.8208963018415
  0
LINE
  8
_0-7_枠細線
  6
CONTINUOUS
 62
    5
 10
1709.8635219031125
 20
1250.8208963018415
 11
2245.8635219031098
 21
1250.8208963018415
  0
LINE
  8
_0-7_枠細線
  6
CONTINUOUS
 62
    5
 10
1709.8635219031125
 20
1210.8208963018415
 11
2245.8635219031098
 21
1210.8208963018415
  0
LINE
  8
_0-7_枠細線
  6
CONTINUOUS
 62
    5
 10
1709.8635219031125
 20
1170.8208963018415
 11
2245.8635219031098
 21
1170.8208963018415
  0
LINE
  8
_0-7_枠細線
  6
CONTINUOUS
 62
    5
 10
1909.8635219031125
 20
1370.8208963018415
 11
1909.8635219031125
 21
1170.8208963018415
  0
LINE
  8
_0-7_枠細線
  6
CONTINUOUS
 62
    5
 10
1989.8635219031116
 20
1370.8208963018415
 11
1989.8635219031116
 21
1170.8208963018415
  0
LINE
  8
_0-7_枠細線
  6
CONTINUOUS
 62
    5
 10
2069.8635219031107
 20
1370.8208963018415
 11
2069.8635219031107
 21
1170.8208963018415
  0
TEXT
  8
_0-7_枠細線
 62
    5
 10
2020.2635219031113
 20
1338.820896301841
 40
24
 41
0.7999999999999998
 50
0
  1
Ａ
  0
TEXT
  8
_0-7_枠細線
 62
    5
 10
1925.8635219031125
 20
1258.8208963018415
 40
24
 41
1
 50
0
  1
1194
  0
TEXT
  8
_0-7_枠細線
 62
    5
 10
1937.8635219031125
 20
1298.8208963018419
 40
24
 41
1
 50
0
  1
994
  0
TEXT
  8
_0-7_枠細線
 62
    5
 10
1925.8635219031125
 20
1218.8208963018415
 40
24
 41
1
 50
0
  1
1494
  0
TEXT
  8
_0-7_枠細線
 62
    5
 10
2017.8635219031107
 20
1298.8208963018419
 40
24
 41
1
 50
0
  1
970
  0
TEXT
  8
_0-7_枠細線
 62
    5
 10
2005.8635219031107
 20
1258.8208963018415
 40
24
 41
1
 50
0
  1
1170
  0
TEXT
  8
_0-7_枠細線
 62
    5
 10
2005.8635219031107
 20
1218.8208963018415
 40
24
 41
1
 50
0
  1
1470
  0
TEXT
  8
_0-7_枠細線
 62
    5
 10
1925.8635219031125
 20
1178.8208963018415
 40
24
 41
1
 50
0
  1
1794
  0
TEXT
  8
_0-7_枠細線
 62
    5
 10
2005.8635219031107
 20
1178.8208963018415
 40
24
 41
1
 50
0
  1
1770
  0
TEXT
  8
_0-7_枠細線
 62
    5
 10
2081.8635219031098
 20
1298.8208963018415
 40
24
 41
1
 50
0
  1
483×2
  0
TEXT
  8
_0-7_枠細線
 62
    5
 10
2081.8635219031098
 20
1258.8208963018415
 40
24
 41
1
 50
0
  1
583×2
  0
TEXT
  8
_0-7_枠細線
 62
    5
 10
2081.8635219031098
 20
1218.8208963018415
 40
24
 41
1
 50
0
  1
488×3
  0
TEXT
  8
_0-7_枠細線
 62
    5
 10
2081.8635219031098
 20
1178.8208963018415
 40
24
 41
1
 50
0
  1
588×3
  0
LINE
  8
_0-7_枠細線
  6
CONTINUOUS
 62
    5
 10
1909.8635219031125
 20
1052.8568755439601
 11
1909.8635219031125
 21
852.85687554396054
  0
LINE
  8
_0-7_枠細線
  6
CONTINUOUS
 62
    5
 10
1989.8635219031116
 20
1052.8568755439601
 11
1989.8635219031116
 21
852.85687554396054
  0
LINE
  8
_0-7_枠細線
  6
CONTINUOUS
 62
    5
 10
2069.8635219031107
 20
1052.8568755439601
 11
2069.8635219031107
 21
852.85687554396054
  0
TEXT
  8
_0-7_枠細線
 62
    5
 10
1937.8635219031125
 20
980.856875543961
 40
24
 41
1
 50
0
  1
924
  0
TEXT
  8
_0-7_枠細線
 62
    5
 10
1925.8635219031125
 20
940.85687554396054
 40
24
 41
1
 50
0
  1
1124
  0
TEXT
  8
_0-7_枠細線
 62
    5
 10
1925.8635219031125
 20
900.85687554396054
 40
24
 41
1
 50
0
  1
1424
  0
TEXT
  8
_0-7_枠細線
 62
    5
 10
1925.8635219031125
 20
860.85687554396054
 40
24
 41
1
 50
0
  1
1724
  0
LINE
  8
_0-7_枠細線
  6
CONTINUOUS
 62
    5
 10
2149.8635219031089
 20
1052.8568755439601
 11
2149.8635219031089
 21
852.85687554396054
  0
LINE
  8
_0-7_枠細線
  6
CONTINUOUS
 62
    5
 10
1709.8635219031125
 20
1052.8568755439601
 11
2149.8635219031089
 21
1052.8568755439601
  0
LINE
  8
_0-7_枠細線
  6
CONTINUOUS
 62
    5
 10
1709.8635219031125
 20
1012.8568755439601
 11
2149.8635219031089
 21
1012.8568755439601
  0
LINE
  8
_0-7_枠細線
  6
CONTINUOUS
 62
    5
 10
1709.8635219031125
 20
972.85687554396054
 11
2149.8635219031089
 21
972.85687554396054
  0
LINE
  8
_0-7_枠細線
  6
CONTINUOUS
 62
    5
 10
1709.8635219031125
 20
932.85687554396054
 11
2149.8635219031089
 21
932.85687554396054
  0
LINE
  8
_0-7_枠細線
  6
CONTINUOUS
 62
    5
 10
1709.8635219031125
 20
892.85687554396054
 11
2149.8635219031089
 21
892.85687554396054
  0
LINE
  8
_0-7_枠細線
  6
CONTINUOUS
 62
    5
 10
1709.8635219031125
 20
852.85687554396054
 11
2149.8635219031089
 21
852.85687554396054
  0
TEXT
  8
_0-7_枠細線
 62
    5
 10
2000.8667130838435
 20
900.85687554396054
 40
24
 41
1
 50
0
  1
474.7
  0
TEXT
  8
_0-7_枠細線
 62
    5
 10
2000.6060032878763
 20
980.85687554396054
 40
24
 41
1
 50
0
  1
462
  0
TEXT
  8
_0-7_枠細線
 62
    5
 10
2000.6060032878763
 20
940.85687554396054
 40
24
 41
1
 50
0
  1
562
  0
TEXT
  8
_0-7_枠細線
 62
    5
 10
2000.6060032878763
 20
860.85687554396054
 40
24
 41
1
 50
0
  1
431
  0
TEXT
  8
_0-7_枠細線
 62
    5
 10
2104.0718189730137
 20
980.856875543961
 40
24
 41
1
 50
0
  1
2
  0
TEXT
  8
_0-7_枠細線
 62
    5
 10
2104.0718189730137
 20
940.85687554396054
 40
24
 41
1
 50
0
  1
2
  0
TEXT
  8
_0-7_枠細線
 62
    5
 10
2104.0718189730137
 20
900.85687554396054
 40
24
 41
1
 50
0
  1
3
  0
TEXT
  8
_0-7_枠細線
 62
    5
 10
2104.0718189730137
 20
860.85687554396054
 40
24
 41
1
 50
0
  1
4
  0
TEXT
  8
_0-7_枠細線
 62
    5
 10
1940.2635219031131
 20
1020.8568755439601
 40
24
 41
0.7999999999999998
 50
0
  1
Ｄ
  0
TEXT
  8
_0-7_枠細線
 62
    5
 10
2021.3318905328347
 20
1020.8568755439601
 40
24
 41
0.7999999999999998
 50
0
  1
Ｅ
  0
TEXT
  8
_0-7_枠細線
 62
    5
 10
2101.100578280631
 20
1020.8568755439601
 40
24
 41
0.7999999999999998
 50
0
  1
Ｎ
  0
TEXT
  8
_0-7_枠細線
 62
    5
 10
2008
 20
152
 40
32
 41
1
 50
0
  1
大野
  0
TEXT
  8
_0-7_枠細線
 62
    5
 10
2200
 20
152
 40
32
 41
1
 50
0
  1
久野
  0
TEXT
  8
_0-7_枠細線
 62
    5
 10
2104
 20
152
 40
32
 41
1
 50
0
  1
中村
  0
TEXT
  8
_0-7_枠細線
 62
    5
 10
2096
 20
108
 40
24
 41
0.6666666666666666
 50
0
  1
２０２０年０４月０１日
  0
TEXT
  8
_0-7_枠細線
 62
    5
 10
1892.7524752035631
 20
417.84131827931037
 40
40
 41
0.8
 50
0
  1
表面形状
  0
LINE
  8
_0-1_計細線
  6
CONTINUOUS
 62
    3
 10
1481.4722878889515
 20
1262.7336586827307
 11
1481.4722878889515
 21
1118.7336586827312
  0
LINE
  8
_0-1_計細線
  6
CONTINUOUS
 62
    3
 10
1481.4722878889515
 20
1118.7336586827312
 11
1489.4722878889515
 21
1118.7336586827312
  0
LINE
  8
_0-1_計細線
  6
CONTINUOUS
 62
    3
 10
1489.4722878889515
 20
1118.7336586827312
 11
1489.4722878889515
 21
1262.7336586827307
  0
LINE
  8
_0-1_計細線
  6
CONTINUOUS
 62
    3
 10
1489.4722878889515
 20
1262.7336586827307
 11
1481.4722878889515
 21
1262.7336586827307
  0
LINE
  8
_0-1_計細線
  6
CONTINUOUS
 62
    3
 10
1569.4722878889518
 20
1129.7336586827312
 11
1604.4722878889518
 21
1129.7336586827312
  0
LINE
  8
_0-1_計細線
  6
CONTINUOUS
 62
    3
 10
1604.4722878889518
 20
1129.7336586827312
 11
1604.4722878889518
 21
1128.5336586827314
  0
LINE
  8
_0-1_計細線
  6
CONTINUOUS
 62
    3
 10
1604.4722878889518
 20
1128.5336586827314
 11
1569.4722878889518
 21
1128.5336586827314
  0
LINE
  8
_0-1_計細線
  6
CONTINUOUS
 62
    3
 10
1569.4722878889518
 20
1128.5336586827314
 11
1569.4722878889518
 21
1129.7336586827312
  0
LINE
  8
_0-1_計細線
  6
CONTINUOUS
 62
    3
 10
1571.4722878889518
 20
1128.5336586827314
 11
1571.4722878889518
 21
1129.7336586827312
  0
LINE
  8
_0-1_計細線
  6
CONTINUOUS
 62
    3
 10
1581.4722878889518
 20
1128.5336586827314
 11
1581.4722878889518
 21
1129.7336586827312
  0
LINE
  8
_0-1_計細線
  6
CONTINUOUS
 62
    3
 10
1583.4722878889518
 20
1128.5336586827314
 11
1583.4722878889518
 21
1129.7336586827312
  0
LINE
  8
_0-1_計細線
  6
CONTINUOUS
 62
    3
 10
1585.4722878889518
 20
1128.5336586827314
 11
1585.4722878889518
 21
1129.7336586827312
  0
LINE
  8
_0-1_計細線
  6
CONTINUOUS
 62
    3
 10
1587.4722878889518
 20
1128.5336586827314
 11
1587.4722878889518
 21
1129.7336586827312
  0
LINE
  8
_0-1_計細線
  6
CONTINUOUS
 62
    3
 10
1601.4722878889518
 20
1128.5336586827314
 11
1601.4722878889518
 21
1129.7336586827312
  0
LINE
  8
_0-1_計細線
  6
CONTINUOUS
 62
    3
 10
1569.4722878889518
 20
1252.933658682731
 11
1604.4722878889518
 21
1252.933658682731
  0
LINE
  8
_0-1_計細線
  6
CONTINUOUS
 62
    3
 10
1604.4722878889518
 20
1252.933658682731
 11
1604.4722878889518
 21
1251.7336586827312
  0
LINE
  8
_0-1_計細線
  6
CONTINUOUS
 62
    3
 10
1604.4722878889518
 20
1251.7336586827312
 11
1569.4722878889518
 21
1251.7336586827312
  0
LINE
  8
_0-1_計細線
  6
CONTINUOUS
 62
    3
 10
1569.4722878889518
 20
1251.7336586827312
 11
1569.4722878889518
 21
1252.933658682731
  0
LINE
  8
_0-1_計細線
  6
CONTINUOUS
 62
    3
 10
1571.4722878889518
 20
1251.7336586827312
 11
1571.4722878889518
 21
1252.933658682731
  0
LINE
  8
_0-1_計細線
  6
CONTINUOUS
 62
    3
 10
1581.4722878889518
 20
1251.7336586827312
 11
1581.4722878889518
 21
1252.933658682731
  0
LINE
  8
_0-1_計細線
  6
CONTINUOUS
 62
    3
 10
1583.4722878889518
 20
1251.7336586827312
 11
1583.4722878889518
 21
1252.933658682731
  0
LINE
  8
_0-1_計細線
  6
CONTINUOUS
 62
    3
 10
1585.4722878889518
 20
1251.7336586827312
 11
1585.4722878889518
 21
1252.933658682731
  0
LINE
  8
_0-1_計細線
  6
CONTINUOUS
 62
    3
 10
1587.4722878889518
 20
1251.7336586827312
 11
1587.4722878889518
 21
1252.933658682731
  0
LINE
  8
_0-1_計細線
  6
CONTINUOUS
 62
    3
 10
1601.4722878889518
 20
1251.7336586827312
 11
1601.4722878889518
 21
1252.933658682731
  0
LINE
  8
_0-1_計細線
  6
CONTINUOUS
 62
    3
 10
1581.4722878889518
 20
1251.7336586827312
 11
1581.4722878889518
 21
1129.7336586827312
  0
LINE
  8
_0-1_計細線
  6
CONTINUOUS
 62
    3
 10
1489.4722878889518
 20
1251.7336586827312
 11
1581.4722878889518
 21
1251.7336586827312
  0
LINE
  8
_0-1_計細線
  6
CONTINUOUS
 62
    3
 10
1581.4722878889518
 20
1129.7336586827312
 11
1489.4722878889513
 21
1129.7336586827312
  0
LINE
  8
_0-1_計細線
  6
CONTINUOUS
 62
    3
 10
1585.4722878889518
 20
1241.7336586827312
 11
1585.4722878889518
 21
1190.7336586827312
  0
ARC
  8
_0-1_計細線
  6
CONTINUOUS
 62
    3
 10
1581.9722878889518
 20
1249.7336586827312
 40
0.5
 50
179.99999999999983
 51
269.99999999999977
  0
LINE
  8
_0-1_計細線
  6
CONTINUOUS
 62
    3
 10
1585.4722878889518
 20
1247.7336586827312
 11
1585.4722878889518
 21
1241.7336586827312
  0
LINE
  8
_0-1_計細線
  6
CONTINUOUS
 62
    3
 10
1581.9722878889518
 20
1249.2336586827312
 11
1583.9722878889518
 21
1249.2336586827312
  0
ARC
  8
_0-1_計細線
  6
CONTINUOUS
 62
    3
 10
1583.9722878889518
 20
1247.7336586827312
 40
1.5
 50
0
 51
89.999999999999915
  0
LINE
  8
_0-1_計細線
  6
CONTINUOUS
 62
    3
 10
1585.4722878889518
 20
1139.7336586827312
 11
1585.4722878889518
 21
1190.7336586827312
  0
ARC
  8
_0-1_計細線
  6
CONTINUOUS
 62
    3
 10
1581.9722878889518
 20
1131.7336586827312
 40
0.5
 50
89.999999999999915
 51
179.99999999999983
  0
LINE
  8
_0-1_計細線
  6
CONTINUOUS
 62
    3
 10
1585.4722878889518
 20
1133.7336586827312
 11
1585.4722878889518
 21
1139.7336586827312
  0
LINE
  8
_0-1_計細線
  6
CONTINUOUS
 62
    3
 10
1581.9722878889518
 20
1132.2336586827312
 11
1583.9722878889518
 21
1132.2336586827312
  0
ARC
  8
_0-1_計細線
  6
CONTINUOUS
 62
    3
 10
1583.9722878889518
 20
1133.7336586827312
 40
1.5
 50
269.99999999999977
 51
359.99999999999966
  0
TEXT
  8
_0-7_枠細線
 62
    5
 10
1536.7999999999993
 20
239.24855752183862
 40
32
 41
0.4749999999999999
 50
0
  1
排水ユニット ＳＵＳグレーチング 深型＋防水マス
  0
TEXT
  8
_0-7_枠細線
 62
    5
 10
1725.8635219031125
 20
1298.8208963018415
 40
24
 41
1
 50
0
  1
HSFZ-15L1000-J
  0
TEXT
  8
_0-7_枠細線
 62
    5
 10
1725.8635219031125
 20
1258.820896301841
 40
24
 41
1
 50
0
  1
HSFZ-15L1200-J
  0
TEXT
  8
_0-7_枠細線
 62
    5
 10
1725.8635219031125
 20
1218.820896301841
 40
24
 41
1
 50
0
  1
HSFZ-15L1500-J
  0
TEXT
  8
_0-7_枠細線
 62
    5
 10
1725.8635219031125
 20
1178.820896301841
 40
24
 41
1
 50
0
  1
HSFZ-15L1800-J
  0
TEXT
  8
_0-7_枠細線
 62
    5
 10
1725.8635219031125
 20
980.85687554396054
 40
24
 41
1
 50
0
  1
HSFZ-15L1000-J
  0
TEXT
  8
_0-7_枠細線
 62
    5
 10
1725.8635219031125
 20
940.85687554396009
 40
24
 41
1
 50
0
  1
HSFZ-15L1200-J
  0
TEXT
  8
_0-7_枠細線
 62
    5
 10
1725.8635219031125
 20
900.85687554396009
 40
24
 41
1
 50
0
  1
HSFZ-15L1500-J
  0
TEXT
  8
_0-7_枠細線
 62
    5
 10
1725.8635219031125
 20
860.85687554396009
 40
24
 41
1
 50
0
  1
HSFZ-15L1800-J
  0
TEXT
  8
_0-7_枠細線
 62
    5
 10
1536.8000000000002
 20
176
 40
32.000000000000014
 41
0.5499999999999998
 50
0
  1
ＨＳＦＺ－１５Ｌ１０００～１８００－Ｊ
  0
LINE
  8
_0-5_寸法線
  6
CONTINUOUS
 62
    7
 10
1481.4722878889534
 20
1278.7336586827307
 11
1481.4722878889534
 21
1350.7336586827298
  0
LINE
  8
_0-5_寸法線
  6
CONTINUOUS
 62
    7
 10
1481.4722878889534
 20
1342.7336586827298
 11
1496.9271011095784
 21
1346.8747634043702
  0
LINE
  8
_0-5_寸法線
  6
CONTINUOUS
 62
    7
 10
1481.4722878889534
 20
1342.7336586827298
 11
1496.9271011095784
 21
1338.5925539610894
  0
LINE
  8
_0-5_寸法線
  6
CONTINUOUS
 62
    7
 10
1581.4722878889534
 20
1268.9336586827305
 11
1581.4722878889534
 21
1350.7336586827298
  0
LINE
  8
_0-5_寸法線
  6
CONTINUOUS
 62
    7
 10
1581.4722878889534
 20
1342.7336586827298
 11
1566.0174746683283
 21
1338.5925539610896
  0
LINE
  8
_0-5_寸法線
  6
CONTINUOUS
 62
    7
 10
1581.4722878889534
 20
1342.7336586827298
 11
1566.0174746683283
 21
1346.8747634043702
  0
LINE
  8
_0-5_寸法線
  6
CONTINUOUS
 62
    7
 10
1481.4722878889534
 20
1342.7336586827298
 11
1581.4722878889534
 21
1342.7336586827298
  0
TEXT
  8
_0-5_寸法線
 62
    7
 10
1513.4722878889534
 20
1342.7336586827294
 40
24
 41
1
 50
0
  1
100
  0
LINE
  8
_0-5_寸法線
  6
CONTINUOUS
 62
    7
 10
1604.4722878889534
 20
1268.9336586827305
 11
1604.4722878889534
 21
1350.7336586827298
  0
LINE
  8
_0-5_寸法線
  6
CONTINUOUS
 62
    7
 10
1604.4722878889534
 20
1342.7336586827298
 11
1619.9271011095784
 21
1346.87476340437
  0
LINE
  8
_0-5_寸法線
  6
CONTINUOUS
 62
    7
 10
1604.4722878889534
 20
1342.7336586827298
 11
1619.9271011095784
 21
1338.5925539610894
  0
LINE
  8
_0-5_寸法線
  6
CONTINUOUS
 62
    7
 10
1581.4722878889534
 20
1342.7336586827298
 11
1644.4722878889534
 21
1342.7336586827298
  0
TEXT
  8
_0-5_寸法線
 62
    7
 10
1622.838593186194
 20
1342.7336586827294
 40
24
 41
1
 50
0
  1
23
  0
LINE
  8
_0-5_寸法線
  6
CONTINUOUS
 62
    7
 10
1481.4722878889515
 20
1278.7336586827307
 11
1481.4722878889525
 21
1406.7336586827316
  0
LINE
  8
_0-5_寸法線
  6
CONTINUOUS
 62
    7
 10
1481.4722878889525
 20
1398.7336586827316
 11
1496.9271011095775
 21
1402.8747634043721
  0
LINE
  8
_0-5_寸法線
  6
CONTINUOUS
 62
    7
 10
1481.4722878889525
 20
1398.7336586827316
 11
1496.9271011095775
 21
1394.5925539610912
  0
LINE
  8
_0-5_寸法線
  6
CONTINUOUS
 62
    7
 10
1604.4722878889534
 20
1268.9336586827305
 11
1604.4722878889543
 21
1406.7336586827316
  0
LINE
  8
_0-5_寸法線
  6
CONTINUOUS
 62
    7
 10
1604.4722878889543
 20
1398.7336586827316
 11
1589.0174746683292
 21
1394.5925539610914
  0
LINE
  8
_0-5_寸法線
  6
CONTINUOUS
 62
    7
 10
1604.4722878889543
 20
1398.7336586827316
 11
1589.0174746683292
 21
1402.8747634043721
  0
LINE
  8
_0-5_寸法線
  6
CONTINUOUS
 62
    7
 10
1481.4722878889525
 20
1398.7336586827316
 11
1604.4722878889543
 21
1398.7336586827316
  0
TEXT
  8
_0-5_寸法線
 62
    7
 10
1524.9722878889534
 20
1398.7336586827312
 40
24
 41
1
 50
0
  1
123
  0
LINE
  8
_0-0_計極細
  6
CENTER1
 62
    2
 10
1472.1395355800535
 20
1190.7336586827312
 11
1609.0249852047793
 21
1190.7336586827312
  0
TEXT
  8
_0-7_枠細線
 62
    5
 10
1771.463521903114
 20
1338.820896301841
 40
24
 41
0.7999999999999998
 50
0
  1
品　　番
  0
TEXT
  8
_0-7_枠細線
 62
    5
 10
1771.463521903114
 20
1020.8568755439596
 40
24
 41
0.7999999999999998
 50
0
  1
品　　番
  0
LINE
  8
_0-1_計細線
  6
CONTINUOUS
 62
    3
 10
357.46047467434255
 20
1118.7336586827312
 11
357.46047467434255
 21
1262.7336586827312
  0
LINE
  8
_0-1_計細線
  6
CONTINUOUS
 62
    3
 10
357.46047467434255
 20
1262.7336586827312
 11
1351.4604746743425
 21
1262.7336586827312
  0
LINE
  8
_0-1_計細線
  6
CONTINUOUS
 62
    3
 10
1351.4604746743425
 20
1262.7336586827312
 11
1351.4604746743425
 21
1118.7336586827312
  0
LINE
  8
_0-1_計細線
  6
CONTINUOUS
 62
    3
 10
1351.4604746743425
 20
1118.7336586827312
 11
357.46047467434255
 21
1118.7336586827312
  0
LINE
  8
_0-1_計細線
  6
CONTINUOUS
 62
    3
 10
1339.4604746743425
 20
1250.7336586827312
 11
369.46047467434255
 21
1250.7336586827312
  0
LINE
  8
_0-1_計細線
  6
CONTINUOUS
 62
    3
 10
369.46047467434255
 20
1250.7336586827312
 11
369.46047467434255
 21
1130.7336586827312
  0
LINE
  8
_0-1_計細線
  6
CONTINUOUS
 62
    3
 10
369.46047467434255
 20
1130.7336586827312
 11
1339.4604746743425
 21
1130.7336586827312
  0
LINE
  8
_0-1_計細線
  6
CONTINUOUS
 62
    3
 10
1339.4604746743425
 20
1130.7336586827312
 11
1339.4604746743425
 21
1250.7336586827312
  0
LINE
  8
_0-0_計極細
  6
CENTER1
 62
    2
 10
345.16047467434328
 20
1190.7336586827312
 11
1373.4104746743433
 21
1190.7336586827312
  0
LINE
  8
_0-1_計細線
  6
CONTINUOUS
 62
    3
 10
1299.4604746743425
 20
1130.7336586827312
 11
1299.4604746743425
 21
1132.7336586827312
  0
LINE
  8
_0-1_計細線
  6
CONTINUOUS
 62
    3
 10
1243.4604746743425
 20
1130.7336586827312
 11
1243.4604746743425
 21
1132.7336586827312
  0
LINE
  8
_0-1_計細線
  6
CONTINUOUS
 62
    3
 10
1299.4604746743425
 20
1250.7336586827312
 11
1299.4604746743425
 21
1248.7336586827312
  0
LINE
  8
_0-1_計細線
  6
CONTINUOUS
 62
    3
 10
1243.4604746743425
 20
1250.7336586827312
 11
1243.4604746743425
 21
1248.7336586827312
  0
ARC
  8
_0-1_計細線
  6
CONTINUOUS
 62
    3
 10
1310.0762334095407
 20
1204.9334635707366
 40
0.501740082747087
 50
330.00000000009186
 51
20.189990999954205
  0
ARC
  8
_0-1_計細線
  6
CONTINUOUS
 62
    3
 10
1310.0762334095407
 20
1176.5338537947275
 40
0.501740082747087
 50
339.81000900004506
 51
29.999999999907399
  0
LINE
  8
_0-1_計細線
  6
CONTINUOUS
 62
    3
 10
1272.7650398833403
 20
1192.9914980864512
 11
1271.461471787924
 21
1195.2493374901703
  0
LINE
  8
_0-1_計細線
  6
CONTINUOUS
 62
    3
 10
1272.7650398833403
 20
1192.9914980864512
 11
1252.6251485275925
 21
1227.8748098077579
  0
LINE
  8
_0-1_計細線
  6
CONTINUOUS
 62
    3
 10
1272.7650398833403
 20
1192.9914980864512
 11
1275.3721700532669
 21
1192.9914980864512
  0
LINE
  8
_0-1_計細線
  6
CONTINUOUS
 62
    3
 10
1268.8543476389032
 20
1190.7336586827312
 11
1248.7144562831536
 21
1225.6169704040401
  0
ARC
  8
_0-1_計細線
  6
CONTINUOUS
 62
    3
 10
1239.8566994243492
 20
1164.3921989726712
 40
0.501740082747087
 50
219.81000899998574
 51
269.99999999999977
  0
LINE
  8
_0-1_計細線
  6
CONTINUOUS
 62
    3
 10
1272.7650398833403
 20
1188.4758192790121
 11
1252.6251485275925
 21
1153.5925075577049
  0
LINE
  8
_0-1_計細線
  6
CONTINUOUS
 62
    3
 10
1268.8543476389032
 20
1190.7336586827312
 11
1248.7144562831536
 21
1155.8503469614241
  0
ARC
  8
_0-1_計細線
  6
CONTINUOUS
 62
    3
 10
1271.461471787924
 20
1190.7336586827312
 40
46.4111412917104
 50
89.999999999999915
 51
269.99999999999977
  0
ARC
  8
_0-1_計細線
  6
CONTINUOUS
 62
    3
 10
1271.461471787924
 20
1190.7336586827312
 40
57.198598227560829
 50
89.999999999999915
 51
269.99999999999977
  0
CIRCLE
  8
_0-1_計細線
  6
CONTINUOUS
 62
    3
 10
1271.461471787924
 20
1190.7336586827312
 40
58.202084413960065
  0
LINE
  8
_0-1_計細線
  6
CONTINUOUS
 62
    3
 10
1272.7650398833403
 20
1192.9914980864512
 11
1313.0448165739317
 21
1192.9914980864512
  0
LINE
  8
_0-1_計細線
  6
CONTINUOUS
 62
    3
 10
1272.7650398833403
 20
1188.4758192790121
 11
1313.0448165739317
 21
1188.4758192790121
  0
ARC
  8
_0-1_計細線
  6
CONTINUOUS
 62
    3
 10
1271.461471787924
 20
1190.7336586827312
 40
46.4111412917104
 50
269.99999999999977
 51
89.999999999999545
  0
ARC
  8
_0-1_計細線
  6
CONTINUOUS
 62
    3
 10
1271.461471787924
 20
1190.7336586827312
 40
57.198598227560829
 50
269.99999999999977
 51
89.999999999999545
  0
ARC
  8
_0-1_計細線
  6
CONTINUOUS
 62
    3
 10
1271.461471787924
 20
1190.7336586827312
 40
41.644595453350369
 50
89.999999999999915
 51
116.89207624474167
  0
ARC
  8
_0-1_計細線
  6
CONTINUOUS
 62
    3
 10
1271.461471787924
 20
1190.7336586827312
 40
41.644595453350369
 50
123.10791868693909
 51
236.89208131305983
  0
ARC
  8
_0-1_計細線
  6
CONTINUOUS
 62
    3
 10
1271.461471787924
 20
1190.7336586827312
 40
41.644595453350369
 50
243.10792375525773
 51
269.99999999999977
  0
ARC
  8
_0-1_計細線
  6
CONTINUOUS
 62
    3
 10
1271.461471787924
 20
1190.7336586827312
 40
41.644595453350369
 50
269.99999999999977
 51
356.89207858909316
  0
ARC
  8
_0-1_計細線
  6
CONTINUOUS
 62
    3
 10
1271.461471787924
 20
1190.7336586827312
 40
41.644595453350369
 50
3.1079214109077289
 51
89.999999999999915
  0
ARC
  8
_0-0_計極細
  6
CONTINUOUS
 62
    2
 10
1271.461471787924
 20
1190.7336586827312
 40
50.153133796808191
 50
269.99999999999977
 51
89.999999999999545
  0
ARC
  8
_0-0_計極細
  6
CONTINUOUS
 62
    2
 10
1271.461471787924
 20
1190.7336586827312
 40
50.153133796808191
 50
89.999999999999915
 51
269.99999999999977
  0
ARC
  8
_0-0_計極細
  6
CONTINUOUS
 62
    2
 10
1257.8464707434168
 20
1161.6326164531399
 40
0.501740082747087
 50
149.9999756859755
 51
210.00002243784951
  0
ARC
  8
_0-0_計極細
  6
CONTINUOUS
 62
    2
 10
1271.7511555938736
 20
1184.712753606145
 40
1.0034861863992508
 50
29.999999999951111
 51
149.99999999997101
  0
ARC
  8
_0-0_計極細
  6
CONTINUOUS
 62
    2
 10
1271.7511555938736
 20
1184.712753606145
 40
1.0034861863992508
 50
29.999999999951111
 51
106.77865499997519
  0
ARC
  8
_0-0_計極細
  6
CONTINUOUS
 62
    2
 10
1266.1023785764528
 20
1187.9740791962647
 40
1.0034861863992508
 50
329.9999999999776
 51
89.999999999999545
  0
ARC
  8
_0-0_計極細
  6
CONTINUOUS
 62
    2
 10
1230.9662554878878
 20
1198.0124194818243
 40
0.501740082747087
 50
89.993779917003238
 51
169.80868012341165
  0
ARC
  8
_0-0_計極細
  6
CONTINUOUS
 62
    2
 10
1230.9646897824541
 20
1183.4618961490698
 40
0.501740082747087
 50
190.17882981053808
 51
269.99383436894158
  0
ARC
  8
_0-0_計極細
  6
CONTINUOUS
 62
    2
 10
1230.9129574918479
 20
1193.4967450793654
 40
1.0034861863992508
 50
176.10042624738671
 51
269.99385985768839
  0
ARC
  8
_0-0_計極細
  6
CONTINUOUS
 62
    2
 10
1271.461471787924
 20
1190.7336586827312
 40
37.630656728658437
 50
317.45760300000074
 51
327.38710800000064
  0
ARC
  8
_0-0_計極細
  6
CONTINUOUS
 62
    2
 10
1271.461471787924
 20
1190.7336586827312
 40
37.630656728658437
 50
32.612891999999583
 51
42.54239699999939
  0
LINE
  8
_0-0_計極細
  6
CONTINUOUS
 62
    2
 10
1306.6356895589124
 20
1171.4547206275058
 11
1297.6776003379118
 21
1186.9705930098673
  0
LINE
  8
_0-0_計極細
  6
CONTINUOUS
 62
    2
 10
1305.2288629414334
 20
1166.867025774445
 11
1292.8978626965281
 21
1188.2249462271855
  0
LINE
  8
_0-0_計極細
  6
CONTINUOUS
 62
    2
 10
1300.6069272012019
 20
1162.8306411156275
 11
1286.6697240881122
 21
1186.9705930098673
  0
LINE
  8
_0-0_計極細
  6
CONTINUOUS
 62
    2
 10
1306.6356895589124
 20
1210.0125967379579
 11
1297.6776003379118
 21
1194.4967243555973
  0
LINE
  8
_0-0_計極細
  6
CONTINUOUS
 62
    2
 10
1305.2288629414334
 20
1214.6002915910183
 11
1292.8978626965281
 21
1193.2423711382773
  0
LINE
  8
_0-0_計極細
  6
CONTINUOUS
 62
    2
 10
1300.6069272012019
 20
1218.6366702289317
 11
1286.6697240881122
 21
1194.4967243555973
  0
LINE
  8
_0-0_計極細
  6
CONTINUOUS
 62
    2
 10
1269.4545054360315
 20
1163.7140222875598
 11
1269.4545054360315
 21
1171.6314341915038
  0
LINE
  8
_0-0_計極細
  6
CONTINUOUS
 62
    2
 10
1269.9562455187779
 20
1163.6814311283799
 11
1269.9562455187779
 21
1170.7623948154649
  0
ARC
  8
_0-0_計極細
  6
CONTINUOUS
 62
    2
 10
1271.461471787924
 20
1190.7336586827312
 40
37.630656728658437
 50
213.59599499999973
 51
225.50677599999941
  0
LINE
  8
_0-0_計極細
  6
CONTINUOUS
 62
    2
 10
1298.4438086761484
 20
1159.5528904964615
 11
1281.8899864467285
 21
1188.2249462271855
  0
LINE
  8
_0-0_計極細
  6
CONTINUOUS
 62
    2
 10
1293.2559560259588
 20
1156.4967031632057
 11
1275.6618478383125
 21
1186.9705930098673
  0
LINE
  8
_0-0_計極細
  6
CONTINUOUS
 62
    2
 10
1275.2468870604343
 20
1149.5569236792619
 11
1262.9158868155291
 21
1170.9148441320028
  0
LINE
  8
_0-0_計極細
  6
CONTINUOUS
 62
    2
 10
1281.0534659790092
 20
1151.5414440970296
 11
1267.1162628659176
 21
1175.6813959912686
  0
LINE
  8
_0-0_計極細
  6
CONTINUOUS
 62
    2
 10
1284.9736471698479
 20
1151.7758860989036
 11
1268.4198249404308
 21
1180.4479478505339
  0
LINE
  8
_0-0_計極細
  6
CONTINUOUS
 62
    2
 10
1290.2143031575588
 20
1154.7406098631388
 11
1272.6202009908193
 21
1185.2144936888938
  0
LINE
  8
_0-0_計極細
  6
CONTINUOUS
 62
    2
 10
1239.8566994243492
 20
1163.8904588899243
 11
1253.0667337477198
 21
1163.8904588899243
  0
ARC
  8
_0-0_計極細
  6
CONTINUOUS
 62
    2
 10
1249.5905642017542
 20
1159.3747800824847
 40
1.0034861863992508
 50
329.99999999997061
 51
89.999999999999545
  0
ARC
  8
_0-0_計極細
  6
CONTINUOUS
 62
    2
 10
1271.461471787924
 20
1190.7336586827312
 40
37.630656728658437
 50
233.77152300000051
 51
236.31964599999873
  0
ARC
  8
_0-0_計極細
  6
CONTINUOUS
 62
    2
 10
1245.6095839114514
 20
1159.3747800824847
 40
1.0034861863992508
 50
89.999999999999915
 51
230.49823000001433
  0
LINE
  8
_0-0_計極細
  6
CONTINUOUS
 62
    2
 10
1245.6095839114514
 20
1160.3782602479789
 11
1249.5905642017542
 21
1160.3782602479789
  0
ARC
  8
_0-0_計極細
  6
CONTINUOUS
 62
    2
 10
1271.461471787924
 20
1190.7336586827312
 40
37.630656728658437
 50
272.61289200000084
 51
282.54239699999982
  0
ARC
  8
_0-0_計極細
  6
CONTINUOUS
 62
    2
 10
1275.6814097589058
 20
1149.8077967310876
 40
0.501740082747087
 50
210.00000000005619
 51
275.88706200007852
  0
LINE
  8
_0-0_計極細
  6
CONTINUOUS
 62
    2
 10
1270.5704139620202
 20
1150.6324198903783
 11
1261.6123247410196
 21
1166.1482982936438
  0
LINE
  8
_0-0_計極細
  6
CONTINUOUS
 62
    2
 10
1264.0169658523164
 20
1149.9415210328414
 11
1257.4119486906311
 21
1161.381746434379
  0
ARC
  8
_0-0_計極細
  6
CONTINUOUS
 62
    2
 10
1271.461471787924
 20
1190.7336586827312
 40
37.630656728658437
 50
254.49322400000062
 51
266.40400500000192
  0
ARC
  8
_0-0_計極細
  6
CONTINUOUS
 62
    2
 10
1253.0667337477198
 20
1164.3921989726712
 40
0.501740082747087
 50
269.99999999999977
 51
329.999999999995
  0
ARC
  8
_0-0_計極細
  6
CONTINUOUS
 62
    2
 10
1257.229834374778
 20
1152.6658240364629
 40
1.0034861863992508
 50
249.50177000010669
 51
29.999999999924803
  0
LINE
  8
_0-0_計極細
  6
CONTINUOUS
 62
    2
 10
1258.0988737508196
 20
1153.1675641192103
 11
1256.1083866161198
 21
1156.6151945751119
  0
ARC
  8
_0-0_計極細
  6
CONTINUOUS
 62
    2
 10
1260.7432793440757
 20
1165.6465521899925
 40
1.0034861863992508
 50
29.999999999977071
 51
150.00000000002294
  0
ARC
  8
_0-0_計極細
  6
CONTINUOUS
 62
    2
 10
1271.461471787924
 20
1190.7336586827312
 40
27.094072844634088
 50
244.78019200000111
 51
249.77896100000117
  0
ARC
  8
_0-0_計極細
  6
CONTINUOUS
 62
    2
 10
1271.461471787924
 20
1190.7336586827312
 40
37.630656728658437
 50
243.68035399999945
 51
246.22847699999966
  0
ARC
  8
_0-0_計極細
  6
CONTINUOUS
 62
    2
 10
1255.2393412191759
 20
1156.1134544923668
 40
1.0034861863992508
 50
30.000000000003038
 51
149.99999999999699
  0
ARC
  8
_0-0_計極細
  6
CONTINUOUS
 62
    2
 10
1269.7013745859813
 20
1150.1306798076328
 40
1.0034861863992508
 50
267.51783600007144
 51
29.999999999976708
  0
ARC
  8
_0-0_計極細
  6
CONTINUOUS
 62
    2
 10
1264.4514885507879
 20
1150.1923940846671
 40
0.501740082747087
 50
210.00000000000426
 51
260.18999099984632
  0
ARC
  8
_0-0_計極細
  6
CONTINUOUS
 62
    2
 10
1271.461471787924
 20
1190.7336586827312
 40
27.094072844634088
 50
260.29098300000101
 51
275.3756820000018
  0
ARC
  8
_0-0_計極細
  6
CONTINUOUS
 62
    2
 10
1271.461471787924
 20
1190.7336586827312
 40
37.630656728658437
 50
288.07291800000053
 51
297.3252260000009
  0
ARC
  8
_0-0_計極細
  6
CONTINUOUS
 62
    2
 10
1271.461471787924
 20
1190.7336586827312
 40
27.094072844634088
 50
283.31934900000306
 51
296.28378000000106
  0
ARC
  8
_0-0_計極細
  6
CONTINUOUS
 62
    2
 10
1285.4081638474154
 20
1152.0267591507297
 40
0.501740082747087
 50
210.00000000000426
 51
289.81487199991307
  0
ARC
  8
_0-0_計極細
  6
CONTINUOUS
 62
    2
 10
1280.1844205820644
 20
1151.0397040142832
 40
1.0034861863992508
 50
282.39403400005705
 51
29.999999999976708
  0
ARC
  8
_0-0_計極細
  6
CONTINUOUS
 62
    2
 10
1271.461471787924
 20
1190.7336586827312
 40
37.630656728658437
 50
302.67477400000098
 51
311.92708200000021
  0
ARC
  8
_0-0_計極細
  6
CONTINUOUS
 62
    2
 10
1294.1249954019977
 20
1156.9984492668584
 40
1.0034861863992508
 50
209.9999999999992
 51
303.89344999997104
  0
ARC
  8
_0-0_計極細
  6
CONTINUOUS
 62
    2
 10
1298.0092859776751
 20
1159.3020174446358
 40
0.501740082747087
 50
310.18512800003361
 51
29.999999999959307
  0
ARC
  8
_0-0_計極細
  6
CONTINUOUS
 62
    2
 10
1289.3452637815208
 20
1154.2388637594861
 40
1.0034861863992508
 50
296.10654999997791
 51
30.000000000025157
  0
LINE
  8
_0-0_計極細
  6
CONTINUOUS
 62
    2
 10
1237.178311842842
 20
1169.91136396651
 11
1255.0945023266522
 21
1169.91136396651
  0
ARC
  8
_0-0_計極細
  6
CONTINUOUS
 62
    2
 10
1249.5905642017542
 20
1222.0925372829795
 40
1.0034861863992508
 50
269.99999999999977
 51
30.000000000051159
  0
LINE
  8
_0-0_計極細
  6
CONTINUOUS
 62
    2
 10
1239.8566994243492
 20
1217.5768584755399
 11
1253.0667337477198
 21
1217.5768584755399
  0
LINE
  8
_0-0_計極細
  6
CONTINUOUS
 62
    2
 10
1237.178311842842
 20
1211.5559533989533
 11
1255.0945023266522
 21
1211.5559533989533
  0
LINE
  8
_0-0_計極細
  6
CONTINUOUS
 62
    2
 10
1233.9086713828119
 20
1208.0437607779147
 11
1258.5706718726206
 21
1208.0437607779147
  0
LINE
  8
_0-0_計極細
  6
CONTINUOUS
 62
    2
 10
1232.7240282044686
 20
1202.0228557013295
 11
1260.5984404515539
 21
1202.0228557013295
  0
LINE
  8
_0-0_計極細
  6
CONTINUOUS
 62
    2
 10
1230.9669715595874
 20
1198.5106630802891
 11
1264.0746099975186
 21
1198.5106630802891
  0
LINE
  8
_0-0_計極細
  6
CONTINUOUS
 62
    2
 10
1230.9141622011621
 20
1192.4897580037039
 11
1266.1023785764528
 21
1192.4897580037039
  0
LINE
  8
_0-0_計極細
  6
CONTINUOUS
 62
    2
 10
1233.9086713828119
 20
1173.4235565875495
 11
1258.5706718726206
 21
1173.4235565875495
  0
LINE
  8
_0-0_計極細
  6
CONTINUOUS
 62
    2
 10
1232.7240282044686
 20
1179.4444616641351
 11
1260.5984404515539
 21
1179.4444616641351
  0
LINE
  8
_0-0_計極細
  6
CONTINUOUS
 62
    2
 10
1230.9669715595874
 20
1182.9566542851751
 11
1264.0746099975186
 21
1182.9566542851751
  0
LINE
  8
_0-0_計極細
  6
CONTINUOUS
 62
    2
 10
1230.9141622011621
 20
1188.9775593617589
 11
1266.1023785764528
 21
1188.9775593617589
  0
ARC
  8
_0-0_計極細
  6
CONTINUOUS
 62
    2
 10
1271.461471787924
 20
1190.7336586827312
 40
27.094072844634088
 50
140.2909829999995
 51
155.37568199999922
  0
ARC
  8
_0-0_計極細
  6
CONTINUOUS
 62
    2
 10
1271.461471787924
 20
1190.7336586827312
 40
37.630656728658437
 50
152.61289199999945
 51
162.54239699999926
  0
ARC
  8
_0-0_計極細
  6
CONTINUOUS
 62
    2
 10
1232.7240282044686
 20
1203.02634188773
 40
1.0034861863992508
 50
162.39403400003678
 51
269.99999999999977
  0
ARC
  8
_0-0_計極細
  6
CONTINUOUS
 62
    2
 10
1237.178311842842
 20
1168.9078777801094
 40
1.0034861863992508
 50
89.999999999999915
 51
212.48216400001331
  0
ARC
  8
_0-0_計極細
  6
CONTINUOUS
 62
    2
 10
1271.461471787924
 20
1190.7336586827312
 40
37.630656728658437
 50
168.07291799999925
 51
177.32522600000007
  0
ARC
  8
_0-0_計極細
  6
CONTINUOUS
 62
    2
 10
1271.461471787924
 20
1190.7336586827312
 40
37.630656728658437
 50
182.67477399999888
 51
191.9270819999997
  0
ARC
  8
_0-0_計極細
  6
CONTINUOUS
 62
    2
 10
1271.461471787924
 20
1190.7336586827312
 40
37.630656728658437
 50
197.45760299999972
 51
207.38710799999959
  0
ARC
  8
_0-0_計極細
  6
CONTINUOUS
 62
    2
 10
1230.9141622011621
 20
1187.9740791962656
 40
1.0034861863992508
 50
89.999999999999915
 51
183.89344999999844
  0
ARC
  8
_0-0_計極細
  6
CONTINUOUS
 62
    2
 10
1232.7240282044686
 20
1178.4409754777359
 40
1.0034861863992508
 50
89.999999999999915
 51
197.6059659999876
  0
ARC
  8
_0-0_計極細
  6
CONTINUOUS
 62
    2
 10
1233.9086713828119
 20
1173.9252966702954
 40
0.501740082747087
 50
204.1129380000705
 51
269.99999999999977
  0
ARC
  8
_0-0_計極細
  6
CONTINUOUS
 62
    2
 10
1271.461471787924
 20
1190.7336586827312
 40
27.094072844634088
 50
163.31934899999897
 51
176.28377999999944
  0
ARC
  8
_0-0_計極細
  6
CONTINUOUS
 62
    2
 10
1271.461471787924
 20
1190.7336586827312
 40
27.094072844634088
 50
183.71621999999925
 51
196.68065099999976
  0
ARC
  8
_0-0_計極細
  6
CONTINUOUS
 62
    2
 10
1271.461471787924
 20
1190.7336586827312
 40
27.094072844634088
 50
204.62431799999953
 51
219.70901699999865
  0
ARC
  8
_0-0_計極細
  6
CONTINUOUS
 62
    2
 10
1233.9086713828119
 20
1207.5420206951687
 40
0.501740082747087
 50
89.999999999999915
 51
155.88706199992916
  0
ARC
  8
_0-0_計極細
  6
CONTINUOUS
 62
    2
 10
1237.178311842842
 20
1212.5594395853543
 40
1.0034861863992508
 50
147.51783599998632
 51
269.99999999999977
  0
ARC
  8
_0-0_計極細
  6
CONTINUOUS
 62
    2
 10
1271.461471787924
 20
1190.7336586827312
 40
37.630656728658437
 50
123.68035400000058
 51
126.22847699999913
  0
ARC
  8
_0-0_計極細
  6
CONTINUOUS
 62
    2
 10
1271.461471787924
 20
1190.7336586827312
 40
37.630656728658437
 50
134.49322399999971
 51
146.40400499999933
  0
ARC
  8
_0-0_計極細
  6
CONTINUOUS
 62
    2
 10
1239.8566994243492
 20
1217.0751183927935
 40
0.501740082747087
 50
89.999999999999915
 51
140.18999100005377
  0
ARC
  8
_0-0_計極細
  6
CONTINUOUS
 62
    2
 10
1245.6095839114514
 20
1222.0925372829795
 40
1.0034861863992508
 50
129.50176999998527
 51
269.99999999999977
  0
LINE
  8
_0-0_計極細
  6
CONTINUOUS
 62
    2
 10
1245.6095839114514
 20
1221.0890571174853
 11
1249.5905642017542
 21
1221.0890571174853
  0
ARC
  8
_0-0_計極細
  6
CONTINUOUS
 62
    2
 10
1271.461471787924
 20
1190.7336586827312
 40
37.630656728658437
 50
77.457603000000148
 51
87.387107999998889
  0
ARC
  8
_0-0_計極細
  6
CONTINUOUS
 62
    2
 10
1271.461471787924
 20
1190.7336586827312
 40
37.630656728658437
 50
77.457603000000148
 51
87.387107999998889
  0
ARC
  8
_0-0_計極細
  6
CONTINUOUS
 62
    2
 10
1276.5308932352591
 20
1187.4723330926138
 40
1.0034861863992508
 50
89.999999999999915
 51
209.99999999994725
  0
ARC
  8
_0-0_計極細
  6
CONTINUOUS
 62
    2
 10
1276.5308932352591
 20
1193.9949842728518
 40
1.0034861863992508
 50
150.00000000005238
 51
269.99999999999977
  0
ARC
  8
_0-0_計極細
  6
CONTINUOUS
 62
    2
 10
1275.6814097589058
 20
1231.6595206343738
 40
0.501740082747087
 50
84.112937999921115
 51
149.9999999999884
  0
LINE
  8
_0-0_計極細
  6
CONTINUOUS
 62
    2
 10
1281.0534659790092
 20
1229.9258672475273
 11
1267.1162628659176
 21
1205.7859213741956
  0
LINE
  8
_0-0_計極細
  6
CONTINUOUS
 62
    2
 10
1284.9736471698479
 20
1229.6914252456561
 11
1268.4198249404308
 21
1201.0193695149303
  0
LINE
  8
_0-0_計極細
  6
CONTINUOUS
 62
    2
 10
1290.2143031575588
 20
1226.7267075023253
 11
1272.6202009908193
 21
1196.2528236765704
  0
LINE
  8
_0-0_計極細
  6
CONTINUOUS
 62
    2
 10
1269.4545054360315
 20
1198.7255070361368
 11
1269.4545054360315
 21
1202.8114919109755
  0
LINE
  8
_0-0_計極細
  6
CONTINUOUS
 62
    2
 10
1269.9562455187779
 20
1197.8564676600979
 11
1269.9562455187779
 21
1203.6805373079185
  0
ARC
  8
_0-0_計極細
  6
CONTINUOUS
 62
    2
 10
1260.5984404515539
 20
1203.02634188773
 40
1.0034861863992508
 50
269.99999999999977
 51
30.000000000025157
  0
LINE
  8
_0-0_計極細
  6
CONTINUOUS
 62
    2
 10
1272.9666980570719
 20
1196.8529814737001
 11
1272.9666980570719
 21
1208.8947916268696
  0
LINE
  8
_0-0_計極細
  6
CONTINUOUS
 62
    2
 10
1273.4684441607233
 20
1197.7220268706426
 11
1273.4684441607233
 21
1209.7638370238149
  0
ARC
  8
_0-0_計極細
  6
CONTINUOUS
 62
    2
 10
1260.5984404515539
 20
1178.4409754777359
 40
1.0034861863992508
 50
329.99999999995163
 51
89.999999999999545
  0
ARC
  8
_0-0_計極細
  6
CONTINUOUS
 62
    2
 10
1258.5706718726206
 20
1173.9252966702954
 40
0.501740082747087
 50
269.99999999999977
 51
329.99999999989114
  0
ARC
  8
_0-0_計極細
  6
CONTINUOUS
 62
    2
 10
1271.461471787924
 20
1190.7336586827312
 40
27.094072844634088
 50
230.2210390000003
 51
235.21980800000028
  0
ARC
  8
_0-0_計極細
  6
CONTINUOUS
 62
    2
 10
1255.0945023266522
 20
1168.9078777801094
 40
1.0034861863992508
 50
329.99999999997414
 51
89.999999999999545
  0
ARC
  8
_0-0_計極細
  6
CONTINUOUS
 62
    2
 10
1263.3504095140024
 20
1171.1657171838299
 40
0.501740082747087
 50
149.9999999999884
 51
210.00000000005619
  0
LINE
  8
_0-0_計極細
  6
CONTINUOUS
 62
    2
 10
1269.4545054360315
 20
1178.6558254544886
 11
1269.4545054360315
 21
1182.7418103293273
  0
LINE
  8
_0-0_計極細
  6
CONTINUOUS
 62
    2
 10
1269.9562455187779
 20
1177.7867800575439
 11
1269.9562455187779
 21
1183.6108497053658
  0
ARC
  8
_0-0_計極細
  6
CONTINUOUS
 62
    2
 10
1264.0746099975186
 20
1183.4584003888265
 40
0.501740082747087
 50
269.99999999999977
 51
330.00000000009186
  0
ARC
  8
_0-0_計極細
  6
CONTINUOUS
 62
    2
 10
1268.8543476389032
 20
1180.6988148814542
 40
0.501740082747087
 50
149.99999999999537
 51
209.9999999999593
  0
ARC
  8
_0-0_計極細
  6
CONTINUOUS
 62
    2
 10
1266.2472174689738
 20
1175.1796559085212
 40
1.0034861863992508
 50
30.000000000025526
 51
149.99999999997448
  0
ARC
  8
_0-0_計極細
  6
CONTINUOUS
 62
    2
 10
1268.8543476389032
 20
1200.7685024840091
 40
0.501740082747087
 50
149.99999999999537
 51
209.9999999999593
  0
ARC
  8
_0-0_計極細
  6
CONTINUOUS
 62
    2
 10
1271.7511555938736
 20
1196.7545637593178
 40
1.0034861863992508
 50
210.00000000005113
 51
330.00000000002603
  0
ARC
  8
_0-0_計極細
  6
CONTINUOUS
 62
    2
 10
1264.0746099975186
 20
1198.0089169766363
 40
0.501740082747087
 50
29.999999999907736
 51
89.999999999999901
  0
ARC
  8
_0-0_計極細
  6
CONTINUOUS
 62
    2
 10
1266.1023785764528
 20
1193.4932381691985
 40
1.0034861863992508
 50
269.99999999999977
 51
29.999999999976708
  0
LINE
  8
_0-0_計極細
  6
CONTINUOUS
 62
    2
 10
1272.9666980570719
 20
1172.5725257385936
 11
1272.9666980570719
 21
1184.6143358917654
  0
LINE
  8
_0-0_計極細
  6
CONTINUOUS
 62
    2
 10
1273.4684441607233
 20
1171.7034803416507
 11
1273.4684441607233
 21
1183.7452904948207
  0
ARC
  8
_0-0_計極細
  6
CONTINUOUS
 62
    2
 10
1271.7511555938736
 20
1196.7545637593178
 40
1.0034861863992508
 50
253.22134500003193
 51
330.00000000002603
  0
LINE
  8
_0-0_計極細
  6
CONTINUOUS
 62
    2
 10
1270.5704139620202
 20
1230.8348914541809
 11
1261.6123247410196
 21
1215.3190190718199
  0
ARC
  8
_0-0_計極細
  6
CONTINUOUS
 62
    2
 10
1271.461471787924
 20
1190.7336586827312
 40
37.630656728658437
 50
93.595994999997728
 51
105.50677599999884
  0
LINE
  8
_0-0_計極細
  6
CONTINUOUS
 62
    2
 10
1264.0169658523164
 20
1231.5257963326251
 11
1257.4119486906311
 21
1220.0855709310847
  0
LINE
  8
_0-0_計極細
  6
CONTINUOUS
 62
    2
 10
1275.2468870604343
 20
1231.9103936862009
 11
1262.9158868155291
 21
1210.5524732334595
  0
ARC
  8
_0-0_計極細
  6
CONTINUOUS
 62
    2
 10
1263.3504095140024
 20
1210.3016001816343
 40
0.501740082747087
 50
149.9999999999884
 51
210.00000000001123
  0
ARC
  8
_0-0_計極細
  6
CONTINUOUS
 62
    2
 10
1271.461471787924
 20
1190.7336586827312
 40
27.094072844634088
 50
110.2210389999981
 51
115.21980799999808
  0
ARC
  8
_0-0_計極細
  6
CONTINUOUS
 62
    2
 10
1260.7432793440757
 20
1215.8207651754731
 40
1.0034861863992508
 50
209.99999999997672
 51
330.00000000002257
  0
ARC
  8
_0-0_計極細
  6
CONTINUOUS
 62
    2
 10
1257.8464713891026
 20
1219.8346978792586
 40
0.501740082747087
 50
150.00000000004732
 51
209.99999999990737
  0
ARC
  8
_0-0_計極細
  6
CONTINUOUS
 62
    2
 10
1271.461471787924
 20
1190.7336586827312
 40
37.630656728658437
 50
113.7715229999997
 51
116.31964599999986
  0
ARC
  8
_0-0_計極細
  6
CONTINUOUS
 62
    2
 10
1257.229834374778
 20
1228.8014933290012
 40
1.0034861863992508
 50
330.00000000007446
 51
110.4982299998926
  0
ARC
  8
_0-0_計極細
  6
CONTINUOUS
 62
    2
 10
1255.2393412191759
 20
1225.3538628730964
 40
1.0034861863992508
 50
210.00000000002515
 51
329.99999999997414
  0
LINE
  8
_0-0_計極細
  6
CONTINUOUS
 62
    2
 10
1258.0988737508196
 20
1228.2997532462539
 11
1256.1083866161198
 21
1224.8521227903518
  0
ARC
  8
_0-0_計極細
  6
CONTINUOUS
 62
    2
 10
1271.461471787924
 20
1190.7336586827312
 40
27.094072844634088
 50
124.78019199999827
 51
129.77896099999876
  0
ARC
  8
_0-0_計極細
  6
CONTINUOUS
 62
    2
 10
1253.0667337477198
 20
1217.0751183927935
 40
0.501740082747087
 50
29.99999999995967
 51
89.999999999999901
  0
ARC
  8
_0-0_計極細
  6
CONTINUOUS
 62
    2
 10
1255.0945023266522
 20
1212.5594395853543
 40
1.0034861863992508
 50
269.99999999999977
 51
30.000000000025157
  0
ARC
  8
_0-0_計極細
  6
CONTINUOUS
 62
    2
 10
1258.5706718726206
 20
1207.5420206951687
 40
0.501740082747087
 50
30.000000000063526
 51
89.999999999999915
  0
LINE
  8
_0-0_計極細
  6
CONTINUOUS
 62
    2
 10
1269.9562455187779
 20
1210.7049225499993
 11
1269.9562455187779
 21
1217.7858862370842
  0
LINE
  8
_0-0_計極細
  6
CONTINUOUS
 62
    2
 10
1269.4545054360315
 20
1209.8358831739608
 11
1269.4545054360315
 21
1217.7532950779043
  0
ARC
  8
_0-0_計極細
  6
CONTINUOUS
 62
    2
 10
1269.7013745859813
 20
1231.3366375578346
 40
1.0034861863992508
 50
330.00000000000011
 51
92.482163999927849
  0
ARC
  8
_0-0_計極細
  6
CONTINUOUS
 62
    2
 10
1271.461471787924
 20
1190.7336586827312
 40
27.094072844634088
 50
84.624317999997899
 51
99.709016999998497
  0
ARC
  8
_0-0_計極細
  6
CONTINUOUS
 62
    2
 10
1264.4514885507879
 20
1231.2749232807998
 40
0.501740082747087
 50
99.810009000153329
 51
150.00000000004033
  0
ARC
  8
_0-0_計極細
  6
CONTINUOUS
 62
    2
 10
1266.2472174689738
 20
1206.2876614569416
 40
1.0034861863992508
 50
210.00000000002515
 51
329.99999999997414
  0
ARC
  8
_0-0_計極細
  6
CONTINUOUS
 62
    2
 10
1271.461471787924
 20
1190.7336586827312
 40
27.094072844634088
 50
84.624317999997899
 51
89.999999999999915
  0
ARC
  8
_0-0_計極細
  6
CONTINUOUS
 62
    2
 10
1271.461471787924
 20
1190.7336586827312
 40
27.094072844634088
 50
20.290983000000907
 51
35.375681999999564
  0
LINE
  8
_0-0_計極細
  6
CONTINUOUS
 62
    2
 10
1298.4438086761484
 20
1221.914426869004
 11
1281.8899864467285
 21
1193.2423711382773
  0
LINE
  8
_0-0_計極細
  6
CONTINUOUS
 62
    2
 10
1293.2559560259588
 20
1224.970614202258
 11
1275.6618478383125
 21
1194.4967243555973
  0
ARC
  8
_0-0_計極細
  6
CONTINUOUS
 62
    2
 10
1271.461471787924
 20
1190.7336586827312
 40
27.094072844634088
 50
303.71622000000309
 51
316.68065100000058
  0
ARC
  8
_0-0_計極細
  6
CONTINUOUS
 62
    2
 10
1287.5387634641511
 20
1187.4723330926138
 40
1.0034861863992508
 50
89.999999999999915
 51
209.9999999999992
  0
ARC
  8
_0-0_計極細
  6
CONTINUOUS
 62
    2
 10
1281.455463748257
 20
1187.9740791962656
 40
0.501740082747087
 50
30.000000000004636
 51
89.999999999999915
  0
ARC
  8
_0-0_計極細
  6
CONTINUOUS
 62
    2
 10
1287.5387634641511
 20
1193.9949842728518
 40
1.0034861863992508
 50
150.00000000000043
 51
269.99999999999977
  0
ARC
  8
_0-0_計極細
  6
CONTINUOUS
 62
    2
 10
1281.455463748257
 20
1193.4932381691985
 40
0.501740082747087
 50
269.99999999999977
 51
329.999999999995
  0
ARC
  8
_0-0_計極細
  6
CONTINUOUS
 62
    2
 10
1271.461471787924
 20
1190.7336586827312
 40
27.094072844634088
 50
324.62431800000087
 51
339.70901700000059
  0
ARC
  8
_0-0_計極細
  6
CONTINUOUS
 62
    2
 10
1271.461471787924
 20
1190.7336586827312
 40
27.094072844634088
 50
350.22103900000002
 51
355.21980800000068
  0
ARC
  8
_0-0_計極細
  6
CONTINUOUS
 62
    2
 10
1271.461471787924
 20
1190.7336586827312
 40
27.094072844634088
 50
4.7801919999998796
 51
9.7789610000005673
  0
ARC
  8
_0-0_計極細
  6
CONTINUOUS
 62
    2
 10
1298.5466397139508
 20
1187.4723330926138
 40
1.0034861863992508
 50
89.999999999999915
 51
209.9999999999992
  0
ARC
  8
_0-0_計極細
  6
CONTINUOUS
 62
    2
 10
1292.4633399980567
 20
1187.9740791962656
 40
0.501740082747087
 50
30.000000000004636
 51
89.999999999999915
  0
ARC
  8
_0-0_計極細
  6
CONTINUOUS
 62
    2
 10
1298.5466397139508
 20
1193.9949842728518
 40
1.0034861863992508
 50
150.00000000000043
 51
269.99999999999977
  0
ARC
  8
_0-0_計極細
  6
CONTINUOUS
 62
    2
 10
1292.4633399980567
 20
1193.4932381691985
 40
0.501740082747087
 50
269.99999999999977
 51
329.999999999995
  0
ARC
  8
_0-0_計極細
  6
CONTINUOUS
 62
    2
 10
1271.461471787924
 20
1190.7336586827312
 40
27.094072844634088
 50
43.319348999999789
 51
56.283779999997591
  0
ARC
  8
_0-0_計極細
  6
CONTINUOUS
 62
    2
 10
1271.461471787924
 20
1190.7336586827312
 40
37.630656728658437
 50
62.67477399999909
 51
71.927081999999317
  0
ARC
  8
_0-0_計極細
  6
CONTINUOUS
 62
    2
 10
1271.461471787924
 20
1190.7336586827312
 40
27.094072844634088
 50
63.716219999999019
 51
76.680650999997013
  0
ARC
  8
_0-0_計極細
  6
CONTINUOUS
 62
    2
 10
1285.4081638474154
 20
1229.440558214734
 40
0.501740082747087
 50
70.18512800008655
 51
150.00000000004033
  0
ARC
  8
_0-0_計極細
  6
CONTINUOUS
 62
    2
 10
1280.1844205820644
 20
1230.427613351181
 40
1.0034861863992508
 50
330.00000000002257
 51
77.605965999942228
  0
ARC
  8
_0-0_計極細
  6
CONTINUOUS
 62
    2
 10
1271.461471787924
 20
1190.7336586827312
 40
37.630656728658437
 50
48.072918000000342
 51
57.325225999999049
  0
ARC
  8
_0-0_計極細
  6
CONTINUOUS
 62
    2
 10
1294.1249954019977
 20
1224.4688680986062
 40
1.0034861863992508
 50
56.106550000014117
 51
150.00000000002294
  0
ARC
  8
_0-0_計極細
  6
CONTINUOUS
 62
    2
 10
1298.0092859776751
 20
1222.1652938999243
 40
0.501740082747087
 50
330.00000000003996
 51
49.814871999965682
  0
ARC
  8
_0-0_計極細
  6
CONTINUOUS
 62
    2
 10
1289.3452637815208
 20
1227.2284536059767
 40
1.0034861863992508
 50
329.99999999997414
 51
63.893450000021375
  0
ARC
  8
_0-0_計極細
  6
CONTINUOUS
 62
    2
 10
1301.4759725981448
 20
1163.3323872192802
 40
1.0034861863992508
 50
209.9999999999992
 51
317.60596599999053
  0
ARC
  8
_0-0_計極細
  6
CONTINUOUS
 62
    2
 10
1304.794346263865
 20
1166.6161527226193
 40
0.501740082747087
 50
324.11293799996702
 51
30.000000000011212
  0
ARC
  8
_0-0_計極細
  6
CONTINUOUS
 62
    2
 10
1271.461471787924
 20
1190.7336586827312
 40
37.630656728658437
 50
14.493223999999607
 51
26.404004999999916
  0
LINE
  8
_0-0_計極細
  6
CONTINUOUS
 62
    2
 10
1310.5107561080122
 20
1204.6825965398164
 11
1303.9057389463278
 21
1193.2423711382773
  0
ARC
  8
_0-0_計極細
  6
CONTINUOUS
 62
    2
 10
1311.5450091193534
 20
1184.0247026367094
 40
1.0034861863992508
 50
210.00000000000267
 51
350.4982300000064
  0
ARC
  8
_0-0_計極細
  6
CONTINUOUS
 62
    2
 10
1311.5450091193534
 20
1197.4426147287547
 40
1.0034861863992508
 50
9.5017699999932326
 51
149.99999999997448
  0
ARC
  8
_0-0_計極細
  6
CONTINUOUS
 62
    2
 10
1271.461471787924
 20
1190.7336586827312
 40
37.630656728658437
 50
3.6803540000000869
 51
6.2284770000002219
  0
ARC
  8
_0-0_計極細
  6
CONTINUOUS
 62
    2
 10
1271.461471787924
 20
1190.7336586827312
 40
37.630656728658437
 50
353.7715230000008
 51
356.31964600000026
  0
ARC
  8
_0-0_計極細
  6
CONTINUOUS
 62
    2
 10
1271.461471787924
 20
1190.7336586827312
 40
37.630656728658437
 50
333.59599500000036
 51
345.50677600000074
  0
ARC
  8
_0-0_計極細
  6
CONTINUOUS
 62
    2
 10
1307.5047349558563
 20
1171.9564607102527
 40
1.0034861863992508
 50
210.00000000000267
 51
332.48216400001218
  0
ARC
  8
_0-0_計極細
  6
CONTINUOUS
 62
    2
 10
1309.5545159637486
 20
1187.4723330926138
 40
1.0034861863992508
 50
89.999999999999915
 51
209.9999999999992
  0
ARC
  8
_0-0_計極細
  6
CONTINUOUS
 62
    2
 10
1303.4712162478545
 20
1187.9740791962656
 40
0.501740082747087
 50
29.99999999995271
 51
89.999999999999929
  0
LINE
  8
_0-0_計極細
  6
CONTINUOUS
 62
    2
 10
1310.6759637224104
 20
1183.522962553963
 11
1308.6854765877097
 21
1186.9705930098673
  0
LINE
  8
_0-0_計極細
  6
CONTINUOUS
 62
    2
 10
1310.5107561080122
 20
1176.7847208256487
 11
1303.9057389463278
 21
1188.2249462271855
  0
ARC
  8
_0-0_計極細
  6
CONTINUOUS
 62
    2
 10
1309.5545159637486
 20
1193.9949842728518
 40
1.0034861863992508
 50
150.00000000000043
 51
269.99999999999977
  0
ARC
  8
_0-0_計極細
  6
CONTINUOUS
 62
    2
 10
1303.4712162478545
 20
1193.4932381691985
 40
0.501740082747087
 50
269.99999999999977
 51
330.00000000004695
  0
LINE
  8
_0-0_計極細
  6
CONTINUOUS
 62
    2
 10
1310.6759637224104
 20
1197.9443548115012
 11
1308.6854765877097
 21
1194.4967243555973
  0
ARC
  8
_0-0_計極細
  6
CONTINUOUS
 62
    2
 10
1301.4759725981448
 20
1218.1349301461839
 40
1.0034861863992508
 50
42.394034000009064
 51
150.00000000000043
  0
ARC
  8
_0-0_計極細
  6
CONTINUOUS
 62
    2
 10
1304.794346263865
 20
1214.8511646428444
 40
0.501740082747087
 50
329.99999999998801
 51
35.887062000032259
  0
ARC
  8
_0-0_計極細
  6
CONTINUOUS
 62
    2
 10
1307.5047349558563
 20
1209.5108566552115
 40
1.0034861863992508
 50
27.517836000010465
 51
149.99999999997448
  0
LINE
  8
_0-0_計極細
  6
CONTINUOUS
 62
    2
 10
1272.9666980570719
 20
1163.6814299910131
 11
1272.9666980570719
 21
1165.5481416411069
  0
LINE
  8
_0-0_計極細
  6
CONTINUOUS
 62
    2
 10
1273.4684441607233
 20
1163.7140205429416
 11
1273.4684441607233
 21
1164.6790916095485
  0
LINE
  8
_0-0_計極細
  6
CONTINUOUS
 62
    2
 10
1272.9666980570719
 20
1215.9191731969547
 11
1272.9666980570719
 21
1217.7858873744492
  0
LINE
  8
_0-0_計極細
  6
CONTINUOUS
 62
    2
 10
1273.4684441607233
 20
1216.7882230117573
 11
1273.4684441607233
 21
1217.7532968225207
  0
LINE
  8
_0-1_計細線
  6
CONTINUOUS
 62
    3
 10
1243.4604746743425
 20
1248.7336586827312
 11
1231.3183390506119
 21
1236.5915230590001
  0
ARC
  8
_0-1_計細線
  6
CONTINUOUS
 62
    3
 10
1217.1762034268804
 20
1250.7336586827312
 40
20
 50
269.99999999999977
 51
315.00000000000057
  0
LINE
  8
_0-1_計細線
  6
CONTINUOUS
 62
    3
 10
1183.695731770159
 20
1150.7336586827312
 11
1217.1762034268804
 21
1150.7336586827312
  0
LINE
  8
_0-1_計細線
  6
CONTINUOUS
 62
    3
 10
1243.4604746743425
 20
1132.7336586827312
 11
1231.3183390506119
 21
1144.8757943064622
  0
ARC
  8
_0-1_計細線
  6
CONTINUOUS
 62
    3
 10
1217.1762034268804
 20
1130.7336586827312
 40
20
 50
44.999999999999076
 51
89.999999999999915
  0
LINE
  8
_0-1_計細線
  6
CONTINUOUS
 62
    3
 10
1299.4604746743425
 20
1132.7336586827312
 11
1311.6026102980732
 21
1144.8757943064622
  0
LINE
  8
_0-1_計細線
  6
CONTINUOUS
 62
    3
 10
1325.7447459218047
 20
1150.7336586827312
 11
1339.4604746743425
 21
1150.7336586827312
  0
ARC
  8
_0-1_計細線
  6
CONTINUOUS
 62
    3
 10
1325.7447459218047
 20
1130.7336586827312
 40
20
 50
89.999999999999915
 51
135.00000000000091
  0
LINE
  8
_0-1_計細線
  6
CONTINUOUS
 62
    3
 10
1299.4604746743425
 20
1248.7336586827312
 11
1311.6026102980732
 21
1236.5915230590001
  0
LINE
  8
_0-1_計細線
  6
CONTINUOUS
 62
    3
 10
1325.7447459218047
 20
1230.7336586827312
 11
1339.4604746743425
 21
1230.7336586827312
  0
ARC
  8
_0-1_計細線
  6
CONTINUOUS
 62
    3
 10
1325.7447459218047
 20
1250.7336586827312
 40
20
 50
224.99999999999872
 51
269.99999999999977
  0
LINE
  8
_0-1_計細線
  6
CONTINUOUS
 62
    3
 10
1197.9170839098806
 20
1230.7336586827312
 11
1217.1762034268804
 21
1230.7336586827312
  0
ARC
  8
_0-0_計極細
  6
CONTINUOUS
 62
    2
 10
1144.7303091231661
 20
1219.7336586826452
 40
54.312365187078854
 50
327.72737804884258
 51
32.272621951371519
  0
ARC
  8
_0-0_計極細
  6
CONTINUOUS
 62
    2
 10
1236.574372888218
 20
1161.7336586828212
 40
54.312365187078854
 50
147.72737804884292
 51
212.27262195137578
  0
ARC
  8
_0-0_計極細
  6
CONTINUOUS
 62
    2
 10
1144.7303091231661
 20
1219.7336586826448
 40
54.312365187078854
 50
327.72737804884258
 51
32.272621951371519
  0
ARC
  8
_0-0_計極細
  6
CONTINUOUS
 62
    2
 10
1236.574372888218
 20
1161.7336586828208
 40
54.312365187078854
 50
147.72737804884292
 51
212.27262195137578
  0
LINE
  8
_0-5_寸法線
  6
CONTINUOUS
 62
    7
 10
357.46047467434255
 20
1278.7336586827312
 11
357.46047467434255
 21
1462.7336586827312
  0
LINE
  8
_0-5_寸法線
  6
CONTINUOUS
 62
    7
 10
357.46047467434255
 20
1454.7336586827312
 11
372.91528789496761
 21
1458.8747634043716
  0
LINE
  8
_0-5_寸法線
  6
CONTINUOUS
 62
    7
 10
357.46047467434255
 20
1454.7336586827312
 11
372.91528789496761
 21
1450.5925539610907
  0
LINE
  8
_0-5_寸法線
  6
CONTINUOUS
 62
    7
 10
1351.4604746743425
 20
1278.7336586827312
 11
1351.4604746743425
 21
1462.7336586827312
  0
LINE
  8
_0-5_寸法線
  6
CONTINUOUS
 62
    7
 10
1351.4604746743425
 20
1454.7336586827312
 11
1336.0056614537175
 21
1450.592553961091
  0
LINE
  8
_0-5_寸法線
  6
CONTINUOUS
 62
    7
 10
1351.4604746743425
 20
1454.7336586827312
 11
1336.0056614537175
 21
1458.8747634043716
  0
LINE
  8
_0-5_寸法線
  6
CONTINUOUS
 62
    7
 10
357.46047467434255
 20
1454.7336586827312
 11
1351.4604746743425
 21
1454.7336586827312
  0
TEXT
  8
_0-5_寸法線
 62
    7
 10
842.46047467434255
 20
1454.7336586827312
 40
24
 41
1
 50
0
  1
Ｌ
  0
LINE
  8
_0-5_寸法線
  6
CONTINUOUS
 62
    7
 10
357.46047467434255
 20
1102.7336586827312
 11
357.46047467434255
 21
1030.7336586827312
  0
LINE
  8
_0-5_寸法線
  6
CONTINUOUS
 62
    7
 10
357.46047467434255
 20
1038.7336586827312
 11
372.91528789496761
 21
1042.8747634043716
  0
LINE
  8
_0-5_寸法線
  6
CONTINUOUS
 62
    7
 10
357.46047467434255
 20
1038.7336586827312
 11
372.91528789496761
 21
1034.5925539610907
  0
LINE
  8
_0-5_寸法線
  6
CONTINUOUS
 62
    7
 10
1271.4604746743425
 20
1102.7336586827312
 11
1271.4604746743425
 21
1030.7336586827312
  0
LINE
  8
_0-5_寸法線
  6
CONTINUOUS
 62
    7
 10
1271.4604746743425
 20
1038.7336586827312
 11
1256.0056614537175
 21
1034.592553961091
  0
LINE
  8
_0-5_寸法線
  6
CONTINUOUS
 62
    7
 10
1271.4604746743425
 20
1038.7336586827312
 11
1256.0056614537175
 21
1042.8747634043716
  0
LINE
  8
_0-5_寸法線
  6
CONTINUOUS
 62
    7
 10
357.46047467434255
 20
1038.7336586827312
 11
1271.4604746743425
 21
1038.7336586827312
  0
TEXT
  8
_0-5_寸法線
 62
    7
 10
802.46047467434255
 20
1038.7336586827312
 40
24
 41
1
 50
0
  1
Ｃ
  0
LINE
  8
_0-5_寸法線
  6
CONTINUOUS
 62
    7
 10
1271.4604746743425
 20
1038.7336586827312
 11
1286.9152878949676
 21
1042.8747634043714
  0
LINE
  8
_0-5_寸法線
  6
CONTINUOUS
 62
    7
 10
1271.4604746743425
 20
1038.7336586827312
 11
1286.9152878949676
 21
1034.5925539610907
  0
LINE
  8
_0-5_寸法線
  6
CONTINUOUS
 62
    7
 10
1351.4604746743425
 20
1102.7336586827312
 11
1351.4604746743425
 21
1030.7336586827312
  0
LINE
  8
_0-5_寸法線
  6
CONTINUOUS
 62
    7
 10
1351.4604746743425
 20
1038.7336586827312
 11
1336.0056614537175
 21
1034.592553961091
  0
LINE
  8
_0-5_寸法線
  6
CONTINUOUS
 62
    7
 10
1351.4604746743425
 20
1038.7336586827312
 11
1336.0056614537175
 21
1042.8747634043716
  0
LINE
  8
_0-5_寸法線
  6
CONTINUOUS
 62
    7
 10
1271.4604746743425
 20
1038.7336586827312
 11
1351.4604746743425
 21
1038.7336586827312
  0
TEXT
  8
_0-5_寸法線
 62
    7
 10
1299.4604746743425
 20
1038.7336586827312
 40
24
 41
1
 50
0
  1
80
  0
LINE
  8
_0-5_寸法線
  6
CONTINUOUS
 62
    7
 10
357.46047467434255
 20
1398.7336586827312
 11
342.00566145371749
 21
1394.592553961091
  0
LINE
  8
_0-5_寸法線
  6
CONTINUOUS
 62
    7
 10
357.46047467434255
 20
1398.7336586827312
 11
342.00566145371749
 21
1402.8747634043716
  0
LINE
  8
_0-5_寸法線
  6
CONTINUOUS
 62
    7
 10
369.46047467434255
 20
1278.7336586827312
 11
369.46047467434255
 21
1406.7336586827312
  0
LINE
  8
_0-5_寸法線
  6
CONTINUOUS
 62
    7
 10
317.46047467434255
 20
1398.7336586827312
 11
369.46047467434255
 21
1398.7336586827312
  0
TEXT
  8
_0-5_寸法線
 62
    7
 10
315.48676340906604
 20
1398.7336586827312
 40
24
 41
1
 50
0
  1
12
  0
LINE
  8
_0-5_寸法線
  6
CONTINUOUS
 62
    7
 10
369.46047467434255
 20
1398.7336586827312
 11
384.91528789496761
 21
1402.8747634043714
  0
LINE
  8
_0-5_寸法線
  6
CONTINUOUS
 62
    7
 10
369.46047467434255
 20
1398.7336586827312
 11
384.91528789496761
 21
1394.5925539610907
  0
LINE
  8
_0-5_寸法線
  6
CONTINUOUS
 62
    7
 10
1339.4604746743425
 20
1278.7336586827312
 11
1339.4604746743425
 21
1406.7336586827312
  0
LINE
  8
_0-5_寸法線
  6
CONTINUOUS
 62
    7
 10
1339.4604746743425
 20
1398.7336586827312
 11
1324.0056614537175
 21
1394.592553961091
  0
LINE
  8
_0-5_寸法線
  6
CONTINUOUS
 62
    7
 10
1339.4604746743425
 20
1398.7336586827312
 11
1324.0056614537175
 21
1402.8747634043716
  0
LINE
  8
_0-5_寸法線
  6
CONTINUOUS
 62
    7
 10
369.46047467434255
 20
1398.7336586827312
 11
1339.4604746743425
 21
1398.7336586827312
  0
TEXT
  8
_0-5_寸法線
 62
    7
 10
842.46047467434255
 20
1398.7336586827312
 40
24
 41
1
 50
0
  1
Ａ
  0
LINE
  8
_0-5_寸法線
  6
CONTINUOUS
 62
    7
 10
1351.4604746743425
 20
1398.7336586827312
 11
1366.9152878949676
 21
1402.8747634043714
  0
LINE
  8
_0-5_寸法線
  6
CONTINUOUS
 62
    7
 10
1351.4604746743425
 20
1398.7336586827312
 11
1366.9152878949676
 21
1394.5925539610907
  0
LINE
  8
_0-5_寸法線
  6
CONTINUOUS
 62
    7
 10
1339.4604746743425
 20
1398.7336586827312
 11
1391.4604746743425
 21
1398.7336586827312
  0
TEXT
  8
_0-5_寸法線
 62
    7
 10
1363.7515991760938
 20
1398.7336586827312
 40
24
 41
1
 50
0
  1
12
  0
LINE
  8
_0-5_寸法線
  6
CONTINUOUS
 62
    7
 10
407.60979042549297
 20
1149.8301595972264
 11
417.48882387203412
 21
1137.244266773826
  0
LINE
  8
_0-5_寸法線
  6
CONTINUOUS
 62
    7
 10
407.60979042549297
 20
1149.8301595972264
 11
409.87233794333349
 21
1133.9909399595829
  0
LINE
  8
_0-5_寸法線
  6
CONTINUOUS
 62
    7
 10
407.60979042549297
 20
1149.8301595972264
 11
440.86783006367011
 21
1071.9685104658365
  0
LINE
  8
_0-5_寸法線
  6
CONTINUOUS
 62
    7
 10
440.86783006367011
 20
1071.9685104658365
 11
618.77360784144889
 21
1071.9685104658365
  0
TEXT
  8
_0-5_寸法線
 62
    7
 10
445.97360784144882
 20
1071.9685104658365
 40
24
 41
0.8000000000000001
 50
0
  1
ＳＵＳグレーチング
  0
LINE
  8
_0-5_寸法線
  6
CONTINUOUS
 62
    7
 10
651.32835231156423
 20
1125.2660743777458
 11
660.83598476167651
 21
1112.3973166601736
  0
LINE
  8
_0-5_寸法線
  6
CONTINUOUS
 62
    7
 10
651.32835231156423
 20
1125.2660743777458
 11
653.12782468442072
 21
1109.3675870541251
  0
LINE
  8
_0-5_寸法線
  6
CONTINUOUS
 62
    7
 10
651.32835231156423
 20
1125.2660743777458
 11
672.32638262152511
 21
1071.843426160849
  0
LINE
  8
_0-5_寸法線
  6
CONTINUOUS
 62
    7
 10
672.32638262152511
 20
1071.843426160849
 11
787.52638262152504
 21
1071.843426160849
  0
TEXT
  8
_0-5_寸法線
 62
    7
 10
672.32638262152511
 20
1071.843426160849
 40
24
 41
0.8000000000000001
 50
0
  1
排水ユニット
  0
TEXT
  8
_0-7_枠細線
 62
    5
 10
395.13525007802195
 20
130.73050495111875
 40
40
 41
0.8
 50
0
  1
断面詳細図
  0
TEXT
  8
_0-7_枠細線
 62
    5
 10
579.05360167669119
 20
130.73050495111875
 40
32
 41
0.6
 50
0
  1
Ｓ＝１：３
  0
LINE
  8
_0-5_寸法線
  6
CONTINUOUS
 62
    7
 10
341.46047467434255
 20
1262.7336586827312
 11
213.46047467434255
 21
1262.7336586827312
  0
LINE
  8
_0-5_寸法線
  6
CONTINUOUS
 62
    7
 10
221.46047467434255
 20
1262.7336586827312
 11
225.60157939598298
 21
1247.2788454621061
  0
LINE
  8
_0-5_寸法線
  6
CONTINUOUS
 62
    7
 10
221.46047467434255
 20
1262.7336586827312
 11
217.31936995270235
 21
1247.2788454621061
  0
LINE
  8
_0-5_寸法線
  6
CONTINUOUS
 62
    7
 10
341.46047467434255
 20
1118.7336586827312
 11
213.46047467434255
 21
1118.7336586827312
  0
LINE
  8
_0-5_寸法線
  6
CONTINUOUS
 62
    7
 10
221.46047467434255
 20
1118.7336586827312
 11
217.31936995270235
 21
1134.1884719033562
  0
LINE
  8
_0-5_寸法線
  6
CONTINUOUS
 62
    7
 10
221.46047467434255
 20
1118.7336586827312
 11
225.60157939598298
 21
1134.1884719033562
  0
LINE
  8
_0-5_寸法線
  6
CONTINUOUS
 62
    7
 10
221.46047467434255
 20
1262.7336586827312
 11
221.46047467434255
 21
1118.7336586827312
  0
TEXT
  8
_0-5_寸法線
 62
    7
 10
221.46047467434255
 20
1172.7336586827316
 40
24
 41
1
 50
89.999999999999815
  1
144
  0
LINE
  8
_0-5_寸法線
  6
CONTINUOUS
 62
    7
 10
277.46047467434255
 20
1262.7336586827312
 11
273.31936995270235
 21
1278.1884719033562
  0
LINE
  8
_0-5_寸法線
  6
CONTINUOUS
 62
    7
 10
277.46047467434255
 20
1262.7336586827312
 11
281.60157939598298
 21
1278.1884719033562
  0
LINE
  8
_0-5_寸法線
  6
CONTINUOUS
 62
    7
 10
341.46047467434255
 20
1250.7336586827312
 11
269.46047467434255
 21
1250.7336586827312
  0
LINE
  8
_0-5_寸法線
  6
CONTINUOUS
 62
    7
 10
277.46047467434255
 20
1302.7336586827312
 11
277.46047467434255
 21
1250.7336586827312
  0
TEXT
  8
_0-5_寸法線
 62
    7
 10
277.46047467434346
 20
1274.4149024016826
 40
24
 41
1
 50
89.99999999999973
  1
12
  0
LINE
  8
_0-5_寸法線
  6
CONTINUOUS
 62
    7
 10
277.46047467434255
 20
1250.7336586827312
 11
281.60157939598287
 21
1235.2788454621061
  0
LINE
  8
_0-5_寸法線
  6
CONTINUOUS
 62
    7
 10
277.46047467434255
 20
1250.7336586827312
 11
273.31936995270223
 21
1235.2788454621061
  0
LINE
  8
_0-5_寸法線
  6
CONTINUOUS
 62
    7
 10
341.46047467434255
 20
1130.7336586827312
 11
269.46047467434255
 21
1130.7336586827312
  0
LINE
  8
_0-5_寸法線
  6
CONTINUOUS
 62
    7
 10
277.46047467434255
 20
1130.7336586827312
 11
273.31936995270235
 21
1146.1884719033562
  0
LINE
  8
_0-5_寸法線
  6
CONTINUOUS
 62
    7
 10
277.46047467434255
 20
1130.7336586827312
 11
281.60157939598298
 21
1146.1884719033562
  0
LINE
  8
_0-5_寸法線
  6
CONTINUOUS
 62
    7
 10
277.46047467434255
 20
1250.7336586827312
 11
277.46047467434255
 21
1130.7336586827312
  0
TEXT
  8
_0-5_寸法線
 62
    7
 10
277.46047467434346
 20
1172.7336586827316
 40
24
 41
1
 50
89.999999999999815
  1
120
  0
LINE
  8
_0-5_寸法線
  6
CONTINUOUS
 62
    7
 10
277.46047467434255
 20
1118.7336586827312
 11
281.60157939598287
 21
1103.2788454621061
  0
LINE
  8
_0-5_寸法線
  6
CONTINUOUS
 62
    7
 10
277.46047467434255
 20
1118.7336586827312
 11
273.31936995270223
 21
1103.2788454621061
  0
LINE
  8
_0-5_寸法線
  6
CONTINUOUS
 62
    7
 10
277.46047467434255
 20
1130.7336586827312
 11
277.46047467434255
 21
1078.7336586827312
  0
TEXT
  8
_0-5_寸法線
 62
    7
 10
277.46047467434346
 20
1081.2879965576315
 40
24
 41
1
 50
90
  1
12
  0
LINE
  8
_0-5_寸法線
  6
CONTINUOUS
 62
    7
 10
854.96047467434255
 20
1278.7336586827312
 11
854.96047467434266
 21
1350.7336586827312
  0
LINE
  8
_0-5_寸法線
  6
CONTINUOUS
 62
    7
 10
854.96047467434266
 20
1342.7336586827312
 11
870.41528789496772
 21
1346.8747634043716
  0
LINE
  8
_0-5_寸法線
  6
CONTINUOUS
 62
    7
 10
854.96047467434266
 20
1342.7336586827312
 11
870.41528789496772
 21
1338.5925539610907
  0
LINE
  8
_0-5_寸法線
  6
CONTINUOUS
 62
    7
 10
1337.9604746743425
 20
1278.7336586827312
 11
1337.9604746743425
 21
1350.7336586827312
  0
LINE
  8
_0-5_寸法線
  6
CONTINUOUS
 62
    7
 10
1337.9604746743425
 20
1342.7336586827312
 11
1322.5056614537175
 21
1338.592553961091
  0
LINE
  8
_0-5_寸法線
  6
CONTINUOUS
 62
    7
 10
1337.9604746743425
 20
1342.7336586827312
 11
1322.5056614537175
 21
1346.8747634043716
  0
LINE
  8
_0-5_寸法線
  6
CONTINUOUS
 62
    7
 10
854.96047467434266
 20
1342.7336586827312
 11
1337.9604746743425
 21
1342.7336586827312
  0
TEXT
  8
_0-5_寸法線
 62
    7
 10
1084.4604746743428
 20
1342.7336586827309
 40
24
 41
1
 50
0
  1
Ｂ
  0
LINE
  8
_0-5_寸法線
  6
CONTINUOUS
 62
    7
 10
370.96047467434528
 20
1278.7336586827312
 11
370.96047467434539
 21
1350.7336586827312
  0
LINE
  8
_0-5_寸法線
  6
CONTINUOUS
 62
    7
 10
370.96047467434539
 20
1342.7336586827312
 11
386.41528789497056
 21
1346.8747634043716
  0
LINE
  8
_0-5_寸法線
  6
CONTINUOUS
 62
    7
 10
370.96047467434539
 20
1342.7336586827312
 11
386.41528789497056
 21
1338.5925539610907
  0
LINE
  8
_0-5_寸法線
  6
CONTINUOUS
 62
    7
 10
853.96047467434255
 20
1278.7336586827314
 11
853.96047467434266
 21
1350.7336586827312
  0
LINE
  8
_0-5_寸法線
  6
CONTINUOUS
 62
    7
 10
853.96047467434266
 20
1342.7336586827312
 11
838.50566145371761
 21
1338.592553961091
  0
LINE
  8
_0-5_寸法線
  6
CONTINUOUS
 62
    7
 10
853.96047467434266
 20
1342.7336586827312
 11
838.50566145371761
 21
1346.8747634043716
  0
LINE
  8
_0-5_寸法線
  6
CONTINUOUS
 62
    7
 10
370.96047467434539
 20
1342.7336586827312
 11
853.96047467434266
 21
1342.7336586827312
  0
TEXT
  8
_0-5_寸法線
 62
    7
 10
600.46047467434414
 20
1342.7336586827309
 40
24
 41
1
 50
0
  1
Ｂ
  0
LINE
  8
_0-1_計細線
  6
CONTINUOUS
 62
    3
 10
1267.4594817860452
 20
1116.9773839856941
 11
1267.4594817860525
 21
1114.9709541516102
  0
LINE
  8
_0-1_計細線
  6
CONTINUOUS
 62
    3
 10
1266.4594828860445
 20
1116.9773839856928
 11
1266.4594828860536
 21
1114.9709541516074
  0
LINE
  8
_0-1_計細線
  6
CONTINUOUS
 62
    3
 10
1275.4594729837681
 20
1116.9773839856941
 11
1275.459472983759
 21
1114.9709541516102
  0
LINE
  8
_0-1_計細線
  6
CONTINUOUS
 62
    3
 10
1276.4594718837652
 20
1116.9773839856928
 11
1276.4594718837598
 21
1114.9709541516074
  0
ARC
  8
_0-1_計細線
  6
CONTINUOUS
 62
    3
 10
1265.4594839860529
 20
1114.9709541516033
 40
0.9999989000003957
 50
265.47193698647186
 51
0.0000000002341397
  0
ARC
  8
_0-1_計細線
  6
CONTINUOUS
 62
    3
 10
1265.4594839860529
 20
1114.9709541516033
 40
1.9999978000008021
 50
265.47193698642093
 51
0.000000000195057
  0
ARC
  8
_0-1_計細線
  6
CONTINUOUS
 62
    3
 10
1277.4594707837623
 20
1114.9709541516033
 40
0.9999989000003957
 50
179.99999999976549
 51
274.5280630135274
  0
ARC
  8
_0-1_計細線
  6
CONTINUOUS
 62
    3
 10
1277.4594707837623
 20
1114.9709541516033
 40
1.9999978000008021
 50
179.99999999976549
 51
274.52806301357833
  0
ARC
  8
_0-1_計細線
  6
CONTINUOUS
 62
    3
 10
1265.4594839860474
 20
1116.9773839856914
 40
0.9999989000003957
 50
0.0000000002344961
 51
85.34929099526606
  0
ARC
  8
_0-1_計細線
  6
CONTINUOUS
 62
    3
 10
1277.4594707837678
 20
1116.9773839856914
 40
0.9999989000003957
 50
94.650709004733955
 51
179.99999999976549
  0
ARC
  8
_0-1_計細線
  6
CONTINUOUS
 62
    3
 10
1265.4594839860529
 20
1266.4963628743023
 40
1.9999978000008021
 50
359.99999999976512
 51
94.528063013578347
  0
LINE
  8
_0-1_計細線
  6
CONTINUOUS
 62
    3
 10
1267.4594817860452
 20
1264.4899330402061
 11
1267.4594817860525
 21
1266.4963628742942
  0
LINE
  8
_0-1_計細線
  6
CONTINUOUS
 62
    3
 10
1266.4594828860445
 20
1264.4899330402102
 11
1266.4594828860536
 21
1266.4963628742969
  0
ARC
  8
_0-1_計細線
  6
CONTINUOUS
 62
    3
 10
1265.4594839860529
 20
1266.4963628743023
 40
0.9999989000003957
 50
359.99999999968696
 51
94.528063013525369
  0
ARC
  8
_0-1_計細線
  6
CONTINUOUS
 62
    3
 10
1265.4594839860474
 20
1264.4899330402156
 40
0.9999989000003957
 50
274.65070900473359
 51
359.99999999976512
  0
ARC
  8
_0-1_計細線
  6
CONTINUOUS
 62
    3
 10
1277.4594707837623
 20
1266.4963628743023
 40
1.9999978000008021
 50
85.471936986421312
 51
180.00000000023414
  0
LINE
  8
_0-1_計細線
  6
CONTINUOUS
 62
    3
 10
1275.4594729837681
 20
1264.4899330402061
 11
1275.459472983759
 21
1266.4963628742942
  0
LINE
  8
_0-1_計細線
  6
CONTINUOUS
 62
    3
 10
1276.4594718837652
 20
1264.4899330402102
 11
1276.4594718837598
 21
1266.4963628742969
  0
ARC
  8
_0-1_計細線
  6
CONTINUOUS
 62
    3
 10
1277.4594707837623
 20
1266.4963628743023
 40
0.9999989000003957
 50
85.47193698647429
 51
180.00000000023414
  0
ARC
  8
_0-1_計細線
  6
CONTINUOUS
 62
    3
 10
1277.4594707837678
 20
1264.4899330402156
 40
0.9999989000003957
 50
180.00000000023414
 51
265.34929099526573
  0
LINE
  8
_0-1_計細線
  6
CONTINUOUS
 62
    3
 10
1401.4589023650788
 20
1153.233827412874
 11
1401.4589023650788
 21
1190.7336585129508
  0
LINE
  8
_0-1_計細線
  6
CONTINUOUS
 62
    3
 10
1400.4589068690784
 20
1152.2338319168723
 11
1382.7485052897882
 21
1152.2338319168723
  0
ARC
  8
_0-1_計細線
  6
CONTINUOUS
 62
    3
 10
1400.4589068690784
 20
1153.233827412874
 40
0.9999954960020431
 50
269.99999999999977
 51
359.99999999999966
  0
LINE
  8
_0-1_計細線
  6
CONTINUOUS
 62
    3
 10
1381.5447920585921
 20
1153.233827412874
 11
1381.5447920585921
 21
1190.7336585129508
  0
ARC
  8
_0-1_計細線
  6
CONTINUOUS
 62
    3
 10
1370.9898568170647
 20
1145.7338611928592
 40
4.9999774800103012
 50
269.99999999999977
 51
334.79169788884707
  0
LINE
  8
_0-1_計細線
  6
CONTINUOUS
 62
    3
 10
1370.9898568170647
 20
1140.7338837128466
 11
1363.7899985896529
 21
1140.7338837128466
  0
LINE
  8
_0-1_計細線
  6
CONTINUOUS
 62
    3
 10
1378.2246989255964
 20
1149.3633968243023
 11
1375.5136631812529
 21
1143.6043188054166
  0
ARC
  8
_0-1_計細線
  6
CONTINUOUS
 62
    3
 10
1382.7485052897882
 20
1147.2338544368624
 40
4.9999774800103012
 50
89.999999999999915
 51
154.79169788884744
  0
LINE
  8
_0-1_計細線
  6
CONTINUOUS
 62
    3
 10
1400.4589068690784
 20
1229.2334851090307
 11
1382.7485052897828
 21
1229.2334851090307
  0
ARC
  8
_0-1_計細線
  6
CONTINUOUS
 62
    3
 10
1400.4589068690784
 20
1228.2334896130276
 40
0.9999954960020431
 50
0
 51
89.999999999999915
  0
LINE
  8
_0-1_計細線
  6
CONTINUOUS
 62
    3
 10
1401.4589023650788
 20
1228.2334896130276
 11
1401.4589023650788
 21
1190.7336585129508
  0
LINE
  8
_0-1_計細線
  6
CONTINUOUS
 62
    3
 10
1370.9898568170647
 20
1240.7334333130536
 11
1363.7899985896529
 21
1240.7334333130536
  0
LINE
  8
_0-1_計細線
  6
CONTINUOUS
 62
    3
 10
1378.2246989255964
 20
1232.1039202015993
 11
1375.5136631812529
 21
1237.8629982204836
  0
ARC
  8
_0-1_計細線
  6
CONTINUOUS
 62
    3
 10
1370.9898568170647
 20
1235.7334558330424
 40
4.9999774800103012
 50
25.208302111175602
 51
89.999999999999915
  0
LINE
  8
_0-1_計細線
  6
CONTINUOUS
 62
    3
 10
1381.5447920585921
 20
1228.2334896130276
 11
1381.5447920585921
 21
1190.7336585129508
  0
ARC
  8
_0-1_計細線
  6
CONTINUOUS
 62
    3
 10
1382.7485052897828
 20
1234.2334625890405
 40
4.9999774800103012
 50
205.20830211117996
 51
269.99999999999977
  0
ARC
  8
_0-1_計細線
  6
CONTINUOUS
 62
    3
 10
1096.7913745931783
 20
1190.7336585129508
 40
279.9987388805763
 50
349.95892672538429
 51
10.041073274614719
  0
ARC
  8
_0-1_計細線
  6
CONTINUOUS
 62
    3
 10
1271.4594773840472
 20
1190.7336585138089
 40
77.999914200031185
 50
67.312929651982913
 51
85.471936986413084
  0
ARC
  8
_0-1_計細線
  6
CONTINUOUS
 62
    3
 10
1271.4594773840472
 20
1190.7336585138089
 40
76.999915300030807
 50
69.238804446806867
 51
85.471936986413624
  0
ARC
  8
_0-1_計細線
  6
CONTINUOUS
 62
    3
 10
1271.4594773840472
 20
1190.7336585138089
 40
72.999919700029196
 50
80.691660420521146
 51
85.349290995344433
  0
ARC
  8
_0-1_計細線
  6
CONTINUOUS
 62
    3
 10
1277.4594707837678
 20
1264.4899330402156
 40
1.9999978000008021
 50
180.00000000023414
 51
241.41858827403308
  0
ARC
  8
_0-1_計細線
  6
CONTINUOUS
 62
    3
 10
1265.4594839860474
 20
1264.4899330402156
 40
1.9999978000008021
 50
298.58141172596618
 51
359.99999999976512
  0
ARC
  8
_0-1_計細線
  6
CONTINUOUS
 62
    3
 10
1271.4594773857625
 20
1190.7336585138089
 40
72.99991970002921
 50
94.650709004654146
 51
99.60712020669807
  0
ARC
  8
_0-1_計細線
  6
CONTINUOUS
 62
    3
 10
1271.4594773857625
 20
1190.7336585138089
 40
76.999915300030793
 50
94.528063013584998
 51
110.73222615762104
  0
ARC
  8
_0-1_計細線
  6
CONTINUOUS
 62
    3
 10
1271.4594773857625
 20
1190.7336585138089
 40
77.999914200031199
 50
94.528063013584259
 51
112.61971368823191
  0
ARC
  8
_0-1_計細線
  6
CONTINUOUS
 62
    3
 10
1271.4594773840472
 20
1190.7336585120927
 40
77.999914200031185
 50
274.52806301358657
 51
292.61971368822435
  0
ARC
  8
_0-1_計細線
  6
CONTINUOUS
 62
    3
 10
1271.4594773840472
 20
1190.7336585120927
 40
76.999915300030807
 50
274.52806301358601
 51
290.76119555318428
  0
ARC
  8
_0-1_計細線
  6
CONTINUOUS
 62
    3
 10
1271.4594773840472
 20
1190.7336585120927
 40
72.999919700029196
 50
274.6507090046552
 51
279.36215285983894
  0
ARC
  8
_0-1_計細線
  6
CONTINUOUS
 62
    3
 10
1277.4594707837678
 20
1116.9773839856914
 40
1.9999978000008021
 50
118.58141172649684
 51
179.99999999976549
  0
ARC
  8
_0-1_計細線
  6
CONTINUOUS
 62
    3
 10
1265.4594839860474
 20
1116.9773839856914
 40
1.9999978000008021
 50
0.0000000001954134
 51
63.353613376681338
  0
ARC
  8
_0-1_計細線
  6
CONTINUOUS
 62
    3
 10
1271.4594773857625
 20
1190.7336585120927
 40
72.99991970002921
 50
260.50585233982599
 51
265.34929099534548
  0
ARC
  8
_0-1_計細線
  6
CONTINUOUS
 62
    3
 10
1271.4594773857625
 20
1190.7336585120927
 40
76.999915300030793
 50
249.23880444681356
 51
265.47193698641462
  0
ARC
  8
_0-1_計細線
  6
CONTINUOUS
 62
    3
 10
1271.4594773857625
 20
1190.7336585120927
 40
77.999914200031199
 50
247.38028631177343
 51
265.47193698641269
  0
ARC
  8
_0-1_計細線
  6
CONTINUOUS
 62
    3
 10
1271.4594773849094
 20
1190.7336585129494
 40
97.999892200039184
 50
227.28142374106423
 51
312.71857625893392
  0
ARC
  8
_0-1_計細線
  6
CONTINUOUS
 62
    3
 10
1271.4594773849094
 20
1190.7336585129508
 40
97.999568408158495
 50
324.7190949862956
 51
35.280905013702885
  0
ARC
  8
_0-1_計細線
  6
CONTINUOUS
 62
    3
 10
1271.4594775666865
 20
1190.7336586827312
 40
104.99988433026022
 50
43.291867055704564
 51
136.70813294429593
  0
ARC
  8
_0-1_計細線
  6
CONTINUOUS
 62
    3
 10
1271.4594775666865
 20
1190.7336586827312
 40
103.99988543025984
 50
43.813122016948661
 51
136.18687798305115
  0
ARC
  8
_0-1_計細線
  6
CONTINUOUS
 62
    3
 10
1271.4594775666865
 20
1190.7336586827312
 40
103.99988543025984
 50
223.8131220169476
 51
316.18687798304995
  0
ARC
  8
_0-1_計細線
  6
CONTINUOUS
 62
    3
 10
1271.4594775666865
 20
1190.7336586827312
 40
103.99988543025984
 50
320.284938754508
 51
39.715061245490283
  0
ARC
  8
_0-1_計細線
  6
CONTINUOUS
 62
    3
 10
1271.4594775666865
 20
1190.7336586827312
 40
104.99988433026022
 50
223.29186705570353
 51
316.70813294429473
  0
ARC
  8
_0-1_計細線
  6
CONTINUOUS
 62
    3
 10
1271.4594775666865
 20
1190.7336586827312
 40
104.99988433026022
 50
319.63248070437049
 51
40.367519295627794
  0
ARC
  8
_0-1_計細線
  6
CONTINUOUS
 62
    3
 10
1271.4594773849094
 20
1190.7336588525129
 40
97.999892200039184
 50
47.281423741065751
 51
132.7185762589354
  0
LINE
  8
_0-5_寸法線
  6
CONTINUOUS
 62
    7
 10
357.46047467434255
 20
862.73365873393118
 11
357.46047467434255
 21
934.73365873393118
  0
LINE
  8
_0-5_寸法線
  6
CONTINUOUS
 62
    7
 10
357.46047467434255
 20
926.73365873393118
 11
372.91528789496761
 21
930.8747634555715
  0
LINE
  8
_0-5_寸法線
  6
CONTINUOUS
 62
    7
 10
357.46047467434255
 20
926.73365873393118
 11
372.91528789496761
 21
922.59255401229086
  0
LINE
  8
_0-5_寸法線
  6
CONTINUOUS
 62
    7
 10
392.46047467434255
 20
862.73365873393118
 11
392.46047467434255
 21
934.73365873393118
  0
LINE
  8
_0-5_寸法線
  6
CONTINUOUS
 62
    7
 10
392.46047467434255
 20
926.73365873393118
 11
377.00566145371749
 21
922.59255401229086
  0
LINE
  8
_0-5_寸法線
  6
CONTINUOUS
 62
    7
 10
392.46047467434255
 20
926.73365873393118
 11
377.00566145371749
 21
930.87476345557161
  0
LINE
  8
_0-5_寸法線
  6
CONTINUOUS
 62
    7
 10
357.46047467434255
 20
926.73365873393118
 11
392.46047467434255
 21
926.73365873393118
  0
TEXT
  8
_0-5_寸法線
 62
    7
 10
362.96047467434255
 20
926.73365873393118
 40
24
 41
1
 50
0
  1
35
  0
LINE
  8
_0-5_寸法線
  6
CONTINUOUS
 62
    7
 10
392.46047467434255
 20
926.73365873393118
 11
407.91528789496761
 21
930.87476345557138
  0
LINE
  8
_0-5_寸法線
  6
CONTINUOUS
 62
    7
 10
392.46047467434255
 20
926.73365873393118
 11
407.91528789496761
 21
922.59255401229075
  0
LINE
  8
_0-5_寸法線
  6
CONTINUOUS
 62
    7
 10
1316.4604746743425
 20
862.73365873393118
 11
1316.4604746743425
 21
934.73365873393118
  0
LINE
  8
_0-5_寸法線
  6
CONTINUOUS
 62
    7
 10
1316.4604746743425
 20
926.73365873393118
 11
1301.0056614537175
 21
922.59255401229086
  0
LINE
  8
_0-5_寸法線
  6
CONTINUOUS
 62
    7
 10
1316.4604746743425
 20
926.73365873393118
 11
1301.0056614537175
 21
930.87476345557161
  0
LINE
  8
_0-5_寸法線
  6
CONTINUOUS
 62
    7
 10
392.46047467434255
 20
926.73365873393118
 11
1316.4604746743425
 21
926.73365873393118
  0
TEXT
  8
_0-5_寸法線
 62
    7
 10
794.46047467434255
 20
926.73365873393118
 40
24
 41
1
 50
0
  1
Ｄ＝Ｎ×Ｅ
  0
LINE
  8
_0-5_寸法線
  6
CONTINUOUS
 62
    7
 10
1316.4604746743425
 20
926.73365873393118
 11
1331.9152878949676
 21
930.87476345557138
  0
LINE
  8
_0-5_寸法線
  6
CONTINUOUS
 62
    7
 10
1316.4604746743425
 20
926.73365873393118
 11
1331.9152878949676
 21
922.59255401229075
  0
LINE
  8
_0-5_寸法線
  6
CONTINUOUS
 62
    7
 10
1351.4604746743425
 20
862.73365873393118
 11
1351.4604746743425
 21
934.73365873393118
  0
LINE
  8
_0-5_寸法線
  6
CONTINUOUS
 62
    7
 10
1351.4604746743425
 20
926.73365873393118
 11
1336.0056614537175
 21
922.59255401229086
  0
LINE
  8
_0-5_寸法線
  6
CONTINUOUS
 62
    7
 10
1351.4604746743425
 20
926.73365873393118
 11
1336.0056614537175
 21
930.87476345557161
  0
LINE
  8
_0-5_寸法線
  6
CONTINUOUS
 62
    7
 10
1316.4604746743425
 20
926.73365873393118
 11
1351.4604746743425
 21
926.73365873393118
  0
TEXT
  8
_0-5_寸法線
 62
    7
 10
1321.9604746743425
 20
926.73365873393118
 40
24
 41
1
 50
0
  1
35
  0
LINE
  8
_0-5_寸法線
  6
CONTINUOUS
 62
    7
 10
352.46047454006407
 20
766.73365869795134
 11
269.46047454006407
 21
766.73365869795157
  0
LINE
  8
_0-5_寸法線
  6
CONTINUOUS
 62
    7
 10
277.46047454006407
 20
766.73365869795157
 11
273.31936981842375
 21
782.18847191857662
  0
LINE
  8
_0-5_寸法線
  6
CONTINUOUS
 62
    7
 10
277.46047454006407
 20
766.73365869795157
 11
281.6015792617045
 21
782.18847191857662
  0
LINE
  8
_0-5_寸法線
  6
CONTINUOUS
 62
    7
 10
341.46047454006407
 20
846.73365869795134
 11
269.46047454006407
 21
846.73365869795157
  0
LINE
  8
_0-5_寸法線
  6
CONTINUOUS
 62
    7
 10
277.46047454006407
 20
846.73365869795157
 11
281.6015792617045
 21
831.27884547732651
  0
LINE
  8
_0-5_寸法線
  6
CONTINUOUS
 62
    7
 10
277.46047454006407
 20
846.73365869795157
 11
273.31936981842375
 21
831.27884547732651
  0
LINE
  8
_0-5_寸法線
  6
CONTINUOUS
 62
    7
 10
277.46047454006407
 20
766.73365869795157
 11
277.46047454006407
 21
846.73365869795157
  0
TEXT
  8
_0-5_寸法線
 62
    7
 10
277.46047454006407
 20
794.7336586979518
 40
24
 41
1
 50
90
  1
80
  0
LINE
  8
_0-1_計細線
  6
CONTINUOUS
 62
    3
 10
1271.4604744467899
 20
746.73365868273117
 11
1196.4604741406386
 21
746.73365868273117
  0
LINE
  8
_0-1_計細線
  6
CONTINUOUS
 62
    3
 10
357.46047444678993
 20
838.73365868273117
 11
1271.4604744467899
 21
838.73365868273117
  0
LINE
  8
_0-1_計細線
  6
CONTINUOUS
 62
    3
 10
368.46047444678993
 20
766.73365868273117
 11
368.46047444678993
 21
838.73365868273117
  0
LINE
  8
_0-1_計細線
  6
CONTINUOUS
 62
    3
 10
1271.4604744467899
 20
826.73365868273117
 11
1337.9604744467899
 21
826.73365868273117
  0
LINE
  8
_0-1_計細線
  6
CONTINUOUS
 62
    3
 10
1271.4604744467899
 20
842.83365868273131
 11
1337.9604744467899
 21
842.83365868273131
  0
LINE
  8
_0-1_計細線
  6
CONTINUOUS
 62
    3
 10
1337.9604744467899
 20
846.73365868273117
 11
1337.9604744467899
 21
826.73365868273117
  0
LINE
  8
_0-0_計極細
  6
CONTINUOUS
 62
    2
 10
1271.4604744467899
 20
845.63365868273127
 11
1337.9604744467899
 21
845.63365868273127
  0
LINE
  8
_0-1_計細線
  6
CONTINUOUS
 62
    3
 10
384.46047459987062
 20
766.34718524893879
 11
368.46047444678993
 21
766.73365868273117
  0
LINE
  8
_0-5_寸法線
  6
CONTINUOUS
 62
    7
 10
392.46047444678993
 20
743.14134966119286
 11
401.18576186712608
 21
729.72981136640647
  0
LINE
  8
_0-5_寸法線
  6
CONTINUOUS
 62
    7
 10
392.46047444678993
 20
743.14134966119286
 11
393.31102586072871
 21
727.16397308391186
  0
LINE
  8
_0-5_寸法線
  6
CONTINUOUS
 62
    7
 10
392.46047444678993
 20
743.14134966119286
 11
405.60102775146265
 21
702.81207834340398
  0
LINE
  8
_0-5_寸法線
  6
CONTINUOUS
 62
    7
 10
405.60102775146265
 20
702.81207834340398
 11
482.40102775146261
 21
702.81207834340398
  0
TEXT
  8
_0-5_寸法線
 62
    7
 10
405.60102775146265
 20
702.81207834340398
 40
24
 41
0.8000000000000001
 50
0
  1
アンカー
  0
LINE
  8
_0-1_計細線
  6
CONTINUOUS
 62
    3
 10
846.46047459987062
 20
755.18776495495763
 11
400.28409678505363
 21
765.96497215253703
  0
LINE
  8
_0-1_計細線
  6
CONTINUOUS
 62
    3
 10
1196.4604741406386
 20
746.73365868273117
 11
862.27179505196841
 21
754.80584900186727
  0
LINE
  8
_0-1_計細線
  6
CONTINUOUS
 62
    3
 10
386.46047459987062
 20
778.14134966119286
 11
384.46047459987062
 21
776.14134966119286
  0
LINE
  8
_0-1_計細線
  6
CONTINUOUS
 62
    3
 10
384.46047459987062
 20
766.14134966119286
 11
384.46047459987062
 21
776.14134966119286
  0
LINE
  8
_0-1_計細線
  6
CONTINUOUS
 62
    3
 10
400.46047429370924
 20
766.14134966119286
 11
400.46047429370924
 21
776.14134966119286
  0
LINE
  8
_0-1_計細線
  6
CONTINUOUS
 62
    3
 10
386.46047459987062
 20
762.14134966119286
 11
384.46047459987062
 21
760.14134966119286
  0
LINE
  8
_0-1_計細線
  6
CONTINUOUS
 62
    3
 10
386.46047459987062
 20
764.14134966119286
 11
386.46047459987062
 21
762.14134966119286
  0
LINE
  8
_0-1_計細線
  6
CONTINUOUS
 62
    3
 10
384.46047459987062
 20
766.14134966119286
 11
386.46047459987062
 21
764.14134966119286
  0
LINE
  8
_0-1_計細線
  6
CONTINUOUS
 62
    3
 10
398.46047429370924
 20
762.14134966119286
 11
400.46047429370924
 21
760.14134966119286
  0
LINE
  8
_0-1_計細線
  6
CONTINUOUS
 62
    3
 10
398.46047429370924
 20
764.14134966119286
 11
398.46047429370924
 21
762.14134966119286
  0
LINE
  8
_0-1_計細線
  6
CONTINUOUS
 62
    3
 10
400.46047429370924
 20
766.14134966119286
 11
398.46047429370924
 21
764.14134966119286
  0
LINE
  8
_0-1_計細線
  6
CONTINUOUS
 62
    3
 10
384.46047459987062
 20
760.14134966119286
 11
384.46047459987062
 21
746.14134966119286
  0
ARC
  8
_0-1_計細線
  6
CONTINUOUS
 62
    3
 10
387.46047459987062
 20
746.14134966119286
 40
3
 50
179.99999999999983
 51
269.99999999999977
  0
LINE
  8
_0-1_計細線
  6
CONTINUOUS
 62
    3
 10
387.46047459987062
 20
743.14134966119286
 11
397.46047429370924
 21
743.14134966119286
  0
LINE
  8
_0-1_計細線
  6
CONTINUOUS
 62
    3
 10
400.46047429370924
 20
760.14134966119286
 11
400.46047429370924
 21
746.14134966119286
  0
ARC
  8
_0-1_計細線
  6
CONTINUOUS
 62
    3
 10
397.46047429370924
 20
746.14134966119286
 40
3
 50
269.99999999999977
 51
359.99999999999966
  0
LINE
  8
_0-1_計細線
  6
CONTINUOUS
 62
    3
 10
386.46047459987062
 20
778.14134966119286
 11
398.46047429370924
 21
778.14134966119286
  0
LINE
  8
_0-1_計細線
  6
CONTINUOUS
 62
    3
 10
400.46047429370924
 20
776.14134966119286
 11
398.46047429370924
 21
778.14134966119286
  0
LINE
  8
_0-0_計極細
  6
CENTER1
 62
    2
 10
392.46047444678993
 20
738.35846793545397
 11
392.46047444678993
 21
783.41216801299174
  0
LINE
  8
_0-1_計細線
  6
CONTINUOUS
 62
    3
 10
848.46047459987062
 20
766.9945282436081
 11
846.46047459987062
 21
764.9945282436081
  0
LINE
  8
_0-1_計細線
  6
CONTINUOUS
 62
    3
 10
846.46047459987062
 20
754.9945282436081
 11
846.46047459987062
 21
764.9945282436081
  0
LINE
  8
_0-1_計細線
  6
CONTINUOUS
 62
    3
 10
862.46047429370924
 20
754.9945282436081
 11
862.46047429370924
 21
764.9945282436081
  0
LINE
  8
_0-1_計細線
  6
CONTINUOUS
 62
    3
 10
848.46047459987062
 20
750.9945282436081
 11
846.46047459987062
 21
748.9945282436081
  0
LINE
  8
_0-1_計細線
  6
CONTINUOUS
 62
    3
 10
848.46047459987062
 20
752.9945282436081
 11
848.46047459987062
 21
750.9945282436081
  0
LINE
  8
_0-1_計細線
  6
CONTINUOUS
 62
    3
 10
846.46047459987062
 20
754.9945282436081
 11
848.46047459987062
 21
752.9945282436081
  0
LINE
  8
_0-1_計細線
  6
CONTINUOUS
 62
    3
 10
860.46047429370924
 20
750.9945282436081
 11
862.46047429370924
 21
748.9945282436081
  0
LINE
  8
_0-1_計細線
  6
CONTINUOUS
 62
    3
 10
860.46047429370924
 20
752.9945282436081
 11
860.46047429370924
 21
750.9945282436081
  0
LINE
  8
_0-1_計細線
  6
CONTINUOUS
 62
    3
 10
862.46047429370924
 20
754.9945282436081
 11
860.46047429370924
 21
752.9945282436081
  0
LINE
  8
_0-1_計細線
  6
CONTINUOUS
 62
    3
 10
846.46047459987062
 20
748.9945282436081
 11
846.46047459987062
 21
734.9945282436081
  0
ARC
  8
_0-1_計細線
  6
CONTINUOUS
 62
    3
 10
849.46047459987062
 20
734.9945282436081
 40
3
 50
179.99999999999983
 51
269.99999999999977
  0
LINE
  8
_0-1_計細線
  6
CONTINUOUS
 62
    3
 10
849.46047459987062
 20
731.9945282436081
 11
859.46047429370924
 21
731.9945282436081
  0
LINE
  8
_0-1_計細線
  6
CONTINUOUS
 62
    3
 10
862.46047429370924
 20
748.9945282436081
 11
862.46047429370924
 21
734.9945282436081
  0
ARC
  8
_0-1_計細線
  6
CONTINUOUS
 62
    3
 10
859.46047429370924
 20
734.9945282436081
 40
3
 50
269.99999999999977
 51
359.99999999999966
  0
LINE
  8
_0-1_計細線
  6
CONTINUOUS
 62
    3
 10
848.46047459987062
 20
766.9945282436081
 11
860.46047429370924
 21
766.9945282436081
  0
LINE
  8
_0-1_計細線
  6
CONTINUOUS
 62
    3
 10
862.46047429370924
 20
764.9945282436081
 11
860.46047429370924
 21
766.9945282436081
  0
LINE
  8
_0-0_計極細
  6
CENTER1
 62
    2
 10
854.46047444678993
 20
727.21164651786899
 11
854.46047444678993
 21
772.26534659540698
  0
LINE
  8
_0-1_計細線
  6
DASHED2
 62
    3
 10
1324.4604742937092
 20
756.73365868273117
 11
1322.4604742937092
 21
758.73365868273117
  0
LINE
  8
_0-1_計細線
  6
DASHED2
 62
    3
 10
1310.4604745998706
 20
758.73365868273117
 11
1322.4604742937092
 21
758.73365868273117
  0
ARC
  8
_0-1_計細線
  6
DASHED2
 62
    3
 10
1321.4604742937092
 20
726.73365868273117
 40
3
 50
269.99999999999977
 51
359.99999999999966
  0
LINE
  8
_0-1_計細線
  6
DASHED2
 62
    3
 10
1324.4604742937092
 20
740.73365868273117
 11
1324.4604742937092
 21
726.73365868273117
  0
LINE
  8
_0-1_計細線
  6
DASHED2
 62
    3
 10
1311.4604745998706
 20
723.73365868273117
 11
1321.4604742937092
 21
723.73365868273117
  0
ARC
  8
_0-1_計細線
  6
DASHED2
 62
    3
 10
1311.4604745998706
 20
726.73365868273117
 40
3
 50
179.99999999999983
 51
269.99999999999977
  0
LINE
  8
_0-1_計細線
  6
DASHED2
 62
    3
 10
1308.4604745998706
 20
740.73365868273117
 11
1308.4604745998706
 21
726.73365868273117
  0
LINE
  8
_0-1_計細線
  6
DASHED2
 62
    3
 10
1324.4604742937092
 20
746.73365868273117
 11
1322.4604742937092
 21
744.73365868273117
  0
LINE
  8
_0-1_計細線
  6
DASHED2
 62
    3
 10
1322.4604742937092
 20
744.73365868273117
 11
1322.4604742937092
 21
742.73365868273117
  0
LINE
  8
_0-1_計細線
  6
DASHED2
 62
    3
 10
1322.4604742937092
 20
742.73365868273117
 11
1324.4604742937092
 21
740.73365868273117
  0
LINE
  8
_0-1_計細線
  6
DASHED2
 62
    3
 10
1308.4604745998706
 20
746.73365868273117
 11
1310.4604745998706
 21
744.73365868273117
  0
LINE
  8
_0-1_計細線
  6
DASHED2
 62
    3
 10
1310.4604745998706
 20
744.73365868273117
 11
1310.4604745998706
 21
742.73365868273117
  0
LINE
  8
_0-1_計細線
  6
DASHED2
 62
    3
 10
1310.4604745998706
 20
742.73365868273117
 11
1308.4604745998706
 21
740.73365868273117
  0
LINE
  8
_0-1_計細線
  6
DASHED2
 62
    3
 10
1324.4604742937092
 20
746.73365868273117
 11
1324.4604742937092
 21
756.73365868273117
  0
LINE
  8
_0-1_計細線
  6
DASHED2
 62
    3
 10
1308.4604745998706
 20
746.73365868273117
 11
1308.4604745998706
 21
756.73365868273117
  0
LINE
  8
_0-1_計細線
  6
DASHED2
 62
    3
 10
1310.4604745998706
 20
758.73365868273117
 11
1308.4604745998706
 21
756.73365868273117
  0
LINE
  8
_0-0_計極細
  6
DASHED2
 62
    2
 10
1316.4604744467899
 20
718.95077695699229
 11
1316.4604744467899
 21
764.00447703453005
  0
ARC
  8
_0-1_計細線
  6
CONTINUOUS
 62
    3
 10
1330.4604744467899
 20
746.23365868273117
 40
1.5
 50
89.999999999999915
 51
179.99999999999983
  0
LINE
  8
_0-1_計細線
  6
CONTINUOUS
 62
    3
 10
1328.9604744467899
 20
746.23365868273117
 11
1328.9604744467899
 21
744.23365868273117
  0
ARC
  8
_0-1_計細線
  6
CONTINUOUS
 62
    3
 10
1328.4604744467899
 20
744.23365868273117
 40
1.5
 50
269.99999999999977
 51
359.99999999999966
  0
LINE
  8
_0-1_計細線
  6
CONTINUOUS
 62
    3
 10
1329.9604744467899
 20
746.23365868273117
 11
1329.9604744467899
 21
744.23365868273117
  0
ARC
  8
_0-1_計細線
  6
CONTINUOUS
 62
    3
 10
1330.4604744467899
 20
746.23365868273117
 40
0.5
 50
89.999999999999915
 51
179.99999999999983
  0
LINE
  8
_0-1_計細線
  6
CONTINUOUS
 62
    3
 10
1339.4604744467899
 20
746.73365868273117
 11
1330.4604744467899
 21
746.73365868273117
  0
ARC
  8
_0-1_計細線
  6
CONTINUOUS
 62
    3
 10
1328.4604744467899
 20
744.23365868273117
 40
0.5
 50
269.99999999999977
 51
359.99999999999966
  0
LINE
  8
_0-1_計細線
  6
CONTINUOUS
 62
    3
 10
1339.4604744467899
 20
747.73365868273117
 11
1330.4604744467899
 21
747.73365868273117
  0
ARC
  8
_0-1_計細線
  6
CONTINUOUS
 62
    3
 10
1339.4604744467899
 20
747.73365868273117
 40
1
 50
269.99999999999977
 51
359.99999999999966
  0
LINE
  8
_0-1_計細線
  6
CONTINUOUS
 62
    3
 10
1340.4604744467899
 20
845.73365868273117
 11
1340.4604744467899
 21
747.73365868273117
  0
LINE
  8
_0-1_計細線
  6
CONTINUOUS
 62
    3
 10
1339.4604744467899
 20
845.73365868273117
 11
1339.4604744467899
 21
747.73365868273117
  0
ARC
  8
_0-1_計細線
  6
CONTINUOUS
 62
    3
 10
1340.4604744467899
 20
845.73365868273117
 40
1
 50
89.999999999999915
 51
179.99999999999983
  0
LINE
  8
_0-1_計細線
  6
CONTINUOUS
 62
    3
 10
1350.4604744467899
 20
846.73365868273117
 11
1340.4604744467899
 21
846.73365868273117
  0
ARC
  8
_0-1_計細線
  6
CONTINUOUS
 62
    3
 10
1350.4604744467899
 20
845.73365868273117
 40
1
 50
0
 51
89.999999999999915
  0
LINE
  8
_0-1_計細線
  6
CONTINUOUS
 62
    3
 10
1351.4604744467899
 20
838.73365868273117
 11
1351.4604744467899
 21
845.73365868273117
  0
LINE
  8
_0-1_計細線
  6
CONTINUOUS
 62
    3
 10
1350.4604744467899
 20
838.73365868273117
 11
1351.4604744467899
 21
838.73365868273117
  0
LINE
  8
_0-1_計細線
  6
CONTINUOUS
 62
    3
 10
1350.4604744467899
 20
845.73365868273117
 11
1340.4604744467899
 21
845.73365868273117
  0
LINE
  8
_0-1_計細線
  6
CONTINUOUS
 62
    3
 10
1350.4604744467899
 20
838.73365868273117
 11
1350.4604744467899
 21
845.73365868273117
  0
LINE
  8
_0-1_計細線
  6
CONTINUOUS
 62
    3
 10
357.46047444678993
 20
838.73365868273117
 11
357.46047444678993
 21
845.73365868273117
  0
LINE
  8
_0-1_計細線
  6
CONTINUOUS
 62
    3
 10
1340.4604744467899
 20
846.73365868273117
 11
358.46047444678993
 21
846.73365868273117
  0
ARC
  8
_0-1_計細線
  6
CONTINUOUS
 62
    3
 10
358.46047444678993
 20
845.73365868273117
 40
1
 50
89.999999999999915
 51
179.99999999999983
  0
LINE
  8
_0-5_寸法線
  6
CONTINUOUS
 62
    7
 10
1356.4604744467899
 20
746.73365868273106
 11
1439.4604744467899
 21
746.73365868273072
  0
LINE
  8
_0-5_寸法線
  6
CONTINUOUS
 62
    7
 10
1431.4604744467899
 20
746.73365868273072
 11
1427.3193697251497
 21
762.18847190335578
  0
LINE
  8
_0-5_寸法線
  6
CONTINUOUS
 62
    7
 10
1431.4604744467899
 20
746.73365868273072
 11
1435.6015791684304
 21
762.18847190335578
  0
LINE
  8
_0-5_寸法線
  6
CONTINUOUS
 62
    7
 10
1367.4604744467899
 20
846.73365868273106
 11
1439.4604744467899
 21
846.73365868273072
  0
LINE
  8
_0-5_寸法線
  6
CONTINUOUS
 62
    7
 10
1431.4604744467899
 20
846.73365868273072
 11
1435.6015791684304
 21
831.27884546210566
  0
LINE
  8
_0-5_寸法線
  6
CONTINUOUS
 62
    7
 10
1431.4604744467899
 20
846.73365868273072
 11
1427.3193697251497
 21
831.27884546210566
  0
LINE
  8
_0-5_寸法線
  6
CONTINUOUS
 62
    7
 10
1431.4604744467899
 20
746.73365868273072
 11
1431.4604744467899
 21
846.73365868273072
  0
TEXT
  8
_0-5_寸法線
 62
    7
 10
1431.4604744467899
 20
778.73365868273049
 40
24
 41
1
 50
90
  1
100
  0
LINE
  8
_0-0_計極細
  6
CONTINUOUS
 62
    2
 10
1272.256664546006
 20
638.73021068273169
 11
1272.1911925460076
 21
648.22337868273166
  0
ARC
  8
_0-0_計極細
  6
CONTINUOUS
 62
    2
 10
1272.7566485460079
 20
638.73365868273117
 40
0.5
 50
180.39513700000705
 51
269.99999999999977
  0
LINE
  8
_0-1_計細線
  6
CONTINUOUS
 62
    3
 10
1328.3599668675702
 20
743.01563406630498
 11
1321.4390001160295
 21
742.21563990949221
  0
ARC
  8
_0-1_計細線
  6
CONTINUOUS
 62
    3
 10
1332.2766460141424
 20
600.73377168270872
 40
4.9999998000002961
 50
179.99999999999983
 51
269.99999999999977
  0
ARC
  8
_0-1_計細線
  6
CONTINUOUS
 62
    3
 10
1322.2766464141419
 20
600.73377168270872
 40
4.9999998000002961
 50
0
 51
89.999999999999915
  0
LINE
  8
_0-1_計細線
  6
CONTINUOUS
 62
    3
 10
1271.4604744467902
 20
605.73377148270902
 11
1322.2766464141419
 21
605.73377148270902
  0
ARC
  8
_0-1_計細線
  6
CONTINUOUS
 62
    3
 10
1399.499010211804
 20
667.27812839275521
 40
2.0000761999303904
 50
0
 51
88.89999999999425
  0
LINE
  8
_0-1_計細線
  6
CONTINUOUS
 62
    3
 10
1401.4990864117349
 20
660.53823645866146
 11
1399.9990297617892
 21
659.56681733293976
  0
ARC
  8
_0-1_計細線
  6
CONTINUOUS
 62
    3
 10
1381.6800842488497
 20
674.62182378342504
 40
5.0001874998283711
 50
194.03624299999765
 51
268.89999999998986
  0
LINE
  8
_0-1_計細線
  6
CONTINUOUS
 62
    3
 10
1374.9980862626485
 20
680.73350628290791
 11
1376.8291886146576
 21
673.40909887487851
  0
LINE
  8
_0-1_計細線
  6
CONTINUOUS
 62
    3
 10
1346.4970119136337
 20
675.73331678307954
 11
1353.8390253058146
 21
675.73331678307954
  0
LINE
  8
_0-1_計細線
  6
CONTINUOUS
 62
    3
 10
1349.7574169792674
 20
670.73312928325117
 11
1354.4973127133594
 21
670.73312928325117
  0
LINE
  8
_0-1_計細線
  6
CONTINUOUS
 62
    3
 10
1348.6472059784587
 20
679.90983502421091
 11
1368.7250599083777
 21
679.90983502421091
  0
ARC
  8
_0-1_計細線
  6
CONTINUOUS
 62
    3
 10
1351.0768937917342
 20
677.73339298301062
 40
2.0000761999303904
 50
190.32905100000539
 51
269.99999999999977
  0
LINE
  8
_0-1_計細線
  6
CONTINUOUS
 62
    3
 10
1348.4970881135628
 20
680.73350628290655
 11
1349.1092315626352
 21
677.37477730576529
  0
LINE
  8
_0-1_計細線
  6
CONTINUOUS
 62
    3
 10
1369.425813277699
 20
679.90978302425742
 11
1369.4978792128418
 21
680.73350628290655
  0
LINE
  8
_0-1_計細線
  6
CONTINUOUS
 62
    3
 10
1353.8390253058201
 20
675.73331678307954
 11
1369.4260032775287
 21
679.90983502421295
  0
LINE
  8
_0-1_計細線
  6
CONTINUOUS
 62
    3
 10
1355.1395381353573
 20
670.90521312837632
 11
1369.4260792774617
 21
674.73327968311469
  0
LINE
  8
_0-1_計細線
  6
CONTINUOUS
 62
    3
 10
1369.4260792774617
 20
674.73327968311469
 11
1376.4981433222033
 21
674.73327968311469
  0
ARC
  8
_0-1_計細線
  6
CONTINUOUS
 62
    3
 10
1378.4982191125305
 20
660.37899860197535
 40
3.0001132998966114
 50
0
 51
60.231006999999011
  0
LINE
  8
_0-1_計細線
  6
CONTINUOUS
 62
    3
 10
1379.9982617624878
 20
662.97715226363607
 11
1366.5645178528662
 21
670.73312928325254
  0
LINE
  8
_0-1_計細線
  6
CONTINUOUS
 62
    3
 10
1399.9990297617892
 20
659.5668173329384
 11
1381.4791324297053
 21
659.92241701289799
  0
LINE
  8
_0-1_計細線
  6
CONTINUOUS
 62
    3
 10
1401.4990864117349
 20
660.53823645866282
 11
1381.4983324124255
 21
660.9222701130318
  0
LINE
  8
_0-1_計細線
  6
CONTINUOUS
 62
    3
 10
1399.5374061772468
 20
669.27783459301668
 11
1381.5840923352421
 21
669.6225562827683
  0
LINE
  8
_0-1_計細線
  6
CONTINUOUS
 62
    3
 10
1321.9604300467995
 20
675.73331678307954
 11
1330.4964083141872
 21
675.73331678307954
  0
LINE
  8
_0-1_計細線
  6
CONTINUOUS
 62
    3
 10
1321.9604300467995
 20
681.7335433828714
 11
1330.4964083141872
 21
681.73354338287277
  0
LINE
  8
_0-1_計細線
  6
CONTINUOUS
 62
    3
 10
1321.9604300467995
 20
686.73373088270182
 11
1336.6044148169763
 21
686.73373088270182
  0
LINE
  8
_0-1_計細線
  6
CONTINUOUS
 62
    3
 10
1328.3526302435871
 20
670.73312928325117
 11
1321.9604300467995
 21
670.73312928325117
  0
LINE
  8
_0-1_計細線
  6
CONTINUOUS
 62
    3
 10
1326.4962579143244
 20
681.73354338287277
 11
1332.4964845141144
 21
681.73354338287277
  0
LINE
  8
_0-1_計細線
  6
CONTINUOUS
 62
    3
 10
1332.4964845141144
 20
675.73331678307954
 11
1326.4962579143244
 21
675.73331678307954
  0
LINE
  8
_0-1_計細線
  6
CONTINUOUS
 62
    3
 10
1326.4962579143244
 20
675.73331678307954
 11
1321.9604300467995
 21
675.73331678307954
  0
LINE
  8
_0-1_計細線
  6
CONTINUOUS
 62
    3
 10
1326.4962579143244
 20
681.73354338287277
 11
1321.9604300467995
 21
681.73354338287277
  0
LINE
  8
_0-1_計細線
  6
CONTINUOUS
 62
    3
 10
1326.4962579143244
 20
686.73373088270182
 11
1326.4962579143244
 21
681.73354338287277
  0
LINE
  8
_0-1_計細線
  6
CONTINUOUS
 62
    3
 10
1326.4962579143244
 20
675.73331678307954
 11
1326.4962579143244
 21
670.73312928325117
  0
ARC
  8
_0-1_計細線
  6
CONTINUOUS
 62
    3
 10
1336.6044148169763
 20
685.73369378273492
 40
1.0000370999662209
 50
6.5198019999871439
 51
89.999999999999915
  0
ARC
  8
_0-1_計細線
  6
CONTINUOUS
 62
    3
 10
1341.4306344733773
 20
678.73343008297684
 40
3.0001132998966114
 50
186.51980200000079
 51
269.99999999999977
  0
LINE
  8
_0-1_計細線
  6
CONTINUOUS
 62
    3
 10
1343.8261643173987
 20
675.73331678307954
 11
1338.825974817571
 21
670.73312928325254
  0
LINE
  8
_0-1_計細線
  6
CONTINUOUS
 62
    3
 10
1338.64385298148
 20
677.62233908295843
 11
1331.7546411817743
 21
670.73312928325117
  0
LINE
  8
_0-1_計細線
  6
CONTINUOUS
 62
    3
 10
1332.4964845141144
 20
681.73354338287277
 11
1332.4964845141144
 21
675.73331678307954
  0
LINE
  8
_0-1_計細線
  6
CONTINUOUS
 62
    3
 10
1337.5979859227623
 20
685.84724568053866
 11
1338.4499251560169
 21
678.39277838956355
  0
ARC
  8
_0-1_計細線
  6
CONTINUOUS
 62
    3
 10
1341.9382820164933
 20
677.73339298301062
 40
2.0000761999303904
 50
269.99999999999977
 51
350.02120199999899
  0
LINE
  8
_0-1_計細線
  6
CONTINUOUS
 62
    3
 10
1344.4969357137047
 20
680.73350628290655
 11
1343.9081002436592
 21
677.38681129493489
  0
LINE
  8
_0-1_計細線
  6
CONTINUOUS
 62
    3
 10
1326.4962579143244
 20
670.73312928325117
 11
1366.5645178528662
 21
670.73312928325117
  0
LINE
  8
_0-1_計細線
  6
CONTINUOUS
 62
    3
 10
1338.182413396778
 20
680.73350628290655
 11
1374.9980862626485
 21
680.73350628290655
  0
LINE
  8
_0-1_計細線
  6
CONTINUOUS
 62
    3
 10
1341.4306344733773
 20
675.73331678307954
 11
1346.4970119136337
 21
675.73331678307954
  0
LINE
  8
_0-1_計細線
  6
CONTINUOUS
 62
    3
 10
1401.4990864117349
 20
600.92500411060473
 11
1399.9990297617856
 21
601.95402918448031
  0
ARC
  8
_0-1_計細線
  6
CONTINUOUS
 62
    3
 10
1399.499010211804
 20
594.26192010738396
 40
2.0000761999303904
 50
268.90000000004596
 51
359.99999999999966
  0
ARC
  8
_0-1_計細線
  6
CONTINUOUS
 62
    3
 10
1357.6442518811104
 20
637.54305715433611
 40
45.001695498448498
 50
292.48304700000102
 51
299.76899299999928
  0
ARC
  8
_0-1_計細線
  6
CONTINUOUS
 62
    3
 10
1373.7060814254542
 20
598.73389808260094
 40
3.0001132998966114
 50
269.99999999999977
 51
292.48304700001546
  0
ARC
  8
_0-1_計細線
  6
CONTINUOUS
 62
    3
 10
1378.4982191125305
 20
601.08424196729015
 40
3.0001132998966114
 50
299.76899300000059
 51
359.99999999999966
  0
ARC
  8
_0-1_計細線
  6
CONTINUOUS
 62
    3
 10
1357.6442518811104
 20
637.54305715433611
 40
50.001884998274818
 50
291.71126200000015
 51
294.81817500000267
  0
ARC
  8
_0-1_計細線
  6
CONTINUOUS
 62
    3
 10
1374.2917028983952
 20
595.7337847827057
 40
5.0001874998283711
 50
269.99999999999977
 51
291.71126199999674
  0
ARC
  8
_0-1_計細線
  6
CONTINUOUS
 62
    3
 10
1380.7308231031834
 20
587.62073408445463
 40
5.0001874998283711
 50
88.899999999990214
 51
114.81817500000427
  0
LINE
  8
_0-1_計細線
  6
CONTINUOUS
 62
    3
 10
1399.9990297617892
 20
601.95402918448235
 11
1381.5175303951487
 21
602.30889086510615
  0
LINE
  8
_0-1_計細線
  6
CONTINUOUS
 62
    3
 10
1401.4990864117349
 20
600.92500411060473
 11
1381.4983324124255
 21
601.30903776497439
  0
LINE
  8
_0-1_計細線
  6
CONTINUOUS
 62
    3
 10
1399.4606142463595
 20
592.26221390711976
 11
1380.8268150167892
 21
592.61999958511478
  0
LINE
  8
_0-1_計細線
  6
CONTINUOUS
 62
    3
 10
1271.4604744467902
 20
605.73377148270902
 11
1301.7826816974352
 21
605.73377148272129
  0
LINE
  8
_0-1_計細線
  6
CONTINUOUS
 62
    3
 10
1381.4983324124255
 20
660.37899860197535
 11
1381.4983324124255
 21
601.08424196729015
  0
LINE
  8
_0-1_計細線
  6
CONTINUOUS
 62
    3
 10
1399.9990297617856
 20
659.5668173329384
 11
1399.9990297617856
 21
601.95402918448235
  0
LINE
  8
_0-1_計細線
  6
CONTINUOUS
 62
    3
 10
1401.4990864117349
 20
667.27812839275521
 11
1401.4990864117349
 21
594.26192010738396
  0
ARC
  8
_0-1_計細線
  6
CONTINUOUS
 62
    3
 10
1199.0671326006081
 20
665.73293978342554
 40
5.0001874998283711
 50
3.0819879999939137
 51
89.999999999999915
  0
LINE
  8
_0-1_計細線
  6
CONTINUOUS
 62
    3
 10
1201.5008644102486
 20
660.73275228359648
 11
1199.6040661173697
 21
660.73275228359648
  0
ARC
  8
_0-1_計細線
  6
CONTINUOUS
 62
    3
 10
1201.5008644102486
 20
657.73263898370124
 40
3.0001132998966114
 50
3.0819879999915378
 51
89.999999999999915
  0
LINE
  8
_0-1_計細線
  6
CONTINUOUS
 62
    3
 10
1204.418957783962
 20
659.33664954009032
 11
1204.0600881069472
 21
666.00177554147376
  0
LINE
  8
_0-1_計細線
  6
CONTINUOUS
 62
    3
 10
1188.4910561190859
 20
670.73312928325117
 11
1173.56228955498
 21
674.73327968311469
  0
ARC
  8
_0-1_計細線
  6
CONTINUOUS
 62
    3
 10
1193.2309518531724
 20
667.73301598335524
 40
3.0001132998966114
 50
5.0000000000125944
 51
89.999999999999915
  0
LINE
  8
_0-1_計細線
  6
CONTINUOUS
 62
    3
 10
1271.456597355203
 20
670.73312928325117
 11
1188.4910561190859
 21
670.73312928325117
  0
LINE
  8
_0-1_計細線
  6
CONTINUOUS
 62
    3
 10
1167.9902825697932
 20
680.73350628290655
 11
1166.4902259198439
 21
674.73327968311332
  0
LINE
  8
_0-1_計細線
  6
CONTINUOUS
 62
    3
 10
1271.4568457066503
 20
674.73327968311469
 11
1166.4902259198439
 21
674.73327968311469
  0
LINE
  8
_0-1_計細線
  6
CONTINUOUS
 62
    3
 10
1196.6153688071968
 20
663.47138781882336
 11
1196.2196491633454
 21
667.99449174802771
  0
LINE
  8
_0-1_計細線
  6
CONTINUOUS
 62
    3
 10
1271.4572182338866
 20
680.73350628290655
 11
1167.9902825697932
 21
680.73350628290655
  0
ARC
  8
_0-1_計細線
  6
CONTINUOUS
 62
    3
 10
1199.6040661173697
 20
663.73286558349241
 40
3.0001132998966114
 50
185.00000000000358
 51
269.99999999999977
  0
LINE
  8
_0-1_計細線
  6
CONTINUOUS
 62
    3
 10
1199.0671326006081
 20
670.73312928325117
 11
1194.5454606701146
 21
670.73312928325117
  0
ARC
  8
_0-1_計細線
  6
CONTINUOUS
 62
    3
 10
1217.5891499307795
 20
600.73397428253202
 40
10.000376999654691
 50
183.08198800000125
 51
269.99999999999977
  0
LINE
  8
_0-1_計細線
  6
CONTINUOUS
 62
    3
 10
1207.6032389181069
 20
600.1963047664342
 11
1204.4966377140513
 21
657.89393883852949
  0
LINE
  8
_0-1_計細線
  6
CONTINUOUS
 62
    3
 10
1373.7060814254542
 20
595.7337847827057
 11
1271.4519409813051
 21
595.7337847827057
  0
LINE
  8
_0-1_計細線
  6
CONTINUOUS
 62
    3
 10
1374.2917128983877
 20
590.73359728287664
 11
1217.5891499307795
 21
590.73359728287664
  0
LINE
  8
_0-1_計細線
  6
CONTINUOUS
 62
    3
 10
1271.4575907609992
 20
686.73373088270182
 11
1206.3839540154636
 21
686.73373088270182
  0
LINE
  8
_0-1_計細線
  6
CONTINUOUS
 62
    3
 10
1205.3903829096776
 20
685.84724568053866
 11
1204.6116450348068
 21
680.73350628290655
  0
ARC
  8
_0-1_計細線
  6
CONTINUOUS
 62
    3
 10
1206.3839540154636
 20
685.73369378273492
 40
1.0000370999662209
 50
89.999999999999915
 51
173.48019800001288
  0
LINE
  8
_0-1_計細線
  6
CONTINUOUS
 62
    3
 10
1271.4604744467902
 20
729.23367668272476
 11
1269.4604720467919
 21
729.23367668272476
  0
LINE
  8
_0-1_計細線
  6
CONTINUOUS
 62
    3
 10
1269.4604720467919
 20
729.23367668272476
 11
1269.4604720467919
 21
739.2336646827307
  0
LINE
  8
_0-1_計細線
  6
CONTINUOUS
 62
    3
 10
1213.460518846779
 20
743.23366348272816
 11
1213.460518846779
 21
746.7336586827314
  0
LINE
  8
_0-1_計細線
  6
CONTINUOUS
 62
    3
 10
1245.9604948467836
 20
729.23367668272476
 11
1241.9604960467855
 21
729.23367668272476
  0
ARC
  8
_0-1_計細線
  6
CONTINUOUS
 62
    3
 10
1215.9605188467808
 20
716.90355454682913
 40
4.9999940000022889
 50
0
 51
60.000000000003901
  0
LINE
  8
_0-1_計細線
  6
CONTINUOUS
 62
    3
 10
1218.4605128467806
 20
729.23367668272476
 11
1214.5605159667825
 21
729.23367668272476
  0
LINE
  8
_0-1_計細線
  6
CONTINUOUS
 62
    3
 10
1214.5605159667825
 20
729.23367668272476
 11
1214.5605159667825
 21
743.23366348272816
  0
LINE
  8
_0-1_計細線
  6
CONTINUOUS
 62
    3
 10
1218.4605128467806
 20
721.23367908272712
 11
1218.4605128467806
 21
739.2336646827307
  0
LINE
  8
_0-1_計細線
  6
CONTINUOUS
 62
    3
 10
1245.9604948467836
 20
729.23367668272476
 11
1245.9604948467836
 21
739.2336646827307
  0
LINE
  8
_0-1_計細線
  6
CONTINUOUS
 62
    3
 10
1241.9604960467855
 20
729.23367668272476
 11
1241.9604960467855
 21
739.2336646827307
  0
LINE
  8
_0-1_計細線
  6
CONTINUOUS
 62
    3
 10
1220.9605128467806
 20
686.73373088270182
 11
1220.9605128467806
 21
716.90355454682913
  0
LINE
  8
_0-1_計細線
  6
CONTINUOUS
 62
    3
 10
1271.4604744467902
 20
716.90355454682913
 11
1220.9605128467806
 21
716.90355454682913
  0
LINE
  8
_0-1_計細線
  6
CONTINUOUS
 62
    3
 10
1271.4604744467902
 20
721.23367908272712
 11
1218.4605128467806
 21
721.23367908272712
  0
LINE
  8
_0-1_計細線
  6
CONTINUOUS
 62
    3
 10
1271.4604744467902
 20
739.2336646827307
 11
1214.5605159667825
 21
739.2336646827307
  0
LINE
  8
_0-1_計細線
  6
CONTINUOUS
 62
    3
 10
1213.460518846779
 20
743.23366348272816
 11
1271.4604744467902
 21
743.23366348272816
  0
ARC
  8
_0-1_計細線
  6
CONTINUOUS
 62
    3
 10
1325.4962208143584
 20
681.55333954505659
 40
1.0000370999662209
 50
281.30993200002189
 51
359.99999999999966
  0
LINE
  8
_0-1_計細線
  6
CONTINUOUS
 62
    3
 10
1326.4962579143244
 20
681.55333954505659
 11
1326.4962579143244
 21
681.73354338287277
  0
ARC
  8
_0-1_計細線
  6
CONTINUOUS
 62
    3
 10
1325.4962208143584
 20
675.91352062089641
 40
1.0000370999662209
 50
0
 51
78.690067999975241
  0
LINE
  8
_0-1_計細線
  6
CONTINUOUS
 62
    3
 10
1326.4962579143244
 20
675.91352062089641
 11
1326.4962579143244
 21
675.73331678307954
  0
LINE
  8
_0-1_計細線
  6
CONTINUOUS
 62
    3
 10
1325.6923446378473
 20
676.89413773834053
 11
1321.9604300467995
 21
677.64052049423117
  0
LINE
  8
_0-1_計細線
  6
CONTINUOUS
 62
    3
 10
1325.6923446378473
 20
680.57272242761314
 11
1321.9604300467995
 21
679.82633967172319
  0
ARC
  8
_0-1_計細線
  6
CONTINUOUS
 62
    3
 10
1330.4964083141872
 20
680.73350628290655
 40
1.0000370999662209
 50
0
 51
89.999999999999915
  0
ARC
  8
_0-1_計細線
  6
CONTINUOUS
 62
    3
 10
1330.4964083141872
 20
676.73335388304645
 40
1.0000370999662209
 50
269.99999999999977
 51
359.99999999999966
  0
LINE
  8
_0-1_計細線
  6
CONTINUOUS
 62
    3
 10
1331.4964474141466
 20
680.73350628290655
 11
1331.4964474141466
 21
676.73335388304645
  0
LINE
  8
_0-0_計極細
  6
CENTER1
 62
    2
 10
1346.4970119136337
 20
687.33027234581255
 11
1346.4970119136337
 21
672.72672748901368
  0
LINE
  8
_0-0_計極細
  6
CENTER1
 62
    2
 10
1321.9604300467995
 20
678.73343008297684
 11
1336.474584933821
 21
678.73343008297684
  0
LINE
  8
_0-0_計極細
  6
CENTER1
 62
    2
 10
1342.7311453029156
 20
678.17396658649523
 11
1329.891116858947
 21
665.33393814252804
  0
LINE
  8
_0-0_計極細
  6
CONTINUOUS
 62
    2
 10
1321.5381383846302
 20
743.94772291148183
 11
1328.3604269267994
 21
744.9194161341261
  0
LINE
  8
_0-0_計極細
  6
CONTINUOUS
 62
    2
 10
1321.4394324635991
 20
744.64072835707702
 11
1328.3604269267994
 21
745.62648035931466
  0
ARC
  8
_0-0_計極細
  6
CONTINUOUS
 62
    2
 10
1318.7016586538189
 20
743.14072955707593
 40
1.6999966400019275
 50
269.99999999999977
 51
356.64911200002257
  0
LINE
  8
_0-0_計極細
  6
CONTINUOUS
 62
    2
 10
1315.7604370067979
 20
739.14073075707643
 11
1315.7604370067979
 21
742.14072835707793
  0
ARC
  8
_0-0_計極細
  6
CONTINUOUS
 62
    2
 10
1317.5104376067952
 20
740.39072775707837
 40
1.7500005999988844
 50
89.999999999999915
 51
179.99999999999983
  0
ARC
  8
_0-0_計極細
  6
CONTINUOUS
 62
    2
 10
1317.5104376067952
 20
740.39072775707837
 40
1.049999160000425
 50
89.999999999999915
 51
179.99999999999983
  0
LINE
  8
_0-0_計極細
  6
CONTINUOUS
 62
    2
 10
1318.7016586538189
 20
741.44072691707879
 11
1317.5104376067952
 21
741.44072691707879
  0
LINE
  8
_0-0_計極細
  6
CONTINUOUS
 62
    2
 10
1315.7604370067979
 20
742.14072835707793
 11
1317.710435446797
 21
742.14072835707793
  0
ARC
  8
_0-0_計極細
  6
CONTINUOUS
 62
    2
 10
1318.7016586538189
 20
743.14072955707593
 40
1.0000011999986782
 50
269.99999999999977
 51
356.64911200000779
  0
LINE
  8
_0-0_計極細
  6
CONTINUOUS
 62
    2
 10
1318.7016586538189
 20
742.14072835707793
 11
1317.5104376067952
 21
742.14072835707793
  0
LINE
  8
_0-0_計極細
  6
CONTINUOUS
 62
    2
 10
1314.9604396467944
 20
737.74150787645613
 11
1314.9604396467944
 21
738.64073315707537
  0
LINE
  8
_0-0_計極細
  6
CONTINUOUS
 62
    2
 10
1314.9604396467944
 20
731.64151675645235
 11
1314.9604396467944
 21
733.14151555645276
  0
LINE
  8
_0-0_計極細
  6
CONTINUOUS
 62
    2
 10
1311.2104426467936
 20
736.04684523218702
 11
1311.2104426467936
 21
734.74684427218881
  0
LINE
  8
_0-0_計極細
  6
CONTINUOUS
 62
    2
 10
1311.2104426467936
 20
733.74684307219013
 11
1311.2104426467936
 21
733.24684547218772
  0
LINE
  8
_0-0_計極細
  6
CONTINUOUS
 62
    2
 10
1314.8104397667953
 20
736.04684523218702
 11
1314.8104397667953
 21
733.24684547218772
  0
LINE
  8
_0-0_計極細
  6
CONTINUOUS
 62
    2
 10
1310.7104390467971
 20
736.54684283218876
 11
1311.2104426467936
 21
737.04684043219049
  0
LINE
  8
_0-0_計極細
  6
CONTINUOUS
 62
    2
 10
1311.2104426467936
 20
736.04684523218702
 11
1310.7104390467971
 21
736.54684283218876
  0
LINE
  8
_0-0_計極細
  6
CONTINUOUS
 62
    2
 10
1311.2104426467936
 20
733.74684307219013
 11
1310.7104390467971
 21
734.24684667218708
  0
LINE
  8
_0-0_計極細
  6
CONTINUOUS
 62
    2
 10
1310.7104390467971
 20
734.24684667218708
 11
1311.2104426467936
 21
734.74684427218881
  0
LINE
  8
_0-0_計極細
  6
CONTINUOUS
 62
    2
 10
1311.2104426467936
 20
737.54684403218675
 11
1311.2104426467936
 21
737.04684043219049
  0
LINE
  8
_0-0_計極細
  6
CONTINUOUS
 62
    2
 10
1314.6604398867962
 20
738.64073315707537
 11
1314.6604398867962
 21
739.64072835707884
  0
LINE
  8
_0-0_計極細
  6
CONTINUOUS
 62
    2
 10
1314.8104397667953
 20
736.04684523218702
 11
1315.6104371267952
 21
737.54684403218675
  0
ARC
  8
_0-0_計極細
  6
CONTINUOUS
 62
    2
 10
1315.260439406798
 20
739.14073075707643
 40
0.4999976000017341
 50
269.99999999999977
 51
359.99999999999966
  0
LINE
  8
_0-0_計極細
  6
CONTINUOUS
 62
    2
 10
1311.7104402467953
 20
731.14073915707468
 11
1315.7604370067979
 21
731.14073915707468
  0
ARC
  8
_0-0_計極細
  6
CONTINUOUS
 62
    2
 10
1321.4394324635991
 20
742.89072775707746
 40
1.049999160000425
 50
89.999999999999915
 51
175.84901000000818
  0
ARC
  8
_0-0_計極細
  6
CONTINUOUS
 62
    2
 10
1321.4394324635991
 20
742.89072775707746
 40
1.7500005999988844
 50
89.999999999999915
 51
175.84901000000812
  0
ARC
  8
_0-0_計極細
  6
CONTINUOUS
 62
    2
 10
1326.9604300467977
 20
716.90355454682913
 40
4.9999940000022889
 50
119.99999999999609
 51
179.99999999999983
  0
LINE
  8
_0-0_計極細
  6
CONTINUOUS
 62
    2
 10
1324.4604300467995
 20
729.23367668272476
 11
1328.3604269267994
 21
729.23367668272476
  0
LINE
  8
_0-0_計極細
  6
CONTINUOUS
 62
    2
 10
1324.4604300467995
 20
721.23367908272712
 11
1324.4604300467995
 21
729.23367668272476
  0
LINE
  8
_0-0_計極細
  6
CONTINUOUS
 62
    2
 10
1328.1829950687438
 20
729.23367668272476
 11
1328.3604269267994
 21
729.41110854077897
  0
LINE
  8
_0-0_計極細
  6
CONTINUOUS
 62
    2
 10
1328.3604269267994
 20
729.23367668272476
 11
1328.3604269267994
 21
729.7889162385336
  0
LINE
  8
_0-0_計極細
  6
CONTINUOUS
 62
    2
 10
1319.4604360467943
 20
697.15526634546904
 11
1319.4604360467943
 21
723.43367932272668
  0
LINE
  8
_0-0_計極細
  6
CONTINUOUS
 62
    2
 10
1309.7104438467918
 20
718.23368148272561
 11
1298.3265089539505
 21
718.23368148272561
  0
ARC
  8
_0-0_計極細
  6
CONTINUOUS
 62
    2
 10
1309.7104438467918
 20
717.23368628272283
 40
1.0000011999986782
 50
89.999999999999915
 51
179.99999999999983
  0
ARC
  8
_0-0_計極細
  6
CONTINUOUS
 62
    2
 10
1309.7104438467918
 20
717.23368628272283
 40
1.0000011999986782
 50
0
 51
89.999999999999915
  0
ARC
  8
_0-0_計極細
  6
CONTINUOUS
 62
    2
 10
1318.4604348467979
 20
697.15526634546904
 40
1.0000011999986782
 50
277.18075599992113
 51
359.99999999999966
  0
LINE
  8
_0-0_計極細
  6
CONTINUOUS
 62
    2
 10
1310.7104390467971
 20
696.16311313919073
 11
1318.5854327467982
 21
696.16311313919073
  0
LINE
  8
_0-0_計極細
  6
CONTINUOUS
 62
    2
 10
1299.0176124010645
 20
727.14074035707517
 11
1308.9587524481462
 21
727.14074035707517
  0
LINE
  8
_0-0_計極細
  6
CONTINUOUS
 62
    2
 10
1301.2467606177447
 20
725.44074371707393
 11
1306.2467606177429
 21
725.44074371707393
  0
LINE
  8
_0-0_計極細
  6
CONTINUOUS
 62
    2
 10
1298.4604528467912
 20
724.23367668272795
 11
1319.960433646796
 21
724.23367668272795
  0
LINE
  8
_0-0_計極細
  6
CONTINUOUS
 62
    2
 10
1298.4604528467912
 20
723.13801755925579
 11
1298.4604528467912
 21
724.61576837705434
  0
LINE
  8
_0-0_計極細
  6
CONTINUOUS
 62
    2
 10
1301.2467606177447
 20
725.44074371707393
 11
1301.2467606177447
 21
727.14074035707517
  0
LINE
  8
_0-0_計極細
  6
CONTINUOUS
 62
    2
 10
1319.960433646796
 20
724.23367668272795
 11
1319.960433646796
 21
727.14074035707517
  0
ARC
  8
_0-0_計極細
  6
CONTINUOUS
 62
    2
 10
1305.9604468467928
 20
727.2415162764546
 40
2.9999976000001425
 50
0
 51
50.029503000027624
  0
LINE
  8
_0-0_計極細
  6
CONTINUOUS
 62
    2
 10
1302.7467594177465
 20
725.44074371707393
 11
1302.7467594177465
 21
727.14074035707517
  0
LINE
  8
_0-0_計極細
  6
CONTINUOUS
 62
    2
 10
1306.2467606177429
 20
725.44074371707393
 11
1306.2467606177429
 21
727.14074035707517
  0
LINE
  8
_0-0_計極細
  6
CONTINUOUS
 62
    2
 10
1313.9604384467943
 20
727.2415162764546
 11
1311.7104402467953
 21
727.2415162764546
  0
LINE
  8
_0-0_計極細
  6
CONTINUOUS
 62
    2
 10
1313.9604384467943
 20
726.24152107645114
 11
1313.9604384467943
 21
727.2415162764546
  0
ARC
  8
_0-0_計極細
  6
CONTINUOUS
 62
    2
 10
1311.9604420467945
 20
726.24152107645114
 40
1.9999964000021464
 50
269.99999999999977
 51
359.99999999999966
  0
LINE
  8
_0-0_計極細
  6
CONTINUOUS
 62
    2
 10
1311.9604420467945
 20
724.24151867645378
 11
1308.9604444467927
 21
724.24151867645378
  0
LINE
  8
_0-0_計極細
  6
CONTINUOUS
 62
    2
 10
1308.9604444467927
 20
724.24151867645378
 11
1308.9604444467927
 21
727.2415162764546
  0
LINE
  8
_0-0_計極細
  6
CONTINUOUS
 62
    2
 10
1313.6302527109451
 20
725.14074395707235
 11
1314.4604360467961
 21
725.14074395707235
  0
LINE
  8
_0-0_計極細
  6
CONTINUOUS
 62
    2
 10
1314.4604360467961
 20
727.14074035707517
 11
1319.960433646796
 21
727.14074035707517
  0
LINE
  8
_0-0_計極細
  6
CONTINUOUS
 62
    2
 10
1314.4604360467961
 20
729.8407381970751
 11
1315.7604370067979
 21
729.8407381970751
  0
LINE
  8
_0-0_計極細
  6
CONTINUOUS
 62
    2
 10
1314.4604360467961
 20
729.14073675707732
 11
1316.4604384467962
 21
729.14073675707732
  0
LINE
  8
_0-0_計極細
  6
CONTINUOUS
 62
    2
 10
1298.3633309244919
 20
723.43367932272668
 11
1321.4394324635991
 21
723.43367932272668
  0
LINE
  8
_0-0_計極細
  6
CONTINUOUS
 62
    2
 10
1321.4394324635991
 20
728.61973917387468
 11
1319.960433646796
 21
727.14074035707517
  0
LINE
  8
_0-0_計極細
  6
CONTINUOUS
 62
    2
 10
1321.4394324635991
 20
723.43367932272668
 11
1319.960433646796
 21
724.23367668272795
  0
ARC
  8
_0-0_計極細
  6
CONTINUOUS
 62
    2
 10
1304.460448046791
 20
724.61576837705434
 40
5.9999952000009671
 50
55.166293999990295
 51
179.99999999999983
  0
LINE
  8
_0-0_計極細
  6
CONTINUOUS
 62
    2
 10
1316.4604384467962
 20
729.14073675707732
 11
1316.4604384467962
 21
740.39072775707837
  0
LINE
  8
_0-0_計極細
  6
CONTINUOUS
 62
    2
 10
1315.7604370067979
 20
729.8407381970751
 11
1315.7604370067979
 21
740.39072775707837
  0
LINE
  8
_0-0_計極細
  6
CONTINUOUS
 62
    2
 10
1321.4394324635991
 20
728.61973917387468
 11
1321.4394324635991
 21
743.93366492272798
  0
LINE
  8
_0-0_計極細
  6
CONTINUOUS
 62
    2
 10
1311.7104402467953
 20
727.2415162764546
 11
1311.7104402467953
 21
731.64151675645235
  0
LINE
  8
_0-0_計極細
  6
CONTINUOUS
 62
    2
 10
1312.2104378467989
 20
727.2415162764546
 11
1312.2104378467989
 21
731.14073915707468
  0
LINE
  8
_0-0_計極細
  6
CONTINUOUS
 62
    2
 10
1314.4604360467961
 20
725.14074395707235
 11
1314.4604360467961
 21
731.14073915707468
  0
LINE
  8
_0-0_計極細
  6
CONTINUOUS
 62
    2
 10
1271.4604744467902
 20
723.43367932272668
 11
1296.4604444468
 21
723.43367932272668
  0
LINE
  8
_0-0_計極細
  6
CONTINUOUS
 62
    2
 10
1314.9604396467944
 20
737.74150787645613
 11
1271.4604744467902
 21
737.74150787645613
  0
LINE
  8
_0-0_計極細
  6
CONTINUOUS
 62
    2
 10
1314.9604396467944
 20
733.14151555645276
 11
1271.4604744467902
 21
733.14151555645276
  0
LINE
  8
_0-0_計極細
  6
CONTINUOUS
 62
    2
 10
1314.9604396467944
 20
731.64151675645235
 11
1271.4604744467902
 21
731.64151675645235
  0
LINE
  8
_0-0_計極細
  6
CONTINUOUS
 62
    2
 10
1271.4604744467902
 20
733.24684547218772
 11
1314.8104397667953
 21
733.24684547218772
  0
LINE
  8
_0-0_計極細
  6
CONTINUOUS
 62
    2
 10
1271.4604744467902
 20
734.24684667218708
 11
1310.7104390467971
 21
734.24684667218708
  0
LINE
  8
_0-0_計極細
  6
CONTINUOUS
 62
    2
 10
1271.4604744467902
 20
736.54684283218876
 11
1310.7104390467971
 21
736.54684283218876
  0
LINE
  8
_0-0_計極細
  6
CONTINUOUS
 62
    2
 10
1271.6604722867937
 20
738.64073315707537
 11
1315.260439406798
 21
738.64073315707537
  0
LINE
  8
_0-0_計極細
  6
CONTINUOUS
 62
    2
 10
1271.6604722867937
 20
739.64072835707884
 11
1314.6604398867962
 21
739.64072835707884
  0
LINE
  8
_0-0_計極細
  6
CONTINUOUS
 62
    2
 10
1271.4604744467902
 20
737.54684403218675
 11
1315.6104371267952
 21
737.54684403218675
  0
LINE
  8
_0-0_計極細
  6
CONTINUOUS
 62
    2
 10
1271.4604744467902
 20
744.64072835707702
 11
1321.4394324635991
 21
744.64072835707702
  0
LINE
  8
_0-0_計極細
  6
CONTINUOUS
 62
    2
 10
1310.7104390467971
 20
660.23373188271398
 11
1310.7104390467971
 21
687.23371028271868
  0
LINE
  8
_0-0_計極細
  6
CONTINUOUS
 62
    2
 10
1298.4519868535676
 20
668.31178942026418
 11
1298.4519988535553
 21
668.3118014202546
  0
ARC
  8
_0-0_計極細
  6
CONTINUOUS
 62
    2
 10
1297.4604516467966
 20
668.44156331644581
 40
1.0000011999986782
 50
269.99999999999977
 51
359.99999999999966
  0
ARC
  8
_0-0_計極細
  6
CONTINUOUS
 62
    2
 10
1311.4604384467962
 20
646.23373908271469
 40
7.9999916000031135
 50
269.99999999999977
 51
359.99999999999966
  0
LINE
  8
_0-0_計極細
  6
CONTINUOUS
 62
    2
 10
1299.4604480467947
 20
635.73374748271453
 11
1309.4604420467945
 21
635.73374748271453
  0
LINE
  8
_0-0_計極細
  6
CONTINUOUS
 62
    2
 10
1312.9604372467979
 20
635.73374748271453
 11
1313.9604384467943
 21
635.73374748271453
  0
ARC
  8
_0-0_計極細
  6
CONTINUOUS
 62
    2
 10
1313.9604384467943
 20
643.73374508271218
 40
7.9999916000031135
 50
269.99999999999977
 51
359.99999999999966
  0
ARC
  8
_0-0_計極細
  6
CONTINUOUS
 62
    2
 10
1298.7104486467938
 20
660.23373188271398
 40
9.9999939999997878
 50
269.99999999999977
 51
359.99999999999966
  0
ARC
  8
_0-0_計極細
  6
CONTINUOUS
 62
    2
 10
1298.7104486467938
 20
660.23373188271398
 40
11.999990400001934
 50
269.99999999999977
 51
359.99999999999966
  0
LINE
  8
_0-0_計極細
  6
CONTINUOUS
 62
    2
 10
1296.4604504467948
 20
638.23374748271226
 11
1296.4604504467948
 21
648.23374148271205
  0
LINE
  8
_0-0_計極細
  6
CONTINUOUS
 62
    2
 10
1296.4604504467948
 20
638.23374748271226
 11
1271.4604744467902
 21
638.23374748271226
  0
LINE
  8
_0-0_計極細
  6
CONTINUOUS
 62
    2
 10
1311.4604384467962
 20
638.23374748271226
 11
1296.4604504467948
 21
638.23374748271226
  0
LINE
  8
_0-0_計極細
  6
CONTINUOUS
 62
    2
 10
1297.4604516467966
 20
667.44156811644166
 11
1271.4604744467902
 21
667.44156811644166
  0
LINE
  8
_0-0_計極細
  6
CONTINUOUS
 62
    2
 10
1271.4604744467902
 20
650.23373788271419
 11
1298.7104486467938
 21
650.23373788271419
  0
ARC
  8
_0-0_計極細
  6
CONTINUOUS
 62
    2
 10
1297.4604396468035
 20
668.44156331644581
 40
1.0000011999986782
 50
179.99999999999983
 51
269.99999999999977
  0
LINE
  8
_0-0_計極細
  6
CONTINUOUS
 62
    2
 10
1298.7104486467938
 20
648.23374148271205
 11
1296.4604504467948
 21
648.23374148271205
  0
LINE
  8
_0-0_計極細
  6
CONTINUOUS
 62
    2
 10
1296.4604444468
 20
668.44156331644581
 11
1296.4604444468
 21
723.13801755925579
  0
LINE
  8
_0-0_計極細
  6
CONTINUOUS
 62
    2
 10
1298.4604528467912
 20
668.44156331644581
 11
1298.4604528467912
 21
723.13801755925579
  0
LINE
  8
_0-0_計極細
  6
CONTINUOUS
 62
    2
 10
1319.4604360467943
 20
646.23373908271469
 11
1319.4604360467943
 21
697.15526634546904
  0
LINE
  8
_0-0_計極細
  6
CONTINUOUS
 62
    2
 10
1308.7104426467936
 20
660.23373188271398
 11
1308.7104426467936
 21
717.23368628272283
  0
LINE
  8
_0-0_計極細
  6
CONTINUOUS
 62
    2
 10
1310.7104390467971
 20
660.23373188271398
 11
1310.7104390467971
 21
717.23368628272283
  0
LINE
  8
_0-0_計極細
  6
CONTINUOUS
 62
    2
 10
1321.9604300467995
 20
643.73374508271218
 11
1321.9604300467995
 21
716.90355454682913
  0
LINE
  8
_0-0_計極細
  6
CONTINUOUS
 62
    2
 10
1299.0437843801278
 20
610.73377148270583
 11
1312.5604415667981
 21
610.73377148270583
  0
LINE
  8
_0-0_計極細
  6
CONTINUOUS
 62
    2
 10
1271.4604744467902
 20
605.73377148270902
 11
1296.0168528016761
 21
605.73377148270902
  0
LINE
  8
_0-0_計極細
  6
CONTINUOUS
 62
    2
 10
1296.0168528016761
 20
605.73377148270902
 11
1298.9604504467929
 21
605.73377148270902
  0
LINE
  8
_0-0_計極細
  6
CONTINUOUS
 62
    2
 10
1298.9604504467929
 20
605.73377148270902
 11
1299.4604480467947
 21
635.73374748271453
  0
LINE
  8
_0-0_計極細
  6
CONTINUOUS
 62
    2
 10
1296.9604540467931
 20
605.73377148270902
 11
1296.4604504467948
 21
638.23374748271226
  0
LINE
  8
_0-0_計極細
  6
CONTINUOUS
 62
    2
 10
1309.7104438467918
 20
610.73377148270583
 11
1309.4604420467945
 21
635.73374748271453
  0
LINE
  8
_0-0_計極細
  6
CONTINUOUS
 62
    2
 10
1312.5604415667981
 20
610.73377148270583
 11
1312.9604372467979
 21
635.73374748271453
  0
LINE
  8
_0-0_計極細
  6
CONTINUOUS
 62
    2
 10
1271.4604744467902
 20
745.64072355707913
 11
1328.3604269267994
 21
745.64072355707913
  0
LINE
  8
_0-0_計極細
  6
CONTINUOUS
 62
    2
 10
1328.3604269267994
 20
729.7889162385336
 11
1328.3604269267994
 21
745.64072355707913
  0
LINE
  8
_0-0_計極細
  6
CENTER1
 62
    2
 10
1248.0571780140776
 20
630.23359728287642
 11
1421.6820669029653
 21
630.23359728287642
  0
LINE
  8
_0-5_寸法線
  6
CONTINUOUS
 62
    7
 10
1343.2766462141421
 20
595.73378478270558
 11
1373.950572193296
 21
595.73378478270547
  0
LINE
  8
_0-5_寸法線
  6
CONTINUOUS
 62
    7
 10
1365.950572193296
 20
595.73378478270547
 11
1370.0916769149362
 21
580.27897156208041
  0
LINE
  8
_0-5_寸法線
  6
CONTINUOUS
 62
    7
 10
1365.950572193296
 20
595.73378478270547
 11
1361.8094674716556
 21
580.27897156208041
  0
LINE
  8
_0-5_寸法線
  6
CONTINUOUS
 62
    7
 10
1343.2766462141421
 20
605.7337714827089
 11
1373.950572193296
 21
605.73377148270879
  0
LINE
  8
_0-5_寸法線
  6
CONTINUOUS
 62
    7
 10
1365.950572193296
 20
605.73377148270879
 11
1361.8094674716558
 21
621.18858470333385
  0
LINE
  8
_0-5_寸法線
  6
CONTINUOUS
 62
    7
 10
1365.950572193296
 20
605.73377148270879
 11
1370.0916769149364
 21
621.18858470333385
  0
LINE
  8
_0-5_寸法線
  6
CONTINUOUS
 62
    7
 10
1365.950572193296
 20
555.73378478270547
 11
1365.950572193296
 21
645.73377148270879
  0
TEXT
  8
_0-5_寸法線
 62
    7
 10
1365.950572193296
 20
612.54109113303412
 40
24
 41
1
 50
90
  1
10
  0
LINE
  8
_0-0_計極細
  6
CONTINUOUS
 62
    2
 10
1271.4604744467902
 20
648.23374148271205
 11
1298.7104486467938
 21
648.23374148271205
  0
LINE
  8
_0-1_計細線
  6
CONTINUOUS
 62
    3
 10
1328.4604744467902
 20
742.73365868273117
 11
1328.3604269267994
 21
742.73365868273117
  0
LINE
  8
_0-5_寸法線
  6
CONTINUOUS
 62
    7
 10
1417.4990864117349
 20
590.73359728287664
 11
1601.4990864117351
 21
590.73359728287596
  0
LINE
  8
_0-5_寸法線
  6
CONTINUOUS
 62
    7
 10
1593.4990864117351
 20
590.73359728287596
 11
1589.3579816900949
 21
606.18841050350102
  0
LINE
  8
_0-5_寸法線
  6
CONTINUOUS
 62
    7
 10
1593.4990864117351
 20
590.73359728287596
 11
1597.6401911333755
 21
606.18841050350102
  0
LINE
  8
_0-5_寸法線
  6
CONTINUOUS
 62
    7
 10
1417.4990864117349
 20
670.73312928325117
 11
1601.4990864117351
 21
670.73312928325049
  0
LINE
  8
_0-5_寸法線
  6
CONTINUOUS
 62
    7
 10
1593.4990864117351
 20
670.73312928325049
 11
1597.6401911333755
 21
655.27831606262544
  0
LINE
  8
_0-5_寸法線
  6
CONTINUOUS
 62
    7
 10
1593.4990864117351
 20
670.73312928325049
 11
1589.3579816900949
 21
655.27831606262544
  0
LINE
  8
_0-5_寸法線
  6
CONTINUOUS
 62
    7
 10
1593.4990864117351
 20
590.73359728287596
 11
1593.4990864117351
 21
670.73312928325049
  0
TEXT
  8
_0-5_寸法線
 62
    7
 10
1593.4990864117351
 20
618.73336328306323
 40
24
 41
1
 50
90
  1
80
  0
LINE
  8
_0-5_寸法線
  6
CONTINUOUS
 62
    7
 10
1150.4902259198457
 20
590.73359728287664
 11
1022.4902259198439
 21
590.7335972828771
  0
LINE
  8
_0-5_寸法線
  6
CONTINUOUS
 62
    7
 10
1030.4902259198439
 20
590.7335972828771
 11
1026.3491211982036
 21
606.18841050350215
  0
LINE
  8
_0-5_寸法線
  6
CONTINUOUS
 62
    7
 10
1030.4902259198439
 20
590.7335972828771
 11
1034.6313306414843
 21
606.18841050350215
  0
LINE
  8
_0-5_寸法線
  6
CONTINUOUS
 62
    7
 10
1150.4902259198457
 20
846.73395764251177
 11
1022.4902259198439
 21
846.73395764251222
  0
LINE
  8
_0-5_寸法線
  6
CONTINUOUS
 62
    7
 10
1030.4902259198439
 20
846.73395764251222
 11
1034.6313306414843
 21
831.27914442188717
  0
LINE
  8
_0-5_寸法線
  6
CONTINUOUS
 62
    7
 10
1030.4902259198439
 20
846.73395764251222
 11
1026.3491211982036
 21
831.27914442188717
  0
LINE
  8
_0-5_寸法線
  6
CONTINUOUS
 62
    7
 10
1030.4902259198439
 20
590.7335972828771
 11
1030.4902259198439
 21
846.73395764251222
  0
TEXT
  8
_0-5_寸法線
 62
    7
 10
1030.4902259198436
 20
640.73377746269466
 40
24
 41
1
 50
89.999999999999844
  1
256(216)～282
  0
LINE
  8
_0-5_寸法線
  6
CONTINUOUS
 62
    7
 10
1150.4902259198457
 20
590.73359728287676
 11
1078.4902259198439
 21
590.73359728287699
  0
LINE
  8
_0-5_寸法線
  6
CONTINUOUS
 62
    7
 10
1086.4902259198439
 20
590.73359728287699
 11
1082.3491211982036
 21
606.18841050350204
  0
LINE
  8
_0-5_寸法線
  6
CONTINUOUS
 62
    7
 10
1086.4902259198439
 20
590.73359728287699
 11
1090.6313306414843
 21
606.18841050350204
  0
LINE
  8
_0-5_寸法線
  6
CONTINUOUS
 62
    7
 10
1150.4902259198457
 20
680.73350628290689
 11
1078.4902259198439
 21
680.73350628290711
  0
LINE
  8
_0-5_寸法線
  6
CONTINUOUS
 62
    7
 10
1086.4902259198439
 20
680.73350628290711
 11
1090.6313306414841
 21
665.27869306228195
  0
LINE
  8
_0-5_寸法線
  6
CONTINUOUS
 62
    7
 10
1086.4902259198439
 20
680.73350628290711
 11
1082.3491211982034
 21
665.27869306228206
  0
LINE
  8
_0-5_寸法線
  6
CONTINUOUS
 62
    7
 10
1086.4902259198439
 20
590.73359728287699
 11
1086.4902259198439
 21
680.73350628290711
  0
TEXT
  8
_0-5_寸法線
 62
    7
 10
1086.4902259198439
 20
623.73355178289205
 40
24
 41
1
 50
90
  1
90
  0
LINE
  8
_0-5_寸法線
  6
CONTINUOUS
 62
    7
 10
1086.4902259198439
 20
680.73350628290711
 11
1082.3491211982036
 21
696.18831950353217
  0
LINE
  8
_0-5_寸法線
  6
CONTINUOUS
 62
    7
 10
1086.4902259198439
 20
680.73350628290711
 11
1090.6313306414843
 21
696.18831950353217
  0
LINE
  8
_0-5_寸法線
  6
CONTINUOUS
 62
    7
 10
1150.4902259198457
 20
846.73395764251188
 11
1078.4902259198439
 21
846.73395764251211
  0
LINE
  8
_0-5_寸法線
  6
CONTINUOUS
 62
    7
 10
1086.4902259198439
 20
846.73395764251211
 11
1090.6313306414841
 21
831.27914442188694
  0
LINE
  8
_0-5_寸法線
  6
CONTINUOUS
 62
    7
 10
1086.4902259198439
 20
846.73395764251211
 11
1082.3491211982034
 21
831.27914442188705
  0
LINE
  8
_0-5_寸法線
  6
CONTINUOUS
 62
    7
 10
1086.4902259198439
 20
680.73350628290711
 11
1086.4902259198439
 21
846.73395764251211
  0
TEXT
  8
_0-5_寸法線
 62
    7
 10
1086.4902259198436
 20
685.73373196270961
 40
24
 41
1
 50
89.999999999999844
  1
166(126)～192
  0
LINE
  8
_0-5_寸法線
  6
CONTINUOUS
 62
    7
 10
1271.4604744467899
 20
574.73359728287664
 11
1271.4604744467895
 21
502.73359728287664
  0
LINE
  8
_0-5_寸法線
  6
CONTINUOUS
 62
    7
 10
1271.4604744467895
 20
510.73359728287664
 11
1286.9152876674145
 21
514.87470200451696
  0
LINE
  8
_0-5_寸法線
  6
CONTINUOUS
 62
    7
 10
1271.4604744467895
 20
510.73359728287664
 11
1286.9152876674145
 21
506.59249256123633
  0
LINE
  8
_0-5_寸法線
  6
CONTINUOUS
 62
    7
 10
1401.4990864117347
 20
578.26192010738396
 11
1401.4990864117342
 21
502.73359728287664
  0
LINE
  8
_0-5_寸法線
  6
CONTINUOUS
 62
    7
 10
1401.4990864117342
 20
510.73359728287664
 11
1386.0442731911091
 21
506.59249256123638
  0
LINE
  8
_0-5_寸法線
  6
CONTINUOUS
 62
    7
 10
1401.4990864117342
 20
510.73359728287664
 11
1386.0442731911091
 21
514.87470200451708
  0
LINE
  8
_0-5_寸法線
  6
CONTINUOUS
 62
    7
 10
1271.4604744467895
 20
510.73359728287664
 11
1401.4990864117342
 21
510.73359728287664
  0
TEXT
  8
_0-5_寸法線
 62
    7
 10
1318.4797804292618
 20
510.73359728287664
 40
24
 41
1
 50
0
  1
130
  0
LINE
  8
_0-5_寸法線
  6
CONTINUOUS
 62
    7
 10
1166.2600885460065
 20
696.73350628290655
 11
1166.260088546007
 21
990.73365868273117
  0
LINE
  8
_0-5_寸法線
  6
CONTINUOUS
 62
    7
 10
1166.260088546007
 20
982.73365868273117
 11
1181.714901766632
 21
986.87476340437149
  0
LINE
  8
_0-5_寸法線
  6
CONTINUOUS
 62
    7
 10
1166.260088546007
 20
982.73365868273117
 11
1181.714901766632
 21
978.59255396109086
  0
LINE
  8
_0-5_寸法線
  6
CONTINUOUS
 62
    7
 10
1376.2600885460065
 20
696.73350628290655
 11
1376.260088546007
 21
990.73365868273117
  0
LINE
  8
_0-5_寸法線
  6
CONTINUOUS
 62
    7
 10
1376.260088546007
 20
982.73365868273117
 11
1360.8052753253819
 21
978.59255396109086
  0
LINE
  8
_0-5_寸法線
  6
CONTINUOUS
 62
    7
 10
1376.260088546007
 20
982.73365868273117
 11
1360.8052753253819
 21
986.87476340437161
  0
LINE
  8
_0-5_寸法線
  6
CONTINUOUS
 62
    7
 10
1166.260088546007
 20
982.73365868273117
 11
1376.260088546007
 21
982.73365868273117
  0
TEXT
  8
_0-5_寸法線
 62
    7
 10
1241.260088546007
 20
982.73365868273117
 40
24
 41
1
 50
0
  1
φ210
  0
LINE
  8
_0-1_計細線
  6
CONTINUOUS
 62
    3
 10
1328.4604744467902
 20
743.73365868273117
 11
1328.3604269267994
 21
743.73365868273117
  0
LINE
  8
_0-5_寸法線
  6
CONTINUOUS
 62
    7
 10
1235.5075617970338
 20
701.14725909352205
 11
1235.5075617970338
 21
685.14725909352205
  0
LINE
  8
_0-5_寸法線
  6
CONTINUOUS
 62
    7
 10
1235.5075617970338
 20
701.14725909352205
 11
1227.5075617970338
 21
687.29085263297111
  0
LINE
  8
_0-5_寸法線
  6
CONTINUOUS
 62
    7
 10
1235.5075617970338
 20
701.14725909352205
 11
1183.7848812988993
 21
508.11558757083435
  0
LINE
  8
_0-5_寸法線
  6
CONTINUOUS
 62
    7
 10
1183.7848812988993
 20
508.11558757083435
 11
971.5083915302273
 21
508.11558757083435
  0
TEXT
  8
_0-5_寸法線
 62
    7
 10
971.50839153022719
 20
511.30136534861208
 40
24
 41
0.7999999999999998
 50
0
  1
縦引き排水トラップ一式
  0
LINE
  8
_0-5_寸法線
  6
CONTINUOUS
 62
    7
 10
1244.353718175636
 20
598.97386754764966
 11
1244.353718175636
 21
582.97386754764966
  0
LINE
  8
_0-5_寸法線
  6
CONTINUOUS
 62
    7
 10
1244.353718175636
 20
598.97386754764966
 11
1236.353718175636
 21
585.11746108709872
  0
LINE
  8
_0-5_寸法線
  6
CONTINUOUS
 62
    7
 10
1244.353718175636
 20
598.97386754764966
 11
1209.6410945269813
 21
469.4245924268555
  0
LINE
  8
_0-5_寸法線
  6
CONTINUOUS
 62
    7
 10
1209.6410945269813
 20
469.4245924268555
 11
1075.2410945269814
 21
469.4245924268555
  0
TEXT
  8
_0-5_寸法線
 62
    7
 10
1075.2410945269814
 20
469.4245924268555
 40
24
 41
0.7999999999999998
 50
0
  1
防水マス横引き
  0
TEXT
  8
_0-5_寸法線
 62
    7
 10
908.60870498968336
 20
560.7976595073261
 40
24
 41
0.7999999999999999
 50
0
  1
※（　）内はトラップ切断時
  0
LINE
  8
_0-5_寸法線
  6
CONTINUOUS
 62
    7
 10
1417.4983335053125
 20
600.92532366384626
 11
1489.4990864117349
 21
600.92532366384603
  0
LINE
  8
_0-5_寸法線
  6
CONTINUOUS
 62
    7
 10
1481.4990864117349
 20
600.92532366384603
 11
1477.3579816900947
 21
616.38013688447109
  0
LINE
  8
_0-5_寸法線
  6
CONTINUOUS
 62
    7
 10
1481.4990864117349
 20
600.92532366384603
 11
1485.6401911333753
 21
616.38013688447109
  0
LINE
  8
_0-5_寸法線
  6
CONTINUOUS
 62
    7
 10
1417.4983335053125
 20
660.53831732052208
 11
1489.4990864117349
 21
660.53831732052186
  0
LINE
  8
_0-5_寸法線
  6
CONTINUOUS
 62
    7
 10
1481.4990864117349
 20
660.53831732052186
 11
1485.6401911333753
 21
645.0835040998968
  0
LINE
  8
_0-5_寸法線
  6
CONTINUOUS
 62
    7
 10
1481.4990864117349
 20
660.53831732052186
 11
1477.3579816900947
 21
645.0835040998968
  0
LINE
  8
_0-5_寸法線
  6
CONTINUOUS
 62
    7
 10
1481.4990864117349
 20
600.92532366384603
 11
1481.4990864117349
 21
660.53831732052186
  0
TEXT
  8
_0-5_寸法線
 62
    7
 10
1481.4990864117349
 20
576.73182049218394
 40
24
 41
1
 50
90
  1
Rc2・59.6
  0
LINE
  8
_1-3_細線3
  6
CONTINUOUS
 62
    4
 10
366.13348945838038
 20
406.52019457545248
 11
362.93348945837874
 21
406.52019457545248
  0
LINE
  8
_1-3_細線3
  6
CONTINUOUS
 62
    4
 10
330.93348945837874
 20
406.52019457545248
 11
334.13348945837811
 21
406.52019457545248
  0
LINE
  8
_1-3_細線3
  6
CONTINUOUS
 62
    4
 10
618.93348945837602
 20
406.52019457545248
 11
622.13348945837629
 21
406.52019457545248
  0
LINE
  8
_1-3_細線3
  6
CONTINUOUS
 62
    4
 10
586.93348945837602
 20
406.52019457545248
 11
590.13348945837811
 21
406.52019457545248
  0
LINE
  8
_1-3_細線3
  6
CONTINUOUS
 62
    4
 10
367.23927821009215
 20
406.52019457545248
 11
367.23927821009215
 21
403.85352790878551
  0
LINE
  8
_1-3_細線3
  6
CONTINUOUS
 62
    4
 10
321.90594487676094
 20
406.52019457545248
 11
321.90594487676094
 21
403.85352790878551
  0
LINE
  8
_1-3_細線3
  6
CONTINUOUS
 62
    4
 10
321.90594487676094
 20
406.52019457545248
 11
367.23927821009215
 21
406.52019457545248
  0
LINE
  8
_1-3_細線3
  6
CONTINUOUS
 62
    4
 10
585.82770070666243
 20
406.52019457545248
 11
585.82770070666243
 21
403.85352790878551
  0
LINE
  8
_1-3_細線3
  6
CONTINUOUS
 62
    4
 10
631.16103403999546
 20
406.52019457545248
 11
631.16103403999546
 21
403.85352790878551
  0
LINE
  8
_1-3_細線3
  6
CONTINUOUS
 62
    4
 10
631.16103403999546
 20
406.52019457545248
 11
585.82770070666243
 21
406.52019457545248
  0
LINE
  8
_1-3_細線3
  6
CONTINUOUS
 62
    4
 10
583.20015612504608
 20
402.52019457545248
 11
584.53348945837956
 21
403.85352790878551
  0
LINE
  8
_1-3_細線3
  6
CONTINUOUS
 62
    4
 10
583.20015612504608
 20
399.85352790878551
 11
583.20015612504608
 21
402.52019457545248
  0
LINE
  8
_1-3_細線3
  6
CONTINUOUS
 62
    4
 10
584.53348945837956
 20
398.52019457545248
 11
583.20015612504608
 21
399.85352790878551
  0
LINE
  8
_1-3_細線3
  6
CONTINUOUS
 62
    4
 10
631.2001561250438
 20
398.52019457545248
 11
584.53348945837956
 21
398.52019457545248
  0
LINE
  8
_1-3_細線3
  6
CONTINUOUS
 62
    4
 10
635.20015612504608
 20
350.52019457545248
 11
636.53348945837956
 21
351.85352790878551
  0
LINE
  8
_1-3_細線3
  6
CONTINUOUS
 62
    4
 10
632.53348945837956
 20
350.52019457545248
 11
635.20015612504608
 21
350.52019457545248
  0
LINE
  8
_1-3_細線3
  6
CONTINUOUS
 62
    4
 10
631.2001561250438
 20
351.85352790878551
 11
632.53348945837956
 21
350.52019457545248
  0
LINE
  8
_1-3_細線3
  6
CONTINUOUS
 62
    4
 10
631.2001561250438
 20
398.52019457545248
 11
631.2001561250438
 21
351.85352790878551
  0
LINE
  8
_1-3_細線3
  6
CONTINUOUS
 62
    4
 10
631.2001561250438
 20
403.85352790878551
 11
584.53348945837956
 21
403.85352790878551
  0
LINE
  8
_1-3_細線3
  6
CONTINUOUS
 62
    4
 10
636.53348945837956
 20
398.52019457545248
 11
636.53348945837956
 21
351.85352790878551
  0
ARC
  8
_1-3_細線3
  6
CONTINUOUS
 62
    4
 10
631.2001561250438
 20
398.52019457545248
 40
5.3333333333333321
 50
0
 51
89.999999999999915
  0
LINE
  8
_1-3_細線3
  6
CONTINUOUS
 62
    4
 10
369.86682279171032
 20
402.52019457545248
 11
368.53348945837729
 21
403.85352790878551
  0
LINE
  8
_1-3_細線3
  6
CONTINUOUS
 62
    4
 10
369.86682279171032
 20
399.85352790878551
 11
369.86682279171032
 21
402.52019457545248
  0
LINE
  8
_1-3_細線3
  6
CONTINUOUS
 62
    4
 10
368.53348945837729
 20
398.52019457545248
 11
369.86682279171032
 21
399.85352790878551
  0
LINE
  8
_1-3_細線3
  6
CONTINUOUS
 62
    4
 10
321.86682279171032
 20
398.52019457545248
 11
368.53348945837729
 21
398.52019457545248
  0
LINE
  8
_1-3_細線3
  6
CONTINUOUS
 62
    4
 10
317.86682279171032
 20
350.52019457545248
 11
316.53348945837729
 21
351.85352790878551
  0
LINE
  8
_1-3_細線3
  6
CONTINUOUS
 62
    4
 10
320.53348945837729
 20
350.52019457545248
 11
317.86682279171032
 21
350.52019457545248
  0
LINE
  8
_1-3_細線3
  6
CONTINUOUS
 62
    4
 10
321.86682279171032
 20
351.85352790878551
 11
320.53348945837729
 21
350.52019457545248
  0
LINE
  8
_1-3_細線3
  6
CONTINUOUS
 62
    4
 10
321.86682279171032
 20
398.52019457545248
 11
321.86682279171032
 21
351.85352790878551
  0
LINE
  8
_1-3_細線3
  6
CONTINUOUS
 62
    4
 10
316.53348945837729
 20
398.52019457545248
 11
316.53348945837729
 21
351.85352790878551
  0
LINE
  8
_1-3_細線3
  6
CONTINUOUS
 62
    4
 10
321.86682279171032
 20
403.85352790878551
 11
368.53348945837729
 21
403.85352790878551
  0
ARC
  8
_1-3_細線3
  6
CONTINUOUS
 62
    4
 10
321.86682279171032
 20
398.52019457545248
 40
5.3333333333333321
 50
89.999999999999915
 51
179.99999999999983
  0
LINE
  8
_1-3_細線3
  6
CONTINUOUS
 62
    4
 10
584.53348945837956
 20
398.52019457545248
 11
592.80015612793818
 21
398.52019457545248
  0
LINE
  8
_1-3_細線3
  6
CONTINUOUS
 62
    4
 10
368.53348945837729
 20
398.52019457545248
 11
360.26682278881867
 21
398.52019457545248
  0
LINE
  8
_1-3_細線3
  6
CONTINUOUS
 62
    4
 10
349.60015612118673
 20
398.52019457545248
 11
340.5334894545183
 21
398.52019457545248
  0
LINE
  8
_1-3_細線3
  6
CONTINUOUS
 62
    4
 10
287.2001561250438
 20
438.52019457545248
 11
284.53348945837729
 21
438.52019457545248
  0
LINE
  8
_1-3_細線3
  6
CONTINUOUS
 62
    4
 10
287.2001561250438
 20
457.18686124211945
 11
287.2001561250438
 21
438.52019457545248
  0
LINE
  8
_1-3_細線3
  6
CONTINUOUS
 62
    4
 10
313.86682279171032
 20
457.18686124211945
 11
287.2001561250438
 21
457.18686124211945
  0
LINE
  8
_1-3_細線3
  6
CONTINUOUS
 62
    4
 10
665.86682279171032
 20
457.18686124211945
 11
639.2001561250438
 21
457.18686124211945
  0
LINE
  8
_1-3_細線3
  6
CONTINUOUS
 62
    4
 10
665.86682279171032
 20
438.52019457545248
 11
665.86682279171032
 21
457.18686124211945
  0
LINE
  8
_1-3_細線3
  6
CONTINUOUS
 62
    4
 10
668.53348945837774
 20
438.52019457545248
 11
665.86682279171032
 21
438.52019457545248
  0
LINE
  8
_1-3_細線3
  6
CONTINUOUS
 62
    4
 10
668.53348945837774
 20
459.85352790878551
 11
668.53348945837774
 21
438.52019457545248
  0
LINE
  8
_1-3_細線3
  6
CONTINUOUS
 62
    4
 10
636.53348945837774
 20
459.85352790878551
 11
668.53348945837774
 21
459.85352790878551
  0
LINE
  8
_1-3_細線3
  6
CONTINUOUS
 62
    4
 10
284.53348945837729
 20
459.85352790878551
 11
316.53348945837729
 21
459.85352790878551
  0
LINE
  8
_1-3_細線3
  6
CONTINUOUS
 62
    4
 10
284.53348945837729
 20
438.52019457545248
 11
284.53348945837729
 21
459.85352790878551
  0
LINE
  8
_1-5_寸法3
  6
CONTINUOUS
 62
    7
 10
684.53348945837774
 20
459.85352790878585
 11
756.53348945837774
 21
459.8535279087875
  0
LINE
  8
_1-5_寸法3
  6
CONTINUOUS
 62
    7
 10
748.53348945837774
 20
459.85352790878733
 11
752.67459418001806
 21
444.39871468816222
  0
LINE
  8
_1-5_寸法3
  6
CONTINUOUS
 62
    7
 10
748.53348945837774
 20
459.85352790878733
 11
744.39238473673743
 21
444.39871468816222
  0
LINE
  8
_1-5_寸法3
  6
CONTINUOUS
 62
    7
 10
684.53348945837774
 20
438.52019457545282
 11
756.53348945837774
 21
438.52019457545447
  0
LINE
  8
_1-5_寸法3
  6
CONTINUOUS
 62
    7
 10
748.53348945837774
 20
438.5201945754543
 11
744.39238473673743
 21
453.97500779607941
  0
LINE
  8
_1-5_寸法3
  6
CONTINUOUS
 62
    7
 10
748.53348945837774
 20
438.5201945754543
 11
752.67459418001806
 21
453.97500779607941
  0
LINE
  8
_1-5_寸法3
  6
CONTINUOUS
 62
    7
 10
748.53348945837774
 20
459.85352790878733
 11
748.53348945837774
 21
438.5201945754543
  0
TEXT
  8
_1-5_寸法3
 62
    7
 10
748.53348945837774
 20
443.18686124212127
 40
24
 41
1
 50
90
  1
8
  0
LINE
  8
_1-5_寸法3
  6
CONTINUOUS
 62
    7
 10
316.53348945837729
 20
335.85352790878551
 11
316.53348945837729
 21
314.52019457545248
  0
LINE
  8
_1-5_寸法3
  6
CONTINUOUS
 62
    7
 10
316.53348945837729
 20
322.52019457545248
 11
331.98830267900235
 21
326.6612992970928
  0
LINE
  8
_1-5_寸法3
  6
CONTINUOUS
 62
    7
 10
316.53348945837729
 20
322.52019457545248
 11
331.98830267900235
 21
318.37908985381216
  0
LINE
  8
_1-5_寸法3
  6
CONTINUOUS
 62
    7
 10
369.86682279171032
 20
381.18686124211854
 11
369.86682279171032
 21
314.52019457545248
  0
LINE
  8
_1-5_寸法3
  6
CONTINUOUS
 62
    7
 10
369.86682279171032
 20
322.52019457545248
 11
354.41200957108526
 21
318.37908985381227
  0
LINE
  8
_1-5_寸法3
  6
CONTINUOUS
 62
    7
 10
369.86682279171032
 20
322.52019457545248
 11
354.41200957108526
 21
326.66129929709291
  0
LINE
  8
_1-5_寸法3
  6
CONTINUOUS
 62
    7
 10
316.53348945837729
 20
322.52019457545248
 11
369.86682279171032
 21
322.52019457545248
  0
TEXT
  8
_1-5_寸法3
 62
    7
 10
331.20015612504426
 20
322.52019457545248
 40
24
 41
1
 50
0
  1
20
  0
LINE
  8
_1-5_寸法3
  6
CONTINUOUS
 62
    7
 10
369.86682279171032
 20
322.52019457545248
 11
385.32163601233538
 21
326.66129929709268
  0
LINE
  8
_1-5_寸法3
  6
CONTINUOUS
 62
    7
 10
369.86682279171032
 20
322.52019457545248
 11
385.32163601233538
 21
318.37908985381205
  0
LINE
  8
_1-5_寸法3
  6
CONTINUOUS
 62
    7
 10
583.2001561250438
 20
381.18686124211854
 11
583.2001561250438
 21
314.52019457545248
  0
LINE
  8
_1-5_寸法3
  6
CONTINUOUS
 62
    7
 10
583.2001561250438
 20
322.52019457545248
 11
567.74534290441875
 21
318.37908985381227
  0
LINE
  8
_1-5_寸法3
  6
CONTINUOUS
 62
    7
 10
583.2001561250438
 20
322.52019457545248
 11
567.74534290441875
 21
326.66129929709291
  0
LINE
  8
_1-5_寸法3
  6
CONTINUOUS
 62
    7
 10
369.86682279171032
 20
322.52019457545248
 11
583.2001561250438
 21
322.52019457545248
  0
TEXT
  8
_1-5_寸法3
 62
    7
 10
464.53348945837729
 20
322.52019457545248
 40
24
 41
1
 50
0
  1
80
  0
LINE
  8
_1-5_寸法3
  6
CONTINUOUS
 62
    7
 10
583.2001561250438
 20
322.52019457545248
 11
598.65496934566897
 21
326.66129929709268
  0
LINE
  8
_1-5_寸法3
  6
CONTINUOUS
 62
    7
 10
583.2001561250438
 20
322.52019457545248
 11
598.65496934566886
 21
318.37908985381205
  0
LINE
  8
_1-5_寸法3
  6
CONTINUOUS
 62
    7
 10
636.53348945837774
 20
335.85352790878551
 11
636.53348945837774
 21
314.52019457545248
  0
LINE
  8
_1-5_寸法3
  6
CONTINUOUS
 62
    7
 10
636.53348945837774
 20
322.52019457545248
 11
621.07867623775269
 21
318.37908985381227
  0
LINE
  8
_1-5_寸法3
  6
CONTINUOUS
 62
    7
 10
636.53348945837774
 20
322.52019457545248
 11
621.07867623775269
 21
326.66129929709291
  0
LINE
  8
_1-5_寸法3
  6
CONTINUOUS
 62
    7
 10
583.2001561250438
 20
322.52019457545248
 11
636.53348945837774
 21
322.52019457545248
  0
TEXT
  8
_1-5_寸法3
 62
    7
 10
597.86682279171032
 20
322.52019457545248
 40
24
 41
1
 50
0
  1
20
  0
LINE
  8
_1-3_細線3
  6
CONTINUOUS
 62
    4
 10
313.86682279171032
 20
193.18686124211854
 11
313.86682279171032
 21
457.18686124211945
  0
LINE
  8
_1-3_細線3
  6
CONTINUOUS
 62
    4
 10
639.2001561250438
 20
193.18686124211854
 11
313.86682279171032
 21
193.18686124211854
  0
LINE
  8
_1-3_細線3
  6
CONTINUOUS
 62
    4
 10
639.2001561250438
 20
457.18686124211945
 11
639.2001561250438
 21
193.18686124211854
  0
LINE
  8
_1-3_細線3
  6
CONTINUOUS
 62
    4
 10
636.53348945837774
 20
195.85352790878551
 11
636.53348945837774
 21
459.85352790878551
  0
LINE
  8
_1-3_細線3
  6
CONTINUOUS
 62
    4
 10
316.53348945837729
 20
195.85352790878551
 11
636.53348945837774
 21
195.85352790878551
  0
LINE
  8
_1-3_細線3
  6
CONTINUOUS
 62
    4
 10
316.53348945837729
 20
459.85352790878551
 11
316.53348945837729
 21
195.85352790878551
  0
LINE
  8
_1-5_寸法3
  6
CONTINUOUS
 62
    7
 10
297.86682279171032
 20
193.18686124211865
 11
196.53348945837729
 21
193.18686124211945
  0
LINE
  8
_1-5_寸法3
  6
CONTINUOUS
 62
    7
 10
204.53348945837729
 20
193.18686124211945
 11
200.39238473673697
 21
208.6416744627445
  0
LINE
  8
_1-5_寸法3
  6
CONTINUOUS
 62
    7
 10
204.53348945837729
 20
193.18686124211945
 11
208.67459418001761
 21
208.6416744627445
  0
LINE
  8
_1-5_寸法3
  6
CONTINUOUS
 62
    7
 10
268.53348945837729
 20
459.85352790878557
 11
196.53348945837729
 21
459.85352790878551
  0
LINE
  8
_1-5_寸法3
  6
CONTINUOUS
 62
    7
 10
204.53348945837729
 20
459.85352790878551
 11
208.67459418001761
 21
444.3987146881604
  0
LINE
  8
_1-5_寸法3
  6
CONTINUOUS
 62
    7
 10
204.53348945837729
 20
459.85352790878551
 11
200.39238473673697
 21
444.3987146881604
  0
LINE
  8
_1-5_寸法3
  6
CONTINUOUS
 62
    7
 10
204.53348945837729
 20
193.18686124211945
 11
204.53348945837729
 21
459.85352790878551
  0
TEXT
  8
_1-5_寸法3
 62
    7
 10
204.53348945837729
 20
284.52019457545248
 40
24
 41
1
 50
90
  1
80～100
  0
LINE
  8
_1-5_寸法3
  6
CONTINUOUS
 62
    7
 10
284.53348945837729
 20
467.85352790878551
 11
284.53348945837729
 21
659.85352790878528
  0
LINE
  8
_1-5_寸法3
  6
CONTINUOUS
 62
    7
 10
284.53348945837729
 20
651.85352790878528
 11
299.98830267900235
 21
655.9946326304256
  0
LINE
  8
_1-5_寸法3
  6
CONTINUOUS
 62
    7
 10
284.53348945837729
 20
651.85352790878528
 11
299.98830267900235
 21
647.71242318714496
  0
LINE
  8
_1-5_寸法3
  6
CONTINUOUS
 62
    7
 10
668.53348945837956
 20
467.85352790878551
 11
668.53348945837956
 21
659.85352790878528
  0
LINE
  8
_1-5_寸法3
  6
CONTINUOUS
 62
    7
 10
668.53348945837956
 20
651.85352790878528
 11
653.07867623775451
 21
647.71242318714496
  0
LINE
  8
_1-5_寸法3
  6
CONTINUOUS
 62
    7
 10
668.53348945837956
 20
651.85352790878528
 11
653.07867623775451
 21
655.99463263042571
  0
LINE
  8
_1-5_寸法3
  6
CONTINUOUS
 62
    7
 10
284.53348945837729
 20
651.85352790878528
 11
668.53348945837956
 21
651.85352790878528
  0
TEXT
  8
_1-5_寸法3
 62
    7
 10
458.53348945838002
 20
651.85352790878528
 40
24
 41
1
 50
0
  1
144
  0
LINE
  8
_1-5_寸法3
  6
CONTINUOUS
 62
    7
 10
284.53348945837729
 20
595.85352790878528
 11
299.98830267900235
 21
599.9946326304256
  0
LINE
  8
_1-5_寸法3
  6
CONTINUOUS
 62
    7
 10
284.53348945837729
 20
595.85352790878528
 11
299.98830267900235
 21
591.71242318714496
  0
LINE
  8
_1-5_寸法3
  6
CONTINUOUS
 62
    7
 10
316.53348945837729
 20
466.52019457545248
 11
316.53348945837729
 21
603.85352790878528
  0
LINE
  8
_1-5_寸法3
  6
CONTINUOUS
 62
    7
 10
316.53348945837729
 20
595.85352790878528
 11
301.07867623775223
 21
591.71242318714496
  0
LINE
  8
_1-5_寸法3
  6
CONTINUOUS
 62
    7
 10
316.53348945837729
 20
595.85352790878528
 11
301.07867623775223
 21
599.99463263042571
  0
LINE
  8
_1-5_寸法3
  6
CONTINUOUS
 62
    7
 10
284.53348945837729
 20
595.85352790878528
 11
316.53348945837729
 21
595.85352790878528
  0
TEXT
  8
_1-5_寸法3
 62
    7
 10
288.29013073179726
 20
595.85352790878528
 40
24
 41
1
 50
0
  1
12
  0
LINE
  8
_1-5_寸法3
  6
CONTINUOUS
 62
    7
 10
321.86682279171032
 20
462.5201919061019
 11
321.86682279171032
 21
603.85352790878528
  0
LINE
  8
_1-5_寸法3
  6
CONTINUOUS
 62
    7
 10
316.53348945837729
 20
595.85352790878528
 11
321.86682279171032
 21
595.85352790878528
  0
TEXT
  8
_1-5_寸法3
 62
    7
 10
326.68124184290923
 20
571.85352790878528
 40
24
 41
1
 50
0
  1
2
  0
LINE
  8
_1-5_寸法3
  6
CONTINUOUS
 62
    7
 10
321.86682279171032
 20
595.85352790878528
 11
337.32163601233538
 21
599.9946326304256
  0
LINE
  8
_1-5_寸法3
  6
CONTINUOUS
 62
    7
 10
321.86682279171032
 20
595.85352790878528
 11
337.32163601233538
 21
591.71242318714496
  0
LINE
  8
_1-5_寸法3
  6
CONTINUOUS
 62
    7
 10
631.2001561250438
 20
462.5201919061019
 11
631.2001561250438
 21
603.85352790878528
  0
LINE
  8
_1-5_寸法3
  6
CONTINUOUS
 62
    7
 10
631.2001561250438
 20
595.85352790878528
 11
615.74534290441875
 21
591.71242318714496
  0
LINE
  8
_1-5_寸法3
  6
CONTINUOUS
 62
    7
 10
631.2001561250438
 20
595.85352790878528
 11
615.74534290441875
 21
599.99463263042571
  0
LINE
  8
_1-5_寸法3
  6
CONTINUOUS
 62
    7
 10
321.86682279171032
 20
595.85352790878528
 11
631.2001561250438
 21
595.85352790878528
  0
TEXT
  8
_1-5_寸法3
 62
    7
 10
458.53348945837956
 20
595.85352790878528
 40
24
 41
1
 50
0
  1
116
  0
LINE
  8
_1-5_寸法3
  6
CONTINUOUS
 62
    7
 10
636.53348945837956
 20
466.52019457545248
 11
636.53348945837956
 21
603.85352790878528
  0
LINE
  8
_1-5_寸法3
  6
CONTINUOUS
 62
    7
 10
631.2001561250438
 20
595.85352790878528
 11
636.53348945837956
 21
595.85352790878528
  0
TEXT
  8
_1-5_寸法3
 62
    7
 10
614.61013073179697
 20
571.85352790878528
 40
24
 41
1
 50
0
  1
2
  0
LINE
  8
_1-5_寸法3
  6
CONTINUOUS
 62
    7
 10
636.53348945837956
 20
595.85352790878528
 11
651.98830267900462
 21
599.9946326304256
  0
LINE
  8
_1-5_寸法3
  6
CONTINUOUS
 62
    7
 10
636.53348945837956
 20
595.85352790878528
 11
651.98830267900462
 21
591.71242318714496
  0
LINE
  8
_1-5_寸法3
  6
CONTINUOUS
 62
    7
 10
668.53348945837956
 20
595.85352790878528
 11
653.07867623775451
 21
591.71242318714496
  0
LINE
  8
_1-5_寸法3
  6
CONTINUOUS
 62
    7
 10
668.53348945837956
 20
595.85352790878528
 11
653.07867623775451
 21
599.99463263042571
  0
LINE
  8
_1-5_寸法3
  6
CONTINUOUS
 62
    7
 10
636.53348945837956
 20
595.85352790878528
 11
668.53348945837956
 21
595.85352790878528
  0
TEXT
  8
_1-5_寸法3
 62
    7
 10
640.69309369476127
 20
595.85352790878528
 40
24
 41
1
 50
0
  1
12
  0
LINE
  8
_1-5_寸法3
  6
CONTINUOUS
 62
    7
 10
321.86682279171077
 20
475.8535279087846
 11
321.86682279171077
 21
547.85352790878551
  0
LINE
  8
_1-5_寸法3
  6
CONTINUOUS
 62
    7
 10
321.86682279171077
 20
539.85352790878551
 11
337.32163601233583
 21
543.99463263042583
  0
LINE
  8
_1-5_寸法3
  6
CONTINUOUS
 62
    7
 10
321.86682279171077
 20
539.85352790878551
 11
337.32163601233583
 21
535.71242318714519
  0
LINE
  8
_1-5_寸法3
  6
CONTINUOUS
 62
    7
 10
476.53348945837843
 20
475.18686124212195
 11
476.53348945837843
 21
547.85352790878551
  0
LINE
  8
_1-5_寸法3
  6
CONTINUOUS
 62
    7
 10
476.53348945837843
 20
539.85352790878551
 11
461.07867623775337
 21
535.71242318714519
  0
LINE
  8
_1-5_寸法3
  6
CONTINUOUS
 62
    7
 10
476.53348945837843
 20
539.85352790878551
 11
461.07867623775337
 21
543.99463263042594
  0
LINE
  8
_1-5_寸法3
  6
CONTINUOUS
 62
    7
 10
321.86682279171077
 20
539.85352790878551
 11
476.53348945837843
 21
539.85352790878551
  0
TEXT
  8
_1-5_寸法3
 62
    7
 10
387.2001561250446
 20
539.85352790878551
 40
24
 41
1
 50
0
  1
58
  0
LINE
  8
_1-5_寸法3
  6
CONTINUOUS
 62
    7
 10
476.53348945837843
 20
539.85352790878551
 11
491.98830267900348
 21
543.99463263042571
  0
LINE
  8
_1-5_寸法3
  6
CONTINUOUS
 62
    7
 10
476.53348945837843
 20
539.85352790878551
 11
491.98830267900348
 21
535.71242318714508
  0
LINE
  8
_1-5_寸法3
  6
CONTINUOUS
 62
    7
 10
631.20015612504517
 20
475.85352790878551
 11
631.20015612504517
 21
547.85352790878551
  0
LINE
  8
_1-5_寸法3
  6
CONTINUOUS
 62
    7
 10
631.20015612504517
 20
539.85352790878551
 11
615.74534290442011
 21
535.71242318714519
  0
LINE
  8
_1-5_寸法3
  6
CONTINUOUS
 62
    7
 10
631.20015612504517
 20
539.85352790878551
 11
615.74534290442011
 21
543.99463263042594
  0
LINE
  8
_1-5_寸法3
  6
CONTINUOUS
 62
    7
 10
476.53348945837843
 20
539.85352790878551
 11
631.20015612504517
 21
539.85352790878551
  0
TEXT
  8
_1-5_寸法3
 62
    7
 10
541.8668227917118
 20
539.8535279087854
 40
24
 41
1
 50
0
  1
58
  0
LINE
  8
_1-2_極細3
  6
CENTER1
 62
    2
 10
648.80029756689351
 20
433.85352790878352
 11
305.88710154711384
 21
433.85352790878352
  0
LINE
  8
_1-3_細線3
  6
CONTINUOUS
 62
    4
 10
323.19877782046979
 20
428.59312862662301
 11
324.53211115380373
 21
427.82332826770272
  0
ARC
  8
_1-3_細線3
  6
CONTINUOUS
 62
    4
 10
324.53211115380191
 20
430.90252970338298
 40
2.6666666666666665
 50
179.99999999999983
 51
239.99999999997968
  0
LINE
  8
_1-3_細線3
  6
CONTINUOUS
 62
    4
 10
321.86544448713948
 20
435.20452611418779
 11
321.86544448713948
 21
430.90252970338298
  0
ARC
  8
_1-3_細線3
  6
CONTINUOUS
 62
    4
 10
324.53211115380191
 20
435.20452611418779
 40
2.6666666666666665
 50
119.99999999998613
 51
179.99999999999983
  0
LINE
  8
_1-3_細線3
  6
CONTINUOUS
 62
    4
 10
324.53211115380373
 20
438.28372754986304
 11
323.19877782047342
 21
437.51392719094548
  0
LINE
  8
_1-3_細線3
  6
CONTINUOUS
 62
    4
 10
329.86544448713767
 20
459.85352790878579
 11
329.86544448713948
 21
406.52019457545236
  0
ARC
  8
_1-3_細線3
  6
CONTINUOUS
 62
    4
 10
329.06544445289592
 20
407.32019459815626
 40
0.800000034239626
 50
270.00000245217564
 51
359.99999999999966
  0
LINE
  8
_1-3_細線3
  6
CONTINUOUS
 62
    4
 10
329.86544448713403
 20
459.05352790878788
 11
329.86544448713403
 21
407.320194575453
  0
ARC
  8
_1-3_細線3
  6
CONTINUOUS
 62
    4
 10
329.06544447909664
 20
459.05352788282954
 40
0.8000000259586764
 50
0
 51
89.999999424312506
  0
LINE
  8
_1-3_細線3
  6
CONTINUOUS
 62
    4
 10
322.66544448713512
 20
459.85352790878807
 11
329.06544448713476
 21
459.85352790878807
  0
ARC
  8
_1-3_細線3
  6
CONTINUOUS
 62
    4
 10
322.66544452446078
 20
459.05352785840643
 40
0.8000000373270587
 50
90.000002673253533
 51
179.99999999999983
  0
LINE
  8
_1-3_細線3
  6
CONTINUOUS
 62
    4
 10
321.86544448713403
 20
455.32019457545294
 11
321.86544448713403
 21
459.05352790878788
  0
ARC
  8
_1-3_細線3
  6
CONTINUOUS
 62
    4
 10
322.6654445203153
 20
455.32019459721533
 40
0.8000000217604497
 50
179.99999999999983
 51
269.99999762364394
  0
LINE
  8
_1-3_細線3
  6
CONTINUOUS
 62
    4
 10
323.73211115380082
 20
454.52019457545504
 11
322.66544448713512
 21
454.52019457545504
  0
ARC
  8
_1-3_細線3
  6
CONTINUOUS
 62
    4
 10
323.73211114268315
 20
453.72019457125617
 40
0.8000000111193609
 50
0
 51
89.999999203756033
  0
LINE
  8
_1-3_細線3
  6
CONTINUOUS
 62
    4
 10
324.53211115380191
 20
412.65352790878649
 11
324.53211115380191
 21
453.7201945754544
  0
ARC
  8
_1-3_細線3
  6
CONTINUOUS
 62
    4
 10
323.73211112849322
 20
412.65352792671172
 40
0.8000000179235944
 50
270.0000018125229
 51
359.99999999999966
  0
LINE
  8
_1-3_細線3
  6
CONTINUOUS
 62
    4
 10
322.66544448713512
 20
411.85352790878812
 11
323.73211115380082
 21
411.85352790878812
  0
ARC
  8
_1-3_細線3
  6
CONTINUOUS
 62
    4
 10
322.66544448786817
 20
411.05352790827862
 40
0.8000000007317187
 50
90.000000052501036
 51
179.99999999999983
  0
LINE
  8
_1-3_細線3
  6
CONTINUOUS
 62
    4
 10
321.86544448713403
 20
407.320194575453
 11
321.86544448713403
 21
411.05352790878794
  0
ARC
  8
_1-3_細線3
  6
CONTINUOUS
 62
    4
 10
322.6654445337449
 20
407.32019459065748
 40
0.8000000152023871
 50
179.99999999999983
 51
269.99999666181975
  0
LINE
  8
_1-3_細線3
  6
CONTINUOUS
 62
    4
 10
329.06544448713476
 20
406.52019457545509
 11
322.66544448713512
 21
406.52019457545509
  0
ARC
  8
_1-3_細線3
  6
CONTINUOUS
 62
    4
 10
623.99877784853243
 20
407.32019458243838
 40
0.8000000280644599
 50
179.99999999999983
 51
269.99999799010897
  0
LINE
  8
_1-3_細線3
  6
CONTINUOUS
 62
    4
 10
623.19877782046615
 20
459.05352790878607
 11
623.19877782046615
 21
407.32019457545346
  0
ARC
  8
_1-3_細線3
  6
CONTINUOUS
 62
    4
 10
623.99877781929763
 20
459.05352790842454
 40
0.8000000003642828
 50
89.999999916102567
 51
179.99999999999983
  0
LINE
  8
_1-3_細線3
  6
CONTINUOUS
 62
    4
 10
630.39877782046688
 20
459.85352790878898
 11
623.99877782046906
 21
459.85352790878898
  0
ARC
  8
_1-3_細線3
  6
CONTINUOUS
 62
    4
 10
630.39877780049073
 20
459.05352790048147
 40
0.8000000199784456
 50
0
 51
89.999998569314286
  0
LINE
  8
_1-3_細線3
  6
CONTINUOUS
 62
    4
 10
631.19877782046615
 20
455.3201945754534
 11
631.19877782046615
 21
459.05352790878607
  0
ARC
  8
_1-3_細線3
  6
CONTINUOUS
 62
    4
 10
630.39877782214035
 20
455.32019458276574
 40
0.8000000073103971
 50
269.99999988014616
 51
359.99999999999966
  0
LINE
  8
_1-3_細線3
  6
CONTINUOUS
 62
    4
 10
629.33211115380118
 20
454.52019457545549
 11
630.39877782046688
 21
454.52019457545549
  0
ARC
  8
_1-3_細線3
  6
CONTINUOUS
 62
    4
 10
629.3321111711216
 20
453.72019455610354
 40
0.8000000173178707
 50
90.000001240483471
 51
179.99999999999983
  0
LINE
  8
_1-3_細線3
  6
CONTINUOUS
 62
    4
 10
628.53211115380191
 20
412.65352790878694
 11
628.53211115380191
 21
453.72019457545258
  0
ARC
  8
_1-3_細線3
  6
CONTINUOUS
 62
    4
 10
629.33211118040208
 20
412.65352792725832
 40
0.8000000184692912
 50
179.99999999999983
 51
269.99999809485047
  0
LINE
  8
_1-3_細線3
  6
CONTINUOUS
 62
    4
 10
630.39877782046688
 20
411.85352790878903
 11
629.33211115380118
 21
411.85352790878903
  0
ARC
  8
_1-3_細線3
  6
CONTINUOUS
 62
    4
 10
630.39877783719066
 20
411.05352795059832
 40
0.7999999832773039
 50
0
 51
90.00000119775315
  0
LINE
  8
_1-3_細線3
  6
CONTINUOUS
 62
    4
 10
631.19877782046615
 20
407.32019457545346
 11
631.19877782046615
 21
411.05352790878612
  0
ARC
  8
_1-3_細線3
  6
CONTINUOUS
 62
    4
 10
630.3987778087162
 20
407.32019457621016
 40
0.8000000007547593
 50
270.00000084157949
 51
359.99999999999966
  0
LINE
  8
_1-3_細線3
  6
CONTINUOUS
 62
    4
 10
623.99877782046906
 20
406.52019457545555
 11
630.39877782046688
 21
406.52019457545555
  0
LINE
  8
_1-3_細線3
  6
CONTINUOUS
 62
    4
 10
623.19877782046979
 20
406.52019457545327
 11
329.86544448713767
 21
406.52019457545236
  0
LINE
  8
_1-3_細線3
  6
CONTINUOUS
 62
    4
 10
623.19877782046979
 20
459.85352790878625
 11
623.19877782046979
 21
406.52019457545327
  0
LINE
  8
_1-3_細線3
  6
CONTINUOUS
 62
    4
 10
629.86544448713767
 20
428.59312862662347
 11
628.53211115380191
 21
427.82332826770363
  0
ARC
  8
_1-3_細線3
  6
CONTINUOUS
 62
    4
 10
628.53211115380191
 20
430.90252970338344
 40
2.6666666666666665
 50
299.99999999998579
 51
359.99999999999966
  0
LINE
  8
_1-3_細線3
  6
CONTINUOUS
 62
    4
 10
631.19877782046979
 20
435.20452611418824
 11
631.19877782046979
 21
430.90252970338344
  0
ARC
  8
_1-3_細線3
  6
CONTINUOUS
 62
    4
 10
628.53211115380191
 20
435.20452611418824
 40
2.6666666666666665
 50
0
 51
60.000000000013891
  0
LINE
  8
_1-3_細線3
  6
CONTINUOUS
 62
    4
 10
628.53211115380191
 20
438.2837275498635
 11
629.86544448713767
 21
437.51392719094594
  0
LINE
  8
_1-3_細線3
  6
CONTINUOUS
 62
    4
 10
329.86544448713767
 20
459.85352790878579
 11
623.19877782046979
 21
459.85352790878625
  0
LINE
  8
_1-3_細線3
  6
CONTINUOUS
 62
    4
 10
623.19877782046979
 20
456.12019457545404
 11
329.86544448713767
 21
456.12019457545358
  0
CIRCLE
  8
_1-3_細線3
  6
CONTINUOUS
 62
    4
 10
476.53211115380191
 20
433.85352790878625
 40
5.8666666666661813
  0
CIRCLE
  8
_1-3_細線3
  6
CONTINUOUS
 62
    4
 10
476.53211115380191
 20
433.85352790878625
 40
8
  0
LINE
  8
_1-5_寸法3
  6
CONTINUOUS
 62
    7
 10
462.78592682454246
 20
418.05576966642315
 11
413.98911364521211
 21
459.00115760782495
  0
LINE
  8
_1-5_寸法3
  6
CONTINUOUS
 62
    7
 10
420.117469190164
 20
453.85885673033272
 11
415.97636446852368
 21
469.31366995095783
  0
LINE
  8
_1-5_寸法3
  6
CONTINUOUS
 62
    7
 10
420.117469190164
 20
453.85885673033272
 11
424.25857391180443
 21
469.31366995095783
  0
LINE
  8
_1-5_寸法3
  6
CONTINUOUS
 62
    7
 10
462.78592682454246
 20
471.38910299975618
 11
413.98911364521211
 21
512.33449094115804
  0
LINE
  8
_1-5_寸法3
  6
CONTINUOUS
 62
    7
 10
420.117469190164
 20
507.19219006366575
 11
424.25857391180443
 21
491.73737684304064
  0
LINE
  8
_1-5_寸法3
  6
CONTINUOUS
 62
    7
 10
420.117469190164
 20
507.19219006366575
 11
415.97636446852368
 21
491.73737684304064
  0
LINE
  8
_1-5_寸法3
  6
CONTINUOUS
 62
    7
 10
420.117469190164
 20
453.85885673033272
 11
420.117469190164
 21
507.19219006366575
  0
TEXT
  8
_1-5_寸法3
 62
    7
 10
420.117469190164
 20
469.01979928449646
 40
24
 41
1
 50
90
  1
20
  0
ARC
  8
_0-a_極細1
  6
CONTINUOUS
 62
    7
 10
2018.8342976988567
 20
545.19253202597997
 40
40.55999999997205
 50
329.9999999999622
 51
30.00000000001284
  0
ARC
  8
_0-a_極細1
  6
CONTINUOUS
 62
    7
 10
2089.0862784537057
 20
504.63253202599321
 40
40.559999999917665
 50
149.99999999994984
 51
210.000000000104
  0
ARC
  8
_0-a_極細1
  6
CONTINUOUS
 62
    7
 10
1812.8668629518913
 20
545.19253202597997
 40
40.55999999997205
 50
329.99999999996334
 51
30.000000000012331
  0
ARC
  8
_0-a_極細1
  6
CONTINUOUS
 62
    7
 10
1883.1188437067401
 20
504.63253202599321
 40
40.559999999917665
 50
149.99999999994853
 51
210.000000000104
  0
LINE
  8
_0-b_細線1
  6
CONTINUOUS
 62
    7
 10
1852.136739791317
 20
555.34094929243224
 11
2058.1041745382827
 21
555.34094929243224
  0
LINE
  8
_0-d_寸法1
  6
CONTINUOUS
 62
    7
 10
1830.1176628645342
 20
491.34094929243241
 11
1752.9433912802299
 21
491.34094929243327
  0
LINE
  8
_0-d_寸法1
  6
CONTINUOUS
 62
    7
 10
1760.9433912802299
 20
491.34094929243315
 11
1756.8022865585897
 21
506.79576251305826
  0
LINE
  8
_0-d_寸法1
  6
CONTINUOUS
 62
    7
 10
1760.9433912802299
 20
491.34094929243315
 11
1765.0844960018703
 21
506.79576251305826
  0
LINE
  8
_0-d_寸法1
  6
CONTINUOUS
 62
    7
 10
1836.136739791317
 20
555.34094929243236
 11
1752.9433912802299
 21
555.34094929243327
  0
LINE
  8
_0-d_寸法1
  6
CONTINUOUS
 62
    7
 10
1760.9433912802299
 20
555.34094929243315
 11
1765.0844960018703
 21
539.8861360718081
  0
LINE
  8
_0-d_寸法1
  6
CONTINUOUS
 62
    7
 10
1760.9433912802299
 20
555.34094929243315
 11
1756.8022865585897
 21
539.8861360718081
  0
LINE
  8
_0-d_寸法1
  6
CONTINUOUS
 62
    7
 10
1760.9433912802299
 20
491.34094929243315
 11
1760.9433912802299
 21
555.34094929243315
  0
TEXT
  8
_0-d_寸法1
 62
    7
 10
1760.9433912802299
 20
517.34094929243315
 40
24
 41
1
 50
90
  1
8
  0
LINE
  8
_0-b_細線1
  6
CONTINUOUS
 62
    7
 10
2050.7659518837218
 20
491.34094929243224
 11
1844.7985171367561
 21
491.34094929243224
  0
LINE
  8
_0-a_極細1
  6
CONTINUOUS
 62
    7
 10
2049.4513398822037
 20
496.01944637526299
 11
2004.9602126943275
 21
555.34094929243179
  0
LINE
  8
_0-a_極細1
  6
CONTINUOUS
 62
    7
 10
2053.0421058588827
 20
523.23175840635736
 11
2028.9602126943275
 21
555.34094929243179
  0
LINE
  8
_0-a_極細1
  6
CONTINUOUS
 62
    7
 10
2053.4346147994029
 20
523.97348543253133
 11
2028.9602126943275
 21
491.34094929243179
  0
LINE
  8
_0-a_極細1
  6
CONTINUOUS
 62
    7
 10
2052.9602126943219
 20
555.34094929243179
 11
2059.3622363633758
 21
546.80491771262473
  0
LINE
  8
_0-a_極細1
  6
CONTINUOUS
 62
    7
 10
1884.9602126943275
 20
555.34094929243179
 11
1842.9137106785013
 21
499.27894648217421
  0
LINE
  8
_0-a_極細1
  6
CONTINUOUS
 62
    7
 10
1884.9602126943275
 20
491.34094929243179
 11
1852.1485323012741
 21
535.08985648315843
  0
LINE
  8
_0-a_極細1
  6
CONTINUOUS
 62
    7
 10
2004.9602126943221
 20
555.34094929243179
 11
1956.9602126943221
 21
491.34094929243179
  0
LINE
  8
_0-a_極細1
  6
CONTINUOUS
 62
    7
 10
2004.9602126943275
 20
491.34094929243179
 11
1956.9602126943275
 21
555.34094929243179
  0
LINE
  8
_0-a_極細1
  6
CONTINUOUS
 62
    7
 10
2028.9602126943221
 20
555.34094929243179
 11
1980.9602126943221
 21
491.34094929243179
  0
LINE
  8
_0-a_極細1
  6
CONTINUOUS
 62
    7
 10
2028.9602126943275
 20
491.34094929243179
 11
1980.9602126943275
 21
555.34094929243179
  0
LINE
  8
_0-a_極細1
  6
CONTINUOUS
 62
    7
 10
2052.9602126943219
 20
555.34094929243179
 11
2004.9602126943275
 21
491.34094929243179
  0
LINE
  8
_0-a_極細1
  6
CONTINUOUS
 62
    7
 10
1908.9602126943275
 20
555.34094929243179
 11
1860.9602126943275
 21
491.34094929243179
  0
LINE
  8
_0-a_極細1
  6
CONTINUOUS
 62
    7
 10
1956.9602126943275
 20
555.34094929243179
 11
1908.9602126943275
 21
491.34094929243179
  0
LINE
  8
_0-a_極細1
  6
CONTINUOUS
 62
    7
 10
1908.9602126943275
 20
491.34094929243179
 11
1860.9602126943275
 21
555.34094929243179
  0
LINE
  8
_0-a_極細1
  6
CONTINUOUS
 62
    7
 10
1932.9602126943275
 20
491.34094929243179
 11
1884.9602126943275
 21
555.34094929243179
  0
LINE
  8
_0-a_極細1
  6
CONTINUOUS
 62
    7
 10
1932.9602126943221
 20
555.34094929243179
 11
1884.9602126943221
 21
491.34094929243179
  0
LINE
  8
_0-a_極細1
  6
CONTINUOUS
 62
    7
 10
1956.9602126943275
 20
491.34094929243179
 11
1908.9602126943275
 21
555.34094929243179
  0
LINE
  8
_0-a_極細1
  6
CONTINUOUS
 62
    7
 10
1980.9602126943275
 20
491.34094929243179
 11
1932.9602126943275
 21
555.34094929243179
  0
LINE
  8
_0-a_極細1
  6
CONTINUOUS
 62
    7
 10
1980.9602126943275
 20
555.34094929243179
 11
1932.9602126943275
 21
491.34094929243179
  0
LINE
  8
_0-a_極細1
  6
CONTINUOUS
 62
    7
 10
1860.960212694318
 20
491.34094929243224
 11
1843.7310439904215
 21
514.31317423095516
  0
LINE
  8
_0-1_計細線
  6
CONTINUOUS
 62
    3
 10
1190.4604746743425
 20
1245.7336586827307
 11
1192.4150342687528
 21
1245.7336586827307
  0
LINE
  8
_0-1_計細線
  6
CONTINUOUS
 62
    3
 10
455.14047467434284
 20
1135.7336586827312
 11
455.14047467434284
 21
1245.7336586827312
  0
LINE
  8
_0-1_計細線
  6
CONTINUOUS
 62
    3
 10
455.14047467434284
 20
1245.7336586827312
 11
463.14047467434284
 21
1245.7336586827312
  0
LINE
  8
_0-1_計細線
  6
CONTINUOUS
 62
    3
 10
463.14047467434284
 20
1245.7336586827312
 11
463.14047467434284
 21
1135.7336586827312
  0
LINE
  8
_0-1_計細線
  6
CONTINUOUS
 62
    3
 10
463.14047467434284
 20
1135.7336586827312
 11
455.14047467434284
 21
1135.7336586827312
  0
LINE
  8
_0-1_計細線
  6
CONTINUOUS
 62
    3
 10
441.11047467434219
 20
1135.7336586827312
 11
441.11047467434219
 21
1245.7336586827312
  0
LINE
  8
_0-1_計細線
  6
CONTINUOUS
 62
    3
 10
441.11047467434219
 20
1245.7336586827312
 11
449.11047467434219
 21
1245.7336586827312
  0
LINE
  8
_0-1_計細線
  6
CONTINUOUS
 62
    3
 10
449.11047467434219
 20
1245.7336586827312
 11
449.11047467434219
 21
1135.7336586827312
  0
LINE
  8
_0-1_計細線
  6
CONTINUOUS
 62
    3
 10
449.11047467434219
 20
1135.7336586827312
 11
441.11047467434219
 21
1135.7336586827312
  0
LINE
  8
_0-1_計細線
  6
CONTINUOUS
 62
    3
 10
427.08047467434244
 20
1135.7336586827312
 11
427.08047467434244
 21
1245.7336586827312
  0
LINE
  8
_0-1_計細線
  6
CONTINUOUS
 62
    3
 10
427.08047467434244
 20
1245.7336586827312
 11
435.08047467434244
 21
1245.7336586827312
  0
LINE
  8
_0-1_計細線
  6
CONTINUOUS
 62
    3
 10
435.08047467434244
 20
1245.7336586827312
 11
435.08047467434244
 21
1135.7336586827312
  0
LINE
  8
_0-1_計細線
  6
CONTINUOUS
 62
    3
 10
435.08047467434244
 20
1135.7336586827312
 11
427.08047467434244
 21
1135.7336586827312
  0
LINE
  8
_0-1_計細線
  6
CONTINUOUS
 62
    3
 10
413.05047467434269
 20
1135.7336586827312
 11
413.05047467434269
 21
1245.7336586827312
  0
LINE
  8
_0-1_計細線
  6
CONTINUOUS
 62
    3
 10
413.05047467434269
 20
1245.7336586827312
 11
421.05047467434269
 21
1245.7336586827312
  0
LINE
  8
_0-1_計細線
  6
CONTINUOUS
 62
    3
 10
421.05047467434269
 20
1245.7336586827312
 11
421.05047467434269
 21
1135.7336586827312
  0
LINE
  8
_0-1_計細線
  6
CONTINUOUS
 62
    3
 10
421.05047467434269
 20
1135.7336586827312
 11
413.05047467434269
 21
1135.7336586827312
  0
LINE
  8
_0-1_計細線
  6
CONTINUOUS
 62
    3
 10
399.02047467434204
 20
1135.7336586827312
 11
399.02047467434204
 21
1245.7336586827312
  0
LINE
  8
_0-1_計細線
  6
CONTINUOUS
 62
    3
 10
399.02047467434204
 20
1245.7336586827312
 11
407.02047467434204
 21
1245.7336586827312
  0
LINE
  8
_0-1_計細線
  6
CONTINUOUS
 62
    3
 10
407.02047467434204
 20
1245.7336586827312
 11
407.02047467434204
 21
1135.7336586827312
  0
LINE
  8
_0-1_計細線
  6
CONTINUOUS
 62
    3
 10
407.02047467434204
 20
1135.7336586827312
 11
399.02047467434204
 21
1135.7336586827312
  0
LINE
  8
_0-1_計細線
  6
CONTINUOUS
 62
    3
 10
384.99047467434229
 20
1135.7336586827312
 11
384.99047467434229
 21
1245.7336586827312
  0
LINE
  8
_0-1_計細線
  6
CONTINUOUS
 62
    3
 10
384.99047467434229
 20
1245.7336586827312
 11
392.99047467434229
 21
1245.7336586827312
  0
LINE
  8
_0-1_計細線
  6
CONTINUOUS
 62
    3
 10
392.99047467434229
 20
1245.7336586827312
 11
392.99047467434229
 21
1135.7336586827312
  0
LINE
  8
_0-1_計細線
  6
CONTINUOUS
 62
    3
 10
392.99047467434229
 20
1135.7336586827312
 11
384.99047467434229
 21
1135.7336586827312
  0
LINE
  8
_0-1_計細線
  6
CONTINUOUS
 62
    3
 10
370.96047467434255
 20
1135.7336586827312
 11
370.96047467434255
 21
1245.7336586827312
  0
LINE
  8
_0-1_計細線
  6
CONTINUOUS
 62
    3
 10
370.96047467434255
 20
1245.7336586827312
 11
378.96047467434255
 21
1245.7336586827312
  0
LINE
  8
_0-1_計細線
  6
CONTINUOUS
 62
    3
 10
378.96047467434255
 20
1245.7336586827312
 11
378.96047467434255
 21
1135.7336586827312
  0
LINE
  8
_0-1_計細線
  6
CONTINUOUS
 62
    3
 10
378.96047467434255
 20
1135.7336586827312
 11
370.96047467434255
 21
1135.7336586827312
  0
LINE
  8
_0-1_計細線
  6
CONTINUOUS
 62
    3
 10
370.96047467434255
 20
1248.7336586827312
 11
853.96047467434255
 21
1248.7336586827312
  0
LINE
  8
_0-1_計細線
  6
CONTINUOUS
 62
    3
 10
853.96047467434255
 20
1248.7336586827312
 11
853.96047467434255
 21
1245.7336586827312
  0
LINE
  8
_0-1_計細線
  6
CONTINUOUS
 62
    3
 10
853.96047467434255
 20
1245.7336586827312
 11
370.96047467434255
 21
1245.7336586827312
  0
LINE
  8
_0-1_計細線
  6
CONTINUOUS
 62
    3
 10
370.96047467434255
 20
1245.7336586827312
 11
370.96047467434255
 21
1248.7336586827312
  0
LINE
  8
_0-1_計細線
  6
CONTINUOUS
 62
    3
 10
370.96047467434255
 20
1132.7336586827312
 11
853.96047467434255
 21
1132.7336586827312
  0
LINE
  8
_0-1_計細線
  6
CONTINUOUS
 62
    3
 10
853.96047467434255
 20
1132.7336586827312
 11
853.96047467434255
 21
1135.7336586827312
  0
LINE
  8
_0-1_計細線
  6
CONTINUOUS
 62
    3
 10
853.96047467434255
 20
1135.7336586827312
 11
370.96047467434255
 21
1135.7336586827312
  0
LINE
  8
_0-1_計細線
  6
CONTINUOUS
 62
    3
 10
370.96047467434255
 20
1135.7336586827312
 11
370.96047467434255
 21
1132.7336586827312
  0
LINE
  8
_0-1_計細線
  6
CONTINUOUS
 62
    3
 10
845.96047467434255
 20
1135.7336586827312
 11
845.96047467434255
 21
1245.7336586827312
  0
LINE
  8
_0-1_計細線
  6
CONTINUOUS
 62
    3
 10
845.96047467434255
 20
1245.7336586827312
 11
853.96047467434255
 21
1245.7336586827312
  0
LINE
  8
_0-1_計細線
  6
CONTINUOUS
 62
    3
 10
853.96047467434255
 20
1245.7336586827312
 11
853.96047467434255
 21
1135.7336586827312
  0
LINE
  8
_0-1_計細線
  6
CONTINUOUS
 62
    3
 10
853.96047467434255
 20
1135.7336586827312
 11
845.96047467434255
 21
1135.7336586827312
  0
LINE
  8
_0-1_計細線
  6
CONTINUOUS
 62
    3
 10
833.95047467434233
 20
1135.7336586827312
 11
833.95047467434233
 21
1245.7336586827312
  0
LINE
  8
_0-1_計細線
  6
CONTINUOUS
 62
    3
 10
833.95047467434233
 20
1245.7336586827312
 11
841.95047467434233
 21
1245.7336586827312
  0
LINE
  8
_0-1_計細線
  6
CONTINUOUS
 62
    3
 10
841.95047467434233
 20
1245.7336586827312
 11
841.95047467434233
 21
1135.7336586827312
  0
LINE
  8
_0-1_計細線
  6
CONTINUOUS
 62
    3
 10
841.95047467434233
 20
1135.7336586827312
 11
833.95047467434233
 21
1135.7336586827312
  0
LINE
  8
_0-1_計細線
  6
CONTINUOUS
 62
    3
 10
819.92047467434168
 20
1135.7336586827312
 11
819.92047467434168
 21
1245.7336586827312
  0
LINE
  8
_0-1_計細線
  6
CONTINUOUS
 62
    3
 10
819.92047467434168
 20
1245.7336586827312
 11
827.92047467434168
 21
1245.7336586827312
  0
LINE
  8
_0-1_計細線
  6
CONTINUOUS
 62
    3
 10
827.92047467434168
 20
1245.7336586827312
 11
827.92047467434168
 21
1135.7336586827312
  0
LINE
  8
_0-1_計細線
  6
CONTINUOUS
 62
    3
 10
827.92047467434168
 20
1135.7336586827312
 11
819.92047467434168
 21
1135.7336586827312
  0
LINE
  8
_0-1_計細線
  6
CONTINUOUS
 62
    3
 10
805.89047467434193
 20
1135.7336586827312
 11
805.89047467434193
 21
1245.7336586827312
  0
LINE
  8
_0-1_計細線
  6
CONTINUOUS
 62
    3
 10
805.89047467434193
 20
1245.7336586827312
 11
813.89047467434193
 21
1245.7336586827312
  0
LINE
  8
_0-1_計細線
  6
CONTINUOUS
 62
    3
 10
813.89047467434193
 20
1245.7336586827312
 11
813.89047467434193
 21
1135.7336586827312
  0
LINE
  8
_0-1_計細線
  6
CONTINUOUS
 62
    3
 10
813.89047467434193
 20
1135.7336586827312
 11
805.89047467434193
 21
1135.7336586827312
  0
LINE
  8
_0-1_計細線
  6
CONTINUOUS
 62
    3
 10
791.86047467434219
 20
1135.7336586827312
 11
791.86047467434219
 21
1245.7336586827312
  0
LINE
  8
_0-1_計細線
  6
CONTINUOUS
 62
    3
 10
791.86047467434219
 20
1245.7336586827312
 11
799.86047467434219
 21
1245.7336586827312
  0
LINE
  8
_0-1_計細線
  6
CONTINUOUS
 62
    3
 10
799.86047467434219
 20
1245.7336586827312
 11
799.86047467434219
 21
1135.7336586827312
  0
LINE
  8
_0-1_計細線
  6
CONTINUOUS
 62
    3
 10
799.86047467434219
 20
1135.7336586827312
 11
791.86047467434219
 21
1135.7336586827312
  0
LINE
  8
_0-1_計細線
  6
CONTINUOUS
 62
    3
 10
777.83047467434153
 20
1135.7336586827312
 11
777.83047467434153
 21
1245.7336586827312
  0
LINE
  8
_0-1_計細線
  6
CONTINUOUS
 62
    3
 10
777.83047467434153
 20
1245.7336586827312
 11
785.83047467434153
 21
1245.7336586827312
  0
LINE
  8
_0-1_計細線
  6
CONTINUOUS
 62
    3
 10
785.83047467434153
 20
1245.7336586827312
 11
785.83047467434153
 21
1135.7336586827312
  0
LINE
  8
_0-1_計細線
  6
CONTINUOUS
 62
    3
 10
785.83047467434153
 20
1135.7336586827312
 11
777.83047467434153
 21
1135.7336586827312
  0
LINE
  8
_0-1_計細線
  6
CONTINUOUS
 62
    3
 10
763.80047467434179
 20
1135.7336586827312
 11
763.80047467434179
 21
1245.7336586827312
  0
LINE
  8
_0-1_計細線
  6
CONTINUOUS
 62
    3
 10
763.80047467434179
 20
1245.7336586827312
 11
771.80047467434179
 21
1245.7336586827312
  0
LINE
  8
_0-1_計細線
  6
CONTINUOUS
 62
    3
 10
771.80047467434179
 20
1245.7336586827312
 11
771.80047467434179
 21
1135.7336586827312
  0
LINE
  8
_0-1_計細線
  6
CONTINUOUS
 62
    3
 10
771.80047467434179
 20
1135.7336586827312
 11
763.80047467434179
 21
1135.7336586827312
  0
LINE
  8
_0-1_計細線
  6
CONTINUOUS
 62
    3
 10
749.77047467434204
 20
1135.7336586827312
 11
749.77047467434204
 21
1245.7336586827312
  0
LINE
  8
_0-1_計細線
  6
CONTINUOUS
 62
    3
 10
749.77047467434204
 20
1245.7336586827312
 11
757.77047467434204
 21
1245.7336586827312
  0
LINE
  8
_0-1_計細線
  6
CONTINUOUS
 62
    3
 10
757.77047467434204
 20
1245.7336586827312
 11
757.77047467434204
 21
1135.7336586827312
  0
LINE
  8
_0-1_計細線
  6
CONTINUOUS
 62
    3
 10
757.77047467434204
 20
1135.7336586827312
 11
749.77047467434204
 21
1135.7336586827312
  0
LINE
  8
_0-1_計細線
  6
CONTINUOUS
 62
    3
 10
735.74047467434229
 20
1135.7336586827312
 11
735.74047467434229
 21
1245.7336586827312
  0
LINE
  8
_0-1_計細線
  6
CONTINUOUS
 62
    3
 10
735.74047467434229
 20
1245.7336586827312
 11
743.74047467434229
 21
1245.7336586827312
  0
LINE
  8
_0-1_計細線
  6
CONTINUOUS
 62
    3
 10
743.74047467434229
 20
1245.7336586827312
 11
743.74047467434229
 21
1135.7336586827312
  0
LINE
  8
_0-1_計細線
  6
CONTINUOUS
 62
    3
 10
743.74047467434229
 20
1135.7336586827312
 11
735.74047467434229
 21
1135.7336586827312
  0
LINE
  8
_0-1_計細線
  6
CONTINUOUS
 62
    3
 10
721.71047467434255
 20
1135.7336586827312
 11
721.71047467434255
 21
1245.7336586827312
  0
LINE
  8
_0-1_計細線
  6
CONTINUOUS
 62
    3
 10
721.71047467434255
 20
1245.7336586827312
 11
729.71047467434255
 21
1245.7336586827312
  0
LINE
  8
_0-1_計細線
  6
CONTINUOUS
 62
    3
 10
729.71047467434255
 20
1245.7336586827312
 11
729.71047467434255
 21
1135.7336586827312
  0
LINE
  8
_0-1_計細線
  6
CONTINUOUS
 62
    3
 10
729.71047467434255
 20
1135.7336586827312
 11
721.71047467434255
 21
1135.7336586827312
  0
LINE
  8
_0-1_計細線
  6
CONTINUOUS
 62
    3
 10
707.68047467434189
 20
1135.7336586827312
 11
707.68047467434189
 21
1245.7336586827312
  0
LINE
  8
_0-1_計細線
  6
CONTINUOUS
 62
    3
 10
707.68047467434189
 20
1245.7336586827312
 11
715.68047467434189
 21
1245.7336586827312
  0
LINE
  8
_0-1_計細線
  6
CONTINUOUS
 62
    3
 10
715.68047467434189
 20
1245.7336586827312
 11
715.68047467434189
 21
1135.7336586827312
  0
LINE
  8
_0-1_計細線
  6
CONTINUOUS
 62
    3
 10
715.68047467434189
 20
1135.7336586827312
 11
707.68047467434189
 21
1135.7336586827312
  0
LINE
  8
_0-1_計細線
  6
CONTINUOUS
 62
    3
 10
693.65047467434215
 20
1135.7336586827312
 11
693.65047467434215
 21
1245.7336586827312
  0
LINE
  8
_0-1_計細線
  6
CONTINUOUS
 62
    3
 10
693.65047467434215
 20
1245.7336586827312
 11
701.65047467434215
 21
1245.7336586827312
  0
LINE
  8
_0-1_計細線
  6
CONTINUOUS
 62
    3
 10
701.65047467434215
 20
1245.7336586827312
 11
701.65047467434215
 21
1135.7336586827312
  0
LINE
  8
_0-1_計細線
  6
CONTINUOUS
 62
    3
 10
701.65047467434215
 20
1135.7336586827312
 11
693.65047467434215
 21
1135.7336586827312
  0
LINE
  8
_0-1_計細線
  6
CONTINUOUS
 62
    3
 10
679.6204746743424
 20
1135.7336586827312
 11
679.6204746743424
 21
1245.7336586827312
  0
LINE
  8
_0-1_計細線
  6
CONTINUOUS
 62
    3
 10
679.6204746743424
 20
1245.7336586827312
 11
687.6204746743424
 21
1245.7336586827312
  0
LINE
  8
_0-1_計細線
  6
CONTINUOUS
 62
    3
 10
687.6204746743424
 20
1245.7336586827312
 11
687.6204746743424
 21
1135.7336586827312
  0
LINE
  8
_0-1_計細線
  6
CONTINUOUS
 62
    3
 10
687.6204746743424
 20
1135.7336586827312
 11
679.6204746743424
 21
1135.7336586827312
  0
LINE
  8
_0-1_計細線
  6
CONTINUOUS
 62
    3
 10
665.59047467434175
 20
1135.7336586827312
 11
665.59047467434175
 21
1245.7336586827312
  0
LINE
  8
_0-1_計細線
  6
CONTINUOUS
 62
    3
 10
665.59047467434175
 20
1245.7336586827312
 11
673.59047467434175
 21
1245.7336586827312
  0
LINE
  8
_0-1_計細線
  6
CONTINUOUS
 62
    3
 10
673.59047467434175
 20
1245.7336586827312
 11
673.59047467434175
 21
1135.7336586827312
  0
LINE
  8
_0-1_計細線
  6
CONTINUOUS
 62
    3
 10
673.59047467434175
 20
1135.7336586827312
 11
665.59047467434175
 21
1135.7336586827312
  0
LINE
  8
_0-1_計細線
  6
CONTINUOUS
 62
    3
 10
651.560474674342
 20
1135.7336586827312
 11
651.560474674342
 21
1245.7336586827312
  0
LINE
  8
_0-1_計細線
  6
CONTINUOUS
 62
    3
 10
651.560474674342
 20
1245.7336586827312
 11
659.560474674342
 21
1245.7336586827312
  0
LINE
  8
_0-1_計細線
  6
CONTINUOUS
 62
    3
 10
659.560474674342
 20
1245.7336586827312
 11
659.560474674342
 21
1135.7336586827312
  0
LINE
  8
_0-1_計細線
  6
CONTINUOUS
 62
    3
 10
659.560474674342
 20
1135.7336586827312
 11
651.560474674342
 21
1135.7336586827312
  0
LINE
  8
_0-1_計細線
  6
CONTINUOUS
 62
    3
 10
637.53047467434226
 20
1135.7336586827312
 11
637.53047467434226
 21
1245.7336586827312
  0
LINE
  8
_0-1_計細線
  6
CONTINUOUS
 62
    3
 10
637.53047467434226
 20
1245.7336586827312
 11
645.53047467434226
 21
1245.7336586827312
  0
LINE
  8
_0-1_計細線
  6
CONTINUOUS
 62
    3
 10
645.53047467434226
 20
1245.7336586827312
 11
645.53047467434226
 21
1135.7336586827312
  0
LINE
  8
_0-1_計細線
  6
CONTINUOUS
 62
    3
 10
645.53047467434226
 20
1135.7336586827312
 11
637.53047467434226
 21
1135.7336586827312
  0
LINE
  8
_0-1_計細線
  6
CONTINUOUS
 62
    3
 10
623.50047467434251
 20
1135.7336586827312
 11
623.50047467434251
 21
1245.7336586827312
  0
LINE
  8
_0-1_計細線
  6
CONTINUOUS
 62
    3
 10
623.50047467434251
 20
1245.7336586827312
 11
631.50047467434251
 21
1245.7336586827312
  0
LINE
  8
_0-1_計細線
  6
CONTINUOUS
 62
    3
 10
631.50047467434251
 20
1245.7336586827312
 11
631.50047467434251
 21
1135.7336586827312
  0
LINE
  8
_0-1_計細線
  6
CONTINUOUS
 62
    3
 10
631.50047467434251
 20
1135.7336586827312
 11
623.50047467434251
 21
1135.7336586827312
  0
LINE
  8
_0-1_計細線
  6
CONTINUOUS
 62
    3
 10
609.47047467434277
 20
1135.7336586827312
 11
609.47047467434277
 21
1245.7336586827312
  0
LINE
  8
_0-1_計細線
  6
CONTINUOUS
 62
    3
 10
609.47047467434277
 20
1245.7336586827312
 11
617.47047467434277
 21
1245.7336586827312
  0
LINE
  8
_0-1_計細線
  6
CONTINUOUS
 62
    3
 10
617.47047467434277
 20
1245.7336586827312
 11
617.47047467434277
 21
1135.7336586827312
  0
LINE
  8
_0-1_計細線
  6
CONTINUOUS
 62
    3
 10
617.47047467434277
 20
1135.7336586827312
 11
609.47047467434277
 21
1135.7336586827312
  0
LINE
  8
_0-1_計細線
  6
CONTINUOUS
 62
    3
 10
595.44047467434211
 20
1135.7336586827312
 11
595.44047467434211
 21
1245.7336586827312
  0
LINE
  8
_0-1_計細線
  6
CONTINUOUS
 62
    3
 10
595.44047467434211
 20
1245.7336586827312
 11
603.44047467434211
 21
1245.7336586827312
  0
LINE
  8
_0-1_計細線
  6
CONTINUOUS
 62
    3
 10
603.44047467434211
 20
1245.7336586827312
 11
603.44047467434211
 21
1135.7336586827312
  0
LINE
  8
_0-1_計細線
  6
CONTINUOUS
 62
    3
 10
603.44047467434211
 20
1135.7336586827312
 11
595.44047467434211
 21
1135.7336586827312
  0
LINE
  8
_0-1_計細線
  6
CONTINUOUS
 62
    3
 10
581.41047467434237
 20
1135.7336586827312
 11
581.41047467434237
 21
1245.7336586827312
  0
LINE
  8
_0-1_計細線
  6
CONTINUOUS
 62
    3
 10
581.41047467434237
 20
1245.7336586827312
 11
589.41047467434237
 21
1245.7336586827312
  0
LINE
  8
_0-1_計細線
  6
CONTINUOUS
 62
    3
 10
589.41047467434237
 20
1245.7336586827312
 11
589.41047467434237
 21
1135.7336586827312
  0
LINE
  8
_0-1_計細線
  6
CONTINUOUS
 62
    3
 10
589.41047467434237
 20
1135.7336586827312
 11
581.41047467434237
 21
1135.7336586827312
  0
LINE
  8
_0-1_計細線
  6
CONTINUOUS
 62
    3
 10
567.38047467434262
 20
1135.7336586827312
 11
567.38047467434262
 21
1245.7336586827312
  0
LINE
  8
_0-1_計細線
  6
CONTINUOUS
 62
    3
 10
567.38047467434262
 20
1245.7336586827312
 11
575.38047467434262
 21
1245.7336586827312
  0
LINE
  8
_0-1_計細線
  6
CONTINUOUS
 62
    3
 10
575.38047467434262
 20
1245.7336586827312
 11
575.38047467434262
 21
1135.7336586827312
  0
LINE
  8
_0-1_計細線
  6
CONTINUOUS
 62
    3
 10
575.38047467434262
 20
1135.7336586827312
 11
567.38047467434262
 21
1135.7336586827312
  0
LINE
  8
_0-1_計細線
  6
CONTINUOUS
 62
    3
 10
553.35047467434197
 20
1135.7336586827312
 11
553.35047467434197
 21
1245.7336586827312
  0
LINE
  8
_0-1_計細線
  6
CONTINUOUS
 62
    3
 10
553.35047467434197
 20
1245.7336586827312
 11
561.35047467434197
 21
1245.7336586827312
  0
LINE
  8
_0-1_計細線
  6
CONTINUOUS
 62
    3
 10
561.35047467434197
 20
1245.7336586827312
 11
561.35047467434197
 21
1135.7336586827312
  0
LINE
  8
_0-1_計細線
  6
CONTINUOUS
 62
    3
 10
561.35047467434197
 20
1135.7336586827312
 11
553.35047467434197
 21
1135.7336586827312
  0
LINE
  8
_0-1_計細線
  6
CONTINUOUS
 62
    3
 10
539.32047467434222
 20
1135.7336586827312
 11
539.32047467434222
 21
1245.7336586827312
  0
LINE
  8
_0-1_計細線
  6
CONTINUOUS
 62
    3
 10
539.32047467434222
 20
1245.7336586827312
 11
547.32047467434222
 21
1245.7336586827312
  0
LINE
  8
_0-1_計細線
  6
CONTINUOUS
 62
    3
 10
547.32047467434222
 20
1245.7336586827312
 11
547.32047467434222
 21
1135.7336586827312
  0
LINE
  8
_0-1_計細線
  6
CONTINUOUS
 62
    3
 10
547.32047467434222
 20
1135.7336586827312
 11
539.32047467434222
 21
1135.7336586827312
  0
LINE
  8
_0-1_計細線
  6
CONTINUOUS
 62
    3
 10
525.29047467434248
 20
1135.7336586827312
 11
525.29047467434248
 21
1245.7336586827312
  0
LINE
  8
_0-1_計細線
  6
CONTINUOUS
 62
    3
 10
525.29047467434248
 20
1245.7336586827312
 11
533.29047467434248
 21
1245.7336586827312
  0
LINE
  8
_0-1_計細線
  6
CONTINUOUS
 62
    3
 10
533.29047467434248
 20
1245.7336586827312
 11
533.29047467434248
 21
1135.7336586827312
  0
LINE
  8
_0-1_計細線
  6
CONTINUOUS
 62
    3
 10
533.29047467434248
 20
1135.7336586827312
 11
525.29047467434248
 21
1135.7336586827312
  0
LINE
  8
_0-1_計細線
  6
CONTINUOUS
 62
    3
 10
511.26047467434182
 20
1135.7336586827312
 11
511.26047467434182
 21
1245.7336586827312
  0
LINE
  8
_0-1_計細線
  6
CONTINUOUS
 62
    3
 10
511.26047467434182
 20
1245.7336586827312
 11
519.26047467434182
 21
1245.7336586827312
  0
LINE
  8
_0-1_計細線
  6
CONTINUOUS
 62
    3
 10
519.26047467434182
 20
1245.7336586827312
 11
519.26047467434182
 21
1135.7336586827312
  0
LINE
  8
_0-1_計細線
  6
CONTINUOUS
 62
    3
 10
519.26047467434182
 20
1135.7336586827312
 11
511.26047467434182
 21
1135.7336586827312
  0
LINE
  8
_0-1_計細線
  6
CONTINUOUS
 62
    3
 10
497.23047467434208
 20
1135.7336586827312
 11
497.23047467434208
 21
1245.7336586827312
  0
LINE
  8
_0-1_計細線
  6
CONTINUOUS
 62
    3
 10
497.23047467434208
 20
1245.7336586827312
 11
505.23047467434208
 21
1245.7336586827312
  0
LINE
  8
_0-1_計細線
  6
CONTINUOUS
 62
    3
 10
505.23047467434208
 20
1245.7336586827312
 11
505.23047467434208
 21
1135.7336586827312
  0
LINE
  8
_0-1_計細線
  6
CONTINUOUS
 62
    3
 10
505.23047467434208
 20
1135.7336586827312
 11
497.23047467434208
 21
1135.7336586827312
  0
LINE
  8
_0-1_計細線
  6
CONTINUOUS
 62
    3
 10
483.20047467434233
 20
1135.7336586827312
 11
483.20047467434233
 21
1245.7336586827312
  0
LINE
  8
_0-1_計細線
  6
CONTINUOUS
 62
    3
 10
483.20047467434233
 20
1245.7336586827312
 11
491.20047467434233
 21
1245.7336586827312
  0
LINE
  8
_0-1_計細線
  6
CONTINUOUS
 62
    3
 10
491.20047467434233
 20
1245.7336586827312
 11
491.20047467434233
 21
1135.7336586827312
  0
LINE
  8
_0-1_計細線
  6
CONTINUOUS
 62
    3
 10
491.20047467434233
 20
1135.7336586827312
 11
483.20047467434233
 21
1135.7336586827312
  0
LINE
  8
_0-1_計細線
  6
CONTINUOUS
 62
    3
 10
469.17047467434259
 20
1135.7336586827312
 11
469.17047467434259
 21
1245.7336586827312
  0
LINE
  8
_0-1_計細線
  6
CONTINUOUS
 62
    3
 10
469.17047467434259
 20
1245.7336586827312
 11
477.17047467434259
 21
1245.7336586827312
  0
LINE
  8
_0-1_計細線
  6
CONTINUOUS
 62
    3
 10
477.17047467434259
 20
1245.7336586827312
 11
477.17047467434259
 21
1135.7336586827312
  0
LINE
  8
_0-1_計細線
  6
CONTINUOUS
 62
    3
 10
477.17047467434259
 20
1135.7336586827312
 11
469.17047467434259
 21
1135.7336586827312
  0
LINE
  8
_0-0_計極細
  6
CONTINUOUS
 62
    2
 10
841.95047467434233
 20
1193.7336586827312
 11
845.96047467434255
 21
1193.7336586827312
  0
LINE
  8
_0-0_計極細
  6
CONTINUOUS
 62
    2
 10
841.95047467434233
 20
1187.7336586827312
 11
845.96047467434255
 21
1187.7336586827312
  0
LINE
  8
_0-0_計極細
  6
CONTINUOUS
 62
    2
 10
827.92047467434168
 20
1192.7336586827312
 11
833.95047467434233
 21
1192.7336586827312
  0
LINE
  8
_0-0_計極細
  6
CONTINUOUS
 62
    2
 10
827.92047467434168
 20
1188.7336586827312
 11
833.95047467434233
 21
1188.7336586827312
  0
LINE
  8
_0-0_計極細
  6
CONTINUOUS
 62
    2
 10
813.89047467434193
 20
1192.7336586827312
 11
819.92047467434259
 21
1192.7336586827312
  0
LINE
  8
_0-0_計極細
  6
CONTINUOUS
 62
    2
 10
813.89047467434193
 20
1188.7336586827312
 11
819.92047467434259
 21
1188.7336586827312
  0
LINE
  8
_0-0_計極細
  6
CONTINUOUS
 62
    2
 10
799.86047467434219
 20
1192.7336586827312
 11
805.89047467434193
 21
1192.7336586827312
  0
LINE
  8
_0-0_計極細
  6
CONTINUOUS
 62
    2
 10
799.86047467434219
 20
1188.7336586827312
 11
805.89047467434193
 21
1188.7336586827312
  0
LINE
  8
_0-0_計極細
  6
CONTINUOUS
 62
    2
 10
785.83047467434153
 20
1192.7336586827312
 11
791.86047467434219
 21
1192.7336586827312
  0
LINE
  8
_0-0_計極細
  6
CONTINUOUS
 62
    2
 10
785.83047467434153
 20
1188.7336586827312
 11
791.86047467434219
 21
1188.7336586827312
  0
LINE
  8
_0-0_計極細
  6
CONTINUOUS
 62
    2
 10
771.80047467434179
 20
1192.7336586827312
 11
777.83047467434244
 21
1192.7336586827312
  0
LINE
  8
_0-0_計極細
  6
CONTINUOUS
 62
    2
 10
771.80047467434179
 20
1188.7336586827312
 11
777.83047467434244
 21
1188.7336586827312
  0
LINE
  8
_0-0_計極細
  6
CONTINUOUS
 62
    2
 10
757.77047467434204
 20
1192.7336586827312
 11
763.80047467434269
 21
1192.7336586827312
  0
LINE
  8
_0-0_計極細
  6
CONTINUOUS
 62
    2
 10
757.77047467434204
 20
1188.7336586827312
 11
763.80047467434269
 21
1188.7336586827312
  0
LINE
  8
_0-0_計極細
  6
CONTINUOUS
 62
    2
 10
743.74047467434229
 20
1192.7336586827312
 11
749.77047467434204
 21
1192.7336586827312
  0
LINE
  8
_0-0_計極細
  6
CONTINUOUS
 62
    2
 10
743.74047467434229
 20
1188.7336586827312
 11
749.77047467434204
 21
1188.7336586827312
  0
LINE
  8
_0-0_計極細
  6
CONTINUOUS
 62
    2
 10
729.71047467434255
 20
1192.7336586827312
 11
735.74047467434229
 21
1192.7336586827312
  0
LINE
  8
_0-0_計極細
  6
CONTINUOUS
 62
    2
 10
729.71047467434255
 20
1188.7336586827312
 11
735.74047467434229
 21
1188.7336586827312
  0
LINE
  8
_0-0_計極細
  6
CONTINUOUS
 62
    2
 10
715.68047467434189
 20
1192.7336586827312
 11
721.71047467434255
 21
1192.7336586827312
  0
LINE
  8
_0-0_計極細
  6
CONTINUOUS
 62
    2
 10
715.68047467434189
 20
1188.7336586827312
 11
721.71047467434255
 21
1188.7336586827312
  0
LINE
  8
_0-0_計極細
  6
CONTINUOUS
 62
    2
 10
701.65047467434215
 20
1192.7336586827312
 11
707.68047467434189
 21
1192.7336586827312
  0
LINE
  8
_0-0_計極細
  6
CONTINUOUS
 62
    2
 10
701.65047467434215
 20
1188.7336586827312
 11
707.68047467434189
 21
1188.7336586827312
  0
LINE
  8
_0-0_計極細
  6
CONTINUOUS
 62
    2
 10
687.6204746743424
 20
1192.7336586827312
 11
693.65047467434215
 21
1192.7336586827312
  0
LINE
  8
_0-0_計極細
  6
CONTINUOUS
 62
    2
 10
687.6204746743424
 20
1188.7336586827312
 11
693.65047467434215
 21
1188.7336586827312
  0
LINE
  8
_0-0_計極細
  6
CONTINUOUS
 62
    2
 10
673.59047467434175
 20
1192.7336586827312
 11
679.6204746743424
 21
1192.7336586827312
  0
LINE
  8
_0-0_計極細
  6
CONTINUOUS
 62
    2
 10
673.59047467434175
 20
1188.7336586827312
 11
679.6204746743424
 21
1188.7336586827312
  0
LINE
  8
_0-0_計極細
  6
CONTINUOUS
 62
    2
 10
659.560474674342
 20
1192.7336586827312
 11
665.59047467434266
 21
1192.7336586827312
  0
LINE
  8
_0-0_計極細
  6
CONTINUOUS
 62
    2
 10
659.560474674342
 20
1188.7336586827312
 11
665.59047467434266
 21
1188.7336586827312
  0
LINE
  8
_0-0_計極細
  6
CONTINUOUS
 62
    2
 10
645.53047467434226
 20
1192.7336586827312
 11
651.56047467434291
 21
1192.7336586827312
  0
LINE
  8
_0-0_計極細
  6
CONTINUOUS
 62
    2
 10
645.53047467434226
 20
1188.7336586827312
 11
651.56047467434291
 21
1188.7336586827312
  0
LINE
  8
_0-0_計極細
  6
CONTINUOUS
 62
    2
 10
631.50047467434251
 20
1192.7336586827312
 11
637.53047467434226
 21
1192.7336586827312
  0
LINE
  8
_0-0_計極細
  6
CONTINUOUS
 62
    2
 10
631.50047467434251
 20
1188.7336586827312
 11
637.53047467434226
 21
1188.7336586827312
  0
LINE
  8
_0-0_計極細
  6
CONTINUOUS
 62
    2
 10
617.47047467434277
 20
1192.7336586827312
 11
623.50047467434251
 21
1192.7336586827312
  0
LINE
  8
_0-0_計極細
  6
CONTINUOUS
 62
    2
 10
617.47047467434277
 20
1188.7336586827312
 11
623.50047467434251
 21
1188.7336586827312
  0
LINE
  8
_0-0_計極細
  6
CONTINUOUS
 62
    2
 10
603.44047467434211
 20
1192.7336586827312
 11
609.47047467434277
 21
1192.7336586827312
  0
LINE
  8
_0-0_計極細
  6
CONTINUOUS
 62
    2
 10
603.44047467434211
 20
1188.7336586827312
 11
609.47047467434277
 21
1188.7336586827312
  0
LINE
  8
_0-0_計極細
  6
CONTINUOUS
 62
    2
 10
589.41047467434237
 20
1192.7336586827312
 11
595.44047467434211
 21
1192.7336586827312
  0
LINE
  8
_0-0_計極細
  6
CONTINUOUS
 62
    2
 10
589.41047467434237
 20
1188.7336586827312
 11
595.44047467434211
 21
1188.7336586827312
  0
LINE
  8
_0-0_計極細
  6
CONTINUOUS
 62
    2
 10
575.38047467434262
 20
1192.7336586827312
 11
581.41047467434237
 21
1192.7336586827312
  0
LINE
  8
_0-0_計極細
  6
CONTINUOUS
 62
    2
 10
575.38047467434262
 20
1188.7336586827312
 11
581.41047467434237
 21
1188.7336586827312
  0
LINE
  8
_0-0_計極細
  6
CONTINUOUS
 62
    2
 10
561.35047467434197
 20
1192.7336586827312
 11
567.38047467434262
 21
1192.7336586827312
  0
LINE
  8
_0-0_計極細
  6
CONTINUOUS
 62
    2
 10
561.35047467434197
 20
1188.7336586827312
 11
567.38047467434262
 21
1188.7336586827312
  0
LINE
  8
_0-0_計極細
  6
CONTINUOUS
 62
    2
 10
547.32047467434222
 20
1192.7336586827312
 11
553.35047467434197
 21
1192.7336586827312
  0
LINE
  8
_0-0_計極細
  6
CONTINUOUS
 62
    2
 10
547.32047467434222
 20
1188.7336586827312
 11
553.35047467434197
 21
1188.7336586827312
  0
LINE
  8
_0-0_計極細
  6
CONTINUOUS
 62
    2
 10
533.29047467434248
 20
1192.7336586827312
 11
539.32047467434222
 21
1192.7336586827312
  0
LINE
  8
_0-0_計極細
  6
CONTINUOUS
 62
    2
 10
533.29047467434248
 20
1188.7336586827312
 11
539.32047467434222
 21
1188.7336586827312
  0
LINE
  8
_0-0_計極細
  6
CONTINUOUS
 62
    2
 10
519.26047467434182
 20
1192.7336586827312
 11
525.29047467434248
 21
1192.7336586827312
  0
LINE
  8
_0-0_計極細
  6
CONTINUOUS
 62
    2
 10
519.26047467434182
 20
1188.7336586827312
 11
525.29047467434248
 21
1188.7336586827312
  0
LINE
  8
_0-0_計極細
  6
CONTINUOUS
 62
    2
 10
505.23047467434208
 20
1192.7336586827312
 11
511.26047467434273
 21
1192.7336586827312
  0
LINE
  8
_0-0_計極細
  6
CONTINUOUS
 62
    2
 10
505.23047467434208
 20
1188.7336586827312
 11
511.26047467434273
 21
1188.7336586827312
  0
LINE
  8
_0-0_計極細
  6
CONTINUOUS
 62
    2
 10
491.20047467434233
 20
1192.7336586827312
 11
497.23047467434299
 21
1192.7336586827312
  0
LINE
  8
_0-0_計極細
  6
CONTINUOUS
 62
    2
 10
491.20047467434233
 20
1188.7336586827312
 11
497.23047467434299
 21
1188.7336586827312
  0
LINE
  8
_0-0_計極細
  6
CONTINUOUS
 62
    2
 10
477.17047467434259
 20
1192.7336586827312
 11
483.20047467434233
 21
1192.7336586827312
  0
LINE
  8
_0-0_計極細
  6
CONTINUOUS
 62
    2
 10
477.17047467434259
 20
1188.7336586827312
 11
483.20047467434233
 21
1188.7336586827312
  0
LINE
  8
_0-0_計極細
  6
CONTINUOUS
 62
    2
 10
463.14047467434284
 20
1192.7336586827312
 11
469.17047467434259
 21
1192.7336586827312
  0
LINE
  8
_0-0_計極細
  6
CONTINUOUS
 62
    2
 10
463.14047467434284
 20
1188.7336586827312
 11
469.17047467434259
 21
1188.7336586827312
  0
LINE
  8
_0-0_計極細
  6
CONTINUOUS
 62
    2
 10
449.11047467434219
 20
1192.7336586827312
 11
455.14047467434284
 21
1192.7336586827312
  0
LINE
  8
_0-0_計極細
  6
CONTINUOUS
 62
    2
 10
449.11047467434219
 20
1188.7336586827312
 11
455.14047467434284
 21
1188.7336586827312
  0
LINE
  8
_0-0_計極細
  6
CONTINUOUS
 62
    2
 10
435.08047467434244
 20
1192.7336586827312
 11
441.11047467434219
 21
1192.7336586827312
  0
LINE
  8
_0-0_計極細
  6
CONTINUOUS
 62
    2
 10
435.08047467434244
 20
1188.7336586827312
 11
441.11047467434219
 21
1188.7336586827312
  0
LINE
  8
_0-0_計極細
  6
CONTINUOUS
 62
    2
 10
421.05047467434269
 20
1192.7336586827312
 11
427.08047467434244
 21
1192.7336586827312
  0
LINE
  8
_0-0_計極細
  6
CONTINUOUS
 62
    2
 10
421.05047467434269
 20
1188.7336586827312
 11
427.08047467434244
 21
1188.7336586827312
  0
LINE
  8
_0-0_計極細
  6
CONTINUOUS
 62
    2
 10
407.02047467434204
 20
1192.7336586827312
 11
413.05047467434269
 21
1192.7336586827312
  0
LINE
  8
_0-0_計極細
  6
CONTINUOUS
 62
    2
 10
407.02047467434204
 20
1188.7336586827312
 11
413.05047467434269
 21
1188.7336586827312
  0
LINE
  8
_0-0_計極細
  6
CONTINUOUS
 62
    2
 10
392.99047467434229
 20
1192.7336586827312
 11
399.02047467434204
 21
1192.7336586827312
  0
LINE
  8
_0-0_計極細
  6
CONTINUOUS
 62
    2
 10
392.99047467434229
 20
1188.7336586827312
 11
399.02047467434204
 21
1188.7336586827312
  0
LINE
  8
_0-0_計極細
  6
CONTINUOUS
 62
    2
 10
378.96047467434255
 20
1188.7336586827312
 11
384.99047467434229
 21
1188.7336586827312
  0
LINE
  8
_0-0_計極細
  6
CONTINUOUS
 62
    2
 10
378.96047467434255
 20
1192.7336586827312
 11
384.99047467434229
 21
1192.7336586827312
  0
LINE
  8
_0-1_計細線
  6
CONTINUOUS
 62
    3
 10
939.14047467434284
 20
1135.7336586827307
 11
939.14047467434284
 21
1245.7336586827307
  0
LINE
  8
_0-1_計細線
  6
CONTINUOUS
 62
    3
 10
939.14047467434284
 20
1245.7336586827307
 11
947.14047467434284
 21
1245.7336586827307
  0
LINE
  8
_0-1_計細線
  6
CONTINUOUS
 62
    3
 10
947.14047467434284
 20
1245.7336586827307
 11
947.14047467434284
 21
1135.7336586827307
  0
LINE
  8
_0-1_計細線
  6
CONTINUOUS
 62
    3
 10
947.14047467434284
 20
1135.7336586827307
 11
939.14047467434284
 21
1135.7336586827307
  0
LINE
  8
_0-1_計細線
  6
CONTINUOUS
 62
    3
 10
925.11047467434219
 20
1135.7336586827307
 11
925.11047467434219
 21
1245.7336586827307
  0
LINE
  8
_0-1_計細線
  6
CONTINUOUS
 62
    3
 10
925.11047467434219
 20
1245.7336586827307
 11
933.11047467434219
 21
1245.7336586827307
  0
LINE
  8
_0-1_計細線
  6
CONTINUOUS
 62
    3
 10
933.11047467434219
 20
1245.7336586827307
 11
933.11047467434219
 21
1135.7336586827307
  0
LINE
  8
_0-1_計細線
  6
CONTINUOUS
 62
    3
 10
933.11047467434219
 20
1135.7336586827307
 11
925.11047467434219
 21
1135.7336586827307
  0
LINE
  8
_0-1_計細線
  6
CONTINUOUS
 62
    3
 10
911.08047467434244
 20
1135.7336586827307
 11
911.08047467434244
 21
1245.7336586827307
  0
LINE
  8
_0-1_計細線
  6
CONTINUOUS
 62
    3
 10
911.08047467434244
 20
1245.7336586827307
 11
919.08047467434244
 21
1245.7336586827307
  0
LINE
  8
_0-1_計細線
  6
CONTINUOUS
 62
    3
 10
919.08047467434244
 20
1245.7336586827307
 11
919.08047467434244
 21
1135.7336586827307
  0
LINE
  8
_0-1_計細線
  6
CONTINUOUS
 62
    3
 10
919.08047467434244
 20
1135.7336586827307
 11
911.08047467434244
 21
1135.7336586827307
  0
LINE
  8
_0-1_計細線
  6
CONTINUOUS
 62
    3
 10
897.05047467434269
 20
1135.7336586827307
 11
897.05047467434269
 21
1245.7336586827307
  0
LINE
  8
_0-1_計細線
  6
CONTINUOUS
 62
    3
 10
897.05047467434269
 20
1245.7336586827307
 11
905.05047467434269
 21
1245.7336586827307
  0
LINE
  8
_0-1_計細線
  6
CONTINUOUS
 62
    3
 10
905.05047467434269
 20
1245.7336586827307
 11
905.05047467434269
 21
1135.7336586827307
  0
LINE
  8
_0-1_計細線
  6
CONTINUOUS
 62
    3
 10
905.05047467434269
 20
1135.7336586827307
 11
897.05047467434269
 21
1135.7336586827307
  0
LINE
  8
_0-1_計細線
  6
CONTINUOUS
 62
    3
 10
883.02047467434204
 20
1135.7336586827307
 11
883.02047467434204
 21
1245.7336586827307
  0
LINE
  8
_0-1_計細線
  6
CONTINUOUS
 62
    3
 10
883.02047467434204
 20
1245.7336586827307
 11
891.02047467434204
 21
1245.7336586827307
  0
LINE
  8
_0-1_計細線
  6
CONTINUOUS
 62
    3
 10
891.02047467434204
 20
1245.7336586827307
 11
891.02047467434204
 21
1135.7336586827307
  0
LINE
  8
_0-1_計細線
  6
CONTINUOUS
 62
    3
 10
891.02047467434204
 20
1135.7336586827307
 11
883.02047467434204
 21
1135.7336586827307
  0
LINE
  8
_0-1_計細線
  6
CONTINUOUS
 62
    3
 10
868.99047467434229
 20
1135.7336586827307
 11
868.99047467434229
 21
1245.7336586827307
  0
LINE
  8
_0-1_計細線
  6
CONTINUOUS
 62
    3
 10
868.99047467434229
 20
1245.7336586827307
 11
876.99047467434229
 21
1245.7336586827307
  0
LINE
  8
_0-1_計細線
  6
CONTINUOUS
 62
    3
 10
876.99047467434229
 20
1245.7336586827307
 11
876.99047467434229
 21
1135.7336586827307
  0
LINE
  8
_0-1_計細線
  6
CONTINUOUS
 62
    3
 10
876.99047467434229
 20
1135.7336586827307
 11
868.99047467434229
 21
1135.7336586827307
  0
LINE
  8
_0-1_計細線
  6
CONTINUOUS
 62
    3
 10
854.96047467434255
 20
1135.7336586827307
 11
854.96047467434255
 21
1245.7336586827307
  0
LINE
  8
_0-1_計細線
  6
CONTINUOUS
 62
    3
 10
854.96047467434255
 20
1245.7336586827307
 11
862.96047467434255
 21
1245.7336586827307
  0
LINE
  8
_0-1_計細線
  6
CONTINUOUS
 62
    3
 10
862.96047467434255
 20
1245.7336586827307
 11
862.96047467434255
 21
1135.7336586827307
  0
LINE
  8
_0-1_計細線
  6
CONTINUOUS
 62
    3
 10
862.96047467434255
 20
1135.7336586827307
 11
854.96047467434255
 21
1135.7336586827307
  0
LINE
  8
_0-1_計細線
  6
CONTINUOUS
 62
    3
 10
1163.6204746743424
 20
1135.7336586827307
 11
1163.6204746743424
 21
1245.7336586827307
  0
LINE
  8
_0-1_計細線
  6
CONTINUOUS
 62
    3
 10
1163.6204746743424
 20
1245.7336586827307
 11
1171.6204746743424
 21
1245.7336586827307
  0
LINE
  8
_0-1_計細線
  6
CONTINUOUS
 62
    3
 10
1171.6204746743424
 20
1245.7336586827307
 11
1171.6204746743424
 21
1135.7336586827307
  0
LINE
  8
_0-1_計細線
  6
CONTINUOUS
 62
    3
 10
1171.6204746743424
 20
1135.7336586827307
 11
1163.6204746743424
 21
1135.7336586827307
  0
LINE
  8
_0-1_計細線
  6
CONTINUOUS
 62
    3
 10
1149.5904746743417
 20
1135.7336586827307
 11
1149.5904746743417
 21
1245.7336586827307
  0
LINE
  8
_0-1_計細線
  6
CONTINUOUS
 62
    3
 10
1149.5904746743417
 20
1245.7336586827307
 11
1157.5904746743417
 21
1245.7336586827307
  0
LINE
  8
_0-1_計細線
  6
CONTINUOUS
 62
    3
 10
1157.5904746743417
 20
1245.7336586827307
 11
1157.5904746743417
 21
1135.7336586827307
  0
LINE
  8
_0-1_計細線
  6
CONTINUOUS
 62
    3
 10
1157.5904746743417
 20
1135.7336586827307
 11
1149.5904746743417
 21
1135.7336586827307
  0
LINE
  8
_0-1_計細線
  6
CONTINUOUS
 62
    3
 10
1135.560474674342
 20
1135.7336586827307
 11
1135.560474674342
 21
1245.7336586827307
  0
LINE
  8
_0-1_計細線
  6
CONTINUOUS
 62
    3
 10
1135.560474674342
 20
1245.7336586827307
 11
1143.560474674342
 21
1245.7336586827307
  0
LINE
  8
_0-1_計細線
  6
CONTINUOUS
 62
    3
 10
1143.560474674342
 20
1245.7336586827307
 11
1143.560474674342
 21
1135.7336586827307
  0
LINE
  8
_0-1_計細線
  6
CONTINUOUS
 62
    3
 10
1143.560474674342
 20
1135.7336586827307
 11
1135.560474674342
 21
1135.7336586827307
  0
LINE
  8
_0-1_計細線
  6
CONTINUOUS
 62
    3
 10
1121.5304746743423
 20
1135.7336586827307
 11
1121.5304746743423
 21
1245.7336586827307
  0
LINE
  8
_0-1_計細線
  6
CONTINUOUS
 62
    3
 10
1121.5304746743423
 20
1245.7336586827307
 11
1129.5304746743423
 21
1245.7336586827307
  0
LINE
  8
_0-1_計細線
  6
CONTINUOUS
 62
    3
 10
1129.5304746743423
 20
1245.7336586827307
 11
1129.5304746743423
 21
1135.7336586827307
  0
LINE
  8
_0-1_計細線
  6
CONTINUOUS
 62
    3
 10
1129.5304746743423
 20
1135.7336586827307
 11
1121.5304746743423
 21
1135.7336586827307
  0
LINE
  8
_0-1_計細線
  6
CONTINUOUS
 62
    3
 10
1107.5004746743425
 20
1135.7336586827307
 11
1107.5004746743425
 21
1245.7336586827307
  0
LINE
  8
_0-1_計細線
  6
CONTINUOUS
 62
    3
 10
1107.5004746743425
 20
1245.7336586827307
 11
1115.5004746743425
 21
1245.7336586827307
  0
LINE
  8
_0-1_計細線
  6
CONTINUOUS
 62
    3
 10
1115.5004746743425
 20
1245.7336586827307
 11
1115.5004746743425
 21
1135.7336586827307
  0
LINE
  8
_0-1_計細線
  6
CONTINUOUS
 62
    3
 10
1115.5004746743425
 20
1135.7336586827307
 11
1107.5004746743425
 21
1135.7336586827307
  0
LINE
  8
_0-1_計細線
  6
CONTINUOUS
 62
    3
 10
1093.4704746743428
 20
1135.7336586827307
 11
1093.4704746743428
 21
1245.7336586827307
  0
LINE
  8
_0-1_計細線
  6
CONTINUOUS
 62
    3
 10
1093.4704746743428
 20
1245.7336586827307
 11
1101.4704746743428
 21
1245.7336586827307
  0
LINE
  8
_0-1_計細線
  6
CONTINUOUS
 62
    3
 10
1101.4704746743428
 20
1245.7336586827307
 11
1101.4704746743428
 21
1135.7336586827307
  0
LINE
  8
_0-1_計細線
  6
CONTINUOUS
 62
    3
 10
1101.4704746743428
 20
1135.7336586827307
 11
1093.4704746743428
 21
1135.7336586827307
  0
LINE
  8
_0-1_計細線
  6
CONTINUOUS
 62
    3
 10
1079.4404746743421
 20
1135.7336586827307
 11
1079.4404746743421
 21
1245.7336586827307
  0
LINE
  8
_0-1_計細線
  6
CONTINUOUS
 62
    3
 10
1079.4404746743421
 20
1245.7336586827307
 11
1087.4404746743421
 21
1245.7336586827307
  0
LINE
  8
_0-1_計細線
  6
CONTINUOUS
 62
    3
 10
1087.4404746743421
 20
1245.7336586827307
 11
1087.4404746743421
 21
1135.7336586827307
  0
LINE
  8
_0-1_計細線
  6
CONTINUOUS
 62
    3
 10
1087.4404746743421
 20
1135.7336586827307
 11
1079.4404746743421
 21
1135.7336586827307
  0
LINE
  8
_0-1_計細線
  6
CONTINUOUS
 62
    3
 10
1065.4104746743424
 20
1135.7336586827307
 11
1065.4104746743424
 21
1245.7336586827307
  0
LINE
  8
_0-1_計細線
  6
CONTINUOUS
 62
    3
 10
1065.4104746743424
 20
1245.7336586827307
 11
1073.4104746743424
 21
1245.7336586827307
  0
LINE
  8
_0-1_計細線
  6
CONTINUOUS
 62
    3
 10
1073.4104746743424
 20
1245.7336586827307
 11
1073.4104746743424
 21
1135.7336586827307
  0
LINE
  8
_0-1_計細線
  6
CONTINUOUS
 62
    3
 10
1073.4104746743424
 20
1135.7336586827307
 11
1065.4104746743424
 21
1135.7336586827307
  0
LINE
  8
_0-1_計細線
  6
CONTINUOUS
 62
    3
 10
1051.3804746743426
 20
1135.7336586827307
 11
1051.3804746743426
 21
1245.7336586827307
  0
LINE
  8
_0-1_計細線
  6
CONTINUOUS
 62
    3
 10
1051.3804746743426
 20
1245.7336586827307
 11
1059.3804746743426
 21
1245.7336586827307
  0
LINE
  8
_0-1_計細線
  6
CONTINUOUS
 62
    3
 10
1059.3804746743426
 20
1245.7336586827307
 11
1059.3804746743426
 21
1135.7336586827307
  0
LINE
  8
_0-1_計細線
  6
CONTINUOUS
 62
    3
 10
1059.3804746743426
 20
1135.7336586827307
 11
1051.3804746743426
 21
1135.7336586827307
  0
LINE
  8
_0-1_計細線
  6
CONTINUOUS
 62
    3
 10
1037.350474674342
 20
1135.7336586827307
 11
1037.350474674342
 21
1245.7336586827307
  0
LINE
  8
_0-1_計細線
  6
CONTINUOUS
 62
    3
 10
1037.350474674342
 20
1245.7336586827307
 11
1045.350474674342
 21
1245.7336586827307
  0
LINE
  8
_0-1_計細線
  6
CONTINUOUS
 62
    3
 10
1045.350474674342
 20
1245.7336586827307
 11
1045.350474674342
 21
1135.7336586827307
  0
LINE
  8
_0-1_計細線
  6
CONTINUOUS
 62
    3
 10
1045.350474674342
 20
1135.7336586827307
 11
1037.350474674342
 21
1135.7336586827307
  0
LINE
  8
_0-1_計細線
  6
CONTINUOUS
 62
    3
 10
1023.3204746743422
 20
1135.7336586827307
 11
1023.3204746743422
 21
1245.7336586827307
  0
LINE
  8
_0-1_計細線
  6
CONTINUOUS
 62
    3
 10
1023.3204746743422
 20
1245.7336586827307
 11
1031.3204746743422
 21
1245.7336586827307
  0
LINE
  8
_0-1_計細線
  6
CONTINUOUS
 62
    3
 10
1031.3204746743422
 20
1245.7336586827307
 11
1031.3204746743422
 21
1135.7336586827307
  0
LINE
  8
_0-1_計細線
  6
CONTINUOUS
 62
    3
 10
1031.3204746743422
 20
1135.7336586827307
 11
1023.3204746743422
 21
1135.7336586827307
  0
LINE
  8
_0-1_計細線
  6
CONTINUOUS
 62
    3
 10
1009.2904746743425
 20
1135.7336586827307
 11
1009.2904746743425
 21
1245.7336586827307
  0
LINE
  8
_0-1_計細線
  6
CONTINUOUS
 62
    3
 10
1009.2904746743425
 20
1245.7336586827307
 11
1017.2904746743425
 21
1245.7336586827307
  0
LINE
  8
_0-1_計細線
  6
CONTINUOUS
 62
    3
 10
1017.2904746743425
 20
1245.7336586827307
 11
1017.2904746743425
 21
1135.7336586827307
  0
LINE
  8
_0-1_計細線
  6
CONTINUOUS
 62
    3
 10
1017.2904746743425
 20
1135.7336586827307
 11
1009.2904746743425
 21
1135.7336586827307
  0
LINE
  8
_0-1_計細線
  6
CONTINUOUS
 62
    3
 10
995.26047467434182
 20
1135.7336586827307
 11
995.26047467434182
 21
1245.7336586827307
  0
LINE
  8
_0-1_計細線
  6
CONTINUOUS
 62
    3
 10
995.26047467434182
 20
1245.7336586827307
 11
1003.2604746743418
 21
1245.7336586827307
  0
LINE
  8
_0-1_計細線
  6
CONTINUOUS
 62
    3
 10
1003.2604746743418
 20
1245.7336586827307
 11
1003.2604746743418
 21
1135.7336586827307
  0
LINE
  8
_0-1_計細線
  6
CONTINUOUS
 62
    3
 10
1003.2604746743418
 20
1135.7336586827307
 11
995.26047467434182
 21
1135.7336586827307
  0
LINE
  8
_0-1_計細線
  6
CONTINUOUS
 62
    3
 10
981.23047467434208
 20
1135.7336586827307
 11
981.23047467434208
 21
1245.7336586827307
  0
LINE
  8
_0-1_計細線
  6
CONTINUOUS
 62
    3
 10
981.23047467434208
 20
1245.7336586827307
 11
989.23047467434208
 21
1245.7336586827307
  0
LINE
  8
_0-1_計細線
  6
CONTINUOUS
 62
    3
 10
989.23047467434208
 20
1245.7336586827307
 11
989.23047467434208
 21
1135.7336586827307
  0
LINE
  8
_0-1_計細線
  6
CONTINUOUS
 62
    3
 10
989.23047467434208
 20
1135.7336586827307
 11
981.23047467434208
 21
1135.7336586827307
  0
LINE
  8
_0-1_計細線
  6
CONTINUOUS
 62
    3
 10
967.20047467434233
 20
1135.7336586827307
 11
967.20047467434233
 21
1245.7336586827307
  0
LINE
  8
_0-1_計細線
  6
CONTINUOUS
 62
    3
 10
967.20047467434233
 20
1245.7336586827307
 11
975.20047467434233
 21
1245.7336586827307
  0
LINE
  8
_0-1_計細線
  6
CONTINUOUS
 62
    3
 10
975.20047467434233
 20
1245.7336586827307
 11
975.20047467434233
 21
1135.7336586827307
  0
LINE
  8
_0-1_計細線
  6
CONTINUOUS
 62
    3
 10
975.20047467434233
 20
1135.7336586827307
 11
967.20047467434233
 21
1135.7336586827307
  0
LINE
  8
_0-1_計細線
  6
CONTINUOUS
 62
    3
 10
953.17047467434259
 20
1135.7336586827307
 11
953.17047467434259
 21
1245.7336586827307
  0
LINE
  8
_0-1_計細線
  6
CONTINUOUS
 62
    3
 10
953.17047467434259
 20
1245.7336586827307
 11
961.17047467434259
 21
1245.7336586827307
  0
LINE
  8
_0-1_計細線
  6
CONTINUOUS
 62
    3
 10
961.17047467434259
 20
1245.7336586827307
 11
961.17047467434259
 21
1135.7336586827307
  0
LINE
  8
_0-1_計細線
  6
CONTINUOUS
 62
    3
 10
961.17047467434259
 20
1135.7336586827307
 11
953.17047467434259
 21
1135.7336586827307
  0
LINE
  8
_0-0_計極細
  6
CONTINUOUS
 62
    2
 10
1185.6504746743421
 20
1192.7336586827307
 11
1191.6804746743419
 21
1192.7336586827307
  0
LINE
  8
_0-0_計極細
  6
CONTINUOUS
 62
    2
 10
1171.6204746743424
 20
1192.7336586827307
 11
1177.6504746743421
 21
1192.7336586827307
  0
LINE
  8
_0-0_計極細
  6
CONTINUOUS
 62
    2
 10
1171.6204746743424
 20
1188.7336586827307
 11
1177.6504746743421
 21
1188.7336586827307
  0
LINE
  8
_0-0_計極細
  6
CONTINUOUS
 62
    2
 10
1157.5904746743417
 20
1192.7336586827307
 11
1163.6204746743424
 21
1192.7336586827307
  0
LINE
  8
_0-0_計極細
  6
CONTINUOUS
 62
    2
 10
1157.5904746743417
 20
1188.7336586827307
 11
1163.6204746743424
 21
1188.7336586827307
  0
LINE
  8
_0-0_計極細
  6
CONTINUOUS
 62
    2
 10
1143.560474674342
 20
1192.7336586827307
 11
1149.5904746743427
 21
1192.7336586827307
  0
LINE
  8
_0-0_計極細
  6
CONTINUOUS
 62
    2
 10
1143.560474674342
 20
1188.7336586827307
 11
1149.5904746743427
 21
1188.7336586827307
  0
LINE
  8
_0-0_計極細
  6
CONTINUOUS
 62
    2
 10
1129.5304746743423
 20
1192.7336586827307
 11
1135.5604746743429
 21
1192.7336586827307
  0
LINE
  8
_0-0_計極細
  6
CONTINUOUS
 62
    2
 10
1129.5304746743423
 20
1188.7336586827307
 11
1135.5604746743429
 21
1188.7336586827307
  0
LINE
  8
_0-0_計極細
  6
CONTINUOUS
 62
    2
 10
1115.5004746743425
 20
1192.7336586827307
 11
1121.5304746743423
 21
1192.7336586827307
  0
LINE
  8
_0-0_計極細
  6
CONTINUOUS
 62
    2
 10
1115.5004746743425
 20
1188.7336586827307
 11
1121.5304746743423
 21
1188.7336586827307
  0
LINE
  8
_0-0_計極細
  6
CONTINUOUS
 62
    2
 10
1101.4704746743428
 20
1192.7336586827307
 11
1107.5004746743425
 21
1192.7336586827307
  0
LINE
  8
_0-0_計極細
  6
CONTINUOUS
 62
    2
 10
1101.4704746743428
 20
1188.7336586827307
 11
1107.5004746743425
 21
1188.7336586827307
  0
LINE
  8
_0-0_計極細
  6
CONTINUOUS
 62
    2
 10
1087.4404746743421
 20
1192.7336586827307
 11
1093.4704746743428
 21
1192.7336586827307
  0
LINE
  8
_0-0_計極細
  6
CONTINUOUS
 62
    2
 10
1087.4404746743421
 20
1188.7336586827307
 11
1093.4704746743428
 21
1188.7336586827307
  0
LINE
  8
_0-0_計極細
  6
CONTINUOUS
 62
    2
 10
1073.4104746743424
 20
1192.7336586827307
 11
1079.4404746743421
 21
1192.7336586827307
  0
LINE
  8
_0-0_計極細
  6
CONTINUOUS
 62
    2
 10
1073.4104746743424
 20
1188.7336586827307
 11
1079.4404746743421
 21
1188.7336586827307
  0
LINE
  8
_0-0_計極細
  6
CONTINUOUS
 62
    2
 10
1059.3804746743426
 20
1192.7336586827307
 11
1065.4104746743424
 21
1192.7336586827307
  0
LINE
  8
_0-0_計極細
  6
CONTINUOUS
 62
    2
 10
1059.3804746743426
 20
1188.7336586827307
 11
1065.4104746743424
 21
1188.7336586827307
  0
LINE
  8
_0-0_計極細
  6
CONTINUOUS
 62
    2
 10
1045.350474674342
 20
1192.7336586827307
 11
1051.3804746743426
 21
1192.7336586827307
  0
LINE
  8
_0-0_計極細
  6
CONTINUOUS
 62
    2
 10
1045.350474674342
 20
1188.7336586827307
 11
1051.3804746743426
 21
1188.7336586827307
  0
LINE
  8
_0-0_計極細
  6
CONTINUOUS
 62
    2
 10
1031.3204746743422
 20
1192.7336586827307
 11
1037.350474674342
 21
1192.7336586827307
  0
LINE
  8
_0-0_計極細
  6
CONTINUOUS
 62
    2
 10
1031.3204746743422
 20
1188.7336586827307
 11
1037.350474674342
 21
1188.7336586827307
  0
LINE
  8
_0-0_計極細
  6
CONTINUOUS
 62
    2
 10
1017.2904746743425
 20
1192.7336586827307
 11
1023.3204746743422
 21
1192.7336586827307
  0
LINE
  8
_0-0_計極細
  6
CONTINUOUS
 62
    2
 10
1017.2904746743425
 20
1188.7336586827307
 11
1023.3204746743422
 21
1188.7336586827307
  0
LINE
  8
_0-0_計極細
  6
CONTINUOUS
 62
    2
 10
1003.2604746743418
 20
1192.7336586827307
 11
1009.2904746743425
 21
1192.7336586827307
  0
LINE
  8
_0-0_計極細
  6
CONTINUOUS
 62
    2
 10
1003.2604746743418
 20
1188.7336586827307
 11
1009.2904746743425
 21
1188.7336586827307
  0
LINE
  8
_0-0_計極細
  6
CONTINUOUS
 62
    2
 10
989.23047467434208
 20
1192.7336586827307
 11
995.26047467434273
 21
1192.7336586827307
  0
LINE
  8
_0-0_計極細
  6
CONTINUOUS
 62
    2
 10
989.23047467434208
 20
1188.7336586827307
 11
995.26047467434273
 21
1188.7336586827307
  0
LINE
  8
_0-0_計極細
  6
CONTINUOUS
 62
    2
 10
975.20047467434233
 20
1192.7336586827307
 11
981.23047467434299
 21
1192.7336586827307
  0
LINE
  8
_0-0_計極細
  6
CONTINUOUS
 62
    2
 10
975.20047467434233
 20
1188.7336586827307
 11
981.23047467434299
 21
1188.7336586827307
  0
LINE
  8
_0-0_計極細
  6
CONTINUOUS
 62
    2
 10
961.17047467434259
 20
1192.7336586827307
 11
967.20047467434233
 21
1192.7336586827307
  0
LINE
  8
_0-0_計極細
  6
CONTINUOUS
 62
    2
 10
961.17047467434259
 20
1188.7336586827307
 11
967.20047467434233
 21
1188.7336586827307
  0
LINE
  8
_0-0_計極細
  6
CONTINUOUS
 62
    2
 10
947.14047467434284
 20
1192.7336586827307
 11
953.17047467434259
 21
1192.7336586827307
  0
LINE
  8
_0-0_計極細
  6
CONTINUOUS
 62
    2
 10
947.14047467434284
 20
1188.7336586827307
 11
953.17047467434259
 21
1188.7336586827307
  0
LINE
  8
_0-0_計極細
  6
CONTINUOUS
 62
    2
 10
933.11047467434219
 20
1192.7336586827307
 11
939.14047467434284
 21
1192.7336586827307
  0
LINE
  8
_0-0_計極細
  6
CONTINUOUS
 62
    2
 10
933.11047467434219
 20
1188.7336586827307
 11
939.14047467434284
 21
1188.7336586827307
  0
LINE
  8
_0-0_計極細
  6
CONTINUOUS
 62
    2
 10
919.08047467434244
 20
1192.7336586827307
 11
925.11047467434219
 21
1192.7336586827307
  0
LINE
  8
_0-0_計極細
  6
CONTINUOUS
 62
    2
 10
919.08047467434244
 20
1188.7336586827307
 11
925.11047467434219
 21
1188.7336586827307
  0
LINE
  8
_0-0_計極細
  6
CONTINUOUS
 62
    2
 10
905.05047467434269
 20
1192.7336586827307
 11
911.08047467434244
 21
1192.7336586827307
  0
LINE
  8
_0-0_計極細
  6
CONTINUOUS
 62
    2
 10
905.05047467434269
 20
1188.7336586827307
 11
911.08047467434244
 21
1188.7336586827307
  0
LINE
  8
_0-0_計極細
  6
CONTINUOUS
 62
    2
 10
891.02047467434204
 20
1192.7336586827307
 11
897.05047467434269
 21
1192.7336586827307
  0
LINE
  8
_0-0_計極細
  6
CONTINUOUS
 62
    2
 10
891.02047467434204
 20
1188.7336586827307
 11
897.05047467434269
 21
1188.7336586827307
  0
LINE
  8
_0-0_計極細
  6
CONTINUOUS
 62
    2
 10
876.99047467434229
 20
1192.7336586827307
 11
883.02047467434204
 21
1192.7336586827307
  0
LINE
  8
_0-0_計極細
  6
CONTINUOUS
 62
    2
 10
876.99047467434229
 20
1188.7336586827307
 11
883.02047467434204
 21
1188.7336586827307
  0
LINE
  8
_0-0_計極細
  6
CONTINUOUS
 62
    2
 10
862.96047467434255
 20
1188.7336586827307
 11
868.99047467434229
 21
1188.7336586827307
  0
LINE
  8
_0-0_計極細
  6
CONTINUOUS
 62
    2
 10
862.96047467434255
 20
1192.7336586827307
 11
868.99047467434229
 21
1192.7336586827307
  0
LINE
  8
_0-1_計細線
  6
CONTINUOUS
 62
    3
 10
854.96047467434255
 20
1248.7336586827307
 11
1190.6523410055822
 21
1248.7336586827307
  0
LINE
  8
_0-1_計細線
  6
CONTINUOUS
 62
    3
 10
854.96047467434255
 20
1132.7336586827307
 11
1190.6523410058041
 21
1132.7336586827307
  0
LINE
  8
_0-1_計細線
  6
CONTINUOUS
 62
    3
 10
1188.889647742634
 20
1135.7336586827307
 11
854.96047467434255
 21
1135.7336586827307
  0
LINE
  8
_0-1_計細線
  6
CONTINUOUS
 62
    3
 10
854.96047467434255
 20
1135.7336586827307
 11
854.96047467434255
 21
1132.7336586827307
  0
LINE
  8
_0-1_計細線
  6
CONTINUOUS
 62
    3
 10
1192.4150342687533
 20
1245.7336586827307
 11
854.96047467434255
 21
1245.7336586827307
  0
LINE
  8
_0-1_計細線
  6
CONTINUOUS
 62
    3
 10
854.96047467434255
 20
1245.7336586827307
 11
854.96047467434255
 21
1248.7336586827307
  0
LINE
  8
_0-1_計細線
  6
CONTINUOUS
 62
    3
 10
1177.6504746743421
 20
1135.7336586827307
 11
1177.6504746743421
 21
1245.7336586827307
  0
LINE
  8
_0-1_計細線
  6
CONTINUOUS
 62
    3
 10
1177.6504746743421
 20
1245.7336586827307
 11
1185.6504746743421
 21
1245.7336586827307
  0
LINE
  8
_0-1_計細線
  6
CONTINUOUS
 62
    3
 10
1185.6504746743421
 20
1245.7336586827307
 11
1185.6504746743421
 21
1180.6172389290941
  0
LINE
  8
_0-1_計細線
  6
CONTINUOUS
 62
    3
 10
1185.6504746743421
 20
1142.8500784365483
 11
1185.6504746743421
 21
1135.7336586827307
  0
LINE
  8
_0-1_計細線
  6
CONTINUOUS
 62
    3
 10
1185.6504746743421
 20
1135.7336586827307
 11
1177.6504746743421
 21
1135.7336586827307
  0
LINE
  8
_0-0_計極細
  6
CONTINUOUS
 62
    2
 10
1185.6504746743421
 20
1188.7336586827307
 11
1189.4486579098809
 21
1188.7336586827307
  0
LINE
  8
_0-1_計細線
  6
CONTINUOUS
 62
    3
 10
1191.6804746743419
 20
1192.4295387200491
 11
1191.6804746743419
 21
1245.7336586827307
  0
LINE
  8
_0-1_計細線
  6
CONTINUOUS
 62
    3
 10
1191.6804746743419
 20
1245.7336586827307
 11
1192.4150342687533
 21
1245.7336586827307
  0
LINE
  8
_0-5_寸法線
  6
CONTINUOUS
 62
    7
 10
1417.4983330629725
 20
590.73395765100486
 11
1545.4990859693946
 21
590.7339576510044
  0
LINE
  8
_0-5_寸法線
  6
CONTINUOUS
 62
    7
 10
1537.4990859693946
 20
590.7339576510044
 11
1533.3579812477544
 21
606.18877087162946
  0
LINE
  8
_0-5_寸法線
  6
CONTINUOUS
 62
    7
 10
1537.4990859693946
 20
590.7339576510044
 11
1541.6401906910351
 21
606.18877087162946
  0
LINE
  8
_0-5_寸法線
  6
CONTINUOUS
 62
    7
 10
1458.2600881036656
 20
630.23395765100474
 11
1545.4990859693946
 21
630.23395765100452
  0
LINE
  8
_0-5_寸法線
  6
CONTINUOUS
 62
    7
 10
1537.4990859693946
 20
630.23395765100452
 11
1541.6401906910351
 21
614.77914443037946
  0
LINE
  8
_0-5_寸法線
  6
CONTINUOUS
 62
    7
 10
1537.4990859693946
 20
630.23395765100452
 11
1533.3579812477544
 21
614.77914443037946
  0
LINE
  8
_0-5_寸法線
  6
CONTINUOUS
 62
    7
 10
1537.4990859693946
 20
590.7339576510044
 11
1537.4990859693946
 21
630.23395765100452
  0
TEXT
  8
_0-5_寸法線
 62
    7
 10
1537.4990859693949
 20
585.39798300083726
 40
24
 41
1
 50
90
  1
39.5
  0
TEXT
  8
_0-7_枠細線
 62
    5
 10
908.96241300557404
 20
206.91700971987893
 40
40
 41
0.8
 50
0
  1
側面詳細図
  0
TEXT
  8
_0-7_枠細線
 62
    5
 10
1092.9061335091237
 20
206.32466645858585
 40
32
 41
0.6
 50
0
  1
Ｓ＝１：３
  0
LINE
  8
_1-2_極細3
  6
CENTER1
 62
    2
 10
841.07514116992297
 20
305.18686124212036
 11
1118.6834951187602
 21
305.18686124212036
  0
ARC
  8
_1-2_極細3
  6
CONTINUOUS
 62
    2
 10
1069.4410577750496
 20
290.8122923979945
 40
33.712972029084177
 50
330.03871396148293
 51
25.238104023878119
  0
ARC
  8
_1-2_極細3
  6
CONTINUOUS
 62
    2
 10
1130.4307701396538
 20
319.56143008624531
 40
33.712972029084177
 50
150.0387139614817
 51
205.23810402387812
  0
ARC
  8
_1-2_極細3
  6
CONTINUOUS
 62
    2
 10
840.01597336776558
 20
290.8122923979945
 40
33.712972029084177
 50
330.03871396148213
 51
25.238104023877458
  0
ARC
  8
_1-2_極細3
  6
CONTINUOUS
 62
    2
 10
901.00568573236978
 20
319.56143008624531
 40
33.712972029084177
 50
150.0387139614825
 51
205.23810402387878
  0
LINE
  8
_1-5_寸法3
  6
CONTINUOUS
 62
    7
 10
1004.8462059466356
 20
347.85352790878733
 11
1004.8462059466356
 21
419.85352790878738
  0
LINE
  8
_1-5_寸法3
  6
CONTINUOUS
 62
    7
 10
1004.8462059466356
 20
411.85352790878738
 11
1020.3010191672606
 21
415.9946326304277
  0
LINE
  8
_1-5_寸法3
  6
CONTINUOUS
 62
    7
 10
1004.8462059466356
 20
411.85352790878738
 11
1020.3010191672606
 21
407.71242318714707
  0
LINE
  8
_1-5_寸法3
  6
CONTINUOUS
 62
    7
 10
1042.1795392799695
 20
347.85352790878733
 11
1042.1795392799695
 21
419.85352790878738
  0
LINE
  8
_1-5_寸法3
  6
CONTINUOUS
 62
    7
 10
1042.1795392799695
 20
411.85352790878738
 11
1026.7247260593444
 21
407.71242318714712
  0
LINE
  8
_1-5_寸法3
  6
CONTINUOUS
 62
    7
 10
1042.1795392799695
 20
411.85352790878738
 11
1026.7247260593444
 21
415.99463263042776
  0
LINE
  8
_1-5_寸法3
  6
CONTINUOUS
 62
    7
 10
1004.8462059466356
 20
411.85352790878738
 11
1042.1795392799695
 21
411.85352790878738
  0
TEXT
  8
_1-5_寸法3
 62
    7
 10
1011.5128726133016
 20
411.85352790878738
 40
24
 41
1
 50
0
  1
14
  0
LINE
  8
_1-5_寸法3
  6
CONTINUOUS
 62
    7
 10
1042.1795392799695
 20
411.85352790878738
 11
1057.6343525005946
 21
415.99463263042759
  0
LINE
  8
_1-5_寸法3
  6
CONTINUOUS
 62
    7
 10
1042.1795392799695
 20
411.85352790878738
 11
1057.6343525005946
 21
407.71242318714695
  0
LINE
  8
_1-5_寸法3
  6
CONTINUOUS
 62
    7
 10
1079.5128726133034
 20
347.85352790878733
 11
1079.5128726133034
 21
419.85352790878738
  0
LINE
  8
_1-5_寸法3
  6
CONTINUOUS
 62
    7
 10
1079.5128726133034
 20
411.85352790878738
 11
1064.0580593926784
 21
407.71242318714712
  0
LINE
  8
_1-5_寸法3
  6
CONTINUOUS
 62
    7
 10
1079.5128726133034
 20
411.85352790878738
 11
1064.0580593926784
 21
415.99463263042776
  0
LINE
  8
_1-5_寸法3
  6
CONTINUOUS
 62
    7
 10
1042.1795392799695
 20
411.85352790878738
 11
1079.5128726133034
 21
411.85352790878738
  0
TEXT
  8
_1-5_寸法3
 62
    7
 10
1048.8462059466365
 20
411.85352790878738
 40
24
 41
1
 50
0
  1
14
  0
LINE
  8
_1-5_寸法3
  6
CONTINUOUS
 62
    7
 10
882.1795392799695
 20
347.85352790878733
 11
882.1795392799695
 21
419.85352790878738
  0
LINE
  8
_1-5_寸法3
  6
CONTINUOUS
 62
    7
 10
882.1795392799695
 20
411.85352790878738
 11
866.72472605934445
 21
407.71242318714712
  0
LINE
  8
_1-5_寸法3
  6
CONTINUOUS
 62
    7
 10
882.1795392799695
 20
411.85352790878738
 11
866.72472605934445
 21
415.99463263042776
  0
LINE
  8
_1-5_寸法3
  6
CONTINUOUS
 62
    7
 10
903.51287261330344
 20
347.85352790878733
 11
903.51287261330344
 21
419.85352790878738
  0
CIRCLE
  8
_1-5_寸法3
  6
CONTINUOUS
 62
    1
 10
903.51287261330344
 20
411.85352790878738
 40
2.4000000000000004
  0
LINE
  8
_1-5_寸法3
  6
CONTINUOUS
 62
    7
 10
842.1795392799695
 20
411.85352790878738
 11
903.51287261330344
 21
411.85352790878738
  0
TEXT
  8
_1-5_寸法3
 62
    7
 10
854.17084480064023
 20
411.85352790878738
 40
24
 41
1
 50
0
  1
8
  0
LINE
  8
_1-5_寸法3
  6
CONTINUOUS
 62
    7
 10
919.51287261330344
 20
347.85352790878733
 11
919.51287261330344
 21
419.85352790878738
  0
LINE
  8
_1-5_寸法3
  6
CONTINUOUS
 62
    7
 10
919.51287261330344
 20
411.85352790878738
 11
934.96768583392861
 21
415.99463263042759
  0
LINE
  8
_1-5_寸法3
  6
CONTINUOUS
 62
    7
 10
919.51287261330344
 20
411.85352790878738
 11
934.9676858339285
 21
407.71242318714695
  0
LINE
  8
_1-5_寸法3
  6
CONTINUOUS
 62
    7
 10
903.51287261330344
 20
411.85352790878738
 11
959.51287261330344
 21
411.85352790878738
  0
TEXT
  8
_1-5_寸法3
 62
    7
 10
935.06605467718418
 20
411.85352790878738
 40
24
 41
1
 50
0
  1
6
  0
ARC
  8
_1-3_細線3
  6
CONTINUOUS
 62
    4
 10
1088.3128726133446
 20
329.98686124207751
 40
1.8666666667086855
 50
269.99999999999977
 51
89.999999999999545
  0
LINE
  8
_1-3_細線3
  6
CONTINUOUS
 62
    4
 10
1070.7128726133005
 20
331.85352790878864
 11
1088.3128726133014
 21
331.85352790878619
  0
ARC
  8
_1-3_細線3
  6
CONTINUOUS
 62
    4
 10
1070.712872613459
 20
329.98686124207512
 40
1.8666666666213438
 50
89.999999999999915
 51
269.99999999999977
  0
LINE
  8
_1-3_細線3
  6
CONTINUOUS
 62
    4
 10
1077.6462059466348
 20
280.38686124212154
 11
1077.6462059466348
 21
328.12019457545381
  0
LINE
  8
_1-3_細線3
  6
CONTINUOUS
 62
    4
 10
1077.6462059466348
 20
328.12019457545381
 11
1070.7128726133005
 21
328.12019457545381
  0
ARC
  8
_1-3_細線3
  6
CONTINUOUS
 62
    4
 10
1079.5128726132941
 20
280.38686124211836
 40
1.8666666666729728
 50
179.99999999990578
 51
0.0000000000938484
  0
LINE
  8
_1-3_細線3
  6
CONTINUOUS
 62
    4
 10
1081.379539279967
 20
328.12019457545381
 11
1081.379539279967
 21
280.38686124212154
  0
ARC
  8
_1-3_細線3
  6
CONTINUOUS
 62
    4
 10
1074.3573170581392
 20
311.85352790976185
 40
3.9999999989889581
 50
53.130102350277838
 51
89.999999999999915
  0
LINE
  8
_1-3_細線3
  6
CONTINUOUS
 62
    4
 10
1077.6462059466396
 20
314.38686124212381
 11
1076.7573170577491
 21
315.05352790879056
  0
ARC
  8
_1-3_細線3
  6
CONTINUOUS
 62
    4
 10
1074.3573170576658
 20
299.85352790894785
 40
4.0000000001770006
 50
269.99999999999977
 51
306.86989764543398
  0
LINE
  8
_1-3_細線3
  6
CONTINUOUS
 62
    4
 10
1077.6462059466396
 20
297.32019457545584
 11
1076.7573170577491
 21
296.6535279087891
  0
LINE
  8
_1-3_細線3
  6
CONTINUOUS
 62
    4
 10
1044.9350948355293
 20
315.05352790879056
 11
1044.0462059466388
 21
314.38686124212381
  0
ARC
  8
_1-3_細線3
  6
CONTINUOUS
 62
    4
 10
1047.3350948359505
 20
311.85352790732168
 40
4.0000000014693802
 50
89.999999999999915
 51
126.86989763804931
  0
LINE
  8
_1-3_細線3
  6
CONTINUOUS
 62
    4
 10
1074.3573170577502
 20
315.85352790879097
 11
1047.3350948355285
 21
315.85352790879097
  0
LINE
  8
_1-3_細線3
  6
CONTINUOUS
 62
    4
 10
1044.9350948355293
 20
296.6535279087891
 11
1044.0462059466388
 21
297.32019457545584
  0
ARC
  8
_1-3_細線3
  6
CONTINUOUS
 62
    4
 10
1047.3350948354212
 20
299.85352790860975
 40
3.9999999998187383
 50
233.13010235385192
 51
269.99999999999977
  0
LINE
  8
_1-3_細線3
  6
CONTINUOUS
 62
    4
 10
1074.3573170577502
 20
295.85352790879097
 11
1047.3350948355285
 21
295.85352790879097
  0
ARC
  8
_1-3_細線3
  6
CONTINUOUS
 62
    4
 10
1050.9795392799465
 20
329.98686124207751
 40
1.8666666667086855
 50
269.99999999999977
 51
89.999999999999545
  0
LINE
  8
_1-3_細線3
  6
CONTINUOUS
 62
    4
 10
1033.3795392799673
 20
331.85352790878864
 11
1050.9795392799683
 21
331.85352790878619
  0
ARC
  8
_1-3_細線3
  6
CONTINUOUS
 62
    4
 10
1033.379539280081
 20
329.98686124207512
 40
1.8666666666213438
 50
89.999999999999915
 51
269.99999999999977
  0
LINE
  8
_1-3_細線3
  6
CONTINUOUS
 62
    4
 10
1040.3128726133016
 20
280.38686124212154
 11
1040.3128726133016
 21
328.12019457545381
  0
LINE
  8
_1-3_細線3
  6
CONTINUOUS
 62
    4
 10
1040.3128726133016
 20
328.12019457545381
 11
1033.3795392799673
 21
328.12019457545381
  0
ARC
  8
_1-3_細線3
  6
CONTINUOUS
 62
    4
 10
1042.1795392798961
 20
280.38686124211836
 40
1.8666666667379712
 50
179.99999999990578
 51
0.0000000000938484
  0
LINE
  8
_1-3_細線3
  6
CONTINUOUS
 62
    4
 10
1044.046205946634
 20
328.12019457545381
 11
1044.046205946634
 21
280.38686124212154
  0
ARC
  8
_1-3_細線3
  6
CONTINUOUS
 62
    4
 10
1037.0239837241959
 20
311.85352790756815
 40
4.0000000011114274
 50
53.130102362111579
 51
89.999999999999915
  0
LINE
  8
_1-3_細線3
  6
CONTINUOUS
 62
    4
 10
1040.3128726133089
 20
314.38686124212381
 11
1039.4239837244183
 21
315.05352790879056
  0
ARC
  8
_1-3_細線3
  6
CONTINUOUS
 62
    4
 10
1037.0239837245097
 20
299.85352790877346
 40
3.9999999999327946
 50
269.99999999999977
 51
306.86989764493126
  0
LINE
  8
_1-3_細線3
  6
CONTINUOUS
 62
    4
 10
1040.3128726133089
 20
297.32019457545584
 11
1039.4239837244183
 21
296.6535279087891
  0
LINE
  8
_1-3_細線3
  6
CONTINUOUS
 62
    4
 10
1007.6017615021958
 20
315.05352790879056
 11
1006.7128726133053
 21
314.38686124212381
  0
ARC
  8
_1-3_細線3
  6
CONTINUOUS
 62
    4
 10
1010.0017615020022
 20
311.8535279095131
 40
3.9999999992778918
 50
89.999999999999915
 51
126.8698976498347
  0
LINE
  8
_1-3_細線3
  6
CONTINUOUS
 62
    4
 10
1007.6017615021958
 20
296.6535279087891
 11
1006.7128726133053
 21
297.32019457545584
  0
ARC
  8
_1-3_細線3
  6
CONTINUOUS
 62
    4
 10
1010.0017615022623
 20
299.85352790878187
 40
3.9999999999909059
 50
233.13010235332905
 51
269.99999999999977
  0
ARC
  8
_1-3_細線3
  6
CONTINUOUS
 62
    4
 10
1013.6462059465464
 20
329.98686124207751
 40
1.8666666667086855
 50
269.99999999999977
 51
89.999999999999545
  0
LINE
  8
_1-3_細線3
  6
CONTINUOUS
 62
    4
 10
996.04620594663379
 20
331.85352790878864
 11
1013.6462059466346
 21
331.85352790878619
  0
ARC
  8
_1-3_細線3
  6
CONTINUOUS
 62
    4
 10
996.04620594669927
 20
329.98686124207512
 40
1.8666666666213438
 50
89.999999999999915
 51
269.99999999999977
  0
LINE
  8
_1-3_細線3
  6
CONTINUOUS
 62
    4
 10
1002.9795392799681
 20
280.38686124212154
 11
1002.9795392799681
 21
328.12019457545381
  0
LINE
  8
_1-3_細線3
  6
CONTINUOUS
 62
    4
 10
1002.9795392799681
 20
328.12019457545381
 11
996.04620594663379
 21
328.12019457545381
  0
ARC
  8
_1-3_細線3
  6
CONTINUOUS
 62
    4
 10
1004.8462059466376
 20
280.38686124197648
 40
1.8666666666627865
 50
179.99999999555087
 51
0.0000000044487933
  0
LINE
  8
_1-3_細線3
  6
CONTINUOUS
 62
    4
 10
1006.7128726133003
 20
328.12019457545381
 11
1006.7128726133003
 21
280.38686124212154
  0
ARC
  8
_1-3_細線3
  6
CONTINUOUS
 62
    4
 10
999.69065039127395
 20
311.8535279091177
 40
3.9999999996247064
 50
53.130102353510139
 51
89.999999999999915
  0
LINE
  8
_1-3_細線3
  6
CONTINUOUS
 62
    4
 10
1002.9795392799754
 20
314.38686124212381
 11
1002.0906503910849
 21
315.05352790879056
  0
ARC
  8
_1-3_細線3
  6
CONTINUOUS
 62
    4
 10
999.69065039074417
 20
299.85352790975753
 40
4.0000000009791261
 50
269.99999999999977
 51
306.86989764142373
  0
LINE
  8
_1-3_細線3
  6
CONTINUOUS
 62
    4
 10
1002.9795392799754
 20
297.32019457545584
 11
1002.0906503910849
 21
296.6535279087891
  0
LINE
  8
_1-3_細線3
  6
CONTINUOUS
 62
    4
 10
1037.0239837244194
 20
315.85352790879097
 11
1010.0017615021948
 21
315.85352790879097
  0
LINE
  8
_1-3_細線3
  6
CONTINUOUS
 62
    4
 10
1037.0239837244194
 20
295.85352790879097
 11
1010.0017615021948
 21
295.85352790879097
  0
LINE
  8
_1-3_細線3
  6
CONTINUOUS
 62
    4
 10
970.26842816886256
 20
315.05352790879056
 11
969.37953927997205
 21
314.38686124212381
  0
ARC
  8
_1-3_細線3
  6
CONTINUOUS
 62
    4
 10
972.66842816908138
 20
311.85352790796355
 40
4.000000000827459
 50
89.999999999999915
 51
126.8698976412458
  0
LINE
  8
_1-3_細線3
  6
CONTINUOUS
 62
    4
 10
970.26842816886256
 20
296.6535279087891
 11
969.37953927997205
 21
297.32019457545584
  0
ARC
  8
_1-3_細線3
  6
CONTINUOUS
 62
    4
 10
972.66842816931319
 20
299.85352791024638
 40
4.0000000014554349
 50
233.13010236151524
 51
269.99999999999977
  0
ARC
  8
_1-3_細線3
  6
CONTINUOUS
 62
    4
 10
976.31287261342959
 20
329.98686124207751
 40
1.8666666667086855
 50
269.99999999999977
 51
89.999999999999545
  0
LINE
  8
_1-3_細線3
  6
CONTINUOUS
 62
    4
 10
958.71287261330053
 20
331.85352790878864
 11
976.31287261330147
 21
331.85352790878619
  0
ARC
  8
_1-3_細線3
  6
CONTINUOUS
 62
    4
 10
958.7128726133185
 20
329.98686124207512
 40
1.8666666666213438
 50
89.999999999999915
 51
269.99999999999977
  0
LINE
  8
_1-3_細線3
  6
CONTINUOUS
 62
    4
 10
965.64620594663484
 20
280.38686124212154
 11
965.64620594663484
 21
328.12019457545381
  0
LINE
  8
_1-3_細線3
  6
CONTINUOUS
 62
    4
 10
965.64620594663484
 20
328.12019457545381
 11
958.71287261330053
 21
328.12019457545381
  0
ARC
  8
_1-3_細線3
  6
CONTINUOUS
 62
    4
 10
967.51287261323705
 20
280.38686124226024
 40
1.8666666667302103
 50
180.00000000426033
 51
359.9999999957389
  0
LINE
  8
_1-3_細線3
  6
CONTINUOUS
 62
    4
 10
969.37953927996716
 20
328.12019457545381
 11
969.37953927996716
 21
280.38686124212154
  0
LINE
  8
_1-3_細線3
  6
CONTINUOUS
 62
    4
 10
999.69065039108568
 20
315.85352790879097
 11
972.66842816886162
 21
315.85352790879097
  0
LINE
  8
_1-3_細線3
  6
CONTINUOUS
 62
    4
 10
999.69065039108568
 20
295.85352790879097
 11
972.66842816886162
 21
295.85352790879097
  0
LINE
  8
_1-3_細線3
  6
CONTINUOUS
 62
    4
 10
976.31287261330147
 20
328.12019457545381
 11
969.37953927996705
 21
328.12019457545381
  0
LINE
  8
_1-3_細線3
  6
CONTINUOUS
 62
    4
 10
1013.6462059466346
 20
328.12019457545381
 11
1006.7128726133003
 21
328.12019457545381
  0
LINE
  8
_1-3_細線3
  6
CONTINUOUS
 62
    4
 10
1050.9795392799683
 20
328.12019457545381
 11
1044.046205946634
 21
328.12019457545381
  0
LINE
  8
_1-3_細線3
  6
CONTINUOUS
 62
    4
 10
1088.3128726133014
 20
328.12019457545381
 11
1081.379539279967
 21
328.12019457545381
  0
ARC
  8
_1-3_細線3
  6
CONTINUOUS
 62
    4
 10
962.35731705752926
 20
311.85352790756701
 40
4.0000000011114274
 50
53.130102362111579
 51
89.999999999999915
  0
LINE
  8
_1-3_細線3
  6
CONTINUOUS
 62
    4
 10
965.64620594664223
 20
314.38686124212268
 11
964.75731705775172
 21
315.05352790878919
  0
ARC
  8
_1-3_細線3
  6
CONTINUOUS
 62
    4
 10
962.35731705784303
 20
299.85352790877221
 40
3.9999999999327946
 50
269.99999999999977
 51
306.86989764493126
  0
LINE
  8
_1-3_細線3
  6
CONTINUOUS
 62
    4
 10
965.64620594664223
 20
297.32019457545448
 11
964.75731705775172
 21
296.65352790878774
  0
LINE
  8
_1-3_細線3
  6
CONTINUOUS
 62
    4
 10
932.93509483552918
 20
315.05352790878919
 11
932.04620594663868
 21
314.38686124212268
  0
ARC
  8
_1-3_細線3
  6
CONTINUOUS
 62
    4
 10
935.33509483533555
 20
311.85352790951197
 40
3.9999999992778918
 50
89.999999999999915
 51
126.8698976498347
  0
LINE
  8
_1-3_細線3
  6
CONTINUOUS
 62
    4
 10
932.93509483552918
 20
296.65352790878774
 11
932.04620594663868
 21
297.32019457545448
  0
ARC
  8
_1-3_細線3
  6
CONTINUOUS
 62
    4
 10
935.33509483559567
 20
299.85352790878073
 40
3.9999999999909059
 50
233.13010235332905
 51
269.99999999999977
  0
ARC
  8
_1-3_細線3
  6
CONTINUOUS
 62
    4
 10
938.97953927987976
 20
329.98686124207626
 40
1.8666666667086855
 50
269.99999999999977
 51
89.999999999999545
  0
LINE
  8
_1-3_細線3
  6
CONTINUOUS
 62
    4
 10
921.37953927996716
 20
331.85352790878738
 11
938.97953927996798
 21
331.85352790878494
  0
ARC
  8
_1-3_細線3
  6
CONTINUOUS
 62
    4
 10
921.37953928003265
 20
329.98686124207387
 40
1.8666666666213438
 50
89.999999999999915
 51
269.99999999999977
  0
LINE
  8
_1-3_細線3
  6
CONTINUOUS
 62
    4
 10
928.31287261330147
 20
280.38686124212018
 11
928.31287261330147
 21
328.12019457545256
  0
LINE
  8
_1-3_細線3
  6
CONTINUOUS
 62
    4
 10
928.31287261330147
 20
328.12019457545256
 11
921.37953927996716
 21
328.12019457545256
  0
ARC
  8
_1-3_細線3
  6
CONTINUOUS
 62
    4
 10
930.17953927997098
 20
280.38686124197534
 40
1.8666666666627865
 50
179.99999999555087
 51
0.0000000044487933
  0
LINE
  8
_1-3_細線3
  6
CONTINUOUS
 62
    4
 10
932.04620594663368
 20
328.12019457545256
 11
932.04620594663368
 21
280.38686124212018
  0
ARC
  8
_1-3_細線3
  6
CONTINUOUS
 62
    4
 10
925.02398372460732
 20
311.85352790911656
 40
3.9999999996247064
 50
53.130102353510139
 51
89.999999999999915
  0
LINE
  8
_1-3_細線3
  6
CONTINUOUS
 62
    4
 10
928.31287261330874
 20
314.38686124212268
 11
927.42398372441824
 21
315.05352790878919
  0
ARC
  8
_1-3_細線3
  6
CONTINUOUS
 62
    4
 10
925.02398372407754
 20
299.85352790975639
 40
4.0000000009791261
 50
269.99999999999977
 51
306.86989764142373
  0
LINE
  8
_1-3_細線3
  6
CONTINUOUS
 62
    4
 10
928.31287261330874
 20
297.32019457545448
 11
927.42398372441824
 21
296.65352790878774
  0
LINE
  8
_1-3_細線3
  6
CONTINUOUS
 62
    4
 10
962.35731705775277
 20
315.85352790878983
 11
935.33509483552814
 21
315.85352790878983
  0
LINE
  8
_1-3_細線3
  6
CONTINUOUS
 62
    4
 10
962.35731705775277
 20
295.85352790878983
 11
935.33509483552814
 21
295.85352790878983
  0
LINE
  8
_1-3_細線3
  6
CONTINUOUS
 62
    4
 10
895.60176150219593
 20
315.05352790878919
 11
894.71287261330542
 21
314.38686124212268
  0
ARC
  8
_1-3_細線3
  6
CONTINUOUS
 62
    4
 10
898.00176150241475
 20
311.8535279079623
 40
4.000000000827459
 50
89.999999999999915
 51
126.8698976412458
  0
LINE
  8
_1-3_細線3
  6
CONTINUOUS
 62
    4
 10
895.60176150219593
 20
296.65352790878774
 11
894.71287261330542
 21
297.32019457545448
  0
ARC
  8
_1-3_細線3
  6
CONTINUOUS
 62
    4
 10
898.00176150264656
 20
299.85352791024525
 40
4.0000000014554349
 50
233.13010236151524
 51
269.99999999999977
  0
ARC
  8
_1-3_細線3
  6
CONTINUOUS
 62
    4
 10
901.64620594676296
 20
329.98686124207626
 40
1.8666666667086855
 50
269.99999999999977
 51
89.999999999999545
  0
LINE
  8
_1-3_細線3
  6
CONTINUOUS
 62
    4
 10
884.0462059466339
 20
331.85352790878738
 11
901.64620594663484
 21
331.85352790878494
  0
ARC
  8
_1-3_細線3
  6
CONTINUOUS
 62
    4
 10
884.04620594665187
 20
329.98686124207387
 40
1.8666666666213438
 50
89.999999999999915
 51
269.99999999999977
  0
LINE
  8
_1-3_細線3
  6
CONTINUOUS
 62
    4
 10
890.97953927996821
 20
280.38686124212018
 11
890.97953927996821
 21
328.12019457545256
  0
LINE
  8
_1-3_細線3
  6
CONTINUOUS
 62
    4
 10
890.97953927996821
 20
328.12019457545256
 11
884.0462059466339
 21
328.12019457545256
  0
ARC
  8
_1-3_細線3
  6
CONTINUOUS
 62
    4
 10
892.84620594657042
 20
280.3868612422591
 40
1.8666666667302103
 50
180.00000000426033
 51
359.9999999957389
  0
LINE
  8
_1-3_細線3
  6
CONTINUOUS
 62
    4
 10
894.71287261330053
 20
328.12019457545256
 11
894.71287261330053
 21
280.38686124212018
  0
LINE
  8
_1-3_細線3
  6
CONTINUOUS
 62
    4
 10
925.02398372441905
 20
315.85352790878983
 11
898.001761502195
 21
315.85352790878983
  0
LINE
  8
_1-3_細線3
  6
CONTINUOUS
 62
    4
 10
925.02398372441905
 20
295.85352790878983
 11
898.001761502195
 21
295.85352790878983
  0
LINE
  8
_1-3_細線3
  6
CONTINUOUS
 62
    4
 10
901.64620594663484
 20
328.12019457545256
 11
894.71287261330042
 21
328.12019457545256
  0
LINE
  8
_1-3_細線3
  6
CONTINUOUS
 62
    4
 10
938.97953927996798
 20
328.12019457545256
 11
932.04620594663368
 21
328.12019457545256
  0
LINE
  8
_1-3_細線3
  6
CONTINUOUS
 62
    4
 10
1082.2684281688623
 20
315.05352790879056
 11
1081.3795392799718
 21
314.38686124212381
  0
ARC
  8
_1-3_細線3
  6
CONTINUOUS
 62
    4
 10
1084.6684281692835
 20
311.85352790732168
 40
4.0000000014693802
 50
89.999999999999915
 51
126.86989763804931
  0
LINE
  8
_1-3_細線3
  6
CONTINUOUS
 62
    4
 10
1082.2684281688623
 20
296.6535279087891
 11
1081.3795392799718
 21
297.32019457545584
  0
ARC
  8
_1-3_細線3
  6
CONTINUOUS
 62
    4
 10
1084.6684281687542
 20
299.85352790860975
 40
3.9999999998187383
 50
233.13010235385192
 51
269.99999999999977
  0
LINE
  8
_1-3_細線3
  6
CONTINUOUS
 62
    4
 10
1096.9223242718394
 20
315.85352790879097
 11
1084.6684281688615
 21
315.85352790879097
  0
LINE
  8
_1-3_細線3
  6
CONTINUOUS
 62
    4
 10
1102.7749808498768
 20
295.85352790879097
 11
1084.6684281688615
 21
295.85352790879097
  0
ARC
  8
_1-3_細線3
  6
CONTINUOUS
 62
    4
 10
887.69065039127406
 20
311.85352790911656
 40
3.9999999996247064
 50
53.130102353510139
 51
89.999999999999915
  0
LINE
  8
_1-3_細線3
  6
CONTINUOUS
 62
    4
 10
890.97953927997548
 20
314.38686124212268
 11
890.09065039108498
 21
315.05352790878919
  0
ARC
  8
_1-3_細線3
  6
CONTINUOUS
 62
    4
 10
887.69065039074428
 20
299.85352790975639
 40
4.0000000009791261
 50
269.99999999999977
 51
306.86989764142373
  0
LINE
  8
_1-3_細線3
  6
CONTINUOUS
 62
    4
 10
890.97953927997548
 20
297.32019457545448
 11
890.09065039108498
 21
296.65352790878774
  0
LINE
  8
_1-3_細線3
  6
CONTINUOUS
 62
    4
 10
887.6906503910858
 20
315.85352790878983
 11
867.49723986455558
 21
315.85352790878983
  0
LINE
  8
_1-3_細線3
  6
CONTINUOUS
 62
    4
 10
887.6906503910858
 20
295.85352790878983
 11
873.34989644259292
 21
295.85352790878983
  0
LINE
  8
_1-3_細線3
  6
CONTINUOUS
 62
    4
 10
1099.0385925446726
 20
331.85352790878864
 11
869.61350813738864
 21
331.85352790878864
  0
LINE
  8
_1-3_細線3
  6
CONTINUOUS
 62
    4
 10
871.40815096274798
 20
278.5201945754543
 11
1100.8332353700321
 21
278.5201945754543
  0
LINE
  8
_1-5_寸法3
  6
CONTINUOUS
 62
    7
 10
854.09051252240806
 20
331.85352790878738
 11
781.61350813738875
 21
331.85352790878733
  0
LINE
  8
_1-5_寸法3
  6
CONTINUOUS
 62
    7
 10
789.61350813738875
 20
331.85352790878733
 11
793.75461285902907
 21
316.39871468816227
  0
LINE
  8
_1-5_寸法3
  6
CONTINUOUS
 62
    7
 10
789.61350813738875
 20
331.85352790878733
 11
785.47240341574843
 21
316.39871468816227
  0
LINE
  8
_1-5_寸法3
  6
CONTINUOUS
 62
    7
 10
854.09051252240806
 20
278.5201945754543
 11
781.61350813738875
 21
278.5201945754543
  0
LINE
  8
_1-5_寸法3
  6
CONTINUOUS
 62
    7
 10
789.61350813738875
 20
278.5201945754543
 11
785.47240341574843
 21
293.97500779607935
  0
LINE
  8
_1-5_寸法3
  6
CONTINUOUS
 62
    7
 10
789.61350813738875
 20
278.5201945754543
 11
793.75461285902907
 21
293.97500779607935
  0
LINE
  8
_1-5_寸法3
  6
CONTINUOUS
 62
    7
 10
789.61350813738875
 20
331.85352790878733
 11
789.61350813738875
 21
278.5201945754543
  0
TEXT
  8
_1-5_寸法3
 62
    7
 10
789.61350813738875
 20
293.18686124212127
 40
24
 41
1
 50
90
  1
20
  0
LINE
  8
_1-2_極細3
  6
CENTER1
 62
    2
 10
476.53348945837729
 20
473.15893777249323
 11
476.53348945837729
 21
389.37390819277459
  0
LINE
  8
_0-0_計極細
  6
CENTER1
 62
    2
 10
1271.4604746743425
 20
1284.1995860307388
 11
1271.4604746743425
 21
581.11067071828063
  0
ENDSEC
  0
EOF
