  0
SECTION
  2
HEADER
  9
$ACADVER
  1
AC1009
  9
$INSBASE
 10
0
 20
0
 30
0
  9
$EXTMIN
 10
0
 20
0
  9
$EXTMAX
 10
1485
 20
1050
  9
$LIMMIN
 10
0
 20
0
  9
$LIMMAX
 10
1485
 20
1050
  9
$LTSCALE
 40
5
  0
ENDSEC
  0
SECTION
  2
TABLES
  0
TABLE
  2
LTYPE
 70
     9
  0
LTYPE
  2
CONTINUOUS
 70
    64
  3
実線
 72
    65
 73
     0
 40
0.0
  0
LTYPE
  2
DASHED1
 70
    64
  3
--  --  --  --  --  --  --  --  
 72
    65
 73
     2
 40
2.5
 49
1.25
 49
-1.25
  0
LTYPE
  2
DASHED2
 70
    64
  3
----    ----    ----    ----    
 72
    65
 73
     2
 40
5.0
 49
2.5
 49
-2.5
  0
LTYPE
  2
DASHED3
 70
    64
  3
------  ------  ------  ------  
 72
    65
 73
     2
 40
5.0
 49
3.75
 49
-1.25
  0
LTYPE
  2
CENTER1
 70
    64
  3
----- - ----- - ----- - ----- - 
 72
    65
 73
     4
 40
10.0
 49
6.25
 49
-1.25
 49
1.25
 49
-1.25
  0
LTYPE
  2
CENTER2
 70
    64
  3
----------  --  ----------  --  
 72
    65
 73
     4
 40
20.0
 49
12.5
 49
-2.5
 49
2.5
 49
-2.5
  0
LTYPE
  2
PHANTOM1
 70
    64
  3
--- - - --- - - --- - - --- - - 
 72
    65
 73
     6
 40
10.0
 49
3.25
 49
-1.25
 49
1.25
 49
-1.25
 49
1.25
 49
-1.25
  0
LTYPE
  2
PHANTOM2
 70
    64
  3
--------  -  -  --------  -  -  
 72
    65
 73
     6
 40
20.0
 49
10.0
 49
-2.5
 49
1.25
 49
-2.5
 49
1.25
 49
-2.5
  0
LTYPE
  2
DOT
 70
    64
  3
-   -   -   -   -   -   -   -   
 72
    65
 73
     2
 40
2.5
 49
0.625
 49
-1.875
  0
LTYPE
  2
DUMMY
 70
    64
  3
ダミー
 72
    65
 73
     0
 40
0.0
  0
LTYPE
  2
RAND1
 70
    64
  3
ランダム線1
 72
    65
 73
     4
 40
10.0
 49
1.0
 49
-2.0
 49
3.0
 49
-4.0
  0
LTYPE
  2
RAND2
 70
    64
  3
ランダム線2
 72
    65
 73
     4
 40
14.0
 49
2.0
 49
-3.0
 49
4.0
 49
-5.0
  0
LTYPE
  2
RAND3
 70
    64
  3
ランダム線3
 72
    65
 73
     4
 40
18.0
 49
3.0
 49
-4.0
 49
5.0
 49
-6.0
  0
LTYPE
  2
RAND4
 70
    64
  3
ランダム線4
 72
    65
 73
     4
 40
22.0
 49
4.0
 49
-5.0
 49
6.0
 49
-7.0
  0
LTYPE
  2
RAND5
 70
    64
  3
ランダム線5
 72
    65
 73
     4
 40
26.0
 49
5.0
 49
-6.0
 49
7.0
 49
-8.0
  0
LTYPE
  2
LONG1
 70
    64
  3
----------  --  ----------  --  
 72
    65
 73
     4
 40
40.0
 49
32.5
 49
-2.5
 49
2.5
 49
-2.5
  0
LTYPE
  2
LONG2
 70
    64
  3
--------  -  -  --------  -  -  
 72
    65
 73
     6
 40
40.0
 49
30.0
 49
-2.5
 49
1.25
 49
-2.5
 49
1.25
 49
-2.5
  0
LTYPE
  2
LONG3
 70
    64
  3
+++++++++++++++..+++++++++++++++
 72
    65
 73
     2
 40
40.0
 49
37.5
 49
-2.5
  0
LTYPE
  2
LONG4
 70
    64
  3
+++++++++++++++..+++++++++++++++
 72
    65
 73
     2
 40
80.0
 49
75.0
 49
-5.0
  0
LTYPE
  2
LONG5
 70
    64
  3
----------  --  ----------  --  
 72
    65
 73
     4
 40
60.0
 49
37.5
 49
-7.5
 49
7.5
 49
-7.5
  0
LTYPE
  2
dashed
 70
   64
  3
-------   -------------   ------
 72
   65
 73
    2
 40
7.5
 49
6
 49
-1.5
  0
LTYPE
  2
dashed_spaced
 70
   64
  3
----        --------        ----
 72
   65
 73
    2
 40
12
 49
6
 49
-6
  0
LTYPE
  2
long_dashed_dotted
 70
   64
  3
------------- --- --------------
 72
   65
 73
    4
 40
15.25
 49
12
 49
-1.5
 49
0.25
 49
-1.5
  0
LTYPE
  2
long_dashed_double-dotted
 70
   64
  3
----------- --- --- ------------
 72
   65
 73
    6
 40
17
 49
12
 49
-1.5
 49
0.25
 49
-1.5
 49
0.25
 49
-1.5
  0
LTYPE
  2
long_dashed_triplicate-dotted
 70
   64
  3
--------- --- --- --- ----------
 72
   65
 73
    8
 40
18.75
 49
12
 49
-1.5
 49
0.25
 49
-1.5
 49
0.25
 49
-1.5
 49
0.25
 49
-1.5
  0
LTYPE
  2
dotted
 70
   64
  3
   -       -       -       -    
 72
   65
 73
    2
 40
1.75
 49
0.25
 49
-1.5
  0
LTYPE
  2
chain
 70
   64
  3
-------------- -- --------------
 72
   65
 73
    4
 40
18.5
 49
12
 49
-1.5
 49
3.5
 49
-1.5
  0
LTYPE
  2
chain_double_dash
 70
   64
  3
------------ -- -- -------------
 72
   65
 73
    6
 40
23.5
 49
12
 49
-1.5
 49
3.5
 49
-1.5
 49
3.5
 49
-1.5
  0
LTYPE
  2
dashed_dotted
 70
   64
  3
-----------     -     ----------
 72
   65
 73
    4
 40
9.25
 49
6
 49
-1.5
 49
0.25
 49
-1.5
  0
LTYPE
  2
double-dashed_dotted
 70
   64
  3
------   -----------   -   -----
 72
   65
 73
    6
 40
16.75
 49
6
 49
-1.5
 49
6
 49
-1.5
 49
0.25
 49
-1.5
  0
LTYPE
  2
dashed_double-dotted
 70
   64
  3
---------    -    -    ---------
 72
   65
 73
    6
 40
11
 49
6
 49
-1.5
 49
0.25
 49
-1.5
 49
0.25
 49
-1.5
  0
LTYPE
  2
double-dashed_double-dotted
 70
   64
  3
-----   ---------   -   -   ----
 72
   65
 73
    8
 40
18.5
 49
6
 49
-1.5
 49
6
 49
-1.5
 49
0.25
 49
-1.5
 49
0.25
 49
-1.5
  0
LTYPE
  2
dashed_triplicate-dotted
 70
   64
  3
-------    -    -    -    ------
 72
   65
 73
    8
 40
12.75
 49
6
 49
-1.5
 49
0.25
 49
-1.5
 49
0.25
 49
-1.5
 49
0.25
 49
-1.5
  0
LTYPE
  2
double-dashed_triplicate-dotted
 70
   64
  3
-----  ---------  -  -  -  -----
 72
   65
 73
   10
 40
20.25
 49
6
 49
-1.5
 49
6
 49
-1.5
 49
0.25
 49
-1.5
 49
0.25
 49
-1.5
 49
0.25
 49
-1.5
  0
LTYPE
  2
undefined
 70
   64
  3
--------------------------------
 72
   65
 73
    0
 40
0
  0
ENDTAB
  0
TABLE
  2
STYLE
  5
3
100
AcDbSymbolTable
 70
     1
  0
STYLE
  5
10
100
AcDbSymbolTableRecord
100
AcDbTextStyleTableRecord
  2
STANDARD
 70
     0
 40
0.0
 41
1.0
 50
0.0
 71
     0
 42
0.2
  3
txt
  4
bigfont.shx
  0
STYLE
  5
26
100
AcDbSymbolTableRecord
100
AcDbTextStyleTableRecord
  2
TATEGAKI
 70
    68
 40
0.0
 41
1.0
 50
0.0
 71
     0
 42
1.0
  3
txt
  4
bigfont.shx
  0
ENDTAB
  0
TABLE
  2
LAYER
 70
   13
  0
LAYER
  2
_0-0_計極細
 70
   64
 62
    7
  6
CONTINUOUS
  0
LAYER
  2
_0-1_計細線
 70
   64
 62
    7
  6
CONTINUOUS
  0
LAYER
  2
_0-5_寸法線
 70
   64
 62
    7
  6
CONTINUOUS
  0
LAYER
  2
_0-7_枠細線
 70
   64
 62
    7
  6
CONTINUOUS
  0
LAYER
  2
_0-8_枠中線
 70
   64
 62
    7
  6
CONTINUOUS
  0
LAYER
  2
_0-a_極細1
 70
   64
 62
    7
  6
CONTINUOUS
  0
LAYER
  2
_0-d_寸法1
 70
   64
 62
    7
  6
CONTINUOUS
  0
LAYER
  2
_0-e_極細4
 70
   64
 62
    7
  6
CONTINUOUS
  0
LAYER
  2
_1-1_寸法4
 70
   64
 62
    7
  6
CONTINUOUS
  0
LAYER
  2
_1-2_極細3
 70
   64
 62
    7
  6
CONTINUOUS
  0
LAYER
  2
_1-3_細線3
 70
   64
 62
    7
  6
CONTINUOUS
  0
LAYER
  2
_1-5_寸法3
 70
   64
 62
    7
  6
CONTINUOUS
  0
LAYER
  2
ADD_LINE
 70
   64
 62
    7
  6
CONTINUOUS
  0
ENDTAB
  0
ENDSEC
  0
SECTION
  2
BLOCKS
  0
ENDSEC
  0
SECTION
  2
ENTITIES
  0
LINE
  8
_0-8_枠中線
  6
CONTINUOUS
 62
    5
 10
60
 20
60
 11
60
 21
960
  0
LINE
  8
_0-8_枠中線
  6
CONTINUOUS
 62
    5
 10
60
 20
960
 11
1425
 21
960
  0
LINE
  8
_0-8_枠中線
  6
CONTINUOUS
 62
    5
 10
1425
 20
960
 11
1425
 21
60
  0
LINE
  8
_0-8_枠中線
  6
CONTINUOUS
 62
    5
 10
1425
 20
60
 11
60
 21
60
  0
TEXT
  8
_0-7_枠細線
 62
    5
 10
894.89374448775834
 20
945
 40
12.5
 41
1
 50
0
  1
記号
  0
TEXT
  8
_0-7_枠細線
 62
    5
 10
996.76874448775834
 20
945
 40
12.5
 41
1
 50
0
  1
訂　 正　 記　 事
  0
TEXT
  8
_0-7_枠細線
 62
    5
 10
1181.1437444877581
 20
945
 40
12.5
 41
1
 50
0
  1
訂 正 年 月 日
  0
TEXT
  8
_0-7_枠細線
 62
    5
 10
1306.1437444877581
 20
945
 40
12.5
 41
1
 50
0
  1
備　　　　　考
  0
LINE
  8
_0-7_枠細線
  6
CONTINUOUS
 62
    5
 10
889.89374448775834
 20
942.5
 11
889.89374448775834
 21
959.99999999999909
  0
LINE
  8
_0-7_枠細線
  6
CONTINUOUS
 62
    5
 10
924.89374448775834
 20
942.5
 11
924.89374448775834
 21
959.99999999999909
  0
LINE
  8
_0-7_枠細線
  6
CONTINUOUS
 62
    5
 10
1174.8937444877581
 20
942.5
 11
1174.8937444877581
 21
959.99999999999909
  0
LINE
  8
_0-7_枠細線
  6
CONTINUOUS
 62
    5
 10
1274.8937444877581
 20
942.5
 11
1274.8937444877581
 21
959.99999999999909
  0
LINE
  8
_0-7_枠細線
  6
CONTINUOUS
 62
    5
 10
1425
 20
942.5
 11
890
 21
942.5
  0
TEXT
  8
_0-7_枠細線
 62
    5
 10
937.5
 20
97.5
 40
17.5
 41
1
 50
0
  1
備考
  7
TATEGAKI
  0
TEXT
  8
_0-7_枠細線
 62
    5
 10
937.5
 20
137.5
 40
17.5
 41
1
 50
0
  1
品番
  7
TATEGAKI
  0
TEXT
  8
_0-7_枠細線
 62
    5
 10
937.5
 20
177.5
 40
17.5
 41
1
 50
0
  1
品名
  7
TATEGAKI
  0
LINE
  8
_0-7_枠細線
  6
CONTINUOUS
 62
    5
 10
950
 20
180
 11
950
 21
60
  0
LINE
  8
_0-8_枠中線
  6
CONTINUOUS
 62
    5
 10
1425
 20
180
 11
925
 21
180
  0
LINE
  8
_0-8_枠中線
  6
CONTINUOUS
 62
    5
 10
925
 20
180
 11
925
 21
60
  0
LINE
  8
_0-7_枠細線
  6
CONTINUOUS
 62
    5
 10
1185
 20
180
 11
1185
 21
100
  0
LINE
  8
_0-7_枠細線
  6
CONTINUOUS
 62
    5
 10
1185
 20
140
 11
925
 21
140
  0
LINE
  8
_0-7_枠細線
  6
CONTINUOUS
 62
    5
 10
1245
 20
180
 11
1245
 21
60
  0
TEXT
  8
_0-7_枠細線
 62
    5
 10
1192.5
 20
160
 40
15
 41
1
 50
0
  1
縮　尺
  0
LINE
  8
_0-7_枠細線
  6
CONTINUOUS
 62
    5
 10
1185
 20
155
 11
1245
 21
155
  0
LINE
  8
_0-7_枠細線
  6
CONTINUOUS
 62
    5
 10
1245
 20
100
 11
925
 21
100
  0
LINE
  8
_0-7_枠細線
  6
CONTINUOUS
 62
    5
 10
1425
 20
90
 11
1245
 21
90
  0
LINE
  8
_0-7_枠細線
  6
CONTINUOUS
 62
    5
 10
1245
 20
120
 11
1425
 21
120
  0
LINE
  8
_0-7_枠細線
  6
CONTINUOUS
 62
    5
 10
1425
 20
140
 11
1245
 21
140
  0
TEXT
  8
_0-7_枠細線
 62
    5
 10
1255
 20
147.5
 40
25
 41
0.8
 50
0
  1
株式会社シマブン
  0
TEXT
  8
_0-7_枠細線
 62
    5
 10
1252.5
 20
60
 40
15
 41
1
 50
0
  1
年月日
  0
TEXT
  8
_0-7_枠細線
 62
    5
 10
1252.5
 20
75
 40
15
 41
1
 50
0
  1
作　成
  0
TEXT
  8
_0-7_枠細線
 62
    5
 10
1256.25
 20
122.5
 40
15
 41
1
 50
0
  1
承 認
  0
LINE
  8
_0-7_枠細線
  6
CONTINUOUS
 62
    5
 10
1305
 20
140
 11
1305
 21
60
  0
TEXT
  8
_0-7_枠細線
 62
    5
 10
1316.25
 20
122.5
 40
15
 41
1
 50
0
  1
検 図
  0
LINE
  8
_0-7_枠細線
  6
CONTINUOUS
 62
    5
 10
1365
 20
140
 11
1365
 21
90
  0
TEXT
  8
_0-7_枠細線
 62
    5
 10
1376.25
 20
122.5
 40
15
 41
1
 50
0
  1
設 計
  0
TEXT
  8
_0-7_枠細線
 62
    5
 10
1255
 20
95
 40
20
 41
1
 50
0
  1
大野
  0
TEXT
  8
_0-7_枠細線
 62
    5
 10
1315
 20
95
 40
20
 41
1
 50
0
  1
中村
  0
TEXT
  8
_0-7_枠細線
 62
    5
 10
1194
 20
117.5
 40
20
 41
0.6999999999999997
 50
0
  1
１：５
  0
TEXT
  8
_0-7_枠細線
 62
    5
 10
1310
 20
67.5
 40
15
 41
0.6666666666666666
 50
0
  1
２０２０年０７月０１日
  0
TEXT
  8
_0-7_枠細線
 62
    5
 10
1375
 20
95
 40
20
 41
1
 50
0
  1
石井
  0
LINE
  8
_1-5_寸法3
  6
CONTINUOUS
 62
    7
 10
1083.2267566008582
 20
313.16744246628792
 11
1038.2267566008586
 21
313.16744246628804
  0
LINE
  8
_1-5_寸法3
  6
CONTINUOUS
 62
    7
 10
1043.2267566008586
 20
313.16744246628804
 11
1045.8149470518838
 21
303.50818420339738
  0
LINE
  8
_1-5_寸法3
  6
CONTINUOUS
 62
    7
 10
1043.2267566008586
 20
313.16744246628804
 11
1040.6385661498334
 21
303.50818420339738
  0
LINE
  8
_1-5_寸法3
  6
CONTINUOUS
 62
    7
 10
1085.7267566008586
 20
252.3341091329545
 11
1038.2267566008586
 21
252.33410913295461
  0
LINE
  8
_1-5_寸法3
  6
CONTINUOUS
 62
    7
 10
1043.2267566008586
 20
252.33410913295461
 11
1040.6385661498334
 21
261.99336739584527
  0
LINE
  8
_1-5_寸法3
  6
CONTINUOUS
 62
    7
 10
1043.2267566008586
 20
252.33410913295461
 11
1045.8149470518838
 21
261.99336739584527
  0
LINE
  8
_1-5_寸法3
  6
CONTINUOUS
 62
    7
 10
1043.2267566008586
 20
313.16744246628804
 11
1043.2267566008586
 21
252.33410913295461
  0
TEXT
  8
_1-5_寸法3
 62
    7
 10
1043.2267566008586
 20
267.75077579962118
 40
15
 41
1
 50
90
  1
36.5
  0
LINE
  8
_1-5_寸法3
  6
CONTINUOUS
 62
    7
 10
1343.2267566008588
 20
313.16744246628775
 11
1388.2267566008588
 21
313.16744246628735
  0
LINE
  8
_1-5_寸法3
  6
CONTINUOUS
 62
    7
 10
1383.2267566008588
 20
313.16744246628741
 11
1385.8149470518838
 21
303.50818420339681
  0
LINE
  8
_1-5_寸法3
  6
CONTINUOUS
 62
    7
 10
1383.2267566008588
 20
313.16744246628741
 11
1380.6385661498334
 21
303.50818420339681
  0
LINE
  8
_1-5_寸法3
  6
CONTINUOUS
 62
    7
 10
1343.2267566008588
 20
296.50077579962107
 11
1388.2267566008588
 21
296.50077579962067
  0
LINE
  8
_1-5_寸法3
  6
CONTINUOUS
 62
    7
 10
1383.2267566008588
 20
296.50077579962073
 11
1380.6385661498334
 21
306.16003406251139
  0
LINE
  8
_1-5_寸法3
  6
CONTINUOUS
 62
    7
 10
1383.2267566008588
 20
296.50077579962073
 11
1385.8149470518838
 21
306.16003406251139
  0
LINE
  8
_1-5_寸法3
  6
CONTINUOUS
 62
    7
 10
1383.2267566008588
 20
313.16744246628741
 11
1383.2267566008588
 21
296.50077579962073
  0
TEXT
  8
_1-5_寸法3
 62
    7
 10
1383.2267566008588
 20
297.33410913295404
 40
15
 41
1
 50
90
  1
10
  0
TEXT
  8
_0-7_枠細線
 62
    5
 10
1165.172212289262
 20
206.08585173847675
 40
25
 41
0.8
 50
0
  1
断面詳細図
  0
LINE
  8
_1-2_極細3
  6
CENTER1
 62
    2
 10
1213.2267566008586
 20
326.24754095382252
 11
1213.2267566008586
 21
243.84949882074523
  0
LINE
  8
_1-2_極細3
  6
CONTINUOUS
 62
    2
 10
1332.3934231399583
 20
296.50077579961811
 11
1330.7267564732915
 21
296.50077579961811
  0
LINE
  8
_1-2_極細3
  6
CONTINUOUS
 62
    2
 10
1329.0600898066245
 20
311.08410913295137
 11
1329.0600898066245
 21
254.00077579961811
  0
ARC
  8
_1-2_極細3
  6
CONTINUOUS
 62
    2
 10
1331.1434231399585
 20
311.08410913295137
 40
2.0833333333333339
 50
359.99999999998244
 51
179.99999999999946
  0
LINE
  8
_1-2_極細3
  6
CONTINUOUS
 62
    2
 10
1330.7267564732915
 20
311.08410913295148
 11
1330.7267564732915
 21
252.33410913295131
  0
ARC
  8
_1-2_極細3
  6
CONTINUOUS
 62
    2
 10
1331.1434231399583
 20
311.08410913295137
 40
0.4166666666666667
 50
89.999999999999915
 51
179.99999999998437
  0
LINE
  8
_1-2_極細3
  6
CONTINUOUS
 62
    2
 10
1331.1434231399583
 20
311.50077579961811
 11
1331.1249862023997
 21
311.50077579961811
  0
LINE
  8
_1-2_極細3
  6
CONTINUOUS
 62
    2
 10
1330.7267564732915
 20
304.94473075830228
 11
1331.5379978276846
 21
311.02904091624686
  0
ARC
  8
_1-2_極細3
  6
CONTINUOUS
 62
    2
 10
1331.1249862023997
 20
311.08410913295137
 40
0.4166666666666667
 50
352.4053566314289
 51
89.999999999999545
  0
LINE
  8
_1-2_極細3
  6
CONTINUOUS
 62
    2
 10
1330.7267564732915
 20
252.33410913295131
 11
1095.7267567284257
 21
252.33410913295131
  0
LINE
  8
_1-2_極細3
  6
CONTINUOUS
 62
    2
 10
1329.0600898066245
 20
254.00077579961811
 11
1097.3934233950927
 21
254.00077579961811
  0
LINE
  8
_1-2_極細3
  6
CONTINUOUS
 62
    2
 10
1332.3934231399583
 20
304.61286588224954
 11
1332.3934231399583
 21
296.50077579961811
  0
LINE
  8
_1-2_極細3
  6
CONTINUOUS
 62
    2
 10
1332.4226634710162
 20
305.05341161588649
 11
1333.226756473292
 21
311.08410913295137
  0
ARC
  8
_1-2_極細3
  6
CONTINUOUS
 62
    2
 10
1335.7267564732915
 20
304.61286588224971
 40
3.3333333333333339
 50
172.40535663140824
 51
180.00000000000256
  0
LINE
  8
_1-2_極細3
  6
CONTINUOUS
 62
    2
 10
1094.0600900617592
 20
296.50077579961811
 11
1095.7267567284257
 21
296.50077579961811
  0
LINE
  8
_1-2_極細3
  6
CONTINUOUS
 62
    2
 10
1097.3934233950927
 20
311.08410913295137
 11
1097.3934233950927
 21
254.00077579961811
  0
ARC
  8
_1-2_極細3
  6
CONTINUOUS
 62
    2
 10
1095.3100900617587
 20
311.08410913295137
 40
2.0833333333333339
 50
0
 51
180.00000000001685
  0
LINE
  8
_1-2_極細3
  6
CONTINUOUS
 62
    2
 10
1095.7267567284257
 20
311.08410913295148
 11
1095.7267567284257
 21
252.33410913295131
  0
ARC
  8
_1-2_極細3
  6
CONTINUOUS
 62
    2
 10
1095.3100900617592
 20
311.08410913295137
 40
0.4166666666666667
 50
0.000000000015633
 51
89.999999999999915
  0
LINE
  8
_1-2_極細3
  6
CONTINUOUS
 62
    2
 10
1095.3100900617592
 20
311.50077579961811
 11
1095.3285269993175
 21
311.50077579961811
  0
LINE
  8
_1-2_極細3
  6
CONTINUOUS
 62
    2
 10
1095.7267567284257
 20
304.94473075830228
 11
1094.9155153740326
 21
311.02904091624686
  0
ARC
  8
_1-2_極細3
  6
CONTINUOUS
 62
    2
 10
1095.3285269993175
 20
311.08410913295137
 40
0.4166666666666667
 50
89.999999999999915
 51
187.59464336857042
  0
LINE
  8
_1-2_極細3
  6
CONTINUOUS
 62
    2
 10
1094.0600900617592
 20
304.61286588224954
 11
1094.0600900617592
 21
296.50077579961811
  0
LINE
  8
_1-2_極細3
  6
CONTINUOUS
 62
    2
 10
1094.030849730701
 20
305.05341161588649
 11
1093.2267567284257
 21
311.08410913295137
  0
ARC
  8
_1-2_極細3
  6
CONTINUOUS
 62
    2
 10
1090.7267567284257
 20
304.61286588224971
 40
3.3333333333333339
 50
359.9999999999967
 51
7.5946433685914272
  0
TEXT
  8
_0-7_枠細線
 62
    5
 10
1280.1211820384308
 20
207.83959385422182
 40
20
 41
0.6
 50
0
  1
Ｓ＝１：３
  0
LINE
  8
_1-3_細線3
  6
CONTINUOUS
 62
    4
 10
1110.7267567284262
 20
287.33410913295432
 11
1110.7267567284262
 21
312.33410913295432
  0
LINE
  8
_1-3_細線3
  6
CONTINUOUS
 62
    4
 10
1315.7267567284268
 20
287.33410913295518
 11
1110.7267567284262
 21
287.33410913295432
  0
LINE
  8
_1-3_細線3
  6
CONTINUOUS
 62
    4
 10
1315.7267567284268
 20
312.33410913295518
 11
1315.7267567284268
 21
287.33410913295518
  0
LINE
  8
_1-3_細線3
  6
CONTINUOUS
 62
    4
 10
1319.0600900617596
 20
312.33410913295518
 11
1107.3934233950927
 21
312.33410913295432
  0
LINE
  8
_1-3_細線3
  6
CONTINUOUS
 62
    4
 10
1319.0600900617596
 20
284.0007757996209
 11
1319.0600900617596
 21
312.33410913295518
  0
LINE
  8
_1-3_細線3
  6
CONTINUOUS
 62
    4
 10
1107.3934233950927
 20
284.0007757996209
 11
1319.0600900617596
 21
284.0007757996209
  0
LINE
  8
_1-3_細線3
  6
CONTINUOUS
 62
    4
 10
1107.3934233950927
 20
312.33410913295432
 11
1107.3934233950927
 21
284.0007757996209
  0
LINE
  8
_1-5_寸法3
  6
CONTINUOUS
 62
    7
 10
1205.5693964079173
 20
290.42865189648631
 11
1174.4179501541585
 21
316.56781895865458
  0
LINE
  8
_1-5_寸法3
  6
CONTINUOUS
 62
    7
 10
1178.2481723697533
 20
313.35388091022185
 11
1175.6599819187281
 21
323.01313917311256
  0
LINE
  8
_1-5_寸法3
  6
CONTINUOUS
 62
    7
 10
1178.2481723697533
 20
313.35388091022185
 11
1180.8363628207785
 21
323.01313917311256
  0
LINE
  8
_1-5_寸法3
  6
CONTINUOUS
 62
    7
 10
1205.5693964079173
 20
318.76198522982014
 11
1174.4179501541585
 21
344.90115229198841
  0
LINE
  8
_1-5_寸法3
  6
CONTINUOUS
 62
    7
 10
1178.2481723697533
 20
341.68721424355567
 11
1180.8363628207785
 21
332.02795598066501
  0
LINE
  8
_1-5_寸法3
  6
CONTINUOUS
 62
    7
 10
1178.2481723697533
 20
341.68721424355567
 11
1175.6599819187281
 21
332.02795598066501
  0
LINE
  8
_1-5_寸法3
  6
CONTINUOUS
 62
    7
 10
1178.2481723697533
 20
313.35388091022185
 11
1178.2481723697533
 21
341.68721424355567
  0
TEXT
  8
_1-5_寸法3
 62
    7
 10
1178.2481723697533
 20
320.02054757688876
 40
15
 41
1
 50
90
  1
17
  0
LINE
  8
_1-5_寸法3
  6
CONTINUOUS
 62
    7
 10
1267.771226934427
 20
284.0007757996209
 11
1270.3594173854522
 21
274.34151753673018
  0
LINE
  8
_1-5_寸法3
  6
CONTINUOUS
 62
    7
 10
1267.771226934427
 20
284.0007757996209
 11
1265.1830364834018
 21
274.34151753673024
  0
LINE
  8
_1-5_寸法3
  6
CONTINUOUS
 62
    7
 10
1267.771226934427
 20
287.33410913295472
 11
1265.1830364834018
 21
296.99336739584538
  0
LINE
  8
_1-5_寸法3
  6
CONTINUOUS
 62
    7
 10
1267.771226934427
 20
287.33410913295472
 11
1270.3594173854522
 21
296.99336739584538
  0
LINE
  8
_1-5_寸法3
  6
CONTINUOUS
 62
    7
 10
1267.771226934427
 20
259.0007757996209
 11
1267.771226934427
 21
312.33410913295472
  0
TEXT
  8
_1-5_寸法3
 62
    7
 10
1267.771226934427
 20
263.90334546371173
 40
15
 41
1
 50
90
  1
2
  0
ARC
  8
_1-3_細線3
  6
CONTINUOUS
 62
    4
 10
1320.4940769251298
 20
257.33410913295461
 40
3.333333333333333
 50
269.99999999999977
 51
348.69006752597693
  0
LINE
  8
_1-3_細線3
  6
CONTINUOUS
 62
    4
 10
1320.4940769251298
 20
254.00077579962118
 11
1292.626102943253
 21
254.00077579962118
  0
LINE
  8
_1-3_細線3
  6
CONTINUOUS
 62
    4
 10
1326.5600899341921
 20
270.66744246628804
 11
1323.7626791774328
 21
256.68038868249386
  0
ARC
  8
_1-3_細線3
  6
CONTINUOUS
 62
    4
 10
1292.626102943253
 20
257.33410913295461
 40
3.333333333333333
 50
191.3099324740254
 51
269.99999999999977
  0
LINE
  8
_1-3_細線3
  6
CONTINUOUS
 62
    4
 10
1289.3575006909509
 20
256.68038868249386
 11
1286.5600899341921
 21
270.66744246628804
  0
LINE
  8
_1-3_細線3
  6
CONTINUOUS
 62
    4
 10
1285.7267566008591
 20
284.00077579962192
 11
1327.3934232675251
 21
284.00077579962147
  0
LINE
  8
_1-3_細線3
  6
CONTINUOUS
 62
    4
 10
1285.7267566008591
 20
270.66744246628804
 11
1285.7267566008591
 21
284.00077579962175
  0
LINE
  8
_1-3_細線3
  6
CONTINUOUS
 62
    4
 10
1285.7267566008591
 20
270.66744246628804
 11
1327.3934232675251
 21
270.66744246628804
  0
LINE
  8
_1-3_細線3
  6
CONTINUOUS
 62
    4
 10
1327.3934232675251
 20
284.00077579962147
 11
1327.3934232675251
 21
270.66744246628804
  0
ARC
  8
_1-3_細線3
  6
CONTINUOUS
 62
    4
 10
1133.8274102584637
 20
257.33410913295415
 40
3.333333333333333
 50
269.99999999999977
 51
348.69006752597676
  0
LINE
  8
_1-3_細線3
  6
CONTINUOUS
 62
    4
 10
1133.8274102584637
 20
254.0007757996209
 11
1105.9594362765865
 21
254.0007757996209
  0
LINE
  8
_1-3_細線3
  6
CONTINUOUS
 62
    4
 10
1139.8934232675251
 20
270.66744246628775
 11
1137.0960125107658
 21
256.68038868249357
  0
ARC
  8
_1-3_細線3
  6
CONTINUOUS
 62
    4
 10
1105.9594362765865
 20
257.33410913295415
 40
3.333333333333333
 50
191.309932474021
 51
269.99999999999977
  0
LINE
  8
_1-3_細線3
  6
CONTINUOUS
 62
    4
 10
1102.690834024284
 20
256.68038868249357
 11
1099.8934232675251
 21
270.66744246628775
  0
LINE
  8
_1-3_細線3
  6
CONTINUOUS
 62
    4
 10
1140.7267566008591
 20
284.00077579962118
 11
1099.0600899341921
 21
284.00077579962118
  0
LINE
  8
_1-3_細線3
  6
CONTINUOUS
 62
    4
 10
1140.7267566008591
 20
270.66744246628775
 11
1140.7267566008591
 21
284.00077579962158
  0
LINE
  8
_1-3_細線3
  6
CONTINUOUS
 62
    4
 10
1099.0600899341921
 20
270.66744246628775
 11
1140.7267566008591
 21
270.66744246628775
  0
LINE
  8
_1-3_細線3
  6
CONTINUOUS
 62
    4
 10
1099.0600899341921
 20
284.00077579962118
 11
1099.0600899341921
 21
270.66744246628775
  0
LINE
  8
_1-5_寸法3
  6
CONTINUOUS
 62
    7
 10
1093.2267567284252
 20
323.16744246628468
 11
1093.2267567284252
 21
368.16744246628468
  0
LINE
  8
_1-5_寸法3
  6
CONTINUOUS
 62
    7
 10
1093.2267567284252
 20
363.16744246628468
 11
1083.5674984655345
 21
360.57925201525956
  0
LINE
  8
_1-5_寸法3
  6
CONTINUOUS
 62
    7
 10
1093.2267567284252
 20
363.16744246628468
 11
1083.5674984655345
 21
365.75563291730992
  0
LINE
  8
_1-5_寸法3
  6
CONTINUOUS
 62
    7
 10
1097.3934233950931
 20
323.16744246628468
 11
1097.3934233950931
 21
368.16744246628468
  0
CIRCLE
  8
_1-5_寸法3
  6
CONTINUOUS
 62
    1
 10
1097.3934233950931
 20
363.16744246628468
 40
1.5000000000000002
  0
LINE
  8
_1-5_寸法3
  6
CONTINUOUS
 62
    7
 10
1062.446182854982
 20
363.16744246628468
 11
1097.3934233950931
 21
363.16744246628468
  0
TEXT
  8
_1-5_寸法3
 62
    7
 10
1062.446182854982
 20
363.16744246628474
 40
15
 41
1
 50
0
  1
2.5
  0
LINE
  8
_1-5_寸法3
  6
CONTINUOUS
 62
    7
 10
1107.3934233950927
 20
323.16744246628468
 11
1107.3934233950931
 21
368.16744246628468
  0
LINE
  8
_1-5_寸法3
  6
CONTINUOUS
 62
    7
 10
1097.3934233950931
 20
363.16744246628468
 11
1107.3934233950931
 21
363.16744246628468
  0
TEXT
  8
_1-5_寸法3
 62
    7
 10
1098.6434233950931
 20
363.16744246628468
 40
15
 41
1
 50
0
  1
6
  0
LINE
  8
_1-5_寸法3
  6
CONTINUOUS
 62
    7
 10
1107.3934233950931
 20
363.16744246628468
 11
1117.0526816579838
 21
365.75563291730987
  0
LINE
  8
_1-5_寸法3
  6
CONTINUOUS
 62
    7
 10
1107.3934233950931
 20
363.16744246628468
 11
1117.0526816579838
 21
360.57925201525956
  0
LINE
  8
_1-5_寸法3
  6
CONTINUOUS
 62
    7
 10
1319.0600900617596
 20
323.16744246628468
 11
1319.0600900617596
 21
368.16744246628468
  0
LINE
  8
_1-5_寸法3
  6
CONTINUOUS
 62
    7
 10
1319.0600900617596
 20
363.16744246628468
 11
1309.4008317988689
 21
360.57925201525956
  0
LINE
  8
_1-5_寸法3
  6
CONTINUOUS
 62
    7
 10
1319.0600900617596
 20
363.16744246628468
 11
1309.4008317988689
 21
365.75563291730992
  0
LINE
  8
_1-5_寸法3
  6
CONTINUOUS
 62
    7
 10
1107.3934233950931
 20
363.16744246628468
 11
1319.0600900617596
 21
363.16744246628468
  0
TEXT
  8
_1-5_寸法3
 62
    7
 10
1201.9767567284266
 20
363.16744246628468
 40
15
 41
1
 50
0
  1
127
  0
LINE
  8
_1-5_寸法3
  6
CONTINUOUS
 62
    7
 10
1329.0600898066245
 20
323.16744246628468
 11
1329.0600898066245
 21
368.16744246628468
  0
CIRCLE
  8
_1-5_寸法3
  6
CONTINUOUS
 62
    1
 10
1329.0600898066245
 20
363.16744246628468
 40
1.5000000000000002
  0
LINE
  8
_1-5_寸法3
  6
CONTINUOUS
 62
    7
 10
1319.0600900617596
 20
363.16744246628468
 11
1329.0600898066245
 21
363.16744246628468
  0
TEXT
  8
_1-5_寸法3
 62
    7
 10
1320.3100899341921
 20
363.16744246628468
 40
15
 41
1
 50
0
  1
6
  0
LINE
  8
_1-5_寸法3
  6
CONTINUOUS
 62
    7
 10
1333.2267564732915
 20
323.16744246628468
 11
1333.2267564732915
 21
368.16744246628468
  0
LINE
  8
_1-5_寸法3
  6
CONTINUOUS
 62
    7
 10
1333.2267564732915
 20
363.16744246628468
 11
1342.8860147361822
 21
365.75563291730981
  0
LINE
  8
_1-5_寸法3
  6
CONTINUOUS
 62
    7
 10
1333.2267564732915
 20
363.16744246628468
 11
1342.8860147361822
 21
360.5792520152595
  0
LINE
  8
_1-5_寸法3
  6
CONTINUOUS
 62
    7
 10
1329.0600898066245
 20
363.16744246628468
 11
1368.8537395064097
 21
363.16744246628468
  0
TEXT
  8
_1-5_寸法3
 62
    7
 10
1346.3537395064097
 20
363.16744246628468
 40
15
 41
1
 50
0
  1
2.5
  0
LINE
  8
_1-5_寸法3
  6
CONTINUOUS
 62
    7
 10
1093.2267566008586
 20
323.16744246628787
 11
1093.2267566008586
 21
403.16744246628474
  0
LINE
  8
_1-5_寸法3
  6
CONTINUOUS
 62
    7
 10
1093.2267566008586
 20
398.16744246628474
 11
1102.8860148637496
 21
400.75563291730987
  0
LINE
  8
_1-5_寸法3
  6
CONTINUOUS
 62
    7
 10
1093.2267566008586
 20
398.16744246628474
 11
1102.8860148637496
 21
395.57925201525956
  0
LINE
  8
_1-5_寸法3
  6
CONTINUOUS
 62
    7
 10
1333.2267566008588
 20
323.16744246628787
 11
1333.2267566008588
 21
403.16744246628474
  0
LINE
  8
_1-5_寸法3
  6
CONTINUOUS
 62
    7
 10
1333.2267566008588
 20
398.16744246628474
 11
1323.5674983379679
 21
395.57925201525956
  0
LINE
  8
_1-5_寸法3
  6
CONTINUOUS
 62
    7
 10
1333.2267566008588
 20
398.16744246628474
 11
1323.5674983379679
 21
400.75563291730992
  0
LINE
  8
_1-5_寸法3
  6
CONTINUOUS
 62
    7
 10
1093.2267566008586
 20
398.16744246628474
 11
1333.2267566008588
 21
398.16744246628474
  0
TEXT
  8
_1-5_寸法3
 62
    7
 10
1201.9767566008586
 20
398.16744246628468
 40
15
 41
1
 50
0
  1
144
  0
LINE
  8
_1-3_細線3
  6
CONTINUOUS
 62
    4
 10
1179.8995916164545
 20
279.00077579962147
 11
1179.8995916164545
 21
284.00077579962101
  0
LINE
  8
_1-3_細線3
  6
CONTINUOUS
 62
    4
 10
1246.5662582831214
 20
279.00077579962158
 11
1179.8995916164545
 21
279.00077579962147
  0
LINE
  8
_1-3_細線3
  6
CONTINUOUS
 62
    4
 10
1246.5662582831214
 20
284.00077579962101
 11
1246.5662582831214
 21
279.00077579962158
  0
ARC
  8
_1-3_細線3
  6
CONTINUOUS
 62
    4
 10
1227.1607435917967
 20
257.33410913295387
 40
3.333333333333333
 50
269.99999999999977
 51
348.69006752597676
  0
LINE
  8
_1-3_細線3
  6
CONTINUOUS
 62
    4
 10
1227.1607435917967
 20
254.00077579962061
 11
1199.29276960992
 21
254.00077579962061
  0
LINE
  8
_1-3_細線3
  6
CONTINUOUS
 62
    4
 10
1233.2267566008582
 20
270.66744246628747
 11
1230.4293458440989
 21
256.68038868249329
  0
ARC
  8
_1-3_細線3
  6
CONTINUOUS
 62
    4
 10
1199.29276960992
 20
257.33410913295387
 40
3.333333333333333
 50
191.30993247401946
 51
269.99999999999977
  0
LINE
  8
_1-3_細線3
  6
CONTINUOUS
 62
    4
 10
1196.024167357617
 20
256.68038868249329
 11
1193.2267566008582
 21
270.66744246628747
  0
LINE
  8
_1-3_細線3
  6
CONTINUOUS
 62
    4
 10
1192.3934232675251
 20
270.66744246628747
 11
1234.0600899341921
 21
270.66744246628747
  0
LINE
  8
_1-3_細線3
  6
CONTINUOUS
 62
    4
 10
1192.3934232675251
 20
279.00077579962135
 11
1192.3934232675251
 21
270.66744246628747
  0
LINE
  8
_1-3_細線3
  6
CONTINUOUS
 62
    4
 10
1234.0600899341921
 20
270.66744246628747
 11
1234.0600899341921
 21
279.00077579962158
  0
TEXT
  8
_0-7_枠細線
 62
    5
 10
961.4307702470602
 20
110
 40
20
 41
0.6
 50
0
  1
ＨＴＡＢ－１５Ｌ６００
  0
TEXT
  8
_0-7_枠細線
 62
    5
 10
234.09373009090416
 20
83.805264868105951
 40
25
 41
0.8
 50
0
  1
排水部詳細図
  0
TEXT
  8
_0-7_枠細線
 62
    5
 10
371.70563546198247
 20
86.201060003175058
 40
20
 41
0.6000000000000002
 50
0
  1
Ｓ＝１：４
  0
LINE
  8
_0-a_極細1
  6
CONTINUOUS
 62
    7
 10
137.39766813269924
 20
539.41237835703635
 11
149.39766693270008
 21
539.41237835703635
  0
LINE
  8
_0-a_極細1
  6
CONTINUOUS
 62
    7
 10
137.39766813269924
 20
540.07904495703633
 11
149.39766693270008
 21
540.07904495703633
  0
LINE
  8
_0-a_極細1
  6
CONTINUOUS
 62
    7
 10
137.2902456997447
 20
540.74571155703643
 11
149.39766693270008
 21
540.74571155703643
  0
LINE
  8
_0-a_極細1
  6
CONTINUOUS
 62
    7
 10
136.6235790997446
 20
541.41237815703653
 11
149.39766693270008
 21
541.41237815703653
  0
LINE
  8
_0-a_極細1
  6
CONTINUOUS
 62
    7
 10
135.95691249974493
 20
542.0790447570364
 11
149.39766693270008
 21
542.0790447570364
  0
LINE
  8
_0-a_極細1
  6
CONTINUOUS
 62
    7
 10
136.17175736565358
 20
542.7457113570365
 11
149.39766693270008
 21
542.7457113570365
  0
LINE
  8
_0-a_極細1
  6
CONTINUOUS
 62
    7
 10
136.83842396565367
 20
543.4123779570366
 11
149.39766693270008
 21
543.4123779570366
  0
LINE
  8
_0-a_極細1
  6
CONTINUOUS
 62
    7
 10
137.39766813269924
 20
544.07904455703635
 11
149.39766693270008
 21
544.07904455703635
  0
LINE
  8
_0-a_極細1
  6
CONTINUOUS
 62
    7
 10
137.39766813269924
 20
544.74571115703645
 11
149.39766693270008
 21
544.74571115703645
  0
LINE
  8
_0-a_極細1
  6
CONTINUOUS
 62
    7
 10
137.39766813269924
 20
545.41237775703655
 11
149.39766693270008
 21
545.41237775703655
  0
LINE
  8
_0-a_極細1
  6
CONTINUOUS
 62
    7
 10
137.39766813269924
 20
546.07904435703654
 11
149.39766693270008
 21
546.07904435703654
  0
LINE
  8
_0-a_極細1
  6
CONTINUOUS
 62
    7
 10
137.39766813269924
 20
546.74571095703664
 11
149.39766693270008
 21
546.74571095703664
  0
LINE
  8
_0-a_極細1
  6
CONTINUOUS
 62
    7
 10
137.39766813269924
 20
547.41237755703673
 11
149.39766693270008
 21
547.41237755703673
  0
LINE
  8
_0-a_極細1
  6
CONTINUOUS
 62
    7
 10
137.39766813269924
 20
548.07904415703661
 11
149.39766693270008
 21
548.07904415703661
  0
LINE
  8
_0-a_極細1
  6
CONTINUOUS
 62
    7
 10
136.95691239974465
 20
548.74571075703659
 11
149.63273665694282
 21
548.74571075703659
  0
LINE
  8
_0-a_極細1
  6
CONTINUOUS
 62
    7
 10
136.29024579974455
 20
549.41237735703669
 11
149.98829217694242
 21
549.41237735703669
  0
LINE
  8
_0-a_極細1
  6
CONTINUOUS
 62
    7
 10
135.83842406565438
 20
550.07904395703667
 11
150.34384769694248
 21
550.07904395703667
  0
LINE
  8
_0-a_極細1
  6
CONTINUOUS
 62
    7
 10
136.50509066565405
 20
550.74571055703677
 11
150.69940321694253
 21
550.74571055703677
  0
LINE
  8
_0-a_極細1
  6
CONTINUOUS
 62
    7
 10
137.17175726565415
 20
551.41237715703687
 11
151.05495873694258
 21
551.41237715703687
  0
LINE
  8
_0-a_極細1
  6
CONTINUOUS
 62
    7
 10
137.39766813269924
 20
552.07904375703674
 11
151.41051425694263
 21
552.07904375703674
  0
LINE
  8
_0-a_極細1
  6
CONTINUOUS
 62
    7
 10
137.39766813269924
 20
552.74571035703684
 11
151.7660697769422
 21
552.74571035703684
  0
LINE
  8
_0-a_極細1
  6
CONTINUOUS
 62
    7
 10
171.09122206058032
 20
523.14481483733266
 11
171.09122206058032
 21
574.59462768291633
  0
LINE
  8
_0-a_極細1
  6
CONTINUOUS
 62
    7
 10
170.42455546058022
 20
522.47814823733256
 11
170.42455546058022
 21
574.45042252445069
  0
LINE
  8
_0-a_極細1
  6
CONTINUOUS
 62
    7
 10
169.75788886058012
 20
521.81148163733246
 11
169.75788886058012
 21
574.15679500629108
  0
LINE
  8
_0-a_極細1
  6
CONTINUOUS
 62
    7
 10
169.09122226058003
 20
521.14481503733259
 11
169.09122226058003
 21
573.66253412754622
  0
LINE
  8
_0-a_極細1
  6
CONTINUOUS
 62
    7
 10
168.42455566058035
 20
520.47814843733272
 11
168.42455566058035
 21
572.7991316277363
  0
LINE
  8
_0-a_極細1
  6
CONTINUOUS
 62
    7
 10
167.75788906058025
 20
519.81148183733274
 11
167.75788906058025
 21
570.20063992079167
  0
LINE
  8
_0-a_極細1
  6
CONTINUOUS
 62
    7
 10
167.09122246058016
 20
519.14481523733252
 11
167.09122246058016
 21
568.81977235492195
  0
LINE
  8
_0-a_極細1
  6
CONTINUOUS
 62
    7
 10
166.42455586058006
 20
518.61792465945177
 11
166.42455586058006
 21
567.99413197346735
  0
LINE
  8
_0-a_極細1
  6
CONTINUOUS
 62
    7
 10
165.75788926058044
 20
518.61792465945177
 11
165.75788926058044
 21
567.41004680217975
  0
LINE
  8
_0-a_極細1
  6
CONTINUOUS
 62
    7
 10
165.09122266057986
 20
518.61792465945177
 11
165.09122266057986
 21
566.98160393527735
  0
LINE
  8
_0-a_極細1
  6
CONTINUOUS
 62
    7
 10
164.42455606058024
 20
518.61792465945177
 11
164.42455606058024
 21
566.67078132308984
  0
LINE
  8
_0-a_極細1
  6
CONTINUOUS
 62
    7
 10
163.75788946058015
 20
518.61792465945177
 11
163.75788946058015
 21
566.45757830475191
  0
LINE
  8
_0-a_極細1
  6
CONTINUOUS
 62
    7
 10
163.09122286058005
 20
518.61792465945177
 11
163.09122286058005
 21
566.33087459514718
  0
LINE
  8
_0-a_極細1
  6
CONTINUOUS
 62
    7
 10
162.42455626057995
 20
518.61792465945177
 11
162.42455626057995
 21
566.28486469666291
  0
LINE
  8
_0-a_極細1
  6
CONTINUOUS
 62
    7
 10
161.75788966057985
 20
518.61792465945177
 11
161.75788966057985
 21
566.28458655945212
  0
LINE
  8
_0-a_極細1
  6
CONTINUOUS
 62
    7
 10
161.09122306057975
 20
518.61792465945177
 11
161.09122306057975
 21
566.28458655945212
  0
LINE
  8
_0-a_極細1
  6
CONTINUOUS
 62
    7
 10
160.42455646058016
 20
518.61792465945177
 11
160.42455646058016
 21
566.28458655945212
  0
LINE
  8
_0-a_極細1
  6
CONTINUOUS
 62
    7
 10
159.75788986058049
 20
518.61792465945177
 11
159.75788986058049
 21
566.28458655945212
  0
LINE
  8
_0-a_極細1
  6
CONTINUOUS
 62
    7
 10
159.09122326058039
 20
518.61792465945177
 11
159.09122326058039
 21
566.28458655945212
  0
LINE
  8
_0-a_極細1
  6
CONTINUOUS
 62
    7
 10
158.42455666058029
 20
518.61792465945177
 11
158.42455666058029
 21
566.28458655945212
  0
LINE
  8
_0-a_極細1
  6
CONTINUOUS
 62
    7
 10
157.75789006058019
 20
518.61792465945177
 11
157.75789006058019
 21
566.22561644368977
  0
LINE
  8
_0-a_極細1
  6
CONTINUOUS
 62
    7
 10
157.0912234605801
 20
518.61792465945177
 11
157.0912234605801
 21
566.03161714579903
  0
LINE
  8
_0-a_極細1
  6
CONTINUOUS
 62
    7
 10
156.42455686058
 20
518.61792465945177
 11
156.42455686058
 21
565.67540647229157
  0
LINE
  8
_0-a_極細1
  6
CONTINUOUS
 62
    7
 10
155.7578902605799
 20
518.61792465945177
 11
155.7578902605799
 21
565.08275605530025
  0
LINE
  8
_0-a_極細1
  6
CONTINUOUS
 62
    7
 10
155.0912236605798
 20
518.61792465945177
 11
155.0912236605798
 21
563.93238322842649
  0
LINE
  8
_0-a_極細1
  6
CONTINUOUS
 62
    7
 10
154.4245570605797
 20
518.61792465945177
 11
154.4245570605797
 21
525.28459065945162
  0
LINE
  8
_0-a_極細1
  6
CONTINUOUS
 62
    7
 10
153.7578904605796
 20
518.61792465945177
 11
153.7578904605796
 21
525.28459065945162
  0
LINE
  8
_0-a_極細1
  6
CONTINUOUS
 62
    7
 10
153.0912238605795
 20
518.61792465945177
 11
153.0912238605795
 21
525.28459065945162
  0
LINE
  8
_0-a_極細1
  6
CONTINUOUS
 62
    7
 10
152.42455726057983
 20
518.61792465945177
 11
152.42455726057983
 21
525.28459065945162
  0
LINE
  8
_0-a_極細1
  6
CONTINUOUS
 62
    7
 10
151.75789066057973
 20
518.61792465945177
 11
151.75789066057973
 21
525.28459065945162
  0
LINE
  8
_0-a_極細1
  6
CONTINUOUS
 62
    7
 10
151.09122406057963
 20
518.61792465945177
 11
151.09122406057963
 21
525.28459065945162
  0
LINE
  8
_0-a_極細1
  6
CONTINUOUS
 62
    7
 10
150.42455746057954
 20
518.61792465945177
 11
150.42455746057954
 21
525.28459065945162
  0
LINE
  8
_0-a_極細1
  6
CONTINUOUS
 62
    7
 10
149.75789086057986
 20
518.61792465945177
 11
149.75789086057986
 21
525.28459065945162
  0
LINE
  8
_0-a_極細1
  6
CONTINUOUS
 62
    7
 10
149.09122426057934
 20
518.61792465945177
 11
149.09122426057934
 21
525.28459065945162
  0
LINE
  8
_0-a_極細1
  6
CONTINUOUS
 62
    7
 10
148.42455766057967
 20
518.61792465945177
 11
148.42455766057967
 21
525.28459065945162
  0
LINE
  8
_0-a_極細1
  6
CONTINUOUS
 62
    7
 10
147.7578910605805
 20
511.9512586594517
 11
147.7578910605805
 21
531.9512566594517
  0
LINE
  8
_0-a_極細1
  6
CONTINUOUS
 62
    7
 10
147.09122446058089
 20
511.9512586594517
 11
147.09122446058089
 21
531.9512566594517
  0
LINE
  8
_0-a_極細1
  6
CONTINUOUS
 62
    7
 10
146.42455786058079
 20
511.9512586594517
 11
146.42455786058079
 21
514.26252944171654
  0
LINE
  8
_0-a_極細1
  6
CONTINUOUS
 62
    7
 10
146.42455786058079
 20
518.95385462585898
 11
146.42455786058079
 21
531.9512566594517
  0
LINE
  8
_0-a_極細1
  6
CONTINUOUS
 62
    7
 10
145.75789126058069
 20
511.9512586594517
 11
145.75789126058069
 21
512.44212304844746
  0
LINE
  8
_0-a_極細1
  6
CONTINUOUS
 62
    7
 10
145.75789126058069
 20
518.95385462585898
 11
145.75789126058069
 21
531.9512566594517
  0
LINE
  8
_0-a_極細1
  6
CONTINUOUS
 62
    7
 10
145.09122466058059
 20
518.95385462585898
 11
145.09122466058059
 21
531.9512566594517
  0
LINE
  8
_0-a_極細1
  6
CONTINUOUS
 62
    7
 10
144.42455806058049
 20
518.95385462585898
 11
144.42455806058049
 21
531.9512566594517
  0
LINE
  8
_0-a_極細1
  6
CONTINUOUS
 62
    7
 10
143.7578914605804
 20
518.95385462585898
 11
143.7578914605804
 21
531.9512566594517
  0
LINE
  8
_0-a_極細1
  6
CONTINUOUS
 62
    7
 10
143.0912248605803
 20
518.95385462585898
 11
143.0912248605803
 21
531.9512566594517
  0
LINE
  8
_0-a_極細1
  6
CONTINUOUS
 62
    7
 10
142.4245582605802
 20
518.95385462585898
 11
142.4245582605802
 21
531.9512566594517
  0
LINE
  8
_0-a_極細1
  6
CONTINUOUS
 62
    7
 10
141.7578916605801
 20
518.95385462585898
 11
141.7578916605801
 21
531.9512566594517
  0
LINE
  8
_0-a_極細1
  6
CONTINUOUS
 62
    7
 10
141.09122506058
 20
518.95385462585898
 11
141.09122506058
 21
531.9512566594517
  0
LINE
  8
_0-a_極細1
  6
CONTINUOUS
 62
    7
 10
140.42455846058033
 20
518.95385462585898
 11
140.42455846058033
 21
531.9512566594517
  0
LINE
  8
_0-a_極細1
  6
CONTINUOUS
 62
    7
 10
139.75789186058023
 20
518.95385462585898
 11
139.75789186058023
 21
531.9512566594517
  0
LINE
  8
_0-a_極細1
  6
CONTINUOUS
 62
    7
 10
139.09122526058013
 20
518.95385462585898
 11
139.09122526058013
 21
531.9512566594517
  0
LINE
  8
_0-a_極細1
  6
CONTINUOUS
 62
    7
 10
129.89766888269946
 20
508.95385562585921
 11
129.89766888269946
 21
518.61792465945177
  0
ARC
  8
_0-a_極細1
  6
CONTINUOUS
 62
    7
 10
119.89766988269977
 20
518.95385462585898
 40
9.999998999999999
 50
358.07490068720404
 51
50.029499419963059
  0
LINE
  8
_0-a_極細1
  6
CONTINUOUS
 62
    7
 10
171.49433138969997
 20
570.07904195703634
 11
175.68732461143077
 21
570.07904195703634
  0
LINE
  8
_0-a_極細1
  6
CONTINUOUS
 62
    7
 10
171.49433138969997
 20
570.74570855703632
 11
181.454824034681
 21
570.74570855703632
  0
LINE
  8
_0-a_極細1
  6
CONTINUOUS
 62
    7
 10
171.49433138969997
 20
571.41237515703642
 11
187.22232345793074
 21
571.41237515703642
  0
LINE
  8
_0-a_極細1
  6
CONTINUOUS
 62
    7
 10
171.49433138969997
 20
572.07904175703652
 11
192.98982288118097
 21
572.07904175703652
  0
LINE
  8
_0-a_極細1
  6
CONTINUOUS
 62
    7
 10
171.49433138969997
 20
572.74570835703639
 11
194.56432908269946
 21
572.74570835703639
  0
LINE
  8
_0-a_極細1
  6
CONTINUOUS
 62
    7
 10
171.49433138969997
 20
573.41237495703649
 11
194.56432908269946
 21
573.41237495703649
  0
LINE
  8
_0-a_極細1
  6
CONTINUOUS
 62
    7
 10
171.49433138969997
 20
574.07904155703659
 11
194.56432908269946
 21
574.07904155703659
  0
LINE
  8
_0-a_極細1
  6
CONTINUOUS
 62
    7
 10
172.55687198507829
 20
574.74570815703669
 11
194.56432908269946
 21
574.74570815703669
  0
LINE
  8
_0-a_極細1
  6
CONTINUOUS
 62
    7
 10
177.23753565957827
 20
575.41237475703645
 11
194.56432908269946
 21
575.41237475703645
  0
LINE
  8
_0-a_極細1
  6
CONTINUOUS
 62
    7
 10
181.91819933407828
 20
576.07904135703654
 11
194.56432908269946
 21
576.07904135703654
  0
LINE
  8
_0-a_極細1
  6
CONTINUOUS
 62
    7
 10
186.59886300857784
 20
576.74570795703664
 11
194.56432908269946
 21
576.74570795703664
  0
LINE
  8
_0-a_極細1
  6
CONTINUOUS
 62
    7
 10
191.27952668307785
 20
577.41237455703663
 11
194.56432908269946
 21
577.41237455703663
  0
LINE
  8
_0-a_極細1
  6
CONTINUOUS
 62
    7
 10
194.56432908269946
 20
577.92770539513981
 11
194.56432908269946
 21
580.23710854643377
  0
LINE
  8
_0-a_極細1
  6
CONTINUOUS
 62
    7
 10
171.49433138969997
 20
576.951252159452
 11
194.56432908269946
 21
580.23710854643377
  0
LINE
  8
_0-a_極細1
  6
CONTINUOUS
 62
    7
 10
149.89766688269924
 20
553.95385112585905
 11
149.89766688269924
 21
556.95125415945176
  0
LINE
  8
_0-a_極細1
  6
CONTINUOUS
 62
    7
 10
149.89766688269924
 20
533.62051982585876
 11
149.89766688269924
 21
538.6205193258586
  0
LINE
  8
_0-a_極細1
  6
CONTINUOUS
 62
    7
 10
137.39766813269966
 20
548.30495502408189
 11
137.39766813269966
 21
543.97162212408193
  0
LINE
  8
_0-a_極細1
  6
CONTINUOUS
 62
    7
 10
137.39766813269966
 20
540.63828912408189
 11
137.39766813269966
 21
538.97162262408187
  0
LINE
  8
_0-a_極細1
  6
CONTINUOUS
 62
    7
 10
149.39766693270008
 20
548.30495502408189
 11
149.39766693270008
 21
538.97162262408187
  0
LINE
  8
_0-a_極細1
  6
CONTINUOUS
 62
    7
 10
135.73100163269942
 20
549.97162152408191
 11
137.39766813269966
 21
551.63828802408182
  0
LINE
  8
_0-a_極細1
  6
CONTINUOUS
 62
    7
 10
137.39766813269966
 20
548.30495502408189
 11
135.73100163269942
 21
549.97162152408191
  0
LINE
  8
_0-a_極細1
  6
CONTINUOUS
 62
    7
 10
137.39766813269966
 20
540.63828912408189
 11
135.73100163269942
 21
542.30495562408214
  0
LINE
  8
_0-a_極細1
  6
CONTINUOUS
 62
    7
 10
135.73100163269942
 20
542.30495562408214
 11
137.39766813269966
 21
543.97162212408193
  0
LINE
  8
_0-a_極細1
  6
CONTINUOUS
 62
    7
 10
149.39766693270008
 20
548.30495502408189
 11
152.06433333269956
 21
553.3049545240815
  0
LINE
  8
_0-a_極細1
  6
CONTINUOUS
 62
    7
 10
137.39766813269966
 20
553.3049545240815
 11
137.39766813269966
 21
551.63828802408182
  0
ARC
  8
_0-a_極細1
  6
CONTINUOUS
 62
    7
 10
158.06433273270002
 20
573.61791915945196
 40
1.6666665000000003
 50
24.05454899999916
 51
89.999999999999915
  0
ARC
  8
_0-a_極細1
  6
CONTINUOUS
 62
    7
 10
159.06433263270017
 20
569.28458625945188
 40
0.6666665999999621
 50
269.99999999999977
 51
359.99999999999966
  0
ARC
  8
_0-a_極細1
  6
CONTINUOUS
 62
    7
 10
158.06433273270002
 20
573.61791915945196
 40
1.6666665000000003
 50
0
 51
24.05454899999916
  0
LINE
  8
_0-a_極細1
  6
CONTINUOUS
 62
    7
 10
152.56433328269964
 20
558.61792065945178
 11
152.56433328270055
 21
568.61791965945213
  0
LINE
  8
_0-a_極細1
  6
CONTINUOUS
 62
    7
 10
152.56433328270055
 20
568.61791965945213
 11
159.06433263270017
 21
568.61791965945213
  0
LINE
  8
_0-a_極細1
  6
CONTINUOUS
 62
    7
 10
159.73099923270027
 20
569.28458625945188
 11
159.73099923270027
 21
573.61791915945196
  0
LINE
  8
_0-a_極細1
  6
CONTINUOUS
 62
    7
 10
148.23100038269942
 20
518.61792465945177
 11
166.56433188269901
 21
518.61792465945177
  0
LINE
  8
_0-a_極細1
  6
CONTINUOUS
 62
    7
 10
145.46372065942776
 20
511.9512586594517
 11
148.23100038269942
 21
511.9512586594517
  0
LINE
  8
_0-a_極細1
  6
CONTINUOUS
 62
    7
 10
148.23100038269942
 20
527.61792375945197
 11
152.56433328269964
 21
527.61792375945197
  0
LINE
  8
_0-a_極細1
  6
CONTINUOUS
 62
    7
 10
148.23100038269942
 20
525.28459065945162
 11
154.89766638269955
 21
525.28459065945162
  0
LINE
  8
_0-a_極細1
  6
CONTINUOUS
 62
    7
 10
148.23100038269942
 20
511.9512586594517
 11
148.23100038269942
 21
531.9512566594517
  0
LINE
  8
_0-a_極細1
  6
CONTINUOUS
 62
    7
 10
171.49433138969997
 20
523.54792416645182
 11
166.56433188269901
 21
518.61792465945177
  0
LINE
  8
_0-a_極細1
  6
CONTINUOUS
 62
    7
 10
154.89766638269955
 20
525.28459065945162
 11
154.89766638269998
 21
562.78458690945172
  0
ARC
  8
_0-a_極細1
  6
CONTINUOUS
 62
    7
 10
158.39766603270007
 20
562.78458690945172
 40
3.4999996500000385
 50
89.999999999999915
 51
179.99999999999983
  0
LINE
  8
_0-a_極細1
  6
CONTINUOUS
 62
    7
 10
162.36841230229246
 20
566.28458655945212
 11
158.39766603270007
 21
566.28458655945212
  0
ARC
  8
_0-a_極細1
  6
CONTINUOUS
 62
    7
 10
162.36841230229246
 20
571.95125265945171
 40
5.6666660999999614
 50
269.99999999999977
 51
356.64911199999869
  0
ARC
  8
_0-a_極細1
  6
CONTINUOUS
 62
    7
 10
162.36841230229246
 20
571.95125265945171
 40
3.3333330000000005
 50
269.99999999999977
 51
356.64911200000182
  0
ARC
  8
_0-a_極細1
  6
CONTINUOUS
 62
    7
 10
171.49433138969997
 20
571.11791940945182
 40
5.8333327500000012
 50
89.999999999999915
 51
175.84900999999849
  0
ARC
  8
_0-a_極細1
  6
CONTINUOUS
 62
    7
 10
158.39766603270007
 20
562.78458690945172
 40
5.8333327500000012
 50
89.999999999999915
 51
179.99999999999983
  0
LINE
  8
_0-a_極細1
  6
CONTINUOUS
 62
    7
 10
159.8976658827003
 20
568.61791965945213
 11
159.8976658827003
 21
576.951252159452
  0
LINE
  8
_0-a_極細1
  6
CONTINUOUS
 62
    7
 10
152.56433328269964
 20
527.61792375945197
 11
152.56433328269964
 21
562.78458690945172
  0
LINE
  8
_0-a_極細1
  6
CONTINUOUS
 62
    7
 10
162.36841230229246
 20
568.61791965945213
 11
158.39766603270007
 21
568.61791965945213
  0
LINE
  8
_0-a_極細1
  6
CONTINUOUS
 62
    7
 10
139.06433463269991
 20
531.9512566594517
 11
152.56433328269964
 21
531.9512566594517
  0
LINE
  8
_0-a_極細1
  6
CONTINUOUS
 62
    7
 10
194.56432908269946
 20
572.26103929513999
 11
171.49433138969997
 21
569.59437289513994
  0
LINE
  8
_0-a_極細1
  6
CONTINUOUS
 62
    7
 10
171.49433138969854
 20
506.26104589513994
 11
166.56433188269901
 21
508.92771229513983
  0
LINE
  8
_0-a_極細1
  6
CONTINUOUS
 62
    7
 10
166.56433188269901
 20
508.92771229513983
 11
166.56433188269901
 21
518.61792465945177
  0
LINE
  8
_0-a_極細1
  6
CONTINUOUS
 62
    7
 10
194.56432908269946
 20
527.44518044339316
 11
194.56432908269946
 21
580.18963183561402
  0
LINE
  8
_0-a_極細1
  6
CONTINUOUS
 62
    7
 10
181.56433038269938
 20
525.59437729513979
 11
194.56432908269946
 21
525.59437729513979
  0
LINE
  8
_0-a_極細1
  6
CONTINUOUS
 62
    7
 10
194.56432908269946
 20
525.59437729513979
 11
194.56432908269946
 21
527.44518044339316
  0
LINE
  8
_0-a_極細1
  6
CONTINUOUS
 62
    7
 10
181.56433038269938
 20
498.92771329513977
 11
181.56433038269938
 21
525.59437729513979
  0
LINE
  8
_0-a_極細1
  6
CONTINUOUS
 62
    7
 10
171.49433138969997
 20
574.59437057430387
 11
194.56432908269946
 21
577.88022873322075
  0
LINE
  8
_0-a_極細1
  6
CONTINUOUS
 62
    7
 10
171.49433138969997
 20
523.54792416645182
 11
171.49433138969997
 21
574.61791905945211
  0
ARC
  8
_0-a_極細1
  6
CONTINUOUS
 62
    7
 10
171.49433138969997
 20
571.11791940945182
 40
3.4999996500000385
 50
89.999999999999915
 51
175.84900999999951
  0
LINE
  8
_0-a_極細1
  6
CONTINUOUS
 62
    7
 10
139.89766788269961
 20
508.95385562585921
 11
129.89766888269946
 21
508.95385562585921
  0
ARC
  8
_0-a_極細1
  6
CONTINUOUS
 62
    7
 10
139.89766788269961
 20
515.62052162585906
 40
6.6666660000000011
 50
269.99999999999977
 51
359.99999999999966
  0
LINE
  8
_0-a_極細1
  6
CONTINUOUS
 62
    7
 10
146.56433388269966
 20
515.62052162585906
 11
146.56433388269966
 21
518.95385462585898
  0
LINE
  8
_0-a_極細1
  6
CONTINUOUS
 62
    7
 10
146.56433388269966
 20
518.95385462585898
 11
139.06433463269991
 21
518.95385462585898
  0
LINE
  8
_0-a_極細1
  6
CONTINUOUS
 62
    7
 10
149.89766688269924
 20
533.62051982585876
 11
139.06433463269991
 21
533.62051982585876
  0
LINE
  8
_0-a_極細1
  6
CONTINUOUS
 62
    7
 10
139.06433463269991
 20
518.95385462585898
 11
139.06433463269991
 21
533.62051982585899
  0
LINE
  8
_0-a_極細1
  6
CONTINUOUS
 62
    7
 10
148.8976669827
 20
556.95125415945176
 11
148.8976669827
 21
560.28458715945169
  0
ARC
  8
_0-a_極細1
  6
CONTINUOUS
 62
    7
 10
150.89766678269939
 20
558.61792065945178
 40
1.6666665000000003
 50
269.99999999999977
 51
359.99999999999966
  0
CIRCLE
  8
_0-a_極細1
  6
CONTINUOUS
 62
    7
 10
153.31493272802319
 20
548.33838802675587
 40
62.050673138549151
  0
ARC
  8
_0-a_極細1
  6
CONTINUOUS
 62
    7
 10
189.89766288269925
 20
484.49395807184914
 40
16.666665000000002
 50
120.00000000000014
 51
161.13978923390172
  0
LINE
  8
_0-a_極細1
  6
CONTINUOUS
 62
    7
 10
164.89766538269919
 20
487.37834913899462
 11
164.89766538269919
 21
506.26104589513994
  0
LINE
  8
_0-a_極細1
  6
CONTINUOUS
 62
    7
 10
180.24510281939206
 20
498.08093000993949
 11
181.56433038269938
 21
499.40015757324727
  0
LINE
  8
_0-a_極細1
  6
CONTINUOUS
 62
    7
 10
164.89766538269919
 20
487.44753730975305
 11
181.56433038269938
 21
504.11420230975295
  0
LINE
  8
_0-a_極細1
  6
CONTINUOUS
 62
    7
 10
164.89766538269919
 20
489.80455967800594
 11
181.56433038269938
 21
506.47122467800591
  0
LINE
  8
_0-a_極細1
  6
CONTINUOUS
 62
    7
 10
164.89766538269919
 20
492.1615820462589
 11
181.56433038269938
 21
508.82824704625887
  0
LINE
  8
_0-a_極細1
  6
CONTINUOUS
 62
    7
 10
164.89766538269919
 20
494.51860441451186
 11
181.56433038269938
 21
511.18526941451171
  0
LINE
  8
_0-a_極細1
  6
CONTINUOUS
 62
    7
 10
164.89766538269919
 20
496.8756267827647
 11
181.56433038269938
 21
513.54229178276455
  0
LINE
  8
_0-a_極細1
  6
CONTINUOUS
 62
    7
 10
193.61641589507443
 20
525.59437729513979
 11
194.56432908269946
 21
526.54229048276466
  0
LINE
  8
_0-a_極細1
  6
CONTINUOUS
 62
    7
 10
164.89766538269919
 20
499.23264915101731
 11
181.56433038269938
 21
515.89931415101751
  0
LINE
  8
_0-a_極細1
  6
CONTINUOUS
 62
    7
 10
191.25939352682167
 20
525.59437729513979
 11
194.56432908269994
 21
528.89931285101773
  0
LINE
  8
_0-a_極細1
  6
CONTINUOUS
 62
    7
 10
164.89766538269919
 20
501.58967151927044
 11
169.56903975856881
 21
506.26104589513994
  0
LINE
  8
_0-a_極細1
  6
CONTINUOUS
 62
    7
 10
170.24487710165999
 20
506.93688323823073
 11
181.56433038269938
 21
518.25633651927069
  0
LINE
  8
_0-a_極細1
  6
CONTINUOUS
 62
    7
 10
188.90237115856891
 20
525.59437729514002
 11
194.56432908269946
 21
531.25633521927057
  0
LINE
  8
_0-a_極細1
  6
CONTINUOUS
 62
    7
 10
164.89766538269919
 20
503.94669388752311
 11
167.21201739031656
 21
506.26104589514028
  0
LINE
  8
_0-a_極細1
  6
CONTINUOUS
 62
    7
 10
168.71524301537397
 20
507.76427152019755
 11
181.56433038269938
 21
520.6133588875233
  0
LINE
  8
_0-a_極細1
  6
CONTINUOUS
 62
    7
 10
186.54534879031621
 20
525.59437729513979
 11
194.56432908269946
 21
533.61335758752352
  0
LINE
  8
_0-a_極細1
  6
CONTINUOUS
 62
    7
 10
167.18560892908798
 20
508.59165980216437
 11
181.56433038269938
 21
522.97038125577637
  0
LINE
  8
_0-a_極細1
  6
CONTINUOUS
 62
    7
 10
184.18832642206303
 20
525.59437729513979
 11
194.56432908269946
 21
535.97037995577625
  0
LINE
  8
_0-a_極細1
  6
CONTINUOUS
 62
    7
 10
166.56433188269943
 20
510.3274051240291
 11
181.56433038269938
 21
525.32740362402922
  0
LINE
  8
_0-a_極細1
  6
CONTINUOUS
 62
    7
 10
181.83130405381036
 20
525.59437729513979
 11
194.56432908269946
 21
538.32740232402921
  0
LINE
  8
_0-a_極細1
  6
CONTINUOUS
 62
    7
 10
166.56433188269943
 20
512.68442749228188
 11
194.56432908269946
 21
540.68442469228216
  0
LINE
  8
_0-a_極細1
  6
CONTINUOUS
 62
    7
 10
166.56433188269943
 20
515.04144986053461
 11
194.56432908269994
 21
543.04144706053512
  0
LINE
  8
_0-a_極細1
  6
CONTINUOUS
 62
    7
 10
166.56433188269943
 20
517.39847222878757
 11
194.56432908269994
 21
545.39846942878808
  0
LINE
  8
_0-a_極細1
  6
CONTINUOUS
 62
    7
 10
171.49433138969997
 20
524.68549410404114
 11
194.56432908269946
 21
547.75549179704092
  0
LINE
  8
_0-a_極細1
  6
CONTINUOUS
 62
    7
 10
171.49433138969997
 20
527.04251647229387
 11
194.56432908269946
 21
550.11251416529365
  0
LINE
  8
_0-a_極細1
  6
CONTINUOUS
 62
    7
 10
171.49433138969997
 20
529.39953884054694
 11
194.56432908269946
 21
552.46953653354672
  0
LINE
  8
_0-a_極細1
  6
CONTINUOUS
 62
    7
 10
171.49433138969997
 20
531.75656120879989
 11
194.56432908269946
 21
554.82655890179944
  0
LINE
  8
_0-a_極細1
  6
CONTINUOUS
 62
    7
 10
171.49433138969997
 20
534.11358357705274
 11
194.56432908269994
 21
557.1835812700524
  0
LINE
  8
_0-a_極細1
  6
CONTINUOUS
 62
    7
 10
171.49433138969997
 20
536.47060594530558
 11
194.56432908269994
 21
559.54060363830536
  0
LINE
  8
_0-a_極細1
  6
CONTINUOUS
 62
    7
 10
171.49433138969997
 20
538.82762831355853
 11
194.56432908269994
 21
561.89762600655831
  0
LINE
  8
_0-a_極細1
  6
CONTINUOUS
 62
    7
 10
171.49433138969997
 20
541.18465068181149
 11
194.56432908269946
 21
564.25464837481127
  0
LINE
  8
_0-a_極細1
  6
CONTINUOUS
 62
    7
 10
171.49433138969997
 20
543.54167305006433
 11
194.56432908269946
 21
566.611670743064
  0
LINE
  8
_0-a_極細1
  6
CONTINUOUS
 62
    7
 10
171.49433138969997
 20
545.89869541831717
 11
194.56432908269946
 21
568.96869311131695
  0
LINE
  8
_0-a_極細1
  6
CONTINUOUS
 62
    7
 10
171.49433138969997
 20
548.25571778657013
 11
194.56432908269994
 21
571.32571547956991
  0
LINE
  8
_0-a_極細1
  6
CONTINUOUS
 62
    7
 10
171.49433138969997
 20
550.61274015482275
 11
192.95681794348752
 21
572.07522670861067
  0
LINE
  8
_0-a_極細1
  6
CONTINUOUS
 62
    7
 10
171.49433138969997
 20
552.96976252307581
 11
190.291738412255
 21
571.7671695456304
  0
LINE
  8
_0-a_極細1
  6
CONTINUOUS
 62
    7
 10
171.49433138969997
 20
555.32678489132866
 11
187.62665888102106
 21
571.45911238265012
  0
LINE
  8
_0-a_極細1
  6
CONTINUOUS
 62
    7
 10
171.49433138969997
 20
557.68380725958173
 11
184.96157934978854
 21
571.15105521966973
  0
LINE
  8
_0-a_極細1
  6
CONTINUOUS
 62
    7
 10
171.49433138969997
 20
560.04082962783468
 11
182.29649981855459
 21
570.84299805668934
  0
LINE
  8
_0-a_極細1
  6
CONTINUOUS
 62
    7
 10
171.49433138969997
 20
562.39785199608718
 11
179.63142028732165
 21
570.53494089370906
  0
LINE
  8
_0-a_極細1
  6
CONTINUOUS
 62
    7
 10
171.49433138969997
 20
564.75487436434014
 11
176.96634075608856
 21
570.22688373072879
  0
LINE
  8
_0-a_極細1
  6
CONTINUOUS
 62
    7
 10
171.49433138969997
 20
567.11189673259332
 11
174.30126122485561
 21
569.9188265677484
  0
LINE
  8
_0-a_極細1
  6
CONTINUOUS
 62
    7
 10
171.49433138969997
 20
569.46891910084605
 11
171.63618169362209
 21
569.61076940476823
  0
LINE
  8
_0-a_極細1
  6
CONTINUOUS
 62
    7
 10
167.81216129794734
 20
488.00501085674807
 11
181.56433038269938
 21
501.75717994150011
  0
LINE
  8
_0-a_極細1
  6
CONTINUOUS
 62
    7
 10
171.03626405409136
 20
488.87209124463936
 11
176.31069094460898
 21
494.14651813515638
  0
LINE
  8
_0-a_極細1
  6
CONTINUOUS
 62
    7
 10
107.71029134048447
 20
506.26104589513994
 11
171.49433138969854
 21
506.26104589513994
  0
LINE
  8
_0-a_極細1
  6
CONTINUOUS
 62
    7
 10
105.38702149328969
 20
508.92771229513983
 11
166.56433188269901
 21
508.92771229513983
  0
LINE
  8
_0-a_極細1
  6
CONTINUOUS
 62
    7
 10
98.844940124941161
 20
518.61792465945177
 11
129.89766888269946
 21
518.61792465945177
  0
LINE
  8
_0-a_極細1
  6
CONTINUOUS
 62
    7
 10
100.09127571204431
 20
580.23710854643377
 11
194.56432908269946
 21
580.23710854643377
  0
LINE
  8
_0-a_極細1
  6
CONTINUOUS
 62
    7
 10
98.255055838668142
 20
576.95125215945222
 11
171.49433138969997
 21
576.951252159452
  0
LINE
  8
_0-a_極細1
  6
CONTINUOUS
 62
    7
 10
97.42049230603854
 20
575.28458565945198
 11
158.06433273270002
 21
575.28458565945175
  0
LINE
  8
_0-a_極細1
  6
CONTINUOUS
 62
    7
 10
92.42507837420618
 20
560.28458715945203
 11
148.8976669827
 21
560.28458715945169
  0
LINE
  8
_0-a_極細1
  6
CONTINUOUS
 62
    7
 10
91.864915853108187
 20
556.95125415945188
 11
150.89766678269939
 21
556.95125415945176
  0
LINE
  8
_0-a_極細1
  6
CONTINUOUS
 62
    7
 10
149.89766688269924
 20
553.95385112585905
 11
91.518876129485562
 21
553.95385112585905
  0
LINE
  8
_0-a_極細1
  6
CONTINUOUS
 62
    7
 10
91.463342173093025
 20
553.30495452408195
 11
152.06433333269956
 21
553.3049545240815
  0
LINE
  8
_0-a_極細1
  6
CONTINUOUS
 62
    7
 10
91.285757453074723
 20
549.97162152408214
 11
135.73100163269942
 21
549.97162152408191
  0
LINE
  8
_0-a_極細1
  6
CONTINUOUS
 62
    7
 10
91.558283447241848
 20
542.30495562408214
 11
135.73100163269942
 21
542.30495562408214
  0
LINE
  8
_0-a_極細1
  6
CONTINUOUS
 62
    7
 10
91.975306524089149
 20
538.97162262408187
 11
149.39766693270008
 21
538.97162262408187
  0
LINE
  8
_0-a_極細1
  6
CONTINUOUS
 62
    7
 10
149.89766688269924
 20
538.6205193258586
 11
92.029950351757464
 21
538.6205193258586
  0
LINE
  8
_0-a_極細1
  6
CONTINUOUS
 62
    7
 10
139.06433463269991
 20
533.62051982585899
 11
93.034999146705388
 21
533.62051982585899
  0
LINE
  8
_0-a_極細1
  6
CONTINUOUS
 62
    7
 10
120.42456046058057
 20
512.95125855945207
 11
120.42456046058057
 21
518.61792465945177
  0
LINE
  8
_0-a_極細1
  6
CONTINUOUS
 62
    7
 10
119.75789386058047
 20
512.95125855945207
 11
119.75789386058047
 21
518.61792465945177
  0
LINE
  8
_0-a_極細1
  6
CONTINUOUS
 62
    7
 10
119.09122726058037
 20
512.95125855945207
 11
119.09122726058037
 21
518.61792465945177
  0
LINE
  8
_0-a_極細1
  6
CONTINUOUS
 62
    7
 10
118.42456066058027
 20
512.95125855945207
 11
118.42456066058027
 21
518.61792465945177
  0
LINE
  8
_0-a_極細1
  6
CONTINUOUS
 62
    7
 10
117.75789406058017
 20
512.95125855945207
 11
117.75789406058017
 21
518.61792465945177
  0
LINE
  8
_0-a_極細1
  6
CONTINUOUS
 62
    7
 10
117.09122746058007
 20
512.95125855945207
 11
117.09122746058007
 21
518.61792465945177
  0
LINE
  8
_0-a_極細1
  6
CONTINUOUS
 62
    7
 10
116.4245608605804
 20
512.95125855945207
 11
116.4245608605804
 21
518.61792465945177
  0
LINE
  8
_0-a_極細1
  6
CONTINUOUS
 62
    7
 10
115.7578942605803
 20
512.95125855945207
 11
115.7578942605803
 21
518.61792465945177
  0
LINE
  8
_0-a_極細1
  6
CONTINUOUS
 62
    7
 10
115.0912276605802
 20
512.95125855945207
 11
115.0912276605802
 21
518.61792465945177
  0
LINE
  8
_0-a_極細1
  6
CONTINUOUS
 62
    7
 10
114.4245610605801
 20
512.95125855945207
 11
114.4245610605801
 21
518.61792465945177
  0
LINE
  8
_0-a_極細1
  6
CONTINUOUS
 62
    7
 10
113.7578944605805
 20
512.95125855945207
 11
113.7578944605805
 21
518.61792465945177
  0
LINE
  8
_0-a_極細1
  6
CONTINUOUS
 62
    7
 10
113.09122786057991
 20
512.95125855945207
 11
113.09122786057991
 21
518.61792465945177
  0
LINE
  8
_0-a_極細1
  6
CONTINUOUS
 62
    7
 10
112.4245612605803
 20
512.95125855945207
 11
112.4245612605803
 21
518.61792465945177
  0
LINE
  8
_0-a_極細1
  6
CONTINUOUS
 62
    7
 10
111.75789466058021
 20
512.95125855945207
 11
111.75789466058021
 21
518.61792465945177
  0
LINE
  8
_0-a_極細1
  6
CONTINUOUS
 62
    7
 10
111.09122806058011
 20
512.95125855945207
 11
111.09122806058011
 21
518.61792465945177
  0
LINE
  8
_0-a_極細1
  6
CONTINUOUS
 62
    7
 10
110.42456146058001
 20
512.95125855945207
 11
110.42456146058001
 21
518.61792465945177
  0
LINE
  8
_0-a_極細1
  6
CONTINUOUS
 62
    7
 10
109.75789486057991
 20
512.95125855945207
 11
109.75789486057991
 21
518.61792465945177
  0
LINE
  8
_0-a_極細1
  6
CONTINUOUS
 62
    7
 10
109.09122826057981
 20
512.95125855945207
 11
109.09122826057981
 21
518.61792465945177
  0
LINE
  8
_0-a_極細1
  6
CONTINUOUS
 62
    7
 10
108.42456166058014
 20
512.95125855945207
 11
108.42456166058014
 21
518.61792465945177
  0
LINE
  8
_0-a_極細1
  6
CONTINUOUS
 62
    7
 10
107.75789506058004
 20
512.95125855945207
 11
107.75789506058004
 21
518.61792465945177
  0
LINE
  8
_0-a_極細1
  6
CONTINUOUS
 62
    7
 10
107.09122846057994
 20
512.95125855945207
 11
107.09122846057994
 21
518.61792465945177
  0
LINE
  8
_0-a_極細1
  6
CONTINUOUS
 62
    7
 10
106.42456186057984
 20
512.95125855945207
 11
106.42456186057984
 21
518.61792465945177
  0
LINE
  8
_0-a_極細1
  6
CONTINUOUS
 62
    7
 10
105.75789526057974
 20
512.95125855945207
 11
105.75789526057974
 21
518.61792465945177
  0
LINE
  8
_0-a_極細1
  6
CONTINUOUS
 62
    7
 10
105.09122866057965
 20
512.95125855945207
 11
105.09122866057965
 21
518.61792465945177
  0
LINE
  8
_0-a_極細1
  6
CONTINUOUS
 62
    7
 10
104.42456206057997
 20
512.95125855945207
 11
104.42456206057997
 21
518.61792465945177
  0
LINE
  8
_0-a_極細1
  6
CONTINUOUS
 62
    7
 10
120.85204645392857
 20
512.95125855945207
 11
120.85204645392857
 21
518.61792465945177
  0
LINE
  8
_0-a_極細1
  6
CONTINUOUS
 62
    7
 10
104.18538145392837
 20
512.95125855945207
 11
104.18538145392837
 21
518.61792465945177
  0
LINE
  8
_0-a_極細1
  6
CONTINUOUS
 62
    7
 10
104.18538145392837
 20
512.95125855945207
 11
120.85204645392857
 21
512.95125855945207
  0
ARC
  8
_0-a_極細1
  6
CONTINUOUS
 62
    7
 10
114.89767038269953
 20
510.20134216777706
 40
19.999997999999998
 50
55.166292356154557
 51
148.68484545273043
  0
LINE
  8
_0-a_極細1
  6
CONTINUOUS
 62
    7
 10
129.85445659570885
 20
518.61792465945177
 11
129.85445659570885
 21
519.88249791132989
  0
LINE
  8
_0-a_極細1
  6
CONTINUOUS
 62
    7
 10
128.85445659570883
 20
518.61792465945177
 11
128.85445659570883
 21
523.40087067908701
  0
LINE
  8
_0-a_極細1
  6
CONTINUOUS
 62
    7
 10
127.85445659570883
 20
518.61792465945177
 11
127.85445659570883
 21
525.01104252154823
  0
LINE
  8
_0-a_極細1
  6
CONTINUOUS
 62
    7
 10
126.85445659570881
 20
518.61792465945177
 11
126.85445659570881
 21
526.13738430351077
  0
LINE
  8
_0-a_極細1
  6
CONTINUOUS
 62
    7
 10
125.8544565957088
 20
518.61792465945177
 11
125.8544565957088
 21
526.93301141750862
  0
LINE
  8
_0-a_極細1
  6
CONTINUOUS
 62
    7
 10
124.85445659570885
 20
518.61792465945177
 11
124.85445659570885
 21
527.54672565470037
  0
LINE
  8
_0-a_極細1
  6
CONTINUOUS
 62
    7
 10
123.85445659570884
 20
518.61792465945177
 11
123.85445659570884
 21
528.08362112585314
  0
LINE
  8
_0-a_極細1
  6
CONTINUOUS
 62
    7
 10
122.85445659570883
 20
518.61792465945177
 11
122.85445659570883
 21
528.55044223182585
  0
LINE
  8
_0-a_極細1
  6
CONTINUOUS
 62
    7
 10
121.85445659570881
 20
518.61792465945177
 11
121.85445659570881
 21
528.95242335224452
  0
LINE
  8
_0-a_極細1
  6
CONTINUOUS
 62
    7
 10
120.8544565957088
 20
518.61792465945177
 11
120.8544565957088
 21
529.29366046631037
  0
LINE
  8
_0-a_極細1
  6
CONTINUOUS
 62
    7
 10
119.85445659570885
 20
518.61792465945177
 11
119.85445659570885
 21
529.5773631844495
  0
LINE
  8
_0-a_極細1
  6
CONTINUOUS
 62
    7
 10
118.85445659570884
 20
518.61792465945177
 11
118.85445659570884
 21
529.80602943548297
  0
LINE
  8
_0-a_極細1
  6
CONTINUOUS
 62
    7
 10
117.85445659570883
 20
518.61792465945177
 11
117.85445659570883
 21
529.98156803328629
  0
LINE
  8
_0-a_極細1
  6
CONTINUOUS
 62
    7
 10
116.85445659570881
 20
518.61792465945177
 11
116.85445659570881
 21
530.1053846646314
  0
LINE
  8
_0-a_極細1
  6
CONTINUOUS
 62
    7
 10
115.8544565957088
 20
518.61792465945177
 11
115.8544565957088
 21
530.1784410598234
  0
LINE
  8
_0-a_極細1
  6
CONTINUOUS
 62
    7
 10
114.85445659570885
 20
518.61792465945177
 11
114.85445659570885
 21
530.20129348193313
  0
LINE
  8
_0-a_極細1
  6
CONTINUOUS
 62
    7
 10
113.85445659570884
 20
518.61792465945177
 11
113.85445659570884
 21
530.17411425866703
  0
LINE
  8
_0-a_極細1
  6
CONTINUOUS
 62
    7
 10
112.8544565957084
 20
518.61792465945177
 11
112.8544565957084
 21
530.09669834505257
  0
LINE
  8
_0-a_極細1
  6
CONTINUOUS
 62
    7
 10
111.85445659570838
 20
518.61792465945177
 11
111.85445659570838
 21
529.96845550904857
  0
LINE
  8
_0-a_極細1
  6
CONTINUOUS
 62
    7
 10
110.85445659570837
 20
518.61792465945177
 11
110.85445659570837
 21
529.78838743429674
  0
LINE
  8
_0-a_極細1
  6
CONTINUOUS
 62
    7
 10
109.85445659570836
 20
518.61792465945177
 11
109.85445659570836
 21
529.5550476191554
  0
LINE
  8
_0-a_極細1
  6
CONTINUOUS
 62
    7
 10
108.85445659570834
 20
518.61792465945177
 11
108.85445659570834
 21
529.26648017212221
  0
LINE
  8
_0-a_極細1
  6
CONTINUOUS
 62
    7
 10
107.8544565957084
 20
518.61792465945177
 11
107.8544565957084
 21
528.92013111233075
  0
LINE
  8
_0-a_極細1
  6
CONTINUOUS
 62
    7
 10
106.85445659570838
 20
518.61792465945177
 11
106.85445659570838
 21
528.51272201684264
  0
LINE
  8
_0-a_極細1
  6
CONTINUOUS
 62
    7
 10
105.85445659570837
 20
518.61792465945177
 11
105.85445659570837
 21
528.040069824277
  0
LINE
  8
_0-a_極細1
  6
CONTINUOUS
 62
    7
 10
104.85445659570836
 20
518.61792465945177
 11
104.85445659570836
 21
527.49682645786834
  0
LINE
  8
_0-a_極細1
  6
CONTINUOUS
 62
    7
 10
103.85445659570834
 20
518.61792465945177
 11
103.85445659570834
 21
526.87609401764917
  0
LINE
  8
_0-a_極細1
  6
CONTINUOUS
 62
    7
 10
102.8544565957084
 20
518.61792465945177
 11
102.8544565957084
 21
526.16883795393073
  0
LINE
  8
_0-a_極細1
  6
CONTINUOUS
 62
    7
 10
101.85445659570831
 20
518.61792465945177
 11
101.85445659570831
 21
525.36295468448679
  0
LINE
  8
_0-a_極細1
  6
CONTINUOUS
 62
    7
 10
100.85445659570837
 20
518.61792465945177
 11
100.85445659570837
 21
524.44170966770025
  0
LINE
  8
_0-a_極細1
  6
CONTINUOUS
 62
    7
 10
99.854456595708427
 20
518.61792465945177
 11
99.854456595708427
 21
523.38093392772498
  0
LINE
  8
_0-a_極細1
  6
CONTINUOUS
 62
    7
 10
98.854456595708342
 20
518.61792465945177
 11
98.854456595708342
 21
522.14350325297869
  0
LINE
  8
_0-a_極細1
  6
CONTINUOUS
 62
    7
 10
97.854456595708399
 20
520.50995608882545
 11
97.854456595708399
 21
520.66694218931991
  0
LINE
  8
_0-d_寸法1
  6
CONTINUOUS
 62
    7
 10
187.91965035159342
 20
573.93110970000225
 11
192.00156591351615
 21
583.0600726939756
  0
LINE
  8
_0-d_寸法1
  6
CONTINUOUS
 62
    7
 10
187.91965035159342
 20
573.93110970000225
 11
196.01917442130812
 21
579.79606578202981
  0
LINE
  8
_0-d_寸法1
  6
CONTINUOUS
 62
    7
 10
187.91965035159342
 20
573.93110970000225
 11
208.37758811389975
 21
599.11242426919307
  0
LINE
  8
_0-d_寸法1
  6
CONTINUOUS
 62
    7
 10
208.37758811389975
 20
599.11242426919307
 11
256.37758811389972
 21
599.11242426919307
  0
TEXT
  8
_0-d_寸法1
 62
    7
 10
208.37758811389975
 20
599.11242426919307
 40
15
 41
0.8000000000000001
 50
0
  1
パッキン
  0
LINE
  8
_0-d_寸法1
  6
CONTINUOUS
 62
    7
 10
144.88276804427343
 20
543.48488467727725
 11
151.95380047074445
 21
536.41378148019442
  0
LINE
  8
_0-d_寸法1
  6
CONTINUOUS
 62
    7
 10
144.88276804427343
 20
543.48488467727725
 11
147.47091015803946
 21
533.8256134625866
  0
LINE
  8
_0-d_寸法1
  6
CONTINUOUS
 62
    7
 10
144.88276804427343
 20
543.48488467727725
 11
182.28808320520628
 21
478.69622959853444
  0
LINE
  8
_0-d_寸法1
  6
CONTINUOUS
 62
    7
 10
182.28808320520628
 20
478.69622959853444
 11
302.28808320520625
 21
478.69622959853444
  0
TEXT
  8
_0-d_寸法1
 62
    7
 10
182.28808320520628
 20
478.69622959853444
 40
15
 41
0.8000000000000001
 50
0
  1
防臭インナーパッキン
  0
LINE
  8
_0-d_寸法1
  6
CONTINUOUS
 62
    7
 10
187.23265299544366
 20
530.34517244538483
 11
194.3040488875468
 21
523.27443272897972
  0
LINE
  8
_0-d_寸法1
  6
CONTINUOUS
 62
    7
 10
187.23265299544366
 20
530.34517244538483
 11
189.82129162001945
 21
520.68603428137885
  0
LINE
  8
_0-d_寸法1
  6
CONTINUOUS
 62
    7
 10
187.23265299544366
 20
530.34517244538483
 11
205.90571601406126
 21
498.00594390377864
  0
LINE
  8
_0-d_寸法1
  6
CONTINUOUS
 62
    7
 10
205.90571601406126
 20
498.00594390377864
 11
289.90571601406123
 21
498.00594390377864
  0
TEXT
  8
_0-d_寸法1
 62
    7
 10
205.90571601406126
 20
498.00594390377864
 40
15
 41
0.8000000000000001
 50
0
  1
ロックフランジ
  0
TEXT
  8
_0-7_枠細線
 62
    5
 10
101.65748000127522
 20
440.99263483564698
 40
25
 41
0.8
 50
0
  1
Ｃ部拡大図
  0
LINE
  8
_0-1_計細線
  6
CONTINUOUS
 62
    3
 10
421.15300905952546
 20
769.95777548437559
 11
421.15300905952546
 21
630.95777548437559
  0
LINE
  8
_0-1_計細線
  6
CONTINUOUS
 62
    3
 10
421.15300905952546
 20
630.95777548437559
 11
1010.1530090595254
 21
630.95777548437559
  0
LINE
  8
_0-1_計細線
  6
CONTINUOUS
 62
    3
 10
1010.1530090595254
 20
630.95777548437559
 11
1010.1530090595254
 21
769.95777548437559
  0
LINE
  8
_0-1_計細線
  6
CONTINUOUS
 62
    3
 10
1010.1530090595254
 20
769.95777548437559
 11
421.15300905952546
 21
769.95777548437559
  0
LINE
  8
_0-1_計細線
  6
CONTINUOUS
 62
    3
 10
418.65300905952546
 20
628.45777548437559
 11
418.65300905952546
 21
772.45777548437559
  0
LINE
  8
_0-1_計細線
  6
CONTINUOUS
 62
    3
 10
418.65300905952546
 20
772.45777548437559
 11
1012.6530090595254
 21
772.45777548437559
  0
LINE
  8
_0-1_計細線
  6
CONTINUOUS
 62
    3
 10
1012.6530090595254
 20
772.45777548437559
 11
1012.6530090595254
 21
628.45777548437559
  0
LINE
  8
_0-1_計細線
  6
CONTINUOUS
 62
    3
 10
1012.6530090595254
 20
628.45777548437559
 11
418.65300905952546
 21
628.45777548437559
  0
ARC
  8
_0-1_計細線
  6
CONTINUOUS
 62
    3
 10
754.269854733275
 20
714.66401546689656
 40
0.501740082747087
 50
330.00000000003996
 51
20.189990999990084
  0
ARC
  8
_0-1_計細線
  6
CONTINUOUS
 62
    3
 10
754.269854733275
 20
686.26440569088732
 40
0.501740082747087
 50
339.81000900000919
 51
29.999999999959307
  0
LINE
  8
_0-1_計細線
  6
CONTINUOUS
 62
    3
 10
716.95866120707365
 20
702.722049982611
 11
715.65509311165829
 21
704.97988938633011
  0
LINE
  8
_0-1_計細線
  6
CONTINUOUS
 62
    3
 10
716.95866120707365
 20
702.722049982611
 11
696.81876985132692
 21
737.60536170391777
  0
LINE
  8
_0-1_計細線
  6
CONTINUOUS
 62
    3
 10
716.95866120707365
 20
702.722049982611
 11
719.56579137700032
 21
702.722049982611
  0
LINE
  8
_0-1_計細線
  6
CONTINUOUS
 62
    3
 10
713.04796896263747
 20
700.46421057889108
 11
692.9080776068871
 21
735.3475223001999
  0
ARC
  8
_0-1_計細線
  6
CONTINUOUS
 62
    3
 10
684.05032074808264
 20
674.12275086883096
 40
0.501740082747087
 50
219.81000899998574
 51
269.99999999999977
  0
LINE
  8
_0-1_計細線
  6
CONTINUOUS
 62
    3
 10
716.95866120707365
 20
698.20637117517197
 11
696.81876985132692
 21
663.32305945386474
  0
LINE
  8
_0-1_計細線
  6
CONTINUOUS
 62
    3
 10
713.04796896263747
 20
700.46421057889108
 11
692.9080776068871
 21
665.58089885758386
  0
ARC
  8
_0-1_計細線
  6
CONTINUOUS
 62
    3
 10
715.65509311165829
 20
700.46421057889108
 40
46.4111412917104
 50
89.999999999999915
 51
269.99999999999977
  0
ARC
  8
_0-1_計細線
  6
CONTINUOUS
 62
    3
 10
715.65509311165829
 20
700.46421057889108
 40
57.198598227560836
 50
89.999999999999915
 51
269.99999999999977
  0
CIRCLE
  8
_0-1_計細線
  6
CONTINUOUS
 62
    3
 10
715.65509311165829
 20
700.46421057889108
 40
58.202084413960065
  0
LINE
  8
_0-1_計細線
  6
CONTINUOUS
 62
    3
 10
716.95866120707365
 20
702.722049982611
 11
757.2384378976642
 21
702.722049982611
  0
LINE
  8
_0-1_計細線
  6
CONTINUOUS
 62
    3
 10
716.95866120707365
 20
698.20637117517197
 11
757.2384378976642
 21
698.20637117517197
  0
ARC
  8
_0-1_計細線
  6
CONTINUOUS
 62
    3
 10
715.65509311165829
 20
700.46421057889108
 40
46.4111412917104
 50
269.99999999999977
 51
89.999999999999545
  0
ARC
  8
_0-1_計細線
  6
CONTINUOUS
 62
    3
 10
715.65509311165829
 20
700.46421057889108
 40
57.198598227560836
 50
269.99999999999977
 51
89.999999999999545
  0
ARC
  8
_0-1_計細線
  6
CONTINUOUS
 62
    3
 10
715.65509311165829
 20
700.46421057889108
 40
41.644595453350377
 50
89.999999999999915
 51
116.89207624474167
  0
ARC
  8
_0-1_計細線
  6
CONTINUOUS
 62
    3
 10
715.65509311165829
 20
700.46421057889108
 40
41.644595453350377
 50
123.10791868694014
 51
236.89208131305782
  0
ARC
  8
_0-1_計細線
  6
CONTINUOUS
 62
    3
 10
715.65509311165829
 20
700.46421057889108
 40
41.644595453350377
 50
243.10792375525659
 51
269.99999999999977
  0
ARC
  8
_0-1_計細線
  6
CONTINUOUS
 62
    3
 10
715.65509311165829
 20
700.46421057889108
 40
41.644595453350377
 50
269.99999999999977
 51
356.8920785890931
  0
ARC
  8
_0-1_計細線
  6
CONTINUOUS
 62
    3
 10
715.65509311165829
 20
700.46421057889108
 40
41.644595453350377
 50
3.1079214109077964
 51
89.999999999999915
  0
ARC
  8
_0-0_計極細
  6
CONTINUOUS
 62
    2
 10
715.65509311165829
 20
700.46421057889108
 40
50.153133796808191
 50
269.99999999999977
 51
89.999999999999545
  0
ARC
  8
_0-0_計極細
  6
CONTINUOUS
 62
    2
 10
715.65509311165829
 20
700.46421057889108
 40
50.153133796808191
 50
89.999999999999915
 51
269.99999999999977
  0
ARC
  8
_0-0_計極細
  6
CONTINUOUS
 62
    2
 10
702.04009206715114
 20
671.36316834929971
 40
0.501740082747087
 50
149.99997568607938
 51
210.00002243784951
  0
ARC
  8
_0-0_計極細
  6
CONTINUOUS
 62
    2
 10
715.94477691760699
 20
694.44330550230484
 40
1.0034861863992508
 50
29.999999999951111
 51
149.99999999997101
  0
ARC
  8
_0-0_計極細
  6
CONTINUOUS
 62
    2
 10
715.94477691760699
 20
694.44330550230484
 40
1.0034861863992508
 50
29.999999999951111
 51
106.77865499997519
  0
ARC
  8
_0-0_計極細
  6
CONTINUOUS
 62
    2
 10
710.29599990018619
 20
697.70463109242451
 40
1.0034861863992508
 50
329.99999999995163
 51
89.999999999999545
  0
ARC
  8
_0-0_計極細
  6
CONTINUOUS
 62
    2
 10
675.15987681162028
 20
707.74297137798408
 40
0.501740082747087
 50
89.993779916795503
 51
169.8086801233749
  0
ARC
  8
_0-0_計極細
  6
CONTINUOUS
 62
    2
 10
675.15831110618751
 20
693.19244804522964
 40
0.501740082747087
 50
190.17882981053808
 51
269.99383436904543
  0
ARC
  8
_0-0_計極細
  6
CONTINUOUS
 62
    2
 10
675.10657881558132
 20
703.22729697552518
 40
1.0034861863992508
 50
176.10042624738318
 51
269.99385985774035
  0
ARC
  8
_0-0_計極細
  6
CONTINUOUS
 62
    2
 10
715.65509311165829
 20
700.46421057889108
 40
37.630656728658437
 50
317.45760300000074
 51
327.38710799999916
  0
ARC
  8
_0-0_計極細
  6
CONTINUOUS
 62
    2
 10
715.65509311165829
 20
700.46421057889108
 40
37.630656728658437
 50
32.612892000001082
 51
42.54239699999939
  0
LINE
  8
_0-0_計極細
  6
CONTINUOUS
 62
    2
 10
750.82931088264581
 20
681.18527252366562
 11
741.87122166164522
 21
696.70114490602714
  0
LINE
  8
_0-0_計極細
  6
CONTINUOUS
 62
    2
 10
749.42248426516687
 20
676.59757767060478
 11
737.09148402026153
 21
697.95549812334525
  0
LINE
  8
_0-0_計極細
  6
CONTINUOUS
 62
    2
 10
744.80054852493527
 20
672.56119301178728
 11
730.86334541184658
 21
696.70114490602714
  0
LINE
  8
_0-0_計極細
  6
CONTINUOUS
 62
    2
 10
750.82931088264581
 20
719.7431486341178
 11
741.87122166164522
 21
704.22727625175708
  0
LINE
  8
_0-0_計極細
  6
CONTINUOUS
 62
    2
 10
749.42248426516687
 20
724.33084348717807
 11
737.09148402026153
 21
702.97292303443714
  0
LINE
  8
_0-0_計極細
  6
CONTINUOUS
 62
    2
 10
744.80054852493527
 20
728.36722212509153
 11
730.86334541184658
 21
704.22727625175708
  0
LINE
  8
_0-0_計極細
  6
CONTINUOUS
 62
    2
 10
713.64812675976498
 20
673.44457418371962
 11
713.64812675976498
 21
681.36198608766358
  0
LINE
  8
_0-0_計極細
  6
CONTINUOUS
 62
    2
 10
714.14986684251221
 20
673.41198302453972
 11
714.14986684251221
 21
680.49294671162465
  0
ARC
  8
_0-0_計極細
  6
CONTINUOUS
 62
    2
 10
715.65509311165829
 20
700.46421057889108
 40
37.630656728658437
 50
213.59599499999973
 51
225.50677599999941
  0
LINE
  8
_0-0_計極細
  6
CONTINUOUS
 62
    2
 10
742.63742999988085
 20
669.28344239262128
 11
726.08360777046289
 21
697.95549812334525
  0
LINE
  8
_0-0_計極細
  6
CONTINUOUS
 62
    2
 10
737.44957734969216
 20
666.22725505936546
 11
719.8554691620468
 21
696.70114490602714
  0
LINE
  8
_0-0_計極細
  6
CONTINUOUS
 62
    2
 10
719.44050838416865
 20
659.28747557542169
 11
707.10950813926343
 21
680.64539602816262
  0
LINE
  8
_0-0_計極細
  6
CONTINUOUS
 62
    2
 10
725.24708730274165
 20
661.27199599318942
 11
711.30988418965205
 21
685.41194788742837
  0
LINE
  8
_0-0_計極細
  6
CONTINUOUS
 62
    2
 10
729.16726849358224
 20
661.50643799506338
 11
712.61344626416417
 21
690.17849974669377
  0
LINE
  8
_0-0_計極細
  6
CONTINUOUS
 62
    2
 10
734.40792448129309
 20
664.47116175929864
 11
716.81382231455268
 21
694.94504558505355
  0
LINE
  8
_0-0_計極細
  6
CONTINUOUS
 62
    2
 10
684.05032074808264
 20
673.62101078608407
 11
697.26035507145411
 21
673.62101078608407
  0
ARC
  8
_0-0_計極細
  6
CONTINUOUS
 62
    2
 10
693.78418552548669
 20
669.10533197864447
 40
1.0034861863992508
 50
329.99999999997061
 51
89.999999999999545
  0
ARC
  8
_0-0_計極細
  6
CONTINUOUS
 62
    2
 10
715.65509311165829
 20
700.46421057889108
 40
37.630656728658437
 50
233.77152299999938
 51
236.31964599999873
  0
ARC
  8
_0-0_計極細
  6
CONTINUOUS
 62
    2
 10
689.80320523518481
 20
669.10533197864447
 40
1.0034861863992508
 50
89.999999999999915
 51
230.49822999997428
  0
LINE
  8
_0-0_計極細
  6
CONTINUOUS
 62
    2
 10
689.80320523518481
 20
670.10881214413871
 11
693.78418552548669
 21
670.10881214413871
  0
ARC
  8
_0-0_計極細
  6
CONTINUOUS
 62
    2
 10
715.65509311165829
 20
700.46421057889108
 40
37.630656728658437
 50
272.61289199999942
 51
282.54239699999982
  0
ARC
  8
_0-0_計極細
  6
CONTINUOUS
 62
    2
 10
719.87503108264025
 20
659.5383486272475
 40
0.501740082747087
 50
210.00000000000426
 51
275.88706199997517
  0
LINE
  8
_0-0_計極細
  6
CONTINUOUS
 62
    2
 10
714.76403528575361
 20
660.36297178653808
 11
705.80594606475302
 21
675.87885018980376
  0
LINE
  8
_0-0_計極細
  6
CONTINUOUS
 62
    2
 10
708.21058717604888
 20
659.67207292900116
 11
701.60557001436462
 21
671.11229833053881
  0
ARC
  8
_0-0_計極細
  6
CONTINUOUS
 62
    2
 10
715.65509311165829
 20
700.46421057889108
 40
37.630656728658437
 50
254.49322399999932
 51
266.40400499999907
  0
ARC
  8
_0-0_計極細
  6
CONTINUOUS
 62
    2
 10
697.26035507145411
 20
674.12275086883096
 40
0.501740082747087
 50
269.99999999999977
 51
329.99999999989114
  0
ARC
  8
_0-0_計極細
  6
CONTINUOUS
 62
    2
 10
701.42345569851227
 20
662.39637593262273
 40
1.0034861863992508
 50
249.50177000005806
 51
29.999999999976708
  0
LINE
  8
_0-0_計極細
  6
CONTINUOUS
 62
    2
 10
702.29249507455302
 20
662.89811601537008
 11
700.30200793985409
 21
666.3457464712717
  0
ARC
  8
_0-0_計極細
  6
CONTINUOUS
 62
    2
 10
704.93690066780823
 20
675.37710408615226
 40
1.0034861863992508
 50
29.999999999977071
 51
149.99999999999699
  0
ARC
  8
_0-0_計極細
  6
CONTINUOUS
 62
    2
 10
715.65509311165829
 20
700.46421057889108
 40
27.094072844634091
 50
244.78019200000111
 51
249.77896100000117
  0
ARC
  8
_0-0_計極細
  6
CONTINUOUS
 62
    2
 10
715.65509311165829
 20
700.46421057889108
 40
37.630656728658437
 50
243.68035399999945
 51
246.22847699999838
  0
ARC
  8
_0-0_計極細
  6
CONTINUOUS
 62
    2
 10
699.43296254290931
 20
665.84400638852674
 40
1.0034861863992508
 50
29.999999999977071
 51
150.00000000002294
  0
ARC
  8
_0-0_計極細
  6
CONTINUOUS
 62
    2
 10
713.8949959097157
 20
659.86123170379255
 40
1.0034861863992508
 50
267.5178359999677
 51
30.000000000002665
  0
ARC
  8
_0-0_計極細
  6
CONTINUOUS
 62
    2
 10
708.64510987452036
 20
659.92294598082697
 40
0.501740082747087
 50
210.00000000010814
 51
260.18999100005101
  0
ARC
  8
_0-0_計極細
  6
CONTINUOUS
 62
    2
 10
715.65509311165829
 20
700.46421057889108
 40
27.094072844634091
 50
260.29098299999907
 51
275.37568199999987
  0
ARC
  8
_0-0_計極細
  6
CONTINUOUS
 62
    2
 10
715.65509311165829
 20
700.46421057889108
 40
37.630656728658437
 50
288.07291800000053
 51
297.3252259999997
  0
ARC
  8
_0-0_計極細
  6
CONTINUOUS
 62
    2
 10
715.65509311165829
 20
700.46421057889108
 40
27.094072844634091
 50
283.31934900000118
 51
296.2837799999993
  0
ARC
  8
_0-0_計極細
  6
CONTINUOUS
 62
    2
 10
729.60178517114787
 20
661.75731104688953
 40
0.501740082747087
 50
210.00000000010814
 51
289.81487200010849
  0
ARC
  8
_0-0_計極細
  6
CONTINUOUS
 62
    2
 10
724.37804190579777
 20
660.77025591044298
 40
1.0034861863992508
 50
282.39403400005705
 51
30.000000000002665
  0
ARC
  8
_0-0_計極細
  6
CONTINUOUS
 62
    2
 10
715.65509311165829
 20
700.46421057889108
 40
37.630656728658437
 50
302.67477399999865
 51
311.92708199999919
  0
ARC
  8
_0-0_計極細
  6
CONTINUOUS
 62
    2
 10
738.31861672573029
 20
666.72900116301821
 40
1.0034861863992508
 50
210.00000000002515
 51
303.89345000001418
  0
ARC
  8
_0-0_計極細
  6
CONTINUOUS
 62
    2
 10
742.20290730140846
 20
669.03256934079559
 40
0.501740082747087
 50
310.18512800003361
 51
29.999999999907399
  0
ARC
  8
_0-0_計極細
  6
CONTINUOUS
 62
    2
 10
733.53888510525417
 20
663.96941565564589
 40
1.0034861863992508
 50
296.10655000002453
 51
29.999999999999204
  0
LINE
  8
_0-0_計極細
  6
CONTINUOUS
 62
    2
 10
681.37193316657545
 20
679.64191586266975
 11
699.28812365038561
 21
679.64191586266975
  0
ARC
  8
_0-0_計極細
  6
CONTINUOUS
 62
    2
 10
693.78418552548669
 20
731.82308917913929
 40
1.0034861863992508
 50
269.99999999999977
 51
30.000000000051159
  0
LINE
  8
_0-0_計極細
  6
CONTINUOUS
 62
    2
 10
684.05032074808264
 20
727.3074103716998
 11
697.26035507145411
 21
727.3074103716998
  0
LINE
  8
_0-0_計極細
  6
CONTINUOUS
 62
    2
 10
681.37193316657545
 20
721.28650529511322
 11
699.28812365038561
 21
721.28650529511322
  0
LINE
  8
_0-0_計極細
  6
CONTINUOUS
 62
    2
 10
678.10229270654634
 20
717.77431267407451
 11
702.76429319635315
 21
717.77431267407451
  0
LINE
  8
_0-0_計極細
  6
CONTINUOUS
 62
    2
 10
676.91764952820211
 20
711.75340759748929
 11
704.79206177528636
 21
711.75340759748929
  0
LINE
  8
_0-0_計極細
  6
CONTINUOUS
 62
    2
 10
675.16059288332167
 20
708.24121497644899
 11
708.26823132125196
 21
708.24121497644899
  0
LINE
  8
_0-0_計極細
  6
CONTINUOUS
 62
    2
 10
675.10778352489456
 20
702.22030989986365
 11
710.29599990018619
 21
702.22030989986365
  0
LINE
  8
_0-0_計極細
  6
CONTINUOUS
 62
    2
 10
678.10229270654634
 20
683.15410848370925
 11
702.76429319635315
 21
683.15410848370925
  0
LINE
  8
_0-0_計極細
  6
CONTINUOUS
 62
    2
 10
676.91764952820211
 20
689.17501356029493
 11
704.79206177528636
 21
689.17501356029493
  0
LINE
  8
_0-0_計極細
  6
CONTINUOUS
 62
    2
 10
675.16059288332167
 20
692.68720618133489
 11
708.26823132125196
 21
692.68720618133489
  0
LINE
  8
_0-0_計極細
  6
CONTINUOUS
 62
    2
 10
675.10778352489456
 20
698.70811125791874
 11
710.29599990018619
 21
698.70811125791874
  0
ARC
  8
_0-0_計極細
  6
CONTINUOUS
 62
    2
 10
715.65509311165829
 20
700.46421057889108
 40
27.094072844634091
 50
140.2909829999995
 51
155.37568200000004
  0
ARC
  8
_0-0_計極細
  6
CONTINUOUS
 62
    2
 10
715.65509311165829
 20
700.46421057889108
 40
37.630656728658437
 50
152.61289200000007
 51
162.54239699999968
  0
ARC
  8
_0-0_計極細
  6
CONTINUOUS
 62
    2
 10
676.91764952820211
 20
712.75689378388984
 40
1.0034861863992508
 50
162.39403400002107
 51
269.99999999999977
  0
ARC
  8
_0-0_計極細
  6
CONTINUOUS
 62
    2
 10
681.37193316657545
 20
678.6384296762692
 40
1.0034861863992508
 50
89.999999999999915
 51
212.4821639999854
  0
ARC
  8
_0-0_計極細
  6
CONTINUOUS
 62
    2
 10
715.65509311165829
 20
700.46421057889108
 40
37.630656728658437
 50
168.07291799999925
 51
177.32522600000016
  0
ARC
  8
_0-0_計極細
  6
CONTINUOUS
 62
    2
 10
715.65509311165829
 20
700.46421057889108
 40
37.630656728658437
 50
182.67477399999882
 51
191.9270819999997
  0
ARC
  8
_0-0_計極細
  6
CONTINUOUS
 62
    2
 10
715.65509311165829
 20
700.46421057889108
 40
37.630656728658437
 50
197.4576029999993
 51
207.38710799999896
  0
ARC
  8
_0-0_計極細
  6
CONTINUOUS
 62
    2
 10
675.10778352489456
 20
697.70463109242542
 40
1.0034861863992508
 50
89.999999999999915
 51
183.89344999999844
  0
ARC
  8
_0-0_計極細
  6
CONTINUOUS
 62
    2
 10
676.91764952820211
 20
688.17152737389574
 40
1.0034861863992508
 50
89.999999999999915
 51
197.60596600000332
  0
ARC
  8
_0-0_計極細
  6
CONTINUOUS
 62
    2
 10
678.10229270654634
 20
683.65584856645523
 40
0.501740082747087
 50
204.11293800002809
 51
269.99999999999977
  0
ARC
  8
_0-0_計極細
  6
CONTINUOUS
 62
    2
 10
715.65509311165829
 20
700.46421057889108
 40
27.094072844634091
 50
163.31934899999951
 51
176.28377999999955
  0
ARC
  8
_0-0_計極細
  6
CONTINUOUS
 62
    2
 10
715.65509311165829
 20
700.46421057889108
 40
27.094072844634091
 50
183.71621999999911
 51
196.68065099999922
  0
ARC
  8
_0-0_計極細
  6
CONTINUOUS
 62
    2
 10
715.65509311165829
 20
700.46421057889108
 40
27.094072844634091
 50
204.62431799999874
 51
219.70901699999865
  0
ARC
  8
_0-0_計極細
  6
CONTINUOUS
 62
    2
 10
678.10229270654634
 20
717.27257259132853
 40
0.501740082747087
 50
89.999999999999915
 51
155.88706199997156
  0
ARC
  8
_0-0_計極細
  6
CONTINUOUS
 62
    2
 10
681.37193316657545
 20
722.28999148151411
 40
1.0034861863992508
 50
147.5178360000142
 51
269.99999999999977
  0
ARC
  8
_0-0_計極細
  6
CONTINUOUS
 62
    2
 10
715.65509311165829
 20
700.46421057889108
 40
37.630656728658437
 50
123.68035400000058
 51
126.22847700000025
  0
ARC
  8
_0-0_計極細
  6
CONTINUOUS
 62
    2
 10
715.65509311165829
 20
700.46421057889108
 40
37.630656728658437
 50
134.49322399999971
 51
146.40400499999933
  0
ARC
  8
_0-0_計極細
  6
CONTINUOUS
 62
    2
 10
684.05032074808264
 20
726.80567028895325
 40
0.501740082747087
 50
89.999999999999915
 51
140.18999100005377
  0
ARC
  8
_0-0_計極細
  6
CONTINUOUS
 62
    2
 10
689.80320523518481
 20
731.82308917913929
 40
1.0034861863992508
 50
129.50177000002535
 51
269.99999999999977
  0
LINE
  8
_0-0_計極細
  6
CONTINUOUS
 62
    2
 10
689.80320523518481
 20
730.81960901364505
 11
693.78418552548669
 21
730.81960901364505
  0
ARC
  8
_0-0_計極細
  6
CONTINUOUS
 62
    2
 10
715.65509311165829
 20
700.46421057889108
 40
37.630656728658437
 50
77.457603000000148
 51
87.387108000000282
  0
ARC
  8
_0-0_計極細
  6
CONTINUOUS
 62
    2
 10
715.65509311165829
 20
700.46421057889108
 40
37.630656728658437
 50
77.457603000000148
 51
87.387108000000282
  0
ARC
  8
_0-0_計極細
  6
CONTINUOUS
 62
    2
 10
720.72451455899159
 20
697.20288498877369
 40
1.0034861863992508
 50
89.999999999999915
 51
209.9999999999992
  0
ARC
  8
_0-0_計極細
  6
CONTINUOUS
 62
    2
 10
720.72451455899159
 20
703.72553616901155
 40
1.0034861863992508
 50
150.00000000000043
 51
269.99999999999977
  0
ARC
  8
_0-0_計極細
  6
CONTINUOUS
 62
    2
 10
719.87503108264025
 20
741.39007253053364
 40
0.501740082747087
 50
84.112938000024442
 51
150.00000000004033
  0
LINE
  8
_0-0_計極細
  6
CONTINUOUS
 62
    2
 10
725.24708730274165
 20
739.65641914368712
 11
711.30988418965205
 21
715.51647327035539
  0
LINE
  8
_0-0_計極細
  6
CONTINUOUS
 62
    2
 10
729.16726849358224
 20
739.42197714181589
 11
712.61344626416417
 21
710.7499214110901
  0
LINE
  8
_0-0_計極細
  6
CONTINUOUS
 62
    2
 10
734.40792448129309
 20
736.45725939848512
 11
716.81382231455268
 21
705.98337557273021
  0
LINE
  8
_0-0_計極細
  6
CONTINUOUS
 62
    2
 10
713.64812675976498
 20
708.45605893229663
 11
713.64812675976498
 21
712.54204380713531
  0
LINE
  8
_0-0_計極細
  6
CONTINUOUS
 62
    2
 10
714.14986684251221
 20
707.5870195562577
 11
714.14986684251221
 21
713.41108920407828
  0
ARC
  8
_0-0_計極細
  6
CONTINUOUS
 62
    2
 10
704.79206177528636
 20
712.75689378388984
 40
1.0034861863992508
 50
269.99999999999977
 51
29.999999999999204
  0
LINE
  8
_0-0_計極細
  6
CONTINUOUS
 62
    2
 10
717.16031938080528
 20
706.58353336985999
 11
717.16031938080528
 21
718.62534352302941
  0
LINE
  8
_0-0_計極細
  6
CONTINUOUS
 62
    2
 10
717.66206548445666
 20
707.45257876680239
 11
717.66206548445666
 21
719.49438891997477
  0
ARC
  8
_0-0_計極細
  6
CONTINUOUS
 62
    2
 10
704.79206177528636
 20
688.17152737389574
 40
1.0034861863992508
 50
329.9999999999776
 51
89.999999999999545
  0
ARC
  8
_0-0_計極細
  6
CONTINUOUS
 62
    2
 10
702.76429319635315
 20
683.65584856645523
 40
0.501740082747087
 50
269.99999999999977
 51
329.999999999995
  0
ARC
  8
_0-0_計極細
  6
CONTINUOUS
 62
    2
 10
715.65509311165829
 20
700.46421057889108
 40
27.094072844634091
 50
230.22103899999877
 51
235.21980799999864
  0
ARC
  8
_0-0_計極細
  6
CONTINUOUS
 62
    2
 10
699.28812365038561
 20
678.6384296762692
 40
1.0034861863992508
 50
330.00000000000011
 51
89.999999999999545
  0
ARC
  8
_0-0_計極細
  6
CONTINUOUS
 62
    2
 10
707.54403083773582
 20
680.89626907998979
 40
0.501740082747087
 50
149.9999999999884
 51
210.00000000005619
  0
LINE
  8
_0-0_計極細
  6
CONTINUOUS
 62
    2
 10
713.64812675976498
 20
688.38637735064844
 11
713.64812675976498
 21
692.47236222548725
  0
LINE
  8
_0-0_計極細
  6
CONTINUOUS
 62
    2
 10
714.14986684251221
 20
687.51733195370366
 11
714.14986684251221
 21
693.3414016015256
  0
ARC
  8
_0-0_計極細
  6
CONTINUOUS
 62
    2
 10
708.26823132125196
 20
693.18895228498627
 40
0.501740082747087
 50
269.99999999999977
 51
330.00000000003996
  0
ARC
  8
_0-0_計極細
  6
CONTINUOUS
 62
    2
 10
713.04796896263747
 20
690.42936677761406
 40
0.501740082747087
 50
150.00000000009922
 51
209.99999999985545
  0
ARC
  8
_0-0_計極細
  6
CONTINUOUS
 62
    2
 10
710.44083879270715
 20
684.91020780468102
 40
1.0034861863992508
 50
29.999999999999559
 51
150.00000000000043
  0
ARC
  8
_0-0_計極細
  6
CONTINUOUS
 62
    2
 10
713.04796896263747
 20
710.4990543801689
 40
0.501740082747087
 50
150.00000000009922
 51
209.99999999985545
  0
ARC
  8
_0-0_計極細
  6
CONTINUOUS
 62
    2
 10
715.94477691760699
 20
706.48511565547767
 40
1.0034861863992508
 50
210.00000000005113
 51
330.00000000002603
  0
ARC
  8
_0-0_計極細
  6
CONTINUOUS
 62
    2
 10
708.26823132125196
 20
707.73946887279624
 40
0.501740082747087
 50
29.99999999995967
 51
89.999999999999901
  0
ARC
  8
_0-0_計極細
  6
CONTINUOUS
 62
    2
 10
710.29599990018619
 20
703.22379006535834
 40
1.0034861863992508
 50
269.99999999999977
 51
30.000000000002665
  0
LINE
  8
_0-0_計極細
  6
CONTINUOUS
 62
    2
 10
717.16031938080528
 20
682.30307763475355
 11
717.16031938080528
 21
694.34488778792524
  0
LINE
  8
_0-0_計極細
  6
CONTINUOUS
 62
    2
 10
717.66206548445666
 20
681.43403223781047
 11
717.66206548445666
 21
693.47584239098057
  0
ARC
  8
_0-0_計極細
  6
CONTINUOUS
 62
    2
 10
715.94477691760699
 20
706.48511565547767
 40
1.0034861863992508
 50
253.22134500003193
 51
330.00000000002603
  0
LINE
  8
_0-0_計極細
  6
CONTINUOUS
 62
    2
 10
714.76403528575361
 20
740.56544335034073
 11
705.80594606475302
 21
725.04957096797966
  0
ARC
  8
_0-0_計極細
  6
CONTINUOUS
 62
    2
 10
715.65509311165829
 20
700.46421057889108
 40
37.630656728658437
 50
93.595995000000485
 51
105.50677600000017
  0
LINE
  8
_0-0_計極細
  6
CONTINUOUS
 62
    2
 10
708.21058717604888
 20
741.25634822878499
 11
701.60557001436462
 21
729.8161228272445
  0
LINE
  8
_0-0_計極細
  6
CONTINUOUS
 62
    2
 10
719.44050838416865
 20
741.6409455823607
 11
707.10950813926343
 21
720.28302512961932
  0
ARC
  8
_0-0_計極細
  6
CONTINUOUS
 62
    2
 10
707.54403083773582
 20
720.03215207779408
 40
0.501740082747087
 50
149.9999999999884
 51
210.00000000001123
  0
ARC
  8
_0-0_計極細
  6
CONTINUOUS
 62
    2
 10
715.65509311165829
 20
700.46421057889108
 40
27.094072844634091
 50
110.2210389999981
 51
115.21980799999808
  0
ARC
  8
_0-0_計極細
  6
CONTINUOUS
 62
    2
 10
704.93690066780823
 20
725.55131707163287
 40
1.0034861863992508
 50
210.00000000000267
 51
330.00000000002257
  0
ARC
  8
_0-0_計極細
  6
CONTINUOUS
 62
    2
 10
702.04009271283599
 20
729.56524977541835
 40
0.501740082747087
 50
149.99999999999537
 51
209.9999999999593
  0
ARC
  8
_0-0_計極細
  6
CONTINUOUS
 62
    2
 10
715.65509311165829
 20
700.46421057889108
 40
37.630656728658437
 50
113.77152300000098
 51
116.31964599999986
  0
ARC
  8
_0-0_計極細
  6
CONTINUOUS
 62
    2
 10
701.42345569851227
 20
738.53204522516103
 40
1.0034861863992508
 50
330.00000000002257
 51
110.49822999994124
  0
ARC
  8
_0-0_計極細
  6
CONTINUOUS
 62
    2
 10
699.43296254290931
 20
735.08441476925623
 40
1.0034861863992508
 50
209.9999999999992
 51
330.00000000000011
  0
LINE
  8
_0-0_計極細
  6
CONTINUOUS
 62
    2
 10
702.29249507455302
 20
738.03030514241368
 11
700.30200793985409
 21
734.58267468651161
  0
ARC
  8
_0-0_計極細
  6
CONTINUOUS
 62
    2
 10
715.65509311165829
 20
700.46421057889108
 40
27.094072844634091
 50
124.78019199999984
 51
129.77896100000024
  0
ARC
  8
_0-0_計極細
  6
CONTINUOUS
 62
    2
 10
697.26035507145411
 20
726.80567028895325
 40
0.501740082747087
 50
30.000000000063526
 51
89.999999999999915
  0
ARC
  8
_0-0_計極細
  6
CONTINUOUS
 62
    2
 10
699.28812365038561
 20
722.28999148151411
 40
1.0034861863992508
 50
269.99999999999977
 51
29.999999999999204
  0
ARC
  8
_0-0_計極細
  6
CONTINUOUS
 62
    2
 10
702.76429319635315
 20
717.27257259132853
 40
0.501740082747087
 50
29.99999999995967
 51
89.999999999999901
  0
LINE
  8
_0-0_計極細
  6
CONTINUOUS
 62
    2
 10
714.14986684251221
 20
720.43547444615911
 11
714.14986684251221
 21
727.51643813324404
  0
LINE
  8
_0-0_計極細
  6
CONTINUOUS
 62
    2
 10
713.64812675976498
 20
719.56643507012063
 11
713.64812675976498
 21
727.48384697406425
  0
ARC
  8
_0-0_計極細
  6
CONTINUOUS
 62
    2
 10
713.8949959097157
 20
741.06718945399439
 40
1.0034861863992508
 50
329.99999999997414
 51
92.482164000031602
  0
ARC
  8
_0-0_計極細
  6
CONTINUOUS
 62
    2
 10
715.65509311165829
 20
700.46421057889108
 40
27.094072844634091
 50
84.624317999999832
 51
99.709017000000401
  0
ARC
  8
_0-0_計極細
  6
CONTINUOUS
 62
    2
 10
708.64510987452036
 20
741.00547517695975
 40
0.501740082747087
 50
99.810008999948636
 51
149.99999999993648
  0
ARC
  8
_0-0_計極細
  6
CONTINUOUS
 62
    2
 10
710.44083879270715
 20
716.01821335310137
 40
1.0034861863992508
 50
209.9999999999992
 51
330.00000000000011
  0
ARC
  8
_0-0_計極細
  6
CONTINUOUS
 62
    2
 10
715.65509311165829
 20
700.46421057889108
 40
27.094072844634091
 50
84.624317999999832
 51
89.999999999999915
  0
ARC
  8
_0-0_計極細
  6
CONTINUOUS
 62
    2
 10
715.65509311165829
 20
700.46421057889108
 40
27.094072844634091
 50
20.290983000001571
 51
35.37568200000068
  0
LINE
  8
_0-0_計極細
  6
CONTINUOUS
 62
    2
 10
742.63742999988085
 20
731.64497876516396
 11
726.08360777046289
 21
702.97292303443714
  0
LINE
  8
_0-0_計極細
  6
CONTINUOUS
 62
    2
 10
737.44957734969216
 20
734.70116609841784
 11
719.8554691620468
 21
704.22727625175708
  0
ARC
  8
_0-0_計極細
  6
CONTINUOUS
 62
    2
 10
715.65509311165829
 20
700.46421057889108
 40
27.094072844634091
 50
303.71622000000156
 51
316.68065099999922
  0
ARC
  8
_0-0_計極細
  6
CONTINUOUS
 62
    2
 10
731.73238478788357
 20
697.20288498877369
 40
1.0034861863992508
 50
89.999999999999915
 51
210.00000000002515
  0
ARC
  8
_0-0_計極細
  6
CONTINUOUS
 62
    2
 10
725.64908507199129
 20
697.70463109242542
 40
0.501740082747087
 50
30.0000000001085
 51
89.999999999999915
  0
ARC
  8
_0-0_計極細
  6
CONTINUOUS
 62
    2
 10
731.73238478788357
 20
703.72553616901155
 40
1.0034861863992508
 50
149.99999999997448
 51
269.99999999999977
  0
ARC
  8
_0-0_計極細
  6
CONTINUOUS
 62
    2
 10
725.64908507199129
 20
703.22379006535834
 40
0.501740082747087
 50
269.99999999999977
 51
329.99999999989114
  0
ARC
  8
_0-0_計極細
  6
CONTINUOUS
 62
    2
 10
715.65509311165829
 20
700.46421057889108
 40
27.094072844634091
 50
324.62431799999973
 51
339.7090169999999
  0
ARC
  8
_0-0_計極細
  6
CONTINUOUS
 62
    2
 10
715.65509311165829
 20
700.46421057889108
 40
27.094072844634091
 50
350.22103899999934
 51
355.21980800000068
  0
ARC
  8
_0-0_計極細
  6
CONTINUOUS
 62
    2
 10
715.65509311165829
 20
700.46421057889108
 40
27.094072844634091
 50
4.7801919999998796
 51
9.778961000001221
  0
ARC
  8
_0-0_計極細
  6
CONTINUOUS
 62
    2
 10
742.74026103768324
 20
697.20288498877369
 40
1.0034861863992508
 50
89.999999999999915
 51
210.00000000002515
  0
ARC
  8
_0-0_計極細
  6
CONTINUOUS
 62
    2
 10
736.65696132179005
 20
697.70463109242542
 40
0.501740082747087
 50
30.000000000056566
 51
89.999999999999915
  0
ARC
  8
_0-0_計極細
  6
CONTINUOUS
 62
    2
 10
742.74026103768324
 20
703.72553616901155
 40
1.0034861863992508
 50
149.99999999997448
 51
269.99999999999977
  0
ARC
  8
_0-0_計極細
  6
CONTINUOUS
 62
    2
 10
736.65696132179005
 20
703.22379006535834
 40
0.501740082747087
 50
269.99999999999977
 51
329.9999999999431
  0
ARC
  8
_0-0_計極細
  6
CONTINUOUS
 62
    2
 10
715.65509311165829
 20
700.46421057889108
 40
27.094072844634091
 50
43.319349000001104
 51
56.28377999999919
  0
ARC
  8
_0-0_計極細
  6
CONTINUOUS
 62
    2
 10
715.65509311165829
 20
700.46421057889108
 40
37.630656728658437
 50
62.674774000000312
 51
71.927081999999317
  0
ARC
  8
_0-0_計極細
  6
CONTINUOUS
 62
    2
 10
715.65509311165829
 20
700.46421057889108
 40
27.094072844634091
 50
63.716220000000746
 51
76.680650999998889
  0
ARC
  8
_0-0_計極細
  6
CONTINUOUS
 62
    2
 10
729.60178517114787
 20
739.17111011089378
 40
0.501740082747087
 50
70.185127999891137
 51
149.99999999993648
  0
ARC
  8
_0-0_計極細
  6
CONTINUOUS
 62
    2
 10
724.37804190579777
 20
740.15816524734078
 40
1.0034861863992508
 50
329.99999999999665
 51
77.605965999942228
  0
ARC
  8
_0-0_計極細
  6
CONTINUOUS
 62
    2
 10
715.65509311165829
 20
700.46421057889108
 40
37.630656728658437
 50
48.072918000001373
 51
57.325226000001372
  0
ARC
  8
_0-0_計極細
  6
CONTINUOUS
 62
    2
 10
738.31861672573029
 20
734.199419994766
 40
1.0034861863992508
 50
56.106549999971008
 51
149.99999999999699
  0
ARC
  8
_0-0_計極細
  6
CONTINUOUS
 62
    2
 10
742.20290730140846
 20
731.89584579608425
 40
0.501740082747087
 50
330.00000000009186
 51
49.814871999965682
  0
ARC
  8
_0-0_計極細
  6
CONTINUOUS
 62
    2
 10
733.53888510525417
 20
736.95900550213651
 40
1.0034861863992508
 50
330.00000000000011
 51
63.893449999974756
  0
ARC
  8
_0-0_計極細
  6
CONTINUOUS
 62
    2
 10
745.66959392187823
 20
673.06293911544003
 40
1.0034861863992508
 50
210.00000000002515
 51
317.6059660000256
  0
ARC
  8
_0-0_計極細
  6
CONTINUOUS
 62
    2
 10
748.9879675875984
 20
676.3467046187792
 40
0.501740082747087
 50
324.11293799996702
 51
29.999999999959307
  0
ARC
  8
_0-0_計極細
  6
CONTINUOUS
 62
    2
 10
715.65509311165829
 20
700.46421057889108
 40
37.630656728658437
 50
14.493223999999607
 51
26.404005000000534
  0
LINE
  8
_0-0_計極細
  6
CONTINUOUS
 62
    2
 10
754.70437743174659
 20
714.41314843597627
 11
748.0993602700612
 21
702.97292303443714
  0
ARC
  8
_0-0_計極細
  6
CONTINUOUS
 62
    2
 10
755.73863044308769
 20
693.75525453286923
 40
1.0034861863992508
 50
209.99999999997672
 51
350.4982300000064
  0
ARC
  8
_0-0_計極細
  6
CONTINUOUS
 62
    2
 10
755.73863044308769
 20
707.17316662491453
 40
1.0034861863992508
 50
9.5017699999932326
 51
150.00000000000043
  0
ARC
  8
_0-0_計極細
  6
CONTINUOUS
 62
    2
 10
715.65509311165829
 20
700.46421057889108
 40
37.630656728658437
 50
3.6803540000001762
 51
6.228477000000372
  0
ARC
  8
_0-0_計極細
  6
CONTINUOUS
 62
    2
 10
715.65509311165829
 20
700.46421057889108
 40
37.630656728658437
 50
353.77152300000063
 51
356.31964600000015
  0
ARC
  8
_0-0_計極細
  6
CONTINUOUS
 62
    2
 10
715.65509311165829
 20
700.46421057889108
 40
37.630656728658437
 50
333.59599499999973
 51
345.50677600000074
  0
ARC
  8
_0-0_計極細
  6
CONTINUOUS
 62
    2
 10
751.6983562795906
 20
681.68701260641251
 40
1.0034861863992508
 50
209.99999999997672
 51
332.48216400001218
  0
ARC
  8
_0-0_計極細
  6
CONTINUOUS
 62
    2
 10
753.74813728748211
 20
697.20288498877369
 40
1.0034861863992508
 50
89.999999999999915
 51
210.00000000002515
  0
ARC
  8
_0-0_計極細
  6
CONTINUOUS
 62
    2
 10
747.66483757158881
 20
697.70463109242542
 40
0.501740082747087
 50
30.000000000004636
 51
89.999999999999915
  0
LINE
  8
_0-0_計極細
  6
CONTINUOUS
 62
    2
 10
754.8695850461429
 20
693.25351445012291
 11
752.87909791144398
 21
696.70114490602714
  0
LINE
  8
_0-0_計極細
  6
CONTINUOUS
 62
    2
 10
754.70437743174659
 20
686.51527272180851
 11
748.0993602700612
 21
697.95549812334525
  0
ARC
  8
_0-0_計極細
  6
CONTINUOUS
 62
    2
 10
753.74813728748211
 20
703.72553616901155
 40
1.0034861863992508
 50
149.99999999997448
 51
269.99999999999977
  0
ARC
  8
_0-0_計極細
  6
CONTINUOUS
 62
    2
 10
747.66483757158881
 20
703.22379006535834
 40
0.501740082747087
 50
269.99999999999977
 51
329.999999999995
  0
LINE
  8
_0-0_計極細
  6
CONTINUOUS
 62
    2
 10
754.8695850461429
 20
707.67490670766097
 11
752.87909791144398
 21
704.22727625175708
  0
ARC
  8
_0-0_計極細
  6
CONTINUOUS
 62
    2
 10
745.66959392187823
 20
727.86548204234373
 40
1.0034861863992508
 50
42.394033999974049
 51
149.99999999997448
  0
ARC
  8
_0-0_計極細
  6
CONTINUOUS
 62
    2
 10
748.9879675875984
 20
724.58171653900422
 40
0.501740082747087
 50
330.00000000003996
 51
35.887062000032259
  0
ARC
  8
_0-0_計極細
  6
CONTINUOUS
 62
    2
 10
751.6983562795906
 20
719.24140855137125
 40
1.0034861863992508
 50
27.517836000010465
 51
150.00000000000043
  0
LINE
  8
_0-0_計極細
  6
CONTINUOUS
 62
    2
 10
717.16031938080528
 20
673.4119818871734
 11
717.16031938080528
 21
675.27869353726669
  0
LINE
  8
_0-0_計極細
  6
CONTINUOUS
 62
    2
 10
717.66206548445666
 20
673.44457243910188
 11
717.66206548445666
 21
674.40964350570835
  0
LINE
  8
_0-0_計極細
  6
CONTINUOUS
 62
    2
 10
717.16031938080528
 20
725.64972509311463
 11
717.16031938080528
 21
727.516439270609
  0
LINE
  8
_0-0_計極細
  6
CONTINUOUS
 62
    2
 10
717.66206548445666
 20
726.51877490791708
 11
717.66206548445666
 21
727.48384871868052
  0
LINE
  8
_0-0_計極細
  6
CENTER2
 62
    2
 10
411.10449936458218
 20
700.45777548437559
 11
1025.2554427608086
 21
700.45777548437559
  0
ARC
  8
_0-1_計細線
  6
CONTINUOUS
 62
    3
 10
1002.1530090595259
 20
638.95777548437513
 40
2
 50
269.99999999999977
 51
0.0000000000126713
  0
ARC
  8
_0-1_計細線
  6
DASHED2
 62
    3
 10
434.65300905952455
 20
756.45777548437559
 40
12.5
 50
233.13010235415936
 51
36.869897645840759
  0
ARC
  8
_0-1_計細線
  6
CONTINUOUS
 62
    3
 10
434.65300905952455
 20
756.45777548437559
 40
12.5
 50
36.8698976458411
 51
233.13010235415564
  0
ARC
  8
_0-1_計細線
  6
DASHED2
 62
    3
 10
434.65300905952472
 20
644.45777548437559
 40
12.5
 50
323.11949922673051
 51
126.86989764584366
  0
ARC
  8
_0-1_計細線
  6
CONTINUOUS
 62
    3
 10
434.65300905952472
 20
644.45777548437559
 40
12.5
 50
126.86989764584402
 51
323.11949922673051
  0
ARC
  8
_0-1_計細線
  6
CONTINUOUS
 62
    3
 10
996.6530090595262
 20
644.45777548437559
 40
12.5
 50
216.88050077326872
 51
53.130102354155625
  0
ARC
  8
_0-1_計細線
  6
DASHED2
 62
    3
 10
996.6530090595262
 20
644.45777548437559
 40
12.5
 50
53.13010235415598
 51
216.88050077326872
  0
ARC
  8
_0-1_計細線
  6
CONTINUOUS
 62
    3
 10
996.65300905952517
 20
756.45777548437559
 40
12.5
 50
306.85112007309164
 51
143.14070401012805
  0
ARC
  8
_0-1_計細線
  6
DASHED2
 62
    3
 10
996.65300905952517
 20
756.45777548437559
 40
12.5
 50
143.14070401012839
 51
306.85112205553207
  0
LINE
  8
_0-1_計細線
  6
CONTINUOUS
 62
    3
 10
427.15300905952495
 20
720.45777548437582
 11
424.15300905952614
 21
720.45777548437627
  0
ARC
  8
_0-1_計細線
  6
CONTINUOUS
 62
    3
 10
424.15300905952614
 20
718.45777548437627
 40
2
 50
89.999999999999915
 51
180.00000000001268
  0
LINE
  8
_0-1_計細線
  6
CONTINUOUS
 62
    3
 10
422.15300905952608
 20
718.45777548437582
 11
422.15300905952608
 21
682.45777548437582
  0
LINE
  8
_0-1_計細線
  6
CONTINUOUS
 62
    3
 10
424.15300905952614
 20
680.45777548437627
 11
427.15300905952495
 21
680.45777548437582
  0
ARC
  8
_0-1_計細線
  6
CONTINUOUS
 62
    3
 10
424.15300905952614
 20
682.45777548437627
 40
2
 50
180.00000000001268
 51
269.99999999999977
  0
LINE
  8
_0-1_計細線
  6
CONTINUOUS
 62
    3
 10
424.15300905952614
 20
685.45777548437582
 11
427.15300905952495
 21
685.45777548437582
  0
LINE
  8
_0-1_計細線
  6
CONTINUOUS
 62
    3
 10
424.15300905952614
 20
715.45777548437582
 11
424.15300905952614
 21
685.45777548437582
  0
LINE
  8
_0-1_計細線
  6
CONTINUOUS
 62
    3
 10
427.15300905952495
 20
715.45777548437582
 11
424.15300905952614
 21
715.45777548437582
  0
LINE
  8
_0-1_計細線
  6
DASHED2
 62
    3
 10
427.15300905952495
 20
720.45777548437582
 11
434.65300905952608
 21
720.45777548437582
  0
LINE
  8
_0-1_計細線
  6
DASHED2
 62
    3
 10
434.65300905952608
 20
680.45777548437582
 11
427.15300905952495
 21
680.45777548437582
  0
LINE
  8
_0-1_計細線
  6
DASHED2
 62
    3
 10
434.65300905952608
 20
720.45777548437582
 11
434.65300905952608
 21
680.45777548437582
  0
LINE
  8
_0-5_寸法線
  6
CONTINUOUS
 62
    7
 10
423.45774453730041
 20
720.33303739785219
 11
416.68086391611746
 21
727.68653242037271
  0
LINE
  8
_0-5_寸法線
  6
CONTINUOUS
 62
    7
 10
423.45774453730041
 20
720.33303739785219
 11
421.26554127220174
 21
730.08979120454899
  0
LINE
  8
_0-5_寸法線
  6
CONTINUOUS
 62
    7
 10
423.45774453730041
 20
720.33303739785219
 11
368.28075579342931
 21
825.59373280717466
  0
LINE
  8
_0-5_寸法線
  6
CONTINUOUS
 62
    7
 10
368.28075579342931
 20
825.59373280717466
 11
320.28075579342931
 21
825.59373280717477
  0
TEXT
  8
_0-5_寸法線
 62
    7
 10
320.28075579342931
 20
825.59373280717466
 40
15
 41
0.8000000000000001
 50
0
  1
取っ手部
  0
LINE
  8
_0-5_寸法線
  6
CONTINUOUS
 62
    7
 10
408.65300905952546
 20
772.45777548437559
 11
363.65300905952546
 21
772.45777548437559
  0
LINE
  8
_0-5_寸法線
  6
CONTINUOUS
 62
    7
 10
368.65300905952546
 20
772.45777548437559
 11
366.06481860850022
 21
782.11703374726642
  0
LINE
  8
_0-5_寸法線
  6
CONTINUOUS
 62
    7
 10
368.65300905952546
 20
772.45777548437559
 11
371.24119951055064
 21
782.11703374726642
  0
LINE
  8
_0-5_寸法線
  6
CONTINUOUS
 62
    7
 10
408.65300905952546
 20
769.95777548437559
 11
363.65300905952546
 21
769.95777548437559
  0
LINE
  8
_0-5_寸法線
  6
CONTINUOUS
 62
    7
 10
368.65300905952546
 20
810.10618707394337
 11
368.65300905952546
 21
769.95777548437559
  0
TEXT
  8
_0-5_寸法線
 62
    7
 10
368.65300905952546
 20
784.18078928980685
 40
15
 41
1
 50
90
  1
2.5
  0
LINE
  8
_0-5_寸法線
  6
CONTINUOUS
 62
    7
 10
368.65300905952546
 20
769.95777548437559
 11
371.24119951055059
 21
760.29851722148487
  0
LINE
  8
_0-5_寸法線
  6
CONTINUOUS
 62
    7
 10
368.65300905952546
 20
769.95777548437559
 11
366.06481860850016
 21
760.29851722148487
  0
LINE
  8
_0-5_寸法線
  6
CONTINUOUS
 62
    7
 10
408.65300905952546
 20
630.95777548437559
 11
363.65300905952546
 21
630.95777548437559
  0
LINE
  8
_0-5_寸法線
  6
CONTINUOUS
 62
    7
 10
368.65300905952546
 20
630.95777548437559
 11
366.06481860850016
 21
640.6170337472663
  0
LINE
  8
_0-5_寸法線
  6
CONTINUOUS
 62
    7
 10
368.65300905952546
 20
630.95777548437559
 11
371.24119951055059
 21
640.6170337472663
  0
LINE
  8
_0-5_寸法線
  6
CONTINUOUS
 62
    7
 10
368.65300905952546
 20
769.95777548437559
 11
368.65300905952546
 21
630.95777548437559
  0
TEXT
  8
_0-5_寸法線
 62
    7
 10
368.65300905952546
 20
689.20777548437559
 40
15
 41
1
 50
90
  1
139
  0
LINE
  8
_0-5_寸法線
  6
CONTINUOUS
 62
    7
 10
408.65300905952546
 20
628.45777548437559
 11
363.65300905952546
 21
628.45777548437559
  0
LINE
  8
_0-5_寸法線
  6
CONTINUOUS
 62
    7
 10
368.65300905952546
 20
628.45777548437559
 11
371.24119951055059
 21
618.79851722148487
  0
LINE
  8
_0-5_寸法線
  6
CONTINUOUS
 62
    7
 10
368.65300905952546
 20
628.45777548437559
 11
366.06481860850016
 21
618.79851722148487
  0
LINE
  8
_0-5_寸法線
  6
CONTINUOUS
 62
    7
 10
368.65300905952546
 20
630.95777548437559
 11
368.65300905952546
 21
590.8093638948078
  0
TEXT
  8
_0-5_寸法線
 62
    7
 10
368.6530090595254
 20
595.08438543483703
 40
15
 41
1
 50
89.999999999999815
  1
2.5
  0
LINE
  8
_0-5_寸法線
  6
CONTINUOUS
 62
    7
 10
408.65300905952546
 20
772.45777548437559
 11
328.65300905952546
 21
772.45777548437559
  0
LINE
  8
_0-5_寸法線
  6
CONTINUOUS
 62
    7
 10
333.65300905952546
 20
772.45777548437559
 11
336.24119951055064
 21
762.79851722148487
  0
LINE
  8
_0-5_寸法線
  6
CONTINUOUS
 62
    7
 10
333.65300905952546
 20
772.45777548437559
 11
331.06481860850022
 21
762.79851722148487
  0
LINE
  8
_0-5_寸法線
  6
CONTINUOUS
 62
    7
 10
408.65300905952546
 20
628.45777548437559
 11
328.65300905952546
 21
628.45777548437559
  0
LINE
  8
_0-5_寸法線
  6
CONTINUOUS
 62
    7
 10
333.65300905952546
 20
628.45777548437559
 11
331.06481860850022
 21
638.1170337472663
  0
LINE
  8
_0-5_寸法線
  6
CONTINUOUS
 62
    7
 10
333.65300905952546
 20
628.45777548437559
 11
336.24119951055064
 21
638.1170337472663
  0
LINE
  8
_0-5_寸法線
  6
CONTINUOUS
 62
    7
 10
333.65300905952546
 20
772.45777548437559
 11
333.65300905952546
 21
628.45777548437559
  0
TEXT
  8
_0-5_寸法線
 62
    7
 10
333.65300905952546
 20
689.20777548437559
 40
15
 41
1
 50
90
  1
144
  0
LINE
  8
_0-1_計細線
  6
CONTINUOUS
 62
    3
 10
429.153009059525
 20
761.95777548437559
 11
429.153009059525
 21
638.95777548437559
  0
LINE
  8
_0-1_計細線
  6
CONTINUOUS
 62
    3
 10
429.153009059525
 20
638.95777548437559
 11
649.35863435974159
 21
638.95777548437559
  0
LINE
  8
_0-1_計細線
  6
CONTINUOUS
 62
    3
 10
644.54520915856301
 20
761.95777548437559
 11
429.153009059525
 21
761.95777548437559
  0
ARC
  8
_0-1_計細線
  6
CONTINUOUS
 62
    3
 10
429.153009059525
 20
761.95777548437513
 40
2
 50
89.999999999999915
 51
179.99999999999983
  0
LINE
  8
_0-1_計細線
  6
CONTINUOUS
 62
    3
 10
427.15300905952495
 20
638.95777548437559
 11
427.15300905952495
 21
761.95777548437513
  0
ARC
  8
_0-1_計細線
  6
CONTINUOUS
 62
    3
 10
429.153009059525
 20
638.95777548437513
 40
2
 50
179.99999999998698
 51
269.99999999999977
  0
LINE
  8
_0-1_計細線
  6
CONTINUOUS
 62
    3
 10
429.153009059525
 20
763.95777548437525
 11
642.97727373079033
 21
763.95777548437525
  0
LINE
  8
_0-1_計細線
  6
CONTINUOUS
 62
    3
 10
650.92656978751381
 20
636.95777548437673
 11
429.153009059525
 21
636.95777548437513
  0
ARC
  8
_0-1_計細線
  6
CONTINUOUS
 62
    3
 10
1002.1530090595259
 20
761.95777548437513
 40
2
 50
0
 51
89.999999999999915
  0
LINE
  8
_0-1_計細線
  6
CONTINUOUS
 62
    3
 10
1004.1530090595259
 20
638.95777548437604
 11
1004.1530090595259
 21
761.95777548437513
  0
LINE
  8
_0-1_計細線
  6
CONTINUOUS
 62
    3
 10
788.86961698892628
 20
636.95777548437604
 11
1002.1533899349984
 21
636.95777548437513
  0
LINE
  8
_0-1_計細線
  6
CONTINUOUS
 62
    3
 10
1002.1530090595259
 20
763.95777548437525
 11
780.9203209322028
 21
763.95777548437525
  0
LINE
  8
_0-1_計細線
  6
CONTINUOUS
 62
    3
 10
1002.1530090595259
 20
761.95777548437559
 11
1002.1530090595259
 21
638.95777548437559
  0
LINE
  8
_0-1_計細線
  6
CONTINUOUS
 62
    3
 10
782.48825635997491
 20
761.95777548437559
 11
1002.1530090595259
 21
761.95777548437559
  0
LINE
  8
_0-1_計細線
  6
CONTINUOUS
 62
    3
 10
1002.1530090595259
 20
638.95777548437559
 11
787.30168156115371
 21
638.95777548437559
  0
LINE
  8
_0-1_計細線
  6
CONTINUOUS
 62
    3
 10
1160.1389161249203
 20
641.95790164440155
 11
1158.6389328449236
 21
641.95790164440155
  0
ARC
  8
_0-1_計細線
  6
CONTINUOUS
 62
    3
 10
1160.1389161249203
 20
643.95790164440155
 40
2
 50
269.99999999999977
 51
359.99999999999966
  0
LINE
  8
_0-1_計細線
  6
CONTINUOUS
 62
    3
 10
1162.1389161249203
 20
643.95790164440155
 11
1162.1389161249203
 21
649.45777548437559
  0
LINE
  8
_0-1_計細線
  6
CONTINUOUS
 62
    3
 10
1160.1389161249203
 20
758.95764932434918
 11
1158.6389328449245
 21
758.95764932434918
  0
ARC
  8
_0-1_計細線
  6
CONTINUOUS
 62
    3
 10
1160.1389161249203
 20
756.95764932434929
 40
2
 50
0
 51
89.999999999999915
  0
LINE
  8
_0-1_計細線
  6
CONTINUOUS
 62
    3
 10
1162.1389161249203
 20
745.45777548437559
 11
1162.1389161249203
 21
756.95764932434929
  0
LINE
  8
_0-1_計細線
  6
CONTINUOUS
 62
    3
 10
1162.1389161249203
 20
644.71899948437556
 11
1162.1389161249203
 21
745.45777548437559
  0
ARC
  8
_0-1_計細線
  6
CONTINUOUS
 62
    3
 10
1123.3889328449245
 20
771.20777540783581
 40
1.25
 50
89.999999999999915
 51
179.99999999999983
  0
LINE
  8
_0-1_計細線
  6
CONTINUOUS
 62
    3
 10
1127.2716787953455
 20
771.95777540783524
 11
1132.1389328449245
 21
771.95777540783524
  0
LINE
  8
_0-1_計細線
  6
CONTINUOUS
 62
    3
 10
1127.0073513551633
 20
771.97531960647007
 11
1123.3889328449245
 21
772.45777540783581
  0
ARC
  8
_0-1_計細線
  6
CONTINUOUS
 62
    3
 10
1127.2716787953455
 20
773.95777540783524
 40
2
 50
262.40535663140565
 51
269.99999999999977
  0
LINE
  8
_0-1_計細線
  6
CONTINUOUS
 62
    3
 10
1122.1389328449254
 20
771.20777540783581
 11
1122.1389328449245
 21
629.70777556091548
  0
LINE
  8
_0-1_計細線
  6
CONTINUOUS
 62
    3
 10
1132.1389328449245
 20
628.95777556091593
 11
1132.1389328449245
 21
771.95777540783524
  0
ARC
  8
_0-1_計細線
  6
CONTINUOUS
 62
    3
 10
1123.3889328449245
 20
629.70777556091548
 40
1.25
 50
179.99999999999983
 51
269.99999999999977
  0
LINE
  8
_0-1_計細線
  6
CONTINUOUS
 62
    3
 10
1127.2716787953455
 20
628.95777556091593
 11
1132.1389328449245
 21
628.95777556091593
  0
LINE
  8
_0-1_計細線
  6
CONTINUOUS
 62
    3
 10
1127.0073513551633
 20
628.94023136228111
 11
1123.3889328449245
 21
628.45777556091548
  0
ARC
  8
_0-1_計細線
  6
CONTINUOUS
 62
    3
 10
1127.2716787953455
 20
626.95777556091593
 40
2
 50
89.999999999999915
 51
97.594643368594035
  0
LINE
  8
_0-1_計細線
  6
CONTINUOUS
 62
    3
 10
1158.6389328449245
 20
770.95777540783524
 11
1158.6389328449245
 21
629.95777556091616
  0
LINE
  8
_0-1_計細線
  6
CONTINUOUS
 62
    3
 10
1158.6389328449245
 20
770.95777540783524
 11
1132.1389328449245
 21
770.95777540783524
  0
LINE
  8
_0-1_計細線
  6
CONTINUOUS
 62
    3
 10
1158.6389328449245
 20
629.95777556091593
 11
1132.1389328449245
 21
629.95777556091593
  0
LINE
  8
_0-0_計極細
  6
CONTINUOUS
 62
    2
 10
1148.6388520249261
 20
770.9577754078357
 11
1148.6388520249261
 21
772.15777540783506
  0
LINE
  8
_0-0_計極細
  6
CONTINUOUS
 62
    2
 10
1158.6389328449245
 20
770.9577754078357
 11
1158.6389328449245
 21
772.15777540783506
  0
LINE
  8
_0-0_計極細
  6
CONTINUOUS
 62
    2
 10
1160.6389328449245
 20
770.95777540783524
 11
1160.6389328449245
 21
772.15777540783506
  0
LINE
  8
_0-0_計極細
  6
CONTINUOUS
 62
    2
 10
1162.6389328449245
 20
770.95777540783524
 11
1162.6389328449245
 21
772.15777540783506
  0
LINE
  8
_0-0_計極細
  6
CONTINUOUS
 62
    2
 10
1164.6389328449245
 20
770.95777540783524
 11
1164.6389328449245
 21
772.15777540783506
  0
LINE
  8
_0-0_計極細
  6
CONTINUOUS
 62
    2
 10
1178.6389328449245
 20
770.95777540783524
 11
1178.6389328449245
 21
772.15777540783506
  0
LINE
  8
_0-1_計細線
  6
CONTINUOUS
 62
    3
 10
1146.6388520249261
 20
772.15777540783506
 11
1181.6389328449245
 21
772.15777540783506
  0
LINE
  8
_0-1_計細線
  6
CONTINUOUS
 62
    3
 10
1181.6389328449245
 20
772.15777540783506
 11
1181.6389328449245
 21
770.95777540783524
  0
LINE
  8
_0-1_計細線
  6
CONTINUOUS
 62
    3
 10
1146.6388520249261
 20
770.9577754078357
 11
1146.6388520249261
 21
772.15777540783506
  0
LINE
  8
_0-1_計細線
  6
CONTINUOUS
 62
    3
 10
1181.6389328449245
 20
770.95777540783524
 11
1146.6388520249261
 21
770.95777540783524
  0
LINE
  8
_0-0_計極細
  6
CONTINUOUS
 62
    2
 10
1148.6388520249261
 20
628.75777556091657
 11
1148.6388520249261
 21
629.95777556091616
  0
LINE
  8
_0-0_計極細
  6
CONTINUOUS
 62
    2
 10
1158.6389328449245
 20
628.75777556091657
 11
1158.6389328449245
 21
629.95777556091616
  0
LINE
  8
_0-0_計極細
  6
CONTINUOUS
 62
    2
 10
1160.6389328449245
 20
628.75777556091634
 11
1160.6389328449245
 21
629.95777556091616
  0
LINE
  8
_0-0_計極細
  6
CONTINUOUS
 62
    2
 10
1162.6389328449245
 20
628.75777556091634
 11
1162.6389328449245
 21
629.95777556091616
  0
LINE
  8
_0-0_計極細
  6
CONTINUOUS
 62
    2
 10
1164.6389328449245
 20
628.75777556091634
 11
1164.6389328449245
 21
629.95777556091616
  0
LINE
  8
_0-0_計極細
  6
CONTINUOUS
 62
    2
 10
1178.6389328449245
 20
628.75777556091634
 11
1178.6389328449245
 21
629.95777556091593
  0
LINE
  8
_0-1_計細線
  6
CONTINUOUS
 62
    3
 10
1146.6388520249261
 20
629.95777556091616
 11
1181.6389328449245
 21
629.95777556091593
  0
LINE
  8
_0-1_計細線
  6
CONTINUOUS
 62
    3
 10
1181.6389328449245
 20
629.95777556091593
 11
1181.6389328449245
 21
628.75777556091634
  0
LINE
  8
_0-1_計細線
  6
CONTINUOUS
 62
    3
 10
1146.6388520249261
 20
628.75777556091657
 11
1146.6388520249261
 21
629.95777556091616
  0
LINE
  8
_0-1_計細線
  6
CONTINUOUS
 62
    3
 10
1181.6389328449245
 20
628.75777556091634
 11
1146.6388520249261
 21
628.75777556091634
  0
LINE
  8
_0-5_寸法線
  6
CONTINUOUS
 62
    7
 10
1122.1389328449245
 20
782.45777548437559
 11
1122.1389328449245
 21
827.45777548437559
  0
LINE
  8
_0-5_寸法線
  6
CONTINUOUS
 62
    7
 10
1122.1389328449245
 20
822.45777548437559
 11
1112.479674582034
 21
819.8695850333504
  0
LINE
  8
_0-5_寸法線
  6
CONTINUOUS
 62
    7
 10
1122.1389328449245
 20
822.45777548437559
 11
1112.479674582034
 21
825.04596593540089
  0
LINE
  8
_0-5_寸法線
  6
CONTINUOUS
 62
    7
 10
1158.6389328449245
 20
779.95777548437559
 11
1158.6389328449245
 21
827.45777548437559
  0
CIRCLE
  8
_0-5_寸法線
  6
CONTINUOUS
 62
    1
 10
1158.6389328449245
 20
822.45777548437559
 40
1.5000000000000002
  0
LINE
  8
_0-5_寸法線
  6
CONTINUOUS
 62
    7
 10
1082.1389328449245
 20
822.45777548437559
 11
1158.6389328449245
 21
822.45777548437559
  0
TEXT
  8
_0-5_寸法線
 62
    7
 10
1082.5852633392642
 20
822.45777548437559
 40
15
 41
1
 50
0
  1
36.5
  0
LINE
  8
_0-5_寸法線
  6
CONTINUOUS
 62
    7
 10
1181.6389328449245
 20
781.15777548437518
 11
1181.6389328449245
 21
827.45777548437559
  0
LINE
  8
_0-5_寸法線
  6
CONTINUOUS
 62
    7
 10
1181.6389328449245
 20
822.45777548437559
 11
1191.2981911078152
 21
825.04596593540089
  0
LINE
  8
_0-5_寸法線
  6
CONTINUOUS
 62
    7
 10
1181.6389328449245
 20
822.45777548437559
 11
1191.2981911078152
 21
819.86958503335029
  0
LINE
  8
_0-5_寸法線
  6
CONTINUOUS
 62
    7
 10
1158.6389328449245
 20
822.45777548437559
 11
1207.3828309134369
 21
822.45777548437559
  0
TEXT
  8
_0-5_寸法線
 62
    7
 10
1192.3828309134369
 20
822.45777548437559
 40
15
 41
1
 50
0
  1
23
  0
LINE
  8
_0-5_寸法線
  6
CONTINUOUS
 62
    7
 10
1122.1389328449245
 20
782.45777548437559
 11
1122.1389328449245
 21
862.45777548437559
  0
LINE
  8
_0-5_寸法線
  6
CONTINUOUS
 62
    7
 10
1122.1389328449245
 20
857.45777548437559
 11
1131.7981911078152
 21
860.04596593540089
  0
LINE
  8
_0-5_寸法線
  6
CONTINUOUS
 62
    7
 10
1122.1389328449245
 20
857.45777548437559
 11
1131.7981911078152
 21
854.8695850333504
  0
LINE
  8
_0-5_寸法線
  6
CONTINUOUS
 62
    7
 10
1181.6389328449245
 20
781.15777548437518
 11
1181.6389328449245
 21
862.45777548437559
  0
LINE
  8
_0-5_寸法線
  6
CONTINUOUS
 62
    7
 10
1181.6389328449245
 20
857.45777548437559
 11
1171.9796745820338
 21
854.8695850333504
  0
LINE
  8
_0-5_寸法線
  6
CONTINUOUS
 62
    7
 10
1181.6389328449245
 20
857.45777548437559
 11
1171.9796745820338
 21
860.04596593540089
  0
LINE
  8
_0-5_寸法線
  6
CONTINUOUS
 62
    7
 10
1122.1389328449245
 20
857.45777548437559
 11
1181.6389328449245
 21
857.45777548437559
  0
TEXT
  8
_0-5_寸法線
 62
    7
 10
1136.8889328449245
 20
857.45777548437547
 40
15
 41
1
 50
0
  1
59.5
  0
LINE
  8
_0-0_計極細
  6
CENTER2
 62
    2
 10
1110.7121978559298
 20
700.45777548437559
 11
1175.4499439254228
 21
700.45777548437559
  0
ARC
  8
_0-1_計細線
  6
DASHED2
 62
    3
 10
804.15300905952552
 20
700.45777548437559
 40
12.5
 50
53.13010235415598
 51
216.86989764584365
  0
ARC
  8
_0-1_計細線
  6
DASHED2
 62
    3
 10
804.15300905952552
 20
700.45777548437559
 40
12.5
 50
216.86989764584365
 51
53.130102354155625
  0
ARC
  8
_0-1_計細線
  6
DASHED2
 62
    3
 10
627.1530090595254
 20
700.45777548437559
 40
12.5
 50
53.13010235415598
 51
216.86989764584365
  0
ARC
  8
_0-1_計細線
  6
DASHED2
 62
    3
 10
627.1530090595254
 20
700.45777548437559
 40
12.5
 50
216.86989764584365
 51
53.130102354155625
  0
ARC
  8
_0-0_計極細
  6
CONTINUOUS
 62
    2
 10
601.03197392875643
 20
729.46421057880616
 40
54.312365187078854
 50
327.72737804884275
 51
41.725734002915807
  0
ARC
  8
_0-0_計極細
  6
CONTINUOUS
 62
    2
 10
738.97502113016901
 20
729.46421057880616
 40
54.312365187078854
 50
327.72737804884275
 51
41.717250014225037
  0
ARC
  8
_0-0_計極細
  6
CONTINUOUS
 62
    2
 10
830.81908489522107
 20
671.46421057898237
 40
54.312365187078854
 50
147.72737804884292
 51
222.99973043384148
  0
ARC
  8
_0-0_計極細
  6
CONTINUOUS
 62
    2
 10
692.87603769380837
 20
671.46421057898237
 40
54.312365187078854
 50
147.72737804884292
 51
222.98978477068854
  0
ARC
  8
_0-1_計細線
  6
CONTINUOUS
 62
    3
 10
715.65509311165829
 20
700.46421057889108
 40
130.00993494017567
 50
213.85594318650894
 51
269.99999999999977
  0
ARC
  8
_0-1_計細線
  6
CONTINUOUS
 62
    3
 10
715.65509311165829
 20
700.46421057889108
 40
128.00274871882576
 50
214.46082340704581
 51
269.99999999999977
  0
ARC
  8
_0-5_寸法線
  6
CONTINUOUS
 62
    7
 10
715.65509311165829
 20
700.46421057889108
 40
122.98746950120837
 50
216.08019083641216
 51
269.99999999999977
  0
ARC
  8
_0-5_寸法線
  6
CONTINUOUS
 62
    7
 10
715.65509311165829
 20
700.46421057889108
 40
82.848314867910403
 50
60.340375075469723
 51
119.65962492453028
  0
ARC
  8
_0-5_寸法線
  6
CONTINUOUS
 62
    7
 10
715.65509311165829
 20
700.46421057889108
 40
91.87962161535053
 50
51.58806127283799
 51
128.41193872716204
  0
ARC
  8
_0-5_寸法線
  6
CONTINUOUS
 62
    7
 10
715.65509311165829
 20
700.46421057889108
 40
93.886577118409832
 50
50.068666577979521
 51
129.93133342202049
  0
ARC
  8
_0-1_計細線
  6
CONTINUOUS
 62
    3
 10
715.65509311165829
 20
700.46421057889108
 40
102.91892074906787
 50
44.388289219312384
 51
135.61171078068762
  0
ARC
  8
_0-5_寸法線
  6
CONTINUOUS
 62
    7
 10
715.65509311165829
 20
700.46421057889108
 40
82.848314867910403
 50
240.35836681659507
 51
299.6416331834032
  0
ARC
  8
_0-5_寸法線
  6
CONTINUOUS
 62
    7
 10
715.65509311165829
 20
700.46421057889108
 40
91.87962161535053
 50
231.60098063373195
 51
308.39901936626626
  0
ARC
  8
_0-5_寸法線
  6
CONTINUOUS
 62
    7
 10
715.65509311165829
 20
700.46421057889108
 40
93.886577118409832
 50
230.08090465031825
 51
309.92081161653732
  0
ARC
  8
_0-1_計細線
  6
CONTINUOUS
 62
    3
 10
715.65509311165829
 20
700.46421057889108
 40
102.91892074906787
 50
224.39831635755596
 51
315.60168364244225
  0
ARC
  8
_0-5_寸法線
  6
CONTINUOUS
 62
    7
 10
715.65509311165829
 20
700.46421057889108
 40
122.98746950120837
 50
269.99999999999977
 51
324.16324727192887
  0
ARC
  8
_0-1_計細線
  6
CONTINUOUS
 62
    3
 10
715.65509311165829
 20
700.46421057889108
 40
128.00274871882576
 50
269.99999999999977
 51
325.76848684343958
  0
ARC
  8
_0-1_計細線
  6
CONTINUOUS
 62
    3
 10
715.65509311165829
 20
700.46421057889108
 40
130.00993494017567
 50
269.99999999999977
 51
326.36822889290448
  0
ARC
  8
_0-5_寸法線
  6
CONTINUOUS
 62
    7
 10
715.65509311165829
 20
700.46421057889108
 40
122.98746950120837
 50
35.82935714400594
 51
89.999999999999915
  0
ARC
  8
_0-1_計細線
  6
CONTINUOUS
 62
    3
 10
715.65509311165829
 20
700.46421057889108
 40
130.00993494017567
 50
33.624959179783069
 51
89.999999999999915
  0
ARC
  8
_0-1_計細線
  6
CONTINUOUS
 62
    3
 10
715.65509311165829
 20
700.46421057889108
 40
128.00274871882576
 50
34.224545529377743
 51
89.999999999999915
  0
ARC
  8
_0-1_計細線
  6
CONTINUOUS
 62
    3
 10
715.65509311165829
 20
700.46421057889108
 40
130.00993494017567
 50
89.999999999999915
 51
146.37504082021692
  0
ARC
  8
_0-1_計細線
  6
CONTINUOUS
 62
    3
 10
715.65509311165829
 20
700.46421057889108
 40
128.00274871882576
 50
89.999999999999915
 51
145.77545447062226
  0
ARC
  8
_0-5_寸法線
  6
CONTINUOUS
 62
    7
 10
715.65509311165829
 20
700.46421057889108
 40
122.98746950120837
 50
89.999999999999915
 51
144.17064285599406
  0
ARC
  8
_0-1_計細線
  6
CONTINUOUS
 62
    3
 10
715.65509311165829
 20
700.46421057889108
 40
130.00993494017567
 50
213.63177110709375
 51
213.85594318650894
  0
ARC
  8
_0-1_計細線
  6
CONTINUOUS
 62
    3
 10
715.65509311165829
 20
700.46421057889108
 40
128.00274871882576
 50
214.23151315655866
 51
214.46082340704581
  0
ARC
  8
_0-5_寸法線
  6
CONTINUOUS
 62
    7
 10
715.65509311165829
 20
700.46421057889108
 40
122.98746950120837
 50
215.83675272806937
 51
216.08019083641216
  0
LINE
  8
_0-5_寸法線
  6
CONTINUOUS
 62
    7
 10
418.65300905952546
 20
782.45777548437559
 11
418.65300905952546
 21
932.45777548437559
  0
LINE
  8
_0-5_寸法線
  6
CONTINUOUS
 62
    7
 10
418.65300905952546
 20
927.45777548437559
 11
428.31226732241612
 21
930.04596593540089
  0
LINE
  8
_0-5_寸法線
  6
CONTINUOUS
 62
    7
 10
418.65300905952546
 20
927.45777548437559
 11
428.31226732241612
 21
924.8695850333504
  0
LINE
  8
_0-5_寸法線
  6
CONTINUOUS
 62
    7
 10
1012.6530090595254
 20
782.45777548437559
 11
1012.6530090595254
 21
932.45777548437559
  0
LINE
  8
_0-5_寸法線
  6
CONTINUOUS
 62
    7
 10
1012.6530090595254
 20
927.45777548437559
 11
1002.9937507966348
 21
924.8695850333504
  0
LINE
  8
_0-5_寸法線
  6
CONTINUOUS
 62
    7
 10
1012.6530090595254
 20
927.45777548437559
 11
1002.9937507966348
 21
930.04596593540089
  0
LINE
  8
_0-5_寸法線
  6
CONTINUOUS
 62
    7
 10
418.65300905952546
 20
927.45777548437559
 11
1012.6530090595254
 21
927.45777548437559
  0
TEXT
  8
_0-5_寸法線
 62
    7
 10
704.4030090595254
 20
927.45777548437559
 40
15
 41
1
 50
0
  1
594
  0
LINE
  8
_0-5_寸法線
  6
CONTINUOUS
 62
    7
 10
1012.6530090595256
 20
782.45777548437559
 11
1012.6530090595264
 21
897.45777548437559
  0
LINE
  8
_0-5_寸法線
  6
CONTINUOUS
 62
    7
 10
1012.6530090595264
 20
892.45777548437559
 11
1022.312267322417
 21
895.04596593540089
  0
LINE
  8
_0-5_寸法線
  6
CONTINUOUS
 62
    7
 10
1012.6530090595264
 20
892.45777548437559
 11
1022.312267322417
 21
889.86958503335029
  0
LINE
  8
_0-5_寸法線
  6
CONTINUOUS
 62
    7
 10
1010.1530090595257
 20
782.45777548437559
 11
1010.1530090595279
 21
897.45777548437559
  0
LINE
  8
_0-5_寸法線
  6
CONTINUOUS
 62
    7
 10
1052.6530090595265
 20
892.45777548437559
 11
1010.1530090595277
 21
892.45777548437559
  0
TEXT
  8
_0-5_寸法線
 62
    7
 10
1028.9819589890387
 20
892.45777548437513
 40
15
 41
1
 50
0
  1
2.5
  0
LINE
  8
_0-5_寸法線
  6
CONTINUOUS
 62
    7
 10
1010.1530090595277
 20
892.45777548437559
 11
1000.4937507966371
 21
889.8695850333504
  0
LINE
  8
_0-5_寸法線
  6
CONTINUOUS
 62
    7
 10
1010.1530090595277
 20
892.45777548437559
 11
1000.4937507966371
 21
895.04596593540089
  0
LINE
  8
_0-5_寸法線
  6
CONTINUOUS
 62
    7
 10
421.15300905952557
 20
782.45777548437559
 11
421.15300905952779
 21
897.45777548437559
  0
LINE
  8
_0-5_寸法線
  6
CONTINUOUS
 62
    7
 10
421.15300905952773
 20
892.45777548437559
 11
430.81226732241839
 21
895.04596593540089
  0
LINE
  8
_0-5_寸法線
  6
CONTINUOUS
 62
    7
 10
421.15300905952773
 20
892.45777548437559
 11
430.81226732241839
 21
889.8695850333504
  0
LINE
  8
_0-5_寸法線
  6
CONTINUOUS
 62
    7
 10
1010.1530090595277
 20
892.45777548437559
 11
421.15300905952773
 21
892.45777548437559
  0
TEXT
  8
_0-5_寸法線
 62
    7
 10
704.40300905952722
 20
892.45777548437513
 40
15
 41
1
 50
0
  1
589
  0
LINE
  8
_0-5_寸法線
  6
CONTINUOUS
 62
    7
 10
418.65300905952552
 20
782.45777548437559
 11
418.65300905952688
 21
897.45777548437559
  0
LINE
  8
_0-5_寸法線
  6
CONTINUOUS
 62
    7
 10
418.65300905952677
 20
892.45777548437559
 11
408.99375079663605
 21
889.8695850333504
  0
LINE
  8
_0-5_寸法線
  6
CONTINUOUS
 62
    7
 10
418.65300905952677
 20
892.45777548437559
 11
408.99375079663616
 21
895.04596593540089
  0
LINE
  8
_0-5_寸法線
  6
CONTINUOUS
 62
    7
 10
421.15300905952773
 20
892.45777548437559
 11
378.65300905952677
 21
892.45777548437559
  0
TEXT
  8
_0-5_寸法線
 62
    7
 10
381.37222777547299
 20
892.45777548437559
 40
15
 41
1
 50
0
  1
2.5
  0
LINE
  8
_0-5_寸法線
  6
CONTINUOUS
 62
    7
 10
427.15300905952512
 20
782.45777548437559
 11
427.15300905952517
 21
862.45777548437559
  0
LINE
  8
_0-5_寸法線
  6
CONTINUOUS
 62
    7
 10
427.15300905952517
 20
857.45777548437559
 11
436.81226732241583
 21
860.04596593540089
  0
LINE
  8
_0-5_寸法線
  6
CONTINUOUS
 62
    7
 10
427.15300905952517
 20
857.45777548437559
 11
436.81226732241583
 21
854.8695850333504
  0
LINE
  8
_0-5_寸法線
  6
CONTINUOUS
 62
    7
 10
1004.1530090595261
 20
782.45777548437559
 11
1004.1530090595262
 21
862.45777548437559
  0
LINE
  8
_0-5_寸法線
  6
CONTINUOUS
 62
    7
 10
1004.1530090595262
 20
857.45777548437559
 11
994.4937507966356
 21
854.8695850333504
  0
LINE
  8
_0-5_寸法線
  6
CONTINUOUS
 62
    7
 10
1004.1530090595262
 20
857.45777548437559
 11
994.4937507966356
 21
860.04596593540089
  0
LINE
  8
_0-5_寸法線
  6
CONTINUOUS
 62
    7
 10
427.15300905952517
 20
857.45777548437559
 11
1004.1530090595262
 21
857.45777548437559
  0
TEXT
  8
_0-5_寸法線
 62
    7
 10
704.40300905952563
 20
857.45777548437559
 40
15
 41
1
 50
0
  1
577
  0
LINE
  8
_0-5_寸法線
  6
CONTINUOUS
 62
    7
 10
418.65300905952546
 20
618.45777548437559
 11
418.65300905952546
 21
538.45777548437559
  0
LINE
  8
_0-5_寸法線
  6
CONTINUOUS
 62
    7
 10
418.65300905952546
 20
543.45777548437559
 11
428.31226732241612
 21
546.04596593540077
  0
LINE
  8
_0-5_寸法線
  6
CONTINUOUS
 62
    7
 10
418.65300905952546
 20
543.45777548437559
 11
428.31226732241612
 21
540.8695850333504
  0
LINE
  8
_0-5_寸法線
  6
CONTINUOUS
 62
    7
 10
715.6530090595254
 20
618.45777548437559
 11
715.6530090595254
 21
538.45777548437559
  0
LINE
  8
_0-5_寸法線
  6
CONTINUOUS
 62
    7
 10
715.6530090595254
 20
543.45777548437559
 11
705.99375079663469
 21
540.8695850333504
  0
LINE
  8
_0-5_寸法線
  6
CONTINUOUS
 62
    7
 10
715.6530090595254
 20
543.45777548437559
 11
705.99375079663469
 21
546.04596593540077
  0
LINE
  8
_0-5_寸法線
  6
CONTINUOUS
 62
    7
 10
418.65300905952546
 20
543.45777548437559
 11
715.6530090595254
 21
543.45777548437559
  0
TEXT
  8
_0-5_寸法線
 62
    7
 10
555.9030090595254
 20
543.45777548437559
 40
15
 41
1
 50
0
  1
297
  0
LINE
  8
_0-5_寸法線
  6
CONTINUOUS
 62
    7
 10
715.6530090595254
 20
543.45777548437559
 11
725.31226732241623
 21
546.04596593540077
  0
LINE
  8
_0-5_寸法線
  6
CONTINUOUS
 62
    7
 10
715.6530090595254
 20
543.45777548437559
 11
725.31226732241623
 21
540.86958503335029
  0
LINE
  8
_0-5_寸法線
  6
CONTINUOUS
 62
    7
 10
1012.6530090595254
 20
618.45777548437559
 11
1012.6530090595254
 21
538.45777548437559
  0
LINE
  8
_0-5_寸法線
  6
CONTINUOUS
 62
    7
 10
1012.6530090595254
 20
543.45777548437559
 11
1002.9937507966348
 21
540.8695850333504
  0
LINE
  8
_0-5_寸法線
  6
CONTINUOUS
 62
    7
 10
1012.6530090595254
 20
543.45777548437559
 11
1002.9937507966348
 21
546.04596593540077
  0
LINE
  8
_0-5_寸法線
  6
CONTINUOUS
 62
    7
 10
715.6530090595254
 20
543.45777548437559
 11
1012.6530090595254
 21
543.45777548437559
  0
TEXT
  8
_0-5_寸法線
 62
    7
 10
852.90300905952552
 20
543.45777548437559
 40
15
 41
1
 50
0
  1
297
  0
LINE
  8
_0-5_寸法線
  6
CONTINUOUS
 62
    7
 10
532.43377295923676
 20
629.72990700110881
 11
537.43377297660902
 21
621.0696529732943
  0
LINE
  8
_0-5_寸法線
  6
CONTINUOUS
 62
    7
 10
532.43377295923676
 20
629.72990700110881
 11
532.43377297929658
 21
619.72990700110881
  0
LINE
  8
_0-5_寸法線
  6
CONTINUOUS
 62
    7
 10
532.43377295923676
 20
629.72990700110881
 11
539.6834341047612
 21
602.67380348544975
  0
LINE
  8
_0-5_寸法線
  6
CONTINUOUS
 62
    7
 10
539.6834341047612
 20
602.67380348544975
 11
611.68343410476109
 21
602.67380348544975
  0
TEXT
  8
_0-5_寸法線
 62
    7
 10
539.6834341047612
 20
602.67380348544975
 40
15
 41
0.8000000000000001
 50
0
  1
排水ユニット
  0
LINE
  8
_0-5_寸法線
  6
CONTINUOUS
 62
    7
 10
462.37837780643451
 20
672.32893225059001
 11
467.33926038334715
 21
663.64621124516293
  0
LINE
  8
_0-5_寸法線
  6
CONTINUOUS
 62
    7
 10
462.37837780643451
 20
672.32893225059001
 11
462.33326764051895
 21
662.32903399746124
  0
LINE
  8
_0-5_寸法線
  6
CONTINUOUS
 62
    7
 10
462.37837780643451
 20
672.32893225059001
 11
480.70604137059524
 21
602.67380348544975
  0
LINE
  8
_0-5_寸法線
  6
CONTINUOUS
 62
    7
 10
480.70604137059524
 20
602.67380348544975
 11
516.70604137059536
 21
602.67380348544975
  0
TEXT
  8
_0-5_寸法線
 62
    7
 10
480.70604137059524
 20
602.67380348544975
 40
15
 41
0.8000000000000001
 50
0
  1
上フタ
  0
LINE
  8
_0-0_計極細
  6
CENTER2
 62
    2
 10
977.6530090595254
 20
424.9577754843753
 11
977.6530090595254
 21
375.83170077931646
  0
LINE
  8
_0-1_計細線
  6
DASHED2
 62
    3
 10
984.6530089064438
 20
417.9577754843757
 11
984.15300905952552
 21
418.45777533129416
  0
LINE
  8
_0-1_計細線
  6
DASHED2
 62
    3
 10
985.65300890644482
 20
416.95777548437525
 11
984.6530089064438
 21
417.9577754843757
  0
LINE
  8
_0-1_計細線
  6
DASHED2
 62
    3
 10
985.65300890644482
 20
412.95777624978098
 11
985.65300890644482
 21
416.95777548437525
  0
LINE
  8
_0-1_計細線
  6
DASHED2
 62
    3
 10
985.65300890644482
 20
406.95777548437525
 11
985.65300890644482
 21
412.95777624978098
  0
LINE
  8
_0-1_計細線
  6
DASHED2
 62
    3
 10
984.15300905952552
 20
418.45777533129416
 11
983.65300890644471
 21
418.9577754843753
  0
ARC
  8
_0-1_計細線
  6
DASHED2
 62
    3
 10
982.65300890644482
 20
386.95777548437525
 40
3.0000000000000004
 50
269.99999999999977
 51
359.99999999999966
  0
LINE
  8
_0-1_計細線
  6
DASHED2
 62
    3
 10
985.65300890644482
 20
400.95777548437525
 11
985.65300890644482
 21
386.95777548437525
  0
LINE
  8
_0-1_計細線
  6
DASHED2
 62
    3
 10
972.65300921260621
 20
383.9577754843753
 11
982.65300890644482
 21
383.9577754843753
  0
ARC
  8
_0-1_計細線
  6
DASHED2
 62
    3
 10
972.65300921260621
 20
386.95777548437525
 40
3.0000000000000004
 50
179.99999999999983
 51
269.99999999999977
  0
LINE
  8
_0-1_計細線
  6
DASHED2
 62
    3
 10
969.65300921260621
 20
400.95777548437525
 11
969.65300921260621
 21
386.95777548437525
  0
LINE
  8
_0-1_計細線
  6
DASHED2
 62
    3
 10
985.65300890644482
 20
406.95777548437525
 11
983.65300890644471
 21
404.9577754843753
  0
LINE
  8
_0-1_計細線
  6
DASHED2
 62
    3
 10
983.65300890644471
 20
404.9577754843753
 11
983.65300890644471
 21
402.95777548437525
  0
LINE
  8
_0-1_計細線
  6
DASHED2
 62
    3
 10
983.65300890644471
 20
402.95777548437525
 11
985.65300890644482
 21
400.95777548437525
  0
LINE
  8
_0-1_計細線
  6
DASHED2
 62
    3
 10
969.65300921260621
 20
406.95777548437525
 11
971.65300921260609
 21
404.9577754843753
  0
LINE
  8
_0-1_計細線
  6
DASHED2
 62
    3
 10
971.65300921260609
 20
404.9577754843753
 11
971.65300921260609
 21
402.95777548437525
  0
LINE
  8
_0-1_計細線
  6
DASHED2
 62
    3
 10
971.65300921260609
 20
402.95777548437525
 11
969.65300921260621
 21
400.95777548437525
  0
LINE
  8
_0-1_計細線
  6
DASHED2
 62
    3
 10
983.65300890644471
 20
418.9577754843753
 11
971.65300921260609
 21
418.9577754843753
  0
LINE
  8
_0-1_計細線
  6
DASHED2
 62
    3
 10
969.65300921260621
 20
406.95777548437525
 11
969.65300921260621
 21
416.95777548437525
  0
LINE
  8
_0-1_計細線
  6
DASHED2
 62
    3
 10
971.65300921260609
 20
418.9577754843753
 11
969.65300921260621
 21
416.95777548437525
  0
LINE
  8
_0-5_寸法線
  6
CONTINUOUS
 62
    7
 10
418.65300905952546
 20
453.4577754843757
 11
418.65300905952546
 21
498.4577754843757
  0
LINE
  8
_0-5_寸法線
  6
CONTINUOUS
 62
    7
 10
418.65300905952546
 20
493.4577754843757
 11
428.31226732241612
 21
496.04596593540089
  0
LINE
  8
_0-5_寸法線
  6
CONTINUOUS
 62
    7
 10
418.65300905952546
 20
493.4577754843757
 11
428.31226732241612
 21
490.86958503335046
  0
LINE
  8
_0-5_寸法線
  6
CONTINUOUS
 62
    7
 10
453.65300905952546
 20
453.4577754843757
 11
453.65300905952546
 21
498.45777548437547
  0
LINE
  8
_0-5_寸法線
  6
CONTINUOUS
 62
    7
 10
453.65300905952546
 20
493.45777548437547
 11
443.99375079663469
 21
490.86958503335029
  0
LINE
  8
_0-5_寸法線
  6
CONTINUOUS
 62
    7
 10
453.65300905952546
 20
493.45777548437547
 11
443.9937507966348
 21
496.04596593540066
  0
LINE
  8
_0-5_寸法線
  6
CONTINUOUS
 62
    7
 10
418.65300905952546
 20
493.4577754843757
 11
453.65300905952546
 21
493.45777548437547
  0
TEXT
  8
_0-5_寸法線
 62
    7
 10
428.65300905952546
 20
493.45777548437536
 40
15
 41
1
 50
0
  1
35
  0
LINE
  8
_0-5_寸法線
  6
CONTINUOUS
 62
    7
 10
453.65300905952546
 20
493.45777548437547
 11
463.31226732241618
 21
496.0459659354006
  0
LINE
  8
_0-5_寸法線
  6
CONTINUOUS
 62
    7
 10
453.65300905952546
 20
493.45777548437547
 11
463.31226732241612
 21
490.86958503335018
  0
LINE
  8
_0-5_寸法線
  6
CONTINUOUS
 62
    7
 10
977.6530090595254
 20
453.4577754843757
 11
977.6530090595254
 21
498.45777548437553
  0
LINE
  8
_0-5_寸法線
  6
CONTINUOUS
 62
    7
 10
977.6530090595254
 20
493.45777548437553
 11
967.9937507966348
 21
490.8695850333504
  0
LINE
  8
_0-5_寸法線
  6
CONTINUOUS
 62
    7
 10
977.6530090595254
 20
493.45777548437553
 11
967.9937507966348
 21
496.04596593540077
  0
LINE
  8
_0-5_寸法線
  6
CONTINUOUS
 62
    7
 10
453.65300905952546
 20
493.45777548437547
 11
977.6530090595254
 21
493.45777548437553
  0
TEXT
  8
_0-5_寸法線
 62
    7
 10
704.4030090595254
 20
493.45777548437536
 40
15
 41
1
 50
0
  1
524
  0
LINE
  8
_0-5_寸法線
  6
CONTINUOUS
 62
    7
 10
977.6530090595254
 20
493.45777548437553
 11
987.31226732241623
 21
496.04596593540066
  0
LINE
  8
_0-5_寸法線
  6
CONTINUOUS
 62
    7
 10
977.6530090595254
 20
493.45777548437553
 11
987.31226732241623
 21
490.86958503335035
  0
LINE
  8
_0-5_寸法線
  6
CONTINUOUS
 62
    7
 10
1012.6530090595254
 20
453.45777548437547
 11
1012.6530090595254
 21
498.45777548437553
  0
LINE
  8
_0-5_寸法線
  6
CONTINUOUS
 62
    7
 10
1012.6530090595254
 20
493.45777548437553
 11
1002.9937507966348
 21
490.8695850333504
  0
LINE
  8
_0-5_寸法線
  6
CONTINUOUS
 62
    7
 10
1012.6530090595254
 20
493.45777548437553
 11
1002.9937507966348
 21
496.04596593540077
  0
LINE
  8
_0-5_寸法線
  6
CONTINUOUS
 62
    7
 10
977.6530090595254
 20
493.45777548437553
 11
1012.6530090595254
 21
493.45777548437553
  0
TEXT
  8
_0-5_寸法線
 62
    7
 10
987.6530090595254
 20
493.45777548437536
 40
15
 41
1
 50
0
  1
35
  0
LINE
  8
_0-1_計細線
  6
CONTINUOUS
 62
    3
 10
984.15300905952552
 20
425.95777548437576
 11
1009.1530090595255
 21
425.95777548437576
  0
LINE
  8
_0-1_計細線
  6
CONTINUOUS
 62
    3
 10
984.15300905952552
 20
417.9577754843757
 11
984.15300905952552
 21
425.95777548437576
  0
LINE
  8
_0-1_計細線
  6
CONTINUOUS
 62
    3
 10
1009.1530090595255
 20
425.95777548437576
 11
1009.1530090595255
 21
417.9577754843757
  0
LINE
  8
_0-1_計細線
  6
CONTINUOUS
 62
    3
 10
984.15300905952552
 20
417.9577754843757
 11
1009.1530090595255
 21
417.9577754843757
  0
LINE
  8
_0-1_計細線
  6
CONTINUOUS
 62
    3
 10
986.33145551358052
 20
409.56554321409925
 11
984.6530090595254
 21
417.9577754843757
  0
ARC
  8
_0-1_計細線
  6
CONTINUOUS
 62
    3
 10
988.29261686496307
 20
409.9577754843757
 40
2
 50
191.30993247401983
 51
269.99999999999977
  0
LINE
  8
_0-1_計細線
  6
CONTINUOUS
 62
    3
 10
1008.6530090595255
 20
417.9577754843757
 11
1006.9745626054703
 21
409.56554321409925
  0
LINE
  8
_0-1_計細線
  6
CONTINUOUS
 62
    3
 10
1005.0134012540888
 20
407.9577754843757
 11
988.29261686496307
 21
407.9577754843757
  0
ARC
  8
_0-1_計細線
  6
CONTINUOUS
 62
    3
 10
1005.0134012540888
 20
409.9577754843757
 40
2
 50
269.99999999999977
 51
348.69006752597431
  0
LINE
  8
_0-1_計細線
  6
CONTINUOUS
 62
    3
 10
791.64973169819393
 20
425.95777548437576
 11
816.64973169819393
 21
425.95777548437576
  0
LINE
  8
_0-1_計細線
  6
CONTINUOUS
 62
    3
 10
791.64973169819393
 20
417.9577754843757
 11
791.64973169819393
 21
425.95777548437576
  0
LINE
  8
_0-1_計細線
  6
CONTINUOUS
 62
    3
 10
816.64973169819393
 20
425.95777548437576
 11
816.64973169819393
 21
417.9577754843757
  0
LINE
  8
_0-1_計細線
  6
CONTINUOUS
 62
    3
 10
791.64973169819393
 20
417.9577754843757
 11
816.64973169819393
 21
417.9577754843757
  0
LINE
  8
_0-1_計細線
  6
CONTINUOUS
 62
    3
 10
793.82817815224894
 20
409.56554321409925
 11
792.14973169819382
 21
417.9577754843757
  0
ARC
  8
_0-1_計細線
  6
CONTINUOUS
 62
    3
 10
795.78933950363148
 20
409.9577754843757
 40
2
 50
191.30993247401983
 51
269.99999999999977
  0
LINE
  8
_0-1_計細線
  6
CONTINUOUS
 62
    3
 10
816.14973169819393
 20
417.9577754843757
 11
814.4712852441387
 21
409.56554321409925
  0
LINE
  8
_0-1_計細線
  6
CONTINUOUS
 62
    3
 10
812.51012389275718
 20
407.9577754843757
 11
795.78933950363148
 21
407.9577754843757
  0
ARC
  8
_0-1_計細線
  6
CONTINUOUS
 62
    3
 10
812.51012389275718
 20
409.9577754843757
 40
2
 50
269.99999999999977
 51
348.69006752597431
  0
LINE
  8
_0-1_計細線
  6
CONTINUOUS
 62
    3
 10
447.15300905952546
 20
425.95777548437576
 11
422.15300905952546
 21
425.95777548437576
  0
LINE
  8
_0-1_計細線
  6
CONTINUOUS
 62
    3
 10
447.15300905952546
 20
417.9577754843757
 11
447.15300905952546
 21
425.95777548437576
  0
LINE
  8
_0-1_計細線
  6
CONTINUOUS
 62
    3
 10
422.15300905952546
 20
425.95777548437576
 11
422.15300905952546
 21
417.9577754843757
  0
LINE
  8
_0-1_計細線
  6
CONTINUOUS
 62
    3
 10
447.15300905952546
 20
417.9577754843757
 11
422.15300905952546
 21
417.9577754843757
  0
LINE
  8
_0-1_計細線
  6
CONTINUOUS
 62
    3
 10
444.97456260547034
 20
409.56554321409925
 11
446.6530090595254
 21
417.9577754843757
  0
ARC
  8
_0-1_計細線
  6
CONTINUOUS
 62
    3
 10
443.0134012540878
 20
409.9577754843757
 40
2
 50
269.99999999999977
 51
348.69006752597943
  0
LINE
  8
_0-1_計細線
  6
CONTINUOUS
 62
    3
 10
422.6530090595254
 20
417.9577754843757
 11
424.33145551358052
 21
409.56554321409925
  0
LINE
  8
_0-1_計細線
  6
CONTINUOUS
 62
    3
 10
426.29261686496221
 20
407.9577754843757
 11
443.0134012540878
 21
407.9577754843757
  0
ARC
  8
_0-1_計細線
  6
CONTINUOUS
 62
    3
 10
426.29261686496221
 20
409.9577754843757
 40
2
 50
191.30993247402495
 51
269.99999999999977
  0
LINE
  8
_0-1_計細線
  6
CONTINUOUS
 62
    3
 10
639.65628642085699
 20
425.95777548437576
 11
614.65628642085699
 21
425.95777548437576
  0
LINE
  8
_0-1_計細線
  6
CONTINUOUS
 62
    3
 10
639.65628642085699
 20
417.9577754843757
 11
639.65628642085699
 21
425.95777548437576
  0
LINE
  8
_0-1_計細線
  6
CONTINUOUS
 62
    3
 10
614.65628642085699
 20
425.95777548437576
 11
614.65628642085699
 21
417.9577754843757
  0
LINE
  8
_0-1_計細線
  6
CONTINUOUS
 62
    3
 10
639.65628642085699
 20
417.9577754843757
 11
614.65628642085699
 21
417.9577754843757
  0
LINE
  8
_0-1_計細線
  6
CONTINUOUS
 62
    3
 10
637.47783996680187
 20
409.56554321409925
 11
639.15628642085699
 21
417.9577754843757
  0
ARC
  8
_0-1_計細線
  6
CONTINUOUS
 62
    3
 10
635.51667861541932
 20
409.9577754843757
 40
2
 50
269.99999999999977
 51
348.69006752597943
  0
LINE
  8
_0-1_計細線
  6
CONTINUOUS
 62
    3
 10
615.15628642085699
 20
417.9577754843757
 11
616.83473287491211
 21
409.56554321409925
  0
LINE
  8
_0-1_計細線
  6
CONTINUOUS
 62
    3
 10
618.79589422629374
 20
407.9577754843757
 11
635.51667861541932
 21
407.9577754843757
  0
ARC
  8
_0-1_計細線
  6
CONTINUOUS
 62
    3
 10
618.79589422629374
 20
409.9577754843757
 40
2
 50
191.30993247402495
 51
269.99999999999977
  0
LINE
  8
_0-1_計細線
  6
CONTINUOUS
 62
    3
 10
1004.1530090595273
 20
425.95777548437576
 11
1004.1530090595273
 21
442.9577754843757
  0
LINE
  8
_0-1_計細線
  6
CONTINUOUS
 62
    3
 10
1002.1530090595273
 20
427.9577754843757
 11
1002.1530090595273
 21
442.9577754843757
  0
LINE
  8
_0-1_計細線
  6
CONTINUOUS
 62
    3
 10
1004.1530090595273
 20
425.95777548437576
 11
427.15300905952358
 21
425.95777548437576
  0
LINE
  8
_0-1_計細線
  6
CONTINUOUS
 62
    3
 10
1002.1530090595273
 20
427.9577754843757
 11
429.15300905952364
 21
427.9577754843757
  0
LINE
  8
_0-1_計細線
  6
CONTINUOUS
 62
    3
 10
429.15300905952364
 20
427.9577754843757
 11
429.15300905952364
 21
442.9577754843757
  0
LINE
  8
_0-1_計細線
  6
CONTINUOUS
 62
    3
 10
427.15300905952358
 20
425.95777548437576
 11
427.15300905952358
 21
442.9577754843757
  0
LINE
  8
_0-1_計細線
  6
CONTINUOUS
 62
    3
 10
1004.1530090595273
 20
442.9577754843757
 11
427.15300905952358
 21
442.9577754843757
  0
ARC
  8
_0-1_計細線
  6
CONTINUOUS
 62
    3
 10
775.1528828994999
 20
406.4577754843757
 40
1.5000000000000002
 50
89.999999999999915
 51
179.99999999999983
  0
LINE
  8
_0-1_計細線
  6
CONTINUOUS
 62
    3
 10
1010.1530090595254
 20
407.9577754843757
 11
775.1528828994999
 21
407.9577754843757
  0
LINE
  8
_0-1_計細線
  6
CONTINUOUS
 62
    3
 10
1011.1530090595255
 20
406.95777548437576
 11
775.1528828994999
 21
406.95777548437576
  0
LINE
  8
_0-1_計細線
  6
CONTINUOUS
 62
    3
 10
774.6528828994999
 20
405.45779220437942
 11
774.6528828994999
 21
406.4577754843757
  0
ARC
  8
_0-1_計細線
  6
CONTINUOUS
 62
    3
 10
775.1528828994999
 20
406.4577754843757
 40
0.5
 50
89.999999999999915
 51
179.99999999999983
  0
LINE
  8
_0-1_計細線
  6
CONTINUOUS
 62
    3
 10
774.6528828994999
 20
405.45779220437942
 11
774.6528828994999
 21
404.45777548437525
  0
ARC
  8
_0-1_計細線
  6
CONTINUOUS
 62
    3
 10
773.1528828994999
 20
404.45777548437525
 40
1.5000000000000002
 50
269.99999999999977
 51
359.99999999999966
  0
LINE
  8
_0-1_計細線
  6
CONTINUOUS
 62
    3
 10
773.6528828994982
 20
405.95775876437159
 11
773.6528828994982
 21
404.45777548437525
  0
ARC
  8
_0-1_計細線
  6
CONTINUOUS
 62
    3
 10
773.1528828994982
 20
404.45777548437525
 40
0.5
 50
269.99999999999977
 51
359.99999999999966
  0
LINE
  8
_0-1_計細線
  6
CONTINUOUS
 62
    3
 10
773.65288289950001
 20
406.4577754843757
 11
773.65288289950001
 21
405.95775876437159
  0
LINE
  8
_0-1_計細線
  6
CONTINUOUS
 62
    3
 10
773.0544529165179
 20
403.9577754843753
 11
773.1528828994999
 21
403.9577754843753
  0
LINE
  8
_0-1_計細線
  6
CONTINUOUS
 62
    3
 10
773.1528828994999
 20
402.95777548437525
 11
773.0544529165179
 21
402.95777548437525
  0
LINE
  8
_0-1_計細線
  6
CONTINUOUS
 62
    3
 10
773.0544529165179
 20
402.95777548437525
 11
772.55300905952504
 21
402.95777548437525
  0
LINE
  8
_0-1_計細線
  6
CONTINUOUS
 62
    3
 10
773.1528828994982
 20
403.9577754843753
 11
772.55300905952504
 21
403.9577754843753
  0
ARC
  8
_0-1_計細線
  6
CONTINUOUS
 62
    3
 10
656.1531352195509
 20
406.4577754843757
 40
1.5000000000000002
 50
0
 51
89.999999999999915
  0
LINE
  8
_0-1_計細線
  6
CONTINUOUS
 62
    3
 10
656.65313521955102
 20
405.45779220437942
 11
656.65313521955102
 21
406.4577754843757
  0
ARC
  8
_0-1_計細線
  6
CONTINUOUS
 62
    3
 10
656.1531352195509
 20
406.4577754843757
 40
0.5
 50
0
 51
89.999999999999915
  0
LINE
  8
_0-1_計細線
  6
CONTINUOUS
 62
    3
 10
656.65313521955102
 20
405.45779220437942
 11
656.65313521955102
 21
404.45777548437525
  0
ARC
  8
_0-1_計細線
  6
CONTINUOUS
 62
    3
 10
658.1531352195509
 20
404.45777548437525
 40
1.5000000000000002
 50
179.99999999999983
 51
269.99999999999977
  0
LINE
  8
_0-1_計細線
  6
CONTINUOUS
 62
    3
 10
657.65313521955272
 20
405.95775876437159
 11
657.65313521955272
 21
404.45777548437525
  0
ARC
  8
_0-1_計細線
  6
CONTINUOUS
 62
    3
 10
658.15313521955272
 20
404.45777548437525
 40
0.5
 50
179.99999999999983
 51
269.99999999999977
  0
LINE
  8
_0-1_計細線
  6
CONTINUOUS
 62
    3
 10
657.6531352195509
 20
406.4577754843757
 11
657.6531352195509
 21
405.95775876437159
  0
LINE
  8
_0-1_計細線
  6
CONTINUOUS
 62
    3
 10
658.2515652025329
 20
403.9577754843753
 11
658.1531352195509
 21
403.9577754843753
  0
LINE
  8
_0-1_計細線
  6
CONTINUOUS
 62
    3
 10
658.1531352195509
 20
402.95777548437525
 11
658.2515652025329
 21
402.95777548437525
  0
LINE
  8
_0-1_計細線
  6
CONTINUOUS
 62
    3
 10
658.2515652025329
 20
402.95777548437525
 11
658.75300905952588
 21
402.95777548437525
  0
LINE
  8
_0-1_計細線
  6
CONTINUOUS
 62
    3
 10
658.15313521955272
 20
403.9577754843753
 11
658.75300905952588
 21
403.9577754843753
  0
LINE
  8
_0-1_計細線
  6
CONTINUOUS
 62
    3
 10
421.15300905952546
 20
407.9577754843757
 11
656.1531352195509
 21
407.9577754843757
  0
LINE
  8
_0-1_計細線
  6
CONTINUOUS
 62
    3
 10
420.15300905952523
 20
406.95777548437576
 11
656.1531352195509
 21
406.95777548437576
  0
LINE
  8
_0-1_計細線
  6
CONTINUOUS
 62
    3
 10
1011.4030090595276
 20
443.4577754843757
 11
419.91407122206033
 21
443.4577754843757
  0
LINE
  8
_0-1_計細線
  6
CONTINUOUS
 62
    3
 10
419.1530090595254
 20
433.45777548437576
 11
420.15300905952523
 21
433.45777548437576
  0
ARC
  8
_0-1_計細線
  6
CONTINUOUS
 62
    3
 10
419.90300905952523
 20
442.20777548437576
 40
1.25
 50
0
 51
180.00000000002049
  0
ARC
  8
_0-1_計細線
  6
CONTINUOUS
 62
    3
 10
419.90300905952546
 20
442.20777548437576
 40
0.25
 50
0
 51
89.999999999999915
  0
LINE
  8
_0-1_計細線
  6
CONTINUOUS
 62
    3
 10
419.90300905952546
 20
442.4577754843757
 11
419.91407122206033
 21
442.4577754843757
  0
LINE
  8
_0-1_計細線
  6
CONTINUOUS
 62
    3
 10
420.15300905952523
 20
438.52414845958617
 11
419.6662642468894
 21
442.17473455435305
  0
ARC
  8
_0-1_計細線
  6
CONTINUOUS
 62
    3
 10
419.91407122206033
 20
442.20777548437576
 40
0.25
 50
89.999999999999915
 51
187.59464336857042
  0
LINE
  8
_0-1_計細線
  6
CONTINUOUS
 62
    3
 10
419.1530090595254
 20
438.32502953395476
 11
419.1530090595254
 21
433.45777548437576
  0
LINE
  8
_0-1_計細線
  6
CONTINUOUS
 62
    3
 10
419.13546486089041
 20
438.58935697413693
 11
418.65300905952495
 21
442.20777548437576
  0
ARC
  8
_0-1_計細線
  6
CONTINUOUS
 62
    3
 10
417.15300905952517
 20
438.32502953395476
 40
2
 50
0
 51
7.5946433685940278
  0
LINE
  8
_0-1_計細線
  6
CONTINUOUS
 62
    3
 10
421.15300905952546
 20
442.20777548437576
 11
421.15300905952546
 21
407.9577754843757
  0
LINE
  8
_0-1_計細線
  6
CONTINUOUS
 62
    3
 10
420.15300905952523
 20
442.20777548437576
 11
420.15300905952523
 21
406.95777548437576
  0
LINE
  8
_0-1_計細線
  6
CONTINUOUS
 62
    3
 10
1012.1530090595254
 20
433.45777548437576
 11
1011.1530090595256
 21
433.45777548437576
  0
LINE
  8
_0-1_計細線
  6
CONTINUOUS
 62
    3
 10
1010.1530090595254
 20
442.20777548437576
 11
1010.1530090595254
 21
407.9577754843757
  0
ARC
  8
_0-1_計細線
  6
CONTINUOUS
 62
    3
 10
1011.4030090595257
 20
442.20777548437576
 40
1.25
 50
359.9999999999788
 51
179.99999999999946
  0
LINE
  8
_0-1_計細線
  6
CONTINUOUS
 62
    3
 10
1011.1530090595256
 20
442.20777548437576
 11
1011.1530090595256
 21
406.95777548437576
  0
ARC
  8
_0-1_計細線
  6
CONTINUOUS
 62
    3
 10
1011.4030090595254
 20
442.20777548437576
 40
0.25
 50
89.999999999999915
 51
179.99999999999983
  0
LINE
  8
_0-1_計細線
  6
CONTINUOUS
 62
    3
 10
1011.4030090595254
 20
442.4577754843757
 11
1011.3919468969905
 21
442.4577754843757
  0
LINE
  8
_0-1_計細線
  6
CONTINUOUS
 62
    3
 10
1011.1530090595256
 20
438.52414845958617
 11
1011.6397538721616
 21
442.17473455435305
  0
ARC
  8
_0-1_計細線
  6
CONTINUOUS
 62
    3
 10
1011.3919468969905
 20
442.20777548437576
 40
0.25
 50
352.4053566314289
 51
89.999999999999545
  0
LINE
  8
_0-1_計細線
  6
CONTINUOUS
 62
    3
 10
1012.1530090595254
 20
438.32502953395476
 11
1012.1530090595254
 21
433.45777548437576
  0
LINE
  8
_0-1_計細線
  6
CONTINUOUS
 62
    3
 10
1012.1705532581605
 20
438.58935697413693
 11
1012.6530090595259
 21
442.20777548437576
  0
ARC
  8
_0-1_計細線
  6
CONTINUOUS
 62
    3
 10
1014.1530090595256
 20
438.32502953395476
 40
2
 50
172.40535663140597
 51
179.99999999999983
  0
LINE
  8
_0-0_計極細
  6
CENTER2
 62
    2
 10
453.65300905952546
 20
424.9577754843753
 11
453.65300905952546
 21
375.83170077931646
  0
ARC
  8
_0-1_計細線
  6
DASHED2
 62
    3
 10
458.65300890644477
 20
386.95777548437525
 40
3.0000000000000004
 50
269.99999999999977
 51
359.99999999999966
  0
LINE
  8
_0-1_計細線
  6
DASHED2
 62
    3
 10
461.65300890644471
 20
400.95777548437525
 11
461.65300890644471
 21
386.95777548437525
  0
LINE
  8
_0-1_計細線
  6
DASHED2
 62
    3
 10
448.65300921260609
 20
383.9577754843753
 11
458.65300890644477
 21
383.9577754843753
  0
ARC
  8
_0-1_計細線
  6
DASHED2
 62
    3
 10
448.65300921260609
 20
386.95777548437525
 40
3.0000000000000004
 50
179.99999999999983
 51
269.99999999999977
  0
LINE
  8
_0-1_計細線
  6
DASHED2
 62
    3
 10
445.65300921260615
 20
400.95777548437525
 11
445.65300921260615
 21
386.95777548437525
  0
LINE
  8
_0-1_計細線
  6
DASHED2
 62
    3
 10
461.65300890644471
 20
406.95777548437525
 11
459.65300890644471
 21
404.9577754843753
  0
LINE
  8
_0-1_計細線
  6
DASHED2
 62
    3
 10
459.65300890644471
 20
404.9577754843753
 11
459.65300890644471
 21
402.95777548437525
  0
LINE
  8
_0-1_計細線
  6
DASHED2
 62
    3
 10
459.65300890644471
 20
402.95777548437525
 11
461.65300890644471
 21
400.95777548437525
  0
LINE
  8
_0-1_計細線
  6
DASHED2
 62
    3
 10
445.65300921260615
 20
406.95777548437525
 11
447.65300921260609
 21
404.9577754843753
  0
LINE
  8
_0-1_計細線
  6
DASHED2
 62
    3
 10
447.65300921260609
 20
404.9577754843753
 11
447.65300921260609
 21
402.95777548437525
  0
LINE
  8
_0-1_計細線
  6
DASHED2
 62
    3
 10
447.65300921260609
 20
402.95777548437525
 11
445.65300921260615
 21
400.95777548437525
  0
LINE
  8
_0-1_計細線
  6
DASHED2
 62
    3
 10
461.65300890644471
 20
406.95777548437525
 11
461.65300890644471
 21
416.95777548437525
  0
LINE
  8
_0-1_計細線
  6
DASHED2
 62
    3
 10
461.65300890644471
 20
416.95777548437525
 11
459.65300890644471
 21
418.9577754843753
  0
LINE
  8
_0-1_計細線
  6
DASHED2
 62
    3
 10
459.65300890644471
 20
418.9577754843753
 11
447.65300921260609
 21
418.9577754843753
  0
LINE
  8
_0-1_計細線
  6
DASHED2
 62
    3
 10
445.65300921260615
 20
406.95777548437525
 11
445.65300921260615
 21
416.95777548437525
  0
LINE
  8
_0-1_計細線
  6
DASHED2
 62
    3
 10
447.65300921260609
 20
418.9577754843753
 11
445.65300921260615
 21
416.95777548437525
  0
LINE
  8
_0-1_計細線
  6
DASHED2
 62
    3
 10
424.15300905952427
 20
422.9577754843757
 11
424.15300905952427
 21
425.95777548437576
  0
LINE
  8
_0-1_計細線
  6
DASHED2
 62
    3
 10
427.15300905952358
 20
425.95777548437576
 11
427.15300905952358
 21
422.9577754843757
  0
LINE
  8
_0-1_計細線
  6
CONTINUOUS
 62
    3
 10
422.15300924845519
 20
422.9577754843757
 11
434.65300972529235
 21
422.9577754843757
  0
LINE
  8
_0-1_計細線
  6
CONTINUOUS
 62
    3
 10
434.65300972529235
 20
422.9577754843757
 11
434.65300905952432
 21
425.95777548437576
  0
LINE
  8
_0-1_計細線
  6
CONTINUOUS
 62
    3
 10
422.15300924845519
 20
422.9577754843757
 11
422.15300905952358
 21
425.95777548437576
  0
LINE
  8
_0-1_計細線
  6
CONTINUOUS
 62
    3
 10
422.15300905952358
 20
425.95777548437576
 11
434.65300905952432
 21
425.95777548437576
  0
LINE
  8
_0-5_寸法線
  6
CONTINUOUS
 62
    7
 10
585.34377824012176
 20
347.45777749206758
 11
585.34377824011733
 21
112.4577754843758
  0
LINE
  8
_0-5_寸法線
  6
CONTINUOUS
 62
    7
 10
585.34377824011744
 20
117.4577754843758
 11
595.00303650300816
 21
120.045965935401
  0
LINE
  8
_0-5_寸法線
  6
CONTINUOUS
 62
    7
 10
585.34377824011744
 20
117.4577754843758
 11
595.00303650300816
 21
114.8695850333506
  0
LINE
  8
_0-5_寸法線
  6
CONTINUOUS
 62
    7
 10
845.34377824012142
 20
347.45777749206758
 11
845.34377824011699
 21
112.4577754843758
  0
LINE
  8
_0-5_寸法線
  6
CONTINUOUS
 62
    7
 10
845.34377824011699
 20
117.4577754843758
 11
835.68451997722627
 21
114.86958503335067
  0
LINE
  8
_0-5_寸法線
  6
CONTINUOUS
 62
    7
 10
845.34377824011699
 20
117.4577754843758
 11
835.68451997722627
 21
120.04596593540107
  0
LINE
  8
_0-5_寸法線
  6
CONTINUOUS
 62
    7
 10
585.34377824011744
 20
117.4577754843758
 11
845.34377824011699
 21
117.4577754843758
  0
TEXT
  8
_0-5_寸法線
 62
    7
 10
696.59377824011744
 20
117.45777548437573
 40
15
 41
1
 50
0
  1
φ260
  0
LINE
  8
_0-5_寸法線
  6
CONTINUOUS
 62
    7
 10
676.34377824012108
 20
227.44542159434053
 11
676.34377824012063
 21
182.45777548437565
  0
LINE
  8
_0-5_寸法線
  6
CONTINUOUS
 62
    7
 10
676.34377824012063
 20
187.45777548437565
 11
686.00303650301146
 21
190.04596593540086
  0
LINE
  8
_0-5_寸法線
  6
CONTINUOUS
 62
    7
 10
676.34377824012063
 20
187.45777548437565
 11
686.00303650301146
 21
184.86958503335046
  0
LINE
  8
_0-5_寸法線
  6
CONTINUOUS
 62
    7
 10
754.34377824012108
 20
227.44542159434053
 11
754.34377824012063
 21
182.45777548437565
  0
LINE
  8
_0-5_寸法線
  6
CONTINUOUS
 62
    7
 10
754.34377824012063
 20
187.45777548437565
 11
744.68451997722991
 21
184.86958503335046
  0
LINE
  8
_0-5_寸法線
  6
CONTINUOUS
 62
    7
 10
754.34377824012063
 20
187.45777548437565
 11
744.68451997722991
 21
190.04596593540086
  0
LINE
  8
_0-5_寸法線
  6
CONTINUOUS
 62
    7
 10
676.34377824012063
 20
187.45777548437565
 11
754.34377824012063
 21
187.45777548437565
  0
TEXT
  8
_0-5_寸法線
 62
    7
 10
700.34377824012063
 20
187.45777548437565
 40
15
 41
1
 50
0
  1
φ78
  0
LINE
  8
_0-5_寸法線
  6
CONTINUOUS
 62
    7
 10
650.34377824012086
 20
261.62657182858032
 11
650.3437782401187
 21
147.45777548437553
  0
LINE
  8
_0-5_寸法線
  6
CONTINUOUS
 62
    7
 10
650.34377824011881
 20
152.45777548437553
 11
660.00303650300953
 21
155.04596593540072
  0
LINE
  8
_0-5_寸法線
  6
CONTINUOUS
 62
    7
 10
650.34377824011881
 20
152.45777548437553
 11
660.00303650300953
 21
149.86958503335032
  0
LINE
  8
_0-5_寸法線
  6
CONTINUOUS
 62
    7
 10
780.34377824012097
 20
261.62657182858032
 11
780.3437782401187
 21
147.45777548437553
  0
LINE
  8
_0-5_寸法線
  6
CONTINUOUS
 62
    7
 10
780.34377824011881
 20
152.45777548437553
 11
770.68451997722821
 21
149.86958503335032
  0
LINE
  8
_0-5_寸法線
  6
CONTINUOUS
 62
    7
 10
780.34377824011881
 20
152.45777548437553
 11
770.68451997722821
 21
155.04596593540077
  0
LINE
  8
_0-5_寸法線
  6
CONTINUOUS
 62
    7
 10
650.34377824011881
 20
152.45777548437553
 11
780.34377824011881
 21
152.45777548437553
  0
TEXT
  8
_0-5_寸法線
 62
    7
 10
696.59377824011881
 20
152.45777548437553
 40
15
 41
1
 50
0
  1
φ130
  0
TEXT
  8
_0-5_寸法線
 62
    7
 10
856.24380485850224
 20
211.02271700952312
 40
15
 41
0.8000000000000001
 50
0
  1
※（　）内はトラップ切断時
  0
LINE
  8
_0-5_寸法線
  6
CONTINUOUS
 62
    7
 10
762.48950198517377
 20
237.45777548437573
 11
935.64720262184994
 21
237.45777548437516
  0
LINE
  8
_0-5_寸法線
  6
CONTINUOUS
 62
    7
 10
930.64720262184994
 20
237.45777548437519
 11
928.05901217082464
 21
247.11703374726591
  0
LINE
  8
_0-5_寸法線
  6
CONTINUOUS
 62
    7
 10
930.64720262184994
 20
237.45777548437519
 11
933.23539307287501
 21
247.11703374726591
  0
LINE
  8
_0-5_寸法線
  6
CONTINUOUS
 62
    7
 10
853.35141530422061
 20
365.45777548437593
 11
935.64720262184994
 21
365.45777548437565
  0
LINE
  8
_0-5_寸法線
  6
CONTINUOUS
 62
    7
 10
930.64720262184994
 20
365.45777548437565
 11
933.23539307287501
 21
355.79851722148499
  0
LINE
  8
_0-5_寸法線
  6
CONTINUOUS
 62
    7
 10
930.64720262184994
 20
365.45777548437565
 11
928.05901217082464
 21
355.79851722148499
  0
LINE
  8
_0-5_寸法線
  6
CONTINUOUS
 62
    7
 10
930.64720262184994
 20
237.45777548437519
 11
930.64720262184994
 21
365.45777548437565
  0
TEXT
  8
_0-5_寸法線
 62
    7
 10
930.64720262184994
 20
290.20777548437542
 40
15
 41
1
 50
90
  1
128
  0
LINE
  8
_0-5_寸法線
  6
CONTINUOUS
 62
    7
 10
930.64720262184994
 20
365.45777548437565
 11
928.05901217082464
 21
375.1170337472663
  0
LINE
  8
_0-5_寸法線
  6
CONTINUOUS
 62
    7
 10
930.64720262184994
 20
365.45777548437565
 11
933.23539307287501
 21
375.1170337472663
  0
LINE
  8
_0-5_寸法線
  6
CONTINUOUS
 62
    7
 10
796.40300898298528
 20
443.45777548437559
 11
935.64720262184994
 21
443.45777548437525
  0
LINE
  8
_0-5_寸法線
  6
CONTINUOUS
 62
    7
 10
930.64720262184994
 20
443.45777548437525
 11
933.23539307287501
 21
433.79851722148453
  0
LINE
  8
_0-5_寸法線
  6
CONTINUOUS
 62
    7
 10
930.64720262184994
 20
443.45777548437525
 11
928.05901217082464
 21
433.79851722148459
  0
LINE
  8
_0-5_寸法線
  6
CONTINUOUS
 62
    7
 10
930.64720262184994
 20
365.45777548437565
 11
930.64720262184994
 21
443.45777548437525
  0
TEXT
  8
_0-5_寸法線
 62
    7
 10
930.64720262184983
 20
370.96637121668402
 40
15
 41
1
 50
89.999999999999815
  1
78(58)～128
  0
LINE
  8
_0-5_寸法線
  6
CONTINUOUS
 62
    7
 10
762.48950198517377
 20
237.45777548437573
 11
970.64720262184994
 21
237.45777548437505
  0
LINE
  8
_0-5_寸法線
  6
CONTINUOUS
 62
    7
 10
965.64720262184994
 20
237.45777548437508
 11
963.05901217082464
 21
247.11703374726579
  0
LINE
  8
_0-5_寸法線
  6
CONTINUOUS
 62
    7
 10
965.64720262184994
 20
237.45777548437508
 11
968.23539307287501
 21
247.11703374726579
  0
LINE
  8
_0-5_寸法線
  6
CONTINUOUS
 62
    7
 10
796.40300898298528
 20
443.45777548437559
 11
970.64720262184994
 21
443.45777548437513
  0
LINE
  8
_0-5_寸法線
  6
CONTINUOUS
 62
    7
 10
965.64720262184994
 20
443.45777548437513
 11
968.23539307287501
 21
433.79851722148436
  0
LINE
  8
_0-5_寸法線
  6
CONTINUOUS
 62
    7
 10
965.64720262184994
 20
443.45777548437513
 11
963.05901217082464
 21
433.79851722148442
  0
LINE
  8
_0-5_寸法線
  6
CONTINUOUS
 62
    7
 10
965.64720262184994
 20
237.45777548437508
 11
965.64720262184994
 21
443.45777548437513
  0
TEXT
  8
_0-5_寸法線
 62
    7
 10
965.64720262184983
 20
291.70777548437502
 40
15
 41
1
 50
89.999999999999844
  1
206(186)～256
  0
LINE
  8
_0-1_計細線
  6
CONTINUOUS
 62
    3
 10
768.65300890644448
 20
390.75779220437937
 11
772.55300890644423
 21
390.75779220437937
  0
LINE
  8
_0-1_計細線
  6
CONTINUOUS
 62
    3
 10
772.55300890644423
 20
390.75779220437937
 11
772.55300890644423
 21
391.31303320437939
  0
ARC
  8
_0-1_計細線
  6
CONTINUOUS
 62
    3
 10
771.15300890644448
 20
378.42766520437942
 40
5
 50
120.00000000000119
 51
179.99999999999983
  0
LINE
  8
_0-1_計細線
  6
CONTINUOUS
 62
    3
 10
768.65300890644448
 20
382.75779220437931
 11
768.65300890644448
 21
390.75779220437937
  0
LINE
  8
_0-1_計細線
  6
CONTINUOUS
 62
    3
 10
743.15300890644369
 20
266.45777548437565
 11
743.23634223977751
 21
271.45777548437565
  0
LINE
  8
_0-1_計細線
  6
CONTINUOUS
 62
    3
 10
715.65300890644369
 20
266.45777548437565
 11
740.20940990644431
 21
266.45777548437565
  0
ARC
  8
_0-1_計細線
  6
CONTINUOUS
 62
    3
 10
758.15300890644448
 20
304.45777548437565
 40
8
 50
269.99999999999312
 51
359.99999999999966
  0
LINE
  8
_0-1_計細線
  6
CONTINUOUS
 62
    3
 10
766.15300890644448
 20
304.45777548437565
 11
766.15300890644448
 21
378.42766520437942
  0
LINE
  8
_0-1_計細線
  6
CONTINUOUS
 62
    3
 10
756.75300890644439
 20
271.45777548437565
 11
757.15300890644403
 21
296.45777548437565
  0
LINE
  8
_0-1_計細線
  6
CONTINUOUS
 62
    3
 10
743.23634190644373
 20
271.45777548437565
 11
756.75300890644439
 21
271.45777548437565
  0
LINE
  8
_0-1_計細線
  6
CONTINUOUS
 62
    3
 10
740.20940990644431
 20
266.45777548437565
 11
743.15300890644369
 21
266.45777548437565
  0
LINE
  8
_0-1_計細線
  6
CONTINUOUS
 62
    3
 10
757.15300890644403
 20
296.45777548437565
 11
758.15300890644369
 21
296.45777548437565
  0
LINE
  8
_0-1_計細線
  6
CONTINUOUS
 62
    3
 10
772.55300890644423
 20
391.31303320437939
 11
772.55300890644423
 21
407.45777548437565
  0
LINE
  8
_0-0_計極細
  6
CONTINUOUS
 62
    2
 10
765.63200890644441
 20
404.6318143168354
 11
771.46314270682853
 21
404.6318143168354
  0
LINE
  8
_0-0_計極細
  6
CONTINUOUS
 62
    2
 10
766.1517217129649
 20
405.53181431683527
 11
772.55300890644423
 21
405.53181431683527
  0
LINE
  8
_0-0_計極細
  6
CONTINUOUS
 62
    2
 10
772.47061830542737
 20
406.4318143168353
 11
772.55300890644423
 21
406.4318143168353
  0
ARC
  8
_0-0_計極細
  6
CONTINUOUS
 62
    2
 10
748.65300890644448
 20
386.13988120437932
 40
6.0000000000000009
 50
55.166292356155324
 51
155.1130526829312
  0
ARC
  8
_0-0_計極細
  6
CONTINUOUS
 62
    2
 10
750.15300890644448
 20
388.76563520437941
 40
3.0000000000000004
 50
358.07490068720773
 51
50.02949941996107
  0
LINE
  8
_0-0_計極細
  6
CONTINUOUS
 62
    2
 10
743.21016945911754
 20
388.66485620437936
 11
753.1513156941428
 21
388.66485620437936
  0
ARC
  8
_0-0_計極細
  6
CONTINUOUS
 62
    2
 10
748.65300890644448
 20
386.13988120437932
 40
6.0000000000000009
 50
155.1130526829312
 51
179.99999999999983
  0
LINE
  8
_0-0_計極細
  6
CONTINUOUS
 62
    2
 10
755.36385701890094
 20
396.23181431683548
 11
759.00300890644405
 21
396.23181431683548
  0
LINE
  8
_0-0_計極細
  6
CONTINUOUS
 62
    2
 10
755.24216079398866
 20
397.73181431683554
 11
759.0887945664208
 21
397.73181431683554
  0
LINE
  8
_0-0_計極細
  6
CONTINUOUS
 62
    2
 10
742.65300890644414
 20
384.95779220437942
 11
765.63200890644441
 21
384.95779220437942
  0
LINE
  8
_0-0_計極細
  6
CONTINUOUS
 62
    2
 10
753.90300890644448
 20
379.75779220437937
 11
742.65300890644414
 21
379.75779220437937
  0
LINE
  8
_0-0_計極細
  6
CONTINUOUS
 62
    2
 10
765.63200890644441
 20
406.16485620437936
 11
772.55300890644423
 21
407.15061321904943
  0
LINE
  8
_0-0_計極細
  6
CONTINUOUS
 62
    2
 10
742.65300890644414
 20
384.66212820437937
 11
742.65300890644414
 21
386.13988120437932
  0
LINE
  8
_0-0_計極細
  6
CONTINUOUS
 62
    2
 10
742.65300890644414
 20
385.75779220437937
 11
764.15300890644448
 21
385.75779220437937
  0
LINE
  8
_0-0_計極細
  6
CONTINUOUS
 62
    2
 10
759.15300890644448
 20
399.26563520437946
 11
759.15300890644448
 21
400.16485620437936
  0
LINE
  8
_0-0_計極細
  6
CONTINUOUS
 62
    2
 10
759.15300890644448
 20
399.26563520437946
 11
715.65300890644448
 21
399.26563520437946
  0
LINE
  8
_0-0_計極細
  6
CONTINUOUS
 62
    2
 10
759.15300890644448
 20
394.66563520437933
 11
715.65300890644448
 21
394.66563520437933
  0
LINE
  8
_0-0_計極細
  6
CONTINUOUS
 62
    2
 10
759.15300890644448
 20
393.16563520437933
 11
759.15300890644448
 21
394.66563520437933
  0
LINE
  8
_0-0_計極細
  6
CONTINUOUS
 62
    2
 10
755.40300890644448
 20
397.5709662043792
 11
755.40300890644448
 21
396.27096620437925
  0
LINE
  8
_0-0_計極細
  6
CONTINUOUS
 62
    2
 10
755.40300890644448
 20
395.27096620437931
 11
755.40300890644448
 21
394.77096620437925
  0
LINE
  8
_0-0_計極細
  6
CONTINUOUS
 62
    2
 10
759.00300890644405
 20
397.5709662043792
 11
759.00300890644405
 21
394.77096620437925
  0
LINE
  8
_0-0_計極細
  6
CONTINUOUS
 62
    2
 10
715.65300890644448
 20
394.77096620437925
 11
759.00300890644405
 21
394.77096620437925
  0
LINE
  8
_0-0_計極細
  6
CONTINUOUS
 62
    2
 10
715.65300890644448
 20
395.77096620437931
 11
754.90300890644448
 21
395.77096620437931
  0
LINE
  8
_0-0_計極細
  6
CONTINUOUS
 62
    2
 10
715.65300890644448
 20
398.07096620437949
 11
754.90300890644448
 21
398.07096620437926
  0
LINE
  8
_0-0_計極細
  6
CONTINUOUS
 62
    2
 10
754.90300890644448
 20
398.07096620437926
 11
755.40300890644448
 21
398.5709662043792
  0
LINE
  8
_0-0_計極細
  6
CONTINUOUS
 62
    2
 10
755.40300890644448
 20
397.5709662043792
 11
754.90300890644448
 21
398.07096620437926
  0
LINE
  8
_0-0_計極細
  6
CONTINUOUS
 62
    2
 10
755.40300890644448
 20
395.27096620437931
 11
754.90300890644448
 21
395.77096620437931
  0
LINE
  8
_0-0_計極細
  6
CONTINUOUS
 62
    2
 10
754.90300890644448
 20
395.77096620437931
 11
755.40300890644448
 21
396.27096620437925
  0
LINE
  8
_0-0_計極細
  6
CONTINUOUS
 62
    2
 10
759.00300890644405
 20
397.5709662043792
 11
759.80300890644457
 21
399.07096620437926
  0
LINE
  8
_0-0_計極細
  6
CONTINUOUS
 62
    2
 10
755.40300890644448
 20
399.07096620437926
 11
755.40300890644448
 21
398.5709662043792
  0
LINE
  8
_0-0_計極細
  6
CONTINUOUS
 62
    2
 10
715.65300890644448
 20
399.07096620437949
 11
759.80300890644457
 21
399.07096620437926
  0
LINE
  8
_0-0_計極細
  6
CONTINUOUS
 62
    2
 10
715.8530089064443
 20
400.16485620437936
 11
759.45300890644421
 21
400.16485620437936
  0
LINE
  8
_0-0_計極細
  6
CONTINUOUS
 62
    2
 10
715.8530089064443
 20
401.16485620437936
 11
758.8530089064443
 21
401.16485620437936
  0
ARC
  8
_0-0_計極細
  6
CONTINUOUS
 62
    2
 10
761.6030089064443
 20
405.16485620437936
 40
0.5
 50
24.05454900000543
 51
89.999999999999901
  0
ARC
  8
_0-0_計極細
  6
CONTINUOUS
 62
    2
 10
761.90300890644448
 20
403.86485620437941
 40
0.1999999999999886
 50
269.99999999999977
 51
359.99999999999966
  0
ARC
  8
_0-0_計極細
  6
CONTINUOUS
 62
    2
 10
761.6030089064443
 20
405.16485620437936
 40
0.5
 50
0
 51
24.05454900000543
  0
ARC
  8
_0-0_計極細
  6
CONTINUOUS
 62
    2
 10
759.45300890644421
 20
400.6648562043793
 40
0.5
 50
269.99999999999977
 51
359.99999999999966
  0
LINE
  8
_0-0_計極細
  6
CONTINUOUS
 62
    2
 10
758.8530089064443
 20
400.16485620437936
 11
758.8530089064443
 21
401.16485620437936
  0
LINE
  8
_0-0_計極細
  6
CONTINUOUS
 62
    2
 10
759.95300890644432
 20
400.6648562043793
 11
759.95300890644467
 21
403.66485620437936
  0
LINE
  8
_0-0_計極細
  6
CONTINUOUS
 62
    2
 10
759.95300890644467
 20
403.66485620437936
 11
761.90300890644448
 21
403.66485620437936
  0
LINE
  8
_0-0_計極細
  6
CONTINUOUS
 62
    2
 10
715.65300890644448
 20
405.6648562043793
 11
761.6030089064443
 21
405.6648562043793
  0
LINE
  8
_0-0_計極細
  6
CONTINUOUS
 62
    2
 10
762.1030089064443
 20
403.86485620437941
 11
762.1030089064443
 21
405.16485620437936
  0
LINE
  8
_0-0_計極細
  6
CONTINUOUS
 62
    2
 10
746.93932190644421
 20
386.96485620437926
 11
746.93932190644421
 21
388.66485620437936
  0
LINE
  8
_0-0_計極細
  6
CONTINUOUS
 62
    2
 10
750.43932190644455
 20
386.96485620437926
 11
750.43932190644455
 21
388.66485620437936
  0
LINE
  8
_0-0_計極細
  6
CONTINUOUS
 62
    2
 10
745.43932190644455
 20
386.96485620437926
 11
745.43932190644455
 21
388.66485620437936
  0
LINE
  8
_0-0_計極細
  6
CONTINUOUS
 62
    2
 10
745.43932190644455
 20
386.96485620437926
 11
750.43932190644455
 21
386.96485620437926
  0
LINE
  8
_0-0_計極細
  6
CONTINUOUS
 62
    2
 10
758.65300890644448
 20
388.66485620437936
 11
764.15300890644448
 21
388.66485620437936
  0
LINE
  8
_0-0_計極細
  6
CONTINUOUS
 62
    2
 10
757.82282490644423
 20
386.6648562043793
 11
758.65300890644448
 21
386.6648562043793
  0
LINE
  8
_0-0_計極細
  6
CONTINUOUS
 62
    2
 10
758.65300890644448
 20
391.36485620437941
 11
759.95300890644432
 21
391.36485620437941
  0
LINE
  8
_0-0_計極細
  6
CONTINUOUS
 62
    2
 10
758.65300890644448
 20
390.6648562043793
 11
760.65300890644448
 21
390.6648562043793
  0
LINE
  8
_0-0_計極細
  6
CONTINUOUS
 62
    2
 10
758.65300890644448
 20
386.6648562043793
 11
758.65300890644448
 21
392.66485620437936
  0
LINE
  8
_0-0_計極細
  6
CONTINUOUS
 62
    2
 10
765.63200890644441
 20
390.14385620437935
 11
764.15300890644448
 21
388.66485620437936
  0
LINE
  8
_0-0_計極細
  6
CONTINUOUS
 62
    2
 10
760.65300890644448
 20
390.6648562043793
 11
760.65300890644448
 21
401.9148562043793
  0
ARC
  8
_0-0_計極細
  6
CONTINUOUS
 62
    2
 10
761.70300890644387
 20
401.9148562043793
 40
1.0500000000000114
 50
89.999999999999915
 51
179.99999999999983
  0
LINE
  8
_0-0_計極細
  6
CONTINUOUS
 62
    2
 10
762.89423290644436
 20
402.96485620437926
 11
761.70300890644387
 21
402.96485620437926
  0
ARC
  8
_0-0_計極細
  6
CONTINUOUS
 62
    2
 10
762.89423290644436
 20
404.66485620437936
 40
1.6999999999999886
 50
269.99999999999977
 51
356.64911199999864
  0
ARC
  8
_0-0_計極細
  6
CONTINUOUS
 62
    2
 10
762.89423290644436
 20
404.66485620437936
 40
1
 50
269.99999999999977
 51
356.64911200000131
  0
ARC
  8
_0-0_計極細
  6
CONTINUOUS
 62
    2
 10
765.63200890644441
 20
404.4148562043793
 40
1.7500000000000004
 50
89.999999999999915
 51
175.84901000000218
  0
ARC
  8
_0-0_計極細
  6
CONTINUOUS
 62
    2
 10
761.70300890644387
 20
401.9148562043793
 40
1.7500000000000004
 50
89.999999999999915
 51
179.99999999999983
  0
LINE
  8
_0-0_計極細
  6
CONTINUOUS
 62
    2
 10
762.1530089064446
 20
403.66485620437936
 11
762.1530089064446
 21
406.16485620437936
  0
LINE
  8
_0-0_計極細
  6
CONTINUOUS
 62
    2
 10
759.95300890644432
 20
391.36485620437941
 11
759.95300890644432
 21
401.9148562043793
  0
LINE
  8
_0-0_計極細
  6
CONTINUOUS
 62
    2
 10
762.89423290644436
 20
403.66485620437936
 11
761.70300890644387
 21
403.66485620437936
  0
LINE
  8
_0-0_計極細
  6
CONTINUOUS
 62
    2
 10
755.9030089064446
 20
392.66485620437936
 11
759.95300890644432
 21
392.66485620437936
  0
LINE
  8
_0-0_計極細
  6
CONTINUOUS
 62
    2
 10
715.65300890644448
 20
406.16485620437936
 11
765.63200890644441
 21
406.16485620437936
  0
ARC
  8
_0-0_計極細
  6
CONTINUOUS
 62
    2
 10
753.90300890644448
 20
378.75779220437937
 40
1
 50
89.999999999999915
 51
179.99999999999983
  0
ARC
  8
_0-0_計極細
  6
CONTINUOUS
 62
    2
 10
753.90300890644448
 20
378.75779220437937
 40
1
 50
0
 51
89.999999999999915
  0
LINE
  8
_0-0_計極細
  6
CONTINUOUS
 62
    2
 10
772.55300890644423
 20
404.75779220437937
 11
765.63200890644441
 21
403.95779220437936
  0
LINE
  8
_0-0_計極細
  6
CONTINUOUS
 62
    2
 10
765.63200890644441
 20
384.95779220437942
 11
764.15300890644448
 21
385.75779220437937
  0
LINE
  8
_0-0_計極細
  6
CONTINUOUS
 62
    2
 10
764.15300890644448
 20
385.75779220437937
 11
764.15300890644448
 21
388.66485620437936
  0
LINE
  8
_0-0_計極細
  6
CONTINUOUS
 62
    2
 10
765.63200890644441
 20
405.45779165812849
 11
772.55300890644423
 21
406.44354920437934
  0
LINE
  8
_0-0_計極細
  6
CONTINUOUS
 62
    2
 10
765.63200890644441
 20
390.14385620437935
 11
765.63200890644441
 21
405.46485620437926
  0
ARC
  8
_0-0_計極細
  6
CONTINUOUS
 62
    2
 10
765.63200890644441
 20
404.4148562043793
 40
1.0500000000000114
 50
89.999999999999915
 51
175.84901000000011
  0
LINE
  8
_0-0_計極細
  6
CONTINUOUS
 62
    2
 10
753.15300890644448
 20
385.76563520437946
 11
753.15300890644448
 21
388.76563520437941
  0
LINE
  8
_0-0_計極細
  6
CONTINUOUS
 62
    2
 10
756.15300890644448
 20
385.76563520437946
 11
753.15300890644448
 21
385.76563520437946
  0
ARC
  8
_0-0_計極細
  6
CONTINUOUS
 62
    2
 10
756.15300890644448
 20
387.76563520437946
 40
2
 50
269.99999999999977
 51
359.99999999999966
  0
LINE
  8
_0-0_計極細
  6
CONTINUOUS
 62
    2
 10
758.15300890644448
 20
387.76563520437946
 11
758.15300890644448
 21
388.76563520437941
  0
LINE
  8
_0-0_計極細
  6
CONTINUOUS
 62
    2
 10
758.15300890644448
 20
388.76563520437941
 11
755.9030089064446
 21
388.76563520437941
  0
LINE
  8
_0-0_計極細
  6
CONTINUOUS
 62
    2
 10
759.15300890644448
 20
393.16563520437933
 11
755.9030089064446
 21
393.16563520437933
  0
LINE
  8
_0-0_計極細
  6
CONTINUOUS
 62
    2
 10
755.9030089064446
 20
388.76563520437941
 11
755.9030089064446
 21
393.16563520437933
  0
LINE
  8
_0-0_計極細
  6
CONTINUOUS
 62
    2
 10
755.9030089064446
 20
393.16563520437933
 11
715.65300890644448
 21
393.16563520437933
  0
ARC
  8
_0-0_計極細
  6
CONTINUOUS
 62
    2
 10
742.90300890644448
 20
320.9577754843757
 40
10
 50
269.99999999999977
 51
359.99999999999966
  0
LINE
  8
_0-0_計極細
  6
CONTINUOUS
 62
    2
 10
715.65300890644448
 20
310.9577754843757
 11
742.90300890644448
 21
310.9577754843757
  0
LINE
  8
_0-0_計極細
  6
CONTINUOUS
 62
    2
 10
752.90300890644448
 20
320.9577754843757
 11
752.90300890644448
 21
378.75779220437937
  0
LINE
  8
_0-0_計極細
  6
CONTINUOUS
 62
    2
 10
754.90300890644448
 20
320.9577754843757
 11
754.90300890644448
 21
378.75779220437937
  0
LINE
  8
_0-0_計極細
  6
CONTINUOUS
 62
    2
 10
716.58404290644387
 20
308.95777548437565
 11
742.90300890644448
 21
308.95777548437565
  0
LINE
  8
_0-0_計極細
  6
CONTINUOUS
 62
    2
 10
715.65300890644448
 20
308.95777548437565
 11
716.58404290644387
 21
308.95777548437565
  0
LINE
  8
_0-0_計極細
  6
CONTINUOUS
 62
    2
 10
753.90300890644414
 20
271.45777548437565
 11
753.65300890644403
 21
296.45777548437565
  0
LINE
  8
_0-0_計極細
  6
CONTINUOUS
 62
    2
 10
763.65300890644448
 20
357.87934248437551
 11
763.65300890644448
 21
384.95779220437942
  0
ARC
  8
_0-0_計極細
  6
CONTINUOUS
 62
    2
 10
762.65300890644448
 20
357.87934248437551
 40
1
 50
277.18075600000213
 51
359.99999999999966
  0
ARC
  8
_0-0_計極細
  6
CONTINUOUS
 62
    2
 10
742.90300890644448
 20
320.9577754843757
 40
12.000000000000002
 50
269.99999999999977
 51
359.99999999999966
  0
LINE
  8
_0-0_計極細
  6
CONTINUOUS
 62
    2
 10
740.65300890644448
 20
298.95777548437565
 11
740.65300890644448
 21
308.95777548437565
  0
LINE
  8
_0-0_計極細
  6
CONTINUOUS
 62
    2
 10
742.90300890644448
 20
308.95777548437565
 11
740.65300890644448
 21
308.95777548437565
  0
LINE
  8
_0-0_計極細
  6
CONTINUOUS
 62
    2
 10
754.90300890644448
 20
320.9577754843757
 11
754.90300890644448
 21
347.95777548437565
  0
LINE
  8
_0-0_計極細
  6
CONTINUOUS
 62
    2
 10
740.65458790644425
 20
298.85510248437578
 11
740.65300890644448
 21
298.95777548437565
  0
LINE
  8
_0-0_計極細
  6
CONTINUOUS
 62
    2
 10
740.65300890644448
 20
298.95777548437565
 11
715.65300890644448
 21
298.95777548437565
  0
ARC
  8
_0-0_計極細
  6
CONTINUOUS
 62
    2
 10
755.65300890644448
 20
306.95777548437565
 40
8
 50
269.99999999999977
 51
359.99999999999966
  0
LINE
  8
_0-0_計極細
  6
CONTINUOUS
 62
    2
 10
743.65300890644448
 20
296.45777548437565
 11
753.65300890644403
 21
296.45777548437565
  0
LINE
  8
_0-0_計極細
  6
CONTINUOUS
 62
    2
 10
741.15300890644403
 20
266.45777548437565
 11
740.65300890644448
 21
298.95777548437565
  0
LINE
  8
_0-0_計極細
  6
CONTINUOUS
 62
    2
 10
763.65300890644448
 20
306.95777548437565
 11
763.65300890644448
 21
357.87934248437551
  0
LINE
  8
_0-0_計極細
  6
CONTINUOUS
 62
    2
 10
755.65300890644448
 20
298.95777548437565
 11
740.65300890644448
 21
298.95777548437565
  0
LINE
  8
_0-0_計極細
  6
CONTINUOUS
 62
    2
 10
743.23634223977751
 20
271.45777548437565
 11
743.65300890644448
 21
296.45777548437565
  0
LINE
  8
_0-0_計極細
  6
CONTINUOUS
 62
    2
 10
741.65300890644448
 20
326.16561848437556
 11
715.65300890644448
 21
326.16561848437578
  0
ARC
  8
_0-0_計極細
  6
CONTINUOUS
 62
    2
 10
741.65300890644448
 20
327.16561848437578
 40
1
 50
269.99954163376469
 51
359.99999999999966
  0
LINE
  8
_0-0_計極細
  6
CONTINUOUS
 62
    2
 10
742.65300890644414
 20
327.16561848437578
 11
742.65300890644414
 21
386.13988120437932
  0
LINE
  8
_0-0_計極細
  6
CONTINUOUS
 62
    2
 10
762.77800891022889
 20
356.88718574320308
 11
754.90300890644448
 21
356.88718574320308
  0
LINE
  8
_0-0_計極細
  6
CONTINUOUS
 62
    2
 10
715.65300890644448
 20
406.45777548437565
 11
767.68859552634422
 21
406.45777548437565
  0
LINE
  8
_0-0_計極細
  6
CONTINUOUS
 62
    2
 10
715.65300890644448
 20
308.95777548437565
 11
714.72197490644476
 21
308.95777548437565
  0
LINE
  8
_0-1_計細線
  6
CONTINUOUS
 62
    3
 10
662.65300921260632
 20
390.75779220437937
 11
658.75300921260668
 21
390.75779220437937
  0
LINE
  8
_0-1_計細線
  6
CONTINUOUS
 62
    3
 10
658.75300921260668
 20
390.75779220437937
 11
658.75300921260668
 21
391.31303320437939
  0
ARC
  8
_0-1_計細線
  6
CONTINUOUS
 62
    3
 10
660.15300921260632
 20
378.42766520437942
 40
5
 50
0
 51
59.999999999998813
  0
LINE
  8
_0-1_計細線
  6
CONTINUOUS
 62
    3
 10
662.65300921260632
 20
382.75779220437931
 11
662.65300921260632
 21
390.75779220437937
  0
LINE
  8
_0-1_計細線
  6
CONTINUOUS
 62
    3
 10
688.15300921260723
 20
266.45777548437565
 11
688.06967587927329
 21
271.45777548437565
  0
LINE
  8
_0-1_計細線
  6
CONTINUOUS
 62
    3
 10
715.65300921260723
 20
266.45777548437565
 11
691.0966082126065
 21
266.45777548437565
  0
ARC
  8
_0-1_計細線
  6
CONTINUOUS
 62
    3
 10
673.15300921260632
 20
304.45777548437565
 40
8
 50
179.99999999999983
 51
270.00000000000614
  0
LINE
  8
_0-1_計細線
  6
CONTINUOUS
 62
    3
 10
665.15300921260632
 20
304.45777548437565
 11
665.15300921260632
 21
378.42766520437942
  0
LINE
  8
_0-1_計細線
  6
CONTINUOUS
 62
    3
 10
674.55300921260641
 20
271.45777548437565
 11
674.15300921260678
 21
296.45777548437565
  0
LINE
  8
_0-1_計細線
  6
CONTINUOUS
 62
    3
 10
688.06967621260719
 20
271.45777548437565
 11
674.55300921260641
 21
271.45777548437565
  0
LINE
  8
_0-1_計細線
  6
CONTINUOUS
 62
    3
 10
691.0966082126065
 20
266.45777548437565
 11
688.15300921260723
 21
266.45777548437565
  0
LINE
  8
_0-1_計細線
  6
CONTINUOUS
 62
    3
 10
674.15300921260678
 20
296.45777548437565
 11
673.15300921260723
 21
296.45777548437565
  0
LINE
  8
_0-0_計極細
  6
CONTINUOUS
 62
    2
 10
665.67400921260651
 20
404.6318143168354
 11
659.84287541222238
 21
404.6318143168354
  0
LINE
  8
_0-0_計極細
  6
CONTINUOUS
 62
    2
 10
665.1542964060859
 20
405.53181431683527
 11
658.75300921260668
 21
405.53181431683527
  0
LINE
  8
_0-0_計極細
  6
CONTINUOUS
 62
    2
 10
658.83539981362355
 20
406.4318143168353
 11
658.75300921260668
 21
406.4318143168353
  0
ARC
  8
_0-0_計極細
  6
CONTINUOUS
 62
    2
 10
682.65300921260632
 20
386.13988120437932
 40
6.0000000000000009
 50
24.886947317068813
 51
124.83370764384469
  0
ARC
  8
_0-0_計極細
  6
CONTINUOUS
 62
    2
 10
681.15300921260643
 20
388.76563520437941
 40
3.0000000000000004
 50
129.97050058003856
 51
181.92509931279153
  0
LINE
  8
_0-0_計極細
  6
CONTINUOUS
 62
    2
 10
688.09584865993338
 20
388.66485620437936
 11
678.15470242490801
 21
388.66485620437936
  0
ARC
  8
_0-0_計極細
  6
CONTINUOUS
 62
    2
 10
682.65300921260632
 20
386.13988120437932
 40
6.0000000000000009
 50
0
 51
24.886947317068813
  0
LINE
  8
_0-0_計極細
  6
CONTINUOUS
 62
    2
 10
675.94216110014986
 20
396.23181431683548
 11
672.30300921260687
 21
396.23181431683548
  0
LINE
  8
_0-0_計極細
  6
CONTINUOUS
 62
    2
 10
676.06385732506214
 20
397.73181431683554
 11
672.21722355263
 21
397.73181431683554
  0
LINE
  8
_0-0_計極細
  6
CONTINUOUS
 62
    2
 10
688.65300921260678
 20
384.95779220437942
 11
665.67400921260651
 21
384.95779220437942
  0
LINE
  8
_0-0_計極細
  6
CONTINUOUS
 62
    2
 10
677.40300921260643
 20
379.75779220437937
 11
688.65300921260678
 21
379.75779220437937
  0
LINE
  8
_0-0_計極細
  6
CONTINUOUS
 62
    2
 10
665.67400921260651
 20
406.16485620437936
 11
658.75300921260668
 21
407.15061321904943
  0
LINE
  8
_0-0_計極細
  6
CONTINUOUS
 62
    2
 10
688.65300921260678
 20
384.66212820437937
 11
688.65300921260678
 21
386.13988120437932
  0
LINE
  8
_0-0_計極細
  6
CONTINUOUS
 62
    2
 10
688.65300921260678
 20
385.75779220437937
 11
667.15300921260632
 21
385.75779220437937
  0
LINE
  8
_0-0_計極細
  6
CONTINUOUS
 62
    2
 10
672.15300921260632
 20
399.26563520437946
 11
672.15300921260632
 21
400.16485620437936
  0
LINE
  8
_0-0_計極細
  6
CONTINUOUS
 62
    2
 10
672.15300921260632
 20
399.26563520437946
 11
715.65300921260632
 21
399.26563520437946
  0
LINE
  8
_0-0_計極細
  6
CONTINUOUS
 62
    2
 10
672.15300921260632
 20
394.66563520437933
 11
715.65300921260632
 21
394.66563520437933
  0
LINE
  8
_0-0_計極細
  6
CONTINUOUS
 62
    2
 10
672.15300921260632
 20
393.16563520437933
 11
672.15300921260632
 21
394.66563520437933
  0
LINE
  8
_0-0_計極細
  6
CONTINUOUS
 62
    2
 10
675.90300921260632
 20
397.5709662043792
 11
675.90300921260632
 21
396.27096620437925
  0
LINE
  8
_0-0_計極細
  6
CONTINUOUS
 62
    2
 10
675.90300921260632
 20
395.27096620437931
 11
675.90300921260632
 21
394.77096620437925
  0
LINE
  8
_0-0_計極細
  6
CONTINUOUS
 62
    2
 10
672.30300921260687
 20
397.5709662043792
 11
672.30300921260687
 21
394.77096620437925
  0
LINE
  8
_0-0_計極細
  6
CONTINUOUS
 62
    2
 10
715.65300921260632
 20
394.77096620437925
 11
672.30300921260687
 21
394.77096620437925
  0
LINE
  8
_0-0_計極細
  6
CONTINUOUS
 62
    2
 10
715.65300921260632
 20
395.77096620437931
 11
676.40300921260632
 21
395.77096620437931
  0
LINE
  8
_0-0_計極細
  6
CONTINUOUS
 62
    2
 10
715.65300921260632
 20
398.07096620437949
 11
676.40300921260632
 21
398.07096620437926
  0
LINE
  8
_0-0_計極細
  6
CONTINUOUS
 62
    2
 10
676.40300921260632
 20
398.07096620437926
 11
675.90300921260632
 21
398.5709662043792
  0
LINE
  8
_0-0_計極細
  6
CONTINUOUS
 62
    2
 10
675.90300921260632
 20
397.5709662043792
 11
676.40300921260632
 21
398.07096620437926
  0
LINE
  8
_0-0_計極細
  6
CONTINUOUS
 62
    2
 10
675.90300921260632
 20
395.27096620437931
 11
676.40300921260632
 21
395.77096620437931
  0
LINE
  8
_0-0_計極細
  6
CONTINUOUS
 62
    2
 10
676.40300921260632
 20
395.77096620437931
 11
675.90300921260632
 21
396.27096620437925
  0
LINE
  8
_0-0_計極細
  6
CONTINUOUS
 62
    2
 10
672.30300921260687
 20
397.5709662043792
 11
671.50300921260623
 21
399.07096620437926
  0
LINE
  8
_0-0_計極細
  6
CONTINUOUS
 62
    2
 10
675.90300921260632
 20
399.07096620437926
 11
675.90300921260632
 21
398.5709662043792
  0
LINE
  8
_0-0_計極細
  6
CONTINUOUS
 62
    2
 10
715.65300921260632
 20
399.07096620437949
 11
671.50300921260623
 21
399.07096620437926
  0
LINE
  8
_0-0_計極細
  6
CONTINUOUS
 62
    2
 10
715.4530092126065
 20
400.16485620437936
 11
671.85300921260659
 21
400.16485620437936
  0
LINE
  8
_0-0_計極細
  6
CONTINUOUS
 62
    2
 10
715.4530092126065
 20
401.16485620437936
 11
672.4530092126065
 21
401.16485620437936
  0
ARC
  8
_0-0_計極細
  6
CONTINUOUS
 62
    2
 10
669.70300921260662
 20
405.16485620437936
 40
0.5
 50
89.999999999999915
 51
155.94545099999456
  0
ARC
  8
_0-0_計極細
  6
CONTINUOUS
 62
    2
 10
669.40300921260632
 20
403.86485620437941
 40
0.1999999999999886
 50
179.99999999999983
 51
269.99999999999977
  0
ARC
  8
_0-0_計極細
  6
CONTINUOUS
 62
    2
 10
669.70300921260662
 20
405.16485620437936
 40
0.5
 50
155.94545099999456
 51
179.99999999999983
  0
ARC
  8
_0-0_計極細
  6
CONTINUOUS
 62
    2
 10
671.85300921260659
 20
400.6648562043793
 40
0.5
 50
179.99999999999983
 51
269.99999999999977
  0
LINE
  8
_0-0_計極細
  6
CONTINUOUS
 62
    2
 10
672.4530092126065
 20
400.16485620437936
 11
672.4530092126065
 21
401.16485620437936
  0
LINE
  8
_0-0_計極細
  6
CONTINUOUS
 62
    2
 10
671.35300921260659
 20
400.6648562043793
 11
671.35300921260625
 21
403.66485620437936
  0
LINE
  8
_0-0_計極細
  6
CONTINUOUS
 62
    2
 10
671.35300921260625
 20
403.66485620437936
 11
669.40300921260632
 21
403.66485620437936
  0
LINE
  8
_0-0_計極細
  6
CONTINUOUS
 62
    2
 10
715.65300921260632
 20
405.6648562043793
 11
669.70300921260662
 21
405.6648562043793
  0
LINE
  8
_0-0_計極細
  6
CONTINUOUS
 62
    2
 10
669.2030092126065
 20
403.86485620437941
 11
669.2030092126065
 21
405.16485620437936
  0
LINE
  8
_0-0_計極細
  6
CONTINUOUS
 62
    2
 10
684.36669621260671
 20
386.96485620437926
 11
684.36669621260671
 21
388.66485620437936
  0
LINE
  8
_0-0_計極細
  6
CONTINUOUS
 62
    2
 10
680.86669621260626
 20
386.96485620437926
 11
680.86669621260626
 21
388.66485620437936
  0
LINE
  8
_0-0_計極細
  6
CONTINUOUS
 62
    2
 10
685.86669621260626
 20
386.96485620437926
 11
685.86669621260626
 21
388.66485620437936
  0
LINE
  8
_0-0_計極細
  6
CONTINUOUS
 62
    2
 10
685.86669621260626
 20
386.96485620437926
 11
680.86669621260626
 21
386.96485620437926
  0
LINE
  8
_0-0_計極細
  6
CONTINUOUS
 62
    2
 10
672.65300921260632
 20
388.66485620437936
 11
667.15300921260632
 21
388.66485620437936
  0
LINE
  8
_0-0_計極細
  6
CONTINUOUS
 62
    2
 10
673.48319321260669
 20
386.6648562043793
 11
672.65300921260632
 21
386.6648562043793
  0
LINE
  8
_0-0_計極細
  6
CONTINUOUS
 62
    2
 10
672.65300921260632
 20
391.36485620437941
 11
671.35300921260659
 21
391.36485620437941
  0
LINE
  8
_0-0_計極細
  6
CONTINUOUS
 62
    2
 10
672.65300921260632
 20
390.6648562043793
 11
670.65300921260632
 21
390.6648562043793
  0
LINE
  8
_0-0_計極細
  6
CONTINUOUS
 62
    2
 10
672.65300921260632
 20
386.6648562043793
 11
672.65300921260632
 21
392.66485620437936
  0
LINE
  8
_0-0_計極細
  6
CONTINUOUS
 62
    2
 10
665.67400921260651
 20
390.14385620437935
 11
667.15300921260632
 21
388.66485620437936
  0
LINE
  8
_0-0_計極細
  6
CONTINUOUS
 62
    2
 10
670.65300921260632
 20
390.6648562043793
 11
670.65300921260632
 21
401.9148562043793
  0
ARC
  8
_0-0_計極細
  6
CONTINUOUS
 62
    2
 10
669.60300921260705
 20
401.9148562043793
 40
1.0500000000000114
 50
0
 51
89.999999999999915
  0
LINE
  8
_0-0_計極細
  6
CONTINUOUS
 62
    2
 10
668.41178521260645
 20
402.96485620437926
 11
669.60300921260705
 21
402.96485620437926
  0
ARC
  8
_0-0_計極細
  6
CONTINUOUS
 62
    2
 10
668.41178521260645
 20
404.66485620437936
 40
1.6999999999999886
 50
183.35088800000065
 51
269.99999999999977
  0
ARC
  8
_0-0_計極細
  6
CONTINUOUS
 62
    2
 10
668.41178521260645
 20
404.66485620437936
 40
1
 50
183.35088799999792
 51
269.99999999999977
  0
ARC
  8
_0-0_計極細
  6
CONTINUOUS
 62
    2
 10
665.67400921260651
 20
404.4148562043793
 40
1.7500000000000004
 50
4.150989999997825
 51
89.999999999999915
  0
ARC
  8
_0-0_計極細
  6
CONTINUOUS
 62
    2
 10
669.60300921260705
 20
401.9148562043793
 40
1.7500000000000004
 50
0
 51
89.999999999999915
  0
LINE
  8
_0-0_計極細
  6
CONTINUOUS
 62
    2
 10
669.15300921260632
 20
403.66485620437936
 11
669.15300921260632
 21
406.16485620437936
  0
LINE
  8
_0-0_計極細
  6
CONTINUOUS
 62
    2
 10
671.35300921260659
 20
391.36485620437941
 11
671.35300921260659
 21
401.9148562043793
  0
LINE
  8
_0-0_計極細
  6
CONTINUOUS
 62
    2
 10
668.41178521260645
 20
403.66485620437936
 11
669.60300921260705
 21
403.66485620437936
  0
LINE
  8
_0-0_計極細
  6
CONTINUOUS
 62
    2
 10
675.40300921260632
 20
392.66485620437936
 11
671.35300921260659
 21
392.66485620437936
  0
LINE
  8
_0-0_計極細
  6
CONTINUOUS
 62
    2
 10
715.65300921260632
 20
406.16485620437936
 11
665.67400921260651
 21
406.16485620437936
  0
ARC
  8
_0-0_計極細
  6
CONTINUOUS
 62
    2
 10
677.40300921260643
 20
378.75779220437937
 40
1
 50
0
 51
89.999999999999915
  0
ARC
  8
_0-0_計極細
  6
CONTINUOUS
 62
    2
 10
677.40300921260643
 20
378.75779220437937
 40
1
 50
89.999999999999915
 51
179.99999999999983
  0
LINE
  8
_0-0_計極細
  6
CONTINUOUS
 62
    2
 10
658.75300921260668
 20
404.75779220437937
 11
665.67400921260651
 21
403.95779220437936
  0
LINE
  8
_0-0_計極細
  6
CONTINUOUS
 62
    2
 10
665.67400921260651
 20
384.95779220437942
 11
667.15300921260632
 21
385.75779220437937
  0
LINE
  8
_0-0_計極細
  6
CONTINUOUS
 62
    2
 10
667.15300921260632
 20
385.75779220437937
 11
667.15300921260632
 21
388.66485620437936
  0
LINE
  8
_0-0_計極細
  6
CONTINUOUS
 62
    2
 10
665.67400921260651
 20
405.45779165812849
 11
658.75300921260668
 21
406.44354920437934
  0
LINE
  8
_0-0_計極細
  6
CONTINUOUS
 62
    2
 10
665.67400921260651
 20
390.14385620437935
 11
665.67400921260651
 21
405.46485620437926
  0
ARC
  8
_0-0_計極細
  6
CONTINUOUS
 62
    2
 10
665.67400921260651
 20
404.4148562043793
 40
1.0500000000000114
 50
4.1509899999999007
 51
89.999999999999915
  0
LINE
  8
_0-0_計極細
  6
CONTINUOUS
 62
    2
 10
678.15300921260632
 20
385.76563520437946
 11
678.15300921260632
 21
388.76563520437941
  0
LINE
  8
_0-0_計極細
  6
CONTINUOUS
 62
    2
 10
675.15300921260632
 20
385.76563520437946
 11
678.15300921260632
 21
385.76563520437946
  0
ARC
  8
_0-0_計極細
  6
CONTINUOUS
 62
    2
 10
675.15300921260632
 20
387.76563520437946
 40
2
 50
179.99999999999983
 51
269.99999999999977
  0
LINE
  8
_0-0_計極細
  6
CONTINUOUS
 62
    2
 10
673.15300921260632
 20
387.76563520437946
 11
673.15300921260632
 21
388.76563520437941
  0
LINE
  8
_0-0_計極細
  6
CONTINUOUS
 62
    2
 10
673.15300921260632
 20
388.76563520437941
 11
675.40300921260632
 21
388.76563520437941
  0
LINE
  8
_0-0_計極細
  6
CONTINUOUS
 62
    2
 10
672.15300921260632
 20
393.16563520437933
 11
675.40300921260632
 21
393.16563520437933
  0
LINE
  8
_0-0_計極細
  6
CONTINUOUS
 62
    2
 10
675.40300921260632
 20
388.76563520437941
 11
675.40300921260632
 21
393.16563520437933
  0
LINE
  8
_0-0_計極細
  6
CONTINUOUS
 62
    2
 10
675.40300921260632
 20
393.16563520437933
 11
715.65300921260632
 21
393.16563520437933
  0
ARC
  8
_0-0_計極細
  6
CONTINUOUS
 62
    2
 10
688.40300921260632
 20
320.9577754843757
 40
10
 50
179.99999999999983
 51
269.99999999999977
  0
LINE
  8
_0-0_計極細
  6
CONTINUOUS
 62
    2
 10
715.65300921260632
 20
310.9577754843757
 11
688.40300921260632
 21
310.9577754843757
  0
LINE
  8
_0-0_計極細
  6
CONTINUOUS
 62
    2
 10
678.40300921260632
 20
320.9577754843757
 11
678.40300921260632
 21
378.75779220437937
  0
LINE
  8
_0-0_計極細
  6
CONTINUOUS
 62
    2
 10
676.40300921260632
 20
320.9577754843757
 11
676.40300921260632
 21
378.75779220437937
  0
LINE
  8
_0-0_計極細
  6
CONTINUOUS
 62
    2
 10
714.72197521260705
 20
308.95777548437565
 11
688.40300921260632
 21
308.95777548437565
  0
LINE
  8
_0-0_計極細
  6
CONTINUOUS
 62
    2
 10
715.65300921260632
 20
308.95777548437565
 11
714.72197521260705
 21
308.95777548437565
  0
LINE
  8
_0-0_計極細
  6
CONTINUOUS
 62
    2
 10
677.40300921260678
 20
271.45777548437565
 11
677.65300921260678
 21
296.45777548437565
  0
LINE
  8
_0-0_計極細
  6
CONTINUOUS
 62
    2
 10
667.65300921260632
 20
357.87934248437551
 11
667.65300921260632
 21
384.95779220437942
  0
ARC
  8
_0-0_計極細
  6
CONTINUOUS
 62
    2
 10
668.65300921260643
 20
357.87934248437551
 40
1
 50
179.99999999999983
 51
262.81924399999713
  0
ARC
  8
_0-0_計極細
  6
CONTINUOUS
 62
    2
 10
688.40300921260632
 20
320.9577754843757
 40
12.000000000000002
 50
179.99999999999983
 51
269.99999999999977
  0
LINE
  8
_0-0_計極細
  6
CONTINUOUS
 62
    2
 10
690.65300921260632
 20
298.95777548437565
 11
690.65300921260632
 21
308.95777548437565
  0
LINE
  8
_0-0_計極細
  6
CONTINUOUS
 62
    2
 10
688.40300921260632
 20
308.95777548437565
 11
690.65300921260632
 21
308.95777548437565
  0
LINE
  8
_0-0_計極細
  6
CONTINUOUS
 62
    2
 10
676.40300921260632
 20
320.9577754843757
 11
676.40300921260632
 21
347.95777548437565
  0
LINE
  8
_0-0_計極細
  6
CONTINUOUS
 62
    2
 10
690.65143021260656
 20
298.85510248437578
 11
690.65300921260632
 21
298.95777548437565
  0
LINE
  8
_0-0_計極細
  6
CONTINUOUS
 62
    2
 10
690.65300921260632
 20
298.95777548437565
 11
715.65300921260632
 21
298.95777548437565
  0
ARC
  8
_0-0_計極細
  6
CONTINUOUS
 62
    2
 10
675.65300921260632
 20
306.95777548437565
 40
8
 50
179.99999999999983
 51
269.99999999999977
  0
LINE
  8
_0-0_計極細
  6
CONTINUOUS
 62
    2
 10
687.65300921260632
 20
296.45777548437565
 11
677.65300921260678
 21
296.45777548437565
  0
LINE
  8
_0-0_計極細
  6
CONTINUOUS
 62
    2
 10
690.15300921260678
 20
266.45777548437565
 11
690.65300921260632
 21
298.95777548437565
  0
LINE
  8
_0-0_計極細
  6
CONTINUOUS
 62
    2
 10
667.65300921260632
 20
306.95777548437565
 11
667.65300921260632
 21
357.87934248437551
  0
LINE
  8
_0-0_計極細
  6
CONTINUOUS
 62
    2
 10
675.65300921260632
 20
298.95777548437565
 11
690.65300921260632
 21
298.95777548437565
  0
LINE
  8
_0-0_計極細
  6
CONTINUOUS
 62
    2
 10
688.06967587927329
 20
271.45777548437565
 11
687.65300921260632
 21
296.45777548437565
  0
LINE
  8
_0-0_計極細
  6
CONTINUOUS
 62
    2
 10
689.65300921260632
 20
326.16561848437556
 11
715.65300921260632
 21
326.16561848437578
  0
ARC
  8
_0-0_計極細
  6
CONTINUOUS
 62
    2
 10
689.65300921260632
 20
327.16561848437578
 40
1
 50
179.99999999999983
 51
270.00045836623457
  0
LINE
  8
_0-0_計極細
  6
CONTINUOUS
 62
    2
 10
688.65300921260678
 20
327.16561848437578
 11
688.65300921260678
 21
386.13988120437932
  0
LINE
  8
_0-0_計極細
  6
CONTINUOUS
 62
    2
 10
668.52800920882191
 20
356.88718574320308
 11
676.40300921260632
 21
356.88718574320308
  0
LINE
  8
_0-0_計極細
  6
CONTINUOUS
 62
    2
 10
715.65300921260632
 20
406.45777548437565
 11
663.61742259270659
 21
406.45777548437565
  0
LINE
  8
_0-0_計極細
  6
CONTINUOUS
 62
    2
 10
715.65300921260632
 20
308.95777548437565
 11
716.58404321260605
 21
308.95777548437565
  0
LINE
  8
_0-1_計細線
  6
CONTINUOUS
 62
    3
 10
772.55300890644423
 20
407.45777548437565
 11
658.75300921260668
 21
407.45777548437565
  0
LINE
  8
_0-1_計細線
  6
CONTINUOUS
 62
    3
 10
658.75300921260668
 20
391.31303320437939
 11
658.75300921260668
 21
407.45777548437565
  0
LINE
  8
_0-1_計細線
  6
CONTINUOUS
 62
    3
 10
770.65300890644448
 20
365.45777548437565
 11
770.65300890644448
 21
370.45777548437565
  0
ARC
  8
_0-1_計細線
  6
CONTINUOUS
 62
    3
 10
779.75403290644465
 20
369.4577754843757
 40
1
 50
6.3401919999960725
 51
89.999999999999915
  0
LINE
  8
_0-1_計細線
  6
CONTINUOUS
 62
    3
 10
770.65300890644448
 20
354.4577754843757
 11
770.65300890644448
 21
359.4577754843757
  0
ARC
  8
_0-1_計細線
  6
CONTINUOUS
 62
    3
 10
775.55077090644454
 20
351.45777548437565
 40
3.0000000000000004
 50
358.07877600000114
 51
89.999999999999545
  0
LINE
  8
_0-1_計細線
  6
CONTINUOUS
 62
    3
 10
780.74791690644463
 20
369.56820548437565
 11
782.23107890644451
 21
356.2197474843756
  0
LINE
  8
_0-1_計細線
  6
CONTINUOUS
 62
    3
 10
776.6530089064446
 20
359.4577754843757
 11
776.6530089064446
 21
365.45777548437565
  0
LINE
  8
_0-1_計細線
  6
CONTINUOUS
 62
    3
 10
845.65300890644448
 20
357.45777548437565
 11
845.65300890644448
 21
357.47729948437558
  0
ARC
  8
_0-1_計細線
  6
CONTINUOUS
 62
    3
 10
744.6530089064446
 20
260.45777548437559
 40
1
 50
0
 51
89.999999999999915
  0
LINE
  8
_0-1_計細線
  6
CONTINUOUS
 62
    3
 10
745.65300890644448
 20
256.45777548437553
 11
745.65300890644448
 21
260.45777548437559
  0
LINE
  8
_0-1_計細線
  6
CONTINUOUS
 62
    3
 10
778.54136537272382
 20
351.69514595065465
 11
782.37140351481639
 21
355.52518409274705
  0
LINE
  8
_0-1_計細線
  6
CONTINUOUS
 62
    3
 10
743.05000890644453
 20
255.45777548437556
 11
743.5855909519687
 21
239.45336212400318
  0
LINE
  8
_0-1_計細線
  6
CONTINUOUS
 62
    3
 10
743.5855909519687
 20
239.45336212400318
 11
745.65344585587127
 21
237.45912170195453
  0
LINE
  8
_0-1_計細線
  6
CONTINUOUS
 62
    3
 10
744.6530089064446
 20
261.45777548437553
 11
742.84922290644454
 21
261.45777548437553
  0
LINE
  8
_0-1_計細線
  6
CONTINUOUS
 62
    3
 10
742.6818992574681
 20
266.45777548437542
 11
742.84922290644454
 21
261.45777548437553
  0
LINE
  8
_0-1_計細線
  6
CONTINUOUS
 62
    3
 10
778.54908490644448
 20
351.3571974843756
 11
778.315656073372
 21
344.39836951232041
  0
LINE
  8
_0-1_計細線
  6
CONTINUOUS
 62
    3
 10
778.31565604348725
 20
344.3983686214184
 11
786.59794980893014
 21
352.68066238686066
  0
ARC
  8
_0-1_計細線
  6
CONTINUOUS
 62
    3
 10
786.20661490644454
 20
356.66147348437551
 40
4
 50
186.34019200000111
 51
275.61444035908244
  0
LINE
  8
_0-1_計細線
  6
CONTINUOUS
 62
    3
 10
801.11635705242736
 20
353.49084663126371
 11
786.59420699010934
 21
352.67691956804009
  0
ARC
  8
_0-1_計細線
  6
CONTINUOUS
 62
    3
 10
801.00370490644445
 20
355.48767148437571
 40
2
 50
273.22895517436575
 51
347.09817799999473
  0
ARC
  8
_0-1_計細線
  6
CONTINUOUS
 62
    3
 10
810.19774090644489
 20
356.00297148437551
 40
2
 50
193.2526349096043
 51
273.20791199998894
  0
LINE
  8
_0-1_計細線
  6
CONTINUOUS
 62
    3
 10
818.73585879328959
 20
354.47836987454303
 11
810.30965966435315
 21
354.00610541475987
  0
LINE
  8
_0-1_計細線
  6
CONTINUOUS
 62
    3
 10
837.65300890644448
 20
363.46869999789863
 11
818.73585879328959
 21
354.47836987454303
  0
LINE
  8
_0-1_計細線
  6
CONTINUOUS
 62
    3
 10
837.65300890644448
 20
365.45777548437565
 11
782.65300890644448
 21
365.45777548437565
  0
LINE
  8
_0-1_計細線
  6
CONTINUOUS
 62
    3
 10
837.65300890644448
 20
363.46869999789863
 11
837.65300890644448
 21
365.45777548437565
  0
LINE
  8
_0-1_計細線
  6
CONTINUOUS
 62
    3
 10
843.65486469235577
 20
365.45777548437565
 11
837.65300890644448
 21
365.45777548437565
  0
LINE
  8
_0-1_計細線
  6
CONTINUOUS
 62
    3
 10
845.64720262184994
 20
357.45777548437565
 11
843.65486469235577
 21
365.45777548437565
  0
LINE
  8
_0-1_計細線
  6
CONTINUOUS
 62
    3
 10
845.64720262184994
 20
357.45777548437565
 11
833.67599714195876
 21
357.45777548437565
  0
LINE
  8
_0-1_計細線
  6
CONTINUOUS
 62
    3
 10
833.67599714195876
 20
357.45777548437565
 11
819.77711122001995
 21
349.52888138985622
  0
ARC
  8
_0-1_計細線
  6
CONTINUOUS
 62
    3
 10
744.6530089064446
 20
256.45777548437553
 40
1
 50
269.99999999999977
 51
293.29048928561559
  0
ARC
  8
_0-1_計細線
  6
CONTINUOUS
 62
    3
 10
744.6530089064446
 20
256.45777548437553
 40
1
 50
293.29048928561559
 51
359.99999999999966
  0
LINE
  8
_0-1_計細線
  6
CONTINUOUS
 62
    3
 10
745.04840194763119
 20
255.53926345779072
 11
745.6534909064444
 21
237.45777548437556
  0
LINE
  8
_0-1_計細線
  6
CONTINUOUS
 62
    3
 10
752.79876090644439
 20
237.45777548437556
 11
745.6534909064444
 21
237.45777548437556
  0
ARC
  8
_0-1_計細線
  6
CONTINUOUS
 62
    3
 10
752.79876090644439
 20
239.45777548437553
 40
2
 50
269.99999999999977
 51
355.18450035393801
  0
LINE
  8
_0-1_計細線
  6
CONTINUOUS
 62
    3
 10
756.2668928833732
 20
256.87573320934001
 11
754.79170127898317
 21
239.28988066163021
  0
ARC
  8
_0-1_計細線
  6
CONTINUOUS
 62
    3
 10
761.24939339417506
 20
256.45777548437553
 40
5
 50
89.999999999999915
 51
175.20496191478867
  0
LINE
  8
_0-1_計細線
  6
CONTINUOUS
 62
    3
 10
767.96505000704019
 20
266.45777548437553
 11
742.6818992574681
 21
266.45777548437542
  0
LINE
  8
_0-1_計細線
  6
CONTINUOUS
 62
    3
 10
778.31565604348725
 20
344.3983686214184
 11
775.96055292852498
 21
274.18957214262235
  0
ARC
  8
_0-1_計細線
  6
CONTINUOUS
 62
    3
 10
767.96505000704019
 20
274.45777548437553
 40
8
 50
269.99999999999977
 51
358.07877504897607
  0
LINE
  8
_0-1_計細線
  6
CONTINUOUS
 62
    3
 10
767.96505071168485
 20
261.45777548437553
 11
761.24939339417506
 21
261.45777548437553
  0
ARC
  8
_0-1_計細線
  6
CONTINUOUS
 62
    3
 10
767.96505071168485
 20
274.45777548437553
 40
13
 50
269.99999999999977
 51
358.07877479672607
  0
LINE
  8
_0-1_計細線
  6
CONTINUOUS
 62
    3
 10
819.77711122001995
 20
349.52888138985622
 11
794.1802785273785
 21
348.09425157522435
  0
ARC
  8
_0-1_計細線
  6
CONTINUOUS
 62
    3
 10
794.34815654219949
 20
345.09895242953945
 40
3.0000000000000004
 50
93.207909628724437
 51
178.07874735826064
  0
LINE
  8
_0-1_計細線
  6
CONTINUOUS
 62
    3
 10
791.34984299525115
 20
345.19953013176433
 11
791.27663682420462
 21
343.01718703271939
  0
ARC
  8
_0-1_計細線
  6
CONTINUOUS
 62
    3
 10
788.27832327725582
 20
343.11776473494427
 40
3.0000000000000004
 50
277.10408839401691
 51
358.07874735826061
  0
LINE
  8
_0-1_計細線
  6
CONTINUOUS
 62
    3
 10
788.64934013285801
 20
340.14079538796415
 11
785.69410768003081
 21
339.77248758078673
  0
LINE
  8
_0-1_計細線
  6
CONTINUOUS
 62
    3
 10
783.06681094051839
 20
336.89609450016451
 11
780.95774295717877
 21
274.02194499682508
  0
ARC
  8
_0-1_計細線
  6
CONTINUOUS
 62
    3
 10
786.06512453563255
 20
336.79551823380666
 40
3.0000000000000004
 50
97.104088394008684
 51
178.07877479672564
  0
LINE
  8
_0-1_計細線
  6
CONTINUOUS
 62
    3
 10
806.90086694186857
 20
361.30032933335855
 11
808.25100347244779
 21
355.54448117578039
  0
LINE
  8
_0-1_計細線
  6
CONTINUOUS
 62
    3
 10
804.38522826280132
 20
361.29269745303026
 11
802.95321290644461
 21
355.04110948437551
  0
ARC
  8
_0-1_計細線
  6
CONTINUOUS
 62
    3
 10
805.44050504817642
 20
360.9577754843757
 40
1.5000000000000002
 50
13.201080650605943
 51
82.205637111457847
  0
ARC
  8
_0-1_計細線
  6
CONTINUOUS
 62
    3
 10
805.84735933589729
 20
360.9577754843757
 40
1.5000000000000002
 50
97.794362888559363
 51
167.0981662892649
  0
LINE
  8
_0-1_計細線
  6
CONTINUOUS
 62
    3
 10
805.65318443010256
 20
362.45777548437565
 11
782.65300890644448
 21
362.45777548437565
  0
LINE
  8
_0-1_計細線
  6
CONTINUOUS
 62
    3
 10
742.6818992574681
 20
266.45777548437553
 11
715.65300890644448
 21
266.45777548437553
  0
LINE
  8
_0-1_計細線
  6
CONTINUOUS
 62
    3
 10
742.84922290644454
 20
261.45777548437553
 11
715.65300890644448
 21
261.45777548437553
  0
LINE
  8
_0-1_計細線
  6
CONTINUOUS
 62
    3
 10
744.6530089064446
 20
255.45777548437556
 11
715.65300890644448
 21
255.45777548437556
  0
LINE
  8
_0-1_計細線
  6
CONTINUOUS
 62
    3
 10
743.58544290644477
 20
239.45777548437553
 11
715.65300890644448
 21
239.45777548437553
  0
LINE
  8
_0-1_計細線
  6
CONTINUOUS
 62
    3
 10
745.65344585587127
 20
237.45777548437556
 11
715.65300890644448
 21
237.45777548437556
  0
ARC
  8
_0-0_計極細
  6
CONTINUOUS
 62
    2
 10
769.6530089064446
 20
365.27169948437569
 40
1
 50
281.33474700000983
 51
359.20218778496201
  0
ARC
  8
_0-0_計極細
  6
CONTINUOUS
 62
    2
 10
774.6530089064446
 20
364.2577754843756
 40
1
 50
0
 51
89.999999999999915
  0
LINE
  8
_0-0_計極細
  6
CONTINUOUS
 62
    2
 10
775.65300890644448
 20
360.65777548437546
 11
775.65300890644448
 21
364.2577754843756
  0
LINE
  8
_0-0_計極細
  6
CONTINUOUS
 62
    2
 10
774.6530089064446
 20
365.2577754843756
 11
770.65291196285773
 21
365.2577754843756
  0
LINE
  8
_0-0_計極細
  6
CONTINUOUS
 62
    2
 10
774.6530089064446
 20
359.65777548437552
 11
770.65240779066244
 21
359.65777548437552
  0
ARC
  8
_0-0_計極細
  6
CONTINUOUS
 62
    2
 10
769.6530089064446
 20
359.62310748437545
 40
1
 50
1.9867281846708424
 51
78.665252999989789
  0
ARC
  8
_0-0_計極細
  6
CONTINUOUS
 62
    2
 10
774.6530089064446
 20
360.65777548437546
 40
1
 50
269.99999999999977
 51
359.99999999999966
  0
LINE
  8
_0-1_計細線
  6
CONTINUOUS
 62
    3
 10
779.75403290644465
 20
370.45777548437565
 11
766.15300890644448
 21
370.45777548437565
  0
LINE
  8
_0-1_計細線
  6
CONTINUOUS
 62
    3
 10
776.6530089064446
 20
365.45777548437565
 11
766.15300890644448
 21
365.45777548437565
  0
LINE
  8
_0-1_計細線
  6
CONTINUOUS
 62
    3
 10
776.6530089064446
 20
359.4577754843757
 11
766.15300890644448
 21
359.4577754843757
  0
LINE
  8
_0-1_計細線
  6
CONTINUOUS
 62
    3
 10
775.55077090644454
 20
354.4577754843757
 11
766.15300890644448
 21
354.4577754843757
  0
LINE
  8
_0-0_計極細
  6
CONTINUOUS
 62
    2
 10
769.84955090644462
 20
364.29120348437556
 11
766.15300890644448
 21
363.55023020526676
  0
LINE
  8
_0-0_計極細
  6
CONTINUOUS
 62
    2
 10
766.15300890644448
 20
361.34457556723015
 11
769.84955090644462
 21
360.60360148437559
  0
LINE
  8
_0-0_計極細
  6
CENTER1
 62
    2
 10
775.69353690644448
 20
345.31178348437555
 11
791.22780490644448
 21
360.84605148437555
  0
LINE
  8
_0-1_計細線
  6
CONTINUOUS
 62
    3
 10
660.65300921260632
 20
365.45777548437565
 11
660.65300921260632
 21
370.45777548437565
  0
ARC
  8
_0-1_計細線
  6
CONTINUOUS
 62
    3
 10
651.55198521260627
 20
369.4577754843757
 40
1
 50
89.999999999999915
 51
173.65980800000392
  0
LINE
  8
_0-1_計細線
  6
CONTINUOUS
 62
    3
 10
660.65300921260632
 20
354.4577754843757
 11
660.65300921260632
 21
359.4577754843757
  0
ARC
  8
_0-1_計細線
  6
CONTINUOUS
 62
    3
 10
655.75524721260638
 20
351.45777548437565
 40
3.0000000000000004
 50
89.999999999999915
 51
181.92122399999818
  0
LINE
  8
_0-1_計細線
  6
CONTINUOUS
 62
    3
 10
650.55810121260629
 20
369.56820548437565
 11
649.07493921260641
 21
356.2197474843756
  0
LINE
  8
_0-1_計細線
  6
CONTINUOUS
 62
    3
 10
654.65300921260632
 20
359.4577754843757
 11
654.65300921260632
 21
365.45777548437565
  0
LINE
  8
_0-1_計細線
  6
CONTINUOUS
 62
    3
 10
585.65300921260632
 20
357.45777548437565
 11
585.65300921260632
 21
357.47729948437558
  0
ARC
  8
_0-1_計細線
  6
CONTINUOUS
 62
    3
 10
686.65300921260632
 20
260.45777548437559
 40
1
 50
89.999999999999915
 51
179.99999999999983
  0
LINE
  8
_0-1_計細線
  6
CONTINUOUS
 62
    3
 10
685.65300921260632
 20
256.45777548437553
 11
685.65300921260632
 21
260.45777548437559
  0
LINE
  8
_0-1_計細線
  6
CONTINUOUS
 62
    3
 10
652.7646527463271
 20
351.69514595065465
 11
648.93461460423441
 21
355.52518409274705
  0
LINE
  8
_0-1_計細線
  6
CONTINUOUS
 62
    3
 10
688.25600921260639
 20
255.45777548437556
 11
687.72042716708211
 21
239.45336212400318
  0
LINE
  8
_0-1_計細線
  6
CONTINUOUS
 62
    3
 10
687.72042716708211
 20
239.45336212400318
 11
685.65257226317954
 21
237.45912170195453
  0
LINE
  8
_0-1_計細線
  6
CONTINUOUS
 62
    3
 10
686.65300921260632
 20
261.45777548437553
 11
688.45679521260638
 21
261.45777548437553
  0
LINE
  8
_0-1_計細線
  6
CONTINUOUS
 62
    3
 10
688.6241188615827
 20
266.45777548437542
 11
688.45679521260638
 21
261.45777548437553
  0
LINE
  8
_0-1_計細線
  6
CONTINUOUS
 62
    3
 10
652.75693321260633
 20
351.3571974843756
 11
652.99036204567892
 21
344.39836951232041
  0
LINE
  8
_0-1_計細線
  6
CONTINUOUS
 62
    3
 10
652.99036207556355
 20
344.3983686214184
 11
644.70806831012078
 21
352.68066238686066
  0
ARC
  8
_0-1_計細線
  6
CONTINUOUS
 62
    3
 10
645.09940321260638
 20
356.66147348437551
 40
4
 50
264.38555964091688
 51
353.65980799999818
  0
LINE
  8
_0-1_計細線
  6
CONTINUOUS
 62
    3
 10
630.18966106662356
 20
353.49084663126371
 11
644.71181112894146
 21
352.67691956804009
  0
ARC
  8
_0-1_計細線
  6
CONTINUOUS
 62
    3
 10
630.30231321260635
 20
355.48767148437571
 40
2
 50
192.90182200000456
 51
266.77104482563351
  0
ARC
  8
_0-1_計細線
  6
CONTINUOUS
 62
    3
 10
621.10827721260603
 20
356.00297148437551
 40
2
 50
266.79208800001032
 51
346.74736509039496
  0
LINE
  8
_0-1_計細線
  6
CONTINUOUS
 62
    3
 10
612.57015932576132
 20
354.47836987454303
 11
620.99635845469766
 21
354.00610541475987
  0
LINE
  8
_0-1_計細線
  6
CONTINUOUS
 62
    3
 10
593.65300921260632
 20
363.46869999789863
 11
612.57015932576132
 21
354.47836987454303
  0
LINE
  8
_0-1_計細線
  6
CONTINUOUS
 62
    3
 10
593.65300921260632
 20
365.45777548437565
 11
648.65300921260643
 21
365.45777548437565
  0
LINE
  8
_0-1_計細線
  6
CONTINUOUS
 62
    3
 10
593.65300921260632
 20
363.46869999789863
 11
593.65300921260632
 21
365.45777548437565
  0
LINE
  8
_0-1_計細線
  6
CONTINUOUS
 62
    3
 10
587.65115342669515
 20
365.45777548437565
 11
593.65300921260632
 21
365.45777548437565
  0
LINE
  8
_0-1_計細線
  6
CONTINUOUS
 62
    3
 10
585.65881549720098
 20
357.45777548437565
 11
587.65115342669515
 21
365.45777548437565
  0
LINE
  8
_0-1_計細線
  6
CONTINUOUS
 62
    3
 10
585.65881549720098
 20
357.45777548437565
 11
597.63002097709204
 21
357.45777548437565
  0
LINE
  8
_0-1_計細線
  6
CONTINUOUS
 62
    3
 10
597.63002097709204
 20
357.45777548437565
 11
611.52890689903097
 21
349.52888138985622
  0
ARC
  8
_0-1_計細線
  6
CONTINUOUS
 62
    3
 10
686.65300921260632
 20
256.45777548437553
 40
1
 50
246.7095107143837
 51
269.99999999999977
  0
ARC
  8
_0-1_計細線
  6
CONTINUOUS
 62
    3
 10
686.65300921260632
 20
256.45777548437553
 40
1
 50
179.99999999999983
 51
246.7095107143837
  0
LINE
  8
_0-1_計細線
  6
CONTINUOUS
 62
    3
 10
686.25761617141961
 20
255.53926345779072
 11
685.65252721260651
 21
237.45777548437556
  0
LINE
  8
_0-1_計細線
  6
CONTINUOUS
 62
    3
 10
678.50725721260642
 20
237.45777548437556
 11
685.65252721260651
 21
237.45777548437556
  0
ARC
  8
_0-1_計細線
  6
CONTINUOUS
 62
    3
 10
678.50725721260642
 20
239.45777548437553
 40
2
 50
184.81549964606128
 51
269.99999999999977
  0
LINE
  8
_0-1_計細線
  6
CONTINUOUS
 62
    3
 10
675.0391252356776
 20
256.87573320934001
 11
676.51431684006775
 21
239.28988066163021
  0
ARC
  8
_0-1_計細線
  6
CONTINUOUS
 62
    3
 10
670.05662472487575
 20
256.45777548437553
 40
5
 50
4.7950380852113419
 51
89.999999999999915
  0
LINE
  8
_0-1_計細線
  6
CONTINUOUS
 62
    3
 10
663.34096811201061
 20
266.45777548437553
 11
688.6241188615827
 21
266.45777548437542
  0
LINE
  8
_0-1_計細線
  6
CONTINUOUS
 62
    3
 10
652.99036207556355
 20
344.3983686214184
 11
655.34546519052583
 21
274.18957214262235
  0
ARC
  8
_0-1_計細線
  6
CONTINUOUS
 62
    3
 10
663.34096811201061
 20
274.45777548437553
 40
8
 50
181.92122495102319
 51
269.99999999999977
  0
LINE
  8
_0-1_計細線
  6
CONTINUOUS
 62
    3
 10
663.34096740736595
 20
261.45777548437553
 11
670.05662472487575
 21
261.45777548437553
  0
ARC
  8
_0-1_計細線
  6
CONTINUOUS
 62
    3
 10
663.34096740736595
 20
274.45777548437553
 40
13
 50
181.92122520327322
 51
269.99999999999977
  0
LINE
  8
_0-1_計細線
  6
CONTINUOUS
 62
    3
 10
611.52890689903097
 20
349.52888138985622
 11
637.1257395916723
 21
348.09425157522435
  0
ARC
  8
_0-1_計細線
  6
CONTINUOUS
 62
    3
 10
636.95786157685143
 20
345.09895242953945
 40
3.0000000000000004
 50
1.921252641739341
 51
86.792090371275577
  0
LINE
  8
_0-1_計細線
  6
CONTINUOUS
 62
    3
 10
639.95617512379977
 20
345.19953013176433
 11
640.02938129484619
 21
343.01718703271939
  0
ARC
  8
_0-1_計細線
  6
CONTINUOUS
 62
    3
 10
643.0276948417951
 20
343.11776473494427
 40
3.0000000000000004
 50
181.92125264173868
 51
262.89591160598235
  0
LINE
  8
_0-1_計細線
  6
CONTINUOUS
 62
    3
 10
642.65667798619279
 20
340.14079538796415
 11
645.61191043901999
 21
339.77248758078673
  0
LINE
  8
_0-1_計細線
  6
CONTINUOUS
 62
    3
 10
648.23920717853252
 20
336.89609450016451
 11
650.34827516187215
 21
274.02194499682508
  0
ARC
  8
_0-1_計細線
  6
CONTINUOUS
 62
    3
 10
645.24089358341826
 20
336.79551823380666
 40
3.0000000000000004
 50
1.9212252032743715
 51
82.89591160599133
  0
LINE
  8
_0-1_計細線
  6
CONTINUOUS
 62
    3
 10
624.40515117718223
 20
361.30032933335855
 11
623.05501464660301
 21
355.54448117578039
  0
LINE
  8
_0-1_計細線
  6
CONTINUOUS
 62
    3
 10
626.92078985624948
 20
361.29269745303026
 11
628.3528052126062
 21
355.04110948437551
  0
ARC
  8
_0-1_計細線
  6
CONTINUOUS
 62
    3
 10
625.86551307087439
 20
360.9577754843757
 40
1.5000000000000002
 50
97.794362888542167
 51
166.79891934939405
  0
ARC
  8
_0-1_計細線
  6
CONTINUOUS
 62
    3
 10
625.45865878315362
 20
360.9577754843757
 40
1.5000000000000002
 50
12.901833710735101
 51
82.205637111440637
  0
LINE
  8
_0-1_計細線
  6
CONTINUOUS
 62
    3
 10
625.65283368894825
 20
362.45777548437565
 11
648.65300921260643
 21
362.45777548437565
  0
LINE
  8
_0-1_計細線
  6
CONTINUOUS
 62
    3
 10
688.6241188615827
 20
266.45777548437553
 11
715.65300921260632
 21
266.45777548437553
  0
LINE
  8
_0-1_計細線
  6
CONTINUOUS
 62
    3
 10
688.45679521260638
 20
261.45777548437553
 11
715.65300921260632
 21
261.45777548437553
  0
LINE
  8
_0-1_計細線
  6
CONTINUOUS
 62
    3
 10
686.65300921260632
 20
255.45777548437556
 11
715.65300921260632
 21
255.45777548437556
  0
LINE
  8
_0-1_計細線
  6
CONTINUOUS
 62
    3
 10
687.72057521260604
 20
239.45777548437553
 11
715.65300921260632
 21
239.45777548437553
  0
LINE
  8
_0-1_計細線
  6
CONTINUOUS
 62
    3
 10
685.65257226317954
 20
237.45777548437556
 11
715.65300921260632
 21
237.45777548437556
  0
ARC
  8
_0-0_計極細
  6
CONTINUOUS
 62
    2
 10
661.65300921260632
 20
365.27169948437569
 40
1
 50
180.79781221503731
 51
258.66525299998938
  0
ARC
  8
_0-0_計極細
  6
CONTINUOUS
 62
    2
 10
656.65300921260632
 20
364.2577754843756
 40
1
 50
89.999999999999915
 51
179.99999999999983
  0
LINE
  8
_0-0_計極細
  6
CONTINUOUS
 62
    2
 10
655.65300921260632
 20
360.65777548437546
 11
655.65300921260632
 21
364.2577754843756
  0
LINE
  8
_0-0_計極細
  6
CONTINUOUS
 62
    2
 10
656.65300921260632
 20
365.2577754843756
 11
660.65310615619319
 21
365.2577754843756
  0
LINE
  8
_0-0_計極細
  6
CONTINUOUS
 62
    2
 10
656.65300921260632
 20
359.65777548437552
 11
660.65361032838837
 21
359.65777548437552
  0
ARC
  8
_0-0_計極細
  6
CONTINUOUS
 62
    2
 10
661.65300921260632
 20
359.62310748437545
 40
1
 50
101.33474700001022
 51
178.01327181532918
  0
ARC
  8
_0-0_計極細
  6
CONTINUOUS
 62
    2
 10
656.65300921260632
 20
360.65777548437546
 40
1
 50
179.99999999999983
 51
269.99999999999977
  0
LINE
  8
_0-1_計細線
  6
CONTINUOUS
 62
    3
 10
651.55198521260627
 20
370.45777548437565
 11
665.15300921260632
 21
370.45777548437565
  0
LINE
  8
_0-1_計細線
  6
CONTINUOUS
 62
    3
 10
654.65300921260632
 20
365.45777548437565
 11
665.15300921260632
 21
365.45777548437565
  0
LINE
  8
_0-1_計細線
  6
CONTINUOUS
 62
    3
 10
654.65300921260632
 20
359.4577754843757
 11
665.15300921260632
 21
359.4577754843757
  0
LINE
  8
_0-1_計細線
  6
CONTINUOUS
 62
    3
 10
655.75524721260638
 20
354.4577754843757
 11
665.15300921260632
 21
354.4577754843757
  0
LINE
  8
_0-0_計極細
  6
CONTINUOUS
 62
    2
 10
661.45646721260619
 20
364.29120348437556
 11
665.15300921260632
 21
363.55023020526676
  0
LINE
  8
_0-0_計極細
  6
CONTINUOUS
 62
    2
 10
665.15300921260632
 20
361.34457556723015
 11
661.45646721260619
 21
360.60360148437559
  0
LINE
  8
_0-0_計極細
  6
CENTER1
 62
    2
 10
655.61248121260633
 20
345.31178348437555
 11
640.07821321260644
 21
360.84605148437555
  0
LINE
  8
_0-0_計極細
  6
CONTINUOUS
 62
    2
 10
652.87192351385443
 20
348.46791829737379
 11
652.85322474918644
 21
348.48661706204166
  0
LINE
  8
_0-0_計極細
  6
CENTER1
 62
    2
 10
715.6530090595254
 20
782.45777548437559
 11
715.6530090595254
 21
217.80407629779117
  0
LINE
  8
_0-5_寸法線
  6
CONTINUOUS
 62
    7
 10
453.65300905952546
 20
383.9577754843757
 11
458.65300905952523
 21
375.29752144653122
  0
LINE
  8
_0-5_寸法線
  6
CONTINUOUS
 62
    7
 10
453.65300905952546
 20
383.9577754843757
 11
453.65300905952523
 21
373.9577754843757
  0
LINE
  8
_0-5_寸法線
  6
CONTINUOUS
 62
    7
 10
453.65300905952546
 20
383.9577754843757
 11
460.71881655818487
 21
357.58782290287576
  0
LINE
  8
_0-5_寸法線
  6
CONTINUOUS
 62
    7
 10
460.71881655818487
 20
357.58782290287576
 11
508.71881655818476
 21
357.58782290287576
  0
TEXT
  8
_0-5_寸法線
 62
    7
 10
460.71881655818487
 20
357.58782290287576
 40
15
 41
0.8000000000000001
 50
0
  1
アンカー
  0
LINE
  8
_0-5_寸法線
  6
CONTINUOUS
 62
    7
 10
664.88234223977702
 20
396.36861258999875
 11
661.16716096635514
 21
387.08435558657533
  0
LINE
  8
_0-5_寸法線
  6
CONTINUOUS
 62
    7
 10
664.88234223977702
 20
396.36861258999875
 11
657.02277237561793
 21
390.18580080648144
  0
LINE
  8
_0-5_寸法線
  6
CONTINUOUS
 62
    7
 10
664.88234223977702
 20
396.36861258999875
 11
578.30961271981596
 21
280.68350224573635
  0
LINE
  8
_0-5_寸法線
  6
CONTINUOUS
 62
    7
 10
578.30961271981596
 20
280.68350224573635
 11
446.30961271981596
 21
280.68350224573635
  0
TEXT
  8
_0-5_寸法線
 62
    7
 10
446.30961271981596
 20
280.68350224573635
 40
15
 41
0.7999999999999998
 50
0
  1
縦引き排水トラップ一式
  0
LINE
  8
_0-5_寸法線
  6
CONTINUOUS
 62
    7
 10
654.57189518883979
 20
295.97794378338
 11
650.88410049656329
 21
286.68277459139563
  0
LINE
  8
_0-5_寸法線
  6
CONTINUOUS
 62
    7
 10
654.57189518883979
 20
295.97794378338
 11
646.73058670539478
 21
289.77198847678528
  0
LINE
  8
_0-5_寸法線
  6
CONTINUOUS
 62
    7
 10
654.57189518883979
 20
295.97794378338
 11
578.30961271981585
 21
193.44168254256118
  0
LINE
  8
_0-5_寸法線
  6
CONTINUOUS
 62
    7
 10
578.30961271981585
 20
193.44168254256118
 11
494.30961271981579
 21
193.44168254256118
  0
TEXT
  8
_0-5_寸法線
 62
    7
 10
494.30961271981585
 20
193.44168254256118
 40
15
 41
0.7999999999999998
 50
0
  1
防水マス縦引き
  0
CIRCLE
  8
_1-1_寸法4
  6
CONTINUOUS
 62
    7
 10
355.83058746302493
 20
378.82223004194282
 40
25
  0
ARC
  8
_0-e_極細4
  6
CONTINUOUS
 62
    6
 10
245.7055874630251
 20
383.3951596835376
 40
0.625
 50
179.99999999999983
 51
269.99999999999977
  0
LINE
  8
_0-e_極細4
  6
CONTINUOUS
 62
    6
 10
246.45558746302484
 20
382.7701596835376
 11
246.45558746302484
 21
384.02015968353766
  0
ARC
  8
_0-e_極細4
  6
CONTINUOUS
 62
    6
 10
355.20558746302493
 20
383.3951596835376
 40
0.625
 50
269.99999999999977
 51
359.99999999999966
  0
LINE
  8
_0-e_極細4
  6
CONTINUOUS
 62
    6
 10
354.45558746302487
 20
382.7701596835376
 11
354.45558746302487
 21
384.02015968353766
  0
LINE
  8
_0-e_極細4
  6
CONTINUOUS
 62
    6
 10
266.08058746302572
 20
215.63630878353266
 11
265.97642079635716
 21
221.88630878353266
  0
LINE
  8
_0-e_極細4
  6
CONTINUOUS
 62
    6
 10
300.45558746302419
 20
215.63630878353266
 11
266.08058746302572
 21
215.63630878353266
  0
LINE
  8
_0-e_極細4
  6
CONTINUOUS
 62
    6
 10
248.58058746302575
 20
253.13630878353266
 11
247.33058746302575
 21
253.13630878353266
  0
LINE
  8
_0-e_極細4
  6
CONTINUOUS
 62
    6
 10
241.54933745829481
 20
328.67307160706684
 11
251.39308746302575
 21
328.67307160706684
  0
LINE
  8
_0-e_極細4
  6
CONTINUOUS
 62
    6
 10
266.70558746302572
 20
291.5211125335328
 11
266.70558746302572
 21
365.23894093353772
  0
ARC
  8
_0-e_極細4
  6
CONTINUOUS
 62
    6
 10
267.95558746302419
 20
291.5211125335328
 40
1.25
 50
179.99999999999983
 51
270.00045836625543
  0
LINE
  8
_0-e_極細4
  6
CONTINUOUS
 62
    6
 10
267.95558746302419
 20
290.2711125335328
 11
300.45558746302419
 21
290.2711125335328
  0
LINE
  8
_0-e_極細4
  6
CONTINUOUS
 62
    6
 10
265.97642121302397
 20
221.88630878353266
 11
249.08058746302416
 21
221.88630878353266
  0
LINE
  8
_0-e_極細4
  6
CONTINUOUS
 62
    6
 10
249.08058746302416
 20
221.88630878353266
 11
248.58058746302575
 21
253.13630878353266
  0
LINE
  8
_0-e_極細4
  6
CONTINUOUS
 62
    6
 10
237.33058746302575
 20
263.13630878353263
 11
237.33058746302575
 21
355.59867093353728
  0
ARC
  8
_0-e_極細4
  6
CONTINUOUS
 62
    6
 10
247.33058746302575
 20
263.13630878353263
 40
10
 50
179.99999999999983
 51
269.99999999999977
  0
LINE
  8
_0-e_極細4
  6
CONTINUOUS
 62
    6
 10
265.97642079635716
 20
221.88630878353266
 11
265.45558746302572
 21
253.13630878353266
  0
LINE
  8
_0-e_極細4
  6
CONTINUOUS
 62
    6
 10
250.45558746302575
 20
256.26130878353263
 11
269.20558746302572
 21
256.26130878353263
  0
LINE
  8
_0-e_極細4
  6
CONTINUOUS
 62
    6
 10
240.45558746302575
 20
266.26130878353263
 11
240.45558746302575
 21
329.91326753353303
  0
LINE
  8
_0-e_極細4
  6
CONTINUOUS
 62
    6
 10
268.58058746302572
 20
215.63630878353266
 11
269.20558746302572
 21
256.26130878353263
  0
LINE
  8
_0-e_極細4
  6
CONTINUOUS
 62
    6
 10
265.45558746302572
 20
253.13630878353266
 11
252.95558746302575
 21
253.13630878353266
  0
ARC
  8
_0-e_極細4
  6
CONTINUOUS
 62
    6
 10
250.45558746302575
 20
266.26130878353263
 40
10
 50
179.99999999999983
 51
269.99999999999977
  0
LINE
  8
_0-e_極細4
  6
CONTINUOUS
 62
    6
 10
269.20558746302572
 20
256.26130878353263
 11
300.45558746302419
 21
256.26130878353263
  0
LINE
  8
_0-e_極細4
  6
CONTINUOUS
 62
    6
 10
269.20361371302448
 20
256.13296753353393
 11
269.20558746302572
 21
256.26130878353263
  0
LINE
  8
_0-e_極細4
  6
CONTINUOUS
 62
    6
 10
251.39308746302575
 20
283.76130878353263
 11
251.39308746302575
 21
317.51130878353263
  0
LINE
  8
_0-e_極細4
  6
CONTINUOUS
 62
    6
 10
266.39308746302572
 20
268.76130878353263
 11
269.20558746302572
 21
268.76130878353263
  0
LINE
  8
_0-e_極細4
  6
CONTINUOUS
 62
    6
 10
269.20558746302572
 20
256.26130878353263
 11
269.20558746302572
 21
268.76130878353263
  0
ARC
  8
_0-e_極細4
  6
CONTINUOUS
 62
    6
 10
266.39308746302572
 20
283.76130878353263
 40
15
 50
179.99999999999983
 51
269.99999999999977
  0
ARC
  8
_0-e_極細4
  6
CONTINUOUS
 62
    6
 10
241.70558746302575
 20
329.91326753353303
 40
1.25
 50
179.99999999999983
 51
262.81924399997968
  0
LINE
  8
_0-e_極細4
  6
CONTINUOUS
 62
    6
 10
240.45558746302575
 20
329.91326753353303
 11
240.45558746302575
 21
363.76132968353727
  0
LINE
  8
_0-e_極細4
  6
CONTINUOUS
 62
    6
 10
252.64308746302575
 20
221.88630878353266
 11
252.95558746302575
 21
253.13630878353266
  0
LINE
  8
_0-e_極細4
  6
CONTINUOUS
 62
    6
 10
299.20986871302443
 20
256.88199878353271
 11
299.29170621302461
 21
268.74845503353311
  0
ARC
  8
_0-e_極細4
  6
CONTINUOUS
 62
    6
 10
298.58488246302454
 20
256.88630878353263
 40
0.625
 50
269.99999999999977
 51
359.6048630000451
  0
LINE
  8
_0-e_極細4
  6
CONTINUOUS
 62
    6
 10
300.45558746302419
 20
268.76130878353263
 11
299.29179496302436
 21
268.76130878353263
  0
LINE
  8
_0-e_極細4
  6
CONTINUOUS
 62
    6
 10
299.29179496302436
 20
268.76130878353263
 11
266.39308746302572
 21
268.76130878353263
  0
LINE
  8
_0-e_極細4
  6
CONTINUOUS
 62
    6
 10
251.39308746302575
 20
283.76130878353263
 11
251.39308746302575
 21
356.0113296835375
  0
LINE
  8
_0-e_極細4
  6
CONTINUOUS
 62
    6
 10
253.89308746302575
 20
283.76130878353263
 11
253.89308746302575
 21
356.0113296835375
  0
LINE
  8
_0-e_極細4
  6
CONTINUOUS
 62
    6
 10
300.45558746302419
 20
271.26130878353263
 11
266.39308746302572
 21
271.26130878353263
  0
ARC
  8
_0-e_極細4
  6
CONTINUOUS
 62
    6
 10
266.39308746302572
 20
283.76130878353263
 40
12.5
 50
179.99999999999983
 51
269.99999999999977
  0
LINE
  8
_0-e_極細4
  6
CONTINUOUS
 62
    6
 10
250.14308746302419
 20
374.02113343353756
 11
300.45558746302419
 21
374.02113343353756
  0
LINE
  8
_0-e_極細4
  6
CONTINUOUS
 62
    6
 10
250.14308746302419
 20
368.52113343353733
 11
250.14308746302419
 21
374.02113343353756
  0
LINE
  8
_0-e_極細4
  6
CONTINUOUS
 62
    6
 10
246.08058746302575
 20
374.02113343353756
 11
250.14308746302419
 21
374.02113343353756
  0
LINE
  8
_0-e_極細4
  6
CONTINUOUS
 62
    6
 10
247.33058746302575
 20
368.52113343353733
 11
250.14308746302419
 21
368.52113343353733
  0
LINE
  8
_0-e_極細4
  6
CONTINUOUS
 62
    6
 10
247.33058746302575
 20
367.27113343353733
 11
247.33058746302575
 21
368.52113343353733
  0
ARC
  8
_0-e_極細4
  6
CONTINUOUS
 62
    6
 10
249.83058746302575
 20
367.27113343353733
 40
2.5
 50
179.99999999999983
 51
269.99999999999977
  0
LINE
  8
_0-e_極細4
  6
CONTINUOUS
 62
    6
 10
249.83058746302575
 20
364.7711334335379
 11
253.58058746302575
 21
364.7711334335379
  0
ARC
  8
_0-e_極細4
  6
CONTINUOUS
 62
    6
 10
237.98183746302499
 20
388.08265968353766
 40
1.3125000000000142
 50
4.1509899999989033
 51
89.999999999999915
  0
LINE
  8
_0-e_極細4
  6
CONTINUOUS
 62
    6
 10
237.98183746302499
 20
370.24390968353725
 11
237.98183746302499
 21
389.39515968353714
  0
LINE
  8
_0-e_極細4
  6
CONTINUOUS
 62
    6
 10
237.98183746302499
 20
389.38632900072406
 11
229.33058746302393
 21
390.61852593353717
  0
LINE
  8
_0-e_極細4
  6
CONTINUOUS
 62
    6
 10
234.20558746302575
 20
361.0113296835375
 11
234.20558746302575
 21
371.01132968353693
  0
ARC
  8
_0-e_極細4
  6
CONTINUOUS
 62
    6
 10
231.08058746302575
 20
355.59867093353728
 40
6.25
 50
0
 51
60.000000000000107
  0
LINE
  8
_0-e_極細4
  6
CONTINUOUS
 62
    6
 10
229.33058746302393
 20
371.01132968353693
 11
229.33058746302393
 21
371.70538093353764
  0
LINE
  8
_0-e_極細4
  6
CONTINUOUS
 62
    6
 10
234.20558746302575
 20
371.01132968353693
 11
229.33058746302393
 21
371.01132968353693
  0
LINE
  8
_0-e_極細4
  6
CONTINUOUS
 62
    6
 10
229.33058746302393
 20
371.70538093353764
 11
229.33058746302393
 21
391.48455218353786
  0
LINE
  8
_0-e_極細4
  6
CONTINUOUS
 62
    6
 10
239.83058746302575
 20
364.7613296835375
 11
239.83058746302575
 21
368.39515968353749
  0
LINE
  8
_0-e_極細4
  6
CONTINUOUS
 62
    6
 10
237.98183746302499
 20
363.76132968353727
 11
239.83058746302575
 21
364.7613296835375
  0
LINE
  8
_0-e_極細4
  6
CONTINUOUS
 62
    6
 10
229.33058746302393
 20
388.51132968353767
 11
237.98183746302499
 21
387.51132968353744
  0
ARC
  8
_0-e_極細4
  6
CONTINUOUS
 62
    6
 10
252.64308746302575
 20
356.0113296835375
 40
1.25
 50
89.999999999999915
 51
179.99999999999983
  0
ARC
  8
_0-e_極細4
  6
CONTINUOUS
 62
    6
 10
252.64308746302575
 20
356.0113296835375
 40
1.25
 50
0
 51
89.999999999999915
  0
LINE
  8
_0-e_極細4
  6
CONTINUOUS
 62
    6
 10
300.45558746302419
 20
390.27015968353766
 11
237.98183746302499
 21
390.27015968353766
  0
LINE
  8
_0-e_極細4
  6
CONTINUOUS
 62
    6
 10
250.14308746302419
 20
373.3951596835376
 11
245.0805874630251
 21
373.3951596835376
  0
LINE
  8
_0-e_極細4
  6
CONTINUOUS
 62
    6
 10
241.4040574630242
 20
387.14515968353766
 11
242.8930874630251
 21
387.14515968353766
  0
LINE
  8
_0-e_極細4
  6
CONTINUOUS
 62
    6
 10
245.0805874630251
 20
371.77015968353737
 11
245.0805874630251
 21
384.95765968353766
  0
LINE
  8
_0-e_極細4
  6
CONTINUOUS
 62
    6
 10
242.33058746302419
 20
387.14515968353766
 11
242.33058746302419
 21
390.27015968353766
  0
ARC
  8
_0-e_極細4
  6
CONTINUOUS
 62
    6
 10
242.8930874630251
 20
384.95765968353766
 40
2.1874999999999996
 50
0
 51
89.999999999999915
  0
ARC
  8
_0-e_極細4
  6
CONTINUOUS
 62
    6
 10
237.98183746302499
 20
388.08265968353766
 40
2.1874999999999996
 50
4.15098999999804
 51
89.999999999999915
  0
ARC
  8
_0-e_極細4
  6
CONTINUOUS
 62
    6
 10
241.4040574630242
 20
388.39515968353766
 40
1.25
 50
183.35088799997041
 51
269.99999999999977
  0
ARC
  8
_0-e_極細4
  6
CONTINUOUS
 62
    6
 10
241.4040574630242
 20
388.39515968353766
 40
2.1249999999999858
 50
183.35088800000156
 51
269.99999999999977
  0
LINE
  8
_0-e_極細4
  6
CONTINUOUS
 62
    6
 10
241.4040574630242
 20
386.27015968353714
 11
242.8930874630251
 21
386.27015968353714
  0
ARC
  8
_0-e_極細4
  6
CONTINUOUS
 62
    6
 10
242.8930874630251
 20
384.95765968353766
 40
1.3125000000000142
 50
0
 51
89.999999999999915
  0
LINE
  8
_0-e_極細4
  6
CONTINUOUS
 62
    6
 10
244.20558746302575
 20
370.89515968353749
 11
244.20558746302419
 21
384.95765968353766
  0
LINE
  8
_0-e_極細4
  6
CONTINUOUS
 62
    6
 10
237.98183746302499
 20
370.24390968353725
 11
239.83058746302575
 21
368.39515968353749
  0
LINE
  8
_0-e_極細4
  6
CONTINUOUS
 62
    6
 10
246.70558746302575
 20
365.89515968353749
 11
246.70558746302575
 21
373.3951596835376
  0
LINE
  8
_0-e_極細4
  6
CONTINUOUS
 62
    6
 10
246.70558746302575
 20
370.89515968353749
 11
244.20558746302575
 21
370.89515968353749
  0
LINE
  8
_0-e_極細4
  6
CONTINUOUS
 62
    6
 10
246.70558746302575
 20
371.77015968353737
 11
245.0805874630251
 21
371.77015968353737
  0
LINE
  8
_0-e_極細4
  6
CONTINUOUS
 62
    6
 10
247.74331746302394
 20
365.89515968353749
 11
246.70558746302575
 21
365.89515968353749
  0
LINE
  8
_0-e_極細4
  6
CONTINUOUS
 62
    6
 10
246.70558746302575
 20
368.39515968353749
 11
239.83058746302575
 21
368.39515968353749
  0
LINE
  8
_0-e_極細4
  6
CONTINUOUS
 62
    6
 10
263.22269621302507
 20
366.27015968353714
 11
256.97269621302507
 21
366.27015968353714
  0
LINE
  8
_0-e_極細4
  6
CONTINUOUS
 62
    6
 10
263.22269621302507
 20
366.27015968353714
 11
263.22269621302507
 21
368.39515968353749
  0
LINE
  8
_0-e_極細4
  6
CONTINUOUS
 62
    6
 10
256.97269621302507
 20
366.27015968353714
 11
256.97269621302507
 21
368.39515968353749
  0
LINE
  8
_0-e_極細4
  6
CONTINUOUS
 62
    6
 10
242.39308746302484
 20
387.39515968353783
 11
242.39308746302484
 21
389.02015968353766
  0
LINE
  8
_0-e_極細4
  6
CONTINUOUS
 62
    6
 10
300.45558746302419
 20
389.64515968353766
 11
243.01808746302484
 21
389.64515968353766
  0
LINE
  8
_0-e_極細4
  6
CONTINUOUS
 62
    6
 10
245.0805874630251
 20
387.14515968353766
 11
242.64308746302419
 21
387.14515968353766
  0
LINE
  8
_0-e_極細4
  6
CONTINUOUS
 62
    6
 10
245.0805874630251
 20
383.3951596835376
 11
245.0805874630251
 21
387.14515968353766
  0
ARC
  8
_0-e_極細4
  6
CONTINUOUS
 62
    6
 10
243.01808746302484
 20
389.02015968353766
 40
0.625
 50
155.94545099999203
 51
179.99999999999983
  0
ARC
  8
_0-e_極細4
  6
CONTINUOUS
 62
    6
 10
242.64308746302419
 20
387.39515968353783
 40
0.2499999999999857
 50
179.99999999999983
 51
269.99999999999977
  0
ARC
  8
_0-e_極細4
  6
CONTINUOUS
 62
    6
 10
243.01808746302484
 20
389.02015968353766
 40
0.625
 50
89.999999999999915
 51
155.94545099999203
  0
LINE
  8
_0-e_極細4
  6
CONTINUOUS
 62
    6
 10
300.20558746302481
 20
384.02015968353766
 11
246.45558746302484
 21
384.02015968353766
  0
LINE
  8
_0-e_極細4
  6
CONTINUOUS
 62
    6
 10
300.20558746302481
 20
382.7701596835376
 11
245.7055874630251
 21
382.7701596835376
  0
LINE
  8
_0-e_極細4
  6
CONTINUOUS
 62
    6
 10
300.45558746302419
 20
381.40279718353747
 11
245.26808746302393
 21
381.40279718353747
  0
LINE
  8
_0-e_極細4
  6
CONTINUOUS
 62
    6
 10
250.76808746302575
 20
381.40279718353747
 11
250.76808746302575
 21
380.77779718353747
  0
LINE
  8
_0-e_極細4
  6
CONTINUOUS
 62
    6
 10
246.26808746302416
 20
379.52779718353747
 11
245.26808746302393
 21
381.40279718353747
  0
LINE
  8
_0-e_極細4
  6
CONTINUOUS
 62
    6
 10
251.39308746302575
 20
377.2777971835377
 11
250.76808746302575
 21
377.9027971835377
  0
LINE
  8
_0-e_極細4
  6
CONTINUOUS
 62
    6
 10
250.76808746302575
 20
376.6527971835377
 11
251.39308746302575
 21
377.2777971835377
  0
LINE
  8
_0-e_極細4
  6
CONTINUOUS
 62
    6
 10
250.76808746302575
 20
379.52779718353747
 11
251.39308746302575
 21
380.15279718353747
  0
LINE
  8
_0-e_極細4
  6
CONTINUOUS
 62
    6
 10
251.39308746302575
 20
380.15279718353747
 11
250.76808746302575
 21
380.77779718353747
  0
LINE
  8
_0-e_極細4
  6
CONTINUOUS
 62
    6
 10
300.45558746302419
 20
380.15279718353747
 11
251.39308746302575
 21
380.15279718353747
  0
LINE
  8
_0-e_極細4
  6
CONTINUOUS
 62
    6
 10
300.45558746302419
 20
377.2777971835377
 11
251.39308746302575
 21
377.2777971835377
  0
LINE
  8
_0-e_極細4
  6
CONTINUOUS
 62
    6
 10
300.45558746302419
 20
376.0277971835377
 11
246.26808746302416
 21
376.0277971835377
  0
LINE
  8
_0-e_極細4
  6
CONTINUOUS
 62
    6
 10
246.26808746302416
 20
379.52779718353747
 11
246.26808746302416
 21
376.0277971835377
  0
LINE
  8
_0-e_極細4
  6
CONTINUOUS
 62
    6
 10
250.76808746302575
 20
376.6527971835377
 11
250.76808746302575
 21
376.0277971835377
  0
LINE
  8
_0-e_極細4
  6
CONTINUOUS
 62
    6
 10
250.76808746302575
 20
379.52779718353747
 11
250.76808746302575
 21
377.9027971835377
  0
LINE
  8
_0-e_極細4
  6
CONTINUOUS
 62
    6
 10
246.08058746302575
 20
374.02113343353756
 11
246.08058746302575
 21
375.89613343353756
  0
LINE
  8
_0-e_極細4
  6
CONTINUOUS
 62
    6
 10
246.08058746302575
 20
375.89613343353756
 11
300.45558746302419
 21
375.89613343353756
  0
LINE
  8
_0-e_極細4
  6
CONTINUOUS
 62
    6
 10
246.08058746302575
 20
381.64613343353733
 11
300.45558746302419
 21
381.64613343353733
  0
LINE
  8
_0-e_極細4
  6
CONTINUOUS
 62
    6
 10
246.08058746302575
 20
381.64613343353733
 11
246.08058746302575
 21
382.7701596835376
  0
LINE
  8
_0-e_極細4
  6
CONTINUOUS
 62
    6
 10
266.70558746302572
 20
364.7613296835375
 11
239.83058746302575
 21
364.7613296835375
  0
LINE
  8
_0-e_極細4
  6
CONTINUOUS
 62
    6
 10
266.70558746302572
 20
363.39174968353757
 11
266.70558746302572
 21
365.23894093353772
  0
LINE
  8
_0-e_極細4
  6
CONTINUOUS
 62
    6
 10
237.98183746302499
 20
390.27015968353766
 11
229.33058746302393
 21
391.50235595187507
  0
LINE
  8
_0-e_極細4
  6
CONTINUOUS
 62
    6
 10
252.64308746302575
 20
357.2613296835375
 11
266.70558746302572
 21
357.2613296835375
  0
LINE
  8
_0-e_極細4
  6
CONTINUOUS
 62
    6
 10
266.70558746302572
 20
363.76132968353727
 11
237.98183746302499
 21
363.76132968353727
  0
LINE
  8
_0-e_極細4
  6
CONTINUOUS
 62
    6
 10
229.33058746302393
 20
390.63632968353744
 11
229.33058746302393
 21
391.50235595187507
  0
LINE
  8
_0-e_極細4
  6
CONTINUOUS
 62
    6
 10
334.83058746302396
 20
215.63630878353266
 11
334.93475412969099
 21
221.88630878353266
  0
LINE
  8
_0-e_極細4
  6
CONTINUOUS
 62
    6
 10
300.45558746302419
 20
215.63630878353266
 11
334.83058746302396
 21
215.63630878353266
  0
LINE
  8
_0-e_極細4
  6
CONTINUOUS
 62
    6
 10
352.33058746302396
 20
253.13630878353266
 11
353.58058746302396
 21
253.13630878353266
  0
LINE
  8
_0-e_極細4
  6
CONTINUOUS
 62
    6
 10
359.36183746775521
 20
328.67307160706684
 11
349.51808746302396
 21
328.67307160706684
  0
LINE
  8
_0-e_極細4
  6
CONTINUOUS
 62
    6
 10
334.20558746302396
 20
291.5211125335328
 11
334.20558746302396
 21
365.23894093353772
  0
ARC
  8
_0-e_極細4
  6
CONTINUOUS
 62
    6
 10
332.95558746302396
 20
291.5211125335328
 40
1.25
 50
269.99954163373343
 51
359.99999999999966
  0
LINE
  8
_0-e_極細4
  6
CONTINUOUS
 62
    6
 10
332.95558746302396
 20
290.2711125335328
 11
300.45558746302419
 21
290.2711125335328
  0
LINE
  8
_0-e_極細4
  6
CONTINUOUS
 62
    6
 10
334.93475371302418
 20
221.88630878353266
 11
351.83058746302402
 21
221.88630878353266
  0
LINE
  8
_0-e_極細4
  6
CONTINUOUS
 62
    6
 10
351.83058746302402
 20
221.88630878353266
 11
352.33058746302396
 21
253.13630878353266
  0
ARC
  8
_0-e_極細4
  6
CONTINUOUS
 62
    6
 10
353.58058746302396
 20
263.13630878353263
 40
10
 50
269.99999999999977
 51
359.99999999999966
  0
LINE
  8
_0-e_極細4
  6
CONTINUOUS
 62
    6
 10
334.93475412969099
 20
221.88630878353266
 11
335.45558746302396
 21
253.13630878353266
  0
LINE
  8
_0-e_極細4
  6
CONTINUOUS
 62
    6
 10
350.45558746302396
 20
256.26130878353263
 11
331.70558746302396
 21
256.26130878353263
  0
LINE
  8
_0-e_極細4
  6
CONTINUOUS
 62
    6
 10
360.45558746302396
 20
266.26130878353263
 11
360.45558746302396
 21
329.91326753353303
  0
LINE
  8
_0-e_極細4
  6
CONTINUOUS
 62
    6
 10
332.33058746302396
 20
215.63630878353266
 11
331.70558746302396
 21
256.26130878353263
  0
LINE
  8
_0-e_極細4
  6
CONTINUOUS
 62
    6
 10
335.45558746302396
 20
253.13630878353266
 11
347.95558746302396
 21
253.13630878353266
  0
ARC
  8
_0-e_極細4
  6
CONTINUOUS
 62
    6
 10
350.45558746302396
 20
266.26130878353263
 40
10
 50
269.99999999999977
 51
359.99999999999966
  0
LINE
  8
_0-e_極細4
  6
CONTINUOUS
 62
    6
 10
331.70558746302396
 20
256.26130878353263
 11
300.45558746302419
 21
256.26130878353263
  0
LINE
  8
_0-e_極細4
  6
CONTINUOUS
 62
    6
 10
331.70756121302554
 20
256.13296753353393
 11
331.70558746302396
 21
256.26130878353263
  0
LINE
  8
_0-e_極細4
  6
CONTINUOUS
 62
    6
 10
349.51808746302396
 20
283.76130878353263
 11
349.51808746302396
 21
317.51130878353263
  0
LINE
  8
_0-e_極細4
  6
CONTINUOUS
 62
    6
 10
334.51808746302396
 20
268.76130878353263
 11
331.70558746302396
 21
268.76130878353263
  0
LINE
  8
_0-e_極細4
  6
CONTINUOUS
 62
    6
 10
331.70558746302396
 20
256.26130878353263
 11
331.70558746302396
 21
268.76130878353263
  0
ARC
  8
_0-e_極細4
  6
CONTINUOUS
 62
    6
 10
334.51808746302396
 20
283.76130878353263
 40
15
 50
269.99999999999977
 51
359.99999999999966
  0
ARC
  8
_0-e_極細4
  6
CONTINUOUS
 62
    6
 10
359.20558746302396
 20
329.91326753353303
 40
1.25
 50
277.18075600002993
 51
359.99999999999966
  0
LINE
  8
_0-e_極細4
  6
CONTINUOUS
 62
    6
 10
360.45558746302396
 20
329.91326753353303
 11
360.45558746302396
 21
363.76132968353727
  0
LINE
  8
_0-e_極細4
  6
CONTINUOUS
 62
    6
 10
348.26808746302396
 20
221.88630878353266
 11
347.95558746302396
 21
253.13630878353266
  0
LINE
  8
_0-e_極細4
  6
CONTINUOUS
 62
    6
 10
301.7013062130236
 20
256.88199878353271
 11
301.6194687130253
 21
268.74845503353311
  0
ARC
  8
_0-e_極細4
  6
CONTINUOUS
 62
    6
 10
302.32629246302349
 20
256.88630878353263
 40
0.625
 50
180.39513699995425
 51
269.99999999999977
  0
LINE
  8
_0-e_極細4
  6
CONTINUOUS
 62
    6
 10
300.45558746302419
 20
268.76130878353263
 11
301.61937996302368
 21
268.76130878353263
  0
LINE
  8
_0-e_極細4
  6
CONTINUOUS
 62
    6
 10
301.61937996302368
 20
268.76130878353263
 11
334.51808746302396
 21
268.76130878353263
  0
LINE
  8
_0-e_極細4
  6
CONTINUOUS
 62
    6
 10
349.51808746302396
 20
283.76130878353263
 11
349.51808746302396
 21
356.0113296835375
  0
LINE
  8
_0-e_極細4
  6
CONTINUOUS
 62
    6
 10
347.01808746302396
 20
283.76130878353263
 11
347.01808746302396
 21
356.0113296835375
  0
LINE
  8
_0-e_極細4
  6
CONTINUOUS
 62
    6
 10
300.45558746302419
 20
271.26130878353263
 11
334.51808746302396
 21
271.26130878353263
  0
ARC
  8
_0-e_極細4
  6
CONTINUOUS
 62
    6
 10
334.51808746302396
 20
283.76130878353263
 40
12.5
 50
269.99999999999977
 51
359.99999999999966
  0
LINE
  8
_0-e_極細4
  6
CONTINUOUS
 62
    6
 10
350.76808746302396
 20
374.02113343353756
 11
300.45558746302419
 21
374.02113343353756
  0
LINE
  8
_0-e_極細4
  6
CONTINUOUS
 62
    6
 10
350.76808746302396
 20
368.52113343353733
 11
350.76808746302396
 21
374.02113343353756
  0
LINE
  8
_0-e_極細4
  6
CONTINUOUS
 62
    6
 10
354.83058746302396
 20
374.02113343353756
 11
350.76808746302396
 21
374.02113343353756
  0
LINE
  8
_0-e_極細4
  6
CONTINUOUS
 62
    6
 10
353.58058746302396
 20
368.52113343353733
 11
350.76808746302396
 21
368.52113343353733
  0
LINE
  8
_0-e_極細4
  6
CONTINUOUS
 62
    6
 10
353.58058746302396
 20
367.27113343353733
 11
353.58058746302396
 21
368.52113343353733
  0
ARC
  8
_0-e_極細4
  6
CONTINUOUS
 62
    6
 10
351.08058746302396
 20
367.27113343353733
 40
2.5
 50
269.99999999999977
 51
359.99999999999966
  0
LINE
  8
_0-e_極細4
  6
CONTINUOUS
 62
    6
 10
351.08058746302396
 20
364.7711334335379
 11
347.33058746302396
 21
364.7711334335379
  0
ARC
  8
_0-e_極細4
  6
CONTINUOUS
 62
    6
 10
362.92933746302504
 20
388.08265968353766
 40
1.3125000000000142
 50
89.999999999999915
 51
175.84901000000755
  0
LINE
  8
_0-e_極細4
  6
CONTINUOUS
 62
    6
 10
362.92933746302504
 20
370.24390968353725
 11
362.92933746302504
 21
389.39515968353714
  0
LINE
  8
_0-e_極細4
  6
CONTINUOUS
 62
    6
 10
362.92933746302504
 20
389.38632900072406
 11
371.58058746302396
 21
390.61852593353717
  0
LINE
  8
_0-e_極細4
  6
CONTINUOUS
 62
    6
 10
366.70558746302396
 20
361.0113296835375
 11
366.70558746302396
 21
371.01132968353693
  0
ARC
  8
_0-e_極細4
  6
CONTINUOUS
 62
    6
 10
369.83058746302396
 20
355.59867093353728
 40
6.25
 50
119.99999999999989
 51
179.99999999999983
  0
LINE
  8
_0-e_極細4
  6
CONTINUOUS
 62
    6
 10
371.58058746302396
 20
371.01132968353693
 11
371.58058746302396
 21
371.70538093353764
  0
LINE
  8
_0-e_極細4
  6
CONTINUOUS
 62
    6
 10
366.70558746302396
 20
371.01132968353693
 11
371.58058746302396
 21
371.01132968353693
  0
LINE
  8
_0-e_極細4
  6
CONTINUOUS
 62
    6
 10
371.58058746302396
 20
371.70538093353764
 11
371.58058746302396
 21
391.48455218353786
  0
LINE
  8
_0-e_極細4
  6
CONTINUOUS
 62
    6
 10
361.08058746302396
 20
364.7613296835375
 11
361.08058746302396
 21
368.39515968353749
  0
LINE
  8
_0-e_極細4
  6
CONTINUOUS
 62
    6
 10
362.92933746302504
 20
363.76132968353727
 11
361.08058746302396
 21
364.7613296835375
  0
LINE
  8
_0-e_極細4
  6
CONTINUOUS
 62
    6
 10
371.58058746302396
 20
388.51132968353767
 11
362.92933746302504
 21
387.51132968353744
  0
ARC
  8
_0-e_極細4
  6
CONTINUOUS
 62
    6
 10
348.26808746302396
 20
356.0113296835375
 40
1.25
 50
0
 51
89.999999999999915
  0
ARC
  8
_0-e_極細4
  6
CONTINUOUS
 62
    6
 10
348.26808746302396
 20
356.0113296835375
 40
1.25
 50
89.999999999999915
 51
179.99999999999983
  0
LINE
  8
_0-e_極細4
  6
CONTINUOUS
 62
    6
 10
300.45558746302419
 20
390.27015968353766
 11
362.92933746302504
 21
390.27015968353766
  0
LINE
  8
_0-e_極細4
  6
CONTINUOUS
 62
    6
 10
350.76808746302396
 20
373.3951596835376
 11
355.83058746302493
 21
373.3951596835376
  0
LINE
  8
_0-e_極細4
  6
CONTINUOUS
 62
    6
 10
359.50711746302369
 20
387.14515968353766
 11
358.01808746302493
 21
387.14515968353766
  0
LINE
  8
_0-e_極細4
  6
CONTINUOUS
 62
    6
 10
355.83058746302493
 20
371.77015968353737
 11
355.83058746302493
 21
384.95765968353766
  0
LINE
  8
_0-e_極細4
  6
CONTINUOUS
 62
    6
 10
358.58058746302396
 20
387.14515968353766
 11
358.58058746302396
 21
390.27015968353766
  0
ARC
  8
_0-e_極細4
  6
CONTINUOUS
 62
    6
 10
358.01808746302493
 20
384.95765968353766
 40
2.1874999999999996
 50
89.999999999999915
 51
179.99999999999983
  0
ARC
  8
_0-e_極細4
  6
CONTINUOUS
 62
    6
 10
362.92933746302504
 20
388.08265968353766
 40
2.1874999999999996
 50
89.999999999999915
 51
175.84901000000585
  0
ARC
  8
_0-e_極細4
  6
CONTINUOUS
 62
    6
 10
359.50711746302369
 20
388.39515968353766
 40
1.25
 50
269.99999999999977
 51
356.64911200002945
  0
ARC
  8
_0-e_極細4
  6
CONTINUOUS
 62
    6
 10
359.50711746302369
 20
388.39515968353766
 40
2.1249999999999858
 50
269.99999999999977
 51
356.64911200000063
  0
LINE
  8
_0-e_極細4
  6
CONTINUOUS
 62
    6
 10
359.50711746302369
 20
386.27015968353714
 11
358.01808746302493
 21
386.27015968353714
  0
ARC
  8
_0-e_極細4
  6
CONTINUOUS
 62
    6
 10
358.01808746302493
 20
384.95765968353766
 40
1.3125000000000142
 50
89.999999999999915
 51
179.99999999999983
  0
LINE
  8
_0-e_極細4
  6
CONTINUOUS
 62
    6
 10
356.70558746302396
 20
370.89515968353749
 11
356.70558746302396
 21
384.95765968353766
  0
LINE
  8
_0-e_極細4
  6
CONTINUOUS
 62
    6
 10
362.92933746302504
 20
370.24390968353725
 11
361.08058746302396
 21
368.39515968353749
  0
LINE
  8
_0-e_極細4
  6
CONTINUOUS
 62
    6
 10
354.20558746302396
 20
365.89515968353749
 11
354.20558746302396
 21
373.3951596835376
  0
LINE
  8
_0-e_極細4
  6
CONTINUOUS
 62
    6
 10
354.20558746302396
 20
370.89515968353749
 11
356.70558746302396
 21
370.89515968353749
  0
LINE
  8
_0-e_極細4
  6
CONTINUOUS
 62
    6
 10
354.20558746302396
 20
371.77015968353737
 11
355.83058746302493
 21
371.77015968353737
  0
LINE
  8
_0-e_極細4
  6
CONTINUOUS
 62
    6
 10
353.16785746302395
 20
365.89515968353749
 11
354.20558746302396
 21
365.89515968353749
  0
LINE
  8
_0-e_極細4
  6
CONTINUOUS
 62
    6
 10
354.20558746302396
 20
368.39515968353749
 11
361.08058746302396
 21
368.39515968353749
  0
LINE
  8
_0-e_極細4
  6
CONTINUOUS
 62
    6
 10
337.68847871302461
 20
366.27015968353714
 11
343.93847871302461
 21
366.27015968353714
  0
LINE
  8
_0-e_極細4
  6
CONTINUOUS
 62
    6
 10
337.68847871302461
 20
366.27015968353714
 11
337.68847871302461
 21
368.39515968353749
  0
LINE
  8
_0-e_極細4
  6
CONTINUOUS
 62
    6
 10
343.93847871302461
 20
366.27015968353714
 11
343.93847871302461
 21
368.39515968353749
  0
LINE
  8
_0-e_極細4
  6
CONTINUOUS
 62
    6
 10
358.51808746302487
 20
387.39515968353783
 11
358.51808746302487
 21
389.02015968353766
  0
LINE
  8
_0-e_極細4
  6
CONTINUOUS
 62
    6
 10
300.45558746302419
 20
389.64515968353766
 11
357.89308746302305
 21
389.64515968353766
  0
LINE
  8
_0-e_極細4
  6
CONTINUOUS
 62
    6
 10
355.83058746302493
 20
387.14515968353766
 11
358.26808746302396
 21
387.14515968353766
  0
LINE
  8
_0-e_極細4
  6
CONTINUOUS
 62
    6
 10
355.83058746302493
 20
383.3951596835376
 11
355.83058746302493
 21
387.14515968353766
  0
ARC
  8
_0-e_極細4
  6
CONTINUOUS
 62
    6
 10
357.89308746302305
 20
389.02015968353766
 40
0.625
 50
0
 51
24.054549000007984
  0
ARC
  8
_0-e_極細4
  6
CONTINUOUS
 62
    6
 10
358.26808746302396
 20
387.39515968353783
 40
0.2499999999999857
 50
269.99999999999977
 51
359.99999999999966
  0
ARC
  8
_0-e_極細4
  6
CONTINUOUS
 62
    6
 10
357.89308746302305
 20
389.02015968353766
 40
0.625
 50
24.054549000007984
 51
89.999999999999915
  0
LINE
  8
_0-e_極細4
  6
CONTINUOUS
 62
    6
 10
300.70558746302322
 20
384.02015968353766
 11
354.45558746302487
 21
384.02015968353766
  0
LINE
  8
_0-e_極細4
  6
CONTINUOUS
 62
    6
 10
300.70558746302322
 20
382.7701596835376
 11
355.20558746302493
 21
382.7701596835376
  0
LINE
  8
_0-e_極細4
  6
CONTINUOUS
 62
    6
 10
300.45558746302419
 20
381.40279718353747
 11
355.64308746302396
 21
381.40279718353747
  0
LINE
  8
_0-e_極細4
  6
CONTINUOUS
 62
    6
 10
350.14308746302396
 20
381.40279718353747
 11
350.14308746302396
 21
380.77779718353747
  0
LINE
  8
_0-e_極細4
  6
CONTINUOUS
 62
    6
 10
354.64308746302402
 20
379.52779718353747
 11
355.64308746302396
 21
381.40279718353747
  0
LINE
  8
_0-e_極細4
  6
CONTINUOUS
 62
    6
 10
349.51808746302396
 20
377.2777971835377
 11
350.14308746302396
 21
377.9027971835377
  0
LINE
  8
_0-e_極細4
  6
CONTINUOUS
 62
    6
 10
350.14308746302396
 20
376.6527971835377
 11
349.51808746302396
 21
377.2777971835377
  0
LINE
  8
_0-e_極細4
  6
CONTINUOUS
 62
    6
 10
350.14308746302396
 20
379.52779718353747
 11
349.51808746302396
 21
380.15279718353747
  0
LINE
  8
_0-e_極細4
  6
CONTINUOUS
 62
    6
 10
349.51808746302396
 20
380.15279718353747
 11
350.14308746302396
 21
380.77779718353747
  0
LINE
  8
_0-e_極細4
  6
CONTINUOUS
 62
    6
 10
300.45558746302419
 20
380.15279718353747
 11
349.51808746302396
 21
380.15279718353747
  0
LINE
  8
_0-e_極細4
  6
CONTINUOUS
 62
    6
 10
300.45558746302419
 20
377.2777971835377
 11
349.51808746302396
 21
377.2777971835377
  0
LINE
  8
_0-e_極細4
  6
CONTINUOUS
 62
    6
 10
300.45558746302419
 20
376.0277971835377
 11
354.64308746302402
 21
376.0277971835377
  0
LINE
  8
_0-e_極細4
  6
CONTINUOUS
 62
    6
 10
354.64308746302402
 20
379.52779718353747
 11
354.64308746302402
 21
376.0277971835377
  0
LINE
  8
_0-e_極細4
  6
CONTINUOUS
 62
    6
 10
350.14308746302396
 20
376.6527971835377
 11
350.14308746302396
 21
376.0277971835377
  0
LINE
  8
_0-e_極細4
  6
CONTINUOUS
 62
    6
 10
350.14308746302396
 20
379.52779718353747
 11
350.14308746302396
 21
377.9027971835377
  0
LINE
  8
_0-e_極細4
  6
CONTINUOUS
 62
    6
 10
354.83058746302396
 20
374.02113343353756
 11
354.83058746302396
 21
375.89613343353756
  0
LINE
  8
_0-e_極細4
  6
CONTINUOUS
 62
    6
 10
354.83058746302396
 20
375.89613343353756
 11
300.45558746302419
 21
375.89613343353756
  0
LINE
  8
_0-e_極細4
  6
CONTINUOUS
 62
    6
 10
354.83058746302396
 20
381.64613343353733
 11
300.45558746302419
 21
381.64613343353733
  0
LINE
  8
_0-e_極細4
  6
CONTINUOUS
 62
    6
 10
354.83058746302396
 20
381.64613343353733
 11
354.83058746302396
 21
382.7701596835376
  0
LINE
  8
_0-e_極細4
  6
CONTINUOUS
 62
    6
 10
334.20558746302396
 20
364.7613296835375
 11
361.08058746302396
 21
364.7613296835375
  0
LINE
  8
_0-e_極細4
  6
CONTINUOUS
 62
    6
 10
334.20558746302396
 20
363.39174968353757
 11
334.20558746302396
 21
365.23894093353772
  0
LINE
  8
_0-e_極細4
  6
CONTINUOUS
 62
    6
 10
362.92933746302504
 20
390.27015968353766
 11
371.58058746302396
 21
391.50235595187507
  0
LINE
  8
_0-e_極細4
  6
CONTINUOUS
 62
    6
 10
348.26808746302396
 20
357.2613296835375
 11
334.20558746302396
 21
357.2613296835375
  0
LINE
  8
_0-e_極細4
  6
CONTINUOUS
 62
    6
 10
334.20558746302396
 20
363.76132968353727
 11
362.92933746302504
 21
363.76132968353727
  0
LINE
  8
_0-e_極細4
  6
CONTINUOUS
 62
    6
 10
371.58058746302396
 20
390.63632968353744
 11
371.58058746302396
 21
391.50235595187507
  0
LINE
  8
_0-e_極細4
  6
CONTINUOUS
 62
    6
 10
229.33058746302393
 20
391.50235595187507
 11
371.58058746302396
 21
391.50235595187507
  0
LINE
  8
_0-e_極細4
  6
CONTINUOUS
 62
    6
 10
350.54356830512086
 20
221.88630878353266
 11
351.85151460380331
 21
223.19425508221528
  0
LINE
  8
_0-e_極細4
  6
CONTINUOUS
 62
    6
 10
348.26436301166348
 20
222.25875391952584
 11
351.89463087094816
 21
225.88902177881053
  0
LINE
  8
_0-e_極細4
  6
CONTINUOUS
 62
    6
 10
348.23810904701611
 20
224.88415038432734
 11
351.93774713809381
 21
228.58378847540578
  0
LINE
  8
_0-e_極細4
  6
CONTINUOUS
 62
    6
 10
348.21185508236874
 20
227.50954684912827
 11
351.98086340523952
 21
231.27855517200103
  0
LINE
  8
_0-e_極細4
  6
CONTINUOUS
 62
    6
 10
333.68696658732171
 20
215.63630878353266
 11
334.84997086769619
 21
216.79931306390714
  0
LINE
  8
_0-e_極細4
  6
CONTINUOUS
 62
    6
 10
348.1856011177195
 20
230.13494331393034
 11
352.02397967238619
 21
233.97332186859629
  0
LINE
  8
_0-e_極細4
  6
CONTINUOUS
 62
    6
 10
332.31096214021898
 20
216.91195476587851
 11
334.8949140953153
 21
219.495906720975
  0
LINE
  8
_0-e_極細4
  6
CONTINUOUS
 62
    6
 10
348.15934715307213
 20
232.76033977873183
 11
352.06709593953002
 21
236.6680885651904
  0
LINE
  8
_0-e_極細4
  6
CONTINUOUS
 62
    6
 10
332.27078561856052
 20
219.52342867366966
 11
334.9398573229326
 21
222.19250037804173
  0
LINE
  8
_0-e_極細4
  6
CONTINUOUS
 62
    6
 10
348.13309318842295
 20
235.38573624353333
 11
352.11021220667669
 21
239.36285526178565
  0
LINE
  8
_0-e_極細4
  6
CONTINUOUS
 62
    6
 10
332.23060909690213
 20
222.13490258146081
 11
334.98480055054989
 21
224.88909403510959
  0
LINE
  8
_0-e_極細4
  6
CONTINUOUS
 62
    6
 10
348.10683922377558
 20
238.0111327083354
 11
352.15332847382052
 21
242.05762195838034
  0
LINE
  8
_0-e_極細4
  6
CONTINUOUS
 62
    6
 10
332.1904325752447
 20
224.74637648925253
 11
335.02974377816906
 21
227.58568769217689
  0
LINE
  8
_0-e_極細4
  6
CONTINUOUS
 62
    6
 10
348.08058525912736
 20
240.63652917313632
 11
352.19644474096719
 21
244.75238865497559
  0
LINE
  8
_0-e_極細4
  6
CONTINUOUS
 62
    6
 10
332.15025605358625
 20
227.35785039704368
 11
335.07468700578636
 21
230.28228134924419
  0
LINE
  8
_0-e_極細4
  6
CONTINUOUS
 62
    6
 10
348.05433129447999
 20
243.26192563793839
 11
352.23956100811284
 21
247.44715535157084
  0
LINE
  8
_0-e_極細4
  6
CONTINUOUS
 62
    6
 10
332.110079531927
 20
229.96932430483483
 11
335.11963023340365
 21
232.97887500631091
  0
LINE
  8
_0-e_極細4
  6
CONTINUOUS
 62
    6
 10
348.02807732983263
 20
245.88732210273989
 11
352.2826772752577
 21
250.14192204816609
  0
LINE
  8
_0-e_極細4
  6
CONTINUOUS
 62
    6
 10
355.45414221573162
 20
253.31338698863888
 11
363.40350925791961
 21
261.26275403082627
  0
LINE
  8
_0-e_極細4
  6
CONTINUOUS
 62
    6
 10
332.06990301026855
 20
232.58079821262598
 11
335.16457346102095
 21
235.67546866337878
  0
LINE
  8
_0-e_極細4
  6
CONTINUOUS
 62
    6
 10
348.00182336518526
 20
248.51271856754138
 11
352.32579354240522
 21
252.83668874476135
  0
LINE
  8
_0-e_極細4
  6
CONTINUOUS
 62
    6
 10
352.62541358117579
 20
253.13630878353266
 11
363.58058746302396
 21
264.09148266538079
  0
LINE
  8
_0-e_極細4
  6
CONTINUOUS
 62
    6
 10
332.02972648861015
 20
235.1922721204177
 11
335.2095166886391
 21
238.37206232044608
  0
LINE
  8
_0-e_極細4
  6
CONTINUOUS
 62
    6
 10
347.97556940053602
 20
251.13811503234345
 11
353.60896964388837
 21
256.77151527569447
  0
LINE
  8
_0-e_極細4
  6
CONTINUOUS
 62
    6
 10
359.94538097086286
 20
263.10792660266952
 11
363.58058746302396
 21
266.74313309483136
  0
LINE
  8
_0-e_極細4
  6
CONTINUOUS
 62
    6
 10
331.98954996695272
 20
237.80374602820885
 11
335.25445991625639
 21
241.06865597751337
  0
LINE
  8
_0-e_極細4
  6
CONTINUOUS
 62
    6
 10
347.32211272227767
 20
253.13630878353266
 11
350.44711272227767
 21
256.26130878353263
  0
LINE
  8
_0-e_極細4
  6
CONTINUOUS
 62
    6
 10
360.45558746302396
 20
266.2697835242808
 11
363.58058746302396
 21
269.39478352428023
  0
LINE
  8
_0-e_極細4
  6
CONTINUOUS
 62
    6
 10
331.94937344529427
 20
240.415219936
 11
335.29940314387551
 21
243.76524963458067
  0
LINE
  8
_0-e_極細4
  6
CONTINUOUS
 62
    6
 10
344.67046229282624
 20
253.13630878353266
 11
347.79546229282624
 21
256.26130878353263
  0
LINE
  8
_0-e_極細4
  6
CONTINUOUS
 62
    6
 10
360.45558746302396
 20
268.92143395372966
 11
363.58058746302396
 21
272.04643395372966
  0
LINE
  8
_0-e_極細4
  6
CONTINUOUS
 62
    6
 10
331.90919692363502
 20
243.02669384379115
 11
335.3443463714928
 21
246.46184329164853
  0
LINE
  8
_0-e_極細4
  6
CONTINUOUS
 62
    6
 10
342.01881186337766
 20
253.13630878353266
 11
345.14381186337766
 21
256.26130878353263
  0
LINE
  8
_0-e_極細4
  6
CONTINUOUS
 62
    6
 10
360.45558746302396
 20
271.57308438317966
 11
363.58058746302396
 21
274.69808438317966
  0
LINE
  8
_0-e_極細4
  6
CONTINUOUS
 62
    6
 10
331.86902040197845
 20
245.6381677515823
 11
335.38928959911198
 21
249.15843694871583
  0
LINE
  8
_0-e_極細4
  6
CONTINUOUS
 62
    6
 10
339.36716143392806
 20
253.13630878353266
 11
342.49216143392806
 21
256.26130878353263
  0
LINE
  8
_0-e_極細4
  6
CONTINUOUS
 62
    6
 10
360.45558746302396
 20
274.22473481262909
 11
363.58058746302396
 21
277.34973481262853
  0
LINE
  8
_0-e_極細4
  6
CONTINUOUS
 62
    6
 10
331.82884388031817
 20
248.24964165937345
 11
335.43423282672927
 21
251.85503060578313
  0
LINE
  8
_0-e_極細4
  6
CONTINUOUS
 62
    6
 10
336.71551100447851
 20
253.13630878353266
 11
339.84051100447766
 21
256.26130878353263
  0
LINE
  8
_0-e_極細4
  6
CONTINUOUS
 62
    6
 10
360.45558746302396
 20
276.8763852420791
 11
363.58058746302396
 21
280.0013852420791
  0
LINE
  8
_0-e_極細4
  6
CONTINUOUS
 62
    6
 10
331.78866735866075
 20
250.8611155671646
 11
337.18886057502993
 21
256.26130878353263
  0
LINE
  8
_0-e_極細4
  6
CONTINUOUS
 62
    6
 10
360.45558746302396
 20
279.52803567152853
 11
363.58058746302396
 21
282.65303567152796
  0
LINE
  8
_0-e_極細4
  6
CONTINUOUS
 62
    6
 10
331.74849083700229
 20
253.47258947495575
 11
334.53721014557851
 21
256.26130878353263
  0
LINE
  8
_0-e_極細4
  6
CONTINUOUS
 62
    6
 10
360.45558746302396
 20
282.17968610097796
 11
363.58058746302396
 21
285.30468610097796
  0
LINE
  8
_0-e_極細4
  6
CONTINUOUS
 62
    6
 10
331.7083143153439
 20
256.08406338274688
 11
331.88555971612993
 21
256.26130878353263
  0
LINE
  8
_0-e_極細4
  6
CONTINUOUS
 62
    6
 10
360.45558746302396
 20
284.83133653042739
 11
363.58058746302396
 21
287.95633653042739
  0
LINE
  8
_0-e_極細4
  6
CONTINUOUS
 62
    6
 10
360.45558746302396
 20
287.48298695987683
 11
363.58058746302396
 21
290.60798695987683
  0
LINE
  8
_0-e_極細4
  6
CONTINUOUS
 62
    6
 10
360.45558746302396
 20
290.13463738932683
 11
363.58058746302396
 21
293.25963738932683
  0
LINE
  8
_0-e_極細4
  6
CONTINUOUS
 62
    6
 10
360.45558746302396
 20
292.78628781877626
 11
363.58058746302396
 21
295.91128781877569
  0
LINE
  8
_0-e_極細4
  6
CONTINUOUS
 62
    6
 10
360.45558746302396
 20
295.43793824822512
 11
363.58058746302396
 21
298.56293824822512
  0
LINE
  8
_0-e_極細4
  6
CONTINUOUS
 62
    6
 10
360.45558746302396
 20
298.08958867767512
 11
363.58058746302396
 21
301.21458867767512
  0
LINE
  8
_0-e_極細4
  6
CONTINUOUS
 62
    6
 10
360.45558746302396
 20
300.74123910712456
 11
363.58058746302396
 21
303.86623910712456
  0
LINE
  8
_0-e_極細4
  6
CONTINUOUS
 62
    6
 10
360.45558746302396
 20
303.39288953657456
 11
363.58058746302396
 21
306.51788953657456
  0
LINE
  8
_0-e_極細4
  6
CONTINUOUS
 62
    6
 10
360.45558746302396
 20
306.04453996602342
 11
363.58058746302396
 21
309.16953996602399
  0
LINE
  8
_0-e_極細4
  6
CONTINUOUS
 62
    6
 10
360.45558746302396
 20
308.69619039547285
 11
363.58058746302396
 21
311.82119039547285
  0
LINE
  8
_0-e_極細4
  6
CONTINUOUS
 62
    6
 10
360.45558746302396
 20
311.34784082492286
 11
363.58058746302396
 21
314.47284082492286
  0
LINE
  8
_0-e_極細4
  6
CONTINUOUS
 62
    6
 10
360.45558746302396
 20
313.99949125437229
 11
363.58058746302396
 21
317.12449125437229
  0
LINE
  8
_0-e_極細4
  6
CONTINUOUS
 62
    6
 10
360.45558746302396
 20
316.65114168382229
 11
363.58058746302396
 21
319.77614168382229
  0
LINE
  8
_0-e_極細4
  6
CONTINUOUS
 62
    6
 10
360.45558746302396
 20
319.30279211327172
 11
363.58058746302396
 21
322.42779211327115
  0
LINE
  8
_0-e_極細4
  6
CONTINUOUS
 62
    6
 10
360.45558746302396
 20
321.95444254272059
 11
363.58058746302396
 21
325.07944254272059
  0
LINE
  8
_0-e_極細4
  6
CONTINUOUS
 62
    6
 10
360.45558746302396
 20
324.60609297217059
 11
363.58058746302396
 21
327.73109297217059
  0
LINE
  8
_0-e_極細4
  6
CONTINUOUS
 62
    6
 10
360.45558746302396
 20
327.25774340162002
 11
363.58058746302396
 21
330.38274340162002
  0
LINE
  8
_0-e_極細4
  6
CONTINUOUS
 62
    6
 10
360.45558746302396
 20
329.90939383107002
 11
363.58058746302396
 21
333.03439383107002
  0
LINE
  8
_0-e_極細4
  6
CONTINUOUS
 62
    6
 10
360.45558746302396
 20
332.56104426051945
 11
363.58058746302396
 21
335.68604426051888
  0
LINE
  8
_0-e_極細4
  6
CONTINUOUS
 62
    6
 10
360.45558746302396
 20
335.21269468996888
 11
363.58058746302396
 21
338.33769468996832
  0
LINE
  8
_0-e_極細4
  6
CONTINUOUS
 62
    6
 10
360.45558746302396
 20
337.86434511941832
 11
363.58058746302396
 21
340.98934511941832
  0
LINE
  8
_0-e_極細4
  6
CONTINUOUS
 62
    6
 10
360.45558746302396
 20
340.51599554886775
 11
363.58058746302396
 21
343.64099554886775
  0
LINE
  8
_0-e_極細4
  6
CONTINUOUS
 62
    6
 10
360.45558746302396
 20
343.16764597831775
 11
363.58058746302396
 21
346.29264597831775
  0
LINE
  8
_0-e_極細4
  6
CONTINUOUS
 62
    6
 10
360.45558746302396
 20
345.81929640776718
 11
363.58058746302396
 21
348.94429640776718
  0
LINE
  8
_0-e_極細4
  6
CONTINUOUS
 62
    6
 10
360.45558746302396
 20
348.47094683721605
 11
363.58058746302396
 21
351.59594683721605
  0
LINE
  8
_0-e_極細4
  6
CONTINUOUS
 62
    6
 10
360.45558746302396
 20
351.12259726666605
 11
363.58058746302396
 21
354.24759726666605
  0
LINE
  8
_0-e_極細4
  6
CONTINUOUS
 62
    6
 10
360.45558746302396
 20
353.77424769611548
 11
363.75781183735108
 21
357.07647207044329
  0
LINE
  8
_0-e_極細4
  6
CONTINUOUS
 62
    6
 10
360.45558746302396
 20
356.42589812556548
 11
366.70558746302396
 21
362.67589812556548
  0
LINE
  8
_0-e_極細4
  6
CONTINUOUS
 62
    6
 10
360.45558746302396
 20
359.07754855501491
 11
366.70558746302396
 21
365.32754855501491
  0
LINE
  8
_0-e_極細4
  6
CONTINUOUS
 62
    6
 10
360.45558746302396
 20
361.72919898446435
 11
362.48771816209762
 21
363.76132968353727
  0
LINE
  8
_0-e_極細4
  6
CONTINUOUS
 62
    6
 10
362.64274029493743
 20
363.91635181637707
 11
366.70558746302396
 21
367.97919898446378
  0
LINE
  8
_0-e_極細4
  6
CONTINUOUS
 62
    6
 10
369.73771816209671
 20
371.01132968353693
 11
371.58058746302396
 21
372.85419898446446
  0
LINE
  8
_0-e_極細4
  6
CONTINUOUS
 62
    6
 10
361.08058746302396
 20
365.00584941391378
 11
366.70558746302396
 21
370.63084941391378
  0
LINE
  8
_0-e_極細4
  6
CONTINUOUS
 62
    6
 10
367.08606773264898
 20
371.01132968353693
 11
371.58058746302396
 21
375.50584941391401
  0
LINE
  8
_0-e_極細4
  6
CONTINUOUS
 62
    6
 10
361.08058746302396
 20
367.65749984336321
 11
371.58058746302396
 21
378.15749984336333
  0
LINE
  8
_0-e_極細4
  6
CONTINUOUS
 62
    6
 10
362.92933746302504
 20
372.15790027281298
 11
371.58058746302396
 21
380.80915027281287
  0
LINE
  8
_0-e_極細4
  6
CONTINUOUS
 62
    6
 10
362.92933746302504
 20
374.80955070226253
 11
371.58058746302396
 21
383.46080070226287
  0
LINE
  8
_0-e_極細4
  6
CONTINUOUS
 62
    6
 10
362.92933746302504
 20
377.46120113171253
 11
371.58058746302396
 21
386.11245113171219
  0
LINE
  8
_0-e_極細4
  6
CONTINUOUS
 62
    6
 10
362.92933746302504
 20
380.11285156116185
 11
371.29477890804429
 21
388.47829300618145
  0
LINE
  8
_0-e_極細4
  6
CONTINUOUS
 62
    6
 10
362.92933746302504
 20
382.76450199061139
 11
368.29656413558575
 21
388.13172866317143
  0
LINE
  8
_0-e_極細4
  6
CONTINUOUS
 62
    6
 10
362.92933746302504
 20
385.41615242006071
 11
365.29834936312534
 21
387.78516432016289
  0
LINE
  8
_0-e_極細4
  6
CONTINUOUS
 62
    6
 10
353.60896964388837
 20
256.77151527569447
 11
359.94538097086286
 21
263.10792660266952
  0
LINE
  8
_0-e_極細4
  6
CONTINUOUS
 62
    6
 10
350.44711272227767
 20
256.26130878353263
 11
360.45558746302396
 21
266.26978352428023
  0
LINE
  8
_0-e_極細4
  6
CONTINUOUS
 62
    6
 10
347.79546229282624
 20
256.26130878353263
 11
360.45558746302396
 21
268.92143395372966
  0
LINE
  8
_0-e_極細4
  6
CONTINUOUS
 62
    6
 10
345.14381186337766
 20
256.26130878353263
 11
360.45558746302396
 21
271.57308438317966
  0
LINE
  8
_0-e_極細4
  6
CONTINUOUS
 62
    6
 10
342.49216143392806
 20
256.26130878353263
 11
360.45558746302396
 21
274.22473481262909
  0
LINE
  8
_0-e_極細4
  6
CONTINUOUS
 62
    6
 10
339.84051100447851
 20
256.26130878353263
 11
360.45558746302396
 21
276.8763852420791
  0
LINE
  8
_0-e_極細4
  6
CONTINUOUS
 62
    6
 10
337.18886057502993
 20
256.26130878353263
 11
360.45558746302396
 21
279.52803567152853
  0
LINE
  8
_0-e_極細4
  6
CONTINUOUS
 62
    6
 10
334.53721014557851
 20
256.26130878353263
 11
360.45558746302396
 21
282.17968610097796
  0
LINE
  8
_0-e_極細4
  6
CONTINUOUS
 62
    6
 10
331.88555971612993
 20
256.26130878353263
 11
360.45558746302396
 21
284.83133653042739
  0
LINE
  8
_0-e_極細4
  6
CONTINUOUS
 62
    6
 10
331.70558746302396
 20
258.73298695987683
 11
360.45558746302396
 21
287.48298695987683
  0
LINE
  8
_0-e_極細4
  6
CONTINUOUS
 62
    6
 10
331.70558746302396
 20
261.38463738932683
 11
340.20007567171058
 21
269.87912559801214
  0
LINE
  8
_0-e_極細4
  6
CONTINUOUS
 62
    6
 10
348.40027064854519
 20
278.07932057484732
 11
360.45558746302396
 21
290.13463738932683
  0
LINE
  8
_0-e_極細4
  6
CONTINUOUS
 62
    6
 10
331.70558746302396
 20
264.03628781877626
 11
336.57187509078165
 21
268.90257544653321
  0
LINE
  8
_0-e_極細4
  6
CONTINUOUS
 62
    6
 10
349.37682080002452
 20
281.70752115577568
 11
360.45558746302396
 21
292.78628781877626
  0
LINE
  8
_0-e_極細4
  6
CONTINUOUS
 62
    6
 10
331.70558746302396
 20
266.68793824822569
 11
333.77895799833078
 21
268.76130878353263
  0
LINE
  8
_0-e_極細4
  6
CONTINUOUS
 62
    6
 10
349.51808746302396
 20
284.50043824822569
 11
360.45558746302396
 21
295.43793824822512
  0
LINE
  8
_0-e_極細4
  6
CONTINUOUS
 62
    6
 10
349.51808746302396
 20
287.15208867767512
 11
360.45558746302396
 21
298.08958867767512
  0
LINE
  8
_0-e_極細4
  6
CONTINUOUS
 62
    6
 10
349.51808746302396
 20
289.80373910712456
 11
360.45558746302396
 21
300.74123910712456
  0
LINE
  8
_0-e_極細4
  6
CONTINUOUS
 62
    6
 10
349.51808746302396
 20
292.45538953657456
 11
360.45558746302396
 21
303.39288953657456
  0
LINE
  8
_0-e_極細4
  6
CONTINUOUS
 62
    6
 10
349.51808746302396
 20
295.10703996602399
 11
360.45558746302396
 21
306.04453996602342
  0
LINE
  8
_0-e_極細4
  6
CONTINUOUS
 62
    6
 10
349.51808746302396
 20
297.75869039547285
 11
360.45558746302396
 21
308.69619039547285
  0
LINE
  8
_0-e_極細4
  6
CONTINUOUS
 62
    6
 10
349.51808746302396
 20
300.41034082492286
 11
360.45558746302396
 21
311.34784082492286
  0
LINE
  8
_0-e_極細4
  6
CONTINUOUS
 62
    6
 10
349.51808746302396
 20
303.06199125437229
 11
360.45558746302396
 21
313.99949125437229
  0
LINE
  8
_0-e_極細4
  6
CONTINUOUS
 62
    6
 10
349.51808746302396
 20
305.71364168382229
 11
360.45558746302396
 21
316.65114168382229
  0
LINE
  8
_0-e_極細4
  6
CONTINUOUS
 62
    6
 10
349.51808746302396
 20
308.36529211327172
 11
360.45558746302396
 21
319.30279211327172
  0
LINE
  8
_0-e_極細4
  6
CONTINUOUS
 62
    6
 10
349.51808746302396
 20
311.01694254272115
 11
360.45558746302396
 21
321.95444254272059
  0
LINE
  8
_0-e_極細4
  6
CONTINUOUS
 62
    6
 10
349.51808746302396
 20
313.66859297217059
 11
360.45558746302396
 21
324.60609297217059
  0
LINE
  8
_0-e_極細4
  6
CONTINUOUS
 62
    6
 10
349.51808746302396
 20
316.32024340162059
 11
360.45558746302396
 21
327.25774340162002
  0
LINE
  8
_0-e_極細4
  6
CONTINUOUS
 62
    6
 10
349.51808746302396
 20
318.97189383107002
 11
359.21926523902209
 21
328.67307160706684
  0
LINE
  8
_0-e_極細4
  6
CONTINUOUS
 62
    6
 10
360.4555814421081
 20
329.9093878101537
 11
360.45558746302396
 21
329.90939383107002
  0
LINE
  8
_0-e_極細4
  6
CONTINUOUS
 62
    6
 10
349.51808746302396
 20
321.62354426051945
 11
356.56761480957249
 21
328.67307160706684
  0
LINE
  8
_0-e_極細4
  6
CONTINUOUS
 62
    6
 10
349.51808746302396
 20
324.27519468996832
 11
353.91596438012209
 21
328.67307160706684
  0
LINE
  8
_0-e_極細4
  6
CONTINUOUS
 62
    6
 10
349.51808746302396
 20
326.92684511941832
 11
351.26431395067436
 21
328.67307160706684
  0
LINE
  8
_0-e_極細4
  6
CONTINUOUS
 62
    6
 10
268.24594940934003
 20
256.26130878353263
 11
269.20558746302572
 21
257.22094683721775
  0
LINE
  8
_0-e_極細4
  6
CONTINUOUS
 62
    6
 10
265.59429897989116
 20
256.26130878353263
 11
269.20558746302572
 21
259.87259726666662
  0
LINE
  8
_0-e_極細4
  6
CONTINUOUS
 62
    6
 10
262.9426485504419
 20
256.26130878353263
 11
269.20558746302572
 21
262.52424769611605
  0
LINE
  8
_0-e_極細4
  6
CONTINUOUS
 62
    6
 10
260.2909981209923
 20
256.26130878353263
 11
269.20558746302572
 21
265.17589812556548
  0
LINE
  8
_0-e_極細4
  6
CONTINUOUS
 62
    6
 10
257.63934769154343
 20
256.26130878353263
 11
269.20558746302572
 21
267.82754855501491
  0
LINE
  8
_0-e_極細4
  6
CONTINUOUS
 62
    6
 10
254.98769726209233
 20
256.26130878353263
 11
267.4876972620923
 21
268.76130878353263
  0
LINE
  8
_0-e_極細4
  6
CONTINUOUS
 62
    6
 10
252.33604683264346
 20
256.26130878353263
 11
264.90958629187304
 21
268.83484824276206
  0
LINE
  8
_0-e_極細4
  6
CONTINUOUS
 62
    6
 10
249.71207523102663
 20
256.28898761136509
 11
262.65709844250705
 21
269.23401082284624
  0
LINE
  8
_0-e_極細4
  6
CONTINUOUS
 62
    6
 10
247.48435470194096
 20
256.71291751172885
 11
260.66819927313713
 21
269.89676208292633
  0
LINE
  8
_0-e_極細4
  6
CONTINUOUS
 62
    6
 10
245.62513927084098
 20
257.50535251007943
 11
258.89158313047642
 21
270.77179636971448
  0
LINE
  8
_0-e_極細4
  6
CONTINUOUS
 62
    6
 10
244.05019269009884
 20
258.5820563587863
 11
257.2999024945575
 21
271.83176616324556
  0
LINE
  8
_0-e_極細4
  6
CONTINUOUS
 62
    6
 10
242.7292610201728
 20
259.9127751183097
 11
255.87924143388207
 21
273.06275553201897
  0
LINE
  8
_0-e_極細4
  6
CONTINUOUS
 62
    6
 10
241.66289441810093
 20
261.49805894568726
 11
254.62498023202969
 21
274.46014475961715
  0
LINE
  8
_0-e_極細4
  6
CONTINUOUS
 62
    6
 10
240.8828061373795
 20
263.3696210944164
 11
253.54058901475199
 21
276.02740397178775
  0
LINE
  8
_0-e_極細4
  6
CONTINUOUS
 62
    6
 10
240.47649747688482
 20
265.61496286337058
 11
252.6385263989269
 21
277.77699178541252
  0
LINE
  8
_0-e_極細4
  6
CONTINUOUS
 62
    6
 10
240.45558746302575
 20
268.24570327896095
 11
251.94384877254109
 21
279.73396458847685
  0
LINE
  8
_0-e_極細4
  6
CONTINUOUS
 62
    6
 10
240.45558746302575
 20
270.89735370840981
 11
251.50343491199877
 21
281.9452011573851
  0
LINE
  8
_0-e_極細4
  6
CONTINUOUS
 62
    6
 10
240.45558746302575
 20
273.54900413785924
 11
251.39308746302575
 21
284.48650413785924
  0
LINE
  8
_0-e_極細4
  6
CONTINUOUS
 62
    6
 10
240.45558746302575
 20
276.20065456730867
 11
251.39308746302575
 21
287.13815456730924
  0
LINE
  8
_0-e_極細4
  6
CONTINUOUS
 62
    6
 10
240.45558746302575
 20
278.85230499675811
 11
251.39308746302575
 21
289.78980499675868
  0
LINE
  8
_0-e_極細4
  6
CONTINUOUS
 62
    6
 10
240.45558746302575
 20
281.50395542620868
 11
251.39308746302575
 21
292.44145542620868
  0
LINE
  8
_0-e_極細4
  6
CONTINUOUS
 62
    6
 10
240.45558746302575
 20
284.15560585565754
 11
251.39308746302575
 21
295.09310585565754
  0
LINE
  8
_0-e_極細4
  6
CONTINUOUS
 62
    6
 10
240.45558746302575
 20
286.80725628510697
 11
251.39308746302575
 21
297.74475628510697
  0
LINE
  8
_0-e_極細4
  6
CONTINUOUS
 62
    6
 10
240.45558746302575
 20
289.45890671455641
 11
251.39308746302575
 21
300.39640671455641
  0
LINE
  8
_0-e_極細4
  6
CONTINUOUS
 62
    6
 10
240.45558746302575
 20
292.11055714400584
 11
251.39308746302575
 21
303.04805714400641
  0
LINE
  8
_0-e_極細4
  6
CONTINUOUS
 62
    6
 10
240.45558746302575
 20
294.76220757345641
 11
251.39308746302575
 21
305.69970757345641
  0
LINE
  8
_0-e_極細4
  6
CONTINUOUS
 62
    6
 10
240.45558746302575
 20
297.41385800290527
 11
251.39308746302575
 21
308.3513580029047
  0
LINE
  8
_0-e_極細4
  6
CONTINUOUS
 62
    6
 10
240.45558746302575
 20
300.0655084323547
 11
251.39308746302575
 21
311.0030084323547
  0
LINE
  8
_0-e_極細4
  6
CONTINUOUS
 62
    6
 10
240.45558746302575
 20
302.71715886180471
 11
251.39308746302575
 21
313.65465886180414
  0
LINE
  8
_0-e_極細4
  6
CONTINUOUS
 62
    6
 10
240.45558746302575
 20
305.36880929125414
 11
251.39308746302575
 21
316.30630929125357
  0
LINE
  8
_0-e_極細4
  6
CONTINUOUS
 62
    6
 10
240.45558746302575
 20
308.02045972070414
 11
251.39308746302575
 21
318.95795972070414
  0
LINE
  8
_0-e_極細4
  6
CONTINUOUS
 62
    6
 10
240.45558746302575
 20
310.672110150153
 11
251.39308746302575
 21
321.609610150153
  0
LINE
  8
_0-e_極細4
  6
CONTINUOUS
 62
    6
 10
240.45558746302575
 20
313.32376057960244
 11
251.39308746302575
 21
324.26126057960244
  0
LINE
  8
_0-e_極細4
  6
CONTINUOUS
 62
    6
 10
240.45558746302575
 20
315.97541100905187
 11
251.39308746302575
 21
326.91291100905244
  0
LINE
  8
_0-e_極細4
  6
CONTINUOUS
 62
    6
 10
240.45558746302575
 20
318.62706143850187
 11
250.50159763159087
 21
328.67307160706684
  0
LINE
  8
_0-e_極細4
  6
CONTINUOUS
 62
    6
 10
240.45558746302575
 20
321.27871186795187
 11
247.84994720214016
 21
328.67307160706684
  0
LINE
  8
_0-e_極細4
  6
CONTINUOUS
 62
    6
 10
240.45558746302575
 20
323.93036229740073
 11
245.19829677269087
 21
328.67307160706684
  0
LINE
  8
_0-e_極細4
  6
CONTINUOUS
 62
    6
 10
240.45558746302575
 20
326.58201272685017
 11
242.54664634324129
 21
328.67307160706684
  0
LINE
  8
_0-e_極細4
  6
CONTINUOUS
 62
    6
 10
240.45558746302575
 20
329.2336631562996
 11
240.58378209227797
 21
329.36185778555409
  0
LINE
  8
_0-e_極細4
  6
CONTINUOUS
 62
    6
 10
267.39570585108322
 20
215.63630878353266
 11
268.59910123821078
 21
216.83970417066021
  0
LINE
  8
_0-e_極細4
  6
CONTINUOUS
 62
    6
 10
266.05867710169065
 20
216.95093046358878
 11
268.64053327617125
 21
219.53278663806955
  0
LINE
  8
_0-e_極細4
  6
CONTINUOUS
 62
    6
 10
266.01520742251893
 20
219.55911121386762
 11
268.68196531413173
 21
222.22586910547946
  0
LINE
  8
_0-e_極細4
  6
CONTINUOUS
 62
    6
 10
265.97173774334874
 20
222.16729196414533
 11
268.72339735209221
 21
224.91895157288937
  0
LINE
  8
_0-e_極細4
  6
CONTINUOUS
 62
    6
 10
265.92826806417702
 20
224.77547271442361
 11
268.76482939005268
 21
227.61203404029871
  0
LINE
  8
_0-e_極細4
  6
CONTINUOUS
 62
    6
 10
265.8847983850053
 20
227.38365346470246
 11
268.80626142801316
 21
230.30511650770862
  0
LINE
  8
_0-e_極細4
  6
CONTINUOUS
 62
    6
 10
265.84132870583358
 20
229.99183421498017
 11
268.8476934659721
 21
232.99819897511853
  0
LINE
  8
_0-e_極細4
  6
CONTINUOUS
 62
    6
 10
265.79785902666185
 20
232.60001496525845
 11
268.88912550393258
 21
235.69128144252787
  0
LINE
  8
_0-e_極細4
  6
CONTINUOUS
 62
    6
 10
252.43250241548779
 20
221.88630878353266
 11
252.64521458471705
 21
222.09902095276291
  0
LINE
  8
_0-e_極細4
  6
CONTINUOUS
 62
    6
 10
265.75438934749127
 20
235.20819571553673
 11
268.93055754189305
 21
238.38436390993778
  0
LINE
  8
_0-e_極細4
  6
CONTINUOUS
 62
    6
 10
249.78085198603893
 20
221.88630878353266
 11
252.67199893248929
 21
224.77745572998472
  0
LINE
  8
_0-e_極細4
  6
CONTINUOUS
 62
    6
 10
265.71091966831955
 20
237.81637646581501
 11
268.97198957985165
 21
241.07744637734768
  0
LINE
  8
_0-e_極細4
  6
CONTINUOUS
 62
    6
 10
249.04985697630948
 20
223.80696420325378
 11
252.69878328026223
 21
227.45589050720653
  0
LINE
  8
_0-e_極細4
  6
CONTINUOUS
 62
    6
 10
265.66744998914783
 20
240.42455721609329
 11
269.01342161781213
 21
243.77052884475702
  0
LINE
  8
_0-e_極細4
  6
CONTINUOUS
 62
    6
 10
249.00809870182982
 20
226.41685635822355
 11
252.72556762803291
 21
230.13432528442834
  0
LINE
  8
_0-e_極細4
  6
CONTINUOUS
 62
    6
 10
265.62398030997798
 20
243.03273796637157
 11
269.0548536557726
 21
246.46361131216693
  0
LINE
  8
_0-e_極細4
  6
CONTINUOUS
 62
    6
 10
248.9663404273513
 20
229.02674851319389
 11
252.75235197580585
 21
232.81276006165015
  0
LINE
  8
_0-e_極細4
  6
CONTINUOUS
 62
    6
 10
265.58051063080626
 20
245.64091871664928
 11
269.09628569373308
 21
249.15669377957684
  0
LINE
  8
_0-e_極細4
  6
CONTINUOUS
 62
    6
 10
248.92458215287121
 20
231.6366406681648
 11
252.77913632357837
 21
235.49119483887196
  0
LINE
  8
_0-e_極細4
  6
CONTINUOUS
 62
    6
 10
265.53704095163454
 20
248.24909946692813
 11
269.13771773169242
 21
251.84977624698618
  0
LINE
  8
_0-e_極細4
  6
CONTINUOUS
 62
    6
 10
248.88282387839084
 20
234.246532823134
 11
252.80592067135061
 21
238.16962961609377
  0
LINE
  8
_0-e_極細4
  6
CONTINUOUS
 62
    6
 10
265.49357127246435
 20
250.85728021720584
 11
269.17914976965289
 21
254.54285871439609
  0
LINE
  8
_0-e_極細4
  6
CONTINUOUS
 62
    6
 10
248.84106560391118
 20
236.85642497810377
 11
252.83270501912355
 21
240.84806439331558
  0
LINE
  8
_0-e_極細4
  6
CONTINUOUS
 62
    6
 10
265.12094940934003
 20
253.13630878353266
 11
268.24594940934003
 21
256.26130878353263
  0
LINE
  8
_0-e_極細4
  6
CONTINUOUS
 62
    6
 10
248.79930732943265
 20
239.46631713307411
 11
252.85948936689422
 21
243.52649917053739
  0
LINE
  8
_0-e_極細4
  6
CONTINUOUS
 62
    6
 10
262.46929897989116
 20
253.13630878353266
 11
265.59429897989116
 21
256.26130878353263
  0
LINE
  8
_0-e_極細4
  6
CONTINUOUS
 62
    6
 10
248.75754905495256
 20
242.07620928804388
 11
252.88627371466717
 21
246.2049339477592
  0
LINE
  8
_0-e_極細4
  6
CONTINUOUS
 62
    6
 10
259.8176485504419
 20
253.13630878353266
 11
262.9426485504419
 21
256.26130878353263
  0
LINE
  8
_0-e_極細4
  6
CONTINUOUS
 62
    6
 10
248.71579078047219
 20
244.68610144301422
 11
252.91305806243969
 21
248.88336872497987
  0
LINE
  8
_0-e_極細4
  6
CONTINUOUS
 62
    6
 10
257.16599812099116
 20
253.13630878353266
 11
260.2909981209923
 21
256.26130878353263
  0
LINE
  8
_0-e_極細4
  6
CONTINUOUS
 62
    6
 10
248.67403250599367
 20
247.29599359798456
 11
252.93984241021079
 21
251.56180350220168
  0
LINE
  8
_0-e_極細4
  6
CONTINUOUS
 62
    6
 10
254.51434769154346
 20
253.13630878353266
 11
257.63934769154343
 21
256.26130878353263
  0
LINE
  8
_0-e_極細4
  6
CONTINUOUS
 62
    6
 10
248.632274231514
 20
249.90588575295433
 11
254.98769726209233
 21
256.26130878353263
  0
LINE
  8
_0-e_極細4
  6
CONTINUOUS
 62
    6
 10
248.59051595703548
 20
252.51577790792467
 11
252.33604683264346
 21
256.26130878353263
  0
LINE
  8
_0-e_極細4
  6
CONTINUOUS
 62
    6
 10
246.58707523102663
 20
253.16398761136512
 11
249.71207523102663
 21
256.28898761136509
  0
LINE
  8
_0-e_極細4
  6
CONTINUOUS
 62
    6
 10
244.35935470194096
 20
253.58791751173001
 11
247.48435470194096
 21
256.71291751172885
  0
LINE
  8
_0-e_極細4
  6
CONTINUOUS
 62
    6
 10
242.50013927084098
 20
254.38035251007946
 11
245.62513927084098
 21
257.50535251007943
  0
LINE
  8
_0-e_極細4
  6
CONTINUOUS
 62
    6
 10
240.92519269009884
 20
255.45705635878633
 11
244.05019269009884
 21
258.5820563587863
  0
LINE
  8
_0-e_極細4
  6
CONTINUOUS
 62
    6
 10
239.6042610201728
 20
256.7877751183097
 11
242.7292610201728
 21
259.9127751183097
  0
LINE
  8
_0-e_極細4
  6
CONTINUOUS
 62
    6
 10
238.53789441810093
 20
258.37305894568726
 11
241.66289441810093
 21
261.49805894568726
  0
LINE
  8
_0-e_極細4
  6
CONTINUOUS
 62
    6
 10
237.7578061373795
 20
260.2446210944164
 11
240.8828061373795
 21
263.3696210944164
  0
LINE
  8
_0-e_極細4
  6
CONTINUOUS
 62
    6
 10
237.35149747688482
 20
262.48996286337001
 11
240.47649747688482
 21
265.61496286337058
  0
LINE
  8
_0-e_極細4
  6
CONTINUOUS
 62
    6
 10
237.33058746302575
 20
265.12070327896095
 11
240.45558746302575
 21
268.24570327896095
  0
LINE
  8
_0-e_極細4
  6
CONTINUOUS
 62
    6
 10
237.33058746302575
 20
267.77235370840981
 11
240.45558746302575
 21
270.89735370840981
  0
LINE
  8
_0-e_極細4
  6
CONTINUOUS
 62
    6
 10
237.33058746302575
 20
270.42400413785924
 11
240.45558746302575
 21
273.54900413785924
  0
LINE
  8
_0-e_極細4
  6
CONTINUOUS
 62
    6
 10
237.33058746302575
 20
273.07565456730924
 11
240.45558746302575
 21
276.20065456730867
  0
LINE
  8
_0-e_極細4
  6
CONTINUOUS
 62
    6
 10
237.33058746302575
 20
275.72730499675811
 11
240.45558746302575
 21
278.85230499675811
  0
LINE
  8
_0-e_極細4
  6
CONTINUOUS
 62
    6
 10
237.33058746302575
 20
278.37895542620868
 11
240.45558746302575
 21
281.50395542620868
  0
LINE
  8
_0-e_極細4
  6
CONTINUOUS
 62
    6
 10
237.33058746302575
 20
281.03060585565754
 11
240.45558746302575
 21
284.15560585565754
  0
LINE
  8
_0-e_極細4
  6
CONTINUOUS
 62
    6
 10
237.33058746302575
 20
283.68225628510697
 11
240.45558746302575
 21
286.80725628510697
  0
LINE
  8
_0-e_極細4
  6
CONTINUOUS
 62
    6
 10
237.33058746302575
 20
286.33390671455697
 11
240.45558746302575
 21
289.45890671455641
  0
LINE
  8
_0-e_極細4
  6
CONTINUOUS
 62
    6
 10
237.33058746302575
 20
288.98555714400641
 11
240.45558746302575
 21
292.11055714400584
  0
LINE
  8
_0-e_極細4
  6
CONTINUOUS
 62
    6
 10
237.33058746302575
 20
291.63720757345641
 11
240.45558746302575
 21
294.76220757345641
  0
LINE
  8
_0-e_極細4
  6
CONTINUOUS
 62
    6
 10
237.33058746302575
 20
294.2888580029047
 11
240.45558746302575
 21
297.41385800290527
  0
LINE
  8
_0-e_極細4
  6
CONTINUOUS
 62
    6
 10
237.33058746302575
 20
296.9405084323547
 11
240.45558746302575
 21
300.0655084323547
  0
LINE
  8
_0-e_極細4
  6
CONTINUOUS
 62
    6
 10
237.33058746302575
 20
299.59215886180414
 11
240.45558746302575
 21
302.71715886180471
  0
LINE
  8
_0-e_極細4
  6
CONTINUOUS
 62
    6
 10
237.33058746302575
 20
302.24380929125357
 11
240.45558746302575
 21
305.36880929125414
  0
LINE
  8
_0-e_極細4
  6
CONTINUOUS
 62
    6
 10
237.33058746302575
 20
304.89545972070414
 11
240.45558746302575
 21
308.02045972070414
  0
LINE
  8
_0-e_極細4
  6
CONTINUOUS
 62
    6
 10
237.33058746302575
 20
307.547110150153
 11
240.45558746302575
 21
310.672110150153
  0
LINE
  8
_0-e_極細4
  6
CONTINUOUS
 62
    6
 10
237.33058746302575
 20
310.19876057960244
 11
240.45558746302575
 21
313.32376057960244
  0
LINE
  8
_0-e_極細4
  6
CONTINUOUS
 62
    6
 10
237.33058746302575
 20
312.85041100905244
 11
240.45558746302575
 21
315.97541100905187
  0
LINE
  8
_0-e_極細4
  6
CONTINUOUS
 62
    6
 10
237.33058746302575
 20
315.50206143850187
 11
240.45558746302575
 21
318.62706143850187
  0
LINE
  8
_0-e_極細4
  6
CONTINUOUS
 62
    6
 10
237.33058746302575
 20
318.15371186795187
 11
240.45558746302575
 21
321.27871186795187
  0
LINE
  8
_0-e_極細4
  6
CONTINUOUS
 62
    6
 10
237.33058746302575
 20
320.80536229740073
 11
240.45558746302575
 21
323.93036229740073
  0
LINE
  8
_0-e_極細4
  6
CONTINUOUS
 62
    6
 10
237.33058746302575
 20
323.45701272685017
 11
240.45558746302575
 21
326.58201272685017
  0
LINE
  8
_0-e_極細4
  6
CONTINUOUS
 62
    6
 10
237.33058746302575
 20
326.10866315630017
 11
240.45558746302575
 21
329.2336631562996
  0
LINE
  8
_0-e_極細4
  6
CONTINUOUS
 62
    6
 10
237.33058746302575
 20
328.7603135857496
 11
240.45558746302575
 21
331.88531358574903
  0
LINE
  8
_0-e_極細4
  6
CONTINUOUS
 62
    6
 10
237.33058746302575
 20
331.4119640151996
 11
240.45558746302575
 21
334.5369640151996
  0
LINE
  8
_0-e_極細4
  6
CONTINUOUS
 62
    6
 10
237.33058746302575
 20
334.06361444464903
 11
240.45558746302575
 21
337.18861444464846
  0
LINE
  8
_0-e_極細4
  6
CONTINUOUS
 62
    6
 10
237.33058746302575
 20
336.7152648740979
 11
240.45558746302575
 21
339.8402648740979
  0
LINE
  8
_0-e_極細4
  6
CONTINUOUS
 62
    6
 10
237.33058746302575
 20
339.3669153035479
 11
240.45558746302575
 21
342.49191530354733
  0
LINE
  8
_0-e_極細4
  6
CONTINUOUS
 62
    6
 10
237.33058746302575
 20
342.01856573299733
 11
240.45558746302575
 21
345.14356573299733
  0
LINE
  8
_0-e_極細4
  6
CONTINUOUS
 62
    6
 10
237.33058746302575
 20
344.67021616244733
 11
240.45558746302575
 21
347.79521616244733
  0
LINE
  8
_0-e_極細4
  6
CONTINUOUS
 62
    6
 10
237.33058746302575
 20
347.3218665918962
 11
240.45558746302575
 21
350.4468665918962
  0
LINE
  8
_0-e_極細4
  6
CONTINUOUS
 62
    6
 10
237.33058746302575
 20
349.97351702134563
 11
240.45558746302575
 21
353.09851702134563
  0
LINE
  8
_0-e_極細4
  6
CONTINUOUS
 62
    6
 10
237.33058746302575
 20
352.62516745079563
 11
240.45558746302575
 21
355.75016745079563
  0
LINE
  8
_0-e_極細4
  6
CONTINUOUS
 62
    6
 10
237.33058746302575
 20
355.27681788024506
 11
240.45558746302575
 21
358.40181788024506
  0
LINE
  8
_0-e_極細4
  6
CONTINUOUS
 62
    6
 10
237.00165492564864
 20
357.59953577231795
 11
240.45558746302575
 21
361.05346830969506
  0
LINE
  8
_0-e_極細4
  6
CONTINUOUS
 62
    6
 10
236.08852836590998
 20
359.33805964203043
 11
240.45558746302575
 21
363.7051187391445
  0
LINE
  8
_0-e_極細4
  6
CONTINUOUS
 62
    6
 10
234.75401369686466
 20
360.65519540243326
 11
239.83058746302575
 21
365.73176916859336
  0
LINE
  8
_0-e_極細4
  6
CONTINUOUS
 62
    6
 10
234.20558746302575
 20
362.75841959804279
 11
239.83058746302575
 21
368.38341959804336
  0
LINE
  8
_0-e_極細4
  6
CONTINUOUS
 62
    6
 10
234.20558746302575
 20
365.41007002749279
 11
238.51063229104696
 21
369.71511485551514
  0
LINE
  8
_0-e_極細4
  6
CONTINUOUS
 62
    6
 10
234.20558746302575
 20
368.06172045694279
 11
237.98183746302499
 21
371.83797045694189
  0
LINE
  8
_0-e_極細4
  6
CONTINUOUS
 62
    6
 10
234.20558746302575
 20
370.71337088639223
 11
237.98183746302499
 21
374.48962088639189
  0
LINE
  8
_0-e_極細4
  6
CONTINUOUS
 62
    6
 10
231.85189583072045
 20
371.01132968353693
 11
237.98183746302499
 21
377.14127131584144
  0
LINE
  8
_0-e_極細4
  6
CONTINUOUS
 62
    6
 10
229.33058746302393
 20
371.14167174529098
 11
237.98183746302499
 21
379.79292174529144
  0
LINE
  8
_0-e_極細4
  6
CONTINUOUS
 62
    6
 10
229.33058746302393
 20
373.79332217474109
 11
237.98183746302499
 21
382.44457217474076
  0
LINE
  8
_0-e_極細4
  6
CONTINUOUS
 62
    6
 10
229.33058746302393
 20
376.44497260418996
 11
237.98183746302499
 21
385.09622260418962
  0
LINE
  8
_0-e_極細4
  6
CONTINUOUS
 62
    6
 10
229.33058746302393
 20
379.09662303363928
 11
237.76980320242913
 21
387.53583877304521
  0
LINE
  8
_0-e_極細4
  6
CONTINUOUS
 62
    6
 10
229.33058746302393
 20
381.74827346308928
 11
235.39289961193305
 21
387.81058561199768
  0
LINE
  8
_0-e_極細4
  6
CONTINUOUS
 62
    6
 10
229.33058746302393
 20
384.39992389253888
 11
233.01599602143668
 21
388.08533245095089
  0
LINE
  8
_0-e_極細4
  6
CONTINUOUS
 62
    6
 10
229.33058746302393
 20
387.05157432198888
 11
230.63909243094173
 21
388.36007928990483
  0
LINE
  8
_0-e_極細4
  6
CONTINUOUS
 62
    6
 10
362.92933746302504
 20
387.81199350591703
 11
365.5304553563854
 21
387.81199350591703
  0
LINE
  8
_0-e_極細4
  6
CONTINUOUS
 62
    6
 10
362.92933746302504
 20
388.56199350591709
 11
371.58058746302396
 21
388.56199350591709
  0
LINE
  8
_0-e_極細4
  6
CONTINUOUS
 62
    6
 10
362.92933746302504
 20
389.3119935059168
 11
371.58058746302396
 21
389.3119935059168
  0
LINE
  8
_0-e_極細4
  6
CONTINUOUS
 62
    6
 10
367.67317539581734
 20
390.061993505918
 11
371.58058746302396
 21
390.061993505918
  0
LINE
  8
_0-e_極細4
  6
CONTINUOUS
 62
    6
 10
235.38071956966249
 20
387.81199350591703
 11
237.98183746302499
 21
387.81199350591703
  0
LINE
  8
_0-e_極細4
  6
CONTINUOUS
 62
    6
 10
229.33058746302393
 20
388.56199350591709
 11
237.98183746302499
 21
388.56199350591709
  0
LINE
  8
_0-e_極細4
  6
CONTINUOUS
 62
    6
 10
229.33058746302393
 20
389.3119935059168
 11
237.98183746302499
 21
389.3119935059168
  0
LINE
  8
_0-e_極細4
  6
CONTINUOUS
 62
    6
 10
229.33058746302393
 20
390.061993505918
 11
233.23799953023084
 21
390.061993505918
  0
ARC
  8
_0-e_極細4
  6
CONTINUOUS
 62
    6
 10
341.70558746302396
 20
365.23894093353772
 40
7.5
 50
155.11305268293171
 51
179.99999999999983
  0
ARC
  8
_0-e_極細4
  6
CONTINUOUS
 62
    6
 10
341.70558746302396
 20
365.23894093353772
 40
7.5
 50
55.16629235614981
 51
155.11305268293171
  0
ARC
  8
_0-e_極細4
  6
CONTINUOUS
 62
    6
 10
343.58058746302396
 20
368.52113343353733
 40
3.75
 50
358.07490068720767
 51
50.029499419955883
  0
LINE
  8
_0-e_極細4
  6
CONTINUOUS
 62
    6
 10
334.90203815386559
 20
368.39515968353749
 11
347.33058746302396
 21
368.39515968353749
  0
LINE
  8
_0-e_極細4
  6
CONTINUOUS
 62
    6
 10
347.33058746302396
 20
364.7711334335379
 11
347.33058746302396
 21
368.39515968353749
  0
LINE
  8
_0-e_極細4
  6
CONTINUOUS
 62
    6
 10
346.59411842594261
 20
368.39515968353749
 11
346.59411842594261
 21
370.75297821656545
  0
LINE
  8
_0-e_極細4
  6
CONTINUOUS
 62
    6
 10
345.84411842594255
 20
368.39515968353749
 11
345.84411842594255
 21
371.4937440054947
  0
LINE
  8
_0-e_極細4
  6
CONTINUOUS
 62
    6
 10
345.09411842594255
 20
368.39515968353749
 11
345.09411842594255
 21
371.92981964364287
  0
LINE
  8
_0-e_極細4
  6
CONTINUOUS
 62
    6
 10
344.34411842594352
 20
368.39515968353749
 11
344.34411842594352
 21
372.25949321649375
  0
LINE
  8
_0-e_極細4
  6
CONTINUOUS
 62
    6
 10
343.59411842594346
 20
368.39515968353749
 11
343.59411842594346
 21
372.49727757508947
  0
LINE
  8
_0-e_極細4
  6
CONTINUOUS
 62
    6
 10
342.84411842594261
 20
368.39515968353749
 11
342.84411842594261
 21
372.6520204047473
  0
LINE
  8
_0-e_極細4
  6
CONTINUOUS
 62
    6
 10
342.09411842594255
 20
368.39515968353749
 11
342.09411842594255
 21
372.72887041857609
  0
LINE
  8
_0-e_極細4
  6
CONTINUOUS
 62
    6
 10
341.34411842594255
 20
368.39515968353749
 11
341.34411842594255
 21
372.7302252116325
  0
LINE
  8
_0-e_極細4
  6
CONTINUOUS
 62
    6
 10
340.59411842594352
 20
368.39515968353749
 11
340.59411842594352
 21
372.6561261529863
  0
LINE
  8
_0-e_極細4
  6
CONTINUOUS
 62
    6
 10
339.84411842594164
 20
368.39515968353749
 11
339.84411842594164
 21
372.50426494723354
  0
LINE
  8
_0-e_極細4
  6
CONTINUOUS
 62
    6
 10
339.09411842594261
 20
368.39515968353749
 11
339.09411842594261
 21
372.26960444905069
  0
LINE
  8
_0-e_極細4
  6
CONTINUOUS
 62
    6
 10
338.34411842594255
 20
368.39515968353749
 11
338.34411842594255
 21
371.94345627118435
  0
LINE
  8
_0-e_極細4
  6
CONTINUOUS
 62
    6
 10
337.59411842594255
 20
368.39515968353749
 11
337.59411842594255
 21
371.511565771444
  0
LINE
  8
_0-e_極細4
  6
CONTINUOUS
 62
    6
 10
336.84411842594352
 20
368.39515968353749
 11
336.84411842594352
 21
370.94999327102312
  0
LINE
  8
_0-e_極細4
  6
CONTINUOUS
 62
    6
 10
336.09411842594164
 20
368.39515968353749
 11
336.09411842594164
 21
370.21502526219149
  0
LINE
  8
_0-e_極細4
  6
CONTINUOUS
 62
    6
 10
335.34411842594261
 20
368.39515968353749
 11
335.34411842594261
 21
369.21156118851411
  0
ARC
  8
_0-e_極細4
  6
CONTINUOUS
 62
    6
 10
257.33058746302572
 20
368.52113343353733
 40
3.75
 50
129.97050058006241
 51
181.92509931279125
  0
LINE
  8
_0-e_極細4
  6
CONTINUOUS
 62
    6
 10
253.58058746302575
 20
364.7711334335379
 11
253.58058746302575
 21
368.39515968353749
  0
ARC
  8
_0-e_極細4
  6
CONTINUOUS
 62
    6
 10
259.20558746302572
 20
365.23894093353772
 40
7.5
 50
24.886947317074153
 51
124.83370764386019
  0
LINE
  8
_0-e_極細4
  6
CONTINUOUS
 62
    6
 10
266.00913677218227
 20
368.39515968353749
 11
253.58058746302575
 21
368.39515968353749
  0
ARC
  8
_0-e_極細4
  6
CONTINUOUS
 62
    6
 10
259.20558746302572
 20
365.23894093353772
 40
7.5
 50
0
 51
24.886947317074153
  0
LINE
  8
_0-e_極細4
  6
CONTINUOUS
 62
    6
 10
265.59411842594341
 20
368.39515968353749
 11
265.59411842594341
 21
369.16789399202924
  0
LINE
  8
_0-e_極細4
  6
CONTINUOUS
 62
    6
 10
264.84411842594369
 20
368.39515968353749
 11
264.84411842594369
 21
370.18433966166936
  0
LINE
  8
_0-e_極細4
  6
CONTINUOUS
 62
    6
 10
264.0941184259425
 20
368.39515968353749
 11
264.0941184259425
 21
370.92684608610352
  0
LINE
  8
_0-e_極細4
  6
CONTINUOUS
 62
    6
 10
263.34411842594278
 20
368.39515968353749
 11
263.34411842594278
 21
371.49374400549584
  0
LINE
  8
_0-e_極細4
  6
CONTINUOUS
 62
    6
 10
262.59411842594272
 20
368.39515968353749
 11
262.59411842594272
 21
371.92981964364333
  0
LINE
  8
_0-e_極細4
  6
CONTINUOUS
 62
    6
 10
261.84411842594341
 20
368.39515968353749
 11
261.84411842594341
 21
372.25949321649375
  0
LINE
  8
_0-e_極細4
  6
CONTINUOUS
 62
    6
 10
261.09411842594369
 20
368.39515968353749
 11
261.09411842594369
 21
372.49727757508947
  0
LINE
  8
_0-e_極細4
  6
CONTINUOUS
 62
    6
 10
260.3441184259425
 20
368.39515968353749
 11
260.3441184259425
 21
372.6520204047473
  0
LINE
  8
_0-e_極細4
  6
CONTINUOUS
 62
    6
 10
259.59411842594278
 20
368.39515968353749
 11
259.59411842594278
 21
372.72887041857609
  0
LINE
  8
_0-e_極細4
  6
CONTINUOUS
 62
    6
 10
258.84411842594272
 20
368.39515968353749
 11
258.84411842594272
 21
372.73022521163182
  0
LINE
  8
_0-e_極細4
  6
CONTINUOUS
 62
    6
 10
258.09411842594341
 20
368.39515968353749
 11
258.09411842594341
 21
372.6561261529863
  0
LINE
  8
_0-e_極細4
  6
CONTINUOUS
 62
    6
 10
257.34411842594182
 20
368.39515968353749
 11
257.34411842594182
 21
372.50426494723354
  0
LINE
  8
_0-e_極細4
  6
CONTINUOUS
 62
    6
 10
256.5941184259425
 20
368.39515968353749
 11
256.5941184259425
 21
372.26960444905069
  0
LINE
  8
_0-e_極細4
  6
CONTINUOUS
 62
    6
 10
255.84411842594278
 20
368.39515968353749
 11
255.84411842594278
 21
371.94345627118435
  0
LINE
  8
_0-e_極細4
  6
CONTINUOUS
 62
    6
 10
255.09411842594275
 20
368.39515968353749
 11
255.09411842594275
 21
371.511565771444
  0
LINE
  8
_0-e_極細4
  6
CONTINUOUS
 62
    6
 10
254.34411842594344
 20
368.39515968353749
 11
254.34411842594344
 21
370.78906259701466
  0
LINE
  8
_0-e_極細4
  6
CONTINUOUS
 62
    6
 10
253.59411842594184
 20
368.39515968353749
 11
253.59411842594184
 21
368.83940868379693
  0
LINE
  8
_0-e_極細4
  6
CONTINUOUS
 62
    6
 10
343.59411842594346
 20
366.27015968353714
 11
343.59411842594346
 21
368.39515968353749
  0
LINE
  8
_0-e_極細4
  6
CONTINUOUS
 62
    6
 10
342.84411842594261
 20
366.27015968353714
 11
342.84411842594261
 21
368.39515968353749
  0
LINE
  8
_0-e_極細4
  6
CONTINUOUS
 62
    6
 10
342.09411842594255
 20
366.27015968353714
 11
342.09411842594255
 21
368.39515968353749
  0
LINE
  8
_0-e_極細4
  6
CONTINUOUS
 62
    6
 10
341.34411842594255
 20
366.27015968353771
 11
341.34411842594255
 21
368.39515968353749
  0
LINE
  8
_0-e_極細4
  6
CONTINUOUS
 62
    6
 10
340.59411842594352
 20
366.27015968353714
 11
340.59411842594352
 21
368.39515968353749
  0
LINE
  8
_0-e_極細4
  6
CONTINUOUS
 62
    6
 10
339.84411842594346
 20
366.27015968353714
 11
339.84411842594346
 21
368.39515968353749
  0
LINE
  8
_0-e_極細4
  6
CONTINUOUS
 62
    6
 10
339.09411842594261
 20
366.27015968353714
 11
339.09411842594261
 21
368.39515968353749
  0
LINE
  8
_0-e_極細4
  6
CONTINUOUS
 62
    6
 10
338.34411842594255
 20
366.27015968353714
 11
338.34411842594255
 21
368.39515968353749
  0
LINE
  8
_0-e_極細4
  6
CONTINUOUS
 62
    6
 10
262.59411842594272
 20
366.27015968353714
 11
262.59411842594272
 21
368.39515968353749
  0
LINE
  8
_0-e_極細4
  6
CONTINUOUS
 62
    6
 10
261.84411842594341
 20
366.27015968353714
 11
261.84411842594341
 21
368.39515968353749
  0
LINE
  8
_0-e_極細4
  6
CONTINUOUS
 62
    6
 10
261.09411842594369
 20
366.27015968353714
 11
261.09411842594369
 21
368.39515968353749
  0
LINE
  8
_0-e_極細4
  6
CONTINUOUS
 62
    6
 10
260.3441184259425
 20
366.27015968353714
 11
260.3441184259425
 21
368.39515968353749
  0
LINE
  8
_0-e_極細4
  6
CONTINUOUS
 62
    6
 10
259.59411842594278
 20
366.27015968353714
 11
259.59411842594278
 21
368.39515968353749
  0
LINE
  8
_0-e_極細4
  6
CONTINUOUS
 62
    6
 10
258.84411842594272
 20
366.27015968353714
 11
258.84411842594272
 21
368.39515968353749
  0
LINE
  8
_0-e_極細4
  6
CONTINUOUS
 62
    6
 10
258.09411842594341
 20
366.27015968353714
 11
258.09411842594341
 21
368.39515968353749
  0
LINE
  8
_0-e_極細4
  6
CONTINUOUS
 62
    6
 10
257.34411842594369
 20
366.27015968353714
 11
257.34411842594369
 21
368.39515968353749
  0
LINE
  8
_0-e_極細4
  6
CONTINUOUS
 62
    6
 10
249.84411842594369
 20
368.52113343353733
 11
249.84411842594369
 21
373.3951596835376
  0
LINE
  8
_0-e_極細4
  6
CONTINUOUS
 62
    6
 10
249.09411842594253
 20
368.52113343353733
 11
249.09411842594253
 21
373.3951596835376
  0
LINE
  8
_0-e_極細4
  6
CONTINUOUS
 62
    6
 10
248.34411842594278
 20
368.52113343353733
 11
248.34411842594278
 21
373.3951596835376
  0
LINE
  8
_0-e_極細4
  6
CONTINUOUS
 62
    6
 10
247.59411842594275
 20
365.89515968353749
 11
247.59411842594275
 21
366.15390192387918
  0
LINE
  8
_0-e_極細4
  6
CONTINUOUS
 62
    6
 10
247.59411842594275
 20
368.52113343353733
 11
247.59411842594275
 21
373.3951596835376
  0
LINE
  8
_0-e_極細4
  6
CONTINUOUS
 62
    6
 10
246.84411842594344
 20
365.89515968353749
 11
246.84411842594344
 21
373.3951596835376
  0
LINE
  8
_0-e_極細4
  6
CONTINUOUS
 62
    6
 10
354.09411842594261
 20
365.89515968353749
 11
354.09411842594261
 21
373.3951596835376
  0
LINE
  8
_0-e_極細4
  6
CONTINUOUS
 62
    6
 10
353.34411842594255
 20
365.89515968353749
 11
353.34411842594255
 21
366.20980050749222
  0
LINE
  8
_0-e_極細4
  6
CONTINUOUS
 62
    6
 10
353.34411842594255
 20
368.52113343353733
 11
353.34411842594255
 21
373.3951596835376
  0
LINE
  8
_0-e_極細4
  6
CONTINUOUS
 62
    6
 10
352.59411842594255
 20
368.52113343353733
 11
352.59411842594255
 21
373.3951596835376
  0
LINE
  8
_0-e_極細4
  6
CONTINUOUS
 62
    6
 10
351.84411842594352
 20
368.52113343353733
 11
351.84411842594352
 21
373.3951596835376
  0
LINE
  8
_0-e_極細4
  6
CONTINUOUS
 62
    6
 10
351.09411842594346
 20
368.52113343353733
 11
351.09411842594346
 21
373.3951596835376
  0
LINE
  8
_0-e_極細4
  6
CONTINUOUS
 62
    6
 10
362.34411842594346
 20
369.65869064645642
 11
362.34411842594346
 21
389.25746814819803
  0
LINE
  8
_0-e_極細4
  6
CONTINUOUS
 62
    6
 10
361.59411842594261
 20
368.90869064645653
 11
361.59411842594261
 21
387.99509471284307
  0
LINE
  8
_0-e_極細4
  6
CONTINUOUS
 62
    6
 10
360.84411842594255
 20
368.39515968353749
 11
360.84411842594255
 21
386.74347768473893
  0
LINE
  8
_0-e_極細4
  6
CONTINUOUS
 62
    6
 10
360.09411842594255
 20
368.39515968353749
 11
360.09411842594255
 21
386.35284362828742
  0
LINE
  8
_0-e_極細4
  6
CONTINUOUS
 62
    6
 10
359.34411842594352
 20
368.39515968353749
 11
359.34411842594352
 21
386.27015968353714
  0
LINE
  8
_0-e_極細4
  6
CONTINUOUS
 62
    6
 10
358.59411842594346
 20
368.39515968353749
 11
358.59411842594346
 21
386.27015968353714
  0
LINE
  8
_0-e_極細4
  6
CONTINUOUS
 62
    6
 10
357.84411842594261
 20
368.39515968353749
 11
357.84411842594261
 21
386.25857898316224
  0
LINE
  8
_0-e_極細4
  6
CONTINUOUS
 62
    6
 10
357.09411842594255
 20
368.39515968353749
 11
357.09411842594255
 21
385.88982783817198
  0
LINE
  8
_0-e_極細4
  6
CONTINUOUS
 62
    6
 10
356.34411842594255
 20
368.39515968353749
 11
356.34411842594255
 21
370.89515968353749
  0
LINE
  8
_0-e_極細4
  6
CONTINUOUS
 62
    6
 10
355.59411842594352
 20
368.39515968353749
 11
355.59411842594352
 21
370.89515968353749
  0
LINE
  8
_0-e_極細4
  6
CONTINUOUS
 62
    6
 10
354.84411842594164
 20
368.39515968353749
 11
354.84411842594164
 21
370.89515968353749
  0
LINE
  8
_0-e_極細4
  6
CONTINUOUS
 62
    6
 10
246.09411842594369
 20
368.39515968353749
 11
246.09411842594369
 21
370.89515968353749
  0
LINE
  8
_0-e_極細4
  6
CONTINUOUS
 62
    6
 10
245.34411842594253
 20
368.39515968353749
 11
245.34411842594253
 21
370.89515968353749
  0
LINE
  8
_0-e_極細4
  6
CONTINUOUS
 62
    6
 10
244.59411842594278
 20
368.39515968353749
 11
244.59411842594278
 21
370.89515968353749
  0
LINE
  8
_0-e_極細4
  6
CONTINUOUS
 62
    6
 10
243.84411842594275
 20
368.39515968353749
 11
243.84411842594275
 21
385.86220175418447
  0
LINE
  8
_0-e_極細4
  6
CONTINUOUS
 62
    6
 10
243.09411842594344
 20
368.39515968353749
 11
243.09411842594344
 21
386.25467271429301
  0
LINE
  8
_0-e_極細4
  6
CONTINUOUS
 62
    6
 10
242.34411842594369
 20
368.39515968353749
 11
242.34411842594369
 21
386.27015968353714
  0
LINE
  8
_0-e_極細4
  6
CONTINUOUS
 62
    6
 10
241.59411842594253
 20
368.39515968353749
 11
241.59411842594253
 21
386.27015968353714
  0
LINE
  8
_0-e_極細4
  6
CONTINUOUS
 62
    6
 10
240.84411842594278
 20
368.39515968353749
 11
240.84411842594278
 21
386.34525888721794
  0
LINE
  8
_0-e_極細4
  6
CONTINUOUS
 62
    6
 10
240.09411842594275
 20
368.39515968353749
 11
240.09411842594275
 21
386.72193384130054
  0
LINE
  8
_0-e_極細4
  6
CONTINUOUS
 62
    6
 10
239.34411842594344
 20
368.88162872061923
 11
239.34411842594344
 21
387.87335879861388
  0
LINE
  8
_0-e_極細4
  6
CONTINUOUS
 62
    6
 10
238.59411842594184
 20
369.63162872061912
 11
238.59411842594184
 21
389.24359390753477
  0
LINE
  8
_0-e_極細4
  6
CONTINUOUS
 62
    6
 10
350.14308746302396
 20
376.56199350591703
 11
354.64308746302402
 21
376.56199350591703
  0
LINE
  8
_0-e_極細4
  6
CONTINUOUS
 62
    6
 10
349.55228378540306
 20
377.31199350591703
 11
354.64308746302402
 21
377.31199350591703
  0
LINE
  8
_0-e_極細4
  6
CONTINUOUS
 62
    6
 10
350.14308746302396
 20
378.0619935059168
 11
354.64308746302402
 21
378.0619935059168
  0
LINE
  8
_0-e_極細4
  6
CONTINUOUS
 62
    6
 10
350.14308746302396
 20
378.81199350591794
 11
354.64308746302402
 21
378.81199350591794
  0
LINE
  8
_0-e_極細4
  6
CONTINUOUS
 62
    6
 10
350.10889114064491
 20
379.56199350591726
 11
354.66132550162621
 21
379.56199350591726
  0
LINE
  8
_0-e_極細4
  6
CONTINUOUS
 62
    6
 10
349.67728378540494
 20
380.31199350591703
 11
355.06132550162584
 21
380.31199350591703
  0
LINE
  8
_0-e_極細4
  6
CONTINUOUS
 62
    6
 10
350.14308746302396
 20
381.06199350591703
 11
355.4613255016273
 21
381.06199350591703
  0
LINE
  8
_0-e_極細4
  6
CONTINUOUS
 62
    6
 10
246.26808746302416
 20
376.56199350591703
 11
250.76808746302575
 21
376.56199350591703
  0
LINE
  8
_0-e_極細4
  6
CONTINUOUS
 62
    6
 10
246.26808746302416
 20
377.31199350591703
 11
251.35889114064483
 21
377.31199350591703
  0
LINE
  8
_0-e_極細4
  6
CONTINUOUS
 62
    6
 10
246.26808746302416
 20
378.0619935059168
 11
250.76808746302575
 21
378.0619935059168
  0
LINE
  8
_0-e_極細4
  6
CONTINUOUS
 62
    6
 10
246.26808746302416
 20
378.81199350591794
 11
250.76808746302575
 21
378.81199350591794
  0
LINE
  8
_0-e_極細4
  6
CONTINUOUS
 62
    6
 10
246.24984942442168
 20
379.56199350591726
 11
250.80228378540326
 21
379.56199350591726
  0
LINE
  8
_0-e_極細4
  6
CONTINUOUS
 62
    6
 10
245.84984942442205
 20
380.31199350591703
 11
251.23389114064508
 21
380.31199350591703
  0
LINE
  8
_0-e_極細4
  6
CONTINUOUS
 62
    6
 10
245.44984942442241
 20
381.06199350591703
 11
250.76808746302575
 21
381.06199350591703
  0
LINE
  8
_0-e_極細4
  6
CENTER2
 62
    6
 10
300.45558746302419
 20
405.33159716555826
 11
300.45558746302419
 21
167.17011674930248
  0
LINE
  8
_0-e_極細4
  6
CONTINUOUS
 62
    6
 10
363.58058746302396
 20
337.84904080177125
 11
363.58058746302396
 21
355.59867093353728
  0
LINE
  8
_0-e_極細4
  6
CONTINUOUS
 62
    6
 10
363.58058746302396
 20
335.38801110198006
 11
363.58058746302396
 21
337.84904080177125
  0
LINE
  8
_0-e_極細4
  6
CONTINUOUS
 62
    6
 10
363.58058746302396
 20
335.38801110198006
 11
363.58058746302396
 21
263.13630878353263
  0
LINE
  8
_0-e_極細4
  6
CONTINUOUS
 62
    6
 10
413.69401506143623
 20
334.75067829291572
 11
384.94401756143532
 21
334.75067829291572
  0
LINE
  8
_0-e_極細4
  6
CONTINUOUS
 62
    6
 10
453.69401631143666
 20
338.50067829291572
 11
384.94401756143532
 21
338.50067829291572
  0
LINE
  8
_0-e_極細4
  6
CONTINUOUS
 62
    6
 10
335.44026756143631
 20
201.0006770429159
 11
336.10974381143643
 21
180.99516204291561
  0
LINE
  8
_0-e_極細4
  6
CONTINUOUS
 62
    6
 10
336.1140750614357
 20
180.9909882929152
 11
338.69367756143754
 21
178.50321204291518
  0
ARC
  8
_0-e_極細4
  6
CONTINUOUS
 62
    6
 10
389.20915881143708
 20
302.67285579291536
 40
3.75
 50
97.104090000022822
 51
178.07877599998852
  0
ARC
  8
_0-e_極細4
  6
CONTINUOUS
 62
    6
 10
399.56295006143671
 20
313.05215079291554
 40
3.75
 50
93.207911999988497
 51
178.07877599998852
  0
LINE
  8
_0-e_極細4
  6
CONTINUOUS
 62
    6
 10
334.98013053460801
 20
214.75067829291575
 11
335.18928381143616
 21
208.5006770429159
  0
LINE
  8
_0-e_極細4
  6
CONTINUOUS
 62
    6
 10
300.45558746302419
 20
214.7506770429159
 11
335.95558746302396
 21
214.7506770429159
  0
LINE
  8
_0-e_極細4
  6
CONTINUOUS
 62
    6
 10
336.10956006143704
 20
181.00067829291575
 11
300.45558746302419
 21
181.00067829291575
  0
LINE
  8
_0-e_極細4
  6
CENTER2
 62
    6
 10
376.24467381143569
 20
313.31818704291561
 11
395.66251131143497
 21
332.73602454291574
  0
ARC
  8
_0-e_極細4
  6
CONTINUOUS
 62
    6
 10
368.69401506143623
 20
331.22030516791551
 40
1.24999875
 50
1.9867301722118242
 51
78.665253000052445
  0
ARC
  8
_0-e_極細4
  6
CONTINUOUS
 62
    6
 10
368.69401506143623
 20
338.28104891791565
 40
1.24999875
 50
281.33474699994719
 51
359.20207238428611
  0
ARC
  8
_0-e_極細4
  6
CONTINUOUS
 62
    6
 10
376.06621881143548
 20
321.0006770429153
 40
3.75
 50
358.07877600000552
 51
4.5382033812329539
  0
LINE
  8
_0-e_極細4
  6
CONTINUOUS
 62
    6
 10
369.94401756143526
 20
338.50067829291572
 11
369.94401756143526
 21
344.75067579291601
  0
LINE
  8
_0-e_極細4
  6
CONTINUOUS
 62
    6
 10
377.44401756143526
 20
331.00067829291572
 11
377.44401756143526
 21
338.50067829291572
  0
LINE
  8
_0-e_極細4
  6
CONTINUOUS
 62
    6
 10
369.94401756143526
 20
324.7506770429153
 11
369.94401756143526
 21
331.00067829291572
  0
LINE
  8
_0-e_極細4
  6
CONTINUOUS
 62
    6
 10
379.80446180236493
 20
321.29739128384369
 11
384.59201114903487
 21
326.08494063051535
  0
ARC
  8
_0-e_極細4
  6
CONTINUOUS
 62
    6
 10
376.06621881143548
 20
321.0006770429153
 40
3.75
 50
4.538203381233318
 51
89.999999999999915
  0
LINE
  8
_0-e_極細4
  6
CONTINUOUS
 62
    6
 10
368.93969256143629
 20
337.05542891791606
 11
363.58058746302396
 21
335.98119189281147
  0
LINE
  8
_0-e_極細4
  6
CONTINUOUS
 62
    6
 10
363.58058746302396
 20
333.52016219302027
 11
368.93969256143629
 21
332.44592516791568
  0
LINE
  8
_0-e_極細4
  6
CONTINUOUS
 62
    6
 10
374.94401506143623
 20
338.26364141791498
 11
369.94389259701512
 21
338.26364141791498
  0
ARC
  8
_0-e_極細4
  6
CONTINUOUS
 62
    6
 10
374.94401506143623
 20
337.01364141791498
 40
1.25
 50
0
 51
89.999999999999915
  0
LINE
  8
_0-e_極細4
  6
CONTINUOUS
 62
    6
 10
376.19401506143623
 20
332.51364016791581
 11
376.19401506143623
 21
337.01364141791498
  0
LINE
  8
_0-e_極細4
  6
CONTINUOUS
 62
    6
 10
374.94401506143623
 20
331.26364016791581
 11
369.9432624159561
 21
331.26364016791581
  0
ARC
  8
_0-e_極細4
  6
CONTINUOUS
 62
    6
 10
374.94401506143623
 20
332.51364016791581
 40
1.25
 50
269.99999999999977
 51
359.99999999999966
  0
LINE
  8
_0-e_極細4
  6
CONTINUOUS
 62
    6
 10
374.34225192557813
 20
331.26364016791581
 11
376.19401506143623
 21
333.11540330377295
  0
LINE
  8
_0-e_極細4
  6
CONTINUOUS
 62
    6
 10
371.6906014961304
 20
331.26364016791581
 11
376.19401506143623
 21
335.76705373322238
  0
LINE
  8
_0-e_極細4
  6
CONTINUOUS
 62
    6
 10
369.71573900840292
 20
331.9404281096389
 11
375.74696019998635
 21
337.97164930122233
  0
LINE
  8
_0-e_極細4
  6
CONTINUOUS
 62
    6
 10
367.79836557121678
 20
332.67470510190276
 11
373.38730188722985
 21
338.26364141791498
  0
LINE
  8
_0-e_極細4
  6
CONTINUOUS
 62
    6
 10
365.58948672366915
 20
333.11747668380474
 11
370.73565145778127
 21
338.26364141791498
  0
LINE
  8
_0-e_極細4
  6
CONTINUOUS
 62
    6
 10
363.58058746302396
 20
333.76022785260898
 11
366.35835917256907
 21
336.53799956215278
  0
LINE
  8
_0-e_極細4
  6
CONTINUOUS
 62
    6
 10
376.19401506143623
 20
336.41187828205898
 11
374.34225192557898
 21
338.26364141791498
  0
LINE
  8
_0-e_極細4
  6
CONTINUOUS
 62
    6
 10
376.19401506143623
 20
333.76022785260841
 11
371.6906014961304
 21
338.26364141791498
  0
LINE
  8
_0-e_極細4
  6
CONTINUOUS
 62
    6
 10
375.74696019998635
 20
331.55563228460846
 11
369.72635844520562
 21
337.57623403939033
  0
LINE
  8
_0-e_極細4
  6
CONTINUOUS
 62
    6
 10
373.38730188722985
 20
331.26364016791581
 11
367.81996237817003
 21
336.83097967697518
  0
LINE
  8
_0-e_極細4
  6
CONTINUOUS
 62
    6
 10
370.73565145778127
 20
331.26364016791581
 11
365.61108422305176
 21
336.38820740264362
  0
LINE
  8
_0-e_極細4
  6
CONTINUOUS
 62
    6
 10
366.39078551408767
 20
332.95685568215799
 11
363.58058746302396
 21
335.76705373322181
  0
ARC
  8
_0-e_極細4
  6
CONTINUOUS
 62
    6
 10
413.96826253737061
 20
332.85676689794298
 40
1.875
 50
98.208986340382083
 51
166.84965594884386
  0
ARC
  8
_0-e_極細4
  6
CONTINUOUS
 62
    6
 10
413.43282190110665
 20
332.85676689794298
 40
1.875
 50
13.201066202178673
 51
81.791013659507897
  0
ARC
  8
_0-e_極細4
  6
CONTINUOUS
 62
    6
 10
389.38602122786676
 20
327.5053034857184
 40
5
 50
186.34018750594427
 51
273.20790904526461
  0
LINE
  8
_0-e_極細4
  6
CONTINUOUS
 62
    6
 10
412.14243171285835
 20
333.28334256562027
 11
410.31680303001474
 21
325.46927960839992
  0
ARC
  8
_0-e_極細4
  6
CONTINUOUS
 62
    6
 10
407.88236193066211
 20
326.03804716530374
 40
2.5
 50
273.20790904527541
 51
346.84965594884238
  0
LINE
  8
_0-e_極細4
  6
CONTINUOUS
 62
    6
 10
415.25827437619853
 20
333.28495874884209
 11
416.94099290794463
 21
326.11125214464676
  0
ARC
  8
_0-e_極細4
  6
CONTINUOUS
 62
    6
 10
419.37492954140168
 20
326.68217461251243
 40
2.5
 50
193.20106620217618
 51
273.20790143445151
  0
LINE
  8
_0-e_極細4
  6
CONTINUOUS
 62
    6
 10
431.34914869026113
 20
318.58956217624223
 11
399.35310006143561
 21
316.79627454291574
  0
LINE
  8
_0-e_極細4
  6
CONTINUOUS
 62
    6
 10
430.04757272623812
 20
324.77642093056556
 11
419.51482753010339
 21
324.18609197110084
  0
LINE
  8
_0-e_極細4
  6
CONTINUOUS
 62
    6
 10
385.46126631143659
 20
302.79857829291655
 11
382.82493376637086
 21
224.20588944951206
  0
ARC
  8
_0-e_極細4
  6
CONTINUOUS
 62
    6
 10
366.58406844219451
 20
224.7506770429159
 40
16.25
 50
269.99999999999977
 51
358.07877661723137
  0
LINE
  8
_0-e_極細4
  6
CONTINUOUS
 62
    6
 10
366.58406772911059
 20
214.75067829291575
 11
301.58055526934004
 21
214.75067829291575
  0
ARC
  8
_0-e_極細4
  6
CONTINUOUS
 62
    6
 10
366.58406772911059
 20
224.75067829291575
 40
10
 50
269.99999999999977
 51
358.07877512360761
  0
LINE
  8
_0-e_極細4
  6
CONTINUOUS
 62
    6
 10
366.58406844219451
 20
208.5006770429159
 11
358.1894980662417
 21
208.5006770429159
  0
ARC
  8
_0-e_極細4
  6
CONTINUOUS
 62
    6
 10
358.1894980662417
 20
202.2506770429159
 40
6.25
 50
89.999999999999915
 51
175.20495867936191
  0
LINE
  8
_0-e_極細4
  6
CONTINUOUS
 62
    6
 10
351.96137245724168
 20
202.77312455081656
 11
350.11745629020049
 21
180.79169803975518
  0
ARC
  8
_0-e_極細4
  6
CONTINUOUS
 62
    6
 10
347.62620604659952
 20
181.0006770429159
 40
2.5
 50
269.99999999999977
 51
355.2049586793529
  0
LINE
  8
_0-e_極細4
  6
CONTINUOUS
 62
    6
 10
347.62620604659952
 20
178.5006770429159
 11
338.69461881143599
 21
178.5006770429159
  0
LINE
  8
_0-e_極細4
  6
CONTINUOUS
 62
    6
 10
337.93825884708787
 20
201.1025376518576
 11
338.69461881143599
 21
178.5006770429159
  0
LINE
  8
_0-e_極細4
  6
CONTINUOUS
 62
    6
 10
338.69461881143599
 20
178.5006770429159
 11
300.45558746302419
 21
178.5006770429159
  0
LINE
  8
_0-e_極細4
  6
CONTINUOUS
 62
    6
 10
337.44401506143623
 20
201.0006770429159
 11
300.45558746302419
 21
201.0006770429159
  0
ARC
  8
_0-e_極細4
  6
CONTINUOUS
 62
    6
 10
337.44401506143623
 20
202.2506770429159
 40
1.25
 50
269.99999999999977
 51
359.99999999999966
  0
LINE
  8
_0-e_極細4
  6
CONTINUOUS
 62
    6
 10
338.69401506143623
 20
202.2506770429159
 11
338.69401506143623
 21
207.2506770429159
  0
LINE
  8
_0-e_極細4
  6
CONTINUOUS
 62
    6
 10
337.44401506143623
 20
208.5006770429159
 11
300.45558746302419
 21
208.5006770429159
  0
ARC
  8
_0-e_極細4
  6
CONTINUOUS
 62
    6
 10
337.44401506143623
 20
207.2506770429159
 40
1.25
 50
0
 51
89.999999999999915
  0
LINE
  8
_0-e_極細4
  6
CONTINUOUS
 62
    6
 10
379.81411131143597
 20
320.87495829291481
 11
379.52232524447646
 21
312.17642222595612
  0
LINE
  8
_0-e_極細4
  6
CONTINUOUS
 62
    6
 10
379.52232524447646
 20
312.17642222595612
 11
376.57844638140512
 21
224.41542412874256
  0
LINE
  8
_0-e_極細4
  6
CONTINUOUS
 62
    6
 10
379.52232524447646
 20
312.17642222595612
 11
389.8705138873118
 21
322.52461086879077
  0
LINE
  8
_0-e_極細4
  6
CONTINUOUS
 62
    6
 10
408.0222602509283
 20
323.5419645424754
 11
389.8705138873118
 21
322.52461086879077
  0
LINE
  8
_0-e_極細4
  6
CONTINUOUS
 62
    6
 10
389.66581786839816
 20
322.51313824006115
 11
389.8705138873118
 21
322.52461086879077
  0
LINE
  8
_0-e_極細4
  6
CONTINUOUS
 62
    6
 10
392.43943169539386
 20
306.85445459076914
 11
388.74538881143587
 21
306.39406704291628
  0
LINE
  8
_0-e_極細4
  6
CONTINUOUS
 62
    6
 10
395.81505756143622
 20
313.17786954291546
 11
395.72355008550028
 21
310.44994401028032
  0
ARC
  8
_0-e_極細4
  6
CONTINUOUS
 62
    6
 10
391.97565814602405
 20
310.57566596542881
 40
3.75
 50
277.10412657672202
 51
358.07874999737578
  0
LINE
  8
_0-e_極細4
  6
CONTINUOUS
 62
    6
 10
348.79557056809227
 20
178.79101946404219
 11
349.83586362547322
 21
179.83131252142257
  0
LINE
  8
_0-e_極細4
  6
CONTINUOUS
 62
    6
 10
345.8535777175174
 20
178.5006770429159
 11
350.29810344653816
 21
182.9452027719374
  0
LINE
  8
_0-e_極細4
  6
CONTINUOUS
 62
    6
 10
343.20192728806597
 20
178.5006770429159
 11
350.54090511430496
 21
185.83965486915375
  0
LINE
  8
_0-e_極細4
  6
CONTINUOUS
 62
    6
 10
376.87935483445182
 20
212.17810458930117
 11
379.15664089580952
 21
214.4553906506583
  0
LINE
  8
_0-e_極細4
  6
CONTINUOUS
 62
    6
 10
340.55027685861739
 20
178.5006770429159
 11
350.78370678207273
 21
188.73410696637066
  0
LINE
  8
_0-e_極細4
  6
CONTINUOUS
 62
    6
 10
371.22797286306815
 20
209.17837304736693
 11
382.15637243774461
 21
220.10677262204197
  0
LINE
  8
_0-e_極細4
  6
CONTINUOUS
 62
    6
 10
338.66884386989193
 20
179.27089448363873
 11
351.02650844983947
 21
191.62855906358701
  0
LINE
  8
_0-e_極細4
  6
CONTINUOUS
 62
    6
 10
367.95670333622803
 20
208.55875394997568
 11
382.7759915351333
 21
223.37804214888266
  0
LINE
  8
_0-e_極細4
  6
CONTINUOUS
 62
    6
 10
338.58298106976855
 20
181.83668211296677
 11
351.26931011760627
 21
194.52301116080392
  0
LINE
  8
_0-e_極細4
  6
CONTINUOUS
 62
    6
 10
365.24697599971825
 20
208.5006770429159
 11
382.88993398204803
 21
226.14363502524512
  0
LINE
  8
_0-e_極細4
  6
CONTINUOUS
 62
    6
 10
338.49711826964801
 20
184.40246974229481
 11
351.51211178537403
 21
197.41746325802083
  0
LINE
  8
_0-e_極細4
  6
CONTINUOUS
 62
    6
 10
362.59532557026967
 20
208.5006770429159
 11
369.1911505707447
 21
215.09650204339223
  0
LINE
  8
_0-e_極細4
  6
CONTINUOUS
 62
    6
 10
376.2382439786341
 20
222.14359545128175
 11
382.9819688381948
 21
228.88732031084103
  0
LINE
  8
_0-e_極細4
  6
CONTINUOUS
 62
    6
 10
338.41125546952645
 20
186.96825737162285
 11
351.75491345314077
 21
200.31191535523718
  0
LINE
  8
_0-e_極細4
  6
CONTINUOUS
 62
    6
 10
359.94367514081824
 20
208.5006770429159
 11
366.19367639081867
 21
214.75067829291518
  0
LINE
  8
_0-e_極細4
  6
CONTINUOUS
 62
    6
 10
376.60343737271967
 20
225.16043927481533
 11
383.07400369433873
 21
231.63100559643638
  0
LINE
  8
_0-e_極細4
  6
CONTINUOUS
 62
    6
 10
338.3253926694041
 20
189.53404500095033
 11
352.0158275126567
 21
203.22447984420378
  0
LINE
  8
_0-e_極細4
  6
CONTINUOUS
 62
    6
 10
357.21569526495466
 20
208.42434759650089
 11
363.54202596137009
 21
214.75067829291518
  0
LINE
  8
_0-e_極細4
  6
CONTINUOUS
 62
    6
 10
376.69547230295473
 20
227.90412463450039
 11
383.1660385504855
 21
234.37469088203173
  0
LINE
  8
_0-e_極細4
  6
CONTINUOUS
 62
    6
 10
338.23952986928253
 20
192.09983263027837
 11
360.89037553191866
 21
214.75067829291518
  0
LINE
  8
_0-e_極細4
  6
CONTINUOUS
 62
    6
 10
376.78750723318979
 20
230.64780999418602
 11
383.25807340663124
 21
237.11837616762764
  0
LINE
  8
_0-e_極細4
  6
CONTINUOUS
 62
    6
 10
338.15366706916018
 20
194.66562025960584
 11
358.23872510247008
 21
214.75067829291518
  0
LINE
  8
_0-e_極細4
  6
CONTINUOUS
 62
    6
 10
376.8795421634257
 20
233.39149535387108
 11
383.35010826277704
 21
239.86206145322299
  0
LINE
  8
_0-e_極細4
  6
CONTINUOUS
 62
    6
 10
338.06780426903862
 20
197.23140788893389
 11
355.58707467302048
 21
214.75067829291518
  0
LINE
  8
_0-e_極細4
  6
CONTINUOUS
 62
    6
 10
376.97157709366076
 20
236.13518071355728
 11
383.44214311892381
 21
242.60574673881834
  0
LINE
  8
_0-e_極細4
  6
CONTINUOUS
 62
    6
 10
337.98194146891711
 20
199.79719551826193
 11
352.93542424357094
 21
214.75067829291518
  0
LINE
  8
_0-e_極細4
  6
CONTINUOUS
 62
    6
 10
377.06361202389763
 20
238.87886607324177
 11
383.53417797506955
 21
245.34943202441369
  0
LINE
  8
_0-e_極細4
  6
CONTINUOUS
 62
    6
 10
338.69401506143623
 20
203.1609195402298
 11
350.28377381412236
 21
214.75067829291575
  0
LINE
  8
_0-e_極細4
  6
CONTINUOUS
 62
    6
 10
377.15564695413269
 20
241.62255143292739
 11
383.62621283121535
 21
248.0931173100096
  0
LINE
  8
_0-e_極細4
  6
CONTINUOUS
 62
    6
 10
338.69401506143623
 20
205.8125699696798
 11
347.63212338467093
 21
214.75067829291575
  0
LINE
  8
_0-e_極細4
  6
CONTINUOUS
 62
    6
 10
377.24768188436963
 20
244.36623679261245
 11
383.71824768736212
 21
250.83680259560552
  0
LINE
  8
_0-e_極細4
  6
CONTINUOUS
 62
    6
 10
461.38212213467233
 20
328.5006770429153
 11
463.23305672121649
 21
330.35161162946065
  0
LINE
  8
_0-e_極細4
  6
CONTINUOUS
 62
    6
 10
338.34593887855482
 20
208.11614421624725
 11
344.98047295522235
 21
214.75067829291575
  0
LINE
  8
_0-e_極細4
  6
CONTINUOUS
 62
    6
 10
377.33971681460469
 20
247.10992215229808
 11
383.81028254350787
 21
253.58048788120087
  0
LINE
  8
_0-e_極細4
  6
CONTINUOUS
 62
    6
 10
458.73047170522284
 20
328.5006770429153
 11
462.70435330506081
 21
332.47455864275378
  0
LINE
  8
_0-e_極細4
  6
CONTINUOUS
 62
    6
 10
336.0788212757742
 20
208.5006770429159
 11
342.32882252577275
 21
214.75067829291575
  0
LINE
  8
_0-e_極細4
  6
CONTINUOUS
 62
    6
 10
377.4317517448406
 20
249.85360751198314
 11
383.90231739965367
 21
256.32417316679619
  0
LINE
  8
_0-e_極細4
  6
CONTINUOUS
 62
    6
 10
456.0788212757742
 20
328.5006770429153
 11
462.17564988890524
 21
334.59750565604634
  0
LINE
  8
_0-e_極細4
  6
CONTINUOUS
 62
    6
 10
335.1322249968087
 20
210.20573119340114
 11
339.6771720963232
 21
214.75067829291575
  0
LINE
  8
_0-e_極細4
  6
CONTINUOUS
 62
    6
 10
377.52378667507566
 20
252.59729287166877
 11
383.99435225580044
 21
259.0678584523921
  0
LINE
  8
_0-e_極細4
  6
CONTINUOUS
 62
    6
 10
453.42717084632284
 20
328.5006770429153
 11
461.6469464727478
 21
336.7204526693406
  0
LINE
  8
_0-e_極細4
  6
CONTINUOUS
 62
    6
 10
335.04636215299234
 20
212.77151877903478
 11
337.02552166687462
 21
214.75067829291575
  0
LINE
  8
_0-e_極細4
  6
CONTINUOUS
 62
    6
 10
377.61582160531253
 20
255.34097823135497
 11
384.08638711194618
 21
261.81154373798745
  0
LINE
  8
_0-e_極細4
  6
CONTINUOUS
 62
    6
 10
450.7755204168742
 20
328.5006770429153
 11
460.77552166687462
 21
338.50067829291572
  0
LINE
  8
_0-e_極細4
  6
CONTINUOUS
 62
    6
 10
377.70785653554759
 20
258.08466359103943
 11
384.17842196809113
 21
264.55522902358393
  0
LINE
  8
_0-e_極細4
  6
CONTINUOUS
 62
    6
 10
447.3284847087524
 20
327.70529176424429
 11
458.12387123742326
 21
338.50067829291572
  0
LINE
  8
_0-e_極細4
  6
CONTINUOUS
 62
    6
 10
377.79989146578453
 20
260.82834895072506
 11
384.27045682423875
 21
267.29891430917928
  0
LINE
  8
_0-e_極細4
  6
CONTINUOUS
 62
    6
 10
441.15511016508287
 20
324.18356765002397
 11
452.34453901432596
 21
335.37299649926706
  0
LINE
  8
_0-e_極細4
  6
CONTINUOUS
 62
    6
 10
453.69401631143666
 20
336.72247379637736
 11
455.47222080797462
 21
338.50067829291572
  0
LINE
  8
_0-e_極細4
  6
CONTINUOUS
 62
    6
 10
377.89192639601958
 20
263.57203431041012
 11
384.36249168038273
 21
270.04259959477463
  0
LINE
  8
_0-e_極細4
  6
CONTINUOUS
 62
    6
 10
434.98173562141426
 20
320.66184353580422
 11
447.29139492271395
 21
332.97150283710391
  0
LINE
  8
_0-e_極細4
  6
CONTINUOUS
 62
    6
 10
377.98396132625464
 20
266.31571967009518
 11
384.45452653652944
 21
272.78628488036998
  0
LINE
  8
_0-e_極細4
  6
CONTINUOUS
 62
    6
 10
430.19300528011706
 20
318.52476362395589
 11
442.23825083110006
 21
330.5700091749402
  0
LINE
  8
_0-e_極細4
  6
CONTINUOUS
 62
    6
 10
378.07599625649055
 20
269.05940502978081
 11
384.54656139267519
 21
275.52997016596532
  0
LINE
  8
_0-e_極細4
  6
CONTINUOUS
 62
    6
 10
427.38391322462201
 20
318.3673219979114
 11
437.18510673948629
 21
328.16851551277648
  0
LINE
  8
_0-e_極細4
  6
CONTINUOUS
 62
    6
 10
378.16803118672561
 20
271.80309038946586
 11
384.63859624882105
 21
278.27365545156067
  0
LINE
  8
_0-e_極細4
  6
CONTINUOUS
 62
    6
 10
424.57482116912786
 20
318.20988037186748
 11
432.13196264787427
 21
325.7670218506139
  0
LINE
  8
_0-e_極細4
  6
CONTINUOUS
 62
    6
 10
378.26006611696249
 20
274.54677574915149
 11
384.73063110496776
 21
281.01734073715659
  0
LINE
  8
_0-e_極細4
  6
CONTINUOUS
 62
    6
 10
421.7657291136328
 20
318.05243874582186
 11
428.39721359019302
 21
324.68392322238185
  0
LINE
  8
_0-e_極細4
  6
CONTINUOUS
 62
    6
 10
378.35210104719943
 20
277.29046110883655
 11
384.8226659611135
 21
283.76102602275193
  0
LINE
  8
_0-e_極細4
  6
CONTINUOUS
 62
    6
 10
418.95663705813774
 20
317.89499711977737
 11
425.58812195112012
 21
324.52648201275804
  0
LINE
  8
_0-e_極細4
  6
CONTINUOUS
 62
    6
 10
378.44413597743448
 20
280.03414646852275
 11
384.91470081725936
 21
286.50471130834728
  0
LINE
  8
_0-e_極細4
  6
CONTINUOUS
 62
    6
 10
416.14754500264445
 20
317.73755549373288
 11
422.7790303120463
 21
324.36904080313479
  0
LINE
  8
_0-e_極細4
  6
CONTINUOUS
 62
    6
 10
378.53617090766954
 20
282.77783182820724
 11
385.00673567340607
 21
289.24839659394263
  0
LINE
  8
_0-e_極細4
  6
CONTINUOUS
 62
    6
 10
413.33845294715127
 20
317.58011386768783
 11
419.96993867297425
 21
324.21159959351212
  0
LINE
  8
_0-e_極細4
  6
CONTINUOUS
 62
    6
 10
378.62820583790545
 20
285.52151718789287
 11
385.09877052955181
 21
291.99208187953855
  0
LINE
  8
_0-e_極細4
  6
CONTINUOUS
 62
    6
 10
410.52936089165621
 20
317.42267224164277
 11
417.82628690135505
 21
324.71959825134161
  0
LINE
  8
_0-e_極細4
  6
CONTINUOUS
 62
    6
 10
378.72024076814051
 20
288.2652025475785
 11
385.19080538569767
 21
294.73576716513446
  0
LINE
  8
_0-e_極細4
  6
CONTINUOUS
 62
    6
 10
407.72026883616206
 20
317.26523061559828
 11
416.86979951976889
 21
326.41476129920545
  0
LINE
  8
_0-e_極細4
  6
CONTINUOUS
 62
    6
 10
378.81227569837739
 20
291.00888790726356
 11
385.28284024184438
 21
297.47945245072981
  0
LINE
  8
_0-e_極細4
  6
CONTINUOUS
 62
    6
 10
404.91117678066701
 20
317.10778898955436
 11
416.36598661006138
 21
328.56259881894755
  0
LINE
  8
_0-e_極細4
  6
CONTINUOUS
 62
    6
 10
378.90431062861433
 20
293.75257326694862
 11
385.37487509798837
 21
300.22313773632516
  0
LINE
  8
_0-e_極細4
  6
CONTINUOUS
 62
    6
 10
391.94451008422755
 20
306.7927727225624
 11
395.72778002860184
 21
310.57604266693784
  0
LINE
  8
_0-e_極細4
  6
CONTINUOUS
 62
    6
 10
402.10208472517195
 20
316.95034736350874
 11
408.91138215127177
 21
323.75964478960736
  0
LINE
  8
_0-e_極細4
  6
CONTINUOUS
 62
    6
 10
410.16076430635968
 20
325.00902694469528
 11
415.86217370035399
 21
330.71043633868965
  0
LINE
  8
_0-e_極細4
  6
CONTINUOUS
 62
    6
 10
378.99634555884938
 20
296.49625862663424
 11
385.47102462715509
 21
302.97093769494109
  0
LINE
  8
_0-e_極細4
  6
CONTINUOUS
 62
    6
 10
388.91533484322628
 20
306.41524791101187
 11
395.82271734469111
 21
313.32263041247711
  0
LINE
  8
_0-e_極細4
  6
CONTINUOUS
 62
    6
 10
399.29247044187457
 20
316.79238350966
 11
405.92447668172179
 21
323.42438974950608
  0
LINE
  8
_0-e_極細4
  6
CONTINUOUS
 62
    6
 10
411.03244040530342
 20
328.53235347308851
 11
415.35836079064745
 21
332.85827385843174
  0
LINE
  8
_0-e_極細4
  6
CONTINUOUS
 62
    6
 10
379.08838048908444
 20
299.23994398632044
 11
403.11538464610828
 21
323.26694814334428
  0
LINE
  8
_0-e_極細4
  6
CONTINUOUS
 62
    6
 10
411.84082016853955
 20
331.99238366577401
 11
414.34394611170853
 21
334.49550960894283
  0
LINE
  8
_0-e_極細4
  6
CONTINUOUS
 62
    6
 10
379.18041541932035
 20
301.98362934600493
 11
400.30629261049569
 21
323.10950653718078
  0
LINE
  8
_0-e_極細4
  6
CONTINUOUS
 62
    6
 10
379.27245034955541
 20
304.72731470569056
 11
397.49720057488395
 21
322.95206493101784
  0
LINE
  8
_0-e_極細4
  6
CONTINUOUS
 62
    6
 10
379.36448527979229
 20
307.47100006537562
 11
394.68810853927232
 21
322.79462332485605
  0
LINE
  8
_0-e_極細4
  6
CONTINUOUS
 62
    6
 10
379.45652021002735
 20
310.21468542506068
 11
391.87901650365882
 21
322.63718171869255
  0
LINE
  8
_0-e_極細4
  6
CONTINUOUS
 62
    6
 10
382.56265166524992
 20
343.63871510857348
 11
384.41660251363908
 21
326.95314622308797
  0
ARC
  8
_0-e_極細4
  6
CONTINUOUS
 62
    6
 10
381.32029698669322
 20
343.50067579291601
 40
1.25
 50
6.3401875059393173
 51
89.999999999999915
  0
LINE
  8
_0-e_極細4
  6
CONTINUOUS
 62
    6
 10
379.6397464244472
 20
322.13751493770997
 11
384.42059105174565
 21
326.91835956500779
  0
LINE
  8
_0-e_極細4
  6
CONTINUOUS
 62
    6
 10
378.60820971876075
 20
323.75762866147409
 11
384.15531514886504
 21
329.30473409157753
  0
LINE
  8
_0-e_極細4
  6
CONTINUOUS
 62
    6
 10
376.86380659175649
 20
324.66487596391869
 11
383.8901502668258
 21
331.69121963898658
  0
LINE
  8
_0-e_極細4
  6
CONTINUOUS
 62
    6
 10
374.29795724130491
 20
324.7506770429153
 11
383.62498538478656
 21
334.07770518639677
  0
LINE
  8
_0-e_極細4
  6
CONTINUOUS
 62
    6
 10
371.64630681185537
 20
324.7506770429153
 11
383.35982050274544
 21
336.46419073380582
  0
LINE
  8
_0-e_極細4
  6
CONTINUOUS
 62
    6
 10
369.94401756143526
 20
325.7000382219469
 11
375.24465763240534
 21
331.00067829291572
  0
LINE
  8
_0-e_極細4
  6
CONTINUOUS
 62
    6
 10
377.44401756143526
 20
333.2000382219469
 11
383.09465562070619
 21
338.85067628121601
  0
LINE
  8
_0-e_極細4
  6
CONTINUOUS
 62
    6
 10
369.94401756143526
 20
328.35168865139633
 11
372.59300720295579
 21
331.00067829291572
  0
LINE
  8
_0-e_極細4
  6
CONTINUOUS
 62
    6
 10
377.44401756143526
 20
335.85168865139633
 11
382.82949073866513
 21
341.23716182862563
  0
LINE
  8
_0-e_極細4
  6
CONTINUOUS
 62
    6
 10
377.44135677350721
 20
338.50067829291572
 11
382.56432585662589
 21
343.62364737603582
  0
LINE
  8
_0-e_極細4
  6
CONTINUOUS
 62
    6
 10
374.78970634405579
 20
338.50067829291572
 11
381.03970384405676
 21
344.75067579291601
  0
LINE
  8
_0-e_極細4
  6
CONTINUOUS
 62
    6
 10
372.13805591460721
 20
338.50067829291572
 11
378.38805341460721
 21
344.75067579291601
  0
LINE
  8
_0-e_極細4
  6
CONTINUOUS
 62
    6
 10
369.94401756143526
 20
338.95829036919463
 11
375.73640298515863
 21
344.75067579291601
  0
LINE
  8
_0-e_極細4
  6
CONTINUOUS
 62
    6
 10
369.94401756143526
 20
341.60994079864406
 11
373.08475255570721
 21
344.75067579291601
  0
LINE
  8
_0-e_極細4
  6
CONTINUOUS
 62
    6
 10
369.94401756143526
 20
344.26159122809349
 11
370.43310212625863
 21
344.75067579291601
  0
LINE
  8
_0-e_極細4
  6
CONTINUOUS
 62
    6
 10
381.32029698669322
 20
344.75067579291601
 11
363.58058746302396
 21
344.75067579291601
  0
LINE
  8
_0-e_極細4
  6
CONTINUOUS
 62
    6
 10
377.44401756143526
 20
338.50067829291572
 11
363.58058746302396
 21
338.50067829291572
  0
LINE
  8
_0-e_極細4
  6
CONTINUOUS
 62
    6
 10
377.44401756143526
 20
331.00067829291572
 11
363.58058746302396
 21
331.00067829291572
  0
LINE
  8
_0-e_極細4
  6
CONTINUOUS
 62
    6
 10
376.06621881143548
 20
324.7506770429153
 11
363.58058746302396
 21
324.7506770429153
  0
LINE
  8
_0-e_極細4
  6
CONTINUOUS
 62
    6
 10
187.21715986461348
 20
334.75067829291572
 11
215.96715736461263
 21
334.75067829291572
  0
LINE
  8
_0-e_極細4
  6
CONTINUOUS
 62
    6
 10
147.21715861461306
 20
338.50067829291572
 11
215.96715736461263
 21
338.50067829291572
  0
LINE
  8
_0-e_極細4
  6
CONTINUOUS
 62
    6
 10
265.47090736461155
 20
201.0006770429159
 11
264.80143111461143
 21
180.99516204291561
  0
LINE
  8
_0-e_極細4
  6
CONTINUOUS
 62
    6
 10
264.79709986461245
 20
180.9909882929152
 11
262.21749736461248
 21
178.50321204291518
  0
ARC
  8
_0-e_極細4
  6
CONTINUOUS
 62
    6
 10
211.70201611461295
 20
302.67285579291536
 40
3.75
 50
1.9212240000116134
 51
82.895910000021985
  0
ARC
  8
_0-e_極細4
  6
CONTINUOUS
 62
    6
 10
201.34822486461331
 20
313.05215079291554
 40
3.75
 50
1.9212240000116134
 51
86.792088000011518
  0
LINE
  8
_0-e_極細4
  6
CONTINUOUS
 62
    6
 10
265.93104439144167
 20
214.75067829291575
 11
265.72189111461353
 21
208.5006770429159
  0
LINE
  8
_0-e_極細4
  6
CONTINUOUS
 62
    6
 10
264.80161486461299
 20
181.00067829291575
 11
300.45558746302419
 21
181.00067829291575
  0
LINE
  8
_0-e_極細4
  6
CENTER2
 62
    6
 10
224.6665011146122
 20
313.31818704291561
 11
205.24866361461207
 21
332.73602454291574
  0
ARC
  8
_0-e_極細4
  6
CONTINUOUS
 62
    6
 10
232.21715986461348
 20
331.22030516791551
 40
1.24999875
 50
101.33474700002931
 51
178.01326982779108
  0
ARC
  8
_0-e_極細4
  6
CONTINUOUS
 62
    6
 10
232.21715986461348
 20
338.28104891791565
 40
1.24999875
 50
180.79792761571215
 51
258.66525299997033
  0
ARC
  8
_0-e_極細4
  6
CONTINUOUS
 62
    6
 10
224.84495611461242
 20
321.0006770429153
 40
3.75
 50
175.46179661876641
 51
181.92122399999388
  0
LINE
  8
_0-e_極細4
  6
CONTINUOUS
 62
    6
 10
230.96715736461263
 20
338.50067829291572
 11
230.96715736461263
 21
344.75067579291601
  0
LINE
  8
_0-e_極細4
  6
CONTINUOUS
 62
    6
 10
223.46715736461263
 20
331.00067829291572
 11
223.46715736461263
 21
338.50067829291572
  0
LINE
  8
_0-e_極細4
  6
CONTINUOUS
 62
    6
 10
230.96715736461263
 20
324.7506770429153
 11
230.96715736461263
 21
331.00067829291572
  0
LINE
  8
_0-e_極細4
  6
CONTINUOUS
 62
    6
 10
221.1067131236851
 20
321.29739128384369
 11
216.3191637770133
 21
326.08494063051535
  0
ARC
  8
_0-e_極細4
  6
CONTINUOUS
 62
    6
 10
224.84495611461242
 20
321.0006770429153
 40
3.75
 50
89.999999999999915
 51
175.46179661876641
  0
LINE
  8
_0-e_極細4
  6
CONTINUOUS
 62
    6
 10
231.9714823646116
 20
337.05542891791606
 11
237.33058746302419
 21
335.98119189281147
  0
LINE
  8
_0-e_極細4
  6
CONTINUOUS
 62
    6
 10
237.33058746302419
 20
333.52016219302027
 11
231.9714823646116
 21
332.44592516791568
  0
LINE
  8
_0-e_極細4
  6
CONTINUOUS
 62
    6
 10
225.96715986461348
 20
338.26364141791498
 11
230.96728232903303
 21
338.26364141791498
  0
ARC
  8
_0-e_極細4
  6
CONTINUOUS
 62
    6
 10
225.96715986461348
 20
337.01364141791498
 40
1.25
 50
89.999999999999915
 51
179.99999999999983
  0
LINE
  8
_0-e_極細4
  6
CONTINUOUS
 62
    6
 10
224.71715986461348
 20
332.51364016791581
 11
224.71715986461348
 21
337.01364141791498
  0
LINE
  8
_0-e_極細4
  6
CONTINUOUS
 62
    6
 10
225.96715986461348
 20
331.26364016791581
 11
230.96791251009179
 21
331.26364016791581
  0
ARC
  8
_0-e_極細4
  6
CONTINUOUS
 62
    6
 10
225.96715986461348
 20
332.51364016791581
 40
1.25
 50
179.99999999999983
 51
269.99999999999977
  0
LINE
  8
_0-e_極細4
  6
CONTINUOUS
 62
    6
 10
226.56892300046891
 20
331.26364016791581
 11
224.71715986461348
 21
333.11540330377295
  0
LINE
  8
_0-e_極細4
  6
CONTINUOUS
 62
    6
 10
229.22057342991963
 20
331.26364016791581
 11
224.71715986461348
 21
335.76705373322238
  0
LINE
  8
_0-e_極細4
  6
CONTINUOUS
 62
    6
 10
231.19543591764526
 20
331.9404281096389
 11
225.16421472606183
 21
337.97164930122233
  0
LINE
  8
_0-e_極細4
  6
CONTINUOUS
 62
    6
 10
233.1128093548314
 20
332.67470510190276
 11
227.52387303881804
 21
338.26364141791498
  0
LINE
  8
_0-e_極細4
  6
CONTINUOUS
 62
    6
 10
235.32168820237899
 20
333.11747668380474
 11
230.17552346826875
 21
338.26364141791498
  0
LINE
  8
_0-e_極細4
  6
CONTINUOUS
 62
    6
 10
237.33058746302419
 20
333.76022785260898
 11
234.55281575347911
 21
336.53799956215278
  0
LINE
  8
_0-e_極細4
  6
CONTINUOUS
 62
    6
 10
224.71715986461348
 20
336.41187828205898
 11
226.56892300046891
 21
338.26364141791498
  0
LINE
  8
_0-e_極細4
  6
CONTINUOUS
 62
    6
 10
224.71715986461348
 20
333.76022785260841
 11
229.22057342991963
 21
338.26364141791498
  0
LINE
  8
_0-e_極細4
  6
CONTINUOUS
 62
    6
 10
225.16421472606183
 20
331.55563228460846
 11
231.18481648084256
 21
337.57623403939033
  0
LINE
  8
_0-e_極細4
  6
CONTINUOUS
 62
    6
 10
227.52387303881804
 20
331.26364016791581
 11
233.09121254787811
 21
336.83097967697518
  0
LINE
  8
_0-e_極細4
  6
CONTINUOUS
 62
    6
 10
230.17552346826875
 20
331.26364016791581
 11
235.30009070299528
 21
336.38820740264362
  0
LINE
  8
_0-e_極細4
  6
CONTINUOUS
 62
    6
 10
234.52038941196022
 20
332.95685568215799
 11
237.33058746302419
 21
335.76705373322181
  0
ARC
  8
_0-e_極細4
  6
CONTINUOUS
 62
    6
 10
186.94291238867734
 20
332.85676689794298
 40
1.875
 50
13.150344051143488
 51
81.791013659556043
  0
ARC
  8
_0-e_極細4
  6
CONTINUOUS
 62
    6
 10
187.47835302494153
 20
332.85676689794298
 40
1.875
 50
98.208986340437093
 51
166.79893379782291
  0
ARC
  8
_0-e_極細4
  6
CONTINUOUS
 62
    6
 10
211.52515369818119
 20
327.5053034857184
 40
5
 50
266.79209095473726
 51
353.6598124940553
  0
LINE
  8
_0-e_極細4
  6
CONTINUOUS
 62
    6
 10
188.76874321319136
 20
333.28334256562027
 11
190.59437189603344
 21
325.46927960839992
  0
ARC
  8
_0-e_極細4
  6
CONTINUOUS
 62
    6
 10
193.02881299538583
 20
326.03804716530374
 40
2.5
 50
193.15034405115807
 51
266.79209095472902
  0
LINE
  8
_0-e_極細4
  6
CONTINUOUS
 62
    6
 10
185.65290054984942
 20
333.28495874884209
 11
183.97018201810354
 21
326.11125214464676
  0
ARC
  8
_0-e_極細4
  6
CONTINUOUS
 62
    6
 10
181.53624538464626
 20
326.68217461251243
 40
2.5
 50
266.79209856554775
 51
346.79893379782425
  0
LINE
  8
_0-e_極細4
  6
CONTINUOUS
 62
    6
 10
152.18842676209263
 20
328.5006770429153
 11
169.56202623578704
 21
318.58956217624223
  0
LINE
  8
_0-e_極細4
  6
CONTINUOUS
 62
    6
 10
169.56202623578704
 20
318.58956217624223
 11
201.55807486461256
 21
316.79627454291574
  0
LINE
  8
_0-e_極細4
  6
CONTINUOUS
 62
    6
 10
137.21715736461263
 20
328.5006770429153
 11
152.18842676209263
 21
328.5006770429153
  0
LINE
  8
_0-e_極細4
  6
CONTINUOUS
 62
    6
 10
137.21715736461263
 20
328.5006770429153
 11
139.70757977710676
 21
338.50067829291572
  0
LINE
  8
_0-e_極細4
  6
CONTINUOUS
 62
    6
 10
139.70757977710676
 20
338.50067829291572
 11
147.21715861461306
 21
338.50067829291572
  0
LINE
  8
_0-e_極細4
  6
CONTINUOUS
 62
    6
 10
147.21715861461306
 20
336.01433209498578
 11
147.21715861461306
 21
338.50067829291572
  0
LINE
  8
_0-e_極細4
  6
CONTINUOUS
 62
    6
 10
147.21715861461306
 20
336.01433209498578
 11
170.86360219981003
 21
324.77642093056556
  0
LINE
  8
_0-e_極細4
  6
CONTINUOUS
 62
    6
 10
170.86360219981003
 20
324.77642093056556
 11
181.39634739594456
 21
324.18609197110084
  0
LINE
  8
_0-e_極細4
  6
CONTINUOUS
 62
    6
 10
215.44990861461159
 20
302.79857829291655
 11
218.08624115967703
 21
224.20588944951206
  0
ARC
  8
_0-e_極細4
  6
CONTINUOUS
 62
    6
 10
234.32710648385367
 20
224.7506770429159
 40
16.25
 50
181.92122338276789
 51
269.99999999999977
  0
LINE
  8
_0-e_極細4
  6
CONTINUOUS
 62
    6
 10
234.32710719693731
 20
214.75067829291575
 11
299.330619656708
 21
214.75067829291575
  0
ARC
  8
_0-e_極細4
  6
CONTINUOUS
 62
    6
 10
234.32710719693731
 20
224.75067829291575
 40
10
 50
181.92122487639205
 51
269.99999999999977
  0
LINE
  8
_0-e_極細4
  6
CONTINUOUS
 62
    6
 10
234.32710648385367
 20
208.5006770429159
 11
242.72167685980619
 21
208.5006770429159
  0
ARC
  8
_0-e_極細4
  6
CONTINUOUS
 62
    6
 10
242.72167685980619
 20
202.2506770429159
 40
6.25
 50
4.7950413206381022
 51
89.999999999999915
  0
LINE
  8
_0-e_極細4
  6
CONTINUOUS
 62
    6
 10
248.94980246880621
 20
202.77312455081656
 11
250.79371863584768
 21
180.79169803975518
  0
ARC
  8
_0-e_極細4
  6
CONTINUOUS
 62
    6
 10
253.28496887944837
 20
181.0006770429159
 40
2.5
 50
184.79504132064682
 51
269.99999999999977
  0
LINE
  8
_0-e_極細4
  6
CONTINUOUS
 62
    6
 10
253.28496887944837
 20
178.5006770429159
 11
262.21655611461216
 21
178.5006770429159
  0
LINE
  8
_0-e_極細4
  6
CONTINUOUS
 62
    6
 10
262.97291607896182
 20
201.1025376518576
 11
262.21655611461216
 21
178.5006770429159
  0
LINE
  8
_0-e_極細4
  6
CONTINUOUS
 62
    6
 10
262.21655611461216
 20
178.5006770429159
 11
300.45558746302419
 21
178.5006770429159
  0
LINE
  8
_0-e_極細4
  6
CONTINUOUS
 62
    6
 10
263.46715986461345
 20
201.0006770429159
 11
300.45558746302419
 21
201.0006770429159
  0
ARC
  8
_0-e_極細4
  6
CONTINUOUS
 62
    6
 10
263.46715986461345
 20
202.2506770429159
 40
1.25
 50
179.99999999999983
 51
269.99999999999977
  0
LINE
  8
_0-e_極細4
  6
CONTINUOUS
 62
    6
 10
262.21715986461345
 20
202.2506770429159
 11
262.21715986461345
 21
207.2506770429159
  0
LINE
  8
_0-e_極細4
  6
CONTINUOUS
 62
    6
 10
263.46715986461345
 20
208.5006770429159
 11
300.45558746302419
 21
208.5006770429159
  0
ARC
  8
_0-e_極細4
  6
CONTINUOUS
 62
    6
 10
263.46715986461345
 20
207.2506770429159
 40
1.25
 50
89.999999999999915
 51
179.99999999999983
  0
LINE
  8
_0-e_極細4
  6
CONTINUOUS
 62
    6
 10
221.09706361461193
 20
320.87495829291481
 11
221.38884968157143
 21
312.17642222595612
  0
LINE
  8
_0-e_極細4
  6
CONTINUOUS
 62
    6
 10
221.38884968157143
 20
312.17642222595612
 11
224.33272854464491
 21
224.41542412874256
  0
LINE
  8
_0-e_極細4
  6
CONTINUOUS
 62
    6
 10
221.38884968157143
 20
312.17642222595612
 11
211.04066103873635
 21
322.52461086879077
  0
LINE
  8
_0-e_極細4
  6
CONTINUOUS
 62
    6
 10
192.88891467511988
 20
323.5419645424754
 11
211.04066103873635
 21
322.52461086879077
  0
LINE
  8
_0-e_極細4
  6
CONTINUOUS
 62
    6
 10
211.24535705764998
 20
322.51313824006115
 11
211.04066103873635
 21
322.52461086879077
  0
LINE
  8
_0-e_極細4
  6
CONTINUOUS
 62
    6
 10
208.47174323065431
 20
306.85445459076914
 11
212.1657861146123
 21
306.39406704291628
  0
LINE
  8
_0-e_極細4
  6
CONTINUOUS
 62
    6
 10
205.09611736461196
 20
313.17786954291546
 11
205.1876248405479
 21
310.44994401028032
  0
ARC
  8
_0-e_極細4
  6
CONTINUOUS
 62
    6
 10
208.93551678002567
 20
310.57566596542881
 40
3.75
 50
181.92125000262268
 51
262.89587342325314
  0
LINE
  8
_0-e_極細4
  6
CONTINUOUS
 62
    6
 10
252.11560435795562
 20
178.79101946404219
 11
251.07531130057467
 21
179.83131252142257
  0
LINE
  8
_0-e_極細4
  6
CONTINUOUS
 62
    6
 10
255.05759720853078
 20
178.5006770429159
 11
250.61307147951155
 21
182.9452027719374
  0
LINE
  8
_0-e_極細4
  6
CONTINUOUS
 62
    6
 10
257.70924763798189
 20
178.5006770429159
 11
250.37026981174293
 21
185.83965486915375
  0
LINE
  8
_0-e_極細4
  6
CONTINUOUS
 62
    6
 10
224.03182009159607
 20
212.17810458930117
 11
221.75453403023837
 21
214.4553906506583
  0
LINE
  8
_0-e_極細4
  6
CONTINUOUS
 62
    6
 10
260.36089806743075
 20
178.5006770429159
 11
250.12746814397545
 21
188.73410696637066
  0
LINE
  8
_0-e_極細4
  6
CONTINUOUS
 62
    6
 10
229.68320206297975
 20
209.17837304736693
 11
218.75480248830542
 21
220.10677262204197
  0
LINE
  8
_0-e_極細4
  6
CONTINUOUS
 62
    6
 10
262.24233105615622
 20
179.27089448363873
 11
249.88466647621024
 21
191.62855906358701
  0
LINE
  8
_0-e_極細4
  6
CONTINUOUS
 62
    6
 10
232.95447158981986
 20
208.55875394997568
 11
218.13518339091459
 21
223.37804214888266
  0
LINE
  8
_0-e_極細4
  6
CONTINUOUS
 62
    6
 10
262.32819385627931
 20
181.83668211296677
 11
249.64186480844162
 21
194.52301116080392
  0
LINE
  8
_0-e_極細4
  6
CONTINUOUS
 62
    6
 10
235.66419892632965
 20
208.5006770429159
 11
218.02124094399986
 21
226.14363502524512
  0
LINE
  8
_0-e_極細4
  6
CONTINUOUS
 62
    6
 10
262.41405665640013
 20
184.40246974229481
 11
249.39906314067414
 21
197.41746325802083
  0
LINE
  8
_0-e_極細4
  6
CONTINUOUS
 62
    6
 10
238.31584935578036
 20
208.5006770429159
 11
231.72002435530345
 21
215.09650204339223
  0
LINE
  8
_0-e_極細4
  6
CONTINUOUS
 62
    6
 10
224.67293094741379
 20
222.14359545128175
 11
217.92920608785337
 21
228.88732031084103
  0
LINE
  8
_0-e_極細4
  6
CONTINUOUS
 62
    6
 10
262.49991945652323
 20
186.96825737162285
 11
249.15626147290737
 21
200.31191535523718
  0
LINE
  8
_0-e_極細4
  6
CONTINUOUS
 62
    6
 10
240.96749978522965
 20
208.5006770429159
 11
234.71749853522923
 21
214.75067829291518
  0
LINE
  8
_0-e_極細4
  6
CONTINUOUS
 62
    6
 10
224.30773755333036
 20
225.16043927481533
 11
217.83717123170916
 21
231.63100559643638
  0
LINE
  8
_0-e_極細4
  6
CONTINUOUS
 62
    6
 10
262.58578225664405
 20
189.53404500095033
 11
248.89534741339119
 21
203.22447984420378
  0
LINE
  8
_0-e_極細4
  6
CONTINUOUS
 62
    6
 10
243.69547966109351
 20
208.42434759650089
 11
237.36914896467809
 21
214.75067829291518
  0
LINE
  8
_0-e_極細4
  6
CONTINUOUS
 62
    6
 10
224.21570262309345
 20
227.90412463450039
 11
217.74513637556268
 21
234.37469088203173
  0
LINE
  8
_0-e_極細4
  6
CONTINUOUS
 62
    6
 10
262.67164505676561
 20
192.09983263027837
 11
240.02079939412923
 21
214.75067829291518
  0
LINE
  8
_0-e_極細4
  6
CONTINUOUS
 62
    6
 10
224.12366769285839
 20
230.64780999418602
 11
217.65310151941691
 21
237.11837616762764
  0
LINE
  8
_0-e_極細4
  6
CONTINUOUS
 62
    6
 10
262.75750785688683
 20
194.66562025960584
 11
242.67244982357809
 21
214.75067829291518
  0
LINE
  8
_0-e_極細4
  6
CONTINUOUS
 62
    6
 10
224.03163276262219
 20
233.39149535387108
 11
217.56106666327085
 21
239.86206145322299
  0
LINE
  8
_0-e_極細4
  6
CONTINUOUS
 62
    6
 10
262.84337065700953
 20
197.23140788893389
 11
245.32410025302767
 21
214.75067829291518
  0
LINE
  8
_0-e_極細4
  6
CONTINUOUS
 62
    6
 10
223.93959783238714
 20
236.13518071355728
 11
217.46903180712437
 21
242.60574673881834
  0
LINE
  8
_0-e_極細4
  6
CONTINUOUS
 62
    6
 10
262.92923345713075
 20
199.79719551826193
 11
247.97575068247696
 21
214.75067829291518
  0
LINE
  8
_0-e_極細4
  6
CONTINUOUS
 62
    6
 10
223.84756290215051
 20
238.87886607324177
 11
217.37699695097859
 21
245.34943202441369
  0
LINE
  8
_0-e_極細4
  6
CONTINUOUS
 62
    6
 10
262.21715986461345
 20
203.1609195402298
 11
250.62740111192582
 21
214.75067829291575
  0
LINE
  8
_0-e_極細4
  6
CONTINUOUS
 62
    6
 10
223.75552797191546
 20
241.62255143292739
 11
217.28496209483254
 21
248.0931173100096
  0
LINE
  8
_0-e_極細4
  6
CONTINUOUS
 62
    6
 10
262.21715986461345
 20
205.8125699696798
 11
253.27905154137696
 21
214.75067829291575
  0
LINE
  8
_0-e_極細4
  6
CONTINUOUS
 62
    6
 10
223.66349304167855
 20
244.36623679261245
 11
217.19292723868605
 21
250.83680259560552
  0
LINE
  8
_0-e_極細4
  6
CONTINUOUS
 62
    6
 10
139.52905279137582
 20
328.5006770429153
 11
137.67811820483146
 21
330.35161162946065
  0
LINE
  8
_0-e_極細4
  6
CONTINUOUS
 62
    6
 10
262.56523604749486
 20
208.11614421624725
 11
255.93070197082582
 21
214.75067829291575
  0
LINE
  8
_0-e_極細4
  6
CONTINUOUS
 62
    6
 10
223.57145811144349
 20
247.10992215229808
 11
217.10089238254028
 21
253.58048788120087
  0
LINE
  8
_0-e_極細4
  6
CONTINUOUS
 62
    6
 10
142.18070322082511
 20
328.5006770429153
 11
138.20682162098734
 21
332.47455864275378
  0
LINE
  8
_0-e_極細4
  6
CONTINUOUS
 62
    6
 10
264.83235365027582
 20
208.5006770429159
 11
258.5823524002754
 21
214.75067829291575
  0
LINE
  8
_0-e_極細4
  6
CONTINUOUS
 62
    6
 10
223.4794231812073
 20
249.85360751198314
 11
217.00885752639422
 21
256.32417316679619
  0
LINE
  8
_0-e_極細4
  6
CONTINUOUS
 62
    6
 10
144.83235365027582
 20
328.5006770429153
 11
138.73552503714293
 21
334.59750565604634
  0
LINE
  8
_0-e_極細4
  6
CONTINUOUS
 62
    6
 10
265.77894992923945
 20
210.20573119340114
 11
261.23400282972466
 21
214.75067829291575
  0
LINE
  8
_0-e_極細4
  6
CONTINUOUS
 62
    6
 10
223.38738825097224
 20
252.59729287166877
 11
216.91682267024774
 21
259.0678584523921
  0
LINE
  8
_0-e_極細4
  6
CONTINUOUS
 62
    6
 10
147.48400407972511
 20
328.5006770429153
 11
139.26422845330038
 21
336.7204526693406
  0
LINE
  8
_0-e_極細4
  6
CONTINUOUS
 62
    6
 10
265.8648127730558
 20
212.77151877903478
 11
263.8856532591754
 21
214.75067829291575
  0
LINE
  8
_0-e_極細4
  6
CONTINUOUS
 62
    6
 10
223.29535332073718
 20
255.34097823135497
 11
216.82478781410353
 21
261.81154373798745
  0
LINE
  8
_0-e_極細4
  6
CONTINUOUS
 62
    6
 10
150.13565450917397
 20
328.5006770429153
 11
140.13565325917355
 21
338.50067829291572
  0
LINE
  8
_0-e_極細4
  6
CONTINUOUS
 62
    6
 10
223.20331839050056
 20
258.08466359103943
 11
216.73275295795591
 21
264.55522902358393
  0
LINE
  8
_0-e_極細4
  6
CONTINUOUS
 62
    6
 10
153.58269021729555
 20
327.70529176424429
 11
142.78730368862469
 21
338.50067829291572
  0
LINE
  8
_0-e_極細4
  6
CONTINUOUS
 62
    6
 10
223.11128346026365
 20
260.82834895072506
 11
216.64071810181127
 21
267.29891430917928
  0
LINE
  8
_0-e_極細4
  6
CONTINUOUS
 62
    6
 10
159.7560647609653
 20
324.18356765002397
 11
148.56663591172108
 21
335.37299649926706
  0
LINE
  8
_0-e_極細4
  6
CONTINUOUS
 62
    6
 10
147.21715861461306
 20
336.72247379637736
 11
145.43895411807355
 21
338.50067829291572
  0
LINE
  8
_0-e_極細4
  6
CONTINUOUS
 62
    6
 10
223.01924853002859
 20
263.57203431041012
 11
216.54868324566522
 21
270.04259959477463
  0
LINE
  8
_0-e_極細4
  6
CONTINUOUS
 62
    6
 10
165.92943930463392
 20
320.66184353580422
 11
153.61978000333423
 21
332.97150283710391
  0
LINE
  8
_0-e_極細4
  6
CONTINUOUS
 62
    6
 10
222.9272135997924
 20
266.31571967009518
 11
216.45664838951873
 21
272.78628488036998
  0
LINE
  8
_0-e_極細4
  6
CONTINUOUS
 62
    6
 10
170.71816964593111
 20
318.52476362395589
 11
158.67292409494809
 21
330.5700091749402
  0
LINE
  8
_0-e_極細4
  6
CONTINUOUS
 62
    6
 10
222.83517866955734
 20
269.05940502978081
 11
216.36461353337296
 21
275.52997016596532
  0
LINE
  8
_0-e_極細4
  6
CONTINUOUS
 62
    6
 10
173.52726170142617
 20
318.3673219979114
 11
163.72606818656166
 21
328.16851551277648
  0
LINE
  8
_0-e_極細4
  6
CONTINUOUS
 62
    6
 10
222.74314373932228
 20
271.80309038946586
 11
216.2725786772269
 21
278.27365545156067
  0
LINE
  8
_0-e_極細4
  6
CONTINUOUS
 62
    6
 10
176.33635375692009
 20
318.20988037186748
 11
168.77921227817367
 21
325.7670218506139
  0
LINE
  8
_0-e_極細4
  6
CONTINUOUS
 62
    6
 10
222.65110880908566
 20
274.54677574915149
 11
216.18054382108042
 21
281.01734073715659
  0
LINE
  8
_0-e_極細4
  6
CONTINUOUS
 62
    6
 10
179.14544581241515
 20
318.05243874582186
 11
172.51396133585516
 21
324.68392322238185
  0
LINE
  8
_0-e_極細4
  6
CONTINUOUS
 62
    6
 10
222.5590738788506
 20
277.29046110883655
 11
216.08850896493465
 21
283.76102602275193
  0
LINE
  8
_0-e_極細4
  6
CONTINUOUS
 62
    6
 10
181.9545378679102
 20
317.89499711977737
 11
175.32305297492783
 21
324.52648201275804
  0
LINE
  8
_0-e_極細4
  6
CONTINUOUS
 62
    6
 10
222.46703894861369
 20
280.03414646852275
 11
215.99647410878859
 21
286.50471130834728
  0
LINE
  8
_0-e_極細4
  6
CONTINUOUS
 62
    6
 10
184.7636299234037
 20
317.73755549373288
 11
178.13214461400165
 21
324.36904080313479
  0
LINE
  8
_0-e_極細4
  6
CONTINUOUS
 62
    6
 10
222.37500401837863
 20
282.77783182820724
 11
215.90443925264211
 21
289.24839659394263
  0
LINE
  8
_0-e_極細4
  6
CONTINUOUS
 62
    6
 10
187.57272197889876
 20
317.58011386768783
 11
180.94123625307546
 21
324.21159959351212
  0
LINE
  8
_0-e_極細4
  6
CONTINUOUS
 62
    6
 10
222.28296908814244
 20
285.52151718789287
 11
215.8124043964979
 21
291.99208187953855
  0
LINE
  8
_0-e_極細4
  6
CONTINUOUS
 62
    6
 10
190.38181403439197
 20
317.42267224164277
 11
183.08488802469313
 21
324.71959825134161
  0
LINE
  8
_0-e_極細4
  6
CONTINUOUS
 62
    6
 10
222.19093415790738
 20
288.2652025475785
 11
215.72036954035028
 21
294.73576716513446
  0
LINE
  8
_0-e_極細4
  6
CONTINUOUS
 62
    6
 10
193.19090608988589
 20
317.26523061559828
 11
184.04137540627929
 21
326.41476129920545
  0
LINE
  8
_0-e_極細4
  6
CONTINUOUS
 62
    6
 10
222.09889922767232
 20
291.00888790726356
 11
215.62833468420379
 21
297.47945245072981
  0
LINE
  8
_0-e_極細4
  6
CONTINUOUS
 62
    6
 10
195.99999814538094
 20
317.10778898955436
 11
184.54518831598676
 21
328.56259881894755
  0
LINE
  8
_0-e_極細4
  6
CONTINUOUS
 62
    6
 10
222.0068642974357
 20
293.75257326694862
 11
215.53629982805958
 21
300.22313773632516
  0
LINE
  8
_0-e_極細4
  6
CONTINUOUS
 62
    6
 10
208.96666484182063
 20
306.7927727225624
 11
205.18339489744633
 21
310.57604266693784
  0
LINE
  8
_0-e_極細4
  6
CONTINUOUS
 62
    6
 10
198.809090200876
 20
316.95034736350874
 11
191.99979277477638
 21
323.75964478960736
  0
LINE
  8
_0-e_極細4
  6
CONTINUOUS
 62
    6
 10
190.75041061969003
 20
325.00902694469528
 11
185.04900122569396
 21
330.71043633868965
  0
LINE
  8
_0-e_極細4
  6
CONTINUOUS
 62
    6
 10
221.91482936719879
 20
296.49625862663424
 11
215.44015029889195
 21
302.97093769494109
  0
LINE
  8
_0-e_極細4
  6
CONTINUOUS
 62
    6
 10
211.99584008282187
 20
306.41524791101187
 11
205.08845758135593
 21
313.32263041247711
  0
LINE
  8
_0-e_極細4
  6
CONTINUOUS
 62
    6
 10
201.61870448417361
 20
316.79238350966
 11
194.98669824432639
 21
323.42438974950608
  0
LINE
  8
_0-e_極細4
  6
CONTINUOUS
 62
    6
 10
189.87873452074453
 20
328.53235347308851
 11
185.55281413540072
 21
332.85827385843174
  0
LINE
  8
_0-e_極細4
  6
CONTINUOUS
 62
    6
 10
221.82279443696373
 20
299.23994398632044
 11
197.79579027993989
 21
323.26694814334428
  0
LINE
  8
_0-e_極細4
  6
CONTINUOUS
 62
    6
 10
189.07035475751016
 20
331.99238366577401
 11
186.56722881433964
 21
334.49550960894283
  0
LINE
  8
_0-e_極細4
  6
CONTINUOUS
 62
    6
 10
221.73075950672754
 20
301.98362934600493
 11
200.60488231555226
 21
323.10950653718078
  0
LINE
  8
_0-e_極細4
  6
CONTINUOUS
 62
    6
 10
221.63872457649248
 20
304.72731470569056
 11
203.4139743511642
 21
322.95206493101784
  0
LINE
  8
_0-e_極細4
  6
CONTINUOUS
 62
    6
 10
221.54668964625742
 20
307.47100006537562
 11
206.22306638677586
 21
322.79462332485605
  0
LINE
  8
_0-e_極細4
  6
CONTINUOUS
 62
    6
 10
221.4546547160208
 20
310.21468542506068
 11
209.03215842238936
 21
322.63718171869255
  0
LINE
  8
_0-e_極細4
  6
CONTINUOUS
 62
    6
 10
218.34852326079798
 20
343.63871510857348
 11
216.4945724124091
 21
326.95314622308797
  0
ARC
  8
_0-e_極細4
  6
CONTINUOUS
 62
    6
 10
219.59087793935467
 20
343.50067579291601
 40
1.25
 50
89.999999999999915
 51
173.65981249406067
  0
LINE
  8
_0-e_極細4
  6
CONTINUOUS
 62
    6
 10
221.2714285016007
 20
322.13751493770997
 11
216.4905838743023
 21
326.91835956500779
  0
LINE
  8
_0-e_極細4
  6
CONTINUOUS
 62
    6
 10
222.30296520728714
 20
323.75762866147409
 11
216.75585977718313
 21
329.30473409157753
  0
LINE
  8
_0-e_極細4
  6
CONTINUOUS
 62
    6
 10
224.04736833429141
 20
324.66487596391869
 11
217.02102465922238
 21
331.69121963898658
  0
LINE
  8
_0-e_極細4
  6
CONTINUOUS
 62
    6
 10
226.6132176847448
 20
324.7506770429153
 11
217.28618954126347
 21
334.07770518639677
  0
LINE
  8
_0-e_極細4
  6
CONTINUOUS
 62
    6
 10
229.26486811419252
 20
324.7506770429153
 11
217.55135442330271
 21
336.46419073380582
  0
LINE
  8
_0-e_極細4
  6
CONTINUOUS
 62
    6
 10
230.96715736461263
 20
325.7000382219469
 11
225.66651729364281
 21
331.00067829291572
  0
LINE
  8
_0-e_極細4
  6
CONTINUOUS
 62
    6
 10
223.46715736461263
 20
333.2000382219469
 11
217.81651930534352
 21
338.85067628121601
  0
LINE
  8
_0-e_極細4
  6
CONTINUOUS
 62
    6
 10
230.96715736461263
 20
328.35168865139633
 11
228.3181677230921
 21
331.00067829291572
  0
LINE
  8
_0-e_極細4
  6
CONTINUOUS
 62
    6
 10
223.46715736461263
 20
335.85168865139633
 11
218.08168418738276
 21
341.23716182862563
  0
LINE
  8
_0-e_極細4
  6
CONTINUOUS
 62
    6
 10
223.46981815254281
 20
338.50067829291572
 11
218.34684906942201
 21
343.62364737603582
  0
LINE
  8
_0-e_極細4
  6
CONTINUOUS
 62
    6
 10
226.1214685819921
 20
338.50067829291572
 11
219.87147108199139
 21
344.75067579291601
  0
LINE
  8
_0-e_極細4
  6
CONTINUOUS
 62
    6
 10
228.77311901144097
 20
338.50067829291572
 11
222.52312151144068
 21
344.75067579291601
  0
LINE
  8
_0-e_極細4
  6
CONTINUOUS
 62
    6
 10
230.96715736461263
 20
338.95829036919463
 11
225.17477194088954
 21
344.75067579291601
  0
LINE
  8
_0-e_極細4
  6
CONTINUOUS
 62
    6
 10
230.96715736461263
 20
341.60994079864406
 11
227.82642237034068
 21
344.75067579291601
  0
LINE
  8
_0-e_極細4
  6
CONTINUOUS
 62
    6
 10
230.96715736461263
 20
344.26159122809349
 11
230.47807279978954
 21
344.75067579291601
  0
LINE
  8
_0-e_極細4
  6
CONTINUOUS
 62
    6
 10
219.59087793935467
 20
344.75067579291601
 11
237.33058746302419
 21
344.75067579291601
  0
LINE
  8
_0-e_極細4
  6
CONTINUOUS
 62
    6
 10
223.46715736461263
 20
338.50067829291572
 11
237.33058746302419
 21
338.50067829291572
  0
LINE
  8
_0-e_極細4
  6
CONTINUOUS
 62
    6
 10
223.46715736461263
 20
331.00067829291572
 11
237.33058746302419
 21
331.00067829291572
  0
LINE
  8
_0-e_極細4
  6
CONTINUOUS
 62
    6
 10
224.84495611461242
 20
324.7506770429153
 11
237.33058746302419
 21
324.7506770429153
  0
LINE
  8
_1-1_寸法4
  6
CONTINUOUS
 62
    7
 10
275.13614182472065
 20
329.23191420027376
 11
268.06507401285512
 21
322.16084638840834
  0
LINE
  8
_1-1_寸法4
  6
CONTINUOUS
 62
    7
 10
275.13614182472065
 20
329.23191420027376
 11
265.47688356183005
 21
326.64372374924858
  0
LINE
  8
_1-1_寸法4
  6
CONTINUOUS
 62
    7
 10
275.13614182472065
 20
329.23191420027376
 11
180.6912384913467
 21
274.70412383716234
  0
LINE
  8
_1-1_寸法4
  6
CONTINUOUS
 62
    7
 10
180.6912384913467
 20
274.70412383716234
 11
84.691238491346752
 21
274.70412383716291
  0
TEXT
  8
_1-1_寸法4
 62
    7
 10
84.691238491346752
 20
274.70412383716234
 40
15
 41
0.7999999999999997
 50
0
  1
防臭インナー１号
  0
LINE
  8
_1-1_寸法4
  6
CONTINUOUS
 62
    7
 10
244.43306311206996
 20
280.17813021635459
 11
237.36199530020451
 21
273.10706240448917
  0
LINE
  8
_1-1_寸法4
  6
CONTINUOUS
 62
    7
 10
244.43306311206996
 20
280.17813021635459
 11
234.7738048491793
 21
277.5899397653294
  0
LINE
  8
_1-1_寸法4
  6
CONTINUOUS
 62
    7
 10
244.43306311206996
 20
280.17813021635459
 11
180.6912384913467
 21
243.37677061294315
  0
LINE
  8
_1-1_寸法4
  6
CONTINUOUS
 62
    7
 10
180.6912384913467
 20
243.37677061294315
 11
72.691238491346724
 21
243.37677061294315
  0
TEXT
  8
_1-1_寸法4
 62
    7
 10
72.691238491346724
 20
243.37677061294315
 40
15
 41
0.7999999999999997
 50
0
  1
縦引きトラップ本体
  0
LINE
  8
_1-1_寸法4
  6
CONTINUOUS
 62
    7
 10
260.31705650010463
 20
347.51563008524965
 11
253.24598868823921
 21
340.44456227338424
  0
LINE
  8
_1-1_寸法4
  6
CONTINUOUS
 62
    7
 10
260.31705650010463
 20
347.51563008524965
 11
250.657798237214
 21
344.92743963422447
  0
LINE
  8
_1-1_寸法4
  6
CONTINUOUS
 62
    7
 10
260.31705650010463
 20
347.51563008524965
 11
180.6912384913467
 21
301.54364262344939
  0
LINE
  8
_1-1_寸法4
  6
CONTINUOUS
 62
    7
 10
180.6912384913467
 20
301.54364262344939
 11
84.691238491346752
 21
301.54364262344939
  0
TEXT
  8
_1-1_寸法4
 62
    7
 10
84.691238491346752
 20
301.54364262344939
 40
15
 41
0.7999999999999997
 50
0
  1
防臭インナー２号
  0
LINE
  8
_1-1_寸法4
  6
CONTINUOUS
 62
    7
 10
271.69788923268612
 20
386.31062574835494
 11
262.79965797945721
 21
390.8736818036823
  0
LINE
  8
_1-1_寸法4
  6
CONTINUOUS
 62
    7
 10
271.69788923268612
 20
386.31062574835494
 11
266.2733229463048
 21
394.71146383777528
  0
LINE
  8
_1-1_寸法4
  6
CONTINUOUS
 62
    7
 10
271.69788923268612
 20
386.31062574835494
 11
252.32305054316569
 21
403.84723877020758
  0
LINE
  8
_1-1_寸法4
  6
CONTINUOUS
 62
    7
 10
252.32305054316569
 20
403.84723877020758
 11
180.32305054316581
 21
403.84723877020758
  0
TEXT
  8
_1-1_寸法4
 62
    7
 10
180.32305054316581
 20
403.84723877020781
 40
15
 41
0.7999999999999997
 50
-0.0000000000001696
  1
ストレーナー
  0
TEXT
  8
_1-1_寸法4
 62
    7
 10
367.43618025099829
 20
398.18442085436698
 40
15
 41
0.7999999999999998
 50
0
  1
Ｃ部
  0
LINE
  8
_0-e_極細4
  6
CONTINUOUS
 62
    6
 10
448.72274816395367
 20
328.5006770429153
 11
431.34914869025926
 21
318.58956217624223
  0
LINE
  8
_0-e_極細4
  6
CONTINUOUS
 62
    6
 10
461.20359514894142
 20
338.50067829291572
 11
453.69401631143489
 21
338.50067829291572
  0
LINE
  8
_0-e_極細4
  6
CONTINUOUS
 62
    6
 10
453.69401631143489
 20
336.01433209498578
 11
453.69401631143489
 21
338.50067829291572
  0
LINE
  8
_0-e_極細4
  6
CONTINUOUS
 62
    6
 10
453.69401631143489
 20
336.01433209498578
 11
430.04757272623812
 21
324.77642093056556
  0
LINE
  8
_0-e_極細4
  6
CONTINUOUS
 62
    6
 10
448.72274816395367
 20
328.5006770429153
 11
463.69401756143532
 21
328.5006770429153
  0
LINE
  8
_0-e_極細4
  6
CONTINUOUS
 62
    6
 10
463.69401756143532
 20
328.5006770429153
 11
461.20359514894142
 21
338.50067829291572
  0
LINE
  8
_1-1_寸法4
  6
CONTINUOUS
 62
    7
 10
264.80161571362783
 20
168.5006770429159
 11
264.80161571362783
 21
123.5006770429159
  0
LINE
  8
_1-1_寸法4
  6
CONTINUOUS
 62
    7
 10
264.80161571362783
 20
128.5006770429159
 11
274.46087397651854
 21
131.08886749394111
  0
LINE
  8
_1-1_寸法4
  6
CONTINUOUS
 62
    7
 10
264.80161571362783
 20
128.5006770429159
 11
274.46087397651854
 21
125.9124865918907
  0
LINE
  8
_1-1_寸法4
  6
CONTINUOUS
 62
    7
 10
336.10955921242146
 20
168.5006770429159
 11
336.10955921241941
 21
123.5006770429159
  0
LINE
  8
_1-1_寸法4
  6
CONTINUOUS
 62
    7
 10
336.10955921241958
 20
128.5006770429159
 11
326.45030094952887
 21
125.9124865918907
  0
LINE
  8
_1-1_寸法4
  6
CONTINUOUS
 62
    7
 10
336.10955921241958
 20
128.5006770429159
 11
326.45030094952892
 21
131.08886749394111
  0
LINE
  8
_1-1_寸法4
  6
CONTINUOUS
 62
    7
 10
264.80161571362783
 20
128.5006770429159
 11
336.10955921241958
 21
128.5006770429159
  0
TEXT
  8
_1-1_寸法4
 62
    7
 10
266.70558746302419
 20
128.5006770429159
 40
15
 41
1
 50
0
  1
Rc2(59.6)
  0
LINE
  8
_1-1_寸法4
  6
CONTINUOUS
 62
    7
 10
218.92642856228207
 20
219.56592829721811
 11
211.87126571634587
 21
212.47899121429427
  0
LINE
  8
_1-1_寸法4
  6
CONTINUOUS
 62
    7
 10
218.92642856228207
 20
219.56592829721811
 11
209.27300976840328
 21
216.95604217135215
  0
LINE
  8
_1-1_寸法4
  6
CONTINUOUS
 62
    7
 10
218.92642856228207
 20
219.56592829721811
 11
189.08750752412018
 21
202.24891430492235
  0
LINE
  8
_1-1_寸法4
  6
CONTINUOUS
 62
    7
 10
189.08750752412018
 20
202.24891430492235
 11
105.08750752412027
 21
202.24891430492255
  0
TEXT
  8
_1-1_寸法4
 62
    7
 10
105.08750752412027
 20
202.24891430492235
 40
15
 41
0.7999999999999997
 50
0
  1
防水マス縦引き
  0
TEXT
  8
_1-1_寸法4
 62
    7
 10
96.61149484876745
 20
186.65375707350654
 40
15
 41
0.8000000000000001
 50
0
  1
（ＨＦＴ－５Ｂ）
  0
LINE
  8
_0-5_寸法線
  6
CONTINUOUS
 62
    7
 10
787.17987654864726
 20
406.95777548437559
 11
900.64720262184994
 21
406.95777548437445
  0
LINE
  8
_0-5_寸法線
  6
CONTINUOUS
 62
    7
 10
895.64720262184994
 20
406.95777548437457
 11
898.23539307287501
 21
397.29851722148385
  0
LINE
  8
_0-5_寸法線
  6
CONTINUOUS
 62
    7
 10
895.64720262184994
 20
406.95777548437457
 11
893.05901217082464
 21
397.29851722148391
  0
LINE
  8
_0-5_寸法線
  6
CONTINUOUS
 62
    7
 10
786.53896905669501
 20
443.45777548437559
 11
900.64720262184994
 21
443.45777548437525
  0
LINE
  8
_0-5_寸法線
  6
CONTINUOUS
 62
    7
 10
895.64720262184994
 20
443.45777548437525
 11
893.05901217082464
 21
453.11703374726591
  0
LINE
  8
_0-5_寸法線
  6
CONTINUOUS
 62
    7
 10
895.64720262184994
 20
443.45777548437525
 11
898.23539307287501
 21
453.11703374726591
  0
LINE
  8
_0-5_寸法線
  6
CONTINUOUS
 62
    7
 10
895.64720262184994
 20
381.95777548437457
 11
895.64720262184994
 21
482.00999909203097
  0
TEXT
  8
_0-5_寸法線
 62
    7
 10
895.64720262184994
 20
452.00999909203097
 40
15
 41
1
 50
90
  1
36.5
  0
TEXT
  8
_0-7_枠細線
 62
    5
 10
960.50000000000011
 20
149.53034845114914
 40
20
 41
0.6
 50
0
  1
フリースタイルユニット＋防水マス
  0
ENDSEC
  0
EOF
