  0
SECTION
  2
HEADER
  9
$ACADVER
  1
AC1009
  9
$INSBASE
 10
0
 20
0
 30
0
  9
$EXTMIN
 10
0
 20
0
  9
$EXTMAX
 10
1485
 20
1050
  9
$LIMMIN
 10
0
 20
0
  9
$LIMMAX
 10
1485
 20
1050
  9
$LTSCALE
 40
5
  0
ENDSEC
  0
SECTION
  2
TABLES
  0
TABLE
  2
LTYPE
 70
     9
  0
LTYPE
  2
CONTINUOUS
 70
    64
  3
実線
 72
    65
 73
     0
 40
0.0
  0
LTYPE
  2
DASHED1
 70
    64
  3
--  --  --  --  --  --  --  --  
 72
    65
 73
     2
 40
2.5
 49
1.25
 49
-1.25
  0
LTYPE
  2
DASHED2
 70
    64
  3
----    ----    ----    ----    
 72
    65
 73
     2
 40
5.0
 49
2.5
 49
-2.5
  0
LTYPE
  2
DASHED3
 70
    64
  3
------  ------  ------  ------  
 72
    65
 73
     2
 40
5.0
 49
3.75
 49
-1.25
  0
LTYPE
  2
CENTER1
 70
    64
  3
----- - ----- - ----- - ----- - 
 72
    65
 73
     4
 40
10.0
 49
6.25
 49
-1.25
 49
1.25
 49
-1.25
  0
LTYPE
  2
CENTER2
 70
    64
  3
----------  --  ----------  --  
 72
    65
 73
     4
 40
20.0
 49
12.5
 49
-2.5
 49
2.5
 49
-2.5
  0
LTYPE
  2
PHANTOM1
 70
    64
  3
--- - - --- - - --- - - --- - - 
 72
    65
 73
     6
 40
10.0
 49
3.25
 49
-1.25
 49
1.25
 49
-1.25
 49
1.25
 49
-1.25
  0
LTYPE
  2
PHANTOM2
 70
    64
  3
--------  -  -  --------  -  -  
 72
    65
 73
     6
 40
20.0
 49
10.0
 49
-2.5
 49
1.25
 49
-2.5
 49
1.25
 49
-2.5
  0
LTYPE
  2
DOT
 70
    64
  3
-   -   -   -   -   -   -   -   
 72
    65
 73
     2
 40
2.5
 49
0.625
 49
-1.875
  0
LTYPE
  2
DUMMY
 70
    64
  3
ダミー
 72
    65
 73
     0
 40
0.0
  0
LTYPE
  2
RAND1
 70
    64
  3
ランダム線1
 72
    65
 73
     4
 40
10.0
 49
1.0
 49
-2.0
 49
3.0
 49
-4.0
  0
LTYPE
  2
RAND2
 70
    64
  3
ランダム線2
 72
    65
 73
     4
 40
14.0
 49
2.0
 49
-3.0
 49
4.0
 49
-5.0
  0
LTYPE
  2
RAND3
 70
    64
  3
ランダム線3
 72
    65
 73
     4
 40
18.0
 49
3.0
 49
-4.0
 49
5.0
 49
-6.0
  0
LTYPE
  2
RAND4
 70
    64
  3
ランダム線4
 72
    65
 73
     4
 40
22.0
 49
4.0
 49
-5.0
 49
6.0
 49
-7.0
  0
LTYPE
  2
RAND5
 70
    64
  3
ランダム線5
 72
    65
 73
     4
 40
26.0
 49
5.0
 49
-6.0
 49
7.0
 49
-8.0
  0
LTYPE
  2
LONG1
 70
    64
  3
----------  --  ----------  --  
 72
    65
 73
     4
 40
40.0
 49
32.5
 49
-2.5
 49
2.5
 49
-2.5
  0
LTYPE
  2
LONG2
 70
    64
  3
--------  -  -  --------  -  -  
 72
    65
 73
     6
 40
40.0
 49
30.0
 49
-2.5
 49
1.25
 49
-2.5
 49
1.25
 49
-2.5
  0
LTYPE
  2
LONG3
 70
    64
  3
+++++++++++++++..+++++++++++++++
 72
    65
 73
     2
 40
40.0
 49
37.5
 49
-2.5
  0
LTYPE
  2
LONG4
 70
    64
  3
+++++++++++++++..+++++++++++++++
 72
    65
 73
     2
 40
80.0
 49
75.0
 49
-5.0
  0
LTYPE
  2
LONG5
 70
    64
  3
----------  --  ----------  --  
 72
    65
 73
     4
 40
60.0
 49
37.5
 49
-7.5
 49
7.5
 49
-7.5
  0
LTYPE
  2
dashed
 70
   64
  3
-------   -------------   ------
 72
   65
 73
    2
 40
7.5
 49
6
 49
-1.5
  0
LTYPE
  2
dashed_spaced
 70
   64
  3
----        --------        ----
 72
   65
 73
    2
 40
12
 49
6
 49
-6
  0
LTYPE
  2
long_dashed_dotted
 70
   64
  3
------------- --- --------------
 72
   65
 73
    4
 40
15.25
 49
12
 49
-1.5
 49
0.25
 49
-1.5
  0
LTYPE
  2
long_dashed_double-dotted
 70
   64
  3
----------- --- --- ------------
 72
   65
 73
    6
 40
17
 49
12
 49
-1.5
 49
0.25
 49
-1.5
 49
0.25
 49
-1.5
  0
LTYPE
  2
long_dashed_triplicate-dotted
 70
   64
  3
--------- --- --- --- ----------
 72
   65
 73
    8
 40
18.75
 49
12
 49
-1.5
 49
0.25
 49
-1.5
 49
0.25
 49
-1.5
 49
0.25
 49
-1.5
  0
LTYPE
  2
dotted
 70
   64
  3
   -       -       -       -    
 72
   65
 73
    2
 40
1.75
 49
0.25
 49
-1.5
  0
LTYPE
  2
chain
 70
   64
  3
-------------- -- --------------
 72
   65
 73
    4
 40
18.5
 49
12
 49
-1.5
 49
3.5
 49
-1.5
  0
LTYPE
  2
chain_double_dash
 70
   64
  3
------------ -- -- -------------
 72
   65
 73
    6
 40
23.5
 49
12
 49
-1.5
 49
3.5
 49
-1.5
 49
3.5
 49
-1.5
  0
LTYPE
  2
dashed_dotted
 70
   64
  3
-----------     -     ----------
 72
   65
 73
    4
 40
9.25
 49
6
 49
-1.5
 49
0.25
 49
-1.5
  0
LTYPE
  2
double-dashed_dotted
 70
   64
  3
------   -----------   -   -----
 72
   65
 73
    6
 40
16.75
 49
6
 49
-1.5
 49
6
 49
-1.5
 49
0.25
 49
-1.5
  0
LTYPE
  2
dashed_double-dotted
 70
   64
  3
---------    -    -    ---------
 72
   65
 73
    6
 40
11
 49
6
 49
-1.5
 49
0.25
 49
-1.5
 49
0.25
 49
-1.5
  0
LTYPE
  2
double-dashed_double-dotted
 70
   64
  3
-----   ---------   -   -   ----
 72
   65
 73
    8
 40
18.5
 49
6
 49
-1.5
 49
6
 49
-1.5
 49
0.25
 49
-1.5
 49
0.25
 49
-1.5
  0
LTYPE
  2
dashed_triplicate-dotted
 70
   64
  3
-------    -    -    -    ------
 72
   65
 73
    8
 40
12.75
 49
6
 49
-1.5
 49
0.25
 49
-1.5
 49
0.25
 49
-1.5
 49
0.25
 49
-1.5
  0
LTYPE
  2
double-dashed_triplicate-dotted
 70
   64
  3
-----  ---------  -  -  -  -----
 72
   65
 73
   10
 40
20.25
 49
6
 49
-1.5
 49
6
 49
-1.5
 49
0.25
 49
-1.5
 49
0.25
 49
-1.5
 49
0.25
 49
-1.5
  0
LTYPE
  2
undefined
 70
   64
  3
--------------------------------
 72
   65
 73
    0
 40
0
  0
ENDTAB
  0
TABLE
  2
STYLE
  5
3
100
AcDbSymbolTable
 70
     1
  0
STYLE
  5
10
100
AcDbSymbolTableRecord
100
AcDbTextStyleTableRecord
  2
STANDARD
 70
     0
 40
0.0
 41
1.0
 50
0.0
 71
     0
 42
0.2
  3
txt
  4
bigfont.shx
  0
STYLE
  5
26
100
AcDbSymbolTableRecord
100
AcDbTextStyleTableRecord
  2
TATEGAKI
 70
    68
 40
0.0
 41
1.0
 50
0.0
 71
     0
 42
1.0
  3
txt
  4
bigfont.shx
  0
ENDTAB
  0
TABLE
  2
LAYER
 70
   13
  0
LAYER
  2
_0-0_計極細
 70
   64
 62
    7
  6
CONTINUOUS
  0
LAYER
  2
_0-1_計細線
 70
   64
 62
    7
  6
CONTINUOUS
  0
LAYER
  2
_0-5_寸法線
 70
   64
 62
    7
  6
CONTINUOUS
  0
LAYER
  2
_0-7_枠細線
 70
   64
 62
    7
  6
CONTINUOUS
  0
LAYER
  2
_0-8_枠中線
 70
   64
 62
    7
  6
CONTINUOUS
  0
LAYER
  2
_0-a_極細1
 70
   64
 62
    7
  6
CONTINUOUS
  0
LAYER
  2
_0-d_寸法1
 70
   64
 62
    7
  6
CONTINUOUS
  0
LAYER
  2
_0-e_極細4
 70
   64
 62
    7
  6
CONTINUOUS
  0
LAYER
  2
_1-1_寸法4
 70
   64
 62
    7
  6
CONTINUOUS
  0
LAYER
  2
_1-2_極細3
 70
   64
 62
    7
  6
CONTINUOUS
  0
LAYER
  2
_1-3_細線3
 70
   64
 62
    7
  6
CONTINUOUS
  0
LAYER
  2
_1-5_寸法3
 70
   64
 62
    7
  6
CONTINUOUS
  0
LAYER
  2
ADD_LINE
 70
   64
 62
    7
  6
CONTINUOUS
  0
ENDTAB
  0
ENDSEC
  0
SECTION
  2
BLOCKS
  0
ENDSEC
  0
SECTION
  2
ENTITIES
  0
LINE
  8
_0-8_枠中線
  6
CONTINUOUS
 62
    5
 10
60
 20
60
 11
60
 21
960
  0
LINE
  8
_0-8_枠中線
  6
CONTINUOUS
 62
    5
 10
60
 20
960
 11
1425
 21
960
  0
LINE
  8
_0-8_枠中線
  6
CONTINUOUS
 62
    5
 10
1425
 20
960
 11
1425
 21
60
  0
LINE
  8
_0-8_枠中線
  6
CONTINUOUS
 62
    5
 10
1425
 20
60
 11
60
 21
60
  0
TEXT
  8
_0-7_枠細線
 62
    5
 10
937.5
 20
97.5
 40
17.5
 41
1
 50
0
  1
備考
  7
TATEGAKI
  0
TEXT
  8
_0-7_枠細線
 62
    5
 10
937.5
 20
137.5
 40
17.5
 41
1
 50
0
  1
品番
  7
TATEGAKI
  0
TEXT
  8
_0-7_枠細線
 62
    5
 10
937.5
 20
177.5
 40
17.5
 41
1
 50
0
  1
品名
  7
TATEGAKI
  0
LINE
  8
_0-7_枠細線
  6
CONTINUOUS
 62
    5
 10
950
 20
180
 11
950
 21
60
  0
LINE
  8
_0-8_枠中線
  6
CONTINUOUS
 62
    5
 10
1425
 20
180
 11
925
 21
180
  0
LINE
  8
_0-8_枠中線
  6
CONTINUOUS
 62
    5
 10
925
 20
180
 11
925
 21
60
  0
TEXT
  8
_0-7_枠細線
 62
    5
 10
894.89374448775823
 20
945
 40
12.5
 41
1
 50
0
  1
記号
  0
TEXT
  8
_0-7_枠細線
 62
    5
 10
996.76874448775823
 20
945
 40
12.5
 41
1
 50
0
  1
訂　 正　 記　 事
  0
TEXT
  8
_0-7_枠細線
 62
    5
 10
1181.1437444877581
 20
945
 40
12.5
 41
1
 50
0
  1
訂 正 年 月 日
  0
TEXT
  8
_0-7_枠細線
 62
    5
 10
1306.1437444877581
 20
945
 40
12.5
 41
1
 50
0
  1
備　　　　　考
  0
LINE
  8
_0-7_枠細線
  6
CONTINUOUS
 62
    5
 10
889.89374448775823
 20
942.5
 11
889.89374448775823
 21
959.99999999999909
  0
LINE
  8
_0-7_枠細線
  6
CONTINUOUS
 62
    5
 10
924.89374448775823
 20
942.5
 11
924.89374448775823
 21
959.99999999999909
  0
LINE
  8
_0-7_枠細線
  6
CONTINUOUS
 62
    5
 10
1174.8937444877581
 20
942.5
 11
1174.8937444877581
 21
959.99999999999909
  0
LINE
  8
_0-7_枠細線
  6
CONTINUOUS
 62
    5
 10
1274.8937444877581
 20
942.5
 11
1274.8937444877581
 21
959.99999999999909
  0
LINE
  8
_0-7_枠細線
  6
CONTINUOUS
 62
    5
 10
1425
 20
942.5
 11
890
 21
942.5
  0
LINE
  8
_0-7_枠細線
  6
CONTINUOUS
 62
    5
 10
1185
 20
180
 11
1185
 21
100
  0
LINE
  8
_0-7_枠細線
  6
CONTINUOUS
 62
    5
 10
1185
 20
140
 11
925
 21
140
  0
LINE
  8
_0-7_枠細線
  6
CONTINUOUS
 62
    5
 10
1245
 20
180
 11
1245
 21
60
  0
TEXT
  8
_0-7_枠細線
 62
    5
 10
1192.5
 20
160
 40
15
 41
1
 50
0
  1
縮　尺
  0
LINE
  8
_0-7_枠細線
  6
CONTINUOUS
 62
    5
 10
1185
 20
155
 11
1245
 21
155
  0
LINE
  8
_0-7_枠細線
  6
CONTINUOUS
 62
    5
 10
1245
 20
100
 11
925
 21
100
  0
LINE
  8
_0-7_枠細線
  6
CONTINUOUS
 62
    5
 10
1425
 20
90
 11
1245
 21
90
  0
LINE
  8
_0-7_枠細線
  6
CONTINUOUS
 62
    5
 10
1245
 20
120
 11
1425
 21
120
  0
LINE
  8
_0-7_枠細線
  6
CONTINUOUS
 62
    5
 10
1425
 20
140
 11
1245
 21
140
  0
TEXT
  8
_0-7_枠細線
 62
    5
 10
1255
 20
147.5
 40
25
 41
0.8
 50
0
  1
株式会社シマブン
  0
TEXT
  8
_0-7_枠細線
 62
    5
 10
1252.5
 20
60
 40
15
 41
1
 50
0
  1
年月日
  0
TEXT
  8
_0-7_枠細線
 62
    5
 10
1252.5
 20
75
 40
15
 41
1
 50
0
  1
作　成
  0
TEXT
  8
_0-7_枠細線
 62
    5
 10
1256.25
 20
122.5
 40
15
 41
1
 50
0
  1
承 認
  0
LINE
  8
_0-7_枠細線
  6
CONTINUOUS
 62
    5
 10
1305
 20
140
 11
1305
 21
60
  0
TEXT
  8
_0-7_枠細線
 62
    5
 10
1316.25
 20
122.5
 40
15
 41
1
 50
0
  1
検 図
  0
LINE
  8
_0-7_枠細線
  6
CONTINUOUS
 62
    5
 10
1365
 20
140
 11
1365
 21
90
  0
TEXT
  8
_0-7_枠細線
 62
    5
 10
1376.25
 20
122.5
 40
15
 41
1
 50
0
  1
設 計
  0
TEXT
  8
_0-7_枠細線
 62
    5
 10
1255
 20
95
 40
20
 41
1
 50
0
  1
大野
  0
TEXT
  8
_0-7_枠細線
 62
    5
 10
1194
 20
117.5
 40
20
 41
0.6999999999999998
 50
0
  1
１：５
  0
TEXT
  8
_0-7_枠細線
 62
    5
 10
1315
 20
95
 40
20
 41
1
 50
0
  1
中村
  0
TEXT
  8
_0-7_枠細線
 62
    5
 10
960.50000000000011
 20
149.53034845114914
 40
20
 41
0.6
 50
0
  1
フリースタイルユニット
  0
TEXT
  8
_0-7_枠細線
 62
    5
 10
961.4307702470602
 20
110
 40
20
 41
0.6
 50
0
  1
ＨＴＡＴ－１５Ｌ１５０
  0
TEXT
  8
_0-7_枠細線
 62
    5
 10
1375
 20
95
 40
20
 41
1
 50
0
  1
石井
  0
TEXT
  8
_0-7_枠細線
 62
    5
 10
1310
 20
67.5
 40
15
 41
0.6666666666666666
 50
0
  1
２０２０年０７月０１日
  0
TEXT
  8
_0-7_枠細線
 62
    5
 10
1181.1178433318134
 20
701.51379244672808
 40
25
 41
0.8
 50
0
  1
Ｃ部拡大図
  0
LINE
  8
_0-a_極細1
  6
CONTINUOUS
 62
    7
 10
1215.3783115530775
 20
795.30941124886806
 11
1227.3783103530784
 21
795.30941124886806
  0
LINE
  8
_0-a_極細1
  6
CONTINUOUS
 62
    7
 10
1215.3783115530775
 20
795.97607784886804
 11
1227.3783103530784
 21
795.97607784886804
  0
LINE
  8
_0-a_極細1
  6
CONTINUOUS
 62
    7
 10
1215.270889120123
 20
796.64274444886814
 11
1227.3783103530784
 21
796.64274444886814
  0
LINE
  8
_0-a_極細1
  6
CONTINUOUS
 62
    7
 10
1214.6042225201229
 20
797.30941104886824
 11
1227.3783103530784
 21
797.30941104886824
  0
LINE
  8
_0-a_極細1
  6
CONTINUOUS
 62
    7
 10
1213.9375559201233
 20
797.97607764886823
 11
1227.3783103530784
 21
797.97607764886823
  0
LINE
  8
_0-a_極細1
  6
CONTINUOUS
 62
    7
 10
1214.1524007860319
 20
798.64274424886833
 11
1227.3783103530784
 21
798.64274424886833
  0
LINE
  8
_0-a_極細1
  6
CONTINUOUS
 62
    7
 10
1214.819067386032
 20
799.30941084886842
 11
1227.3783103530784
 21
799.30941084886842
  0
LINE
  8
_0-a_極細1
  6
CONTINUOUS
 62
    7
 10
1215.3783115530775
 20
799.97607744886807
 11
1227.3783103530784
 21
799.97607744886807
  0
LINE
  8
_0-a_極細1
  6
CONTINUOUS
 62
    7
 10
1215.3783115530775
 20
800.64274404886817
 11
1227.3783103530784
 21
800.64274404886817
  0
LINE
  8
_0-a_極細1
  6
CONTINUOUS
 62
    7
 10
1215.3783115530775
 20
801.30941064886827
 11
1227.3783103530784
 21
801.30941064886827
  0
LINE
  8
_0-a_極細1
  6
CONTINUOUS
 62
    7
 10
1215.3783115530775
 20
801.97607724886836
 11
1227.3783103530784
 21
801.97607724886836
  0
LINE
  8
_0-a_極細1
  6
CONTINUOUS
 62
    7
 10
1215.3783115530775
 20
802.64274384886846
 11
1227.3783103530784
 21
802.64274384886846
  0
LINE
  8
_0-a_極細1
  6
CONTINUOUS
 62
    7
 10
1215.3783115530775
 20
803.30941044886856
 11
1227.3783103530784
 21
803.30941044886856
  0
LINE
  8
_0-a_極細1
  6
CONTINUOUS
 62
    7
 10
1215.3783115530775
 20
803.97607704886832
 11
1227.3783103530784
 21
803.97607704886832
  0
LINE
  8
_0-a_極細1
  6
CONTINUOUS
 62
    7
 10
1214.937555820123
 20
804.6427436488683
 11
1227.6133800773212
 21
804.6427436488683
  0
LINE
  8
_0-a_極細1
  6
CONTINUOUS
 62
    7
 10
1214.2708892201229
 20
805.3094102488684
 11
1227.9689355973208
 21
805.3094102488684
  0
LINE
  8
_0-a_極細1
  6
CONTINUOUS
 62
    7
 10
1213.819067486033
 20
805.97607684886839
 11
1228.3244911173208
 21
805.97607684886839
  0
LINE
  8
_0-a_極細1
  6
CONTINUOUS
 62
    7
 10
1214.4857340860324
 20
806.64274344886849
 11
1228.6800466373209
 21
806.64274344886849
  0
LINE
  8
_0-a_極細1
  6
CONTINUOUS
 62
    7
 10
1215.1524006860325
 20
807.30941004886859
 11
1229.0356021573209
 21
807.30941004886859
  0
LINE
  8
_0-a_極細1
  6
CONTINUOUS
 62
    7
 10
1215.3783115530775
 20
807.97607664886857
 11
1229.391157677321
 21
807.97607664886857
  0
LINE
  8
_0-a_極細1
  6
CONTINUOUS
 62
    7
 10
1215.3783115530775
 20
808.64274324886867
 11
1229.7467131973208
 21
808.64274324886867
  0
LINE
  8
_0-a_極細1
  6
CONTINUOUS
 62
    7
 10
1249.0718654809586
 20
779.04184772916437
 11
1249.0718654809586
 21
830.49166057474804
  0
LINE
  8
_0-a_極細1
  6
CONTINUOUS
 62
    7
 10
1248.4051988809586
 20
778.37518112916428
 11
1248.4051988809586
 21
830.3474554162824
  0
LINE
  8
_0-a_極細1
  6
CONTINUOUS
 62
    7
 10
1247.7385322809585
 20
777.70851452916418
 11
1247.7385322809585
 21
830.0538278981229
  0
LINE
  8
_0-a_極細1
  6
CONTINUOUS
 62
    7
 10
1247.0718656809584
 20
777.04184792916431
 11
1247.0718656809584
 21
829.55956701937794
  0
LINE
  8
_0-a_極細1
  6
CONTINUOUS
 62
    7
 10
1246.4051990809589
 20
776.37518132916455
 11
1246.4051990809589
 21
828.69616451956801
  0
LINE
  8
_0-a_極細1
  6
CONTINUOUS
 62
    7
 10
1245.7385324809588
 20
775.70851472916445
 11
1245.7385324809588
 21
826.0976728126235
  0
LINE
  8
_0-a_極細1
  6
CONTINUOUS
 62
    7
 10
1245.0718658809587
 20
775.04184812916435
 11
1245.0718658809587
 21
824.71680524675378
  0
LINE
  8
_0-a_極細1
  6
CONTINUOUS
 62
    7
 10
1244.4051992809586
 20
774.51495755128349
 11
1244.4051992809586
 21
823.89116486529917
  0
LINE
  8
_0-a_極細1
  6
CONTINUOUS
 62
    7
 10
1243.7385326809588
 20
774.51495755128349
 11
1243.7385326809588
 21
823.30707969401146
  0
LINE
  8
_0-a_極細1
  6
CONTINUOUS
 62
    7
 10
1243.0718660809584
 20
774.51495755128349
 11
1243.0718660809584
 21
822.87863682710906
  0
LINE
  8
_0-a_極細1
  6
CONTINUOUS
 62
    7
 10
1242.4051994809586
 20
774.51495755128349
 11
1242.4051994809586
 21
822.56781421492167
  0
LINE
  8
_0-a_極細1
  6
CONTINUOUS
 62
    7
 10
1241.7385328809585
 20
774.51495755128349
 11
1241.7385328809585
 21
822.35461119658362
  0
LINE
  8
_0-a_極細1
  6
CONTINUOUS
 62
    7
 10
1241.0718662809584
 20
774.51495755128349
 11
1241.0718662809584
 21
822.22790748697889
  0
LINE
  8
_0-a_極細1
  6
CONTINUOUS
 62
    7
 10
1240.4051996809583
 20
774.51495755128349
 11
1240.4051996809583
 21
822.18189758849462
  0
LINE
  8
_0-a_極細1
  6
CONTINUOUS
 62
    7
 10
1239.7385330809582
 20
774.51495755128349
 11
1239.7385330809582
 21
822.18161945128384
  0
LINE
  8
_0-a_極細1
  6
CONTINUOUS
 62
    7
 10
1239.0718664809581
 20
774.51495755128349
 11
1239.0718664809581
 21
822.18161945128384
  0
LINE
  8
_0-a_極細1
  6
CONTINUOUS
 62
    7
 10
1238.4051998809584
 20
774.51495755128349
 11
1238.4051998809584
 21
822.18161945128384
  0
LINE
  8
_0-a_極細1
  6
CONTINUOUS
 62
    7
 10
1237.7385332809588
 20
774.51495755128349
 11
1237.7385332809588
 21
822.18161945128384
  0
LINE
  8
_0-a_極細1
  6
CONTINUOUS
 62
    7
 10
1237.0718666809587
 20
774.51495755128349
 11
1237.0718666809587
 21
822.18161945128384
  0
LINE
  8
_0-a_極細1
  6
CONTINUOUS
 62
    7
 10
1236.4052000809586
 20
774.51495755128349
 11
1236.4052000809586
 21
822.18161945128384
  0
LINE
  8
_0-a_極細1
  6
CONTINUOUS
 62
    7
 10
1235.7385334809585
 20
774.51495755128349
 11
1235.7385334809585
 21
822.12264933552149
  0
LINE
  8
_0-a_極細1
  6
CONTINUOUS
 62
    7
 10
1235.0718668809584
 20
774.51495755128349
 11
1235.0718668809584
 21
821.92865003763075
  0
LINE
  8
_0-a_極細1
  6
CONTINUOUS
 62
    7
 10
1234.4052002809583
 20
774.51495755128349
 11
1234.4052002809583
 21
821.57243936412328
  0
LINE
  8
_0-a_極細1
  6
CONTINUOUS
 62
    7
 10
1233.7385336809582
 20
774.51495755128349
 11
1233.7385336809582
 21
820.97978894713208
  0
LINE
  8
_0-a_極細1
  6
CONTINUOUS
 62
    7
 10
1233.0718670809581
 20
774.51495755128349
 11
1233.0718670809581
 21
819.8294161202582
  0
LINE
  8
_0-a_極細1
  6
CONTINUOUS
 62
    7
 10
1232.405200480958
 20
774.51495755128349
 11
1232.405200480958
 21
781.18162355128334
  0
LINE
  8
_0-a_極細1
  6
CONTINUOUS
 62
    7
 10
1231.7385338809579
 20
774.51495755128349
 11
1231.7385338809579
 21
781.18162355128334
  0
LINE
  8
_0-a_極細1
  6
CONTINUOUS
 62
    7
 10
1231.0718672809578
 20
774.51495755128349
 11
1231.0718672809578
 21
781.18162355128334
  0
LINE
  8
_0-a_極細1
  6
CONTINUOUS
 62
    7
 10
1230.4052006809582
 20
774.51495755128349
 11
1230.4052006809582
 21
781.18162355128334
  0
LINE
  8
_0-a_極細1
  6
CONTINUOUS
 62
    7
 10
1229.7385340809581
 20
774.51495755128349
 11
1229.7385340809581
 21
781.18162355128334
  0
LINE
  8
_0-a_極細1
  6
CONTINUOUS
 62
    7
 10
1229.071867480958
 20
774.51495755128349
 11
1229.071867480958
 21
781.18162355128334
  0
LINE
  8
_0-a_極細1
  6
CONTINUOUS
 62
    7
 10
1228.4052008809579
 20
774.51495755128349
 11
1228.4052008809579
 21
781.18162355128334
  0
LINE
  8
_0-a_極細1
  6
CONTINUOUS
 62
    7
 10
1227.7385342809584
 20
774.51495755128349
 11
1227.7385342809584
 21
781.18162355128334
  0
LINE
  8
_0-a_極細1
  6
CONTINUOUS
 62
    7
 10
1227.0718676809577
 20
774.51495755128349
 11
1227.0718676809577
 21
781.18162355128334
  0
LINE
  8
_0-a_極細1
  6
CONTINUOUS
 62
    7
 10
1226.4052010809582
 20
774.51495755128349
 11
1226.4052010809582
 21
781.18162355128334
  0
LINE
  8
_0-a_極細1
  6
CONTINUOUS
 62
    7
 10
1225.7385344809588
 20
767.84829155128352
 11
1225.7385344809588
 21
787.84828955128341
  0
LINE
  8
_0-a_極細1
  6
CONTINUOUS
 62
    7
 10
1225.0718678809592
 20
767.84829155128352
 11
1225.0718678809592
 21
787.84828955128341
  0
LINE
  8
_0-a_極細1
  6
CONTINUOUS
 62
    7
 10
1224.4052012809591
 20
767.84829155128352
 11
1224.4052012809591
 21
770.15956233354825
  0
LINE
  8
_0-a_極細1
  6
CONTINUOUS
 62
    7
 10
1224.4052012809591
 20
774.85088751769069
 11
1224.4052012809591
 21
787.84828955128341
  0
LINE
  8
_0-a_極細1
  6
CONTINUOUS
 62
    7
 10
1223.738534680959
 20
767.84829155128352
 11
1223.738534680959
 21
768.33915594027928
  0
LINE
  8
_0-a_極細1
  6
CONTINUOUS
 62
    7
 10
1223.738534680959
 20
774.85088751769069
 11
1223.738534680959
 21
787.84828955128341
  0
LINE
  8
_0-a_極細1
  6
CONTINUOUS
 62
    7
 10
1223.0718680809589
 20
774.85088751769069
 11
1223.0718680809589
 21
787.84828955128341
  0
LINE
  8
_0-a_極細1
  6
CONTINUOUS
 62
    7
 10
1222.4052014809588
 20
774.85088751769069
 11
1222.4052014809588
 21
787.84828955128341
  0
LINE
  8
_0-a_極細1
  6
CONTINUOUS
 62
    7
 10
1221.7385348809587
 20
774.85088751769069
 11
1221.7385348809587
 21
787.84828955128341
  0
LINE
  8
_0-a_極細1
  6
CONTINUOUS
 62
    7
 10
1221.0718682809586
 20
774.85088751769069
 11
1221.0718682809586
 21
787.84828955128341
  0
LINE
  8
_0-a_極細1
  6
CONTINUOUS
 62
    7
 10
1220.4052016809585
 20
774.85088751769069
 11
1220.4052016809585
 21
787.84828955128341
  0
LINE
  8
_0-a_極細1
  6
CONTINUOUS
 62
    7
 10
1219.7385350809584
 20
774.85088751769069
 11
1219.7385350809584
 21
787.84828955128341
  0
LINE
  8
_0-a_極細1
  6
CONTINUOUS
 62
    7
 10
1219.0718684809583
 20
774.85088751769069
 11
1219.0718684809583
 21
787.84828955128341
  0
LINE
  8
_0-a_極細1
  6
CONTINUOUS
 62
    7
 10
1218.4052018809587
 20
774.85088751769069
 11
1218.4052018809587
 21
787.84828955128341
  0
LINE
  8
_0-a_極細1
  6
CONTINUOUS
 62
    7
 10
1217.7385352809586
 20
774.85088751769069
 11
1217.7385352809586
 21
787.84828955128341
  0
LINE
  8
_0-a_極細1
  6
CONTINUOUS
 62
    7
 10
1217.0718686809585
 20
774.85088751769069
 11
1217.0718686809585
 21
787.84828955128341
  0
LINE
  8
_0-a_極細1
  6
CONTINUOUS
 62
    7
 10
1207.8783123030778
 20
764.85088851769092
 11
1207.8783123030778
 21
774.51495755128349
  0
ARC
  8
_0-a_極細1
  6
CONTINUOUS
 62
    7
 10
1197.8783133030784
 20
774.85088751769069
 40
9.999998999999999
 50
358.07490068720404
 51
50.029499419963059
  0
LINE
  8
_0-a_極細1
  6
CONTINUOUS
 62
    7
 10
1249.4749748100783
 20
825.97607484886805
 11
1253.6679680318091
 21
825.97607484886805
  0
LINE
  8
_0-a_極細1
  6
CONTINUOUS
 62
    7
 10
1249.4749748100783
 20
826.64274144886804
 11
1259.4354674550593
 21
826.64274144886804
  0
LINE
  8
_0-a_極細1
  6
CONTINUOUS
 62
    7
 10
1249.4749748100783
 20
827.30940804886814
 11
1265.2029668783093
 21
827.30940804886814
  0
LINE
  8
_0-a_極細1
  6
CONTINUOUS
 62
    7
 10
1249.4749748100783
 20
827.97607464886823
 11
1270.9704663015596
 21
827.97607464886823
  0
LINE
  8
_0-a_極細1
  6
CONTINUOUS
 62
    7
 10
1249.4749748100783
 20
828.64274124886822
 11
1272.544972503078
 21
828.64274124886822
  0
LINE
  8
_0-a_極細1
  6
CONTINUOUS
 62
    7
 10
1249.4749748100783
 20
829.30940784886832
 11
1272.544972503078
 21
829.30940784886832
  0
LINE
  8
_0-a_極細1
  6
CONTINUOUS
 62
    7
 10
1249.4749748100783
 20
829.97607444886842
 11
1272.544972503078
 21
829.97607444886842
  0
LINE
  8
_0-a_極細1
  6
CONTINUOUS
 62
    7
 10
1250.5375154054566
 20
830.64274104886852
 11
1272.544972503078
 21
830.64274104886852
  0
LINE
  8
_0-a_極細1
  6
CONTINUOUS
 62
    7
 10
1255.2181790799566
 20
831.30940764886816
 11
1272.544972503078
 21
831.30940764886816
  0
LINE
  8
_0-a_極細1
  6
CONTINUOUS
 62
    7
 10
1259.8988427544566
 20
831.97607424886826
 11
1272.544972503078
 21
831.97607424886826
  0
LINE
  8
_0-a_極細1
  6
CONTINUOUS
 62
    7
 10
1264.5795064289562
 20
832.64274084886836
 11
1272.544972503078
 21
832.64274084886836
  0
LINE
  8
_0-a_極細1
  6
CONTINUOUS
 62
    7
 10
1269.2601701034562
 20
833.30940744886846
 11
1272.544972503078
 21
833.30940744886846
  0
LINE
  8
_0-a_極細1
  6
CONTINUOUS
 62
    7
 10
1272.544972503078
 20
833.82473828697152
 11
1272.544972503078
 21
836.1341414382656
  0
LINE
  8
_0-a_極細1
  6
CONTINUOUS
 62
    7
 10
1249.4749748100783
 20
832.84828505128371
 11
1272.544972503078
 21
836.1341414382656
  0
LINE
  8
_0-a_極細1
  6
CONTINUOUS
 62
    7
 10
1227.8783103030776
 20
809.85088401769076
 11
1227.8783103030776
 21
812.84828705128348
  0
LINE
  8
_0-a_極細1
  6
CONTINUOUS
 62
    7
 10
1227.8783103030776
 20
789.51755271769059
 11
1227.8783103030776
 21
794.51755221769031
  0
LINE
  8
_0-a_極細1
  6
CONTINUOUS
 62
    7
 10
1215.378311553078
 20
804.20198791591361
 11
1215.378311553078
 21
799.86865501591365
  0
LINE
  8
_0-a_極細1
  6
CONTINUOUS
 62
    7
 10
1215.378311553078
 20
796.53532201591361
 11
1215.378311553078
 21
794.86865551591359
  0
LINE
  8
_0-a_極細1
  6
CONTINUOUS
 62
    7
 10
1227.3783103530784
 20
804.20198791591361
 11
1227.3783103530784
 21
794.86865551591359
  0
LINE
  8
_0-a_極細1
  6
CONTINUOUS
 62
    7
 10
1213.7116450530777
 20
805.86865441591374
 11
1215.378311553078
 21
807.53532091591353
  0
LINE
  8
_0-a_極細1
  6
CONTINUOUS
 62
    7
 10
1215.378311553078
 20
804.20198791591361
 11
1213.7116450530777
 21
805.86865441591374
  0
LINE
  8
_0-a_極細1
  6
CONTINUOUS
 62
    7
 10
1215.378311553078
 20
796.53532201591361
 11
1213.7116450530777
 21
798.20198851591385
  0
LINE
  8
_0-a_極細1
  6
CONTINUOUS
 62
    7
 10
1213.7116450530777
 20
798.20198851591385
 11
1215.378311553078
 21
799.86865501591365
  0
LINE
  8
_0-a_極細1
  6
CONTINUOUS
 62
    7
 10
1227.3783103530784
 20
804.20198791591361
 11
1230.0449767530779
 21
809.20198741591321
  0
LINE
  8
_0-a_極細1
  6
CONTINUOUS
 62
    7
 10
1215.378311553078
 20
809.20198741591321
 11
1215.378311553078
 21
807.53532091591353
  0
ARC
  8
_0-a_極細1
  6
CONTINUOUS
 62
    7
 10
1236.0449761530783
 20
829.51495205128367
 40
1.6666665000000003
 50
24.05454899999916
 51
89.999999999999915
  0
ARC
  8
_0-a_極細1
  6
CONTINUOUS
 62
    7
 10
1237.0449760530785
 20
825.1816191512836
 40
0.6666665999999621
 50
269.99999999999977
 51
359.99999999999966
  0
ARC
  8
_0-a_極細1
  6
CONTINUOUS
 62
    7
 10
1236.0449761530783
 20
829.51495205128367
 40
1.6666665000000003
 50
0
 51
24.05454899999916
  0
LINE
  8
_0-a_極細1
  6
CONTINUOUS
 62
    7
 10
1230.544976703078
 20
814.51495355128361
 11
1230.5449767030789
 21
824.51495255128395
  0
LINE
  8
_0-a_極細1
  6
CONTINUOUS
 62
    7
 10
1230.5449767030789
 20
824.51495255128395
 11
1237.0449760530785
 21
824.51495255128395
  0
LINE
  8
_0-a_極細1
  6
CONTINUOUS
 62
    7
 10
1237.7116426530786
 20
825.1816191512836
 11
1237.7116426530786
 21
829.51495205128367
  0
LINE
  8
_0-a_極細1
  6
CONTINUOUS
 62
    7
 10
1226.211643803078
 20
774.51495755128349
 11
1244.5449753030773
 21
774.51495755128349
  0
LINE
  8
_0-a_極細1
  6
CONTINUOUS
 62
    7
 10
1223.4443640798061
 20
767.84829155128352
 11
1226.211643803078
 21
767.84829155128352
  0
LINE
  8
_0-a_極細1
  6
CONTINUOUS
 62
    7
 10
1226.211643803078
 20
783.51495665128368
 11
1230.544976703078
 21
783.51495665128368
  0
LINE
  8
_0-a_極細1
  6
CONTINUOUS
 62
    7
 10
1226.211643803078
 20
781.18162355128334
 11
1232.8783098030779
 21
781.18162355128334
  0
LINE
  8
_0-a_極細1
  6
CONTINUOUS
 62
    7
 10
1226.211643803078
 20
767.84829155128352
 11
1226.211643803078
 21
787.84828955128341
  0
LINE
  8
_0-a_極細1
  6
CONTINUOUS
 62
    7
 10
1249.4749748100783
 20
779.44495705828353
 11
1244.5449753030773
 21
774.51495755128349
  0
LINE
  8
_0-a_極細1
  6
CONTINUOUS
 62
    7
 10
1232.8783098030779
 20
781.18162355128334
 11
1232.8783098030783
 21
818.68161980128343
  0
ARC
  8
_0-a_極細1
  6
CONTINUOUS
 62
    7
 10
1236.3783094530784
 20
818.68161980128343
 40
3.4999996500000385
 50
89.999999999999915
 51
179.99999999999983
  0
LINE
  8
_0-a_極細1
  6
CONTINUOUS
 62
    7
 10
1240.3490557226708
 20
822.18161945128384
 11
1236.3783094530784
 21
822.18161945128384
  0
ARC
  8
_0-a_極細1
  6
CONTINUOUS
 62
    7
 10
1240.3490557226708
 20
827.84828555128342
 40
5.6666660999999614
 50
269.99999999999977
 51
356.64911199999869
  0
ARC
  8
_0-a_極細1
  6
CONTINUOUS
 62
    7
 10
1240.3490557226708
 20
827.84828555128342
 40
3.3333330000000005
 50
269.99999999999977
 51
356.64911200000182
  0
ARC
  8
_0-a_極細1
  6
CONTINUOUS
 62
    7
 10
1249.4749748100783
 20
827.01495230128353
 40
5.8333327500000012
 50
89.999999999999915
 51
175.84900999999849
  0
ARC
  8
_0-a_極細1
  6
CONTINUOUS
 62
    7
 10
1236.3783094530784
 20
818.68161980128343
 40
5.8333327500000012
 50
89.999999999999915
 51
179.99999999999983
  0
LINE
  8
_0-a_極細1
  6
CONTINUOUS
 62
    7
 10
1237.8783093030786
 20
824.51495255128395
 11
1237.8783093030786
 21
832.84828505128371
  0
LINE
  8
_0-a_極細1
  6
CONTINUOUS
 62
    7
 10
1230.544976703078
 20
783.51495665128368
 11
1230.544976703078
 21
818.68161980128343
  0
LINE
  8
_0-a_極細1
  6
CONTINUOUS
 62
    7
 10
1240.3490557226708
 20
824.51495255128395
 11
1236.3783094530784
 21
824.51495255128395
  0
LINE
  8
_0-a_極細1
  6
CONTINUOUS
 62
    7
 10
1217.0449780530782
 20
787.84828955128341
 11
1230.544976703078
 21
787.84828955128341
  0
LINE
  8
_0-a_極細1
  6
CONTINUOUS
 62
    7
 10
1272.544972503078
 20
828.15807218697171
 11
1249.4749748100783
 21
825.49140578697177
  0
LINE
  8
_0-a_極細1
  6
CONTINUOUS
 62
    7
 10
1249.4749748100771
 20
762.1580787869716
 11
1244.5449753030773
 21
764.82474518697154
  0
LINE
  8
_0-a_極細1
  6
CONTINUOUS
 62
    7
 10
1244.5449753030773
 20
764.82474518697154
 11
1244.5449753030773
 21
774.51495755128349
  0
LINE
  8
_0-a_極細1
  6
CONTINUOUS
 62
    7
 10
1272.544972503078
 20
783.34221333522487
 11
1272.544972503078
 21
836.08666472744574
  0
LINE
  8
_0-a_極細1
  6
CONTINUOUS
 62
    7
 10
1259.5449738030777
 20
781.49141018697151
 11
1272.544972503078
 21
781.49141018697151
  0
LINE
  8
_0-a_極細1
  6
CONTINUOUS
 62
    7
 10
1272.544972503078
 20
781.49141018697151
 11
1272.544972503078
 21
783.34221333522487
  0
LINE
  8
_0-a_極細1
  6
CONTINUOUS
 62
    7
 10
1259.5449738030777
 20
754.82474618697142
 11
1259.5449738030777
 21
781.49141018697151
  0
LINE
  8
_0-a_極細1
  6
CONTINUOUS
 62
    7
 10
1249.4749748100783
 20
830.49140346613569
 11
1272.544972503078
 21
833.77726162505257
  0
LINE
  8
_0-a_極細1
  6
CONTINUOUS
 62
    7
 10
1249.4749748100783
 20
779.44495705828353
 11
1249.4749748100783
 21
830.51495195128382
  0
ARC
  8
_0-a_極細1
  6
CONTINUOUS
 62
    7
 10
1249.4749748100783
 20
827.01495230128353
 40
3.4999996500000385
 50
89.999999999999915
 51
175.84900999999951
  0
LINE
  8
_0-a_極細1
  6
CONTINUOUS
 62
    7
 10
1217.8783113030779
 20
764.85088851769092
 11
1207.8783123030778
 21
764.85088851769092
  0
ARC
  8
_0-a_極細1
  6
CONTINUOUS
 62
    7
 10
1217.8783113030779
 20
771.51755451769077
 40
6.6666660000000011
 50
269.99999999999977
 51
359.99999999999966
  0
LINE
  8
_0-a_極細1
  6
CONTINUOUS
 62
    7
 10
1224.544977303078
 20
771.51755451769077
 11
1224.544977303078
 21
774.85088751769069
  0
LINE
  8
_0-a_極細1
  6
CONTINUOUS
 62
    7
 10
1224.544977303078
 20
774.85088751769069
 11
1217.0449780530782
 21
774.85088751769069
  0
LINE
  8
_0-a_極細1
  6
CONTINUOUS
 62
    7
 10
1227.8783103030776
 20
789.51755271769059
 11
1217.0449780530782
 21
789.51755271769059
  0
LINE
  8
_0-a_極細1
  6
CONTINUOUS
 62
    7
 10
1217.0449780530782
 20
774.85088751769069
 11
1217.0449780530782
 21
789.51755271769071
  0
LINE
  8
_0-a_極細1
  6
CONTINUOUS
 62
    7
 10
1226.8783104030783
 20
812.84828705128348
 11
1226.8783104030783
 21
816.1816200512834
  0
ARC
  8
_0-a_極細1
  6
CONTINUOUS
 62
    7
 10
1228.8783102030777
 20
814.51495355128361
 40
1.6666665000000003
 50
269.99999999999977
 51
359.99999999999966
  0
CIRCLE
  8
_0-a_極細1
  6
CONTINUOUS
 62
    7
 10
1231.2955761484018
 20
804.23542091858758
 40
62.050673138549151
  0
ARC
  8
_0-a_極細1
  6
CONTINUOUS
 62
    7
 10
1267.8783063030776
 20
740.39099096368079
 40
16.666665000000002
 50
120.00000000000014
 51
161.13978923390172
  0
LINE
  8
_0-a_極細1
  6
CONTINUOUS
 62
    7
 10
1242.8783088030775
 20
743.27538203082645
 11
1242.8783088030775
 21
762.1580787869716
  0
LINE
  8
_0-a_極細1
  6
CONTINUOUS
 62
    7
 10
1258.2257462397704
 20
753.97796290177121
 11
1259.5449738030777
 21
755.2971904650791
  0
LINE
  8
_0-a_極細1
  6
CONTINUOUS
 62
    7
 10
1242.8783088030775
 20
743.3445702015847
 11
1259.5449738030777
 21
760.01123520158467
  0
LINE
  8
_0-a_極細1
  6
CONTINUOUS
 62
    7
 10
1242.8783088030775
 20
745.70159256983766
 11
1259.5449738030777
 21
762.36825756983762
  0
LINE
  8
_0-a_極細1
  6
CONTINUOUS
 62
    7
 10
1242.8783088030775
 20
748.05861493809061
 11
1259.5449738030777
 21
764.72527993809069
  0
LINE
  8
_0-a_極細1
  6
CONTINUOUS
 62
    7
 10
1242.8783088030775
 20
750.41563730634368
 11
1259.5449738030777
 21
767.08230230634342
  0
LINE
  8
_0-a_極細1
  6
CONTINUOUS
 62
    7
 10
1242.8783088030775
 20
752.77265967459641
 11
1259.5449738030777
 21
769.43932467459626
  0
LINE
  8
_0-a_極細1
  6
CONTINUOUS
 62
    7
 10
1271.5970593154527
 20
781.49141018697151
 11
1272.544972503078
 21
782.43932337459637
  0
LINE
  8
_0-a_極細1
  6
CONTINUOUS
 62
    7
 10
1242.8783088030775
 20
755.12968204284903
 11
1259.5449738030777
 21
771.79634704284922
  0
LINE
  8
_0-a_極細1
  6
CONTINUOUS
 62
    7
 10
1269.2400369472
 20
781.49141018697151
 11
1272.5449725030783
 21
784.79634574284944
  0
LINE
  8
_0-a_極細1
  6
CONTINUOUS
 62
    7
 10
1242.8783088030775
 20
757.4867044111021
 11
1247.5496831789471
 21
762.1580787869716
  0
LINE
  8
_0-a_極細1
  6
CONTINUOUS
 62
    7
 10
1248.2255205220383
 20
762.83391613006245
 11
1259.5449738030777
 21
774.1533694111024
  0
LINE
  8
_0-a_極細1
  6
CONTINUOUS
 62
    7
 10
1266.8830145789475
 20
781.49141018697173
 11
1272.544972503078
 21
787.15336811110228
  0
LINE
  8
_0-a_極細1
  6
CONTINUOUS
 62
    7
 10
1242.8783088030775
 20
759.84372677935482
 11
1245.1926608106949
 21
762.15807878697194
  0
LINE
  8
_0-a_極細1
  6
CONTINUOUS
 62
    7
 10
1246.6958864357523
 20
763.66130441202927
 11
1259.5449738030777
 21
776.51039177935502
  0
LINE
  8
_0-a_極細1
  6
CONTINUOUS
 62
    7
 10
1264.5259922106945
 20
781.49141018697151
 11
1272.544972503078
 21
789.51039047935524
  0
LINE
  8
_0-a_極細1
  6
CONTINUOUS
 62
    7
 10
1245.1662523494663
 20
764.48869269399609
 11
1259.5449738030777
 21
778.8674141476082
  0
LINE
  8
_0-a_極細1
  6
CONTINUOUS
 62
    7
 10
1262.1689698424414
 20
781.49141018697151
 11
1272.544972503078
 21
791.86741284760797
  0
LINE
  8
_0-a_極細1
  6
CONTINUOUS
 62
    7
 10
1244.5449753030778
 20
766.22443801586076
 11
1259.5449738030777
 21
781.22443651586093
  0
LINE
  8
_0-a_極細1
  6
CONTINUOUS
 62
    7
 10
1259.8119474741886
 20
781.49141018697151
 11
1272.544972503078
 21
794.22443521586104
  0
LINE
  8
_0-a_極細1
  6
CONTINUOUS
 62
    7
 10
1244.5449753030778
 20
768.5814603841136
 11
1272.544972503078
 21
796.58145758411388
  0
LINE
  8
_0-a_極細1
  6
CONTINUOUS
 62
    7
 10
1244.5449753030778
 20
770.93848275236633
 11
1272.5449725030783
 21
798.93847995236683
  0
LINE
  8
_0-a_極細1
  6
CONTINUOUS
 62
    7
 10
1244.5449753030778
 20
773.29550512061928
 11
1272.5449725030783
 21
801.2955023206199
  0
LINE
  8
_0-a_極細1
  6
CONTINUOUS
 62
    7
 10
1249.4749748100783
 20
780.58252699587285
 11
1272.544972503078
 21
803.65252468887263
  0
LINE
  8
_0-a_極細1
  6
CONTINUOUS
 62
    7
 10
1249.4749748100783
 20
782.93954936412558
 11
1272.544972503078
 21
806.00954705712536
  0
LINE
  8
_0-a_極細1
  6
CONTINUOUS
 62
    7
 10
1249.4749748100783
 20
785.29657173237865
 11
1272.544972503078
 21
808.36656942537843
  0
LINE
  8
_0-a_極細1
  6
CONTINUOUS
 62
    7
 10
1249.4749748100783
 20
787.65359410063172
 11
1272.544972503078
 21
810.72359179363116
  0
LINE
  8
_0-a_極細1
  6
CONTINUOUS
 62
    7
 10
1249.4749748100783
 20
790.01061646888445
 11
1272.5449725030783
 21
813.08061416188423
  0
LINE
  8
_0-a_極細1
  6
CONTINUOUS
 62
    7
 10
1249.4749748100783
 20
792.36763883713729
 11
1272.5449725030783
 21
815.43763653013707
  0
LINE
  8
_0-a_極細1
  6
CONTINUOUS
 62
    7
 10
1249.4749748100783
 20
794.72466120539025
 11
1272.5449725030783
 21
817.79465889839003
  0
LINE
  8
_0-a_極細1
  6
CONTINUOUS
 62
    7
 10
1249.4749748100783
 20
797.08168357364332
 11
1272.544972503078
 21
820.1516812666431
  0
LINE
  8
_0-a_極細1
  6
CONTINUOUS
 62
    7
 10
1249.4749748100783
 20
799.43870594189605
 11
1272.544972503078
 21
822.50870363489582
  0
LINE
  8
_0-a_極細1
  6
CONTINUOUS
 62
    7
 10
1249.4749748100783
 20
801.79572831014889
 11
1272.544972503078
 21
824.86572600314867
  0
LINE
  8
_0-a_極細1
  6
CONTINUOUS
 62
    7
 10
1249.4749748100783
 20
804.15275067840184
 11
1272.5449725030783
 21
827.22274837140162
  0
LINE
  8
_0-a_極細1
  6
CONTINUOUS
 62
    7
 10
1249.4749748100783
 20
806.50977304665446
 11
1270.9374613638659
 21
827.97225960044238
  0
LINE
  8
_0-a_極細1
  6
CONTINUOUS
 62
    7
 10
1249.4749748100783
 20
808.86679541490764
 11
1268.2723818326333
 21
827.66420243746211
  0
LINE
  8
_0-a_極細1
  6
CONTINUOUS
 62
    7
 10
1249.4749748100783
 20
811.22381778316037
 11
1265.6073023013994
 21
827.35614527448195
  0
LINE
  8
_0-a_極細1
  6
CONTINUOUS
 62
    7
 10
1249.4749748100783
 20
813.58084015141344
 11
1262.9422227701668
 21
827.04808811150144
  0
LINE
  8
_0-a_極細1
  6
CONTINUOUS
 62
    7
 10
1249.4749748100783
 20
815.93786251966651
 11
1260.2771432389329
 21
826.74003094852105
  0
LINE
  8
_0-a_極細1
  6
CONTINUOUS
 62
    7
 10
1249.4749748100783
 20
818.2948848879189
 11
1257.6120637076999
 21
826.43197378554078
  0
LINE
  8
_0-a_極細1
  6
CONTINUOUS
 62
    7
 10
1249.4749748100783
 20
820.65190725617185
 11
1254.9469841764671
 21
826.12391662256061
  0
LINE
  8
_0-a_極細1
  6
CONTINUOUS
 62
    7
 10
1249.4749748100783
 20
823.00892962442504
 11
1252.2819046452339
 21
825.81585945958011
  0
LINE
  8
_0-a_極細1
  6
CONTINUOUS
 62
    7
 10
1249.4749748100783
 20
825.36595199267776
 11
1249.6168251140007
 21
825.50780229660006
  0
LINE
  8
_0-a_極細1
  6
CONTINUOUS
 62
    7
 10
1245.7928047183257
 20
743.9020437485799
 11
1259.5449738030777
 21
757.65421283333183
  0
LINE
  8
_0-a_極細1
  6
CONTINUOUS
 62
    7
 10
1249.0169074744697
 20
744.76912413647119
 11
1254.2913343649873
 21
750.0435510269881
  0
LINE
  8
_0-a_極細1
  6
CONTINUOUS
 62
    7
 10
1185.6909347608628
 20
762.1580787869716
 11
1249.4749748100771
 21
762.1580787869716
  0
LINE
  8
_0-a_極細1
  6
CONTINUOUS
 62
    7
 10
1183.367664913668
 20
764.82474518697154
 11
1244.5449753030773
 21
764.82474518697154
  0
LINE
  8
_0-a_極細1
  6
CONTINUOUS
 62
    7
 10
1176.8255835453194
 20
774.51495755128349
 11
1207.8783123030778
 21
774.51495755128349
  0
LINE
  8
_0-a_極細1
  6
CONTINUOUS
 62
    7
 10
1178.0719191324226
 20
836.1341414382656
 11
1272.544972503078
 21
836.1341414382656
  0
LINE
  8
_0-a_極細1
  6
CONTINUOUS
 62
    7
 10
1176.2356992590464
 20
832.84828505128405
 11
1249.4749748100783
 21
832.84828505128371
  0
LINE
  8
_0-a_極細1
  6
CONTINUOUS
 62
    7
 10
1175.4011357264171
 20
831.1816185512838
 11
1236.0449761530783
 21
831.18161855128346
  0
LINE
  8
_0-a_極細1
  6
CONTINUOUS
 62
    7
 10
1170.4057217945845
 20
816.18162005128386
 11
1226.8783104030783
 21
816.1816200512834
  0
LINE
  8
_0-a_極細1
  6
CONTINUOUS
 62
    7
 10
1169.8455592734865
 20
812.84828705128359
 11
1228.8783102030777
 21
812.84828705128348
  0
LINE
  8
_0-a_極細1
  6
CONTINUOUS
 62
    7
 10
1227.8783103030776
 20
809.85088401769076
 11
1169.4995195498639
 21
809.85088401769076
  0
LINE
  8
_0-a_極細1
  6
CONTINUOUS
 62
    7
 10
1169.4439855934713
 20
809.20198741591378
 11
1230.0449767530779
 21
809.20198741591321
  0
LINE
  8
_0-a_極細1
  6
CONTINUOUS
 62
    7
 10
1169.266400873453
 20
805.86865441591385
 11
1213.7116450530777
 21
805.86865441591374
  0
LINE
  8
_0-a_極細1
  6
CONTINUOUS
 62
    7
 10
1169.5389268676201
 20
798.20198851591385
 11
1213.7116450530777
 21
798.20198851591385
  0
LINE
  8
_0-a_極細1
  6
CONTINUOUS
 62
    7
 10
1169.9559499444674
 20
794.86865551591359
 11
1227.3783103530784
 21
794.86865551591359
  0
LINE
  8
_0-a_極細1
  6
CONTINUOUS
 62
    7
 10
1227.8783103030776
 20
794.51755221769031
 11
1170.0105937721357
 21
794.51755221769031
  0
LINE
  8
_0-a_極細1
  6
CONTINUOUS
 62
    7
 10
1217.0449780530782
 20
789.51755271769071
 11
1171.0156425670837
 21
789.51755271769071
  0
LINE
  8
_0-a_極細1
  6
CONTINUOUS
 62
    7
 10
1198.4052038809589
 20
768.84829145128379
 11
1198.4052038809589
 21
774.51495755128349
  0
LINE
  8
_0-a_極細1
  6
CONTINUOUS
 62
    7
 10
1197.7385372809588
 20
768.84829145128379
 11
1197.7385372809588
 21
774.51495755128349
  0
LINE
  8
_0-a_極細1
  6
CONTINUOUS
 62
    7
 10
1197.0718706809587
 20
768.84829145128379
 11
1197.0718706809587
 21
774.51495755128349
  0
LINE
  8
_0-a_極細1
  6
CONTINUOUS
 62
    7
 10
1196.4052040809586
 20
768.84829145128379
 11
1196.4052040809586
 21
774.51495755128349
  0
LINE
  8
_0-a_極細1
  6
CONTINUOUS
 62
    7
 10
1195.7385374809585
 20
768.84829145128379
 11
1195.7385374809585
 21
774.51495755128349
  0
LINE
  8
_0-a_極細1
  6
CONTINUOUS
 62
    7
 10
1195.0718708809584
 20
768.84829145128379
 11
1195.0718708809584
 21
774.51495755128349
  0
LINE
  8
_0-a_極細1
  6
CONTINUOUS
 62
    7
 10
1194.4052042809587
 20
768.84829145128379
 11
1194.4052042809587
 21
774.51495755128349
  0
LINE
  8
_0-a_極細1
  6
CONTINUOUS
 62
    7
 10
1193.7385376809586
 20
768.84829145128379
 11
1193.7385376809586
 21
774.51495755128349
  0
LINE
  8
_0-a_極細1
  6
CONTINUOUS
 62
    7
 10
1193.0718710809585
 20
768.84829145128379
 11
1193.0718710809585
 21
774.51495755128349
  0
LINE
  8
_0-a_極細1
  6
CONTINUOUS
 62
    7
 10
1192.4052044809584
 20
768.84829145128379
 11
1192.4052044809584
 21
774.51495755128349
  0
LINE
  8
_0-a_極細1
  6
CONTINUOUS
 62
    7
 10
1191.7385378809588
 20
768.84829145128379
 11
1191.7385378809588
 21
774.51495755128349
  0
LINE
  8
_0-a_極細1
  6
CONTINUOUS
 62
    7
 10
1191.0718712809582
 20
768.84829145128379
 11
1191.0718712809582
 21
774.51495755128349
  0
LINE
  8
_0-a_極細1
  6
CONTINUOUS
 62
    7
 10
1190.4052046809586
 20
768.84829145128379
 11
1190.4052046809586
 21
774.51495755128349
  0
LINE
  8
_0-a_極細1
  6
CONTINUOUS
 62
    7
 10
1189.7385380809585
 20
768.84829145128379
 11
1189.7385380809585
 21
774.51495755128349
  0
LINE
  8
_0-a_極細1
  6
CONTINUOUS
 62
    7
 10
1189.0718714809584
 20
768.84829145128379
 11
1189.0718714809584
 21
774.51495755128349
  0
LINE
  8
_0-a_極細1
  6
CONTINUOUS
 62
    7
 10
1188.4052048809583
 20
768.84829145128379
 11
1188.4052048809583
 21
774.51495755128349
  0
LINE
  8
_0-a_極細1
  6
CONTINUOUS
 62
    7
 10
1187.7385382809582
 20
768.84829145128379
 11
1187.7385382809582
 21
774.51495755128349
  0
LINE
  8
_0-a_極細1
  6
CONTINUOUS
 62
    7
 10
1187.0718716809581
 20
768.84829145128379
 11
1187.0718716809581
 21
774.51495755128349
  0
LINE
  8
_0-a_極細1
  6
CONTINUOUS
 62
    7
 10
1186.4052050809585
 20
768.84829145128379
 11
1186.4052050809585
 21
774.51495755128349
  0
LINE
  8
_0-a_極細1
  6
CONTINUOUS
 62
    7
 10
1185.7385384809584
 20
768.84829145128379
 11
1185.7385384809584
 21
774.51495755128349
  0
LINE
  8
_0-a_極細1
  6
CONTINUOUS
 62
    7
 10
1185.0718718809583
 20
768.84829145128379
 11
1185.0718718809583
 21
774.51495755128349
  0
LINE
  8
_0-a_極細1
  6
CONTINUOUS
 62
    7
 10
1184.4052052809582
 20
768.84829145128379
 11
1184.4052052809582
 21
774.51495755128349
  0
LINE
  8
_0-a_極細1
  6
CONTINUOUS
 62
    7
 10
1183.7385386809581
 20
768.84829145128379
 11
1183.7385386809581
 21
774.51495755128349
  0
LINE
  8
_0-a_極細1
  6
CONTINUOUS
 62
    7
 10
1183.071872080958
 20
768.84829145128379
 11
1183.071872080958
 21
774.51495755128349
  0
LINE
  8
_0-a_極細1
  6
CONTINUOUS
 62
    7
 10
1182.4052054809586
 20
768.84829145128379
 11
1182.4052054809586
 21
774.51495755128349
  0
LINE
  8
_0-a_極細1
  6
CONTINUOUS
 62
    7
 10
1198.8326898743069
 20
768.84829145128379
 11
1198.8326898743069
 21
774.51495755128349
  0
LINE
  8
_0-a_極細1
  6
CONTINUOUS
 62
    7
 10
1182.1660248743067
 20
768.84829145128379
 11
1182.1660248743067
 21
774.51495755128349
  0
LINE
  8
_0-a_極細1
  6
CONTINUOUS
 62
    7
 10
1182.1660248743067
 20
768.84829145128379
 11
1198.8326898743069
 21
768.84829145128379
  0
ARC
  8
_0-a_極細1
  6
CONTINUOUS
 62
    7
 10
1192.8783138030778
 20
766.09837505960877
 40
19.999997999999998
 50
55.166292356154557
 51
148.68484545273043
  0
LINE
  8
_0-a_極細1
  6
CONTINUOUS
 62
    7
 10
1207.8351000160872
 20
774.51495755128349
 11
1207.8351000160872
 21
775.77953080316161
  0
LINE
  8
_0-a_極細1
  6
CONTINUOUS
 62
    7
 10
1206.8351000160872
 20
774.51495755128349
 11
1206.8351000160872
 21
779.29790357091872
  0
LINE
  8
_0-a_極細1
  6
CONTINUOUS
 62
    7
 10
1205.8351000160872
 20
774.51495755128349
 11
1205.8351000160872
 21
780.90807541337995
  0
LINE
  8
_0-a_極細1
  6
CONTINUOUS
 62
    7
 10
1204.8351000160872
 20
774.51495755128349
 11
1204.8351000160872
 21
782.03441719534248
  0
LINE
  8
_0-a_極細1
  6
CONTINUOUS
 62
    7
 10
1203.8351000160874
 20
774.51495755128349
 11
1203.8351000160874
 21
782.83004430934045
  0
LINE
  8
_0-a_極細1
  6
CONTINUOUS
 62
    7
 10
1202.8351000160872
 20
774.51495755128349
 11
1202.8351000160872
 21
783.44375854653208
  0
LINE
  8
_0-a_極細1
  6
CONTINUOUS
 62
    7
 10
1201.8351000160872
 20
774.51495755128349
 11
1201.8351000160872
 21
783.98065401768486
  0
LINE
  8
_0-a_極細1
  6
CONTINUOUS
 62
    7
 10
1200.8351000160872
 20
774.51495755128349
 11
1200.8351000160872
 21
784.44747512365768
  0
LINE
  8
_0-a_極細1
  6
CONTINUOUS
 62
    7
 10
1199.8351000160872
 20
774.51495755128349
 11
1199.8351000160872
 21
784.84945624407624
  0
LINE
  8
_0-a_極細1
  6
CONTINUOUS
 62
    7
 10
1198.8351000160874
 20
774.51495755128349
 11
1198.8351000160874
 21
785.19069335814208
  0
LINE
  8
_0-a_極細1
  6
CONTINUOUS
 62
    7
 10
1197.8351000160872
 20
774.51495755128349
 11
1197.8351000160872
 21
785.47439607628121
  0
LINE
  8
_0-a_極細1
  6
CONTINUOUS
 62
    7
 10
1196.8351000160872
 20
774.51495755128349
 11
1196.8351000160872
 21
785.70306232731468
  0
LINE
  8
_0-a_極細1
  6
CONTINUOUS
 62
    7
 10
1195.8351000160872
 20
774.51495755128349
 11
1195.8351000160872
 21
785.87860092511801
  0
LINE
  8
_0-a_極細1
  6
CONTINUOUS
 62
    7
 10
1194.8351000160872
 20
774.51495755128349
 11
1194.8351000160872
 21
786.00241755646323
  0
LINE
  8
_0-a_極細1
  6
CONTINUOUS
 62
    7
 10
1193.8351000160874
 20
774.51495755128349
 11
1193.8351000160874
 21
786.07547395165511
  0
LINE
  8
_0-a_極細1
  6
CONTINUOUS
 62
    7
 10
1192.8351000160872
 20
774.51495755128349
 11
1192.8351000160872
 21
786.09832637376485
  0
LINE
  8
_0-a_極細1
  6
CONTINUOUS
 62
    7
 10
1191.8351000160872
 20
774.51495755128349
 11
1191.8351000160872
 21
786.07114715049875
  0
LINE
  8
_0-a_極細1
  6
CONTINUOUS
 62
    7
 10
1190.8351000160867
 20
774.51495755128349
 11
1190.8351000160867
 21
785.9937312368844
  0
LINE
  8
_0-a_極細1
  6
CONTINUOUS
 62
    7
 10
1189.8351000160867
 20
774.51495755128349
 11
1189.8351000160867
 21
785.86548840088028
  0
LINE
  8
_0-a_極細1
  6
CONTINUOUS
 62
    7
 10
1188.8351000160867
 20
774.51495755128349
 11
1188.8351000160867
 21
785.68542032612856
  0
LINE
  8
_0-a_極細1
  6
CONTINUOUS
 62
    7
 10
1187.8351000160867
 20
774.51495755128349
 11
1187.8351000160867
 21
785.45208051098712
  0
LINE
  8
_0-a_極細1
  6
CONTINUOUS
 62
    7
 10
1186.8351000160869
 20
774.51495755128349
 11
1186.8351000160869
 21
785.16351306395393
  0
LINE
  8
_0-a_極細1
  6
CONTINUOUS
 62
    7
 10
1185.8351000160867
 20
774.51495755128349
 11
1185.8351000160867
 21
784.81716400416246
  0
LINE
  8
_0-a_極細1
  6
CONTINUOUS
 62
    7
 10
1184.8351000160867
 20
774.51495755128349
 11
1184.8351000160867
 21
784.40975490867447
  0
LINE
  8
_0-a_極細1
  6
CONTINUOUS
 62
    7
 10
1183.8351000160867
 20
774.51495755128349
 11
1183.8351000160867
 21
783.93710271610871
  0
LINE
  8
_0-a_極細1
  6
CONTINUOUS
 62
    7
 10
1182.8351000160867
 20
774.51495755128349
 11
1182.8351000160867
 21
783.39385934970005
  0
LINE
  8
_0-a_極細1
  6
CONTINUOUS
 62
    7
 10
1181.8351000160869
 20
774.51495755128349
 11
1181.8351000160869
 21
782.77312690948088
  0
LINE
  8
_0-a_極細1
  6
CONTINUOUS
 62
    7
 10
1180.8351000160867
 20
774.51495755128349
 11
1180.8351000160867
 21
782.06587084576256
  0
LINE
  8
_0-a_極細1
  6
CONTINUOUS
 62
    7
 10
1179.8351000160867
 20
774.51495755128349
 11
1179.8351000160867
 21
781.25998757631862
  0
LINE
  8
_0-a_極細1
  6
CONTINUOUS
 62
    7
 10
1178.8351000160867
 20
774.51495755128349
 11
1178.8351000160867
 21
780.33874255953208
  0
LINE
  8
_0-a_極細1
  6
CONTINUOUS
 62
    7
 10
1177.8351000160867
 20
774.51495755128349
 11
1177.8351000160867
 21
779.2779668195567
  0
LINE
  8
_0-a_極細1
  6
CONTINUOUS
 62
    7
 10
1176.8351000160869
 20
774.51495755128349
 11
1176.8351000160869
 21
778.04053614481052
  0
LINE
  8
_0-a_極細1
  6
CONTINUOUS
 62
    7
 10
1175.8351000160867
 20
776.40698898065716
 11
1175.8351000160867
 21
776.56397508115163
  0
LINE
  8
_0-d_寸法1
  6
CONTINUOUS
 62
    7
 10
1265.9002937719717
 20
829.82814259183397
 11
1269.9822093338944
 21
838.95710558580731
  0
LINE
  8
_0-d_寸法1
  6
CONTINUOUS
 62
    7
 10
1265.9002937719717
 20
829.82814259183397
 11
1273.9998178416865
 21
835.69309867386153
  0
LINE
  8
_0-d_寸法1
  6
CONTINUOUS
 62
    7
 10
1265.9002937719717
 20
829.82814259183397
 11
1286.3582315342783
 21
855.00945716102478
  0
LINE
  8
_0-d_寸法1
  6
CONTINUOUS
 62
    7
 10
1286.3582315342783
 20
855.00945716102478
 11
1334.3582315342778
 21
855.00945716102478
  0
TEXT
  8
_0-d_寸法1
 62
    7
 10
1286.3582315342783
 20
855.00945716102478
 40
15
 41
0.8000000000000001
 50
0
  1
パッキン
  0
LINE
  8
_0-d_寸法1
  6
CONTINUOUS
 62
    7
 10
1222.863411464652
 20
799.38191756910896
 11
1229.9344438911228
 21
792.31081437202624
  0
LINE
  8
_0-d_寸法1
  6
CONTINUOUS
 62
    7
 10
1222.863411464652
 20
799.38191756910896
 11
1225.451553578418
 21
789.72264635441832
  0
LINE
  8
_0-d_寸法1
  6
CONTINUOUS
 62
    7
 10
1222.863411464652
 20
799.38191756910896
 11
1260.2687266255846
 21
734.5932624903661
  0
LINE
  8
_0-d_寸法1
  6
CONTINUOUS
 62
    7
 10
1260.2687266255846
 20
734.5932624903661
 11
1380.2687266255843
 21
734.5932624903661
  0
TEXT
  8
_0-d_寸法1
 62
    7
 10
1260.2687266255846
 20
734.5932624903661
 40
15
 41
0.8000000000000001
 50
0
  1
防臭インナーパッキン
  0
LINE
  8
_0-d_寸法1
  6
CONTINUOUS
 62
    7
 10
1265.2132964158222
 20
786.24220533721655
 11
1272.2846923079251
 21
779.17146562081143
  0
LINE
  8
_0-d_寸法1
  6
CONTINUOUS
 62
    7
 10
1265.2132964158222
 20
786.24220533721655
 11
1267.8019350403977
 21
776.58306717321068
  0
LINE
  8
_0-d_寸法1
  6
CONTINUOUS
 62
    7
 10
1265.2132964158222
 20
786.24220533721655
 11
1283.8863594344398
 21
753.90297679561047
  0
LINE
  8
_0-d_寸法1
  6
CONTINUOUS
 62
    7
 10
1283.8863594344398
 20
753.90297679561047
 11
1367.8863594344398
 21
753.90297679561047
  0
TEXT
  8
_0-d_寸法1
 62
    7
 10
1283.8863594344398
 20
753.90297679561047
 40
15
 41
0.8000000000000001
 50
0
  1
ロックフランジ
  0
LINE
  8
_0-5_寸法線
  6
CONTINUOUS
 62
    7
 10
432.15882911398649
 20
530.76475899176194
 11
432.15882911398649
 21
485.76475899176194
  0
LINE
  8
_0-5_寸法線
  6
CONTINUOUS
 62
    7
 10
432.15882911398649
 20
490.76475899176194
 11
441.8180873768772
 21
493.35294944278712
  0
LINE
  8
_0-5_寸法線
  6
CONTINUOUS
 62
    7
 10
432.15882911398649
 20
490.76475899176194
 11
441.8180873768772
 21
488.17656854073675
  0
LINE
  8
_0-5_寸法線
  6
CONTINUOUS
 62
    7
 10
504.15882911398654
 20
530.76475899176194
 11
504.15882911398654
 21
485.76475899176194
  0
LINE
  8
_0-5_寸法線
  6
CONTINUOUS
 62
    7
 10
504.15882911398654
 20
490.76475899176194
 11
494.49957085109583
 21
488.17656854073675
  0
LINE
  8
_0-5_寸法線
  6
CONTINUOUS
 62
    7
 10
504.15882911398654
 20
490.76475899176194
 11
494.49957085109588
 21
493.35294944278724
  0
LINE
  8
_0-5_寸法線
  6
CONTINUOUS
 62
    7
 10
432.15882911398649
 20
490.76475899176194
 11
504.15882911398654
 21
490.76475899176194
  0
TEXT
  8
_0-5_寸法線
 62
    7
 10
460.65882911398654
 20
490.76475899176194
 40
15
 41
1
 50
0
  1
72
  0
LINE
  8
_0-5_寸法線
  6
CONTINUOUS
 62
    7
 10
504.15882911398654
 20
490.76475899176194
 11
513.8180873768772
 21
493.35294944278706
  0
LINE
  8
_0-5_寸法線
  6
CONTINUOUS
 62
    7
 10
504.15882911398654
 20
490.76475899176194
 11
513.8180873768772
 21
488.17656854073675
  0
LINE
  8
_0-5_寸法線
  6
CONTINUOUS
 62
    7
 10
576.15882911398649
 20
530.76475899176194
 11
576.15882911398649
 21
485.76475899176194
  0
LINE
  8
_0-5_寸法線
  6
CONTINUOUS
 62
    7
 10
576.15882911398649
 20
490.76475899176194
 11
566.49957085109577
 21
488.17656854073675
  0
LINE
  8
_0-5_寸法線
  6
CONTINUOUS
 62
    7
 10
576.15882911398649
 20
490.76475899176194
 11
566.49957085109577
 21
493.35294944278724
  0
LINE
  8
_0-5_寸法線
  6
CONTINUOUS
 62
    7
 10
504.15882911398654
 20
490.76475899176194
 11
576.15882911398649
 21
490.76475899176194
  0
TEXT
  8
_0-5_寸法線
 62
    7
 10
532.65882911398637
 20
490.76475899176194
 40
15
 41
1
 50
0
  1
72
  0
LINE
  8
_0-0_計極細
  6
CENTER2
 62
    2
 10
421.41609387866595
 20
612.76475899176194
 11
591.66963161451508
 21
612.76475899176194
  0
LINE
  8
_0-0_計極細
  6
CENTER2
 62
    2
 10
658.13515097378558
 20
612.76475899176194
 11
711.94182820643573
 21
612.76475899176194
  0
ARC
  8
_0-1_計細線
  6
CONTINUOUS
 62
    3
 10
542.77567514956331
 20
627.39397197053552
 40
0.501740082747087
 50
330.00000000003996
 51
20.189990999990084
  0
ARC
  8
_0-1_計細線
  6
CONTINUOUS
 62
    3
 10
542.77567514956331
 20
598.99436219452639
 40
0.501740082747087
 50
339.81000900000919
 51
29.999999999959307
  0
LINE
  8
_0-1_計細線
  6
CONTINUOUS
 62
    3
 10
505.46448162336196
 20
615.45200648625018
 11
504.16091352794666
 21
617.7098458899693
  0
LINE
  8
_0-1_計細線
  6
CONTINUOUS
 62
    3
 10
505.46448162336196
 20
615.45200648625018
 11
508.07161179328864
 21
615.45200648625018
  0
LINE
  8
_0-1_計細線
  6
CONTINUOUS
 62
    3
 10
505.46448162336196
 20
615.45200648625018
 11
545.74425831395251
 21
615.45200648625018
  0
LINE
  8
_0-1_計細線
  6
CONTINUOUS
 62
    3
 10
505.46448162336196
 20
610.93632767881093
 11
545.74425831395251
 21
610.93632767881093
  0
ARC
  8
_0-1_計細線
  6
CONTINUOUS
 62
    3
 10
504.16091352794666
 20
613.19416708253004
 40
46.4111412917104
 50
269.99999999999977
 51
89.999999999999545
  0
ARC
  8
_0-1_計細線
  6
CONTINUOUS
 62
    3
 10
504.16091352794666
 20
613.19416708253004
 40
57.198598227560836
 50
269.99999999999977
 51
89.999999999999545
  0
ARC
  8
_0-1_計細線
  6
CONTINUOUS
 62
    3
 10
504.16091352794666
 20
613.19416708253004
 40
41.644595453350377
 50
269.99999999999977
 51
356.8920785890931
  0
ARC
  8
_0-1_計細線
  6
CONTINUOUS
 62
    3
 10
504.16091352794666
 20
613.19416708253004
 40
41.644595453350377
 50
3.1079214109077964
 51
89.999999999999915
  0
ARC
  8
_0-0_計極細
  6
CONTINUOUS
 62
    2
 10
504.16091352794666
 20
613.19416708253004
 40
50.153133796808191
 50
269.99999999999977
 51
89.999999999999545
  0
ARC
  8
_0-0_計極細
  6
CONTINUOUS
 62
    2
 10
504.45059733389536
 20
607.17326200594391
 40
1.0034861863992508
 50
29.999999999951111
 51
106.77865499997519
  0
ARC
  8
_0-0_計極細
  6
CONTINUOUS
 62
    2
 10
504.16091352794666
 20
613.19416708253004
 40
37.630656728658437
 50
317.45760300000074
 51
327.38710799999916
  0
ARC
  8
_0-0_計極細
  6
CONTINUOUS
 62
    2
 10
504.16091352794666
 20
613.19416708253004
 40
37.630656728658437
 50
32.612892000001082
 51
42.54239699999939
  0
LINE
  8
_0-0_計極細
  6
CONTINUOUS
 62
    2
 10
539.33513129893413
 20
593.91522902730469
 11
530.37704207793354
 21
609.43110140966621
  0
LINE
  8
_0-0_計極細
  6
CONTINUOUS
 62
    2
 10
537.92830468145507
 20
589.32753417424385
 11
525.59730443654985
 21
610.68545462698444
  0
LINE
  8
_0-0_計極細
  6
CONTINUOUS
 62
    2
 10
533.30636894122358
 20
585.29114951542635
 11
519.36916582813478
 21
609.43110140966621
  0
LINE
  8
_0-0_計極細
  6
CONTINUOUS
 62
    2
 10
539.33513129893413
 20
632.47310513775676
 11
530.37704207793354
 21
616.95723275539626
  0
LINE
  8
_0-0_計極細
  6
CONTINUOUS
 62
    2
 10
537.92830468145507
 20
637.06079999081715
 11
525.59730443654985
 21
615.70287953807622
  0
LINE
  8
_0-0_計極細
  6
CONTINUOUS
 62
    2
 10
533.30636894122358
 20
641.09717862873072
 11
519.36916582813478
 21
616.95723275539626
  0
LINE
  8
_0-0_計極細
  6
CONTINUOUS
 62
    2
 10
531.14325041616917
 20
582.01339889626047
 11
514.58942818675109
 21
610.68545462698444
  0
LINE
  8
_0-0_計極細
  6
CONTINUOUS
 62
    2
 10
525.95539776598048
 20
578.95721156300453
 11
508.36128957833517
 21
609.43110140966621
  0
LINE
  8
_0-0_計極細
  6
CONTINUOUS
 62
    2
 10
522.91374489758141
 20
577.20111826293771
 11
505.319642730841
 21
607.67500208869262
  0
ARC
  8
_0-0_計極細
  6
CONTINUOUS
 62
    2
 10
504.16091352794666
 20
613.19416708253004
 40
37.630656728658437
 50
272.61289199999942
 51
282.54239699999982
  0
ARC
  8
_0-0_計極細
  6
CONTINUOUS
 62
    2
 10
508.38085149892845
 20
572.26830513088646
 40
0.501740082747087
 50
210.00000000000426
 51
275.88706199997517
  0
ARC
  8
_0-0_計極細
  6
CONTINUOUS
 62
    2
 10
504.16091352794666
 20
613.19416708253004
 40
37.630656728658437
 50
288.07291800000053
 51
297.3252259999997
  0
ARC
  8
_0-0_計極細
  6
CONTINUOUS
 62
    2
 10
504.16091352794666
 20
613.19416708253004
 40
27.094072844634091
 50
283.31934900000118
 51
296.2837799999993
  0
ARC
  8
_0-0_計極細
  6
CONTINUOUS
 62
    2
 10
518.10760558743618
 20
574.4872675505286
 40
0.501740082747087
 50
210.00000000010814
 51
289.81487200010849
  0
ARC
  8
_0-0_計極細
  6
CONTINUOUS
 62
    2
 10
512.88386232208609
 20
573.50021241408206
 40
1.0034861863992508
 50
282.39403400005705
 51
30.000000000002665
  0
ARC
  8
_0-0_計極細
  6
CONTINUOUS
 62
    2
 10
504.16091352794666
 20
613.19416708253004
 40
37.630656728658437
 50
302.67477399999865
 51
311.92708199999919
  0
ARC
  8
_0-0_計極細
  6
CONTINUOUS
 62
    2
 10
526.8244371420185
 20
579.45895766665728
 40
1.0034861863992508
 50
210.00000000002515
 51
303.89345000001418
  0
ARC
  8
_0-0_計極細
  6
CONTINUOUS
 62
    2
 10
530.70872771769677
 20
581.76252584443466
 40
0.501740082747087
 50
310.18512800003361
 51
29.999999999907399
  0
ARC
  8
_0-0_計極細
  6
CONTINUOUS
 62
    2
 10
522.04470552154248
 20
576.69937215928496
 40
1.0034861863992508
 50
296.10655000002453
 51
29.999999999999204
  0
ARC
  8
_0-0_計極細
  6
CONTINUOUS
 62
    2
 10
504.16091352794666
 20
613.19416708253004
 40
37.630656728658437
 50
77.457603000000148
 51
87.387108000000282
  0
ARC
  8
_0-0_計極細
  6
CONTINUOUS
 62
    2
 10
504.16091352794666
 20
613.19416708253004
 40
37.630656728658437
 50
77.457603000000148
 51
87.387108000000282
  0
ARC
  8
_0-0_計極細
  6
CONTINUOUS
 62
    2
 10
509.23033497527996
 20
609.93284149241265
 40
1.0034861863992508
 50
89.999999999999915
 51
209.9999999999992
  0
ARC
  8
_0-0_計極細
  6
CONTINUOUS
 62
    2
 10
509.23033497527996
 20
616.45549267265073
 40
1.0034861863992508
 50
150.00000000000043
 51
269.99999999999977
  0
ARC
  8
_0-0_計極細
  6
CONTINUOUS
 62
    2
 10
508.38085149892845
 20
654.12002903417272
 40
0.501740082747087
 50
84.112938000024442
 51
150.00000000004033
  0
LINE
  8
_0-0_計極細
  6
CONTINUOUS
 62
    2
 10
522.91374489758141
 20
649.18721590212431
 11
505.319642730841
 21
618.71333207636928
  0
LINE
  8
_0-0_計極細
  6
CONTINUOUS
 62
    2
 10
505.66613979709359
 20
619.31348987349895
 11
505.66613979709359
 21
631.3553000266686
  0
LINE
  8
_0-0_計極細
  6
CONTINUOUS
 62
    2
 10
506.16788590074498
 20
620.18253527044158
 11
506.16788590074498
 21
632.22434542361373
  0
LINE
  8
_0-0_計極細
  6
CONTINUOUS
 62
    2
 10
505.66613979709359
 20
595.03303413839251
 11
505.66613979709359
 21
607.07484429156443
  0
LINE
  8
_0-0_計極細
  6
CONTINUOUS
 62
    2
 10
506.16788590074498
 20
594.16398874144966
 11
506.16788590074498
 21
606.20579889461953
  0
ARC
  8
_0-0_計極細
  6
CONTINUOUS
 62
    2
 10
504.45059733389536
 20
619.21507215911663
 40
1.0034861863992508
 50
253.22134500003193
 51
330.00000000002603
  0
ARC
  8
_0-0_計極細
  6
CONTINUOUS
 62
    2
 10
504.16091352794666
 20
613.19416708253004
 40
27.094072844634091
 50
84.624317999999832
 51
89.999999999999915
  0
ARC
  8
_0-0_計極細
  6
CONTINUOUS
 62
    2
 10
504.16091352794666
 20
613.19416708253004
 40
27.094072844634091
 50
20.290983000001571
 51
35.37568200000068
  0
LINE
  8
_0-0_計極細
  6
CONTINUOUS
 62
    2
 10
531.14325041616917
 20
644.37493526880291
 11
514.58942818675109
 21
615.70287953807622
  0
LINE
  8
_0-0_計極細
  6
CONTINUOUS
 62
    2
 10
525.95539776598048
 20
647.43112260205692
 11
508.36128957833517
 21
616.95723275539626
  0
ARC
  8
_0-0_計極細
  6
CONTINUOUS
 62
    2
 10
504.16091352794666
 20
613.19416708253004
 40
27.094072844634091
 50
303.71622000000156
 51
316.68065099999922
  0
ARC
  8
_0-0_計極細
  6
CONTINUOUS
 62
    2
 10
520.23820520417189
 20
609.93284149241265
 40
1.0034861863992508
 50
89.999999999999915
 51
210.00000000002515
  0
ARC
  8
_0-0_計極細
  6
CONTINUOUS
 62
    2
 10
514.15490548827961
 20
610.43458759606449
 40
0.501740082747087
 50
30.0000000001085
 51
89.999999999999915
  0
ARC
  8
_0-0_計極細
  6
CONTINUOUS
 62
    2
 10
520.23820520417189
 20
616.45549267265073
 40
1.0034861863992508
 50
149.99999999997448
 51
269.99999999999977
  0
ARC
  8
_0-0_計極細
  6
CONTINUOUS
 62
    2
 10
514.15490548827961
 20
615.95374656899742
 40
0.501740082747087
 50
269.99999999999977
 51
329.99999999989114
  0
ARC
  8
_0-0_計極細
  6
CONTINUOUS
 62
    2
 10
504.16091352794666
 20
613.19416708253004
 40
27.094072844634091
 50
324.62431799999973
 51
339.7090169999999
  0
ARC
  8
_0-0_計極細
  6
CONTINUOUS
 62
    2
 10
504.16091352794666
 20
613.19416708253004
 40
27.094072844634091
 50
350.22103899999934
 51
355.21980800000068
  0
ARC
  8
_0-0_計極細
  6
CONTINUOUS
 62
    2
 10
504.16091352794666
 20
613.19416708253004
 40
27.094072844634091
 50
4.7801919999998796
 51
9.778961000001221
  0
ARC
  8
_0-0_計極細
  6
CONTINUOUS
 62
    2
 10
531.24608145397156
 20
609.93284149241265
 40
1.0034861863992508
 50
89.999999999999915
 51
210.00000000002515
  0
ARC
  8
_0-0_計極細
  6
CONTINUOUS
 62
    2
 10
525.16278173807837
 20
610.43458759606449
 40
0.501740082747087
 50
30.000000000056566
 51
89.999999999999915
  0
ARC
  8
_0-0_計極細
  6
CONTINUOUS
 62
    2
 10
531.24608145397156
 20
616.45549267265073
 40
1.0034861863992508
 50
149.99999999997448
 51
269.99999999999977
  0
ARC
  8
_0-0_計極細
  6
CONTINUOUS
 62
    2
 10
525.16278173807837
 20
615.95374656899742
 40
0.501740082747087
 50
269.99999999999977
 51
329.9999999999431
  0
ARC
  8
_0-0_計極細
  6
CONTINUOUS
 62
    2
 10
504.16091352794666
 20
613.19416708253004
 40
27.094072844634091
 50
43.319349000001104
 51
56.28377999999919
  0
ARC
  8
_0-0_計極細
  6
CONTINUOUS
 62
    2
 10
504.16091352794666
 20
613.19416708253004
 40
37.630656728658437
 50
62.674774000000312
 51
71.927081999999317
  0
ARC
  8
_0-0_計極細
  6
CONTINUOUS
 62
    2
 10
504.16091352794666
 20
613.19416708253004
 40
27.094072844634091
 50
63.716220000000746
 51
76.680650999998889
  0
ARC
  8
_0-0_計極細
  6
CONTINUOUS
 62
    2
 10
518.10760558743618
 20
651.90106661453285
 40
0.501740082747087
 50
70.185127999891137
 51
149.99999999993648
  0
ARC
  8
_0-0_計極細
  6
CONTINUOUS
 62
    2
 10
512.88386232208609
 20
652.88812175097985
 40
1.0034861863992508
 50
329.99999999999665
 51
77.605965999942228
  0
ARC
  8
_0-0_計極細
  6
CONTINUOUS
 62
    2
 10
504.16091352794666
 20
613.19416708253004
 40
37.630656728658437
 50
48.072918000001373
 51
57.325226000001372
  0
ARC
  8
_0-0_計極細
  6
CONTINUOUS
 62
    2
 10
526.8244371420185
 20
646.92937649840519
 40
1.0034861863992508
 50
56.106549999971008
 51
149.99999999999699
  0
ARC
  8
_0-0_計極細
  6
CONTINUOUS
 62
    2
 10
530.70872771769677
 20
644.6258022997232
 40
0.501740082747087
 50
330.00000000009186
 51
49.814871999965682
  0
ARC
  8
_0-0_計極細
  6
CONTINUOUS
 62
    2
 10
522.04470552154248
 20
649.68896200577558
 40
1.0034861863992508
 50
330.00000000000011
 51
63.893449999974756
  0
ARC
  8
_0-0_計極細
  6
CONTINUOUS
 62
    2
 10
534.17541433816655
 20
585.7928956190791
 40
1.0034861863992508
 50
210.00000000002515
 51
317.6059660000256
  0
ARC
  8
_0-0_計極細
  6
CONTINUOUS
 62
    2
 10
537.49378800388672
 20
589.07666112241816
 40
0.501740082747087
 50
324.11293799996702
 51
29.999999999959307
  0
ARC
  8
_0-0_計極細
  6
CONTINUOUS
 62
    2
 10
504.16091352794666
 20
613.19416708253004
 40
37.630656728658437
 50
14.493223999999607
 51
26.404005000000534
  0
LINE
  8
_0-0_計極細
  6
CONTINUOUS
 62
    2
 10
543.2101978480348
 20
627.14310493961523
 11
536.60518068634951
 21
615.70287953807622
  0
ARC
  8
_0-0_計極細
  6
CONTINUOUS
 62
    2
 10
544.244450859376
 20
606.48521103650842
 40
1.0034861863992508
 50
209.99999999997672
 51
350.4982300000064
  0
ARC
  8
_0-0_計極細
  6
CONTINUOUS
 62
    2
 10
544.244450859376
 20
619.90312312855372
 40
1.0034861863992508
 50
9.5017699999932326
 51
150.00000000000043
  0
ARC
  8
_0-0_計極細
  6
CONTINUOUS
 62
    2
 10
504.16091352794666
 20
613.19416708253004
 40
37.630656728658437
 50
3.6803540000001762
 51
6.228477000000372
  0
ARC
  8
_0-0_計極細
  6
CONTINUOUS
 62
    2
 10
504.16091352794666
 20
613.19416708253004
 40
37.630656728658437
 50
353.77152300000063
 51
356.31964600000015
  0
ARC
  8
_0-0_計極細
  6
CONTINUOUS
 62
    2
 10
504.16091352794666
 20
613.19416708253004
 40
37.630656728658437
 50
333.59599499999973
 51
345.50677600000074
  0
ARC
  8
_0-0_計極細
  6
CONTINUOUS
 62
    2
 10
540.20417669587891
 20
594.41696911005158
 40
1.0034861863992508
 50
209.99999999997672
 51
332.48216400001218
  0
ARC
  8
_0-0_計極細
  6
CONTINUOUS
 62
    2
 10
542.25395770377031
 20
609.93284149241265
 40
1.0034861863992508
 50
89.999999999999915
 51
210.00000000002515
  0
ARC
  8
_0-0_計極細
  6
CONTINUOUS
 62
    2
 10
536.17065798787712
 20
610.43458759606449
 40
0.501740082747087
 50
30.000000000004636
 51
89.999999999999915
  0
LINE
  8
_0-0_計極細
  6
CONTINUOUS
 62
    2
 10
543.37540546243122
 20
605.98347095376187
 11
541.38491832773229
 21
609.43110140966621
  0
LINE
  8
_0-0_計極細
  6
CONTINUOUS
 62
    2
 10
543.2101978480348
 20
599.24522922544759
 11
536.60518068634951
 21
610.68545462698444
  0
ARC
  8
_0-0_計極細
  6
CONTINUOUS
 62
    2
 10
542.25395770377031
 20
616.45549267265073
 40
1.0034861863992508
 50
149.99999999997448
 51
269.99999999999977
  0
ARC
  8
_0-0_計極細
  6
CONTINUOUS
 62
    2
 10
536.17065798787712
 20
615.95374656899742
 40
0.501740082747087
 50
269.99999999999977
 51
329.999999999995
  0
LINE
  8
_0-0_計極細
  6
CONTINUOUS
 62
    2
 10
543.37540546243122
 20
620.40486321130004
 11
541.38491832773229
 21
616.95723275539626
  0
ARC
  8
_0-0_計極細
  6
CONTINUOUS
 62
    2
 10
534.17541433816655
 20
640.59543854598292
 40
1.0034861863992508
 50
42.394033999974049
 51
149.99999999997448
  0
ARC
  8
_0-0_計極細
  6
CONTINUOUS
 62
    2
 10
537.49378800388672
 20
637.31167304264329
 40
0.501740082747087
 50
330.00000000003996
 51
35.887062000032259
  0
ARC
  8
_0-0_計極細
  6
CONTINUOUS
 62
    2
 10
540.20417669587891
 20
631.97136505501032
 40
1.0034861863992508
 50
27.517836000010465
 51
150.00000000000043
  0
LINE
  8
_0-0_計極細
  6
CONTINUOUS
 62
    2
 10
505.66613979709359
 20
586.14193839081258
 11
505.66613979709359
 21
588.00865004090588
  0
LINE
  8
_0-0_計極細
  6
CONTINUOUS
 62
    2
 10
506.16788590074498
 20
586.17452894274095
 11
506.16788590074498
 21
587.13960000934753
  0
LINE
  8
_0-0_計極細
  6
CONTINUOUS
 62
    2
 10
505.66613979709359
 20
638.37968159675358
 11
505.66613979709359
 21
640.24639577424807
  0
LINE
  8
_0-0_計極細
  6
CONTINUOUS
 62
    2
 10
506.16788590074498
 20
639.24873141155615
 11
506.16788590074498
 21
640.21380522231971
  0
ARC
  8
_0-1_計細線
  6
CONTINUOUS
 62
    3
 10
504.16091352794666
 20
613.19416708253004
 40
58.202084413960065
 50
269.9979480438883
 51
89.999999999999545
  0
LINE
  8
_0-0_計極細
  6
CONTINUOUS
 62
    2
 10
507.94632880045697
 20
654.37090208599989
 11
504.15882911398654
 21
647.81075972838028
  0
LINE
  8
_0-0_計極細
  6
CONTINUOUS
 62
    2
 10
513.75290771902996
 20
652.3863756473263
 11
504.15882911398654
 21
635.76894269819149
  0
LINE
  8
_0-0_計極細
  6
CONTINUOUS
 62
    2
 10
517.67308890987056
 20
652.15193364545496
 11
504.15882911398654
 21
628.74455348533138
  0
LINE
  8
_0-0_計極細
  6
CONTINUOUS
 62
    2
 10
513.75290771902996
 20
574.00195249682849
 11
504.15882911398654
 21
590.61938959062957
  0
LINE
  8
_0-0_計極細
  6
CONTINUOUS
 62
    2
 10
507.94632880045697
 20
572.01743207906077
 11
504.15882911398654
 21
578.57757443668015
  0
LINE
  8
_0-0_計極細
  6
CONTINUOUS
 62
    2
 10
517.67308890987056
 20
574.23639449870257
 11
504.15882911398654
 21
597.64377957419049
  0
ARC
  8
_0-0_計極細
  6
CONTINUOUS
 62
    2
 10
504.16091352794666
 20
613.19416708253004
 40
27.094072844634091
 50
269.99559209412416
 51
275.37568199999987
  0
LINE
  8
_0-1_計細線
  6
CONTINUOUS
 62
    3
 10
505.46448162336196
 20
615.45200648625018
 11
504.15882911398654
 21
617.7134627513185
  0
ARC
  8
_0-0_計極細
  6
CONTINUOUS
 62
    2
 10
504.45059733389536
 20
619.21507215911663
 40
1.0034861863992508
 50
253.09686206869779
 51
330.00000000002603
  0
LINE
  8
_0-1_計細線
  6
CONTINUOUS
 62
    3
 10
505.46448162336196
 20
610.93632767881093
 11
504.15882911398654
 21
608.67487141374249
  0
ARC
  8
_0-0_計極細
  6
CONTINUOUS
 62
    2
 10
504.45059733389536
 20
607.17326200594391
 40
1.0034861863992508
 50
29.999999999951111
 51
106.90313793131428
  0
LINE
  8
_0-5_寸法線
  6
CONTINUOUS
 62
    7
 10
665.65253255791151
 20
694.76475899176194
 11
665.65253255791151
 21
739.76475899176194
  0
LINE
  8
_0-5_寸法線
  6
CONTINUOUS
 62
    7
 10
665.65253255791151
 20
734.76475899176194
 11
675.31179082080212
 21
737.35294944278724
  0
LINE
  8
_0-5_寸法線
  6
CONTINUOUS
 62
    7
 10
665.65253255791151
 20
734.76475899176194
 11
675.31179082080212
 21
732.17656854073675
  0
LINE
  8
_0-5_寸法線
  6
CONTINUOUS
 62
    7
 10
702.1525325579114
 20
693.26475891522182
 11
702.1525325579114
 21
739.76475899176194
  0
LINE
  8
_0-5_寸法線
  6
CONTINUOUS
 62
    7
 10
702.1525325579114
 20
734.76475899176194
 11
692.49327429502068
 21
732.17656854073675
  0
LINE
  8
_0-5_寸法線
  6
CONTINUOUS
 62
    7
 10
702.1525325579114
 20
734.76475899176194
 11
692.49327429502068
 21
737.35294944278724
  0
LINE
  8
_0-5_寸法線
  6
CONTINUOUS
 62
    7
 10
665.65253255791151
 20
734.76475899176194
 11
702.1525325579114
 21
734.76475899176194
  0
TEXT
  8
_0-5_寸法線
 62
    7
 10
668.90253255791151
 20
734.76475899176194
 40
15
 41
1
 50
0
  1
36.5
  0
LINE
  8
_0-5_寸法線
  6
CONTINUOUS
 62
    7
 10
422.15882911398649
 20
684.76475899176194
 11
377.15882911398649
 21
684.76475899176194
  0
LINE
  8
_0-5_寸法線
  6
CONTINUOUS
 62
    7
 10
382.15882911398649
 20
684.76475899176194
 11
379.5706386629613
 21
694.42401725465277
  0
LINE
  8
_0-5_寸法線
  6
CONTINUOUS
 62
    7
 10
382.15882911398649
 20
684.76475899176194
 11
384.74701956501178
 21
694.42401725465277
  0
LINE
  8
_0-5_寸法線
  6
CONTINUOUS
 62
    7
 10
422.15882911398649
 20
682.26475899176194
 11
377.15882911398649
 21
682.26475899176194
  0
LINE
  8
_0-5_寸法線
  6
CONTINUOUS
 62
    7
 10
382.15882911398649
 20
722.41317058132972
 11
382.15882911398649
 21
682.26475899176194
  0
TEXT
  8
_0-5_寸法線
 62
    7
 10
382.1588291139866
 20
696.4877727971932
 40
15
 41
1
 50
89.999999999999815
  1
2.5
  0
LINE
  8
_0-5_寸法線
  6
CONTINUOUS
 62
    7
 10
382.15882911398649
 20
682.26475899176194
 11
384.74701956501173
 21
672.60550072887122
  0
LINE
  8
_0-5_寸法線
  6
CONTINUOUS
 62
    7
 10
382.15882911398649
 20
682.26475899176194
 11
379.57063866296124
 21
672.60550072887122
  0
LINE
  8
_0-5_寸法線
  6
CONTINUOUS
 62
    7
 10
422.15882911398649
 20
543.26475899176194
 11
377.15882911398649
 21
543.26475899176194
  0
LINE
  8
_0-5_寸法線
  6
CONTINUOUS
 62
    7
 10
382.15882911398649
 20
543.26475899176194
 11
379.57063866296124
 21
552.92401725465265
  0
LINE
  8
_0-5_寸法線
  6
CONTINUOUS
 62
    7
 10
382.15882911398649
 20
543.26475899176194
 11
384.74701956501173
 21
552.92401725465265
  0
LINE
  8
_0-5_寸法線
  6
CONTINUOUS
 62
    7
 10
382.15882911398649
 20
682.26475899176194
 11
382.15882911398649
 21
543.26475899176194
  0
TEXT
  8
_0-5_寸法線
 62
    7
 10
382.15882911398649
 20
601.51475899176194
 40
15
 41
1
 50
90
  1
139
  0
LINE
  8
_0-5_寸法線
  6
CONTINUOUS
 62
    7
 10
422.15882911398649
 20
540.76475899176194
 11
377.15882911398649
 21
540.76475899176194
  0
LINE
  8
_0-5_寸法線
  6
CONTINUOUS
 62
    7
 10
382.15882911398649
 20
540.76475899176194
 11
384.74701956501173
 21
531.10550072887122
  0
LINE
  8
_0-5_寸法線
  6
CONTINUOUS
 62
    7
 10
382.15882911398649
 20
540.76475899176194
 11
379.57063866296124
 21
531.10550072887122
  0
LINE
  8
_0-5_寸法線
  6
CONTINUOUS
 62
    7
 10
382.15882911398649
 20
543.26475899176194
 11
382.15882911398649
 21
503.11634740219415
  0
TEXT
  8
_0-5_寸法線
 62
    7
 10
382.15882911398643
 20
507.39136894222338
 40
15
 41
1
 50
89.999999999999815
  1
2.5
  0
LINE
  8
_0-5_寸法線
  6
CONTINUOUS
 62
    7
 10
422.15882911398649
 20
684.76475899176194
 11
342.15882911398649
 21
684.76475899176194
  0
LINE
  8
_0-5_寸法線
  6
CONTINUOUS
 62
    7
 10
347.15882911398649
 20
684.76475899176194
 11
349.74701956501173
 21
675.10550072887122
  0
LINE
  8
_0-5_寸法線
  6
CONTINUOUS
 62
    7
 10
347.15882911398649
 20
684.76475899176194
 11
344.5706386629613
 21
675.10550072887122
  0
LINE
  8
_0-5_寸法線
  6
CONTINUOUS
 62
    7
 10
422.15882911398649
 20
540.76475899176194
 11
342.15882911398649
 21
540.76475899176194
  0
LINE
  8
_0-5_寸法線
  6
CONTINUOUS
 62
    7
 10
347.15882911398649
 20
540.76475899176194
 11
344.5706386629613
 21
550.42401725465265
  0
LINE
  8
_0-5_寸法線
  6
CONTINUOUS
 62
    7
 10
347.15882911398649
 20
540.76475899176194
 11
349.74701956501173
 21
550.42401725465265
  0
LINE
  8
_0-5_寸法線
  6
CONTINUOUS
 62
    7
 10
347.15882911398649
 20
684.76475899176194
 11
347.15882911398649
 21
540.76475899176194
  0
TEXT
  8
_0-5_寸法線
 62
    7
 10
347.15882911398649
 20
601.51475899176194
 40
15
 41
1
 50
90
  1
144
  0
LINE
  8
_0-5_寸法線
  6
CONTINUOUS
 62
    7
 10
454.00272936363308
 20
595.62948138873094
 11
451.4272658695121
 21
585.96682193129118
  0
LINE
  8
_0-5_寸法線
  6
CONTINUOUS
 62
    7
 10
454.00272936363308
 20
595.62948138873094
 11
446.94098282248501
 21
588.54910457753056
  0
LINE
  8
_0-5_寸法線
  6
CONTINUOUS
 62
    7
 10
454.00272936363308
 20
595.62948138873094
 11
388.88961205018683
 21
482.50635957717896
  0
LINE
  8
_0-5_寸法線
  6
CONTINUOUS
 62
    7
 10
388.88961205018683
 20
482.50635957717896
 11
352.88961205018677
 21
482.50635957717896
  0
TEXT
  8
_0-5_寸法線
 62
    7
 10
352.88961205018677
 20
482.50635957717896
 40
15
 41
0.8000000000000001
 50
0
  1
上フタ
  0
LINE
  8
_0-5_寸法線
  6
CONTINUOUS
 62
    7
 10
574.83774777018107
 20
549.91306095172877
 11
581.51184844436762
 21
542.46615688421025
  0
LINE
  8
_0-5_寸法線
  6
CONTINUOUS
 62
    7
 10
574.83774777018107
 20
549.91306095172877
 11
576.89423646768216
 21
540.12680251261884
  0
LINE
  8
_0-5_寸法線
  6
CONTINUOUS
 62
    7
 10
574.83774777018107
 20
549.91306095172877
 11
608.98703582887674
 21
482.5063595771789
  0
LINE
  8
_0-5_寸法線
  6
CONTINUOUS
 62
    7
 10
608.98703582887674
 20
482.5063595771789
 11
680.98703582887674
 21
482.5063595771789
  0
TEXT
  8
_0-5_寸法線
 62
    7
 10
608.98703582887674
 20
482.5063595771789
 40
15
 41
0.8000000000000001
 50
0
  1
排水ユニット
  0
LINE
  8
_0-5_寸法線
  6
CONTINUOUS
 62
    7
 10
440.65882911398614
 20
694.76475899176194
 11
440.65882911398626
 21
739.76475899176194
  0
LINE
  8
_0-5_寸法線
  6
CONTINUOUS
 62
    7
 10
440.65882911398626
 20
734.76475899176194
 11
450.31808737687692
 21
737.35294944278724
  0
LINE
  8
_0-5_寸法線
  6
CONTINUOUS
 62
    7
 10
440.65882911398626
 20
734.76475899176194
 11
450.31808737687692
 21
732.17656854073675
  0
LINE
  8
_0-5_寸法線
  6
CONTINUOUS
 62
    7
 10
567.65882911398705
 20
694.76475899176194
 11
567.65882911398717
 21
739.76475899176194
  0
LINE
  8
_0-5_寸法線
  6
CONTINUOUS
 62
    7
 10
567.65882911398717
 20
734.76475899176194
 11
557.99957085109645
 21
732.17656854073675
  0
LINE
  8
_0-5_寸法線
  6
CONTINUOUS
 62
    7
 10
567.65882911398717
 20
734.76475899176194
 11
557.99957085109645
 21
737.35294944278724
  0
LINE
  8
_0-5_寸法線
  6
CONTINUOUS
 62
    7
 10
440.65882911398626
 20
734.76475899176194
 11
567.65882911398717
 21
734.76475899176194
  0
TEXT
  8
_0-5_寸法線
 62
    7
 10
492.90882911398677
 20
734.76475899176194
 40
15
 41
1
 50
0
  1
127
  0
LINE
  8
_0-5_寸法線
  6
CONTINUOUS
 62
    7
 10
432.15882911398649
 20
694.76475899176194
 11
432.15882911398666
 21
774.76475899176194
  0
LINE
  8
_0-5_寸法線
  6
CONTINUOUS
 62
    7
 10
432.15882911398666
 20
769.76475899176194
 11
422.49957085109594
 21
767.17656854073675
  0
LINE
  8
_0-5_寸法線
  6
CONTINUOUS
 62
    7
 10
432.15882911398666
 20
769.76475899176194
 11
422.499570851096
 21
772.35294944278724
  0
LINE
  8
_0-5_寸法線
  6
CONTINUOUS
 62
    7
 10
434.65882911398649
 20
694.76475899176182
 11
434.65882911398666
 21
774.76475899176194
  0
LINE
  8
_0-5_寸法線
  6
CONTINUOUS
 62
    7
 10
398.53268033468225
 20
769.76475899176194
 11
434.65882911398666
 21
769.76475899176194
  0
TEXT
  8
_0-5_寸法線
 62
    7
 10
398.53268033468225
 20
769.76475899176194
 40
15
 41
1
 50
0
  1
2.5
  0
LINE
  8
_0-5_寸法線
  6
CONTINUOUS
 62
    7
 10
434.65882911398666
 20
769.76475899176194
 11
444.31808737687732
 21
772.35294944278724
  0
LINE
  8
_0-5_寸法線
  6
CONTINUOUS
 62
    7
 10
434.65882911398666
 20
769.76475899176194
 11
444.31808737687732
 21
767.17656854073664
  0
LINE
  8
_0-5_寸法線
  6
CONTINUOUS
 62
    7
 10
573.65882911398671
 20
694.76475899176182
 11
573.65882911398683
 21
774.76475899176194
  0
LINE
  8
_0-5_寸法線
  6
CONTINUOUS
 62
    7
 10
573.65882911398683
 20
769.76475899176194
 11
563.99957085109611
 21
767.17656854073675
  0
LINE
  8
_0-5_寸法線
  6
CONTINUOUS
 62
    7
 10
573.65882911398683
 20
769.76475899176194
 11
563.99957085109611
 21
772.35294944278724
  0
LINE
  8
_0-5_寸法線
  6
CONTINUOUS
 62
    7
 10
434.65882911398666
 20
769.76475899176194
 11
573.65882911398683
 21
769.76475899176194
  0
TEXT
  8
_0-5_寸法線
 62
    7
 10
492.90882911398694
 20
769.76475899176194
 40
15
 41
1
 50
0
  1
139
  0
LINE
  8
_0-5_寸法線
  6
CONTINUOUS
 62
    7
 10
576.15882911398649
 20
694.76475899176182
 11
576.1588291139866
 21
774.76475899176194
  0
LINE
  8
_0-5_寸法線
  6
CONTINUOUS
 62
    7
 10
576.1588291139866
 20
769.76475899176194
 11
585.81808737687743
 21
772.35294944278724
  0
LINE
  8
_0-5_寸法線
  6
CONTINUOUS
 62
    7
 10
576.1588291139866
 20
769.76475899176194
 11
585.81808737687743
 21
767.17656854073664
  0
LINE
  8
_0-5_寸法線
  6
CONTINUOUS
 62
    7
 10
573.65882911398683
 20
769.76475899176194
 11
612.19195941162002
 21
769.76475899176194
  0
TEXT
  8
_0-5_寸法線
 62
    7
 10
589.69195941162002
 20
769.76475899176194
 40
15
 41
1
 50
0
  1
2.5
  0
LINE
  8
_0-5_寸法線
  6
CONTINUOUS
 62
    7
 10
432.15882911398649
 20
694.76475899176194
 11
432.15882911398649
 21
809.76475899176194
  0
LINE
  8
_0-5_寸法線
  6
CONTINUOUS
 62
    7
 10
432.15882911398649
 20
804.76475899176194
 11
441.8180873768772
 21
807.35294944278724
  0
LINE
  8
_0-5_寸法線
  6
CONTINUOUS
 62
    7
 10
432.15882911398649
 20
804.76475899176194
 11
441.8180873768772
 21
802.17656854073675
  0
LINE
  8
_0-5_寸法線
  6
CONTINUOUS
 62
    7
 10
576.15882911398649
 20
694.76475899176194
 11
576.1588291139866
 21
809.76475899176194
  0
LINE
  8
_0-5_寸法線
  6
CONTINUOUS
 62
    7
 10
576.1588291139866
 20
804.76475899176194
 11
566.49957085109588
 21
802.17656854073675
  0
LINE
  8
_0-5_寸法線
  6
CONTINUOUS
 62
    7
 10
576.1588291139866
 20
804.76475899176194
 11
566.49957085109588
 21
807.35294944278724
  0
LINE
  8
_0-5_寸法線
  6
CONTINUOUS
 62
    7
 10
432.15882911398649
 20
804.76475899176194
 11
576.1588291139866
 21
804.76475899176194
  0
TEXT
  8
_0-5_寸法線
 62
    7
 10
492.90882911398654
 20
804.76475899176194
 40
15
 41
1
 50
0
  1
144
  0
CIRCLE
  8
_0-1_計細線
  6
DASHED2
 62
    3
 10
560.15882911398739
 20
668.76475899176194
 40
12.5
  0
CIRCLE
  8
_0-1_計細線
  6
DASHED2
 62
    3
 10
560.15882911398717
 20
556.76475899176194
 40
12.5
  0
ARC
  8
_0-1_計細線
  6
CONTINUOUS
 62
    3
 10
448.15882911398558
 20
668.76475899176194
 40
12.5
 50
36.869897645840268
 51
233.13010235415564
  0
ARC
  8
_0-1_計細線
  6
CONTINUOUS
 62
    3
 10
448.1588291139858
 20
556.76475899176194
 40
12.5
 50
126.86989764584402
 51
323.11949922673142
  0
ARC
  8
_0-1_計細線
  6
DASHED2
 62
    3
 10
448.15882911398558
 20
668.76475899176194
 40
12.5
 50
233.13010235415842
 51
36.86989764583992
  0
ARC
  8
_0-1_計細線
  6
DASHED2
 62
    3
 10
448.1588291139858
 20
556.76475899176194
 40
12.5
 50
323.11949922673136
 51
126.86989764584294
  0
LINE
  8
_0-0_計極細
  6
CENTER1
 62
    2
 10
504.15882911398654
 20
694.76475899176194
 11
504.15882911398654
 21
253.264742271758
  0
LINE
  8
_0-5_寸法線
  6
CONTINUOUS
 62
    7
 10
471.16923631957661
 20
337.40782892518268
 11
466.38408416856947
 21
323.19155941128736
  0
LINE
  8
_0-5_寸法線
  6
CONTINUOUS
 62
    7
 10
471.16923631957661
 20
337.40782892518268
 11
459.91703823888292
 21
327.48875445460664
  0
LINE
  8
_0-5_寸法線
  6
CONTINUOUS
 62
    7
 10
471.16923631957661
 20
337.40782892518268
 11
430.40744122995056
 21
276.06353378295887
  0
LINE
  8
_0-5_寸法線
  6
CONTINUOUS
 62
    7
 10
430.40744122995056
 20
276.06353378295887
 11
298.40744122995062
 21
276.06353378295887
  0
TEXT
  8
_0-5_寸法線
 62
    7
 10
298.40744122995062
 20
276.06353378295887
 40
15
 41
0.7999999999999997
 50
0
  1
縦引き排水トラップ一式
  0
LINE
  8
_0-5_寸法線
  6
CONTINUOUS
 62
    7
 10
586.15882911398626
 20
440.76475899176188
 11
664.65882903744625
 21
440.76475899176108
  0
LINE
  8
_0-5_寸法線
  6
CONTINUOUS
 62
    7
 10
659.65882903744625
 20
440.76475899176114
 11
662.24701948847144
 21
431.10550072887054
  0
LINE
  8
_0-5_寸法線
  6
CONTINUOUS
 62
    7
 10
659.65882903744625
 20
440.76475899176114
 11
657.07063858642118
 21
431.10550072887054
  0
LINE
  8
_0-5_寸法線
  6
CONTINUOUS
 62
    7
 10
542.1589552740129
 20
263.26474227175788
 11
664.65882903744625
 21
263.2647422717568
  0
LINE
  8
_0-5_寸法線
  6
CONTINUOUS
 62
    7
 10
659.65882903744625
 20
263.26474227175686
 11
657.07063858642118
 21
272.92400053464752
  0
LINE
  8
_0-5_寸法線
  6
CONTINUOUS
 62
    7
 10
659.65882903744625
 20
263.26474227175686
 11
662.24701948847144
 21
272.92400053464752
  0
LINE
  8
_0-5_寸法線
  6
CONTINUOUS
 62
    7
 10
659.65882903744625
 20
440.76475899176114
 11
659.65882903744625
 21
263.26474227175686
  0
TEXT
  8
_0-5_寸法線
 62
    7
 10
659.65882903744637
 20
333.264750631759
 40
15
 41
1
 50
90
  1
177.5
  0
LINE
  8
_0-5_寸法線
  6
CONTINUOUS
 62
    7
 10
541.65882911398649
 20
263.264742271758
 11
629.65882903744625
 21
263.26474227175777
  0
LINE
  8
_0-5_寸法線
  6
CONTINUOUS
 62
    7
 10
624.65882903744625
 20
263.26474227175777
 11
622.07063858642107
 21
272.92400053464848
  0
LINE
  8
_0-5_寸法線
  6
CONTINUOUS
 62
    7
 10
624.65882903744625
 20
263.26474227175777
 11
627.24701948847144
 21
272.92400053464848
  0
LINE
  8
_0-5_寸法線
  6
CONTINUOUS
 62
    7
 10
584.65882911398626
 20
404.26475899176188
 11
629.65882903744625
 21
404.26475899176182
  0
LINE
  8
_0-5_寸法線
  6
CONTINUOUS
 62
    7
 10
624.65882903744625
 20
404.26475899176182
 11
627.24701948847144
 21
394.60550072887111
  0
LINE
  8
_0-5_寸法線
  6
CONTINUOUS
 62
    7
 10
624.65882903744625
 20
404.26475899176182
 11
622.07063858642096
 21
394.60550072887116
  0
LINE
  8
_0-5_寸法線
  6
CONTINUOUS
 62
    7
 10
624.65882903744625
 20
263.26474227175777
 11
624.65882903744625
 21
404.26475899176182
  0
TEXT
  8
_0-5_寸法線
 62
    7
 10
624.65882903744625
 20
322.51475063175974
 40
15
 41
1
 50
90
  1
141
  0
LINE
  8
_0-5_寸法線
  6
CONTINUOUS
 62
    7
 10
624.65882903744625
 20
404.26475899176182
 11
622.07063858642107
 21
413.92401725465248
  0
LINE
  8
_0-5_寸法線
  6
CONTINUOUS
 62
    7
 10
624.65882903744625
 20
404.26475899176182
 11
627.24701948847144
 21
413.92401725465248
  0
LINE
  8
_0-5_寸法線
  6
CONTINUOUS
 62
    7
 10
585.2440346215966
 20
440.76475899176182
 11
629.65882903744625
 21
440.76475899176165
  0
LINE
  8
_0-5_寸法線
  6
CONTINUOUS
 62
    7
 10
624.65882903744625
 20
440.76475899176165
 11
627.24701948847144
 21
431.10550072887099
  0
LINE
  8
_0-5_寸法線
  6
CONTINUOUS
 62
    7
 10
624.65882903744625
 20
440.76475899176165
 11
622.07063858642107
 21
431.10550072887099
  0
LINE
  8
_0-5_寸法線
  6
CONTINUOUS
 62
    7
 10
624.65882903744625
 20
404.26475899176182
 11
624.65882903744625
 21
440.76475899176165
  0
TEXT
  8
_0-5_寸法線
 62
    7
 10
624.65882903744625
 20
407.51475899176171
 40
15
 41
1
 50
90
  1
36.5
  0
LINE
  8
_0-1_計細線
  6
CONTINUOUS
 62
    3
 10
567.65882911398637
 20
440.26475899176199
 11
567.6588291139866
 21
423.26475899176211
  0
LINE
  8
_0-1_計細線
  6
CONTINUOUS
 62
    3
 10
565.65882911398614
 20
440.26475899176199
 11
565.65882911398614
 21
425.26475899176199
  0
LINE
  8
_0-1_計細線
  6
CONTINUOUS
 62
    3
 10
567.6588291139866
 20
423.26475899176211
 11
440.65882911398637
 21
423.26475899176211
  0
LINE
  8
_0-1_計細線
  6
CONTINUOUS
 62
    3
 10
565.65882911398614
 20
425.26475899176199
 11
442.65882911398683
 21
425.26475899176199
  0
LINE
  8
_0-1_計細線
  6
CONTINUOUS
 62
    3
 10
442.65882911398683
 20
440.26475899176199
 11
442.65882911398683
 21
425.26475899176199
  0
LINE
  8
_0-1_計細線
  6
CONTINUOUS
 62
    3
 10
440.6588291139866
 20
440.26475899176199
 11
440.65882911398637
 21
423.26475899176211
  0
LINE
  8
_0-1_計細線
  6
CONTINUOUS
 62
    3
 10
567.65882911398649
 20
440.26475899176199
 11
440.6588291139866
 21
440.26475899176199
  0
LINE
  8
_0-5_寸法線
  6
CONTINUOUS
 62
    7
 10
436.96356459176144
 20
632.64002090523832
 11
430.18668397057843
 21
639.99351592775884
  0
LINE
  8
_0-5_寸法線
  6
CONTINUOUS
 62
    7
 10
436.96356459176144
 20
632.64002090523832
 11
434.77136132666283
 21
642.396774711935
  0
LINE
  8
_0-5_寸法線
  6
CONTINUOUS
 62
    7
 10
436.96356459176144
 20
632.64002090523832
 11
381.78657584789028
 21
737.90071631456067
  0
LINE
  8
_0-5_寸法線
  6
CONTINUOUS
 62
    7
 10
381.78657584789028
 20
737.90071631456067
 11
333.78657584789028
 21
737.9007163145609
  0
TEXT
  8
_0-5_寸法線
 62
    7
 10
333.78657584789033
 20
737.90071631456067
 40
15
 41
0.8000000000000001
 50
0
  1
取っ手部
  0
LINE
  8
_0-1_計細線
  6
CONTINUOUS
 62
    3
 10
432.15882911398649
 20
540.76475899176194
 11
432.15882911398649
 21
684.76475899176194
  0
LINE
  8
_0-1_計細線
  6
CONTINUOUS
 62
    3
 10
432.15882911398649
 20
684.76475899176194
 11
576.15882911398649
 21
684.76475899176194
  0
LINE
  8
_0-1_計細線
  6
CONTINUOUS
 62
    3
 10
576.15882911398649
 20
684.76475899176194
 11
576.15882911398649
 21
540.76475899176194
  0
LINE
  8
_0-1_計細線
  6
CONTINUOUS
 62
    3
 10
576.15882911398649
 20
540.76475899176194
 11
432.15882911398649
 21
540.76475899176194
  0
LINE
  8
_0-1_計細線
  6
CONTINUOUS
 62
    3
 10
434.65882911398649
 20
682.26475899176194
 11
434.65882911398649
 21
543.26475899176194
  0
LINE
  8
_0-1_計細線
  6
CONTINUOUS
 62
    3
 10
434.65882911398649
 20
543.26475899176194
 11
573.65882911398671
 21
543.26475899176194
  0
LINE
  8
_0-1_計細線
  6
CONTINUOUS
 62
    3
 10
573.65882911398671
 20
543.26475899176194
 11
573.65882911398671
 21
682.26475899176194
  0
LINE
  8
_0-1_計細線
  6
CONTINUOUS
 62
    3
 10
573.65882911398671
 20
682.26475899176194
 11
434.65882911398649
 21
682.26475899176194
  0
LINE
  8
_0-1_計細線
  6
CONTINUOUS
 62
    3
 10
442.65882911398603
 20
674.26475899176216
 11
442.65882911398603
 21
551.26475899176194
  0
LINE
  8
_0-1_計細線
  6
CONTINUOUS
 62
    3
 10
504.15882911398654
 20
674.26475899176182
 11
442.65882911398603
 21
674.26475899176216
  0
LINE
  8
_0-1_計細線
  6
CONTINUOUS
 62
    3
 10
442.65882911398603
 20
551.26475899176194
 11
504.15882911398654
 21
551.26475899176194
  0
ARC
  8
_0-1_計細線
  6
CONTINUOUS
 62
    3
 10
442.65882911398603
 20
674.26475899176125
 40
2
 50
89.999999999999915
 51
179.99999999999983
  0
LINE
  8
_0-1_計細線
  6
CONTINUOUS
 62
    3
 10
440.65882911398603
 20
551.26475899176194
 11
440.65882911398603
 21
674.26475899176125
  0
ARC
  8
_0-1_計細線
  6
CONTINUOUS
 62
    3
 10
442.65882911398603
 20
551.26475899176171
 40
2
 50
179.99999999999349
 51
269.99999999999977
  0
LINE
  8
_0-1_計細線
  6
CONTINUOUS
 62
    3
 10
442.65882911398603
 20
676.26475899176125
 11
504.15882911398654
 21
676.26475899176125
  0
LINE
  8
_0-1_計細線
  6
CONTINUOUS
 62
    3
 10
504.15882911398654
 20
549.26475899176194
 11
442.65882911398603
 21
549.26475899176171
  0
LINE
  8
_0-1_計細線
  6
DASHED2
 62
    3
 10
565.65882911398694
 20
551.26475899176194
 11
504.15882911398654
 21
551.26475899176194
  0
LINE
  8
_0-1_計細線
  6
DASHED2
 62
    3
 10
504.15882911398654
 20
674.26475899176182
 11
565.65882911398694
 21
674.26475899176216
  0
LINE
  8
_0-1_計細線
  6
DASHED2
 62
    3
 10
565.65882911398694
 20
674.26475899176216
 11
565.65882911398694
 21
551.26475899176194
  0
LINE
  8
_0-1_計細線
  6
DASHED2
 62
    3
 10
504.15882911398654
 20
549.26475899176194
 11
565.65882911398694
 21
549.26475899176171
  0
LINE
  8
_0-1_計細線
  6
DASHED2
 62
    3
 10
565.65882911398694
 20
676.26475899176125
 11
504.15882911398654
 21
676.26475899176125
  0
ARC
  8
_0-1_計細線
  6
DASHED2
 62
    3
 10
565.65882911398694
 20
551.26475899176171
 40
2
 50
269.99999999999977
 51
0.0000000000061575
  0
LINE
  8
_0-1_計細線
  6
DASHED2
 62
    3
 10
567.65882911398694
 20
551.26475899176194
 11
567.65882911398694
 21
674.26475899176125
  0
ARC
  8
_0-1_計細線
  6
DASHED2
 62
    3
 10
565.65882911398694
 20
674.26475899176125
 40
2
 50
0
 51
89.999999999999915
  0
LINE
  8
_0-1_計細線
  6
CONTINUOUS
 62
    3
 10
440.65882911398603
 20
632.76475899176194
 11
437.65882911398717
 21
632.76475899176216
  0
ARC
  8
_0-1_計細線
  6
CONTINUOUS
 62
    3
 10
437.65882911398717
 20
630.76475899176216
 40
2
 50
89.999999999999915
 51
180.00000000000617
  0
LINE
  8
_0-1_計細線
  6
CONTINUOUS
 62
    3
 10
435.65882911398717
 20
630.76475899176194
 11
435.65882911398717
 21
594.76475899176194
  0
LINE
  8
_0-1_計細線
  6
CONTINUOUS
 62
    3
 10
437.65882911398717
 20
592.76475899176216
 11
440.65882911398603
 21
592.76475899176194
  0
ARC
  8
_0-1_計細線
  6
CONTINUOUS
 62
    3
 10
437.65882911398717
 20
594.76475899176216
 40
2
 50
180.00000000000617
 51
269.99999999999977
  0
LINE
  8
_0-1_計細線
  6
CONTINUOUS
 62
    3
 10
437.65882911398717
 20
597.76475899176194
 11
440.65882911398603
 21
597.76475899176194
  0
LINE
  8
_0-1_計細線
  6
CONTINUOUS
 62
    3
 10
437.65882911398717
 20
627.76475899176194
 11
437.65882911398717
 21
597.76475899176194
  0
LINE
  8
_0-1_計細線
  6
CONTINUOUS
 62
    3
 10
440.65882911398603
 20
627.76475899176194
 11
437.65882911398717
 21
627.76475899176194
  0
LINE
  8
_0-1_計細線
  6
DASHED2
 62
    3
 10
440.65882911398603
 20
632.76475899176194
 11
448.15882911398717
 21
632.76475899176194
  0
LINE
  8
_0-1_計細線
  6
DASHED2
 62
    3
 10
448.15882911398717
 20
592.76475899176194
 11
440.65882911398603
 21
592.76475899176194
  0
LINE
  8
_0-1_計細線
  6
DASHED2
 62
    3
 10
448.15882911398717
 20
632.76475899176194
 11
448.15882911398717
 21
592.76475899176194
  0
LINE
  8
_0-1_計細線
  6
CONTINUOUS
 62
    3
 10
703.65251583790723
 20
554.26488515178789
 11
702.15253255791094
 21
554.26488515178789
  0
ARC
  8
_0-1_計細線
  6
CONTINUOUS
 62
    3
 10
703.65251583790723
 20
556.26488515178789
 40
2
 50
269.99999999999977
 51
359.99999999999966
  0
LINE
  8
_0-1_計細線
  6
CONTINUOUS
 62
    3
 10
705.65251583790723
 20
556.26488515178789
 11
705.65251583790723
 21
561.76475899176194
  0
LINE
  8
_0-1_計細線
  6
CONTINUOUS
 62
    3
 10
703.65251583790769
 20
671.26463283173553
 11
702.1525325579114
 21
671.26463283173553
  0
ARC
  8
_0-1_計細線
  6
CONTINUOUS
 62
    3
 10
703.65251583790769
 20
669.26463283173564
 40
2
 50
0
 51
89.999999999999915
  0
LINE
  8
_0-1_計細線
  6
CONTINUOUS
 62
    3
 10
705.65251583790769
 20
657.76475899176194
 11
705.65251583790769
 21
669.26463283173564
  0
LINE
  8
_0-1_計細線
  6
CONTINUOUS
 62
    3
 10
705.65251583790723
 20
557.02598299176179
 11
705.65251583790769
 21
657.76475899176194
  0
ARC
  8
_0-1_計細線
  6
CONTINUOUS
 62
    3
 10
666.90253255791151
 20
683.51475891522205
 40
1.25
 50
89.999999999989583
 51
179.99999999999477
  0
LINE
  8
_0-1_計細線
  6
CONTINUOUS
 62
    3
 10
670.78527850833257
 20
684.26475891522159
 11
675.65253255791151
 21
684.26475891522159
  0
LINE
  8
_0-1_計細線
  6
CONTINUOUS
 62
    3
 10
670.52095106815034
 20
684.28230311385664
 11
666.90253255791151
 21
684.76475891522205
  0
ARC
  8
_0-1_計細線
  6
CONTINUOUS
 62
    3
 10
670.78527850833257
 20
686.26475891522182
 40
2
 50
262.40535663140565
 51
269.99999999999977
  0
LINE
  8
_0-1_計細線
  6
CONTINUOUS
 62
    3
 10
665.65253255791265
 20
683.51475891522205
 11
665.65253255791185
 21
542.01475906830183
  0
LINE
  8
_0-1_計細線
  6
CONTINUOUS
 62
    3
 10
675.65253255791185
 20
541.26475906830228
 11
675.65253255791151
 21
684.26475891522159
  0
ARC
  8
_0-1_計細線
  6
CONTINUOUS
 62
    3
 10
666.90253255791151
 20
542.01475906830194
 40
1.25
 50
180.00000000000486
 51
270.00000000001006
  0
LINE
  8
_0-1_計細線
  6
CONTINUOUS
 62
    3
 10
670.78527850833257
 20
541.26475906830228
 11
675.65253255791151
 21
541.26475906830228
  0
LINE
  8
_0-1_計細線
  6
CONTINUOUS
 62
    3
 10
670.52095106815034
 20
541.24721486966735
 11
666.90253255791151
 21
540.76475906830194
  0
ARC
  8
_0-1_計細線
  6
CONTINUOUS
 62
    3
 10
670.78527850833257
 20
539.26475906830217
 40
2
 50
89.999999999999915
 51
97.594643368594035
  0
LINE
  8
_0-1_計細線
  6
CONTINUOUS
 62
    3
 10
702.1525325579114
 20
683.26475891522182
 11
702.1525325579114
 21
542.26475906830251
  0
LINE
  8
_0-1_計細線
  6
CONTINUOUS
 62
    3
 10
702.1525325579114
 20
683.26475891522182
 11
675.65253255791151
 21
683.26475891522182
  0
LINE
  8
_0-1_計細線
  6
CONTINUOUS
 62
    3
 10
702.1525325579114
 20
542.26475906830217
 11
675.65253255791151
 21
542.26475906830217
  0
LINE
  8
_0-1_計細線
  6
CONTINUOUS
 62
    3
 10
435.65882911398654
 20
423.26475899176194
 11
435.65882911398654
 21
415.26475899176199
  0
LINE
  8
_0-1_計細線
  6
CONTINUOUS
 62
    3
 10
460.65882911398631
 20
415.26475899176205
 11
460.65882911398631
 21
423.26475899176211
  0
LINE
  8
_0-1_計細線
  6
CONTINUOUS
 62
    3
 10
435.65882911398654
 20
415.26475899176199
 11
460.65882911398631
 21
415.26475899176199
  0
LINE
  8
_0-1_計細線
  6
CONTINUOUS
 62
    3
 10
437.83727556804138
 20
406.8725267214856
 11
436.15882911398609
 21
415.26475899176199
  0
ARC
  8
_0-1_計細線
  6
CONTINUOUS
 62
    3
 10
439.7984369194233
 20
407.26475899176194
 40
2
 50
191.30993247402051
 51
269.99999999999977
  0
LINE
  8
_0-1_計細線
  6
CONTINUOUS
 62
    3
 10
460.15882911398626
 20
415.26475899176199
 11
458.48038265993097
 21
406.8725267214856
  0
LINE
  8
_0-1_計細線
  6
CONTINUOUS
 62
    3
 10
456.51922130854905
 20
405.26475899176199
 11
439.7984369194233
 21
405.26475899176199
  0
ARC
  8
_0-1_計細線
  6
CONTINUOUS
 62
    3
 10
456.51922130854905
 20
407.26475899176194
 40
2
 50
269.99999999999977
 51
348.6900675259788
  0
LINE
  8
_0-1_計細線
  6
CONTINUOUS
 62
    3
 10
460.65882911398631
 20
423.26475899176211
 11
435.65882911398654
 21
423.26475899176211
  0
LINE
  8
_0-1_計細線
  6
CONTINUOUS
 62
    3
 10
572.65882911398649
 20
423.26475899176194
 11
572.65882911398649
 21
415.26475899176199
  0
LINE
  8
_0-1_計細線
  6
CONTINUOUS
 62
    3
 10
547.65882911398671
 20
415.26475899176205
 11
547.65882911398671
 21
423.26475899176211
  0
LINE
  8
_0-1_計細線
  6
CONTINUOUS
 62
    3
 10
572.65882911398649
 20
415.26475899176199
 11
547.65882911398671
 21
415.26475899176199
  0
LINE
  8
_0-1_計細線
  6
CONTINUOUS
 62
    3
 10
570.48038265993159
 20
406.8725267214856
 11
572.15882911398694
 21
415.26475899176199
  0
ARC
  8
_0-1_計細線
  6
CONTINUOUS
 62
    3
 10
568.51922130854973
 20
407.26475899176194
 40
2
 50
269.99999999999977
 51
348.6900675259788
  0
LINE
  8
_0-1_計細線
  6
CONTINUOUS
 62
    3
 10
548.15882911398671
 20
415.26475899176199
 11
549.83727556804206
 21
406.8725267214856
  0
LINE
  8
_0-1_計細線
  6
CONTINUOUS
 62
    3
 10
551.79843691942392
 20
405.26475899176199
 11
568.51922130854973
 21
405.26475899176199
  0
ARC
  8
_0-1_計細線
  6
CONTINUOUS
 62
    3
 10
551.79843691942392
 20
407.26475899176194
 40
2
 50
191.30993247402051
 51
269.99999999999977
  0
LINE
  8
_0-1_計細線
  6
CONTINUOUS
 62
    3
 10
547.65882911398671
 20
423.26475899176211
 11
572.65882911398649
 21
423.26475899176211
  0
LINE
  8
_0-1_計細線
  6
CONTINUOUS
 62
    3
 10
575.65882903744614
 20
430.76475899176211
 11
574.65882903744625
 21
430.76475899176211
  0
LINE
  8
_0-1_計細線
  6
CONTINUOUS
 62
    3
 10
573.65882903744614
 20
439.51475899176194
 11
573.65882903744614
 21
405.26475899176205
  0
ARC
  8
_0-1_計細線
  6
CONTINUOUS
 62
    3
 10
574.90882903744637
 20
439.51475899176194
 40
1.25
 50
359.99999999998403
 51
179.99999999999946
  0
ARC
  8
_0-1_計細線
  6
CONTINUOUS
 62
    3
 10
574.90882903744614
 20
439.51475899176194
 40
0.25
 50
89.999999999999915
 51
179.99999999997394
  0
LINE
  8
_0-1_計細線
  6
CONTINUOUS
 62
    3
 10
574.90882903744614
 20
439.76475899176205
 11
574.89776687491121
 21
439.76475899176205
  0
LINE
  8
_0-1_計細線
  6
CONTINUOUS
 62
    3
 10
574.65882903744625
 20
435.83113196697252
 11
575.1455738500822
 21
439.48171806173923
  0
ARC
  8
_0-1_計細線
  6
CONTINUOUS
 62
    3
 10
574.89776687491121
 20
439.51475899176194
 40
0.25
 50
352.4053566314289
 51
89.999999999999545
  0
LINE
  8
_0-1_計細線
  6
CONTINUOUS
 62
    3
 10
575.65882903744614
 20
435.63201304134088
 11
575.65882903744614
 21
430.76475899176211
  0
LINE
  8
_0-1_計細線
  6
CONTINUOUS
 62
    3
 10
575.67637323608108
 20
435.89634048152305
 11
576.15882903744659
 21
439.51475899176194
  0
ARC
  8
_0-1_計細線
  6
CONTINUOUS
 62
    3
 10
577.65882903744625
 20
435.63201304134105
 40
2
 50
172.40535663140921
 51
180.0000000000029
  0
LINE
  8
_0-1_計細線
  6
CONTINUOUS
 62
    3
 10
574.65882903744625
 20
439.51475899176211
 11
574.65882903744625
 21
405.26475899176199
  0
LINE
  8
_0-1_計細線
  6
CONTINUOUS
 62
    3
 10
573.65882911398626
 20
405.26475899176199
 11
563.65870295396053
 21
405.26475899176199
  0
ARC
  8
_0-1_計細線
  6
CONTINUOUS
 62
    3
 10
563.66731175357472
 20
403.76475899176199
 40
1.5000000000000002
 50
89.999999999999915
 51
179.99999999999983
  0
LINE
  8
_0-1_計細線
  6
CONTINUOUS
 62
    3
 10
563.16731175357472
 20
402.76477571176571
 11
563.16731175357472
 21
403.76475899176199
  0
ARC
  8
_0-1_計細線
  6
CONTINUOUS
 62
    3
 10
563.66731175357472
 20
403.76475899176199
 40
0.5
 50
89.999999999999915
 51
179.99999999999983
  0
LINE
  8
_0-1_計細線
  6
CONTINUOUS
 62
    3
 10
563.16731175357472
 20
402.76477571176571
 11
563.16731175357472
 21
401.76475899176177
  0
ARC
  8
_0-1_計細線
  6
CONTINUOUS
 62
    3
 10
561.66731175357472
 20
401.76475899176177
 40
1.5000000000000002
 50
269.99999999999977
 51
359.99999999999966
  0
LINE
  8
_0-1_計細線
  6
CONTINUOUS
 62
    3
 10
562.16731175357336
 20
403.264742271758
 11
562.16731175357336
 21
401.76475899176177
  0
ARC
  8
_0-1_計細線
  6
CONTINUOUS
 62
    3
 10
561.66731175357336
 20
401.76475899176177
 40
0.5
 50
269.99999999999977
 51
359.99999999999966
  0
LINE
  8
_0-1_計細線
  6
CONTINUOUS
 62
    3
 10
562.16731175357472
 20
403.76475899176199
 11
562.16731175357472
 21
403.264742271758
  0
LINE
  8
_0-1_計細線
  6
CONTINUOUS
 62
    3
 10
561.55895527401253
 20
401.26475899176171
 11
561.66731175357472
 21
401.26475899176171
  0
LINE
  8
_0-1_計細線
  6
CONTINUOUS
 62
    3
 10
561.66731175357472
 20
400.26475899176177
 11
561.55895527401253
 21
400.26475899176177
  0
LINE
  8
_0-1_計細線
  6
CONTINUOUS
 62
    3
 10
561.05882911398612
 20
401.26475899176171
 11
561.55895527401253
 21
401.26475899176171
  0
LINE
  8
_0-1_計細線
  6
CONTINUOUS
 62
    3
 10
561.55895527401253
 20
400.26475899176177
 11
561.05882911398612
 21
400.26475899176177
  0
LINE
  8
_0-1_計細線
  6
CONTINUOUS
 62
    3
 10
573.65882903744625
 20
404.26475899176194
 11
563.65870295396053
 21
404.26475899176194
  0
ARC
  8
_0-1_計細線
  6
CONTINUOUS
 62
    3
 10
573.65882903744625
 20
405.26475899176199
 40
1
 50
269.99999999999977
 51
359.99999999999966
  0
LINE
  8
_0-1_計細線
  6
CONTINUOUS
 62
    3
 10
432.65882919052683
 20
430.76475899176211
 11
433.65882919052672
 21
430.76475899176211
  0
LINE
  8
_0-1_計細線
  6
CONTINUOUS
 62
    3
 10
434.65882919052689
 20
439.51475899176194
 11
434.65882919052689
 21
405.26475899176205
  0
ARC
  8
_0-1_計細線
  6
CONTINUOUS
 62
    3
 10
433.4088291905266
 20
439.51475899176194
 40
1.25
 50
0
 51
180.00000000001526
  0
ARC
  8
_0-1_計細線
  6
CONTINUOUS
 62
    3
 10
433.40882919052689
 20
439.51475899176194
 40
0.25
 50
0.0000000000260551
 51
89.999999999999915
  0
LINE
  8
_0-1_計細線
  6
CONTINUOUS
 62
    3
 10
433.40882919052689
 20
439.76475899176205
 11
433.41989135306176
 21
439.76475899176205
  0
LINE
  8
_0-1_計細線
  6
CONTINUOUS
 62
    3
 10
433.65882919052672
 20
435.83113196697252
 11
433.17208437789077
 21
439.48171806173923
  0
ARC
  8
_0-1_計細線
  6
CONTINUOUS
 62
    3
 10
433.41989135306176
 20
439.51475899176194
 40
0.25
 50
89.999999999999915
 51
187.59464336857042
  0
LINE
  8
_0-1_計細線
  6
CONTINUOUS
 62
    3
 10
432.65882919052683
 20
435.63201304134088
 11
432.65882919052683
 21
430.76475899176211
  0
LINE
  8
_0-1_計細線
  6
CONTINUOUS
 62
    3
 10
432.64128499189189
 20
435.89634048152305
 11
432.15882919052638
 21
439.51475899176194
  0
ARC
  8
_0-1_計細線
  6
CONTINUOUS
 62
    3
 10
430.65882919052677
 20
435.63201304134105
 40
2
 50
359.99999999999636
 51
7.5946433685904609
  0
LINE
  8
_0-1_計細線
  6
CONTINUOUS
 62
    3
 10
433.65882919052672
 20
439.51475899176211
 11
433.65882919052672
 21
405.26475899176199
  0
LINE
  8
_0-1_計細線
  6
CONTINUOUS
 62
    3
 10
434.65882911398671
 20
405.26475899176199
 11
444.65895527401244
 21
405.26475899176199
  0
ARC
  8
_0-1_計細線
  6
CONTINUOUS
 62
    3
 10
444.6503464743983
 20
403.76475899176199
 40
1.5000000000000002
 50
0
 51
89.999999999999915
  0
LINE
  8
_0-1_計細線
  6
CONTINUOUS
 62
    3
 10
445.15034647439825
 20
402.76477571176571
 11
445.15034647439825
 21
403.76475899176199
  0
ARC
  8
_0-1_計細線
  6
CONTINUOUS
 62
    3
 10
444.6503464743983
 20
403.76475899176199
 40
0.5
 50
0
 51
89.999999999999915
  0
LINE
  8
_0-1_計細線
  6
CONTINUOUS
 62
    3
 10
445.15034647439825
 20
402.76477571176571
 11
445.15034647439825
 21
401.76475899176177
  0
ARC
  8
_0-1_計細線
  6
CONTINUOUS
 62
    3
 10
446.65034647439825
 20
401.76475899176177
 40
1.5000000000000002
 50
179.99999999999983
 51
269.99999999999977
  0
LINE
  8
_0-1_計細線
  6
CONTINUOUS
 62
    3
 10
446.15034647439961
 20
403.264742271758
 11
446.15034647439961
 21
401.76475899176177
  0
ARC
  8
_0-1_計細線
  6
CONTINUOUS
 62
    3
 10
446.65034647439967
 20
401.76475899176177
 40
0.5
 50
179.99999999999983
 51
269.99999999999977
  0
LINE
  8
_0-1_計細線
  6
CONTINUOUS
 62
    3
 10
446.15034647439825
 20
403.76475899176199
 11
446.15034647439825
 21
403.264742271758
  0
LINE
  8
_0-1_計細線
  6
CONTINUOUS
 62
    3
 10
446.75870295396044
 20
401.26475899176171
 11
446.65034647439825
 21
401.26475899176171
  0
LINE
  8
_0-1_計細線
  6
CONTINUOUS
 62
    3
 10
446.65034647439825
 20
400.26475899176177
 11
446.75870295396044
 21
400.26475899176177
  0
LINE
  8
_0-1_計細線
  6
CONTINUOUS
 62
    3
 10
447.25882911398685
 20
401.26475899176171
 11
446.75870295396044
 21
401.26475899176171
  0
LINE
  8
_0-1_計細線
  6
CONTINUOUS
 62
    3
 10
446.75870295396044
 20
400.26475899176177
 11
447.25882911398685
 21
400.26475899176177
  0
LINE
  8
_0-1_計細線
  6
CONTINUOUS
 62
    3
 10
434.65882919052672
 20
404.26475899176194
 11
444.65895527401244
 21
404.26475899176194
  0
ARC
  8
_0-1_計細線
  6
CONTINUOUS
 62
    3
 10
434.65882919052672
 20
405.26475899176199
 40
1
 50
179.99999999999983
 51
269.99999999999977
  0
LINE
  8
_0-1_計細線
  6
CONTINUOUS
 62
    3
 10
574.90882903744637
 20
440.76475899176194
 11
433.4088291905266
 21
440.76475899176245
  0
LINE
  8
_0-1_計細線
  6
DASHED2
 62
    3
 10
437.65882911398717
 20
420.26475899176205
 11
437.65882911398717
 21
423.26475899176194
  0
LINE
  8
_0-1_計細線
  6
DASHED2
 62
    3
 10
440.65882911398654
 20
423.26475899176211
 11
440.65882911398654
 21
420.26475899176205
  0
LINE
  8
_0-1_計細線
  6
CONTINUOUS
 62
    3
 10
435.65882930291815
 20
420.26475899176205
 11
448.15882977975525
 21
420.26475899176205
  0
LINE
  8
_0-1_計細線
  6
CONTINUOUS
 62
    3
 10
448.15882977975525
 20
420.26475899176205
 11
448.15882911398717
 21
423.26475899176211
  0
LINE
  8
_0-1_計細線
  6
CONTINUOUS
 62
    3
 10
435.65882930291815
 20
420.26475899176205
 11
435.65882911398654
 21
423.26475899176194
  0
LINE
  8
_0-1_計細線
  6
CONTINUOUS
 62
    3
 10
435.65882911398654
 20
423.26475899176194
 11
448.15882911398717
 21
423.26475899176194
  0
LINE
  8
_1-5_寸法3
  6
CONTINUOUS
 62
    7
 10
882.46953019659441
 20
344.38028432122252
 11
837.46953019659475
 21
344.38028432122269
  0
LINE
  8
_1-5_寸法3
  6
CONTINUOUS
 62
    7
 10
842.46953019659475
 20
344.38028432122269
 11
845.05772064761982
 21
334.72102605833197
  0
LINE
  8
_1-5_寸法3
  6
CONTINUOUS
 62
    7
 10
842.46953019659475
 20
344.38028432122269
 11
839.88133974556945
 21
334.72102605833197
  0
LINE
  8
_1-5_寸法3
  6
CONTINUOUS
 62
    7
 10
884.96953019659475
 20
283.54695098788909
 11
837.46953019659475
 21
283.5469509878892
  0
LINE
  8
_1-5_寸法3
  6
CONTINUOUS
 62
    7
 10
842.46953019659475
 20
283.5469509878892
 11
839.88133974556945
 21
293.20620925077992
  0
LINE
  8
_1-5_寸法3
  6
CONTINUOUS
 62
    7
 10
842.46953019659475
 20
283.5469509878892
 11
845.05772064761982
 21
293.20620925077992
  0
LINE
  8
_1-5_寸法3
  6
CONTINUOUS
 62
    7
 10
842.46953019659475
 20
344.38028432122269
 11
842.46953019659475
 21
283.5469509878892
  0
TEXT
  8
_1-5_寸法3
 62
    7
 10
842.46953019659475
 20
298.96361765455583
 40
15
 41
1
 50
90
  1
36.5
  0
LINE
  8
_1-5_寸法3
  6
CONTINUOUS
 62
    7
 10
1142.4695301965946
 20
344.38028432122235
 11
1187.4695301965946
 21
344.38028432122195
  0
LINE
  8
_1-5_寸法3
  6
CONTINUOUS
 62
    7
 10
1182.4695301965946
 20
344.38028432122201
 11
1185.0577206476198
 21
334.72102605833135
  0
LINE
  8
_1-5_寸法3
  6
CONTINUOUS
 62
    7
 10
1182.4695301965946
 20
344.38028432122201
 11
1179.8813397455694
 21
334.72102605833135
  0
LINE
  8
_1-5_寸法3
  6
CONTINUOUS
 62
    7
 10
1142.4695301965946
 20
327.71361765455566
 11
1187.4695301965946
 21
327.71361765455532
  0
LINE
  8
_1-5_寸法3
  6
CONTINUOUS
 62
    7
 10
1182.4695301965946
 20
327.71361765455532
 11
1179.8813397455694
 21
337.37287591744598
  0
LINE
  8
_1-5_寸法3
  6
CONTINUOUS
 62
    7
 10
1182.4695301965946
 20
327.71361765455532
 11
1185.0577206476198
 21
337.37287591744598
  0
LINE
  8
_1-5_寸法3
  6
CONTINUOUS
 62
    7
 10
1182.4695301965946
 20
344.38028432122201
 11
1182.4695301965946
 21
327.71361765455532
  0
TEXT
  8
_1-5_寸法3
 62
    7
 10
1182.4695301965946
 20
328.54695098788864
 40
15
 41
1
 50
90
  1
10
  0
TEXT
  8
_0-7_枠細線
 62
    5
 10
964.41498588499815
 20
237.29869359341137
 40
25
 41
0.8
 50
0
  1
断面詳細図
  0
LINE
  8
_1-2_極細3
  6
CENTER1
 62
    2
 10
1012.4695301965947
 20
357.46038280875717
 11
1012.4695301965947
 21
275.06234067567982
  0
LINE
  8
_1-2_極細3
  6
CONTINUOUS
 62
    2
 10
1131.6361967356941
 20
327.71361765455276
 11
1129.9695300690275
 21
327.71361765455276
  0
LINE
  8
_1-2_極細3
  6
CONTINUOUS
 62
    2
 10
1128.3028634023606
 20
342.29695098788596
 11
1128.3028634023606
 21
285.21361765455265
  0
ARC
  8
_1-2_極細3
  6
CONTINUOUS
 62
    2
 10
1130.3861967356945
 20
342.29695098788596
 40
2.0833333333333339
 50
359.99999999998244
 51
179.99999999999946
  0
LINE
  8
_1-2_極細3
  6
CONTINUOUS
 62
    2
 10
1129.9695300690275
 20
342.29695098788613
 11
1129.9695300690275
 21
283.54695098788591
  0
ARC
  8
_1-2_極細3
  6
CONTINUOUS
 62
    2
 10
1130.3861967356941
 20
342.29695098788596
 40
0.4166666666666667
 50
89.999999999999915
 51
179.99999999998437
  0
LINE
  8
_1-2_極細3
  6
CONTINUOUS
 62
    2
 10
1130.3861967356941
 20
342.71361765455276
 11
1130.3677597981357
 21
342.71361765455276
  0
LINE
  8
_1-2_極細3
  6
CONTINUOUS
 62
    2
 10
1129.9695300690275
 20
336.15757261323688
 11
1130.7807714234207
 21
342.24188277118145
  0
ARC
  8
_1-2_極細3
  6
CONTINUOUS
 62
    2
 10
1130.3677597981357
 20
342.29695098788596
 40
0.4166666666666667
 50
352.4053566314289
 51
89.999999999999545
  0
LINE
  8
_1-2_極細3
  6
CONTINUOUS
 62
    2
 10
1129.9695300690275
 20
283.54695098788591
 11
894.96953032416218
 21
283.54695098788591
  0
LINE
  8
_1-2_極細3
  6
CONTINUOUS
 62
    2
 10
1128.3028634023606
 20
285.21361765455265
 11
896.63619699082915
 21
285.21361765455265
  0
LINE
  8
_1-2_極細3
  6
CONTINUOUS
 62
    2
 10
1131.6361967356941
 20
335.82570773718419
 11
1131.6361967356941
 21
327.71361765455276
  0
LINE
  8
_1-2_極細3
  6
CONTINUOUS
 62
    2
 10
1131.6654370667522
 20
336.26625347082103
 11
1132.469530069028
 21
342.29695098788596
  0
ARC
  8
_1-2_極細3
  6
CONTINUOUS
 62
    2
 10
1134.9695300690275
 20
335.8257077371843
 40
3.3333333333333339
 50
172.40535663140824
 51
180.00000000000256
  0
LINE
  8
_1-2_極細3
  6
CONTINUOUS
 62
    2
 10
893.30286365749555
 20
327.71361765455276
 11
894.96953032416218
 21
327.71361765455276
  0
LINE
  8
_1-2_極細3
  6
CONTINUOUS
 62
    2
 10
896.63619699082915
 20
342.29695098788596
 11
896.63619699082915
 21
285.21361765455265
  0
ARC
  8
_1-2_極細3
  6
CONTINUOUS
 62
    2
 10
894.55286365749521
 20
342.29695098788596
 40
2.0833333333333339
 50
0
 51
180.00000000001685
  0
LINE
  8
_1-2_極細3
  6
CONTINUOUS
 62
    2
 10
894.96953032416218
 20
342.29695098788613
 11
894.96953032416218
 21
283.54695098788591
  0
ARC
  8
_1-2_極細3
  6
CONTINUOUS
 62
    2
 10
894.55286365749555
 20
342.29695098788596
 40
0.4166666666666667
 50
0.000000000015633
 51
89.999999999999915
  0
LINE
  8
_1-2_極細3
  6
CONTINUOUS
 62
    2
 10
894.55286365749555
 20
342.71361765455276
 11
894.57130059505403
 21
342.71361765455276
  0
LINE
  8
_1-2_極細3
  6
CONTINUOUS
 62
    2
 10
894.96953032416218
 20
336.15757261323688
 11
894.15828896976905
 21
342.24188277118145
  0
ARC
  8
_1-2_極細3
  6
CONTINUOUS
 62
    2
 10
894.57130059505403
 20
342.29695098788596
 40
0.4166666666666667
 50
89.999999999999915
 51
187.59464336857042
  0
LINE
  8
_1-2_極細3
  6
CONTINUOUS
 62
    2
 10
893.30286365749555
 20
335.82570773718419
 11
893.30286365749555
 21
327.71361765455276
  0
LINE
  8
_1-2_極細3
  6
CONTINUOUS
 62
    2
 10
893.27362332643747
 20
336.26625347082103
 11
892.46953032416218
 21
342.29695098788596
  0
ARC
  8
_1-2_極細3
  6
CONTINUOUS
 62
    2
 10
889.96953032416218
 20
335.8257077371843
 40
3.3333333333333339
 50
359.9999999999967
 51
7.5946433685914272
  0
TEXT
  8
_0-7_枠細線
 62
    5
 10
1079.3639556341666
 20
239.05243570915644
 40
20
 41
0.6
 50
0
  1
Ｓ＝１：３
  0
LINE
  8
_1-3_細線3
  6
CONTINUOUS
 62
    4
 10
909.96953032416229
 20
318.54695098788898
 11
909.96953032416229
 21
343.54695098788898
  0
LINE
  8
_1-3_細線3
  6
CONTINUOUS
 62
    4
 10
1114.9695303241629
 20
318.54695098788977
 11
909.96953032416229
 21
318.54695098788898
  0
LINE
  8
_1-3_細線3
  6
CONTINUOUS
 62
    4
 10
1114.9695303241629
 20
343.54695098788977
 11
1114.9695303241629
 21
318.54695098788977
  0
LINE
  8
_1-3_細線3
  6
CONTINUOUS
 62
    4
 10
1118.3028636574959
 20
343.54695098788977
 11
906.63619699082915
 21
343.54695098788898
  0
LINE
  8
_1-3_細線3
  6
CONTINUOUS
 62
    4
 10
1118.3028636574959
 20
315.21361765455549
 11
1118.3028636574959
 21
343.54695098788977
  0
LINE
  8
_1-3_細線3
  6
CONTINUOUS
 62
    4
 10
906.63619699082915
 20
315.21361765455549
 11
1118.3028636574959
 21
315.21361765455549
  0
LINE
  8
_1-3_細線3
  6
CONTINUOUS
 62
    4
 10
906.63619699082915
 20
343.54695098788898
 11
906.63619699082915
 21
315.21361765455549
  0
LINE
  8
_1-5_寸法3
  6
CONTINUOUS
 62
    7
 10
1004.8121700036536
 20
321.64149375142097
 11
973.6607237498946
 21
347.78066081358918
  0
LINE
  8
_1-5_寸法3
  6
CONTINUOUS
 62
    7
 10
977.49094596548946
 20
344.56672276515644
 11
974.90275551446416
 21
354.22598102804716
  0
LINE
  8
_1-5_寸法3
  6
CONTINUOUS
 62
    7
 10
977.49094596548946
 20
344.56672276515644
 11
980.07913641651453
 21
354.22598102804716
  0
LINE
  8
_1-5_寸法3
  6
CONTINUOUS
 62
    7
 10
1004.8121700036536
 20
349.97482708475474
 11
973.6607237498946
 21
376.11399414692295
  0
LINE
  8
_1-5_寸法3
  6
CONTINUOUS
 62
    7
 10
977.49094596548946
 20
372.90005609849027
 11
980.07913641651453
 21
363.24079783559961
  0
LINE
  8
_1-5_寸法3
  6
CONTINUOUS
 62
    7
 10
977.49094596548946
 20
372.90005609849027
 11
974.90275551446416
 21
363.24079783559961
  0
LINE
  8
_1-5_寸法3
  6
CONTINUOUS
 62
    7
 10
977.49094596548946
 20
344.56672276515644
 11
977.49094596548946
 21
372.90005609849027
  0
TEXT
  8
_1-5_寸法3
 62
    7
 10
977.49094596548946
 20
351.2333894318233
 40
15
 41
1
 50
90
  1
17
  0
LINE
  8
_1-5_寸法3
  6
CONTINUOUS
 62
    7
 10
1067.0140005301632
 20
315.21361765455549
 11
1069.6021909811884
 21
305.55435939166478
  0
LINE
  8
_1-5_寸法3
  6
CONTINUOUS
 62
    7
 10
1067.0140005301632
 20
315.21361765455549
 11
1064.425810079138
 21
305.55435939166489
  0
LINE
  8
_1-5_寸法3
  6
CONTINUOUS
 62
    7
 10
1067.0140005301632
 20
318.54695098788932
 11
1064.425810079138
 21
328.20620925077998
  0
LINE
  8
_1-5_寸法3
  6
CONTINUOUS
 62
    7
 10
1067.0140005301632
 20
318.54695098788932
 11
1069.6021909811884
 21
328.20620925077998
  0
LINE
  8
_1-5_寸法3
  6
CONTINUOUS
 62
    7
 10
1067.0140005301632
 20
290.21361765455549
 11
1067.0140005301632
 21
343.54695098788932
  0
TEXT
  8
_1-5_寸法3
 62
    7
 10
1067.0140005301632
 20
295.11618731864633
 40
15
 41
1
 50
90
  1
2
  0
ARC
  8
_1-3_細線3
  6
CONTINUOUS
 62
    4
 10
1119.7368505208658
 20
288.5469509878892
 40
3.333333333333333
 50
269.99999999999977
 51
348.69006752597693
  0
LINE
  8
_1-3_細線3
  6
CONTINUOUS
 62
    4
 10
1119.7368505208658
 20
285.21361765455583
 11
1091.8688765389891
 21
285.21361765455583
  0
LINE
  8
_1-3_細線3
  6
CONTINUOUS
 62
    4
 10
1125.8028635299281
 20
301.88028432122269
 11
1123.0054527731688
 21
287.89323053742851
  0
ARC
  8
_1-3_細線3
  6
CONTINUOUS
 62
    4
 10
1091.8688765389891
 20
288.5469509878892
 40
3.333333333333333
 50
191.3099324740254
 51
269.99999999999977
  0
LINE
  8
_1-3_細線3
  6
CONTINUOUS
 62
    4
 10
1088.600274286687
 20
287.89323053742851
 11
1085.8028635299281
 21
301.88028432122269
  0
LINE
  8
_1-3_細線3
  6
CONTINUOUS
 62
    4
 10
1084.9695301965951
 20
315.21361765455651
 11
1126.6361968632611
 21
315.21361765455606
  0
LINE
  8
_1-3_細線3
  6
CONTINUOUS
 62
    4
 10
1084.9695301965951
 20
301.88028432122269
 11
1084.9695301965951
 21
315.2136176545564
  0
LINE
  8
_1-3_細線3
  6
CONTINUOUS
 62
    4
 10
1084.9695301965951
 20
301.88028432122269
 11
1126.6361968632611
 21
301.88028432122269
  0
LINE
  8
_1-3_細線3
  6
CONTINUOUS
 62
    4
 10
1126.6361968632611
 20
315.21361765455606
 11
1126.6361968632611
 21
301.88028432122269
  0
ARC
  8
_1-3_細線3
  6
CONTINUOUS
 62
    4
 10
933.07018385419974
 20
288.54695098788875
 40
3.333333333333333
 50
269.99999999999977
 51
348.69006752597676
  0
LINE
  8
_1-3_細線3
  6
CONTINUOUS
 62
    4
 10
933.07018385419974
 20
285.21361765455549
 11
905.2022098723229
 21
285.21361765455549
  0
LINE
  8
_1-3_細線3
  6
CONTINUOUS
 62
    4
 10
939.13619686326115
 20
301.88028432122235
 11
936.33878610650186
 21
287.89323053742817
  0
ARC
  8
_1-3_細線3
  6
CONTINUOUS
 62
    4
 10
905.2022098723229
 20
288.54695098788875
 40
3.333333333333333
 50
191.30993247401983
 51
269.99999999999977
  0
LINE
  8
_1-3_細線3
  6
CONTINUOUS
 62
    4
 10
901.93360762001998
 20
287.89323053742817
 11
899.13619686326126
 21
301.88028432122235
  0
LINE
  8
_1-3_細線3
  6
CONTINUOUS
 62
    4
 10
939.96953019659509
 20
315.21361765455583
 11
898.30286352992812
 21
315.21361765455583
  0
LINE
  8
_1-3_細線3
  6
CONTINUOUS
 62
    4
 10
939.96953019659509
 20
301.88028432122235
 11
939.96953019659509
 21
315.21361765455617
  0
LINE
  8
_1-3_細線3
  6
CONTINUOUS
 62
    4
 10
898.30286352992812
 20
301.88028432122235
 11
939.96953019659509
 21
301.88028432122235
  0
LINE
  8
_1-3_細線3
  6
CONTINUOUS
 62
    4
 10
898.30286352992812
 20
315.21361765455583
 11
898.30286352992812
 21
301.88028432122235
  0
LINE
  8
_1-5_寸法3
  6
CONTINUOUS
 62
    7
 10
892.46953032416161
 20
354.38028432121934
 11
892.46953032416172
 21
399.38028432121934
  0
LINE
  8
_1-5_寸法3
  6
CONTINUOUS
 62
    7
 10
892.46953032416172
 20
394.38028432121934
 11
882.81027206127089
 21
391.79209387019409
  0
LINE
  8
_1-5_寸法3
  6
CONTINUOUS
 62
    7
 10
892.46953032416172
 20
394.38028432121934
 11
882.81027206127089
 21
396.96847477224452
  0
LINE
  8
_1-5_寸法3
  6
CONTINUOUS
 62
    7
 10
896.63619699082915
 20
354.38028432121934
 11
896.63619699082926
 21
399.38028432121934
  0
CIRCLE
  8
_1-5_寸法3
  6
CONTINUOUS
 62
    1
 10
896.63619699082926
 20
394.38028432121934
 40
1.5000000000000002
  0
LINE
  8
_1-5_寸法3
  6
CONTINUOUS
 62
    7
 10
861.68895645071825
 20
394.38028432121934
 11
896.63619699082926
 21
394.38028432121934
  0
TEXT
  8
_1-5_寸法3
 62
    7
 10
861.68895645071848
 20
394.38028432121939
 40
15
 41
1
 50
0
  1
2.5
  0
LINE
  8
_1-5_寸法3
  6
CONTINUOUS
 62
    7
 10
906.63619699082915
 20
354.38028432121928
 11
906.63619699082915
 21
399.38028432121934
  0
LINE
  8
_1-5_寸法3
  6
CONTINUOUS
 62
    7
 10
896.63619699082926
 20
394.38028432121934
 11
906.63619699082915
 21
394.38028432121934
  0
TEXT
  8
_1-5_寸法3
 62
    7
 10
897.88619699082915
 20
394.38028432121934
 40
15
 41
1
 50
0
  1
6
  0
LINE
  8
_1-5_寸法3
  6
CONTINUOUS
 62
    7
 10
906.63619699082915
 20
394.38028432121934
 11
916.29545525371998
 21
396.96847477224452
  0
LINE
  8
_1-5_寸法3
  6
CONTINUOUS
 62
    7
 10
906.63619699082915
 20
394.38028432121934
 11
916.29545525371998
 21
391.79209387019409
  0
LINE
  8
_1-5_寸法3
  6
CONTINUOUS
 62
    7
 10
1118.3028636574959
 20
354.38028432121928
 11
1118.3028636574959
 21
399.38028432121934
  0
LINE
  8
_1-5_寸法3
  6
CONTINUOUS
 62
    7
 10
1118.3028636574959
 20
394.38028432121934
 11
1108.6436053946052
 21
391.79209387019409
  0
LINE
  8
_1-5_寸法3
  6
CONTINUOUS
 62
    7
 10
1118.3028636574959
 20
394.38028432121934
 11
1108.6436053946052
 21
396.96847477224452
  0
LINE
  8
_1-5_寸法3
  6
CONTINUOUS
 62
    7
 10
906.63619699082915
 20
394.38028432121934
 11
1118.3028636574959
 21
394.38028432121934
  0
TEXT
  8
_1-5_寸法3
 62
    7
 10
1001.2195303241627
 20
394.38028432121934
 40
15
 41
1
 50
0
  1
127
  0
LINE
  8
_1-5_寸法3
  6
CONTINUOUS
 62
    7
 10
1128.3028634023606
 20
354.38028432121928
 11
1128.3028634023606
 21
399.38028432121934
  0
CIRCLE
  8
_1-5_寸法3
  6
CONTINUOUS
 62
    1
 10
1128.3028634023606
 20
394.38028432121934
 40
1.5000000000000002
  0
LINE
  8
_1-5_寸法3
  6
CONTINUOUS
 62
    7
 10
1118.3028636574959
 20
394.38028432121934
 11
1128.3028634023606
 21
394.38028432121934
  0
TEXT
  8
_1-5_寸法3
 62
    7
 10
1119.5528635299281
 20
394.38028432121934
 40
15
 41
1
 50
0
  1
6
  0
LINE
  8
_1-5_寸法3
  6
CONTINUOUS
 62
    7
 10
1132.4695300690278
 20
354.38028432121928
 11
1132.4695300690278
 21
399.38028432121934
  0
LINE
  8
_1-5_寸法3
  6
CONTINUOUS
 62
    7
 10
1132.4695300690278
 20
394.38028432121934
 11
1142.1287883319185
 21
396.96847477224446
  0
LINE
  8
_1-5_寸法3
  6
CONTINUOUS
 62
    7
 10
1132.4695300690278
 20
394.38028432121934
 11
1142.1287883319185
 21
391.79209387019404
  0
LINE
  8
_1-5_寸法3
  6
CONTINUOUS
 62
    7
 10
1128.3028634023606
 20
394.38028432121934
 11
1168.0965131021458
 21
394.38028432121934
  0
TEXT
  8
_1-5_寸法3
 62
    7
 10
1145.5965131021458
 20
394.38028432121934
 40
15
 41
1
 50
0
  1
2.5
  0
LINE
  8
_1-5_寸法3
  6
CONTINUOUS
 62
    7
 10
892.46953019659475
 20
354.38028432122246
 11
892.46953019659475
 21
434.38028432121934
  0
LINE
  8
_1-5_寸法3
  6
CONTINUOUS
 62
    7
 10
892.46953019659475
 20
429.38028432121934
 11
902.12878845948535
 21
431.96847477224452
  0
LINE
  8
_1-5_寸法3
  6
CONTINUOUS
 62
    7
 10
892.46953019659475
 20
429.38028432121934
 11
902.12878845948535
 21
426.79209387019409
  0
LINE
  8
_1-5_寸法3
  6
CONTINUOUS
 62
    7
 10
1132.4695301965946
 20
354.38028432122246
 11
1132.4695301965946
 21
434.38028432121934
  0
LINE
  8
_1-5_寸法3
  6
CONTINUOUS
 62
    7
 10
1132.4695301965946
 20
429.38028432121934
 11
1122.8102719337039
 21
426.79209387019409
  0
LINE
  8
_1-5_寸法3
  6
CONTINUOUS
 62
    7
 10
1132.4695301965946
 20
429.38028432121934
 11
1122.8102719337039
 21
431.96847477224452
  0
LINE
  8
_1-5_寸法3
  6
CONTINUOUS
 62
    7
 10
892.46953019659475
 20
429.38028432121934
 11
1132.4695301965946
 21
429.38028432121934
  0
TEXT
  8
_1-5_寸法3
 62
    7
 10
1001.2195301965947
 20
429.38028432121928
 40
15
 41
1
 50
0
  1
144
  0
LINE
  8
_1-3_細線3
  6
CONTINUOUS
 62
    4
 10
979.14236521219084
 20
310.21361765455606
 11
979.14236521219084
 21
315.21361765455561
  0
LINE
  8
_1-3_細線3
  6
CONTINUOUS
 62
    4
 10
1045.8090318788577
 20
310.21361765455617
 11
979.14236521219084
 21
310.21361765455606
  0
LINE
  8
_1-3_細線3
  6
CONTINUOUS
 62
    4
 10
1045.8090318788577
 20
315.21361765455561
 11
1045.8090318788577
 21
310.21361765455617
  0
TEXT
  8
_0-7_枠細線
 62
    5
 10
948.21550687998695
 20
486.82938906564851
 40
25
 41
0.8
 50
0
  1
排水部詳細図
  0
TEXT
  8
_0-7_枠細線
 62
    5
 10
1086.7412503711701
 20
487.43861447905147
 40
20
 41
0.6
 50
0
  1
Ｓ＝１：４
  0
LINE
  8
_1-1_寸法4
  6
CONTINUOUS
 62
    7
 10
964.65703019659497
 20
629.24588508599527
 11
964.65703019659441
 21
560.49588508599527
  0
LINE
  8
_1-1_寸法4
  6
CONTINUOUS
 62
    7
 10
964.65703019659441
 20
565.49588508599527
 11
974.31628845948524
 21
568.08407553702045
  0
LINE
  8
_1-1_寸法4
  6
CONTINUOUS
 62
    7
 10
964.65703019659441
 20
565.49588508599527
 11
974.31628845948524
 21
562.90769463497008
  0
LINE
  8
_1-1_寸法4
  6
CONTINUOUS
 62
    7
 10
1060.2820301965944
 20
629.24588508599527
 11
1060.2820301965937
 21
560.49588508599527
  0
LINE
  8
_1-1_寸法4
  6
CONTINUOUS
 62
    7
 10
1060.2820301965937
 20
565.49588508599527
 11
1050.622771933703
 21
562.90769463497008
  0
LINE
  8
_1-1_寸法4
  6
CONTINUOUS
 62
    7
 10
1060.2820301965937
 20
565.49588508599527
 11
1050.622771933703
 21
568.08407553702045
  0
LINE
  8
_1-1_寸法4
  6
CONTINUOUS
 62
    7
 10
964.65703019659441
 20
565.49588508599527
 11
1060.2820301965937
 21
565.49588508599527
  0
TEXT
  8
_1-1_寸法4
 62
    7
 10
982.46953019659429
 20
565.49588508599527
 40
15
 41
1
 50
0
  1
VU65内接
  0
LINE
  8
_1-1_寸法4
  6
CONTINUOUS
 62
    7
 10
961.09453019659497
 20
629.24588508599527
 11
961.09453019659429
 21
530.49588508599527
  0
LINE
  8
_1-1_寸法4
  6
CONTINUOUS
 62
    7
 10
961.09453019659429
 20
535.49588508599527
 11
970.75378845948489
 21
538.08407553702045
  0
LINE
  8
_1-1_寸法4
  6
CONTINUOUS
 62
    7
 10
961.09453019659429
 20
535.49588508599527
 11
970.75378845948489
 21
532.90769463497008
  0
LINE
  8
_1-1_寸法4
  6
CONTINUOUS
 62
    7
 10
1063.8445301965949
 20
629.24588508599527
 11
1063.8445301965937
 21
530.49588508599527
  0
LINE
  8
_1-1_寸法4
  6
CONTINUOUS
 62
    7
 10
1063.8445301965937
 20
535.49588508599527
 11
1054.185271933703
 21
532.90769463497008
  0
LINE
  8
_1-1_寸法4
  6
CONTINUOUS
 62
    7
 10
1063.8445301965937
 20
535.49588508599527
 11
1054.185271933703
 21
538.08407553702045
  0
LINE
  8
_1-1_寸法4
  6
CONTINUOUS
 62
    7
 10
961.09453019659429
 20
535.49588508599527
 11
1063.8445301965937
 21
535.49588508599527
  0
TEXT
  8
_1-1_寸法4
 62
    7
 10
982.46953019659429
 20
535.49588508599527
 40
15
 41
1
 50
0
  1
VU75外接
  0
LINE
  8
_1-1_寸法4
  6
CONTINUOUS
 62
    7
 10
978.09453019659497
 20
622.99588508599527
 11
978.09453019659463
 21
590.49588508599527
  0
LINE
  8
_1-1_寸法4
  6
CONTINUOUS
 62
    7
 10
978.09453019659475
 20
595.49588508599527
 11
987.75378845948535
 21
598.08407553702045
  0
LINE
  8
_1-1_寸法4
  6
CONTINUOUS
 62
    7
 10
978.09453019659475
 20
595.49588508599527
 11
987.75378845948535
 21
592.90769463497008
  0
LINE
  8
_1-1_寸法4
  6
CONTINUOUS
 62
    7
 10
1046.8445301965944
 20
622.99588508599527
 11
1046.8445301965944
 21
590.49588508599527
  0
LINE
  8
_1-1_寸法4
  6
CONTINUOUS
 62
    7
 10
1046.8445301965944
 20
595.49588508599527
 11
1037.1852719337035
 21
592.90769463497008
  0
LINE
  8
_1-1_寸法4
  6
CONTINUOUS
 62
    7
 10
1046.8445301965944
 20
595.49588508599527
 11
1037.1852719337035
 21
598.08407553702045
  0
LINE
  8
_1-1_寸法4
  6
CONTINUOUS
 62
    7
 10
978.09453019659475
 20
595.49588508599527
 11
1046.8445301965944
 21
595.49588508599527
  0
TEXT
  8
_1-1_寸法4
 62
    7
 10
982.46953019659475
 20
595.49588508599527
 40
15
 41
1
 50
0
  1
VU50外接
  0
CIRCLE
  8
_1-1_寸法4
  6
CONTINUOUS
 62
    7
 10
1067.8445301965946
 20
796.181806344405
 40
22.573972114296122
  0
TEXT
  8
_1-1_寸法4
 62
    7
 10
1079.4501229845691
 20
815.54399715682973
 40
15
 41
0.8000000000000001
 50
0
  1
Ｃ部
  0
LINE
  8
_1-1_寸法4
  6
CONTINUOUS
 62
    7
 10
983.71183196625623
 20
803.67020205081747
 11
974.8136007130272
 21
808.2332581061446
  0
LINE
  8
_1-1_寸法4
  6
CONTINUOUS
 62
    7
 10
983.71183196625623
 20
803.67020205081747
 11
978.28726567987485
 21
812.07104014023776
  0
LINE
  8
_1-1_寸法4
  6
CONTINUOUS
 62
    7
 10
983.71183196625623
 20
803.67020205081747
 11
964.33699327673696
 21
821.20681507267011
  0
LINE
  8
_1-1_寸法4
  6
CONTINUOUS
 62
    7
 10
964.33699327673696
 20
821.20681507267011
 11
892.33699327673685
 21
821.20681507267011
  0
TEXT
  8
_1-1_寸法4
 62
    7
 10
892.33699327673685
 20
821.20681507267022
 40
15
 41
0.8000000000000001
 50
-0.0000000000002261
  1
ストレーナー
  0
LINE
  8
_1-1_寸法4
  6
CONTINUOUS
 62
    7
 10
993.29896643622476
 20
738.44080912186814
 11
987.28420229092137
 21
730.45190354748729
  0
LINE
  8
_1-1_寸法4
  6
CONTINUOUS
 62
    7
 10
993.29896643622476
 20
738.44080912186814
 11
984.09557510142974
 21
734.52959601867087
  0
LINE
  8
_1-1_寸法4
  6
CONTINUOUS
 62
    7
 10
993.29896643622476
 20
738.44080912186814
 11
936.81479763738093
 21
694.27196665014867
  0
LINE
  8
_1-1_寸法4
  6
CONTINUOUS
 62
    7
 10
936.81479763738093
 20
694.27196665014867
 11
840.81479763738059
 21
694.27196665014867
  0
TEXT
  8
_1-1_寸法4
 62
    7
 10
840.81479763738059
 20
694.2719666501489
 40
15
 41
0.8000000000000001
 50
-0.0000000000001696
  1
防臭インナー１号
  0
LINE
  8
_1-1_寸法4
  6
CONTINUOUS
 62
    7
 10
956.06006304196421
 20
683.27767070309437
 11
949.99252464879089
 21
675.32877280166394
  0
LINE
  8
_1-1_寸法4
  6
CONTINUOUS
 62
    7
 10
956.06006304196421
 20
683.27767070309437
 11
946.83097170432347
 21
679.42749238495344
  0
LINE
  8
_1-1_寸法4
  6
CONTINUOUS
 62
    7
 10
956.06006304196421
 20
683.27767070309437
 11
936.81479763738093
 21
668.43280896749707
  0
LINE
  8
_1-1_寸法4
  6
CONTINUOUS
 62
    7
 10
936.81479763738093
 20
668.43280896749707
 11
864.81479763738093
 21
668.43280896749707
  0
TEXT
  8
_1-1_寸法4
 62
    7
 10
864.81479763738093
 20
668.43280896749718
 40
15
 41
0.8000000000000001
 50
-0.000000000000113
  1
トラップ本体
  0
LINE
  8
_1-1_寸法4
  6
CONTINUOUS
 62
    7
 10
970.45301343361075
 20
758.28931673875354
 11
964.44234049524778
 21
750.29733257785654
  0
LINE
  8
_1-1_寸法4
  6
CONTINUOUS
 62
    7
 10
970.45301343361075
 20
758.28931673875354
 11
961.25162589470028
 21
754.37339189795523
  0
LINE
  8
_1-1_寸法4
  6
CONTINUOUS
 62
    7
 10
970.45301343361075
 20
758.28931673875354
 11
936.81479763738093
 21
731.9575247189066
  0
LINE
  8
_1-1_寸法4
  6
CONTINUOUS
 62
    7
 10
936.81479763738093
 20
731.9575247189066
 11
840.81479763738059
 21
731.9575247189066
  0
TEXT
  8
_1-1_寸法4
 62
    7
 10
840.81479763738059
 20
731.95752471890683
 40
15
 41
0.8000000000000001
 50
-0.0000000000001696
  1
防臭インナー２号
  0
LINE
  8
_0-e_極細4
  6
CONTINUOUS
 62
    6
 10
958.28203019659463
 20
793.92156980837956
 11
962.78203019659509
 21
793.92156980837956
  0
LINE
  8
_0-e_極細4
  6
CONTINUOUS
 62
    6
 10
958.28203019659463
 20
794.67156980837956
 11
963.37283387421564
 21
794.67156980837956
  0
LINE
  8
_0-e_極細4
  6
CONTINUOUS
 62
    6
 10
958.28203019659463
 20
795.42156980837945
 11
962.78203019659509
 21
795.42156980837945
  0
LINE
  8
_0-e_極細4
  6
CONTINUOUS
 62
    6
 10
958.28203019659463
 20
796.17156980837933
 11
962.78203019659509
 21
796.17156980837933
  0
LINE
  8
_0-e_極細4
  6
CONTINUOUS
 62
    6
 10
958.2637921579925
 20
796.92156980837967
 11
962.81622651897419
 21
796.92156980837967
  0
LINE
  8
_0-e_極細4
  6
CONTINUOUS
 62
    6
 10
957.86379215799229
 20
797.67156980837945
 11
963.24783387421519
 21
797.67156980837945
  0
LINE
  8
_0-e_極細4
  6
CONTINUOUS
 62
    6
 10
957.4637921579922
 20
798.42156980837956
 11
962.78203019659509
 21
798.42156980837956
  0
LINE
  8
_0-e_極細4
  6
CONTINUOUS
 62
    6
 10
1062.1570301965946
 20
793.92156980837956
 11
1066.6570301965951
 21
793.92156980837956
  0
LINE
  8
_0-e_極細4
  6
CONTINUOUS
 62
    6
 10
1061.5662265189742
 20
794.67156980837956
 11
1066.6570301965951
 21
794.67156980837956
  0
LINE
  8
_0-e_極細4
  6
CONTINUOUS
 62
    6
 10
1062.1570301965946
 20
795.42156980837945
 11
1066.6570301965951
 21
795.42156980837945
  0
LINE
  8
_0-e_極細4
  6
CONTINUOUS
 62
    6
 10
1062.1570301965946
 20
796.17156980837933
 11
1066.6570301965951
 21
796.17156980837933
  0
LINE
  8
_0-e_極細4
  6
CONTINUOUS
 62
    6
 10
1062.1228338742146
 20
796.92156980837967
 11
1066.6752682351973
 21
796.92156980837967
  0
LINE
  8
_0-e_極細4
  6
CONTINUOUS
 62
    6
 10
1061.6912265189742
 20
797.67156980837945
 11
1067.075268235197
 21
797.67156980837945
  0
LINE
  8
_0-e_極細4
  6
CONTINUOUS
 62
    6
 10
1062.1570301965946
 20
798.42156980837956
 11
1067.4752682351977
 21
798.42156980837956
  0
LINE
  8
_0-e_極細4
  6
CONTINUOUS
 62
    6
 10
958.10806115951323
 20
785.75473598599979
 11
958.10806115951323
 21
788.25473598599979
  0
LINE
  8
_0-e_極細4
  6
CONTINUOUS
 62
    6
 10
957.35806115951334
 20
785.75473598599979
 11
957.35806115951334
 21
788.25473598599979
  0
LINE
  8
_0-e_極細4
  6
CONTINUOUS
 62
    6
 10
956.60806115951334
 20
785.75473598599979
 11
956.60806115951334
 21
788.25473598599979
  0
LINE
  8
_0-e_極細4
  6
CONTINUOUS
 62
    6
 10
955.85806115951323
 20
785.75473598599979
 11
955.85806115951323
 21
803.22177805664694
  0
LINE
  8
_0-e_極細4
  6
CONTINUOUS
 62
    6
 10
955.10806115951323
 20
785.75473598599979
 11
955.10806115951323
 21
803.6142490167548
  0
LINE
  8
_0-e_極細4
  6
CONTINUOUS
 62
    6
 10
954.35806115951323
 20
785.75473598599979
 11
954.35806115951323
 21
803.6297359859999
  0
LINE
  8
_0-e_極細4
  6
CONTINUOUS
 62
    6
 10
953.60806115951334
 20
785.75473598599979
 11
953.60806115951334
 21
803.6297359859999
  0
LINE
  8
_0-e_極細4
  6
CONTINUOUS
 62
    6
 10
952.85806115951334
 20
785.75473598599979
 11
952.85806115951334
 21
803.70483518968035
  0
LINE
  8
_0-e_極細4
  6
CONTINUOUS
 62
    6
 10
952.10806115951323
 20
785.75473598599979
 11
952.10806115951323
 21
804.08151014376301
  0
LINE
  8
_0-e_極細4
  6
CONTINUOUS
 62
    6
 10
951.35806115951323
 20
786.24120502308165
 11
951.35806115951323
 21
805.23293510107601
  0
LINE
  8
_0-e_極細4
  6
CONTINUOUS
 62
    6
 10
950.60806115951277
 20
786.99120502308165
 11
950.60806115951277
 21
806.60317020999719
  0
LINE
  8
_0-e_極細4
  6
CONTINUOUS
 62
    6
 10
1074.3580611595132
 20
787.01826694891849
 11
1074.3580611595132
 21
806.61704445066016
  0
LINE
  8
_0-e_極細4
  6
CONTINUOUS
 62
    6
 10
1073.6080611595137
 20
786.26826694891872
 11
1073.6080611595137
 21
805.3546710153056
  0
LINE
  8
_0-e_極細4
  6
CONTINUOUS
 62
    6
 10
1072.8580611595132
 20
785.75473598599979
 11
1072.8580611595132
 21
804.10305398720175
  0
LINE
  8
_0-e_極細4
  6
CONTINUOUS
 62
    6
 10
1072.1080611595132
 20
785.75473598599979
 11
1072.1080611595132
 21
803.71241993074955
  0
LINE
  8
_0-e_極細4
  6
CONTINUOUS
 62
    6
 10
1071.3580611595132
 20
785.75473598599979
 11
1071.3580611595132
 21
803.6297359859999
  0
LINE
  8
_0-e_極細4
  6
CONTINUOUS
 62
    6
 10
1070.6080611595132
 20
785.75473598599979
 11
1070.6080611595132
 21
803.6297359859999
  0
LINE
  8
_0-e_極細4
  6
CONTINUOUS
 62
    6
 10
1069.8580611595135
 20
785.75473598599979
 11
1069.8580611595135
 21
803.61815528562499
  0
LINE
  8
_0-e_極細4
  6
CONTINUOUS
 62
    6
 10
1069.1080611595132
 20
785.75473598599979
 11
1069.1080611595132
 21
803.24940414063474
  0
LINE
  8
_0-e_極細4
  6
CONTINUOUS
 62
    6
 10
1068.3580611595132
 20
785.75473598599979
 11
1068.3580611595132
 21
788.25473598599979
  0
LINE
  8
_0-e_極細4
  6
CONTINUOUS
 62
    6
 10
1067.6080611595132
 20
785.75473598599979
 11
1067.6080611595132
 21
788.25473598599979
  0
LINE
  8
_0-e_極細4
  6
CONTINUOUS
 62
    6
 10
1066.8580611595128
 20
785.75473598599979
 11
1066.8580611595128
 21
788.25473598599979
  0
LINE
  8
_0-e_極細4
  6
CONTINUOUS
 62
    6
 10
1066.1080611595137
 20
783.25473598600001
 11
1066.1080611595137
 21
790.75473598599979
  0
LINE
  8
_0-e_極細4
  6
CONTINUOUS
 62
    6
 10
1065.3580611595132
 20
783.25473598600001
 11
1065.3580611595132
 21
783.56937680995475
  0
LINE
  8
_0-e_極細4
  6
CONTINUOUS
 62
    6
 10
1065.3580611595132
 20
785.88070973599997
 11
1065.3580611595132
 21
790.75473598599979
  0
LINE
  8
_0-e_極細4
  6
CONTINUOUS
 62
    6
 10
1064.6080611595132
 20
785.88070973599997
 11
1064.6080611595132
 21
790.75473598599979
  0
LINE
  8
_0-e_極細4
  6
CONTINUOUS
 62
    6
 10
1063.8580611595132
 20
785.88070973599997
 11
1063.8580611595132
 21
790.75473598599979
  0
LINE
  8
_0-e_極細4
  6
CONTINUOUS
 62
    6
 10
1063.1080611595132
 20
785.88070973599997
 11
1063.1080611595132
 21
790.75473598599979
  0
LINE
  8
_0-e_極細4
  6
CONTINUOUS
 62
    6
 10
961.85806115951323
 20
785.88070973599997
 11
961.85806115951323
 21
790.75473598599979
  0
LINE
  8
_0-e_極細4
  6
CONTINUOUS
 62
    6
 10
961.10806115951334
 20
785.88070973599997
 11
961.10806115951334
 21
790.75473598599979
  0
LINE
  8
_0-e_極細4
  6
CONTINUOUS
 62
    6
 10
960.35806115951334
 20
785.88070973599997
 11
960.35806115951334
 21
790.75473598599979
  0
LINE
  8
_0-e_極細4
  6
CONTINUOUS
 62
    6
 10
959.60806115951323
 20
783.25473598600001
 11
959.60806115951323
 21
783.51347822634068
  0
LINE
  8
_0-e_極細4
  6
CONTINUOUS
 62
    6
 10
959.60806115951323
 20
785.88070973599997
 11
959.60806115951323
 21
790.75473598599979
  0
LINE
  8
_0-e_極細4
  6
CONTINUOUS
 62
    6
 10
958.85806115951323
 20
783.25473598600001
 11
958.85806115951323
 21
790.75473598599979
  0
LINE
  8
_0-e_極細4
  6
CONTINUOUS
 62
    6
 10
974.60806115951323
 20
783.62973598600001
 11
974.60806115951323
 21
785.75473598599979
  0
LINE
  8
_0-e_極細4
  6
CONTINUOUS
 62
    6
 10
973.85806115951323
 20
783.62973598600001
 11
973.85806115951323
 21
785.75473598599979
  0
LINE
  8
_0-e_極細4
  6
CONTINUOUS
 62
    6
 10
973.10806115951323
 20
783.62973598600001
 11
973.10806115951323
 21
785.75473598599979
  0
LINE
  8
_0-e_極細4
  6
CONTINUOUS
 62
    6
 10
972.35806115951334
 20
783.62973598600001
 11
972.35806115951334
 21
785.75473598599979
  0
LINE
  8
_0-e_極細4
  6
CONTINUOUS
 62
    6
 10
971.60806115951334
 20
783.62973598600001
 11
971.60806115951334
 21
785.75473598599979
  0
LINE
  8
_0-e_極細4
  6
CONTINUOUS
 62
    6
 10
970.85806115951323
 20
783.62973598600001
 11
970.85806115951323
 21
785.75473598599979
  0
LINE
  8
_0-e_極細4
  6
CONTINUOUS
 62
    6
 10
970.10806115951323
 20
783.62973598600001
 11
970.10806115951323
 21
785.75473598599979
  0
LINE
  8
_0-e_極細4
  6
CONTINUOUS
 62
    6
 10
969.35806115951311
 20
783.62973598600001
 11
969.35806115951311
 21
785.75473598599979
  0
LINE
  8
_0-e_極細4
  6
CONTINUOUS
 62
    6
 10
1055.6080611595132
 20
783.62973598600001
 11
1055.6080611595132
 21
785.75473598599979
  0
LINE
  8
_0-e_極細4
  6
CONTINUOUS
 62
    6
 10
1054.8580611595137
 20
783.62973598600001
 11
1054.8580611595137
 21
785.75473598599979
  0
LINE
  8
_0-e_極細4
  6
CONTINUOUS
 62
    6
 10
1054.108061159513
 20
783.62973598600001
 11
1054.108061159513
 21
785.75473598599979
  0
LINE
  8
_0-e_極細4
  6
CONTINUOUS
 62
    6
 10
1053.3580611595132
 20
783.62973598600001
 11
1053.3580611595132
 21
785.75473598599979
  0
LINE
  8
_0-e_極細4
  6
CONTINUOUS
 62
    6
 10
1052.6080611595132
 20
783.62973598600001
 11
1052.6080611595132
 21
785.75473598599979
  0
LINE
  8
_0-e_極細4
  6
CONTINUOUS
 62
    6
 10
1051.8580611595132
 20
783.62973598600001
 11
1051.8580611595132
 21
785.75473598599979
  0
LINE
  8
_0-e_極細4
  6
CONTINUOUS
 62
    6
 10
1051.1080611595135
 20
783.62973598600001
 11
1051.1080611595135
 21
785.75473598599979
  0
LINE
  8
_0-e_極細4
  6
CONTINUOUS
 62
    6
 10
1050.358061159513
 20
783.62973598600001
 11
1050.358061159513
 21
785.75473598599979
  0
LINE
  8
_0-e_極細4
  6
CONTINUOUS
 62
    6
 10
977.60806115951357
 20
785.75473598599979
 11
977.60806115951357
 21
786.52747029449176
  0
LINE
  8
_0-e_極細4
  6
CONTINUOUS
 62
    6
 10
976.85806115951323
 20
785.75473598599979
 11
976.85806115951323
 21
787.543915964132
  0
LINE
  8
_0-e_極細4
  6
CONTINUOUS
 62
    6
 10
976.10806115951334
 20
785.75473598599979
 11
976.10806115951334
 21
788.28642238856617
  0
LINE
  8
_0-e_極細4
  6
CONTINUOUS
 62
    6
 10
975.35806115951334
 20
785.75473598599979
 11
975.35806115951334
 21
788.85332030795723
  0
LINE
  8
_0-e_極細4
  6
CONTINUOUS
 62
    6
 10
974.60806115951323
 20
785.75473598599979
 11
974.60806115951323
 21
789.2893959461054
  0
LINE
  8
_0-e_極細4
  6
CONTINUOUS
 62
    6
 10
973.85806115951323
 20
785.75473598599979
 11
973.85806115951323
 21
789.61906951895628
  0
LINE
  8
_0-e_極細4
  6
CONTINUOUS
 62
    6
 10
973.10806115951323
 20
785.75473598599979
 11
973.10806115951323
 21
789.85685387755223
  0
LINE
  8
_0-e_極細4
  6
CONTINUOUS
 62
    6
 10
972.35806115951334
 20
785.75473598599979
 11
972.35806115951334
 21
790.01159670721017
  0
LINE
  8
_0-e_極細4
  6
CONTINUOUS
 62
    6
 10
971.60806115951334
 20
785.75473598599979
 11
971.60806115951334
 21
790.08844672103862
  0
LINE
  8
_0-e_極細4
  6
CONTINUOUS
 62
    6
 10
970.85806115951323
 20
785.75473598599979
 11
970.85806115951323
 21
790.08980151409469
  0
LINE
  8
_0-e_極細4
  6
CONTINUOUS
 62
    6
 10
970.10806115951323
 20
785.75473598599979
 11
970.10806115951323
 21
790.01570245544872
  0
LINE
  8
_0-e_極細4
  6
CONTINUOUS
 62
    6
 10
969.35806115951277
 20
785.75473598599979
 11
969.35806115951277
 21
789.86384124969561
  0
LINE
  8
_0-e_極細4
  6
CONTINUOUS
 62
    6
 10
968.60806115951334
 20
785.75473598599979
 11
968.60806115951334
 21
789.62918075151276
  0
LINE
  8
_0-e_極細4
  6
CONTINUOUS
 62
    6
 10
967.85806115951289
 20
785.75473598599979
 11
967.85806115951289
 21
789.30303257364676
  0
LINE
  8
_0-e_極細4
  6
CONTINUOUS
 62
    6
 10
967.10806115951323
 20
785.75473598599979
 11
967.10806115951323
 21
788.87114207390607
  0
LINE
  8
_0-e_極細4
  6
CONTINUOUS
 62
    6
 10
966.35806115951277
 20
785.75473598599979
 11
966.35806115951277
 21
788.14863889947719
  0
LINE
  8
_0-e_極細4
  6
CONTINUOUS
 62
    6
 10
965.60806115951277
 20
785.75473598599979
 11
965.60806115951277
 21
786.19898498625935
  0
ARC
  8
_0-e_極細4
  6
CONTINUOUS
 62
    6
 10
971.21953019659509
 20
782.59851723600013
 40
7.5
 50
0
 51
24.886947317069033
  0
LINE
  8
_0-e_極細4
  6
CONTINUOUS
 62
    6
 10
978.02307950575323
 20
785.75473598599979
 11
965.59453019659509
 21
785.75473598599979
  0
ARC
  8
_0-e_極細4
  6
CONTINUOUS
 62
    6
 10
971.21953019659509
 20
782.59851723600013
 40
7.5
 50
24.886947317069033
 51
124.83370764384777
  0
LINE
  8
_0-e_極細4
  6
CONTINUOUS
 62
    6
 10
965.59453019659509
 20
782.1307097360002
 11
965.59453019659509
 21
785.75473598599979
  0
ARC
  8
_0-e_極細4
  6
CONTINUOUS
 62
    6
 10
969.34453019659509
 20
785.88070973599997
 40
3.75
 50
129.97050058004112
 51
181.92509931279508
  0
LINE
  8
_0-e_極細4
  6
CONTINUOUS
 62
    6
 10
1058.6080611595137
 20
785.75473598599979
 11
1058.6080611595137
 21
788.11255451902809
  0
LINE
  8
_0-e_極細4
  6
CONTINUOUS
 62
    6
 10
1057.858061159513
 20
785.75473598599979
 11
1057.858061159513
 21
788.85332030795712
  0
LINE
  8
_0-e_極細4
  6
CONTINUOUS
 62
    6
 10
1057.1080611595132
 20
785.75473598599979
 11
1057.1080611595132
 21
789.28939594610529
  0
LINE
  8
_0-e_極細4
  6
CONTINUOUS
 62
    6
 10
1056.3580611595132
 20
785.75473598599979
 11
1056.3580611595132
 21
789.61906951895594
  0
LINE
  8
_0-e_極細4
  6
CONTINUOUS
 62
    6
 10
1055.6080611595132
 20
785.75473598599979
 11
1055.6080611595132
 21
789.856853877552
  0
LINE
  8
_0-e_極細4
  6
CONTINUOUS
 62
    6
 10
1054.8580611595135
 20
785.75473598599979
 11
1054.8580611595135
 21
790.01159670721006
  0
LINE
  8
_0-e_極細4
  6
CONTINUOUS
 62
    6
 10
1054.108061159513
 20
785.75473598599979
 11
1054.108061159513
 21
790.08844672103862
  0
LINE
  8
_0-e_極細4
  6
CONTINUOUS
 62
    6
 10
1053.3580611595132
 20
785.75473598599979
 11
1053.3580611595132
 21
790.08980151409492
  0
LINE
  8
_0-e_極細4
  6
CONTINUOUS
 62
    6
 10
1052.6080611595132
 20
785.75473598599979
 11
1052.6080611595132
 21
790.01570245544872
  0
LINE
  8
_0-e_極細4
  6
CONTINUOUS
 62
    6
 10
1051.8580611595128
 20
785.75473598599979
 11
1051.8580611595128
 21
789.86384124969595
  0
LINE
  8
_0-e_極細4
  6
CONTINUOUS
 62
    6
 10
1051.1080611595135
 20
785.75473598599979
 11
1051.1080611595135
 21
789.62918075151288
  0
LINE
  8
_0-e_極細4
  6
CONTINUOUS
 62
    6
 10
1050.358061159513
 20
785.75473598599979
 11
1050.358061159513
 21
789.30303257364687
  0
LINE
  8
_0-e_極細4
  6
CONTINUOUS
 62
    6
 10
1049.6080611595132
 20
785.75473598599979
 11
1049.6080611595132
 21
788.87114207390641
  0
LINE
  8
_0-e_極細4
  6
CONTINUOUS
 62
    6
 10
1048.8580611595128
 20
785.75473598599979
 11
1048.8580611595128
 21
788.30956957348553
  0
LINE
  8
_0-e_極細4
  6
CONTINUOUS
 62
    6
 10
1048.1080611595128
 20
785.75473598599979
 11
1048.1080611595128
 21
787.57460156465356
  0
LINE
  8
_0-e_極細4
  6
CONTINUOUS
 62
    6
 10
1047.3580611595135
 20
785.75473598599979
 11
1047.3580611595135
 21
786.57113749097664
  0
LINE
  8
_0-e_極細4
  6
CONTINUOUS
 62
    6
 10
1059.3445301965946
 20
782.1307097360002
 11
1059.3445301965946
 21
785.75473598599979
  0
LINE
  8
_0-e_極細4
  6
CONTINUOUS
 62
    6
 10
1046.9159808874363
 20
785.75473598599979
 11
1059.3445301965946
 21
785.75473598599979
  0
ARC
  8
_0-e_極細4
  6
CONTINUOUS
 62
    6
 10
1055.5945301965946
 20
785.88070973599997
 40
3.75
 50
358.07490068720398
 51
50.02949941996652
  0
ARC
  8
_0-e_極細4
  6
CONTINUOUS
 62
    6
 10
1053.7195301965946
 20
782.59851723600013
 40
7.5
 50
55.166292356156504
 51
155.11305268293171
  0
ARC
  8
_0-e_極細4
  6
CONTINUOUS
 62
    6
 10
1053.7195301965946
 20
782.59851723600013
 40
7.5
 50
155.11305268293171
 51
179.99999999999983
  0
LINE
  8
_0-e_極細4
  6
CONTINUOUS
 62
    6
 10
947.3946623032333
 20
805.17156980837956
 11
949.99578019659509
 21
805.17156980837956
  0
LINE
  8
_0-e_極細4
  6
CONTINUOUS
 62
    6
 10
941.34453019659475
 20
805.92156980837956
 11
949.99578019659509
 21
805.92156980837956
  0
LINE
  8
_0-e_極細4
  6
CONTINUOUS
 62
    6
 10
941.34453019659475
 20
806.67156980837956
 11
949.99578019659509
 21
806.67156980837956
  0
LINE
  8
_0-e_極細4
  6
CONTINUOUS
 62
    6
 10
941.34453019659475
 20
807.42156980837967
 11
945.25194226380131
 21
807.42156980837967
  0
LINE
  8
_0-e_極細4
  6
CONTINUOUS
 62
    6
 10
1074.9432801965947
 20
805.17156980837956
 11
1077.5443980899561
 21
805.17156980837956
  0
LINE
  8
_0-e_極細4
  6
CONTINUOUS
 62
    6
 10
1074.9432801965947
 20
805.92156980837956
 11
1083.5945301965951
 21
805.92156980837956
  0
LINE
  8
_0-e_極細4
  6
CONTINUOUS
 62
    6
 10
1074.9432801965947
 20
806.67156980837956
 11
1083.5945301965951
 21
806.67156980837956
  0
LINE
  8
_0-e_極細4
  6
CONTINUOUS
 62
    6
 10
1079.6871181293884
 20
807.42156980837967
 11
1083.5945301965951
 21
807.42156980837967
  0
LINE
  8
_0-e_極細4
  6
CONTINUOUS
 62
    6
 10
979.40964858465418
 20
632.99588508599527
 11
980.61304397178162
 21
634.1992804731226
  0
LINE
  8
_0-e_極細4
  6
CONTINUOUS
 62
    6
 10
978.07261983526075
 20
634.31050676605139
 11
980.6544760097421
 21
636.89236294053239
  0
LINE
  8
_0-e_極細4
  6
CONTINUOUS
 62
    6
 10
978.02915015608914
 20
636.91868751632967
 11
980.69590804770189
 21
639.58544540794207
  0
LINE
  8
_0-e_極細4
  6
CONTINUOUS
 62
    6
 10
977.98568047691811
 20
639.52686826660783
 11
980.73734008566203
 21
642.27852787535176
  0
LINE
  8
_0-e_極細4
  6
CONTINUOUS
 62
    6
 10
977.94221079774684
 20
642.13504901688623
 11
980.77877212362205
 21
644.97161034276144
  0
LINE
  8
_0-e_極細4
  6
CONTINUOUS
 62
    6
 10
977.89874111857557
 20
644.74322976716451
 11
980.82020416158218
 21
647.66469281017112
  0
LINE
  8
_0-e_極細4
  6
CONTINUOUS
 62
    6
 10
977.85527143940442
 20
647.35141051744267
 11
980.86163619954232
 21
650.35777527758091
  0
LINE
  8
_0-e_極細4
  6
CONTINUOUS
 62
    6
 10
977.81180176023281
 20
649.95959126772095
 11
980.90306823750268
 21
653.05085774499048
  0
LINE
  8
_0-e_極細4
  6
CONTINUOUS
 62
    6
 10
964.44644514905758
 20
639.24588508599516
 11
964.65915731828761
 21
639.45859725522496
  0
LINE
  8
_0-e_極細4
  6
CONTINUOUS
 62
    6
 10
977.76833208106177
 20
652.56777201799923
 11
980.94450027546247
 21
655.74394021240028
  0
LINE
  8
_0-e_極細4
  6
CONTINUOUS
 62
    6
 10
961.79479471960792
 20
639.24588508599527
 11
964.68594166605976
 21
642.13703203244677
  0
LINE
  8
_0-e_極細4
  6
CONTINUOUS
 62
    6
 10
977.7248624018905
 20
655.17595276827751
 11
980.98593231342295
 21
658.43702267981018
  0
LINE
  8
_0-e_極細4
  6
CONTINUOUS
 62
    6
 10
961.06379970987928
 20
641.16654050571628
 11
964.71272601383203
 21
644.81546680966858
  0
LINE
  8
_0-e_極細4
  6
CONTINUOUS
 62
    6
 10
977.68139272271878
 20
657.78413351855579
 11
981.02736435138308
 21
661.13010514721964
  0
LINE
  8
_0-e_極細4
  6
CONTINUOUS
 62
    6
 10
961.02204143539996
 20
643.77643266068605
 11
964.73951036160418
 21
647.49390158689027
  0
LINE
  8
_0-e_極細4
  6
CONTINUOUS
 62
    6
 10
977.6379230435474
 20
660.39231426883373
 11
981.06879638934311
 21
663.82318761462943
  0
LINE
  8
_0-e_極細4
  6
CONTINUOUS
 62
    6
 10
960.98028316092064
 20
646.38632481565639
 11
964.76629470937667
 21
650.17233636411208
  0
LINE
  8
_0-e_極細4
  6
CONTINUOUS
 62
    6
 10
977.59445336437636
 20
663.00049501911212
 11
981.11022842730324
 21
666.51627008203923
  0
LINE
  8
_0-e_極細4
  6
CONTINUOUS
 62
    6
 10
960.93852488644063
 20
648.99621697062628
 11
964.79307905714847
 21
652.85077114133389
  0
LINE
  8
_0-e_極細4
  6
CONTINUOUS
 62
    6
 10
977.5509836852051
 20
665.60867576939063
 11
981.15166046526338
 21
669.20935254944868
  0
LINE
  8
_0-e_極細4
  6
CONTINUOUS
 62
    6
 10
960.89676661196131
 20
651.60610912559628
 11
964.8198634049204
 21
655.5292059185557
  0
LINE
  8
_0-e_極細4
  6
CONTINUOUS
 62
    6
 10
977.50751400603372
 20
668.21685651966857
 11
981.19309250322374
 21
671.90243501685836
  0
LINE
  8
_0-e_極細4
  6
CONTINUOUS
 62
    6
 10
960.85500833748199
 20
654.21600128056639
 11
964.84664775269289
 21
658.2076406957774
  0
LINE
  8
_0-e_極細4
  6
CONTINUOUS
 62
    6
 10
977.13489214291099
 20
670.49588508599527
 11
980.25989214291099
 21
673.62088508599538
  0
LINE
  8
_0-e_極細4
  6
CONTINUOUS
 62
    6
 10
960.81325006300244
 20
656.8258934355365
 11
964.87343210046515
 21
660.88607547299921
  0
LINE
  8
_0-e_極細4
  6
CONTINUOUS
 62
    6
 10
974.48324171346144
 20
670.49588508599527
 11
977.60824171346133
 21
673.62088508599538
  0
LINE
  8
_0-e_極細4
  6
CONTINUOUS
 62
    6
 10
960.77149178852312
 20
659.4357855905065
 11
964.9002164482373
 21
663.56451025022102
  0
LINE
  8
_0-e_極細4
  6
CONTINUOUS
 62
    6
 10
971.83159128401201
 20
670.49588508599527
 11
974.95659128401201
 21
673.62088508599538
  0
LINE
  8
_0-e_極細4
  6
CONTINUOUS
 62
    6
 10
960.72973351404346
 20
662.04567774547672
 11
964.92700079600979
 21
666.24294502744249
  0
LINE
  8
_0-e_極細4
  6
CONTINUOUS
 62
    6
 10
969.17994085456201
 20
670.49588508599527
 11
972.30494085456212
 21
673.62088508599538
  0
LINE
  8
_0-e_極細4
  6
CONTINUOUS
 62
    6
 10
960.68797523956414
 20
664.65556990044649
 11
964.9537851437816
 21
668.9213798046643
  0
LINE
  8
_0-e_極細4
  6
CONTINUOUS
 62
    6
 10
966.5282904251128
 20
670.49588508599527
 11
969.6532904251128
 21
673.62088508599538
  0
LINE
  8
_0-e_極細4
  6
CONTINUOUS
 62
    6
 10
960.64621696508482
 20
667.26546205541672
 11
967.00163999566325
 21
673.62088508599538
  0
LINE
  8
_0-e_極細4
  6
CONTINUOUS
 62
    6
 10
960.60445869060482
 20
669.87535421038672
 11
964.34998956621371
 21
673.62088508599538
  0
LINE
  8
_0-e_極細4
  6
CONTINUOUS
 62
    6
 10
958.60101796459617
 20
670.5235639138275
 11
961.72601796459617
 21
673.6485639138275
  0
LINE
  8
_0-e_極細4
  6
CONTINUOUS
 62
    6
 10
956.37329743551038
 20
670.94749381419149
 11
959.49829743551049
 21
674.07249381419149
  0
LINE
  8
_0-e_極細4
  6
CONTINUOUS
 62
    6
 10
954.51408200441153
 20
671.73992881254185
 11
957.63908200441153
 21
674.86492881254185
  0
LINE
  8
_0-e_極細4
  6
CONTINUOUS
 62
    6
 10
952.93913542366863
 20
672.81663266124895
 11
956.06413542366897
 21
675.94163266124883
  0
LINE
  8
_0-e_極細4
  6
CONTINUOUS
 62
    6
 10
951.61820375374214
 20
674.14735142077177
 11
954.74320375374214
 21
677.27235142077177
  0
LINE
  8
_0-e_極細4
  6
CONTINUOUS
 62
    6
 10
950.55183715167027
 20
675.73263524814934
 11
953.67683715167027
 21
678.85763524814956
  0
LINE
  8
_0-e_極細4
  6
CONTINUOUS
 62
    6
 10
949.77174887095032
 20
677.60419739687882
 11
952.89674887095032
 21
680.72919739687893
  0
LINE
  8
_0-e_極細4
  6
CONTINUOUS
 62
    6
 10
949.36544021045415
 20
679.84953916583265
 11
952.49044021045461
 21
682.97453916583265
  0
LINE
  8
_0-e_極細4
  6
CONTINUOUS
 62
    6
 10
949.34453019659509
 20
682.48027958142279
 11
952.46953019659509
 21
685.60527958142279
  0
LINE
  8
_0-e_極細4
  6
CONTINUOUS
 62
    6
 10
949.34453019659509
 20
685.13193001087234
 11
952.46953019659509
 21
688.25693001087234
  0
LINE
  8
_0-e_極細4
  6
CONTINUOUS
 62
    6
 10
949.34453019659509
 20
687.78358044032177
 11
952.46953019659509
 21
690.90858044032188
  0
LINE
  8
_0-e_極細4
  6
CONTINUOUS
 62
    6
 10
949.34453019659509
 20
690.43523086977132
 11
952.46953019659509
 21
693.56023086977132
  0
LINE
  8
_0-e_極細4
  6
CONTINUOUS
 62
    6
 10
949.34453019659509
 20
693.08688129922086
 11
952.46953019659509
 21
696.21188129922075
  0
LINE
  8
_0-e_極細4
  6
CONTINUOUS
 62
    6
 10
949.34453019659509
 20
695.73853172867052
 11
952.46953019659509
 21
698.86353172867052
  0
LINE
  8
_0-e_極細4
  6
CONTINUOUS
 62
    6
 10
949.34453019659509
 20
698.39018215812007
 11
952.46953019659509
 21
701.51518215812007
  0
LINE
  8
_0-e_極細4
  6
CONTINUOUS
 62
    6
 10
949.34453019659509
 20
701.04183258756962
 11
952.46953019659509
 21
704.1668325875695
  0
LINE
  8
_0-e_極細4
  6
CONTINUOUS
 62
    6
 10
949.34453019659509
 20
703.69348301701939
 11
952.46953019659509
 21
706.81848301701893
  0
LINE
  8
_0-e_極細4
  6
CONTINUOUS
 62
    6
 10
949.34453019659509
 20
706.34513344646894
 11
952.46953019659509
 21
709.47013344646848
  0
LINE
  8
_0-e_極細4
  6
CONTINUOUS
 62
    6
 10
949.34453019659509
 20
708.99678387591825
 11
952.46953019659509
 21
712.12178387591825
  0
LINE
  8
_0-e_極細4
  6
CONTINUOUS
 62
    6
 10
949.34453019659509
 20
711.64843430536746
 11
952.46953019659509
 21
714.7734343053678
  0
LINE
  8
_0-e_極細4
  6
CONTINUOUS
 62
    6
 10
949.34453019659509
 20
714.30008473481723
 11
952.46953019659509
 21
717.42508473481723
  0
LINE
  8
_0-e_極細4
  6
CONTINUOUS
 62
    6
 10
949.34453019659509
 20
716.95173516426667
 11
952.46953019659509
 21
720.07673516426678
  0
LINE
  8
_0-e_極細4
  6
CONTINUOUS
 62
    6
 10
949.34453019659509
 20
719.60338559371621
 11
952.46953019659509
 21
722.72838559371644
  0
LINE
  8
_0-e_極細4
  6
CONTINUOUS
 62
    6
 10
949.34453019659509
 20
722.25503602316599
 11
952.46953019659509
 21
725.38003602316599
  0
LINE
  8
_0-e_極細4
  6
CONTINUOUS
 62
    6
 10
949.34453019659509
 20
724.90668645261553
 11
952.46953019659509
 21
728.03168645261553
  0
LINE
  8
_0-e_極細4
  6
CONTINUOUS
 62
    6
 10
949.34453019659509
 20
727.55833688206496
 11
952.46953019659509
 21
730.68333688206519
  0
LINE
  8
_0-e_極細4
  6
CONTINUOUS
 62
    6
 10
949.34453019659509
 20
730.20998731151451
 11
952.46953019659509
 21
733.3349873115144
  0
LINE
  8
_0-e_極細4
  6
CONTINUOUS
 62
    6
 10
949.34453019659509
 20
732.86163774096417
 11
952.46953019659509
 21
735.98663774096406
  0
LINE
  8
_0-e_極細4
  6
CONTINUOUS
 62
    6
 10
949.34453019659509
 20
735.51328817041383
 11
952.46953019659509
 21
738.63828817041383
  0
LINE
  8
_0-e_極細4
  6
CONTINUOUS
 62
    6
 10
949.34453019659509
 20
738.16493859986326
 11
952.46953019659509
 21
741.28993859986326
  0
LINE
  8
_0-e_極細4
  6
CONTINUOUS
 62
    6
 10
949.34453019659509
 20
740.81658902931292
 11
952.46953019659509
 21
743.94158902931292
  0
LINE
  8
_0-e_極細4
  6
CONTINUOUS
 62
    6
 10
949.34453019659509
 20
743.46823945876258
 11
952.46953019659509
 21
746.59323945876224
  0
LINE
  8
_0-e_極細4
  6
CONTINUOUS
 62
    6
 10
949.34453019659509
 20
746.1198898882119
 11
952.46953019659509
 21
749.24488988821179
  0
LINE
  8
_0-e_極細4
  6
CONTINUOUS
 62
    6
 10
949.34453019659509
 20
748.77154031766156
 11
952.46953019659509
 21
751.89654031766145
  0
LINE
  8
_0-e_極細4
  6
CONTINUOUS
 62
    6
 10
949.34453019659509
 20
751.42319074711111
 11
952.46953019659509
 21
754.54819074711099
  0
LINE
  8
_0-e_極細4
  6
CONTINUOUS
 62
    6
 10
949.34453019659509
 20
754.07484117656065
 11
952.46953019659509
 21
757.19984117656065
  0
LINE
  8
_0-e_極細4
  6
CONTINUOUS
 62
    6
 10
949.34453019659509
 20
756.72649160601031
 11
952.46953019659509
 21
759.85149160600997
  0
LINE
  8
_0-e_極細4
  6
CONTINUOUS
 62
    6
 10
949.34453019659509
 20
759.37814203545986
 11
952.46953019659509
 21
762.50314203545963
  0
LINE
  8
_0-e_極細4
  6
CONTINUOUS
 62
    6
 10
949.34453019659509
 20
762.02979246490929
 11
952.46953019659509
 21
765.15479246490929
  0
LINE
  8
_0-e_極細4
  6
CONTINUOUS
 62
    6
 10
949.34453019659509
 20
764.68144289435872
 11
952.46953019659509
 21
767.80644289435872
  0
LINE
  8
_0-e_極細4
  6
CONTINUOUS
 62
    6
 10
949.34453019659509
 20
767.33309332380816
 11
952.46953019659509
 21
770.45809332380827
  0
LINE
  8
_0-e_極細4
  6
CONTINUOUS
 62
    6
 10
949.34453019659509
 20
769.98474375325804
 11
952.46953019659509
 21
773.10974375325804
  0
LINE
  8
_0-e_極細4
  6
CONTINUOUS
 62
    6
 10
949.34453019659509
 20
772.63639418270736
 11
952.46953019659509
 21
775.76139418270759
  0
LINE
  8
_0-e_極細4
  6
CONTINUOUS
 62
    6
 10
949.01559765921797
 20
774.95911207478002
 11
952.46953019659509
 21
778.41304461215714
  0
LINE
  8
_0-e_極細4
  6
CONTINUOUS
 62
    6
 10
948.10247109948091
 20
776.6976359444925
 11
952.46953019659509
 21
781.06469504160657
  0
LINE
  8
_0-e_極細4
  6
CONTINUOUS
 62
    6
 10
946.76795643043477
 20
778.01477170489557
 11
951.84453019659509
 21
783.091345471056
  0
LINE
  8
_0-e_極細4
  6
CONTINUOUS
 62
    6
 10
946.21953019659475
 20
780.11799590050543
 11
951.84453019659509
 21
785.74299590050543
  0
LINE
  8
_0-e_極細4
  6
CONTINUOUS
 62
    6
 10
946.21953019659475
 20
782.76964632995509
 11
950.52457502461709
 21
787.07469115797767
  0
LINE
  8
_0-e_極細4
  6
CONTINUOUS
 62
    6
 10
946.21953019659475
 20
785.42129675940475
 11
949.99578019659509
 21
789.19754675940464
  0
LINE
  8
_0-e_極細4
  6
CONTINUOUS
 62
    6
 10
946.21953019659475
 20
788.07294718885419
 11
949.99578019659509
 21
791.8491971888543
  0
LINE
  8
_0-e_極細4
  6
CONTINUOUS
 62
    6
 10
943.86583856429093
 20
788.3709059859998
 11
949.99578019659509
 21
794.50084761830385
  0
LINE
  8
_0-e_極細4
  6
CONTINUOUS
 62
    6
 10
941.34453019659486
 20
788.50124804775328
 11
949.99578019659509
 21
797.1524980477534
  0
LINE
  8
_0-e_極細4
  6
CONTINUOUS
 62
    6
 10
941.34453019659486
 20
791.15289847720294
 11
949.99578019659509
 21
799.80414847720283
  0
LINE
  8
_0-e_極細4
  6
CONTINUOUS
 62
    6
 10
941.34453019659486
 20
793.80454890665249
 11
949.99578019659509
 21
802.45579890665249
  0
LINE
  8
_0-e_極細4
  6
CONTINUOUS
 62
    6
 10
941.34453019659475
 20
796.45619933610203
 11
949.7837459359996
 21
804.89541507550689
  0
LINE
  8
_0-e_極細4
  6
CONTINUOUS
 62
    6
 10
941.34453019659475
 20
799.10784976555169
 11
947.40684234550361
 21
805.17016191446021
  0
LINE
  8
_0-e_極細4
  6
CONTINUOUS
 62
    6
 10
941.34453019659475
 20
801.7595001950009
 11
945.02993875500749
 21
805.44490875341364
  0
LINE
  8
_0-e_極細4
  6
CONTINUOUS
 62
    6
 10
941.34453019659486
 20
804.41115062445056
 11
942.65303516451127
 21
805.7196555923673
  0
LINE
  8
_0-e_極細4
  6
CONTINUOUS
 62
    6
 10
980.25989214291099
 20
673.62088508599538
 11
981.21953019659509
 21
674.5805231396796
  0
LINE
  8
_0-e_極細4
  6
CONTINUOUS
 62
    6
 10
977.60824171346133
 20
673.62088508599538
 11
981.21953019659509
 21
677.23217356912915
  0
LINE
  8
_0-e_極細4
  6
CONTINUOUS
 62
    6
 10
974.95659128401201
 20
673.62088508599538
 11
981.21953019659509
 21
679.88382399857858
  0
LINE
  8
_0-e_極細4
  6
CONTINUOUS
 62
    6
 10
972.30494085456212
 20
673.62088508599516
 11
981.21953019659509
 21
682.53547442802801
  0
LINE
  8
_0-e_極細4
  6
CONTINUOUS
 62
    6
 10
969.6532904251128
 20
673.62088508599516
 11
981.21953019659509
 21
685.18712485747744
  0
LINE
  8
_0-e_極細4
  6
CONTINUOUS
 62
    6
 10
967.00163999566325
 20
673.62088508599516
 11
979.50163999566325
 21
686.12088508599527
  0
LINE
  8
_0-e_極細4
  6
CONTINUOUS
 62
    6
 10
964.34998956621359
 20
673.62088508599538
 11
976.92352902544314
 21
686.19442454522459
  0
LINE
  8
_0-e_極細4
  6
CONTINUOUS
 62
    6
 10
961.72601796459617
 20
673.6485639138275
 11
974.67104117607755
 21
686.59358712530877
  0
LINE
  8
_0-e_極細4
  6
CONTINUOUS
 62
    6
 10
959.49829743551049
 20
674.07249381419149
 11
972.68214200670809
 21
687.25633838538886
  0
LINE
  8
_0-e_極細4
  6
CONTINUOUS
 62
    6
 10
957.63908200441153
 20
674.86492881254185
 11
970.90552586404624
 21
688.13137267217655
  0
LINE
  8
_0-e_極細4
  6
CONTINUOUS
 62
    6
 10
956.06413542366897
 20
675.94163266124883
 11
969.313845228128
 21
689.19134246570809
  0
LINE
  8
_0-e_極細4
  6
CONTINUOUS
 62
    6
 10
954.74320375374214
 20
677.27235142077177
 11
967.8931841674522
 21
690.42233183448161
  0
LINE
  8
_0-e_極細4
  6
CONTINUOUS
 62
    6
 10
953.67683715167027
 20
678.85763524814956
 11
966.63892296559982
 21
691.819721062079
  0
LINE
  8
_0-e_極細4
  6
CONTINUOUS
 62
    6
 10
952.89674887095032
 20
680.72919739687893
 11
965.55453174832178
 21
693.38698027425016
  0
LINE
  8
_0-e_極細4
  6
CONTINUOUS
 62
    6
 10
952.49044021045461
 20
682.97453916583265
 11
964.652469132497
 21
695.13656808787482
  0
LINE
  8
_0-e_極細4
  6
CONTINUOUS
 62
    6
 10
952.46953019659509
 20
685.60527958142279
 11
963.95779150611202
 21
697.09354089093949
  0
LINE
  8
_0-e_極細4
  6
CONTINUOUS
 62
    6
 10
952.46953019659509
 20
688.25693001087234
 11
963.51737764557004
 21
699.30477745984717
  0
LINE
  8
_0-e_極細4
  6
CONTINUOUS
 62
    6
 10
952.46953019659509
 20
690.90858044032188
 11
963.40703019659509
 21
701.84608044032177
  0
LINE
  8
_0-e_極細4
  6
CONTINUOUS
 62
    6
 10
952.46953019659509
 20
693.56023086977132
 11
963.40703019659509
 21
704.49773086977132
  0
LINE
  8
_0-e_極細4
  6
CONTINUOUS
 62
    6
 10
952.46953019659509
 20
696.21188129922075
 11
963.40703019659509
 21
707.14938129922086
  0
LINE
  8
_0-e_極細4
  6
CONTINUOUS
 62
    6
 10
952.46953019659509
 20
698.86353172867052
 11
963.40703019659509
 21
709.80103172867052
  0
LINE
  8
_0-e_極細4
  6
CONTINUOUS
 62
    6
 10
952.46953019659509
 20
701.51518215812007
 11
963.40703019659509
 21
712.45268215812007
  0
LINE
  8
_0-e_極細4
  6
CONTINUOUS
 62
    6
 10
952.46953019659509
 20
704.1668325875695
 11
963.40703019659509
 21
715.10433258756939
  0
LINE
  8
_0-e_極細4
  6
CONTINUOUS
 62
    6
 10
952.46953019659509
 20
706.81848301701893
 11
963.40703019659509
 21
717.75598301701905
  0
LINE
  8
_0-e_極細4
  6
CONTINUOUS
 62
    6
 10
952.46953019659509
 20
709.47013344646848
 11
963.40703019659509
 21
720.40763344646859
  0
LINE
  8
_0-e_極細4
  6
CONTINUOUS
 62
    6
 10
952.46953019659509
 20
712.12178387591825
 11
963.40703019659509
 21
723.05928387591825
  0
LINE
  8
_0-e_極細4
  6
CONTINUOUS
 62
    6
 10
952.46953019659509
 20
714.7734343053678
 11
963.40703019659509
 21
725.71093430536757
  0
LINE
  8
_0-e_極細4
  6
CONTINUOUS
 62
    6
 10
952.46953019659509
 20
717.42508473481723
 11
963.40703019659509
 21
728.36258473481712
  0
LINE
  8
_0-e_極細4
  6
CONTINUOUS
 62
    6
 10
952.46953019659509
 20
720.07673516426678
 11
963.40703019659509
 21
731.01423516426667
  0
LINE
  8
_0-e_極細4
  6
CONTINUOUS
 62
    6
 10
952.46953019659509
 20
722.72838559371644
 11
963.40703019659509
 21
733.66588559371633
  0
LINE
  8
_0-e_極細4
  6
CONTINUOUS
 62
    6
 10
952.46953019659509
 20
725.38003602316599
 11
963.40703019659509
 21
736.31753602316599
  0
LINE
  8
_0-e_極細4
  6
CONTINUOUS
 62
    6
 10
952.46953019659509
 20
728.03168645261553
 11
963.40703019659509
 21
738.96918645261553
  0
LINE
  8
_0-e_極細4
  6
CONTINUOUS
 62
    6
 10
952.46953019659509
 20
730.68333688206519
 11
963.40703019659509
 21
741.62083688206496
  0
LINE
  8
_0-e_極細4
  6
CONTINUOUS
 62
    6
 10
952.46953019659509
 20
733.3349873115144
 11
963.40703019659509
 21
744.27248731151451
  0
LINE
  8
_0-e_極細4
  6
CONTINUOUS
 62
    6
 10
952.46953019659509
 20
735.98663774096406
 11
962.5155403651604
 21
746.03264790952971
  0
LINE
  8
_0-e_極細4
  6
CONTINUOUS
 62
    6
 10
952.46953019659509
 20
738.63828817041383
 11
959.86388993571097
 21
746.03264790952971
  0
LINE
  8
_0-e_極細4
  6
CONTINUOUS
 62
    6
 10
952.46953019659509
 20
741.28993859986326
 11
957.21223950626143
 21
746.03264790952971
  0
LINE
  8
_0-e_極細4
  6
CONTINUOUS
 62
    6
 10
952.46953019659509
 20
743.94158902931292
 11
954.56058907681177
 21
746.03264790952971
  0
LINE
  8
_0-e_極細4
  6
CONTINUOUS
 62
    6
 10
952.46953019659509
 20
746.59323945876224
 11
952.5977248258489
 21
746.72143408801639
  0
LINE
  8
_0-e_極細4
  6
CONTINUOUS
 62
    6
 10
1065.6229123774581
 20
674.13109157815688
 11
1071.959323704433
 21
680.46750290513148
  0
LINE
  8
_0-e_極細4
  6
CONTINUOUS
 62
    6
 10
1062.4610554558474
 20
673.62088508599538
 11
1072.4695301965946
 21
683.62935982674276
  0
LINE
  8
_0-e_極細4
  6
CONTINUOUS
 62
    6
 10
1059.8094050263974
 20
673.62088508599538
 11
1072.4695301965946
 21
686.2810102561923
  0
LINE
  8
_0-e_極細4
  6
CONTINUOUS
 62
    6
 10
1057.1577545969485
 20
673.62088508599538
 11
1072.4695301965946
 21
688.93266068564208
  0
LINE
  8
_0-e_極細4
  6
CONTINUOUS
 62
    6
 10
1054.5061041674987
 20
673.62088508599538
 11
1072.4695301965946
 21
691.58431111509162
  0
LINE
  8
_0-e_極細4
  6
CONTINUOUS
 62
    6
 10
1051.8544537380487
 20
673.62088508599538
 11
1072.4695301965946
 21
694.23596154454106
  0
LINE
  8
_0-e_極細4
  6
CONTINUOUS
 62
    6
 10
1049.2028033085992
 20
673.62088508599538
 11
1072.4695301965946
 21
696.8876119739906
  0
LINE
  8
_0-e_極細4
  6
CONTINUOUS
 62
    6
 10
1046.5511528791496
 20
673.62088508599538
 11
1072.4695301965946
 21
699.53926240344015
  0
LINE
  8
_0-e_極細4
  6
CONTINUOUS
 62
    6
 10
1043.8995024497001
 20
673.62088508599538
 11
1072.4695301965946
 21
702.19091283288981
  0
LINE
  8
_0-e_極細4
  6
CONTINUOUS
 62
    6
 10
1043.7195301965944
 20
676.09256326233935
 11
1072.4695301965946
 21
704.84256326233935
  0
LINE
  8
_0-e_極細4
  6
CONTINUOUS
 62
    6
 10
1043.7195301965944
 20
678.74421369178879
 11
1052.2140184052803
 21
687.23870190047467
  0
LINE
  8
_0-e_極細4
  6
CONTINUOUS
 62
    6
 10
1060.414213382116
 20
695.4388968773095
 11
1072.4695301965946
 21
707.4942136917889
  0
LINE
  8
_0-e_極細4
  6
CONTINUOUS
 62
    6
 10
1043.7195301965944
 20
681.39586412123833
 11
1048.5858178243518
 21
686.26215174899562
  0
LINE
  8
_0-e_極細4
  6
CONTINUOUS
 62
    6
 10
1061.390763533595
 20
699.06709745823821
 11
1072.4695301965946
 21
710.14586412123867
  0
LINE
  8
_0-e_極細4
  6
CONTINUOUS
 62
    6
 10
1043.7195301965944
 20
684.04751455068799
 11
1045.7929007319019
 21
686.12088508599516
  0
LINE
  8
_0-e_極細4
  6
CONTINUOUS
 62
    6
 10
1061.5320301965944
 20
701.86001455068799
 11
1072.4695301965946
 21
712.79751455068777
  0
LINE
  8
_0-e_極細4
  6
CONTINUOUS
 62
    6
 10
1061.5320301965944
 20
704.51166498013754
 11
1072.4695301965946
 21
715.44916498013754
  0
LINE
  8
_0-e_極細4
  6
CONTINUOUS
 62
    6
 10
1061.5320301965944
 20
707.16331540958709
 11
1072.4695301965946
 21
718.10081540958674
  0
LINE
  8
_0-e_極細4
  6
CONTINUOUS
 62
    6
 10
1061.5320301965944
 20
709.81496583903652
 11
1072.4695301965946
 21
720.7524658390364
  0
LINE
  8
_0-e_極細4
  6
CONTINUOUS
 62
    6
 10
1061.5320301965944
 20
712.46661626848606
 11
1072.4695301965946
 21
723.40411626848595
  0
LINE
  8
_0-e_極細4
  6
CONTINUOUS
 62
    6
 10
1061.5320301965944
 20
715.11826669793561
 11
1072.4695301965946
 21
726.0557666979355
  0
LINE
  8
_0-e_極細4
  6
CONTINUOUS
 62
    6
 10
1061.5320301965944
 20
717.76991712738527
 11
1072.4695301965946
 21
728.70741712738527
  0
LINE
  8
_0-e_極細4
  6
CONTINUOUS
 62
    6
 10
1061.5320301965944
 20
720.42156755683482
 11
1072.4695301965946
 21
731.35906755683482
  0
LINE
  8
_0-e_極細4
  6
CONTINUOUS
 62
    6
 10
1061.5320301965944
 20
723.07321798628436
 11
1072.4695301965946
 21
734.01071798628425
  0
LINE
  8
_0-e_極細4
  6
CONTINUOUS
 62
    6
 10
1061.5320301965944
 20
725.72486841573414
 11
1072.4695301965946
 21
736.66236841573379
  0
LINE
  8
_0-e_極細4
  6
CONTINUOUS
 62
    6
 10
1061.5320301965944
 20
728.37651884518368
 11
1072.4695301965946
 21
739.31401884518345
  0
LINE
  8
_0-e_極細4
  6
CONTINUOUS
 62
    6
 10
1061.5320301965944
 20
731.02816927463311
 11
1072.4695301965946
 21
741.96566927463311
  0
LINE
  8
_0-e_極細4
  6
CONTINUOUS
 62
    6
 10
1061.5320301965944
 20
733.67981970408266
 11
1072.4695301965946
 21
744.61731970408255
  0
LINE
  8
_0-e_極細4
  6
CONTINUOUS
 62
    6
 10
1061.5320301965944
 20
736.33147013353232
 11
1071.2332079725929
 21
746.0326479095296
  0
LINE
  8
_0-e_極細4
  6
CONTINUOUS
 62
    6
 10
1072.4695241756788
 20
747.26896411261635
 11
1072.4695301965946
 21
747.26897013353221
  0
LINE
  8
_0-e_極細4
  6
CONTINUOUS
 62
    6
 10
1061.5320301965944
 20
738.98312056298153
 11
1068.5815575431429
 21
746.03264790952971
  0
LINE
  8
_0-e_極細4
  6
CONTINUOUS
 62
    6
 10
1061.5320301965944
 20
741.63477099243119
 11
1065.9299071136932
 21
746.0326479095296
  0
LINE
  8
_0-e_極細4
  6
CONTINUOUS
 62
    6
 10
1061.5320301965944
 20
744.28642142188073
 11
1063.2782566842436
 21
746.0326479095296
  0
LINE
  8
_0-e_極細4
  6
CONTINUOUS
 62
    6
 10
1062.5575110386917
 20
639.24588508599527
 11
1063.8654573373738
 21
640.55383138467732
  0
LINE
  8
_0-e_極細4
  6
CONTINUOUS
 62
    6
 10
1060.2783057452345
 20
639.618330221988
 11
1063.9085736045192
 21
643.24859808127246
  0
LINE
  8
_0-e_極細4
  6
CONTINUOUS
 62
    6
 10
1060.2520517805863
 20
642.24372668678984
 11
1063.9516898716645
 21
645.94336477786771
  0
LINE
  8
_0-e_極細4
  6
CONTINUOUS
 62
    6
 10
1060.2257978159384
 20
644.86912315159111
 11
1063.9948061388102
 21
648.63813147446285
  0
LINE
  8
_0-e_極細4
  6
CONTINUOUS
 62
    6
 10
1045.7009093208928
 20
632.99588508599527
 11
1046.8639136012673
 21
634.15888936636952
  0
LINE
  8
_0-e_極細4
  6
CONTINUOUS
 62
    6
 10
1060.1995438512906
 20
647.49451961639284
 11
1064.0379224059554
 21
651.33289817105776
  0
LINE
  8
_0-e_極細4
  6
CONTINUOUS
 62
    6
 10
1044.3249048737898
 20
634.27153106834112
 11
1046.9088568288857
 21
636.85548302343693
  0
LINE
  8
_0-e_極細4
  6
CONTINUOUS
 62
    6
 10
1060.1732898866428
 20
650.11991608119433
 11
1064.0810386731011
 21
654.0276648676529
  0
LINE
  8
_0-e_極細4
  6
CONTINUOUS
 62
    6
 10
1044.284728352131
 20
636.88300497613238
 11
1046.953800056503
 21
639.55207668050446
  0
LINE
  8
_0-e_極細4
  6
CONTINUOUS
 62
    6
 10
1060.1470359219945
 20
652.74531254599583
 11
1064.1241549402464
 21
656.72243156424815
  0
LINE
  8
_0-e_極細4
  6
CONTINUOUS
 62
    6
 10
1044.2445518304728
 20
639.49447888392342
 11
1046.998743284121
 21
642.24867033757164
  0
LINE
  8
_0-e_極細4
  6
CONTINUOUS
 62
    6
 10
1060.1207819573467
 20
655.37070901079744
 11
1064.1672712073921
 21
659.41719826084295
  0
LINE
  8
_0-e_極細4
  6
CONTINUOUS
 62
    6
 10
1044.2043753088144
 20
642.10595279171503
 11
1047.0436865117388
 21
644.94526399463939
  0
LINE
  8
_0-e_極細4
  6
CONTINUOUS
 62
    6
 10
1060.0945279926984
 20
657.99610547559894
 11
1064.210387474538
 21
662.11196495743809
  0
LINE
  8
_0-e_極細4
  6
CONTINUOUS
 62
    6
 10
1044.164198787156
 20
644.71742669950618
 11
1047.0886297393565
 21
647.64185765170635
  0
LINE
  8
_0-e_極細4
  6
CONTINUOUS
 62
    6
 10
1060.0682740280508
 20
660.62150194040044
 11
1064.2535037416833
 21
664.80673165403334
  0
LINE
  8
_0-e_極細4
  6
CONTINUOUS
 62
    6
 10
1044.1240222654981
 20
647.32890060729733
 11
1047.1335729669745
 21
650.33845130877376
  0
LINE
  8
_0-e_極細4
  6
CONTINUOUS
 62
    6
 10
1060.0420200634023
 20
663.24689840520193
 11
1064.2966200088288
 21
667.50149835062848
  0
LINE
  8
_0-e_極細4
  6
CONTINUOUS
 62
    6
 10
1067.4680849493013
 20
670.67296329110093
 11
1075.4174519914889
 21
678.62233033328835
  0
LINE
  8
_0-e_極細4
  6
CONTINUOUS
 62
    6
 10
1044.083845743839
 20
649.94037451508859
 11
1047.1785161945918
 21
653.03504496584128
  0
LINE
  8
_0-e_極細4
  6
CONTINUOUS
 62
    6
 10
1060.0157660987545
 20
665.87229487000377
 11
1064.3397362759745
 21
670.19626504722339
  0
LINE
  8
_0-e_極細4
  6
CONTINUOUS
 62
    6
 10
1064.6393563147465
 20
670.49588508599527
 11
1075.5945301965946
 21
681.45105896784355
  0
LINE
  8
_0-e_極細4
  6
CONTINUOUS
 62
    6
 10
1044.0436692221808
 20
652.55184842287974
 11
1047.2234594222098
 21
655.73163862290858
  0
LINE
  8
_0-e_極細4
  6
CONTINUOUS
 62
    6
 10
1059.9895121341067
 20
668.49769133480527
 11
1065.6229123774581
 21
674.13109157815688
  0
LINE
  8
_0-e_極細4
  6
CONTINUOUS
 62
    6
 10
1071.959323704433
 20
680.46750290513148
 11
1075.5945301965946
 21
684.10270939729321
  0
LINE
  8
_0-e_極細4
  6
CONTINUOUS
 62
    6
 10
1044.0034927005224
 20
655.16332233067089
 11
1047.2684026498275
 21
658.42823227997587
  0
LINE
  8
_0-e_極細4
  6
CONTINUOUS
 62
    6
 10
1059.3360554558469
 20
670.49588508599527
 11
1062.4610554558469
 21
673.62088508599516
  0
LINE
  8
_0-e_極細4
  6
CONTINUOUS
 62
    6
 10
1072.4695301965946
 20
683.62935982674287
 11
1075.5945301965946
 21
686.75435982674276
  0
LINE
  8
_0-e_極細4
  6
CONTINUOUS
 62
    6
 10
1043.9633161788647
 20
657.77479623846239
 11
1047.3133458774453
 21
661.12482593704328
  0
LINE
  8
_0-e_極細4
  6
CONTINUOUS
 62
    6
 10
1056.6844050263974
 20
670.49588508599527
 11
1059.8094050263974
 21
673.62088508599516
  0
LINE
  8
_0-e_極細4
  6
CONTINUOUS
 62
    6
 10
1072.4695301965946
 20
686.2810102561923
 11
1075.5945301965946
 21
689.40601025619219
  0
LINE
  8
_0-e_極細4
  6
CONTINUOUS
 62
    6
 10
1043.9231396572061
 20
660.38627014625354
 11
1047.3582891050635
 21
663.82141959411058
  0
LINE
  8
_0-e_極細4
  6
CONTINUOUS
 62
    6
 10
1054.0327545969478
 20
670.49588508599527
 11
1057.1577545969485
 21
673.62088508599516
  0
LINE
  8
_0-e_極細4
  6
CONTINUOUS
 62
    6
 10
1072.4695301965946
 20
688.93266068564208
 11
1075.5945301965946
 21
692.05766068564174
  0
LINE
  8
_0-e_極細4
  6
CONTINUOUS
 62
    6
 10
1043.8829631355477
 20
662.9977440540448
 11
1047.4032323326812
 21
666.51801325117788
  0
LINE
  8
_0-e_極細4
  6
CONTINUOUS
 62
    6
 10
1051.3811041674985
 20
670.49588508599527
 11
1054.5061041674987
 21
673.62088508599538
  0
LINE
  8
_0-e_極細4
  6
CONTINUOUS
 62
    6
 10
1072.4695301965946
 20
691.58431111509162
 11
1075.5945301965946
 21
694.7093111150914
  0
LINE
  8
_0-e_極細4
  6
CONTINUOUS
 62
    6
 10
1043.8427866138893
 20
665.60921796183584
 11
1047.448175560299
 21
669.21460690824551
  0
LINE
  8
_0-e_極細4
  6
CONTINUOUS
 62
    6
 10
1048.7294537380492
 20
670.49588508599527
 11
1051.8544537380487
 21
673.62088508599538
  0
LINE
  8
_0-e_極細4
  6
CONTINUOUS
 62
    6
 10
1072.4695301965946
 20
694.23596154454106
 11
1075.5945301965946
 21
697.36096154454094
  0
LINE
  8
_0-e_極細4
  6
CONTINUOUS
 62
    6
 10
1043.8026100922309
 20
668.2206918696271
 11
1049.2028033085992
 21
673.62088508599516
  0
LINE
  8
_0-e_極細4
  6
CONTINUOUS
 62
    6
 10
1072.4695301965946
 20
696.8876119739906
 11
1075.5945301965946
 21
700.0126119739906
  0
LINE
  8
_0-e_極細4
  6
CONTINUOUS
 62
    6
 10
1043.762433570573
 20
670.83216577741825
 11
1046.5511528791496
 21
673.62088508599538
  0
LINE
  8
_0-e_極細4
  6
CONTINUOUS
 62
    6
 10
1072.4695301965946
 20
699.53926240344015
 11
1075.5945301965946
 21
702.66426240344003
  0
LINE
  8
_0-e_極細4
  6
CONTINUOUS
 62
    6
 10
1043.7222570489141
 20
673.44363968520952
 11
1043.8995024497001
 21
673.62088508599538
  0
LINE
  8
_0-e_極細4
  6
CONTINUOUS
 62
    6
 10
1072.4695301965946
 20
702.19091283288981
 11
1075.5945301965946
 21
705.31591283288981
  0
LINE
  8
_0-e_極細4
  6
CONTINUOUS
 62
    6
 10
1072.4695301965946
 20
704.84256326233935
 11
1075.5945301965946
 21
707.96756326233901
  0
LINE
  8
_0-e_極細4
  6
CONTINUOUS
 62
    6
 10
1072.4695301965946
 20
707.4942136917889
 11
1075.5945301965946
 21
710.61921369178867
  0
LINE
  8
_0-e_極細4
  6
CONTINUOUS
 62
    6
 10
1072.4695301965946
 20
710.14586412123867
 11
1075.5945301965946
 21
713.27086412123822
  0
LINE
  8
_0-e_極細4
  6
CONTINUOUS
 62
    6
 10
1072.4695301965946
 20
712.79751455068777
 11
1075.5945301965946
 21
715.92251455068777
  0
LINE
  8
_0-e_極細4
  6
CONTINUOUS
 62
    6
 10
1072.4695301965946
 20
715.44916498013754
 11
1075.5945301965946
 21
718.57416498013754
  0
LINE
  8
_0-e_極細4
  6
CONTINUOUS
 62
    6
 10
1072.4695301965946
 20
718.10081540958674
 11
1075.5945301965946
 21
721.22581540958709
  0
LINE
  8
_0-e_極細4
  6
CONTINUOUS
 62
    6
 10
1072.4695301965946
 20
720.75246583903652
 11
1075.5945301965946
 21
723.87746583903652
  0
LINE
  8
_0-e_極細4
  6
CONTINUOUS
 62
    6
 10
1072.4695301965946
 20
723.40411626848595
 11
1075.5945301965946
 21
726.52911626848606
  0
LINE
  8
_0-e_極細4
  6
CONTINUOUS
 62
    6
 10
1072.4695301965946
 20
726.0557666979355
 11
1075.5945301965946
 21
729.18076669793572
  0
LINE
  8
_0-e_極細4
  6
CONTINUOUS
 62
    6
 10
1072.4695301965946
 20
728.70741712738527
 11
1075.5945301965946
 21
731.83241712738538
  0
LINE
  8
_0-e_極細4
  6
CONTINUOUS
 62
    6
 10
1072.4695301965946
 20
731.35906755683482
 11
1075.5945301965946
 21
734.48406755683482
  0
LINE
  8
_0-e_極細4
  6
CONTINUOUS
 62
    6
 10
1072.4695301965946
 20
734.01071798628425
 11
1075.5945301965946
 21
737.13571798628425
  0
LINE
  8
_0-e_極細4
  6
CONTINUOUS
 62
    6
 10
1072.4695301965946
 20
736.66236841573379
 11
1075.5945301965946
 21
739.78736841573379
  0
LINE
  8
_0-e_極細4
  6
CONTINUOUS
 62
    6
 10
1072.4695301965946
 20
739.31401884518345
 11
1075.5945301965946
 21
742.43901884518345
  0
LINE
  8
_0-e_極細4
  6
CONTINUOUS
 62
    6
 10
1072.4695301965946
 20
741.96566927463311
 11
1075.5945301965946
 21
745.09066927463311
  0
LINE
  8
_0-e_極細4
  6
CONTINUOUS
 62
    6
 10
1072.4695301965946
 20
744.61731970408255
 11
1075.5945301965946
 21
747.74231970408232
  0
LINE
  8
_0-e_極細4
  6
CONTINUOUS
 62
    6
 10
1072.4695301965946
 20
747.26897013353221
 11
1075.5945301965946
 21
750.39397013353198
  0
LINE
  8
_0-e_極細4
  6
CONTINUOUS
 62
    6
 10
1072.4695301965946
 20
749.92062056298153
 11
1075.5945301965946
 21
753.04562056298153
  0
LINE
  8
_0-e_極細4
  6
CONTINUOUS
 62
    6
 10
1072.4695301965946
 20
752.57227099243119
 11
1075.5945301965946
 21
755.69727099243107
  0
LINE
  8
_0-e_極細4
  6
CONTINUOUS
 62
    6
 10
1072.4695301965946
 20
755.22392142188085
 11
1075.5945301965946
 21
758.34892142188073
  0
LINE
  8
_0-e_極細4
  6
CONTINUOUS
 62
    6
 10
1072.4695301965946
 20
757.87557185133028
 11
1075.5945301965946
 21
761.00057185133028
  0
LINE
  8
_0-e_極細4
  6
CONTINUOUS
 62
    6
 10
1072.4695301965946
 20
760.52722228077994
 11
1075.5945301965946
 21
763.65222228077994
  0
LINE
  8
_0-e_極細4
  6
CONTINUOUS
 62
    6
 10
1072.4695301965946
 20
763.1788727102296
 11
1075.5945301965946
 21
766.30387271022926
  0
LINE
  8
_0-e_極細4
  6
CONTINUOUS
 62
    6
 10
1072.4695301965946
 20
765.8305231396788
 11
1075.5945301965946
 21
768.95552313967892
  0
LINE
  8
_0-e_極細4
  6
CONTINUOUS
 62
    6
 10
1072.4695301965946
 20
768.48217356912846
 11
1075.5945301965946
 21
771.60717356912858
  0
LINE
  8
_0-e_極細4
  6
CONTINUOUS
 62
    6
 10
1072.4695301965946
 20
771.13382399857801
 11
1075.7717545709222
 21
774.43604837290582
  0
LINE
  8
_0-e_極細4
  6
CONTINUOUS
 62
    6
 10
1072.4695301965946
 20
773.78547442802756
 11
1078.7195301965946
 21
780.03547442802756
  0
LINE
  8
_0-e_極細4
  6
CONTINUOUS
 62
    6
 10
1072.4695301965946
 20
776.43712485747699
 11
1078.7195301965946
 21
782.68712485747733
  0
LINE
  8
_0-e_極細4
  6
CONTINUOUS
 62
    6
 10
1072.4695301965946
 20
779.08877528692665
 11
1074.5016608956678
 21
781.12090598599991
  0
LINE
  8
_0-e_極細4
  6
CONTINUOUS
 62
    6
 10
1074.6566830285071
 20
781.2759281188396
 11
1078.7195301965946
 21
785.33877528692688
  0
LINE
  8
_0-e_極細4
  6
CONTINUOUS
 62
    6
 10
1081.7516608956678
 20
788.3709059859998
 11
1083.5945301965951
 21
790.21377528692653
  0
LINE
  8
_0-e_極細4
  6
CONTINUOUS
 62
    6
 10
1073.0945301965946
 20
782.36542571637619
 11
1078.7195301965946
 21
787.99042571637631
  0
LINE
  8
_0-e_極細4
  6
CONTINUOUS
 62
    6
 10
1079.1000104662182
 20
788.3709059859998
 11
1083.5945301965951
 21
792.86542571637619
  0
LINE
  8
_0-e_極細4
  6
CONTINUOUS
 62
    6
 10
1073.0945301965946
 20
785.01707614582574
 11
1083.5945301965951
 21
795.51707614582585
  0
LINE
  8
_0-e_極細4
  6
CONTINUOUS
 62
    6
 10
1074.9432801965947
 20
789.5174765752754
 11
1083.5945301965951
 21
798.1687265752754
  0
LINE
  8
_0-e_極細4
  6
CONTINUOUS
 62
    6
 10
1074.9432801965947
 20
792.16912700472494
 11
1083.5945301965951
 21
800.82037700472495
  0
LINE
  8
_0-e_極細4
  6
CONTINUOUS
 62
    6
 10
1074.9432801965947
 20
794.82077743417449
 11
1083.5945301965951
 21
803.47202743417461
  0
LINE
  8
_0-e_極細4
  6
CONTINUOUS
 62
    6
 10
1074.9432801965947
 20
797.47242786362392
 11
1083.3087216416147
 21
805.83786930864346
  0
LINE
  8
_0-e_極細4
  6
CONTINUOUS
 62
    6
 10
1074.9432801965947
 20
800.12407829307358
 11
1080.3105068691555
 21
805.49130496563419
  0
LINE
  8
_0-e_極細4
  6
CONTINUOUS
 62
    6
 10
1074.9432801965947
 20
802.77572872252313
 11
1077.3122920966964
 21
805.14474062262491
  0
LINE
  8
_0-e_極細4
  6
CENTER2
 62
    6
 10
1012.4695301965947
 20
822.69117346802113
 11
1012.4695301965947
 21
619.15647429308285
  0
LINE
  8
_0-e_極細4
  6
CONTINUOUS
 62
    6
 10
941.34453019659475
 20
808.86193225433783
 11
1083.5945301965951
 21
808.86193225433783
  0
LINE
  8
_0-e_極細4
  6
CONTINUOUS
 62
    6
 10
1083.5945301965951
 20
807.99590598599991
 11
1083.5945301965951
 21
808.86193225433783
  0
LINE
  8
_0-e_極細4
  6
CONTINUOUS
 62
    6
 10
1046.2195301965946
 20
781.12090598599991
 11
1074.9432801965943
 21
781.12090598599991
  0
LINE
  8
_0-e_極細4
  6
CONTINUOUS
 62
    6
 10
1060.2820301965946
 20
774.6209059859998
 11
1046.2195301965946
 21
774.6209059859998
  0
LINE
  8
_0-e_極細4
  6
CONTINUOUS
 62
    6
 10
1074.9432801965947
 20
807.62973598599979
 11
1083.5945301965951
 21
808.86193225433783
  0
LINE
  8
_0-e_極細4
  6
CONTINUOUS
 62
    6
 10
1046.2195301965946
 20
780.7513259860001
 11
1046.2195301965946
 21
782.59851723600013
  0
LINE
  8
_0-e_極細4
  6
CONTINUOUS
 62
    6
 10
1046.2195301965946
 20
782.1209059859998
 11
1073.0945301965946
 21
782.1209059859998
  0
LINE
  8
_0-e_極細4
  6
CONTINUOUS
 62
    6
 10
1066.8445301965946
 20
799.00570973599997
 11
1066.8445301965946
 21
800.12973598599979
  0
LINE
  8
_0-e_極細4
  6
CONTINUOUS
 62
    6
 10
1066.8445301965946
 20
799.00570973599997
 11
1012.4695301965947
 21
799.00570973599997
  0
LINE
  8
_0-e_極細4
  6
CONTINUOUS
 62
    6
 10
1066.8445301965946
 20
793.25570973599974
 11
1012.4695301965947
 21
793.25570973600009
  0
LINE
  8
_0-e_極細4
  6
CONTINUOUS
 62
    6
 10
1066.8445301965946
 20
791.38070973599974
 11
1066.8445301965946
 21
793.25570973599974
  0
LINE
  8
_0-e_極細4
  6
CONTINUOUS
 62
    6
 10
1062.1570301965946
 20
796.887373486
 11
1062.1570301965946
 21
795.26237348599977
  0
LINE
  8
_0-e_極細4
  6
CONTINUOUS
 62
    6
 10
1062.1570301965946
 20
794.01237348599977
 11
1062.1570301965946
 21
793.38737348599977
  0
LINE
  8
_0-e_極細4
  6
CONTINUOUS
 62
    6
 10
1066.6570301965951
 20
796.887373486
 11
1066.6570301965951
 21
793.38737348599977
  0
LINE
  8
_0-e_極細4
  6
CONTINUOUS
 62
    6
 10
1012.4695301965947
 20
793.38737348599977
 11
1066.6570301965951
 21
793.38737348599977
  0
LINE
  8
_0-e_極細4
  6
CONTINUOUS
 62
    6
 10
1012.4695301965947
 20
794.63737348599977
 11
1061.5320301965944
 21
794.63737348599977
  0
LINE
  8
_0-e_極細4
  6
CONTINUOUS
 62
    6
 10
1012.4695301965947
 20
797.512373486
 11
1061.5320301965944
 21
797.51237348599989
  0
LINE
  8
_0-e_極細4
  6
CONTINUOUS
 62
    6
 10
1061.5320301965944
 20
797.51237348599989
 11
1062.1570301965946
 21
798.13737348599989
  0
LINE
  8
_0-e_極細4
  6
CONTINUOUS
 62
    6
 10
1062.1570301965946
 20
796.887373486
 11
1061.5320301965944
 21
797.51237348599989
  0
LINE
  8
_0-e_極細4
  6
CONTINUOUS
 62
    6
 10
1062.1570301965946
 20
794.01237348599977
 11
1061.5320301965944
 21
794.63737348599977
  0
LINE
  8
_0-e_極細4
  6
CONTINUOUS
 62
    6
 10
1061.5320301965944
 20
794.63737348599977
 11
1062.1570301965946
 21
795.26237348599977
  0
LINE
  8
_0-e_極細4
  6
CONTINUOUS
 62
    6
 10
1066.6570301965951
 20
796.887373486
 11
1067.6570301965951
 21
798.76237348599966
  0
LINE
  8
_0-e_極細4
  6
CONTINUOUS
 62
    6
 10
1062.1570301965946
 20
798.76237348599966
 11
1062.1570301965946
 21
798.13737348599989
  0
LINE
  8
_0-e_極細4
  6
CONTINUOUS
 62
    6
 10
1012.4695301965947
 20
798.762373486
 11
1067.6570301965951
 21
798.76237348599966
  0
LINE
  8
_0-e_極細4
  6
CONTINUOUS
 62
    6
 10
1012.7195301965946
 20
800.12973598600013
 11
1067.2195301965946
 21
800.12973598599979
  0
LINE
  8
_0-e_極細4
  6
CONTINUOUS
 62
    6
 10
1012.7195301965946
 20
801.37973598600001
 11
1066.4695301965946
 21
801.37973598599979
  0
ARC
  8
_0-e_極細4
  6
CONTINUOUS
 62
    6
 10
1069.9070301965946
 20
806.37973598600013
 40
0.625
 50
24.054548999996424
 51
89.999999999999915
  0
ARC
  8
_0-e_極細4
  6
CONTINUOUS
 62
    6
 10
1070.2820301965946
 20
804.7547359859999
 40
0.2499999999999857
 50
269.99999999999977
 51
359.99999999999966
  0
ARC
  8
_0-e_極細4
  6
CONTINUOUS
 62
    6
 10
1069.9070301965946
 20
806.37973598600013
 40
0.625
 50
0
 51
24.054548999996424
  0
LINE
  8
_0-e_極細4
  6
CONTINUOUS
 62
    6
 10
1067.8445301965946
 20
800.75473598600001
 11
1067.8445301965946
 21
804.50473598600013
  0
LINE
  8
_0-e_極細4
  6
CONTINUOUS
 62
    6
 10
1067.8445301965946
 20
804.50473598600013
 11
1070.2820301965946
 21
804.50473598600013
  0
LINE
  8
_0-e_極細4
  6
CONTINUOUS
 62
    6
 10
1012.4695301965947
 20
807.00473598600013
 11
1069.9070301965946
 21
807.00473598599979
  0
LINE
  8
_0-e_極細4
  6
CONTINUOUS
 62
    6
 10
1070.5320301965946
 20
804.7547359859999
 11
1070.5320301965946
 21
806.37973598600013
  0
LINE
  8
_0-e_極細4
  6
CONTINUOUS
 62
    6
 10
1055.9524214465951
 20
783.62973598600001
 11
1055.9524214465951
 21
785.75473598599979
  0
LINE
  8
_0-e_極細4
  6
CONTINUOUS
 62
    6
 10
1049.7024214465951
 20
783.62973598600001
 11
1049.7024214465951
 21
785.75473598599979
  0
LINE
  8
_0-e_極細4
  6
CONTINUOUS
 62
    6
 10
1049.7024214465951
 20
783.62973598600001
 11
1055.9524214465951
 21
783.62973598600001
  0
LINE
  8
_0-e_極細4
  6
CONTINUOUS
 62
    6
 10
1066.2195301965946
 20
785.75473598599979
 11
1073.0945301965946
 21
785.75473598599979
  0
LINE
  8
_0-e_極細4
  6
CONTINUOUS
 62
    6
 10
1065.1818001965946
 20
783.25473598600001
 11
1066.2195301965946
 21
783.25473598600001
  0
LINE
  8
_0-e_極細4
  6
CONTINUOUS
 62
    6
 10
1066.2195301965946
 20
789.1297359859999
 11
1067.8445301965946
 21
789.1297359859999
  0
LINE
  8
_0-e_極細4
  6
CONTINUOUS
 62
    6
 10
1066.2195301965946
 20
788.25473598599979
 11
1068.7195301965946
 21
788.25473598599979
  0
LINE
  8
_0-e_極細4
  6
CONTINUOUS
 62
    6
 10
1066.2195301965946
 20
783.25473598600001
 11
1066.2195301965946
 21
790.75473598599979
  0
LINE
  8
_0-e_極細4
  6
CONTINUOUS
 62
    6
 10
1074.9432801965947
 20
787.6034859859999
 11
1073.0945301965946
 21
785.75473598599979
  0
LINE
  8
_0-e_極細4
  6
CONTINUOUS
 62
    6
 10
1068.7195301965946
 20
788.25473598599979
 11
1068.7195301965946
 21
802.31723598599979
  0
ARC
  8
_0-e_極細4
  6
CONTINUOUS
 62
    6
 10
1070.0320301965946
 20
802.31723598599979
 40
1.3125000000000142
 50
89.999999999999915
 51
179.99999999999983
  0
LINE
  8
_0-e_極細4
  6
CONTINUOUS
 62
    6
 10
1071.5210601965948
 20
803.6297359859999
 11
1070.0320301965946
 21
803.6297359859999
  0
ARC
  8
_0-e_極細4
  6
CONTINUOUS
 62
    6
 10
1071.5210601965948
 20
805.75473598599979
 40
2.1249999999999858
 50
269.99999999999977
 51
356.64911199999841
  0
ARC
  8
_0-e_極細4
  6
CONTINUOUS
 62
    6
 10
1071.5210601965948
 20
805.75473598599979
 40
1.25
 50
269.99999999999977
 51
356.64911200000347
  0
ARC
  8
_0-e_極細4
  6
CONTINUOUS
 62
    6
 10
1074.9432801965947
 20
805.44223598600013
 40
2.1874999999999996
 50
89.999999999999915
 51
175.84901000000326
  0
ARC
  8
_0-e_極細4
  6
CONTINUOUS
 62
    6
 10
1070.0320301965946
 20
802.31723598599979
 40
2.1874999999999996
 50
89.999999999999915
 51
179.99999999999983
  0
LINE
  8
_0-e_極細4
  6
CONTINUOUS
 62
    6
 10
1070.5945301965946
 20
804.50473598600013
 11
1070.5945301965946
 21
807.62973598599979
  0
LINE
  8
_0-e_極細4
  6
CONTINUOUS
 62
    6
 10
1067.8445301965946
 20
789.1297359859999
 11
1067.8445301965946
 21
802.31723598599979
  0
LINE
  8
_0-e_極細4
  6
CONTINUOUS
 62
    6
 10
1071.5210601965948
 20
804.50473598600013
 11
1070.0320301965946
 21
804.50473598600013
  0
LINE
  8
_0-e_極細4
  6
CONTINUOUS
 62
    6
 10
1062.7820301965946
 20
790.75473598599979
 11
1067.8445301965946
 21
790.75473598599979
  0
LINE
  8
_0-e_極細4
  6
CONTINUOUS
 62
    6
 10
1012.4695301965947
 20
807.62973598600013
 11
1074.9432801965947
 21
807.62973598599979
  0
ARC
  8
_0-e_極細4
  6
CONTINUOUS
 62
    6
 10
1060.2820301965946
 20
773.37090598600014
 40
1.25
 50
89.999999999999915
 51
179.99999999999983
  0
ARC
  8
_0-e_極細4
  6
CONTINUOUS
 62
    6
 10
1060.2820301965946
 20
773.37090598600014
 40
1.25
 50
0
 51
89.999999999999915
  0
LINE
  8
_0-e_極細4
  6
CONTINUOUS
 62
    6
 10
1083.5945301965951
 20
805.8709059859998
 11
1074.9432801965947
 21
804.87090598599991
  0
LINE
  8
_0-e_極細4
  6
CONTINUOUS
 62
    6
 10
1074.9432801965943
 20
781.12090598599991
 11
1073.0945301965946
 21
782.1209059859998
  0
LINE
  8
_0-e_極細4
  6
CONTINUOUS
 62
    6
 10
1073.0945301965946
 20
782.1209059859998
 11
1073.0945301965946
 21
785.75473598599979
  0
LINE
  8
_0-e_極細4
  6
CONTINUOUS
 62
    6
 10
1083.5945301965951
 20
789.06495723600017
 11
1083.5945301965951
 21
808.84412848599993
  0
LINE
  8
_0-e_極細4
  6
CONTINUOUS
 62
    6
 10
1078.7195301965946
 20
788.3709059859998
 11
1083.5945301965951
 21
788.3709059859998
  0
LINE
  8
_0-e_極細4
  6
CONTINUOUS
 62
    6
 10
1083.5945301965951
 20
788.3709059859998
 11
1083.5945301965951
 21
789.06495723600017
  0
ARC
  8
_0-e_極細4
  6
CONTINUOUS
 62
    6
 10
1081.8445301965946
 20
772.95824723599992
 40
6.25
 50
119.99999999999989
 51
179.99999999999983
  0
LINE
  8
_0-e_極細4
  6
CONTINUOUS
 62
    6
 10
1078.7195301965946
 20
778.3709059859998
 11
1078.7195301965946
 21
788.3709059859998
  0
LINE
  8
_0-e_極細4
  6
CONTINUOUS
 62
    6
 10
1074.9432801965947
 20
806.74590530318653
 11
1083.5945301965951
 21
807.97810223599993
  0
LINE
  8
_0-e_極細4
  6
CONTINUOUS
 62
    6
 10
1074.9432801965947
 20
787.6034859859999
 11
1074.9432801965947
 21
806.75473598600001
  0
ARC
  8
_0-e_極細4
  6
CONTINUOUS
 62
    6
 10
1074.9432801965947
 20
805.44223598600013
 40
1.3125000000000142
 50
89.999999999999915
 51
175.84901000000821
  0
LINE
  8
_0-e_極細4
  6
CONTINUOUS
 62
    6
 10
1063.0945301965946
 20
782.1307097360002
 11
1059.3445301965946
 21
782.1307097360002
  0
ARC
  8
_0-e_極細4
  6
CONTINUOUS
 62
    6
 10
1063.0945301965946
 20
784.63070973599997
 40
2.5
 50
269.99999999999977
 51
359.99999999999966
  0
LINE
  8
_0-e_極細4
  6
CONTINUOUS
 62
    6
 10
1065.5945301965946
 20
784.63070973599997
 11
1065.5945301965946
 21
785.88070973599997
  0
LINE
  8
_0-e_極細4
  6
CONTINUOUS
 62
    6
 10
1065.5945301965946
 20
785.88070973599997
 11
1062.7820301965946
 21
785.88070973599997
  0
LINE
  8
_0-e_極細4
  6
CONTINUOUS
 62
    6
 10
1066.8445301965946
 20
791.38070973599974
 11
1062.7820301965946
 21
791.38070973599974
  0
LINE
  8
_0-e_極細4
  6
CONTINUOUS
 62
    6
 10
1062.7820301965946
 20
785.88070973599997
 11
1062.7820301965946
 21
791.38070973600009
  0
LINE
  8
_0-e_極細4
  6
CONTINUOUS
 62
    6
 10
1062.7820301965946
 20
791.38070973600009
 11
1012.4695301965947
 21
791.38070973600009
  0
ARC
  8
_0-e_極細4
  6
CONTINUOUS
 62
    6
 10
1046.5320301965944
 20
701.12088508599527
 40
12.5
 50
269.99999999999977
 51
359.99999999999966
  0
LINE
  8
_0-e_極細4
  6
CONTINUOUS
 62
    6
 10
1012.4695301965947
 20
688.62088508599527
 11
1046.5320301965944
 21
688.62088508599527
  0
LINE
  8
_0-e_極細4
  6
CONTINUOUS
 62
    6
 10
1059.0320301965946
 20
701.12088508599527
 11
1059.0320301965946
 21
773.37090598600014
  0
LINE
  8
_0-e_極細4
  6
CONTINUOUS
 62
    6
 10
1061.5320301965944
 20
701.12088508599527
 11
1061.5320301965944
 21
773.37090598600014
  0
LINE
  8
_0-e_極細4
  6
CONTINUOUS
 62
    6
 10
1013.6333226965946
 20
686.12088508599527
 11
1046.5320301965944
 21
686.12088508599527
  0
LINE
  8
_0-e_極細4
  6
CONTINUOUS
 62
    6
 10
1012.4695301965947
 20
686.12088508599527
 11
1013.6333226965946
 21
686.12088508599527
  0
LINE
  8
_0-e_極細4
  6
CONTINUOUS
 62
    6
 10
1060.2820301965944
 20
639.24588508599527
 11
1059.9695301965946
 21
670.49588508599527
  0
LINE
  8
_0-e_極細4
  6
CONTINUOUS
 62
    6
 10
1072.4695301965946
 20
747.2728438359951
 11
1072.4695301965946
 21
781.12090598599991
  0
ARC
  8
_0-e_極細4
  6
CONTINUOUS
 62
    6
 10
1071.2195301965946
 20
747.2728438359951
 40
1.25
 50
277.18075599999247
 51
359.99999999999966
  0
ARC
  8
_0-e_極細4
  6
CONTINUOUS
 62
    6
 10
1046.5320301965944
 20
701.12088508599527
 40
15
 50
269.99999999999977
 51
359.99999999999966
  0
LINE
  8
_0-e_極細4
  6
CONTINUOUS
 62
    6
 10
1043.7195301965944
 20
673.62088508599516
 11
1043.7195301965944
 21
686.12088508599527
  0
LINE
  8
_0-e_極細4
  6
CONTINUOUS
 62
    6
 10
1046.5320301965944
 20
686.12088508599527
 11
1043.7195301965944
 21
686.12088508599527
  0
LINE
  8
_0-e_極細4
  6
CONTINUOUS
 62
    6
 10
1061.5320301965944
 20
701.12088508599527
 11
1061.5320301965944
 21
734.87088508599516
  0
LINE
  8
_0-e_極細4
  6
CONTINUOUS
 62
    6
 10
1043.7215039465948
 20
673.49254383599543
 11
1043.7195301965944
 21
673.62088508599516
  0
LINE
  8
_0-e_極細4
  6
CONTINUOUS
 62
    6
 10
1043.7195301965944
 20
673.62088508599516
 11
1012.4695301965947
 21
673.62088508599538
  0
ARC
  8
_0-e_極細4
  6
CONTINUOUS
 62
    6
 10
1062.4695301965944
 20
683.62088508599527
 40
10
 50
269.99999999999977
 51
359.99999999999966
  0
LINE
  8
_0-e_極細4
  6
CONTINUOUS
 62
    6
 10
1047.4695301965944
 20
670.49588508599527
 11
1059.9695301965946
 21
670.49588508599527
  0
LINE
  8
_0-e_極細4
  6
CONTINUOUS
 62
    6
 10
1044.3445301965946
 20
632.99588508599527
 11
1043.7195301965944
 21
673.62088508599516
  0
LINE
  8
_0-e_極細4
  6
CONTINUOUS
 62
    6
 10
1072.4695301965946
 20
683.62088508599527
 11
1072.4695301965946
 21
747.2728438359951
  0
LINE
  8
_0-e_極細4
  6
CONTINUOUS
 62
    6
 10
1062.4695301965944
 20
673.62088508599516
 11
1043.7195301965944
 21
673.62088508599516
  0
LINE
  8
_0-e_極細4
  6
CONTINUOUS
 62
    6
 10
1046.9486968632611
 20
639.24588508599527
 11
1047.4695301965944
 21
670.49588508599527
  0
ARC
  8
_0-e_極細4
  6
CONTINUOUS
 62
    6
 10
1065.5945301965946
 20
680.49588508599516
 40
10
 50
269.99999999999977
 51
359.99999999999966
  0
LINE
  8
_0-e_極細4
  6
CONTINUOUS
 62
    6
 10
1075.5945301965946
 20
680.49588508599516
 11
1075.5945301965946
 21
772.95824723599992
  0
LINE
  8
_0-e_極細4
  6
CONTINUOUS
 62
    6
 10
1063.8445301965949
 20
639.24588508599527
 11
1064.3445301965946
 21
670.49588508599527
  0
LINE
  8
_0-e_極細4
  6
CONTINUOUS
 62
    6
 10
1046.9486964465943
 20
639.24588508599527
 11
1063.8445301965949
 21
639.24588508599527
  0
LINE
  8
_0-e_極細4
  6
CONTINUOUS
 62
    6
 10
1044.9695301965946
 20
707.63068883599522
 11
1012.4695301965947
 21
707.63068883599522
  0
ARC
  8
_0-e_極細4
  6
CONTINUOUS
 62
    6
 10
1044.9695301965946
 20
708.88068883599533
 40
1.25
 50
269.99954163375423
 51
359.99999999999966
  0
LINE
  8
_0-e_極細4
  6
CONTINUOUS
 62
    6
 10
1046.2195301965946
 20
708.88068883599533
 11
1046.2195301965946
 21
782.59851723600013
  0
LINE
  8
_0-e_極細4
  6
CONTINUOUS
 62
    6
 10
1071.3757802013249
 20
746.0326479095296
 11
1061.5320301965944
 21
746.0326479095296
  0
LINE
  8
_0-e_極細4
  6
CONTINUOUS
 62
    6
 10
1064.3445301965946
 20
670.49588508599527
 11
1065.5945301965946
 21
670.49588508599527
  0
LINE
  8
_0-e_極細4
  6
CONTINUOUS
 62
    6
 10
1012.4695301965943
 20
632.99588508599527
 11
1046.8445301965946
 21
632.99588508599527
  0
LINE
  8
_0-e_極細4
  6
CONTINUOUS
 62
    6
 10
1046.8445301965946
 20
632.99588508599527
 11
1046.9486968632611
 21
639.24588508599527
  0
LINE
  8
_0-e_極細4
  6
CONTINUOUS
 62
    6
 10
941.34453019659475
 20
807.99590598599991
 11
941.34453019659475
 21
808.86193225433783
  0
LINE
  8
_0-e_極細4
  6
CONTINUOUS
 62
    6
 10
978.71953019659509
 20
781.12090598599991
 11
949.99578019659509
 21
781.12090598599991
  0
LINE
  8
_0-e_極細4
  6
CONTINUOUS
 62
    6
 10
964.65703019659509
 20
774.6209059859998
 11
978.71953019659509
 21
774.6209059859998
  0
LINE
  8
_0-e_極細4
  6
CONTINUOUS
 62
    6
 10
949.99578019659509
 20
807.62973598599979
 11
941.34453019659475
 21
808.86193225433783
  0
LINE
  8
_0-e_極細4
  6
CONTINUOUS
 62
    6
 10
978.71953019659509
 20
780.7513259860001
 11
978.71953019659509
 21
782.59851723600013
  0
LINE
  8
_0-e_極細4
  6
CONTINUOUS
 62
    6
 10
978.71953019659509
 20
782.1209059859998
 11
951.84453019659509
 21
782.1209059859998
  0
LINE
  8
_0-e_極細4
  6
CONTINUOUS
 62
    6
 10
958.09453019659509
 20
799.00570973599997
 11
958.09453019659509
 21
800.12973598599979
  0
LINE
  8
_0-e_極細4
  6
CONTINUOUS
 62
    6
 10
958.09453019659509
 20
799.00570973599997
 11
1012.4695301965951
 21
799.00570973599997
  0
LINE
  8
_0-e_極細4
  6
CONTINUOUS
 62
    6
 10
958.09453019659509
 20
793.25570973599974
 11
1012.4695301965951
 21
793.25570973600009
  0
LINE
  8
_0-e_極細4
  6
CONTINUOUS
 62
    6
 10
958.09453019659509
 20
791.38070973599974
 11
958.09453019659509
 21
793.25570973599974
  0
LINE
  8
_0-e_極細4
  6
CONTINUOUS
 62
    6
 10
962.78203019659509
 20
796.887373486
 11
962.78203019659509
 21
795.26237348599977
  0
LINE
  8
_0-e_極細4
  6
CONTINUOUS
 62
    6
 10
962.78203019659509
 20
794.01237348599977
 11
962.78203019659509
 21
793.38737348599977
  0
LINE
  8
_0-e_極細4
  6
CONTINUOUS
 62
    6
 10
958.28203019659463
 20
796.887373486
 11
958.28203019659463
 21
793.38737348599977
  0
LINE
  8
_0-e_極細4
  6
CONTINUOUS
 62
    6
 10
1012.4695301965951
 20
793.38737348599977
 11
958.28203019659463
 21
793.38737348599977
  0
LINE
  8
_0-e_極細4
  6
CONTINUOUS
 62
    6
 10
1012.4695301965951
 20
794.63737348599977
 11
963.40703019659509
 21
794.63737348599977
  0
LINE
  8
_0-e_極細4
  6
CONTINUOUS
 62
    6
 10
1012.4695301965951
 20
797.512373486
 11
963.40703019659509
 21
797.51237348599989
  0
LINE
  8
_0-e_極細4
  6
CONTINUOUS
 62
    6
 10
963.40703019659509
 20
797.51237348599989
 11
962.78203019659509
 21
798.13737348599989
  0
LINE
  8
_0-e_極細4
  6
CONTINUOUS
 62
    6
 10
962.78203019659509
 20
796.887373486
 11
963.40703019659509
 21
797.51237348599989
  0
LINE
  8
_0-e_極細4
  6
CONTINUOUS
 62
    6
 10
962.78203019659509
 20
794.01237348599977
 11
963.40703019659509
 21
794.63737348599977
  0
LINE
  8
_0-e_極細4
  6
CONTINUOUS
 62
    6
 10
963.40703019659509
 20
794.63737348599977
 11
962.78203019659509
 21
795.26237348599977
  0
LINE
  8
_0-e_極細4
  6
CONTINUOUS
 62
    6
 10
958.28203019659463
 20
796.887373486
 11
957.28203019659475
 21
798.76237348599966
  0
LINE
  8
_0-e_極細4
  6
CONTINUOUS
 62
    6
 10
962.78203019659509
 20
798.76237348599966
 11
962.78203019659509
 21
798.13737348599989
  0
LINE
  8
_0-e_極細4
  6
CONTINUOUS
 62
    6
 10
1012.4695301965951
 20
798.762373486
 11
957.28203019659475
 21
798.76237348599966
  0
LINE
  8
_0-e_極細4
  6
CONTINUOUS
 62
    6
 10
1012.2195301965946
 20
800.12973598600013
 11
957.7195301965952
 21
800.12973598599979
  0
LINE
  8
_0-e_極細4
  6
CONTINUOUS
 62
    6
 10
1012.2195301965946
 20
801.37973598600001
 11
958.46953019659463
 21
801.37973598599979
  0
ARC
  8
_0-e_極細4
  6
CONTINUOUS
 62
    6
 10
955.03203019659463
 20
806.37973598600013
 40
0.625
 50
89.999999999999915
 51
155.94545099998658
  0
ARC
  8
_0-e_極細4
  6
CONTINUOUS
 62
    6
 10
954.65703019659475
 20
804.7547359859999
 40
0.2499999999999857
 50
179.99999999999983
 51
269.99999999999977
  0
ARC
  8
_0-e_極細4
  6
CONTINUOUS
 62
    6
 10
955.03203019659463
 20
806.37973598600013
 40
0.625
 50
155.94545099998658
 51
179.99999999999983
  0
LINE
  8
_0-e_極細4
  6
CONTINUOUS
 62
    6
 10
957.0945301965952
 20
800.75473598600001
 11
957.09453019659463
 21
804.50473598600013
  0
LINE
  8
_0-e_極細4
  6
CONTINUOUS
 62
    6
 10
957.09453019659463
 20
804.50473598600013
 11
954.65703019659475
 21
804.50473598600013
  0
LINE
  8
_0-e_極細4
  6
CONTINUOUS
 62
    6
 10
1012.4695301965947
 20
807.00473598600013
 11
955.03203019659463
 21
807.00473598599979
  0
LINE
  8
_0-e_極細4
  6
CONTINUOUS
 62
    6
 10
954.40703019659497
 20
804.7547359859999
 11
954.40703019659497
 21
806.37973598600013
  0
LINE
  8
_0-e_極細4
  6
CONTINUOUS
 62
    6
 10
968.98663894659489
 20
783.62973598600001
 11
968.98663894659489
 21
785.75473598599979
  0
LINE
  8
_0-e_極細4
  6
CONTINUOUS
 62
    6
 10
975.23663894659489
 20
783.62973598600001
 11
975.23663894659489
 21
785.75473598599979
  0
LINE
  8
_0-e_極細4
  6
CONTINUOUS
 62
    6
 10
975.23663894659489
 20
783.62973598600001
 11
968.98663894659489
 21
783.62973598600001
  0
LINE
  8
_0-e_極細4
  6
CONTINUOUS
 62
    6
 10
958.71953019659509
 20
785.75473598599979
 11
951.84453019659509
 21
785.75473598599979
  0
LINE
  8
_0-e_極細4
  6
CONTINUOUS
 62
    6
 10
959.75726019659476
 20
783.25473598600001
 11
958.71953019659509
 21
783.25473598600001
  0
LINE
  8
_0-e_極細4
  6
CONTINUOUS
 62
    6
 10
958.71953019659509
 20
789.1297359859999
 11
957.0945301965952
 21
789.1297359859999
  0
LINE
  8
_0-e_極細4
  6
CONTINUOUS
 62
    6
 10
958.71953019659509
 20
788.25473598599979
 11
956.21953019659509
 21
788.25473598599979
  0
LINE
  8
_0-e_極細4
  6
CONTINUOUS
 62
    6
 10
958.71953019659509
 20
783.25473598600001
 11
958.71953019659509
 21
790.75473598599979
  0
LINE
  8
_0-e_極細4
  6
CONTINUOUS
 62
    6
 10
949.99578019659509
 20
787.6034859859999
 11
951.84453019659509
 21
785.75473598599979
  0
LINE
  8
_0-e_極細4
  6
CONTINUOUS
 62
    6
 10
956.21953019659509
 20
788.25473598599979
 11
956.21953019659475
 21
802.31723598599979
  0
ARC
  8
_0-e_極細4
  6
CONTINUOUS
 62
    6
 10
954.9070301965952
 20
802.31723598599979
 40
1.3125000000000142
 50
0
 51
89.999999999999915
  0
LINE
  8
_0-e_極細4
  6
CONTINUOUS
 62
    6
 10
953.41800019659502
 20
803.6297359859999
 11
954.9070301965952
 21
803.6297359859999
  0
ARC
  8
_0-e_極細4
  6
CONTINUOUS
 62
    6
 10
953.41800019659502
 20
805.75473598599979
 40
2.1249999999999858
 50
183.35088800000048
 51
269.99999999999977
  0
ARC
  8
_0-e_極細4
  6
CONTINUOUS
 62
    6
 10
953.41800019659502
 20
805.75473598599979
 40
1.25
 50
183.35088799999582
 51
269.99999999999977
  0
ARC
  8
_0-e_極細4
  6
CONTINUOUS
 62
    6
 10
949.99578019659509
 20
805.44223598600013
 40
2.1874999999999996
 50
4.15098999999804
 51
89.999999999999915
  0
ARC
  8
_0-e_極細4
  6
CONTINUOUS
 62
    6
 10
954.9070301965952
 20
802.31723598599979
 40
2.1874999999999996
 50
0
 51
89.999999999999915
  0
LINE
  8
_0-e_極細4
  6
CONTINUOUS
 62
    6
 10
954.34453019659475
 20
804.50473598600013
 11
954.34453019659475
 21
807.62973598599979
  0
LINE
  8
_0-e_極細4
  6
CONTINUOUS
 62
    6
 10
957.0945301965952
 20
789.1297359859999
 11
957.0945301965952
 21
802.31723598599979
  0
LINE
  8
_0-e_極細4
  6
CONTINUOUS
 62
    6
 10
953.41800019659502
 20
804.50473598600013
 11
954.9070301965952
 21
804.50473598600013
  0
LINE
  8
_0-e_極細4
  6
CONTINUOUS
 62
    6
 10
962.15703019659475
 20
790.75473598599979
 11
957.0945301965952
 21
790.75473598599979
  0
LINE
  8
_0-e_極細4
  6
CONTINUOUS
 62
    6
 10
1012.4695301965947
 20
807.62973598600013
 11
949.99578019659509
 21
807.62973598599979
  0
ARC
  8
_0-e_極細4
  6
CONTINUOUS
 62
    6
 10
964.65703019659509
 20
773.37090598600014
 40
1.25
 50
0
 51
89.999999999999915
  0
ARC
  8
_0-e_極細4
  6
CONTINUOUS
 62
    6
 10
964.65703019659509
 20
773.37090598600014
 40
1.25
 50
89.999999999999915
 51
179.99999999999983
  0
LINE
  8
_0-e_極細4
  6
CONTINUOUS
 62
    6
 10
941.34453019659475
 20
805.8709059859998
 11
949.99578019659509
 21
804.87090598599991
  0
LINE
  8
_0-e_極細4
  6
CONTINUOUS
 62
    6
 10
949.99578019659509
 20
781.12090598599991
 11
951.84453019659509
 21
782.1209059859998
  0
LINE
  8
_0-e_極細4
  6
CONTINUOUS
 62
    6
 10
951.84453019659509
 20
782.1209059859998
 11
951.84453019659509
 21
785.75473598599979
  0
LINE
  8
_0-e_極細4
  6
CONTINUOUS
 62
    6
 10
941.34453019659475
 20
789.06495723600017
 11
941.34453019659475
 21
808.84412848599993
  0
LINE
  8
_0-e_極細4
  6
CONTINUOUS
 62
    6
 10
946.21953019659475
 20
788.3709059859998
 11
941.34453019659475
 21
788.3709059859998
  0
LINE
  8
_0-e_極細4
  6
CONTINUOUS
 62
    6
 10
941.34453019659475
 20
788.3709059859998
 11
941.34453019659475
 21
789.06495723600017
  0
ARC
  8
_0-e_極細4
  6
CONTINUOUS
 62
    6
 10
943.09453019659509
 20
772.95824723599992
 40
6.25
 50
0
 51
60.000000000003723
  0
LINE
  8
_0-e_極細4
  6
CONTINUOUS
 62
    6
 10
946.21953019659475
 20
778.3709059859998
 11
946.21953019659475
 21
788.3709059859998
  0
LINE
  8
_0-e_極細4
  6
CONTINUOUS
 62
    6
 10
949.99578019659509
 20
806.74590530318653
 11
941.34453019659475
 21
807.97810223599993
  0
LINE
  8
_0-e_極細4
  6
CONTINUOUS
 62
    6
 10
949.99578019659509
 20
787.6034859859999
 11
949.99578019659509
 21
806.75473598600001
  0
ARC
  8
_0-e_極細4
  6
CONTINUOUS
 62
    6
 10
949.99578019659509
 20
805.44223598600013
 40
1.3125000000000142
 50
4.150989999993234
 51
89.999999999999915
  0
LINE
  8
_0-e_極細4
  6
CONTINUOUS
 62
    6
 10
961.84453019659509
 20
782.1307097360002
 11
965.59453019659509
 21
782.1307097360002
  0
ARC
  8
_0-e_極細4
  6
CONTINUOUS
 62
    6
 10
961.84453019659509
 20
784.63070973599997
 40
2.5
 50
179.99999999999983
 51
269.99999999999977
  0
LINE
  8
_0-e_極細4
  6
CONTINUOUS
 62
    6
 10
959.34453019659509
 20
784.63070973599997
 11
959.34453019659509
 21
785.88070973599997
  0
LINE
  8
_0-e_極細4
  6
CONTINUOUS
 62
    6
 10
959.34453019659509
 20
785.88070973599997
 11
962.15703019659475
 21
785.88070973599997
  0
LINE
  8
_0-e_極細4
  6
CONTINUOUS
 62
    6
 10
958.09453019659509
 20
791.38070973599974
 11
962.15703019659475
 21
791.38070973599974
  0
LINE
  8
_0-e_極細4
  6
CONTINUOUS
 62
    6
 10
962.15703019659475
 20
785.88070973599997
 11
962.15703019659475
 21
791.38070973600009
  0
LINE
  8
_0-e_極細4
  6
CONTINUOUS
 62
    6
 10
962.15703019659475
 20
791.38070973600009
 11
1012.4695301965951
 21
791.38070973600009
  0
ARC
  8
_0-e_極細4
  6
CONTINUOUS
 62
    6
 10
978.40703019659475
 20
701.12088508599527
 40
12.5
 50
179.99999999999983
 51
269.99999999999977
  0
LINE
  8
_0-e_極細4
  6
CONTINUOUS
 62
    6
 10
1012.4695301965951
 20
688.62088508599527
 11
978.40703019659475
 21
688.62088508599527
  0
LINE
  8
_0-e_極細4
  6
CONTINUOUS
 62
    6
 10
965.90703019659509
 20
701.12088508599527
 11
965.90703019659509
 21
773.37090598600014
  0
LINE
  8
_0-e_極細4
  6
CONTINUOUS
 62
    6
 10
963.40703019659509
 20
701.12088508599527
 11
963.40703019659509
 21
773.37090598600014
  0
LINE
  8
_0-e_極細4
  6
CONTINUOUS
 62
    6
 10
1011.3057376965952
 20
686.12088508599527
 11
978.40703019659475
 21
686.12088508599527
  0
LINE
  8
_0-e_極細4
  6
CONTINUOUS
 62
    6
 10
1012.4695301965951
 20
686.12088508599527
 11
1011.3057376965952
 21
686.12088508599527
  0
LINE
  8
_0-e_極細4
  6
CONTINUOUS
 62
    6
 10
964.65703019659509
 20
639.24588508599527
 11
964.96953019659509
 21
670.49588508599527
  0
LINE
  8
_0-e_極細4
  6
CONTINUOUS
 62
    6
 10
952.46953019659509
 20
747.2728438359951
 11
952.46953019659509
 21
781.12090598599991
  0
ARC
  8
_0-e_極細4
  6
CONTINUOUS
 62
    6
 10
953.71953019659509
 20
747.2728438359951
 40
1.25
 50
179.99999999999983
 51
262.81924399998616
  0
ARC
  8
_0-e_極細4
  6
CONTINUOUS
 62
    6
 10
978.40703019659475
 20
701.12088508599527
 40
15
 50
179.99999999999983
 51
269.99999999999977
  0
LINE
  8
_0-e_極細4
  6
CONTINUOUS
 62
    6
 10
981.21953019659509
 20
673.62088508599516
 11
981.21953019659509
 21
686.12088508599527
  0
LINE
  8
_0-e_極細4
  6
CONTINUOUS
 62
    6
 10
978.40703019659475
 20
686.12088508599527
 11
981.21953019659509
 21
686.12088508599527
  0
LINE
  8
_0-e_極細4
  6
CONTINUOUS
 62
    6
 10
963.40703019659509
 20
701.12088508599527
 11
963.40703019659509
 21
734.87088508599516
  0
LINE
  8
_0-e_極細4
  6
CONTINUOUS
 62
    6
 10
981.2175564465947
 20
673.49254383599543
 11
981.21953019659509
 21
673.62088508599516
  0
LINE
  8
_0-e_極細4
  6
CONTINUOUS
 62
    6
 10
981.21953019659509
 20
673.62088508599516
 11
1012.4695301965951
 21
673.62088508599538
  0
ARC
  8
_0-e_極細4
  6
CONTINUOUS
 62
    6
 10
962.46953019659509
 20
683.62088508599527
 40
10
 50
179.99999999999983
 51
269.99999999999977
  0
LINE
  8
_0-e_極細4
  6
CONTINUOUS
 62
    6
 10
977.46953019659509
 20
670.49588508599527
 11
964.96953019659509
 21
670.49588508599527
  0
LINE
  8
_0-e_極細4
  6
CONTINUOUS
 62
    6
 10
980.59453019659509
 20
632.99588508599527
 11
981.21953019659509
 21
673.62088508599516
  0
LINE
  8
_0-e_極細4
  6
CONTINUOUS
 62
    6
 10
952.46953019659509
 20
683.62088508599527
 11
952.46953019659509
 21
747.2728438359951
  0
LINE
  8
_0-e_極細4
  6
CONTINUOUS
 62
    6
 10
962.46953019659509
 20
673.62088508599516
 11
981.21953019659509
 21
673.62088508599516
  0
LINE
  8
_0-e_極細4
  6
CONTINUOUS
 62
    6
 10
977.99036352992846
 20
639.24588508599527
 11
977.46953019659509
 21
670.49588508599527
  0
ARC
  8
_0-e_極細4
  6
CONTINUOUS
 62
    6
 10
959.34453019659509
 20
680.49588508599516
 40
10
 50
179.99999999999983
 51
269.99999999999977
  0
LINE
  8
_0-e_極細4
  6
CONTINUOUS
 62
    6
 10
949.34453019659509
 20
680.49588508599516
 11
949.34453019659509
 21
772.95824723599992
  0
LINE
  8
_0-e_極細4
  6
CONTINUOUS
 62
    6
 10
961.09453019659509
 20
639.24588508599527
 11
960.59453019659509
 21
670.49588508599527
  0
LINE
  8
_0-e_極細4
  6
CONTINUOUS
 62
    6
 10
977.99036394659493
 20
639.24588508599527
 11
961.09453019659509
 21
639.24588508599527
  0
LINE
  8
_0-e_極細4
  6
CONTINUOUS
 62
    6
 10
979.96953019659475
 20
707.63068883599522
 11
1012.4695301965951
 21
707.63068883599522
  0
ARC
  8
_0-e_極細4
  6
CONTINUOUS
 62
    6
 10
979.96953019659475
 20
708.88068883599533
 40
1.25
 50
179.99999999999983
 51
270.00045836623457
  0
LINE
  8
_0-e_極細4
  6
CONTINUOUS
 62
    6
 10
978.71953019659509
 20
708.88068883599533
 11
978.71953019659509
 21
782.59851723600013
  0
LINE
  8
_0-e_極細4
  6
CONTINUOUS
 62
    6
 10
953.56328019186435
 20
746.0326479095296
 11
963.40703019659509
 21
746.0326479095296
  0
LINE
  8
_0-e_極細4
  6
CONTINUOUS
 62
    6
 10
960.59453019659509
 20
670.49588508599527
 11
959.34453019659509
 21
670.49588508599527
  0
LINE
  8
_0-e_極細4
  6
CONTINUOUS
 62
    6
 10
1012.4695301965951
 20
632.99588508599527
 11
978.09453019659509
 21
632.99588508599527
  0
LINE
  8
_0-e_極細4
  6
CONTINUOUS
 62
    6
 10
978.09453019659509
 20
632.99588508599527
 11
977.99036352992846
 21
639.24588508599527
  0
LINE
  8
_0-e_極細4
  6
CONTINUOUS
 62
    6
 10
1066.4695301965946
 20
800.12973598599979
 11
1066.4695301965946
 21
801.37973598599979
  0
ARC
  8
_0-e_極細4
  6
CONTINUOUS
 62
    6
 10
1067.2195301965946
 20
800.75473598600001
 40
0.625
 50
269.99999999999977
 51
359.99999999999966
  0
LINE
  8
_0-e_極細4
  6
CONTINUOUS
 62
    6
 10
958.46953019659463
 20
800.12973598599979
 11
958.46953019659463
 21
801.37973598599979
  0
ARC
  8
_0-e_極細4
  6
CONTINUOUS
 62
    6
 10
957.7195301965952
 20
800.75473598600001
 40
0.625
 50
179.99999999999983
 51
269.99999999999977
  0
LINE
  8
_0-0_計極細
  6
CONTINUOUS
 62
    2
 10
531.15882911398649
 20
381.76475899176177
 11
554.13782911398584
 21
381.76475899176177
  0
LINE
  8
_0-0_計極細
  6
CONTINUOUS
 62
    2
 10
542.40882911398649
 20
376.56475899176144
 11
531.15882911398649
 21
376.56475899176144
  0
LINE
  8
_0-0_計極細
  6
CONTINUOUS
 62
    2
 10
554.13782911398584
 20
402.97182299176143
 11
561.05882911398612
 21
403.95758000643156
  0
LINE
  8
_0-0_計極細
  6
CONTINUOUS
 62
    2
 10
531.15882911398649
 20
381.46909499176155
 11
531.15882911398649
 21
382.94684799176162
  0
LINE
  8
_0-0_計極細
  6
CONTINUOUS
 62
    2
 10
531.15882911398649
 20
382.56475899176144
 11
552.65882911398649
 21
382.56475899176144
  0
LINE
  8
_0-0_計極細
  6
CONTINUOUS
 62
    2
 10
547.65882911398649
 20
396.07260199176181
 11
547.65882911398649
 21
396.97182299176148
  0
LINE
  8
_0-0_計極細
  6
CONTINUOUS
 62
    2
 10
547.65882911398649
 20
389.97260199176139
 11
547.65882911398649
 21
391.47260199176145
  0
LINE
  8
_0-0_計極細
  6
CONTINUOUS
 62
    2
 10
543.90882911398649
 20
394.37793299176178
 11
543.90882911398649
 21
393.0779329917616
  0
LINE
  8
_0-0_計極細
  6
CONTINUOUS
 62
    2
 10
543.90882911398649
 20
392.0779329917616
 11
543.90882911398649
 21
391.5779329917616
  0
LINE
  8
_0-0_計極細
  6
CONTINUOUS
 62
    2
 10
547.50882911398685
 20
394.37793299176178
 11
547.50882911398685
 21
391.5779329917616
  0
LINE
  8
_0-0_計極細
  6
CONTINUOUS
 62
    2
 10
543.40882911398649
 20
394.87793299176184
 11
543.90882911398649
 21
395.37793299176178
  0
LINE
  8
_0-0_計極細
  6
CONTINUOUS
 62
    2
 10
543.90882911398649
 20
394.37793299176178
 11
543.40882911398649
 21
394.87793299176184
  0
LINE
  8
_0-0_計極細
  6
CONTINUOUS
 62
    2
 10
543.90882911398649
 20
392.0779329917616
 11
543.40882911398649
 21
392.57793299176166
  0
LINE
  8
_0-0_計極細
  6
CONTINUOUS
 62
    2
 10
543.40882911398649
 20
392.57793299176166
 11
543.90882911398649
 21
393.0779329917616
  0
LINE
  8
_0-0_計極細
  6
CONTINUOUS
 62
    2
 10
547.50882911398685
 20
394.37793299176178
 11
548.30882911398612
 21
395.87793299176184
  0
LINE
  8
_0-0_計極細
  6
CONTINUOUS
 62
    2
 10
543.90882911398649
 20
395.87793299176184
 11
543.90882911398649
 21
395.37793299176178
  0
LINE
  8
_0-0_計極細
  6
CONTINUOUS
 62
    2
 10
504.35882911398721
 20
396.97182299176188
 11
547.95882911398758
 21
396.97182299176148
  0
LINE
  8
_0-0_計極細
  6
CONTINUOUS
 62
    2
 10
504.35882911398721
 20
397.97182299176194
 11
547.35882911398721
 21
397.97182299176143
  0
ARC
  8
_0-0_計極細
  6
CONTINUOUS
 62
    2
 10
550.10882911398721
 20
401.97182299176148
 40
0.5
 50
24.054549000092944
 51
89.999999999999929
  0
ARC
  8
_0-0_計極細
  6
CONTINUOUS
 62
    2
 10
550.40882911398649
 20
400.67182299176176
 40
0.1999999999999886
 50
269.99999999999977
 51
359.99999999999966
  0
ARC
  8
_0-0_計極細
  6
CONTINUOUS
 62
    2
 10
550.10882911398721
 20
401.97182299176148
 40
0.5
 50
0
 51
24.054549000092944
  0
ARC
  8
_0-0_計極細
  6
CONTINUOUS
 62
    2
 10
547.95882911398758
 20
397.47182299176143
 40
0.5
 50
269.99999999999977
 51
359.99999999999966
  0
LINE
  8
_0-0_計極細
  6
CONTINUOUS
 62
    2
 10
547.35882911398721
 20
396.97182299176148
 11
547.35882911398721
 21
397.97182299176143
  0
LINE
  8
_0-0_計極細
  6
CONTINUOUS
 62
    2
 10
548.45882911398758
 20
397.47182299176143
 11
548.45882911398758
 21
400.47182299176143
  0
LINE
  8
_0-0_計極細
  6
CONTINUOUS
 62
    2
 10
548.45882911398758
 20
400.47182299176143
 11
550.40882911398649
 21
400.47182299176143
  0
LINE
  8
_0-0_計極細
  6
CONTINUOUS
 62
    2
 10
550.60882911398721
 20
400.67182299176176
 11
550.60882911398721
 21
401.97182299176148
  0
LINE
  8
_0-0_計極細
  6
CONTINUOUS
 62
    2
 10
535.445142113987
 20
383.77182299176161
 11
535.445142113987
 21
385.47182299176143
  0
LINE
  8
_0-0_計極細
  6
CONTINUOUS
 62
    2
 10
538.945142113987
 20
383.77182299176161
 11
538.945142113987
 21
385.47182299176143
  0
LINE
  8
_0-0_計極細
  6
CONTINUOUS
 62
    2
 10
533.945142113987
 20
383.77182299176161
 11
533.945142113987
 21
385.47182299176143
  0
LINE
  8
_0-0_計極細
  6
CONTINUOUS
 62
    2
 10
533.945142113987
 20
383.77182299176161
 11
538.945142113987
 21
383.77182299176161
  0
LINE
  8
_0-0_計極細
  6
CONTINUOUS
 62
    2
 10
547.15882911398649
 20
385.47182299176143
 11
552.65882911398649
 21
385.47182299176143
  0
LINE
  8
_0-0_計極細
  6
CONTINUOUS
 62
    2
 10
546.32864511398611
 20
383.47182299176148
 11
547.15882911398649
 21
383.47182299176148
  0
LINE
  8
_0-0_計極細
  6
CONTINUOUS
 62
    2
 10
547.15882911398649
 20
388.17182299176176
 11
548.45882911398758
 21
388.17182299176176
  0
LINE
  8
_0-0_計極細
  6
CONTINUOUS
 62
    2
 10
547.15882911398649
 20
387.47182299176143
 11
549.15882911398649
 21
387.47182299176143
  0
LINE
  8
_0-0_計極細
  6
CONTINUOUS
 62
    2
 10
544.90882911398649
 20
385.57260199176176
 11
544.90882911398649
 21
389.47182299176148
  0
LINE
  8
_0-0_計極細
  6
CONTINUOUS
 62
    2
 10
547.15882911398649
 20
383.47182299176148
 11
547.15882911398649
 21
389.47182299176148
  0
LINE
  8
_0-0_計極細
  6
CONTINUOUS
 62
    2
 10
554.13782911398584
 20
386.9508229917617
 11
552.65882911398649
 21
385.47182299176143
  0
LINE
  8
_0-0_計極細
  6
CONTINUOUS
 62
    2
 10
549.15882911398649
 20
387.47182299176143
 11
549.15882911398649
 21
398.72182299176143
  0
ARC
  8
_0-0_計極細
  6
CONTINUOUS
 62
    2
 10
550.20882911398758
 20
398.72182299176143
 40
1.0500000000000114
 50
89.999999999999915
 51
179.99999999999983
  0
LINE
  8
_0-0_計極細
  6
CONTINUOUS
 62
    2
 10
551.40005311398772
 20
399.77182299176161
 11
550.20882911398758
 21
399.77182299176161
  0
ARC
  8
_0-0_計極細
  6
CONTINUOUS
 62
    2
 10
551.40005311398772
 20
401.47182299176143
 40
1.6999999999999886
 50
269.99999999999977
 51
356.64911199999773
  0
ARC
  8
_0-0_計極細
  6
CONTINUOUS
 62
    2
 10
551.40005311398772
 20
401.47182299176143
 40
1
 50
269.99999999999977
 51
356.64911199999977
  0
ARC
  8
_0-0_計極細
  6
CONTINUOUS
 62
    2
 10
554.13782911398584
 20
401.22182299176143
 40
1.7500000000000002
 50
89.999999999999915
 51
175.8490099999841
  0
ARC
  8
_0-0_計極細
  6
CONTINUOUS
 62
    2
 10
550.20882911398758
 20
398.72182299176143
 40
1.7500000000000002
 50
89.999999999999915
 51
179.99999999999983
  0
LINE
  8
_0-0_計極細
  6
CONTINUOUS
 62
    2
 10
550.65882911398649
 20
400.47182299176143
 11
550.65882911398649
 21
402.97182299176143
  0
LINE
  8
_0-0_計極細
  6
CONTINUOUS
 62
    2
 10
548.45882911398758
 20
388.17182299176176
 11
548.45882911398758
 21
398.72182299176143
  0
LINE
  8
_0-0_計極細
  6
CONTINUOUS
 62
    2
 10
551.40005311398772
 20
400.47182299176143
 11
550.20882911398758
 21
400.47182299176143
  0
LINE
  8
_0-0_計極細
  6
CONTINUOUS
 62
    2
 10
544.40882911398649
 20
389.47182299176148
 11
548.45882911398758
 21
389.47182299176148
  0
LINE
  8
_0-0_計極細
  6
CONTINUOUS
 62
    2
 10
531.71599011398712
 20
385.47182299176143
 11
541.65713611398633
 21
385.47182299176143
  0
ARC
  8
_0-0_計極細
  6
CONTINUOUS
 62
    2
 10
542.40882911398649
 20
375.56475899176144
 40
1
 50
89.999999999999915
 51
179.99999999999983
  0
ARC
  8
_0-0_計極細
  6
CONTINUOUS
 62
    2
 10
542.40882911398649
 20
375.56475899176144
 40
1
 50
0
 51
89.999999999999915
  0
LINE
  8
_0-0_計極細
  6
CONTINUOUS
 62
    2
 10
561.05882911398612
 20
401.56475899176144
 11
554.13782911398584
 21
400.76475899176171
  0
LINE
  8
_0-0_計極細
  6
CONTINUOUS
 62
    2
 10
554.13782911398584
 20
381.76475899176177
 11
552.65882911398649
 21
382.56475899176144
  0
LINE
  8
_0-0_計極細
  6
CONTINUOUS
 62
    2
 10
552.65882911398649
 20
382.56475899176144
 11
552.65882911398649
 21
385.47182299176143
  0
LINE
  8
_0-1_計細線
  6
CONTINUOUS
 62
    3
 10
561.05882911398612
 20
388.11999999176192
 11
561.05882911398612
 21
403.94333699176173
  0
LINE
  8
_0-1_計細線
  6
CONTINUOUS
 62
    3
 10
557.15882911398649
 20
387.56475899176144
 11
561.05882911398612
 21
387.56475899176144
  0
LINE
  8
_0-1_計細線
  6
CONTINUOUS
 62
    3
 10
561.05882911398612
 20
387.56475899176144
 11
561.05882911398612
 21
388.11999999176192
  0
ARC
  8
_0-1_計細線
  6
CONTINUOUS
 62
    3
 10
559.65882911398649
 20
375.23463199176172
 40
5
 50
119.99999999999989
 51
179.99999999999983
  0
LINE
  8
_0-1_計細線
  6
CONTINUOUS
 62
    3
 10
557.15882911398649
 20
379.56475899176149
 11
557.15882911398649
 21
387.56475899176144
  0
LINE
  8
_0-0_計極細
  6
CONTINUOUS
 62
    2
 10
554.13782911398584
 20
402.26475844551061
 11
561.05882911398612
 21
403.25051599176163
  0
LINE
  8
_0-0_計極細
  6
CONTINUOUS
 62
    2
 10
554.13782911398584
 20
386.9508229917617
 11
554.13782911398584
 21
402.27182299176161
  0
ARC
  8
_0-0_計極細
  6
CONTINUOUS
 62
    2
 10
554.13782911398584
 20
401.22182299176143
 40
1.0500000000000114
 50
89.999999999999915
 51
175.84900999999113
  0
ARC
  8
_0-0_計極細
  6
CONTINUOUS
 62
    2
 10
537.15882911398649
 20
382.94684799176162
 40
6.0000000000000009
 50
55.166292356146954
 51
179.99999999999983
  0
ARC
  8
_0-0_計極細
  6
CONTINUOUS
 62
    2
 10
538.65882911398649
 20
385.57260199176176
 40
3.0000000000000004
 50
0
 51
50.029499419945331
  0
LINE
  8
_0-0_計極細
  6
CONTINUOUS
 62
    2
 10
541.65882911398649
 20
382.57260199176181
 11
541.65882911398649
 21
385.57260199176176
  0
LINE
  8
_0-0_計極細
  6
CONTINUOUS
 62
    2
 10
544.65882911398649
 20
382.57260199176181
 11
541.65882911398649
 21
382.57260199176181
  0
ARC
  8
_0-0_計極細
  6
CONTINUOUS
 62
    2
 10
544.65882911398649
 20
384.57260199176176
 40
2
 50
269.99999999999977
 51
359.99999999999966
  0
LINE
  8
_0-0_計極細
  6
CONTINUOUS
 62
    2
 10
546.65882911398649
 20
384.57260199176176
 11
546.65882911398649
 21
385.57260199176176
  0
LINE
  8
_0-0_計極細
  6
CONTINUOUS
 62
    2
 10
546.65882911398649
 20
385.57260199176176
 11
544.40882911398649
 21
385.57260199176176
  0
LINE
  8
_0-0_計極細
  6
CONTINUOUS
 62
    2
 10
547.65882911398649
 20
389.97260199176139
 11
544.40882911398649
 21
389.97260199176139
  0
LINE
  8
_0-0_計極細
  6
CONTINUOUS
 62
    2
 10
544.40882911398649
 20
385.57260199176176
 11
544.40882911398649
 21
389.97260199176191
  0
ARC
  8
_0-0_計極細
  6
CONTINUOUS
 62
    2
 10
531.40882911398649
 20
317.764742271758
 40
10
 50
269.99999999999977
 51
359.99999999999966
  0
LINE
  8
_0-0_計極細
  6
CONTINUOUS
 62
    2
 10
541.40882911398649
 20
317.764742271758
 11
541.40882911398649
 21
375.56475899176144
  0
LINE
  8
_0-0_計極細
  6
CONTINUOUS
 62
    2
 10
543.40882911398649
 20
317.764742271758
 11
543.40882911398649
 21
375.56475899176144
  0
LINE
  8
_0-0_計極細
  6
CONTINUOUS
 62
    2
 10
505.08986311398758
 20
305.764742271758
 11
531.40882911398649
 21
305.764742271758
  0
ARC
  8
_0-0_計極細
  6
CONTINUOUS
 62
    2
 10
505.65539311398743
 20
296.264742271758
 40
0.5
 50
180.3951370000056
 51
269.99999999999977
  0
LINE
  8
_0-0_計極細
  6
CONTINUOUS
 62
    2
 10
505.15540411398575
 20
296.26129427175806
 11
505.0899341139862
 21
305.75445927175792
  0
LINE
  8
_0-0_計極細
  6
CONTINUOUS
 62
    2
 10
542.40882911398649
 20
268.264742271758
 11
542.15882911398649
 21
293.264742271758
  0
LINE
  8
_0-0_計極細
  6
CONTINUOUS
 62
    2
 10
552.15882911398649
 20
354.68630927175786
 11
552.15882911398649
 21
381.76475899176177
  0
ARC
  8
_0-0_計極細
  6
CONTINUOUS
 62
    2
 10
551.15882911398649
 20
354.68630927175786
 40
1
 50
277.18075600005386
 51
359.99999999999966
  0
ARC
  8
_0-0_計極細
  6
CONTINUOUS
 62
    2
 10
531.40882911398649
 20
317.764742271758
 40
12.000000000000002
 50
269.99999999999977
 51
359.99999999999966
  0
LINE
  8
_0-0_計極細
  6
CONTINUOUS
 62
    2
 10
529.15882911398649
 20
295.764742271758
 11
529.15882911398649
 21
305.764742271758
  0
LINE
  8
_0-0_計極細
  6
CONTINUOUS
 62
    2
 10
531.40882911398649
 20
305.764742271758
 11
529.15882911398649
 21
305.764742271758
  0
LINE
  8
_0-0_計極細
  6
CONTINUOUS
 62
    2
 10
543.40882911398649
 20
317.764742271758
 11
543.40882911398649
 21
344.764742271758
  0
LINE
  8
_0-0_計極細
  6
CONTINUOUS
 62
    2
 10
529.16040811398625
 20
295.66206927175813
 11
529.15882911398649
 21
295.764742271758
  0
ARC
  8
_0-0_計極細
  6
CONTINUOUS
 62
    2
 10
544.15882911398649
 20
303.764742271758
 40
8
 50
269.99999999999977
 51
359.99999999999636
  0
LINE
  8
_0-0_計極細
  6
CONTINUOUS
 62
    2
 10
532.15882911398649
 20
293.264742271758
 11
542.15882911398649
 21
293.264742271758
  0
LINE
  8
_0-0_計極細
  6
CONTINUOUS
 62
    2
 10
529.65882911398649
 20
263.264742271758
 11
529.15882911398649
 21
295.764742271758
  0
LINE
  8
_0-0_計極細
  6
CONTINUOUS
 62
    2
 10
552.15882911398649
 20
303.76474227175754
 11
552.15882911398649
 21
354.68630927175786
  0
LINE
  8
_0-0_計極細
  6
CONTINUOUS
 62
    2
 10
544.15882911398649
 20
295.764742271758
 11
529.15882911398649
 21
295.764742271758
  0
LINE
  8
_0-0_計極細
  6
CONTINUOUS
 62
    2
 10
531.74216244732042
 20
268.264742271758
 11
532.15882911398649
 21
293.264742271758
  0
LINE
  8
_0-1_計細線
  6
CONTINUOUS
 62
    3
 10
531.65882911398649
 20
263.264742271758
 11
531.74216244732042
 21
268.264742271758
  0
ARC
  8
_0-1_計細線
  6
CONTINUOUS
 62
    3
 10
546.65882911398649
 20
301.26474227175754
 40
8
 50
269.99999999999977
 51
359.99999999999966
  0
LINE
  8
_0-1_計細線
  6
CONTINUOUS
 62
    3
 10
554.65882911398649
 20
301.26474227175754
 11
554.65882911398649
 21
375.23463199176172
  0
LINE
  8
_0-1_計細線
  6
CONTINUOUS
 62
    3
 10
545.25882911398685
 20
268.264742271758
 11
545.65882911398649
 21
293.264742271758
  0
LINE
  8
_0-1_計細線
  6
CONTINUOUS
 62
    3
 10
531.74216211398698
 20
268.264742271758
 11
545.25882911398685
 21
268.264742271758
  0
LINE
  8
_0-1_計細線
  6
CONTINUOUS
 62
    3
 10
528.71523011398631
 20
263.264742271758
 11
531.65882911398649
 21
263.264742271758
  0
ARC
  8
_0-0_計極細
  6
CONTINUOUS
 62
    2
 10
530.15881311398653
 20
323.97258527175774
 40
1
 50
179.99999999999983
 51
270.00045836628669
  0
ARC
  8
_0-0_計極細
  6
CONTINUOUS
 62
    2
 10
530.15882911398649
 20
323.97258527175774
 40
1
 50
269.99954163381682
 51
359.99999999999966
  0
LINE
  8
_0-0_計極細
  6
CONTINUOUS
 62
    2
 10
529.15881311398653
 20
323.97258527175774
 11
529.15881311398653
 21
381.76475899176177
  0
LINE
  8
_0-0_計極細
  6
CONTINUOUS
 62
    2
 10
531.15882911398649
 20
323.97258527175774
 11
531.15882911398649
 21
382.94684799176162
  0
LINE
  8
_0-0_計極細
  6
CONTINUOUS
 62
    2
 10
551.2838291177718
 20
353.69415253058543
 11
543.40882911398649
 21
353.69415253058543
  0
LINE
  8
_0-1_計細線
  6
CONTINUOUS
 62
    3
 10
545.65882911398649
 20
293.264742271758
 11
546.65882911398649
 21
293.26474227175754
  0
LINE
  8
_0-0_計極細
  6
CONTINUOUS
 62
    2
 10
477.15882911398649
 20
381.76475899176177
 11
454.17982911398718
 21
381.76475899176177
  0
LINE
  8
_0-0_計極細
  6
CONTINUOUS
 62
    2
 10
465.90882911398649
 20
376.56475899176144
 11
477.15882911398649
 21
376.56475899176144
  0
LINE
  8
_0-0_計極細
  6
CONTINUOUS
 62
    2
 10
454.17982911398718
 20
402.97182299176143
 11
447.25882911398685
 21
403.95758000643156
  0
LINE
  8
_0-0_計極細
  6
CONTINUOUS
 62
    2
 10
477.15882911398649
 20
381.46909499176155
 11
477.15882911398649
 21
382.94684799176162
  0
LINE
  8
_0-0_計極細
  6
CONTINUOUS
 62
    2
 10
477.15882911398649
 20
382.56475899176144
 11
455.65882911398654
 21
382.56475899176144
  0
LINE
  8
_0-0_計極細
  6
CONTINUOUS
 62
    2
 10
460.65882911398654
 20
396.07260199176181
 11
460.65882911398654
 21
396.97182299176148
  0
LINE
  8
_0-0_計極細
  6
CONTINUOUS
 62
    2
 10
460.65882911398654
 20
389.97260199176139
 11
460.65882911398654
 21
391.47260199176145
  0
LINE
  8
_0-0_計極細
  6
CONTINUOUS
 62
    2
 10
464.40882911398654
 20
394.37793299176178
 11
464.40882911398654
 21
393.0779329917616
  0
LINE
  8
_0-0_計極細
  6
CONTINUOUS
 62
    2
 10
464.40882911398654
 20
392.0779329917616
 11
464.40882911398654
 21
391.5779329917616
  0
LINE
  8
_0-0_計極細
  6
CONTINUOUS
 62
    2
 10
460.80882911398618
 20
394.37793299176178
 11
460.80882911398618
 21
391.5779329917616
  0
LINE
  8
_0-0_計極細
  6
CONTINUOUS
 62
    2
 10
464.90882911398649
 20
394.87793299176184
 11
464.40882911398654
 21
395.37793299176178
  0
LINE
  8
_0-0_計極細
  6
CONTINUOUS
 62
    2
 10
464.40882911398654
 20
394.37793299176178
 11
464.90882911398649
 21
394.87793299176184
  0
LINE
  8
_0-0_計極細
  6
CONTINUOUS
 62
    2
 10
464.40882911398654
 20
392.0779329917616
 11
464.90882911398649
 21
392.57793299176166
  0
LINE
  8
_0-0_計極細
  6
CONTINUOUS
 62
    2
 10
464.90882911398649
 20
392.57793299176166
 11
464.40882911398654
 21
393.0779329917616
  0
LINE
  8
_0-0_計極細
  6
CONTINUOUS
 62
    2
 10
460.80882911398618
 20
394.37793299176178
 11
460.00882911398691
 21
395.87793299176184
  0
LINE
  8
_0-0_計極細
  6
CONTINUOUS
 62
    2
 10
464.40882911398654
 20
395.87793299176184
 11
464.40882911398654
 21
395.37793299176178
  0
LINE
  8
_0-0_計極細
  6
CONTINUOUS
 62
    2
 10
503.95882911398581
 20
396.97182299176188
 11
460.35882911398545
 21
396.97182299176148
  0
LINE
  8
_0-0_計極細
  6
CONTINUOUS
 62
    2
 10
503.95882911398581
 20
397.97182299176194
 11
460.95882911398576
 21
397.97182299176143
  0
ARC
  8
_0-0_計極細
  6
CONTINUOUS
 62
    2
 10
458.20882911398576
 20
401.97182299176148
 40
0.5
 50
89.999999999999915
 51
155.94545099990708
  0
ARC
  8
_0-0_計極細
  6
CONTINUOUS
 62
    2
 10
457.90882911398654
 20
400.67182299176176
 40
0.1999999999999886
 50
179.99999999999983
 51
269.99999999999977
  0
ARC
  8
_0-0_計極細
  6
CONTINUOUS
 62
    2
 10
458.20882911398576
 20
401.97182299176148
 40
0.5
 50
155.94545099990708
 51
179.99999999999983
  0
ARC
  8
_0-0_計極細
  6
CONTINUOUS
 62
    2
 10
460.35882911398545
 20
397.47182299176143
 40
0.5
 50
179.99999999999983
 51
269.99999999999977
  0
LINE
  8
_0-0_計極細
  6
CONTINUOUS
 62
    2
 10
460.95882911398576
 20
396.97182299176148
 11
460.95882911398576
 21
397.97182299176143
  0
LINE
  8
_0-0_計極細
  6
CONTINUOUS
 62
    2
 10
459.85882911398539
 20
397.47182299176143
 11
459.85882911398539
 21
400.47182299176143
  0
LINE
  8
_0-0_計極細
  6
CONTINUOUS
 62
    2
 10
459.85882911398539
 20
400.47182299176143
 11
457.90882911398654
 21
400.47182299176143
  0
LINE
  8
_0-0_計極細
  6
CONTINUOUS
 62
    2
 10
457.70882911398581
 20
400.67182299176176
 11
457.70882911398581
 21
401.97182299176148
  0
LINE
  8
_0-0_計極細
  6
CONTINUOUS
 62
    2
 10
472.87251611398602
 20
383.77182299176161
 11
472.87251611398602
 21
385.47182299176143
  0
LINE
  8
_0-0_計極細
  6
CONTINUOUS
 62
    2
 10
469.37251611398602
 20
383.77182299176161
 11
469.37251611398602
 21
385.47182299176143
  0
LINE
  8
_0-0_計極細
  6
CONTINUOUS
 62
    2
 10
474.37251611398602
 20
383.77182299176161
 11
474.37251611398602
 21
385.47182299176143
  0
LINE
  8
_0-0_計極細
  6
CONTINUOUS
 62
    2
 10
474.37251611398602
 20
383.77182299176161
 11
469.37251611398602
 21
383.77182299176161
  0
LINE
  8
_0-0_計極細
  6
CONTINUOUS
 62
    2
 10
461.15882911398649
 20
385.47182299176143
 11
455.65882911398654
 21
385.47182299176143
  0
LINE
  8
_0-0_計極細
  6
CONTINUOUS
 62
    2
 10
461.98901311398686
 20
383.47182299176148
 11
461.15882911398649
 21
383.47182299176148
  0
LINE
  8
_0-0_計極細
  6
CONTINUOUS
 62
    2
 10
461.15882911398649
 20
388.17182299176176
 11
459.85882911398539
 21
388.17182299176176
  0
LINE
  8
_0-0_計極細
  6
CONTINUOUS
 62
    2
 10
461.15882911398649
 20
387.47182299176143
 11
459.15882911398654
 21
387.47182299176143
  0
LINE
  8
_0-0_計極細
  6
CONTINUOUS
 62
    2
 10
463.40882911398649
 20
385.57260199176176
 11
463.40882911398649
 21
389.47182299176148
  0
LINE
  8
_0-0_計極細
  6
CONTINUOUS
 62
    2
 10
461.15882911398649
 20
383.47182299176148
 11
461.15882911398649
 21
389.47182299176148
  0
LINE
  8
_0-0_計極細
  6
CONTINUOUS
 62
    2
 10
454.17982911398718
 20
386.9508229917617
 11
455.65882911398654
 21
385.47182299176143
  0
LINE
  8
_0-0_計極細
  6
CONTINUOUS
 62
    2
 10
459.15882911398654
 20
387.47182299176143
 11
459.15882911398654
 21
398.72182299176143
  0
ARC
  8
_0-0_計極細
  6
CONTINUOUS
 62
    2
 10
458.10882911398545
 20
398.72182299176143
 40
1.0500000000000114
 50
0
 51
89.999999999999915
  0
LINE
  8
_0-0_計極細
  6
CONTINUOUS
 62
    2
 10
456.91760511398525
 20
399.77182299176161
 11
458.10882911398545
 21
399.77182299176161
  0
ARC
  8
_0-0_計極細
  6
CONTINUOUS
 62
    2
 10
456.91760511398525
 20
401.47182299176143
 40
1.6999999999999886
 50
183.35088800000156
 51
269.99999999999977
  0
ARC
  8
_0-0_計極細
  6
CONTINUOUS
 62
    2
 10
456.91760511398525
 20
401.47182299176143
 40
1
 50
183.35088799999946
 51
269.99999999999977
  0
ARC
  8
_0-0_計極細
  6
CONTINUOUS
 62
    2
 10
454.17982911398718
 20
401.22182299176143
 40
1.7500000000000002
 50
4.1509900000159075
 51
89.999999999999915
  0
ARC
  8
_0-0_計極細
  6
CONTINUOUS
 62
    2
 10
458.10882911398545
 20
398.72182299176143
 40
1.7500000000000002
 50
0
 51
89.999999999999915
  0
LINE
  8
_0-0_計極細
  6
CONTINUOUS
 62
    2
 10
457.65882911398649
 20
400.47182299176143
 11
457.65882911398649
 21
402.97182299176143
  0
LINE
  8
_0-0_計極細
  6
CONTINUOUS
 62
    2
 10
459.85882911398539
 20
388.17182299176176
 11
459.85882911398539
 21
398.72182299176143
  0
LINE
  8
_0-0_計極細
  6
CONTINUOUS
 62
    2
 10
456.91760511398525
 20
400.47182299176143
 11
458.10882911398545
 21
400.47182299176143
  0
LINE
  8
_0-0_計極細
  6
CONTINUOUS
 62
    2
 10
463.90882911398649
 20
389.47182299176148
 11
459.85882911398539
 21
389.47182299176148
  0
LINE
  8
_0-0_計極細
  6
CONTINUOUS
 62
    2
 10
476.60166811398591
 20
385.47182299176143
 11
466.66052211398664
 21
385.47182299176143
  0
ARC
  8
_0-0_計極細
  6
CONTINUOUS
 62
    2
 10
465.90882911398649
 20
375.56475899176144
 40
1
 50
0
 51
89.999999999999915
  0
ARC
  8
_0-0_計極細
  6
CONTINUOUS
 62
    2
 10
465.90882911398649
 20
375.56475899176144
 40
1
 50
89.999999999999915
 51
179.99999999999983
  0
LINE
  8
_0-0_計極細
  6
CONTINUOUS
 62
    2
 10
447.25882911398685
 20
401.56475899176144
 11
454.17982911398718
 21
400.76475899176171
  0
LINE
  8
_0-0_計極細
  6
CONTINUOUS
 62
    2
 10
454.17982911398718
 20
381.76475899176177
 11
455.65882911398654
 21
382.56475899176144
  0
LINE
  8
_0-0_計極細
  6
CONTINUOUS
 62
    2
 10
455.65882911398654
 20
382.56475899176144
 11
455.65882911398654
 21
385.47182299176143
  0
LINE
  8
_0-1_計細線
  6
CONTINUOUS
 62
    3
 10
447.25882911398685
 20
388.11999999176192
 11
447.25882911398685
 21
403.94333699176173
  0
LINE
  8
_0-1_計細線
  6
CONTINUOUS
 62
    3
 10
451.15882911398649
 20
387.56475899176144
 11
447.25882911398685
 21
387.56475899176144
  0
LINE
  8
_0-1_計細線
  6
CONTINUOUS
 62
    3
 10
447.25882911398685
 20
387.56475899176144
 11
447.25882911398685
 21
388.11999999176192
  0
ARC
  8
_0-1_計細線
  6
CONTINUOUS
 62
    3
 10
448.65882911398649
 20
375.23463199176172
 40
5
 50
0
 51
60.000000000000107
  0
LINE
  8
_0-1_計細線
  6
CONTINUOUS
 62
    3
 10
451.15882911398649
 20
379.56475899176149
 11
451.15882911398649
 21
387.56475899176144
  0
LINE
  8
_0-0_計極細
  6
CONTINUOUS
 62
    2
 10
454.17982911398718
 20
402.26475844551061
 11
447.25882911398685
 21
403.25051599176163
  0
LINE
  8
_0-0_計極細
  6
CONTINUOUS
 62
    2
 10
454.17982911398718
 20
386.9508229917617
 11
454.17982911398718
 21
402.27182299176161
  0
ARC
  8
_0-0_計極細
  6
CONTINUOUS
 62
    2
 10
454.17982911398718
 20
401.22182299176143
 40
1.0500000000000114
 50
4.150990000008882
 51
89.999999999999915
  0
ARC
  8
_0-0_計極細
  6
CONTINUOUS
 62
    2
 10
471.15882911398649
 20
382.94684799176162
 40
6.0000000000000009
 50
0
 51
124.83370764385305
  0
ARC
  8
_0-0_計極細
  6
CONTINUOUS
 62
    2
 10
469.65882911398649
 20
385.57260199176176
 40
3.0000000000000004
 50
129.97050058005468
 51
179.99999999999983
  0
LINE
  8
_0-0_計極細
  6
CONTINUOUS
 62
    2
 10
466.65882911398654
 20
382.57260199176181
 11
466.65882911398654
 21
385.57260199176176
  0
LINE
  8
_0-0_計極細
  6
CONTINUOUS
 62
    2
 10
463.65882911398649
 20
382.57260199176181
 11
466.65882911398654
 21
382.57260199176181
  0
ARC
  8
_0-0_計極細
  6
CONTINUOUS
 62
    2
 10
463.65882911398649
 20
384.57260199176176
 40
2
 50
179.99999999999983
 51
269.99999999999977
  0
LINE
  8
_0-0_計極細
  6
CONTINUOUS
 62
    2
 10
461.65882911398654
 20
384.57260199176176
 11
461.65882911398654
 21
385.57260199176176
  0
LINE
  8
_0-0_計極細
  6
CONTINUOUS
 62
    2
 10
461.65882911398654
 20
385.57260199176176
 11
463.90882911398649
 21
385.57260199176176
  0
LINE
  8
_0-0_計極細
  6
CONTINUOUS
 62
    2
 10
460.65882911398654
 20
389.97260199176139
 11
463.90882911398649
 21
389.97260199176139
  0
LINE
  8
_0-0_計極細
  6
CONTINUOUS
 62
    2
 10
463.90882911398649
 20
385.57260199176176
 11
463.90882911398649
 21
389.97260199176191
  0
ARC
  8
_0-0_計極細
  6
CONTINUOUS
 62
    2
 10
476.90882911398654
 20
317.764742271758
 40
10
 50
179.99999999999983
 51
269.99999999999977
  0
LINE
  8
_0-0_計極細
  6
CONTINUOUS
 62
    2
 10
466.90882911398654
 20
317.764742271758
 11
466.90882911398654
 21
375.56475899176144
  0
LINE
  8
_0-0_計極細
  6
CONTINUOUS
 62
    2
 10
464.90882911398649
 20
317.764742271758
 11
464.90882911398649
 21
375.56475899176144
  0
LINE
  8
_0-0_計極細
  6
CONTINUOUS
 62
    2
 10
503.22779511398545
 20
305.764742271758
 11
476.90882911398654
 21
305.764742271758
  0
ARC
  8
_0-0_計極細
  6
CONTINUOUS
 62
    2
 10
502.66226511398554
 20
296.264742271758
 40
0.5
 50
269.99999999999977
 51
359.60486299999366
  0
LINE
  8
_0-0_計極細
  6
CONTINUOUS
 62
    2
 10
503.16225411398733
 20
296.26129427175806
 11
503.22772411398688
 21
305.75445927175792
  0
LINE
  8
_0-0_計極細
  6
CONTINUOUS
 62
    2
 10
465.90882911398649
 20
268.264742271758
 11
466.15882911398649
 21
293.264742271758
  0
LINE
  8
_0-0_計極細
  6
CONTINUOUS
 62
    2
 10
456.15882911398649
 20
354.68630927175786
 11
456.15882911398649
 21
381.76475899176177
  0
ARC
  8
_0-0_計極細
  6
CONTINUOUS
 62
    2
 10
457.15882911398649
 20
354.68630927175786
 40
1
 50
179.99999999999983
 51
262.81924399994546
  0
ARC
  8
_0-0_計極細
  6
CONTINUOUS
 62
    2
 10
476.90882911398654
 20
317.764742271758
 40
12.000000000000002
 50
179.99999999999983
 51
269.99999999999977
  0
LINE
  8
_0-0_計極細
  6
CONTINUOUS
 62
    2
 10
479.15882911398654
 20
295.764742271758
 11
479.15882911398654
 21
305.764742271758
  0
LINE
  8
_0-0_計極細
  6
CONTINUOUS
 62
    2
 10
476.90882911398654
 20
305.764742271758
 11
479.15882911398654
 21
305.764742271758
  0
LINE
  8
_0-0_計極細
  6
CONTINUOUS
 62
    2
 10
464.90882911398649
 20
317.764742271758
 11
464.90882911398649
 21
344.764742271758
  0
LINE
  8
_0-0_計極細
  6
CONTINUOUS
 62
    2
 10
479.15725011398678
 20
295.66206927175813
 11
479.15882911398654
 21
295.764742271758
  0
ARC
  8
_0-0_計極細
  6
CONTINUOUS
 62
    2
 10
464.15882911398654
 20
303.764742271758
 40
8
 50
180.0000000000029
 51
269.99999999999977
  0
LINE
  8
_0-0_計極細
  6
CONTINUOUS
 62
    2
 10
476.15882911398649
 20
293.264742271758
 11
466.15882911398649
 21
293.264742271758
  0
LINE
  8
_0-0_計極細
  6
CONTINUOUS
 62
    2
 10
478.65882911398649
 20
263.264742271758
 11
479.15882911398654
 21
295.764742271758
  0
LINE
  8
_0-0_計極細
  6
CONTINUOUS
 62
    2
 10
456.15882911398649
 20
303.76474227175754
 11
456.15882911398649
 21
354.68630927175786
  0
LINE
  8
_0-0_計極細
  6
CONTINUOUS
 62
    2
 10
464.15882911398654
 20
295.764742271758
 11
479.15882911398654
 21
295.764742271758
  0
LINE
  8
_0-0_計極細
  6
CONTINUOUS
 62
    2
 10
476.57549578065255
 20
268.264742271758
 11
476.15882911398649
 21
293.264742271758
  0
LINE
  8
_0-1_計細線
  6
CONTINUOUS
 62
    3
 10
476.65882911398654
 20
263.264742271758
 11
476.57549578065255
 21
268.264742271758
  0
ARC
  8
_0-1_計細線
  6
CONTINUOUS
 62
    3
 10
461.65882911398654
 20
301.26474227175754
 40
8
 50
179.99999999999983
 51
269.99999999999977
  0
LINE
  8
_0-1_計細線
  6
CONTINUOUS
 62
    3
 10
453.65882911398649
 20
301.26474227175754
 11
453.65882911398649
 21
375.23463199176172
  0
LINE
  8
_0-1_計細線
  6
CONTINUOUS
 62
    3
 10
463.05882911398612
 20
268.264742271758
 11
462.65882911398649
 21
293.264742271758
  0
LINE
  8
_0-1_計細線
  6
CONTINUOUS
 62
    3
 10
476.57549611398599
 20
268.264742271758
 11
463.05882911398612
 21
268.264742271758
  0
LINE
  8
_0-1_計細線
  6
CONTINUOUS
 62
    3
 10
479.60242811398672
 20
263.264742271758
 11
476.65882911398654
 21
263.264742271758
  0
ARC
  8
_0-0_計極細
  6
CONTINUOUS
 62
    2
 10
478.1588451139865
 20
323.97258527175774
 40
1
 50
269.99954163371257
 51
359.99999999999966
  0
ARC
  8
_0-0_計極細
  6
CONTINUOUS
 62
    2
 10
478.15882911398654
 20
323.97258527175774
 40
1
 50
179.99999999999983
 51
270.0004583661825
  0
LINE
  8
_0-0_計極細
  6
CONTINUOUS
 62
    2
 10
479.15884511398644
 20
323.97258527175774
 11
479.15884511398644
 21
381.76475899176177
  0
LINE
  8
_0-0_計極細
  6
CONTINUOUS
 62
    2
 10
477.15882911398649
 20
323.97258527175774
 11
477.15882911398649
 21
382.94684799176162
  0
LINE
  8
_0-0_計極細
  6
CONTINUOUS
 62
    2
 10
457.03382911020122
 20
353.69415253058543
 11
464.90882911398649
 21
353.69415253058543
  0
LINE
  8
_0-1_計細線
  6
CONTINUOUS
 62
    3
 10
462.65882911398649
 20
293.264742271758
 11
461.65882911398654
 21
293.26474227175754
  0
LINE
  8
_0-0_計極細
  6
CONTINUOUS
 62
    2
 10
504.35882911398721
 20
397.97182299176194
 11
503.95882911398581
 21
397.97182299176194
  0
LINE
  8
_0-0_計極細
  6
CONTINUOUS
 62
    2
 10
504.35882911398721
 20
396.97182299176188
 11
503.95882911398581
 21
396.97182299176188
  0
LINE
  8
_0-0_計極細
  6
CONTINUOUS
 62
    2
 10
547.65882911398649
 20
396.07260199176181
 11
460.65882911398654
 21
396.07260199176181
  0
LINE
  8
_0-0_計極細
  6
CONTINUOUS
 62
    2
 10
547.65882911398649
 20
391.47260199176145
 11
460.65882911398654
 21
391.47260199176145
  0
LINE
  8
_0-0_計極細
  6
CONTINUOUS
 62
    2
 10
460.80882911398618
 20
391.5779329917616
 11
547.50882911398685
 21
391.5779329917616
  0
LINE
  8
_0-0_計極細
  6
CONTINUOUS
 62
    2
 10
464.90882911398649
 20
392.57793299176166
 11
543.40882911398649
 21
392.57793299176166
  0
LINE
  8
_0-0_計極細
  6
CONTINUOUS
 62
    2
 10
464.90882911398649
 20
394.87793299176184
 11
543.40882911398649
 21
394.87793299176184
  0
LINE
  8
_0-0_計極細
  6
CONTINUOUS
 62
    2
 10
460.00882911398691
 20
395.87793299176184
 11
548.30882911398612
 21
395.87793299176184
  0
LINE
  8
_0-0_計極細
  6
CONTINUOUS
 62
    2
 10
458.20882911398576
 20
402.47182299176143
 11
550.10882911398721
 21
402.47182299176143
  0
LINE
  8
_0-0_計極細
  6
CONTINUOUS
 62
    2
 10
454.17982911398718
 20
402.97182299176143
 11
554.13782911398584
 21
402.97182299176143
  0
LINE
  8
_0-0_計極細
  6
CONTINUOUS
 62
    2
 10
479.15884511398644
 20
381.76475899176177
 11
529.15881311398653
 21
381.76475899176177
  0
LINE
  8
_0-0_計極細
  6
CONTINUOUS
 62
    2
 10
544.40882911398649
 20
389.97260199176191
 11
463.90882911398649
 21
389.97260199176191
  0
LINE
  8
_0-0_計極細
  6
CONTINUOUS
 62
    2
 10
476.90882911398654
 20
307.764742271758
 11
531.40882911398649
 21
307.764742271758
  0
LINE
  8
_0-0_計極細
  6
CONTINUOUS
 62
    2
 10
503.22779511398545
 20
305.764742271758
 11
505.08986311398758
 21
305.764742271758
  0
LINE
  8
_0-0_計極細
  6
CONTINUOUS
 62
    2
 10
529.15882911398649
 20
295.764742271758
 11
479.15882911398654
 21
295.764742271758
  0
LINE
  8
_0-1_計細線
  6
CONTINUOUS
 62
    3
 10
479.60242811398672
 20
263.264742271758
 11
528.71523011398631
 21
263.264742271758
  0
LINE
  8
_0-0_計極細
  6
CONTINUOUS
 62
    2
 10
530.15882911398649
 20
322.97258527175768
 11
478.15882911398654
 21
322.97258527175768
  0
LINE
  8
_0-0_計極細
  6
CONTINUOUS
 62
    2
 10
545.17159818722348
 20
268.264742271758
 11
545.26024750303941
 21
268.35339158757438
  0
LINE
  8
_0-0_計極細
  6
CONTINUOUS
 62
    2
 10
554.13782911398766
 20
400.69181719369294
 11
554.22030422988746
 21
400.77429230959461
  0
LINE
  8
_0-0_計極細
  6
CONTINUOUS
 62
    2
 10
548.48891658131424
 20
297.03790478856422
 11
550.88566659717935
 21
299.43465480443069
  0
LINE
  8
_0-0_計極細
  6
CONTINUOUS
 62
    2
 10
529.15882911398649
 20
305.70924585622492
 11
529.2143255295191
 21
305.764742271758
  0
LINE
  8
_0-1_計細線
  6
CONTINUOUS
 62
    3
 10
447.25882911398685
 20
403.95758000643156
 11
561.05882911398612
 21
403.95758000643156
  0
ENDSEC
  0
EOF
