  0
SECTION
  2
HEADER
  9
$ACADVER
  1
AC1009
  9
$INSBASE
 10
0
 20
0
 30
0
  9
$EXTMIN
 10
0
 20
0
  9
$EXTMAX
 10
1485
 20
1050
  9
$LIMMIN
 10
0
 20
0
  9
$LIMMAX
 10
1485
 20
1050
  9
$LTSCALE
 40
5
  0
ENDSEC
  0
SECTION
  2
TABLES
  0
TABLE
  2
LTYPE
 70
     9
  0
LTYPE
  2
CONTINUOUS
 70
    64
  3
実線
 72
    65
 73
     0
 40
0.0
  0
LTYPE
  2
DASHED1
 70
    64
  3
--  --  --  --  --  --  --  --  
 72
    65
 73
     2
 40
2.5
 49
1.25
 49
-1.25
  0
LTYPE
  2
DASHED2
 70
    64
  3
----    ----    ----    ----    
 72
    65
 73
     2
 40
5.0
 49
2.5
 49
-2.5
  0
LTYPE
  2
DASHED3
 70
    64
  3
------  ------  ------  ------  
 72
    65
 73
     2
 40
5.0
 49
3.75
 49
-1.25
  0
LTYPE
  2
CENTER1
 70
    64
  3
----- - ----- - ----- - ----- - 
 72
    65
 73
     4
 40
10.0
 49
6.25
 49
-1.25
 49
1.25
 49
-1.25
  0
LTYPE
  2
CENTER2
 70
    64
  3
----------  --  ----------  --  
 72
    65
 73
     4
 40
20.0
 49
12.5
 49
-2.5
 49
2.5
 49
-2.5
  0
LTYPE
  2
PHANTOM1
 70
    64
  3
--- - - --- - - --- - - --- - - 
 72
    65
 73
     6
 40
10.0
 49
3.25
 49
-1.25
 49
1.25
 49
-1.25
 49
1.25
 49
-1.25
  0
LTYPE
  2
PHANTOM2
 70
    64
  3
--------  -  -  --------  -  -  
 72
    65
 73
     6
 40
20.0
 49
10.0
 49
-2.5
 49
1.25
 49
-2.5
 49
1.25
 49
-2.5
  0
LTYPE
  2
DOT
 70
    64
  3
-   -   -   -   -   -   -   -   
 72
    65
 73
     2
 40
2.5
 49
0.625
 49
-1.875
  0
LTYPE
  2
DUMMY
 70
    64
  3
ダミー
 72
    65
 73
     0
 40
0.0
  0
LTYPE
  2
RAND1
 70
    64
  3
ランダム線1
 72
    65
 73
     4
 40
10.0
 49
1.0
 49
-2.0
 49
3.0
 49
-4.0
  0
LTYPE
  2
RAND2
 70
    64
  3
ランダム線2
 72
    65
 73
     4
 40
14.0
 49
2.0
 49
-3.0
 49
4.0
 49
-5.0
  0
LTYPE
  2
RAND3
 70
    64
  3
ランダム線3
 72
    65
 73
     4
 40
18.0
 49
3.0
 49
-4.0
 49
5.0
 49
-6.0
  0
LTYPE
  2
RAND4
 70
    64
  3
ランダム線4
 72
    65
 73
     4
 40
22.0
 49
4.0
 49
-5.0
 49
6.0
 49
-7.0
  0
LTYPE
  2
RAND5
 70
    64
  3
ランダム線5
 72
    65
 73
     4
 40
26.0
 49
5.0
 49
-6.0
 49
7.0
 49
-8.0
  0
LTYPE
  2
LONG1
 70
    64
  3
----------  --  ----------  --  
 72
    65
 73
     4
 40
40.0
 49
32.5
 49
-2.5
 49
2.5
 49
-2.5
  0
LTYPE
  2
LONG2
 70
    64
  3
--------  -  -  --------  -  -  
 72
    65
 73
     6
 40
40.0
 49
30.0
 49
-2.5
 49
1.25
 49
-2.5
 49
1.25
 49
-2.5
  0
LTYPE
  2
LONG3
 70
    64
  3
+++++++++++++++..+++++++++++++++
 72
    65
 73
     2
 40
40.0
 49
37.5
 49
-2.5
  0
LTYPE
  2
LONG4
 70
    64
  3
+++++++++++++++..+++++++++++++++
 72
    65
 73
     2
 40
80.0
 49
75.0
 49
-5.0
  0
LTYPE
  2
LONG5
 70
    64
  3
----------  --  ----------  --  
 72
    65
 73
     4
 40
60.0
 49
37.5
 49
-7.5
 49
7.5
 49
-7.5
  0
LTYPE
  2
dashed
 70
   64
  3
-------   -------------   ------
 72
   65
 73
    2
 40
7.5
 49
6
 49
-1.5
  0
LTYPE
  2
dashed_spaced
 70
   64
  3
----        --------        ----
 72
   65
 73
    2
 40
12
 49
6
 49
-6
  0
LTYPE
  2
long_dashed_dotted
 70
   64
  3
------------- --- --------------
 72
   65
 73
    4
 40
15.25
 49
12
 49
-1.5
 49
0.25
 49
-1.5
  0
LTYPE
  2
long_dashed_double-dotted
 70
   64
  3
----------- --- --- ------------
 72
   65
 73
    6
 40
17
 49
12
 49
-1.5
 49
0.25
 49
-1.5
 49
0.25
 49
-1.5
  0
LTYPE
  2
long_dashed_triplicate-dotted
 70
   64
  3
--------- --- --- --- ----------
 72
   65
 73
    8
 40
18.75
 49
12
 49
-1.5
 49
0.25
 49
-1.5
 49
0.25
 49
-1.5
 49
0.25
 49
-1.5
  0
LTYPE
  2
dotted
 70
   64
  3
   -       -       -       -    
 72
   65
 73
    2
 40
1.75
 49
0.25
 49
-1.5
  0
LTYPE
  2
chain
 70
   64
  3
-------------- -- --------------
 72
   65
 73
    4
 40
18.5
 49
12
 49
-1.5
 49
3.5
 49
-1.5
  0
LTYPE
  2
chain_double_dash
 70
   64
  3
------------ -- -- -------------
 72
   65
 73
    6
 40
23.5
 49
12
 49
-1.5
 49
3.5
 49
-1.5
 49
3.5
 49
-1.5
  0
LTYPE
  2
dashed_dotted
 70
   64
  3
-----------     -     ----------
 72
   65
 73
    4
 40
9.25
 49
6
 49
-1.5
 49
0.25
 49
-1.5
  0
LTYPE
  2
double-dashed_dotted
 70
   64
  3
------   -----------   -   -----
 72
   65
 73
    6
 40
16.75
 49
6
 49
-1.5
 49
6
 49
-1.5
 49
0.25
 49
-1.5
  0
LTYPE
  2
dashed_double-dotted
 70
   64
  3
---------    -    -    ---------
 72
   65
 73
    6
 40
11
 49
6
 49
-1.5
 49
0.25
 49
-1.5
 49
0.25
 49
-1.5
  0
LTYPE
  2
double-dashed_double-dotted
 70
   64
  3
-----   ---------   -   -   ----
 72
   65
 73
    8
 40
18.5
 49
6
 49
-1.5
 49
6
 49
-1.5
 49
0.25
 49
-1.5
 49
0.25
 49
-1.5
  0
LTYPE
  2
dashed_triplicate-dotted
 70
   64
  3
-------    -    -    -    ------
 72
   65
 73
    8
 40
12.75
 49
6
 49
-1.5
 49
0.25
 49
-1.5
 49
0.25
 49
-1.5
 49
0.25
 49
-1.5
  0
LTYPE
  2
double-dashed_triplicate-dotted
 70
   64
  3
-----  ---------  -  -  -  -----
 72
   65
 73
   10
 40
20.25
 49
6
 49
-1.5
 49
6
 49
-1.5
 49
0.25
 49
-1.5
 49
0.25
 49
-1.5
 49
0.25
 49
-1.5
  0
LTYPE
  2
undefined
 70
   64
  3
--------------------------------
 72
   65
 73
    0
 40
0
  0
ENDTAB
  0
TABLE
  2
STYLE
  5
3
100
AcDbSymbolTable
 70
     1
  0
STYLE
  5
10
100
AcDbSymbolTableRecord
100
AcDbTextStyleTableRecord
  2
STANDARD
 70
     0
 40
0.0
 41
1.0
 50
0.0
 71
     0
 42
0.2
  3
txt
  4
bigfont.shx
  0
STYLE
  5
26
100
AcDbSymbolTableRecord
100
AcDbTextStyleTableRecord
  2
TATEGAKI
 70
    68
 40
0.0
 41
1.0
 50
0.0
 71
     0
 42
1.0
  3
txt
  4
bigfont.shx
  0
ENDTAB
  0
TABLE
  2
LAYER
 70
   13
  0
LAYER
  2
_0-0_計極細
 70
   64
 62
    7
  6
CONTINUOUS
  0
LAYER
  2
_0-1_計細線
 70
   64
 62
    7
  6
CONTINUOUS
  0
LAYER
  2
_0-5_寸法線
 70
   64
 62
    7
  6
CONTINUOUS
  0
LAYER
  2
_0-7_枠細線
 70
   64
 62
    7
  6
CONTINUOUS
  0
LAYER
  2
_0-8_枠中線
 70
   64
 62
    7
  6
CONTINUOUS
  0
LAYER
  2
_0-a_極細1
 70
   64
 62
    7
  6
CONTINUOUS
  0
LAYER
  2
_0-d_寸法1
 70
   64
 62
    7
  6
CONTINUOUS
  0
LAYER
  2
_0-e_極細4
 70
   64
 62
    7
  6
CONTINUOUS
  0
LAYER
  2
_1-1_寸法4
 70
   64
 62
    7
  6
CONTINUOUS
  0
LAYER
  2
_1-2_極細3
 70
   64
 62
    7
  6
CONTINUOUS
  0
LAYER
  2
_1-3_細線3
 70
   64
 62
    7
  6
CONTINUOUS
  0
LAYER
  2
_1-5_寸法3
 70
   64
 62
    7
  6
CONTINUOUS
  0
LAYER
  2
ADD_LINE
 70
   64
 62
    7
  6
CONTINUOUS
  0
ENDTAB
  0
ENDSEC
  0
SECTION
  2
BLOCKS
  0
ENDSEC
  0
SECTION
  2
ENTITIES
  0
LINE
  8
_0-8_枠中線
  6
CONTINUOUS
 62
    5
 10
60
 20
60
 11
60
 21
960
  0
LINE
  8
_0-8_枠中線
  6
CONTINUOUS
 62
    5
 10
60
 20
960
 11
1425
 21
960
  0
LINE
  8
_0-8_枠中線
  6
CONTINUOUS
 62
    5
 10
1425
 20
960
 11
1425
 21
60
  0
LINE
  8
_0-8_枠中線
  6
CONTINUOUS
 62
    5
 10
1425
 20
60
 11
60
 21
60
  0
LINE
  8
_0-7_枠細線
  6
CONTINUOUS
 62
    5
 10
1424.8937444877581
 20
942.5
 11
889.89374448775834
 21
942.5
  0
TEXT
  8
_0-7_枠細線
 62
    5
 10
894.89374448775834
 20
945
 40
12.5
 41
1
 50
0
  1
記号
  0
TEXT
  8
_0-7_枠細線
 62
    5
 10
996.76874448775834
 20
945
 40
12.5
 41
1
 50
0
  1
訂　 正　 記　 事
  0
TEXT
  8
_0-7_枠細線
 62
    5
 10
1181.1437444877581
 20
945
 40
12.5
 41
1
 50
0
  1
訂 正 年 月 日
  0
TEXT
  8
_0-7_枠細線
 62
    5
 10
1306.1437444877581
 20
945
 40
12.5
 41
1
 50
0
  1
備　　　　　考
  0
LINE
  8
_0-7_枠細線
  6
CONTINUOUS
 62
    5
 10
889.89374448775834
 20
942.5
 11
889.89374448775834
 21
959.99999999999909
  0
LINE
  8
_0-7_枠細線
  6
CONTINUOUS
 62
    5
 10
924.89374448775834
 20
942.5
 11
924.89374448775834
 21
959.99999999999909
  0
LINE
  8
_0-7_枠細線
  6
CONTINUOUS
 62
    5
 10
1174.8937444877581
 20
942.5
 11
1174.8937444877581
 21
959.99999999999909
  0
LINE
  8
_0-7_枠細線
  6
CONTINUOUS
 62
    5
 10
1274.8937444877581
 20
942.5
 11
1274.8937444877581
 21
959.99999999999909
  0
TEXT
  8
_0-7_枠細線
 62
    5
 10
937.5
 20
97.5
 40
17.5
 41
1
 50
0
  1
備考
  7
TATEGAKI
  0
TEXT
  8
_0-7_枠細線
 62
    5
 10
937.5
 20
137.5
 40
17.5
 41
1
 50
0
  1
品番
  7
TATEGAKI
  0
TEXT
  8
_0-7_枠細線
 62
    5
 10
937.5
 20
177.5
 40
17.5
 41
1
 50
0
  1
品名
  7
TATEGAKI
  0
LINE
  8
_0-7_枠細線
  6
CONTINUOUS
 62
    5
 10
950
 20
180
 11
950
 21
60
  0
LINE
  8
_0-8_枠中線
  6
CONTINUOUS
 62
    5
 10
1425
 20
180
 11
925
 21
180
  0
LINE
  8
_0-8_枠中線
  6
CONTINUOUS
 62
    5
 10
925
 20
180
 11
925
 21
60
  0
LINE
  8
_0-7_枠細線
  6
CONTINUOUS
 62
    5
 10
1185
 20
180
 11
1185
 21
100
  0
LINE
  8
_0-7_枠細線
  6
CONTINUOUS
 62
    5
 10
1185
 20
140
 11
925
 21
140
  0
LINE
  8
_0-7_枠細線
  6
CONTINUOUS
 62
    5
 10
1245
 20
180
 11
1245
 21
60
  0
TEXT
  8
_0-7_枠細線
 62
    5
 10
1192.5
 20
160
 40
15
 41
1
 50
0
  1
縮　尺
  0
LINE
  8
_0-7_枠細線
  6
CONTINUOUS
 62
    5
 10
1185
 20
155
 11
1245
 21
155
  0
LINE
  8
_0-7_枠細線
  6
CONTINUOUS
 62
    5
 10
1245
 20
100
 11
925
 21
100
  0
LINE
  8
_0-7_枠細線
  6
CONTINUOUS
 62
    5
 10
1425
 20
90
 11
1245
 21
90
  0
LINE
  8
_0-7_枠細線
  6
CONTINUOUS
 62
    5
 10
1245
 20
120
 11
1425
 21
120
  0
LINE
  8
_0-7_枠細線
  6
CONTINUOUS
 62
    5
 10
1425
 20
140
 11
1245
 21
140
  0
TEXT
  8
_0-7_枠細線
 62
    5
 10
1255
 20
147.5
 40
25
 41
0.8
 50
0
  1
株式会社シマブン
  0
TEXT
  8
_0-7_枠細線
 62
    5
 10
1252.5
 20
60
 40
15
 41
1
 50
0
  1
年月日
  0
TEXT
  8
_0-7_枠細線
 62
    5
 10
1252.5
 20
75
 40
15
 41
1
 50
0
  1
作　成
  0
TEXT
  8
_0-7_枠細線
 62
    5
 10
1256.25
 20
122.5
 40
15
 41
1
 50
0
  1
承 認
  0
LINE
  8
_0-7_枠細線
  6
CONTINUOUS
 62
    5
 10
1305
 20
140
 11
1305
 21
60
  0
TEXT
  8
_0-7_枠細線
 62
    5
 10
1316.25
 20
122.5
 40
15
 41
1
 50
0
  1
検 図
  0
LINE
  8
_0-7_枠細線
  6
CONTINUOUS
 62
    5
 10
1365
 20
140
 11
1365
 21
90
  0
TEXT
  8
_0-7_枠細線
 62
    5
 10
1376.25
 20
122.5
 40
15
 41
1
 50
0
  1
設 計
  0
TEXT
  8
_0-7_枠細線
 62
    5
 10
1255
 20
95
 40
20
 41
1
 50
0
  1
大野
  0
TEXT
  8
_0-7_枠細線
 62
    5
 10
1315
 20
95
 40
20
 41
1
 50
0
  1
中村
  0
LINE
  8
_0-1_計細線
  6
CONTINUOUS
 62
    3
 10
396.18273557557768
 20
788.91031608886419
 11
396.18273557557768
 21
649.91031608886419
  0
LINE
  8
_0-1_計細線
  6
CONTINUOUS
 62
    3
 10
396.18273557557768
 20
649.91031608886419
 11
985.18273557557779
 21
649.91031608886419
  0
LINE
  8
_0-1_計細線
  6
CONTINUOUS
 62
    3
 10
985.18273557557779
 20
649.91031608886419
 11
985.18273557557779
 21
788.91031608886419
  0
LINE
  8
_0-1_計細線
  6
CONTINUOUS
 62
    3
 10
985.18273557557779
 20
788.91031608886419
 11
396.18273557557768
 21
788.91031608886419
  0
LINE
  8
_0-1_計細線
  6
CONTINUOUS
 62
    3
 10
393.68273557557768
 20
647.41031608886419
 11
393.68273557557768
 21
791.41031608886419
  0
LINE
  8
_0-1_計細線
  6
CONTINUOUS
 62
    3
 10
393.68273557557768
 20
791.41031608886419
 11
987.68273557557779
 21
791.41031608886419
  0
LINE
  8
_0-1_計細線
  6
CONTINUOUS
 62
    3
 10
987.68273557557779
 20
791.41031608886419
 11
987.68273557557779
 21
647.41031608886419
  0
LINE
  8
_0-1_計細線
  6
CONTINUOUS
 62
    3
 10
987.68273557557779
 20
647.41031608886419
 11
393.68273557557768
 21
647.41031608886419
  0
ARC
  8
_0-1_計細線
  6
CONTINUOUS
 62
    3
 10
729.29958124932728
 20
733.61655607138505
 40
0.501740082747087
 50
330.00000000003996
 51
20.189990999990084
  0
ARC
  8
_0-1_計細線
  6
CONTINUOUS
 62
    3
 10
729.29958124932728
 20
705.21694629537592
 40
0.501740082747087
 50
339.81000900000919
 51
29.999999999959307
  0
LINE
  8
_0-1_計細線
  6
CONTINUOUS
 62
    3
 10
691.98838772312592
 20
721.6745905870996
 11
690.68481962771057
 21
723.93242999081872
  0
LINE
  8
_0-1_計細線
  6
CONTINUOUS
 62
    3
 10
691.98838772312592
 20
721.6745905870996
 11
671.84849636737908
 21
756.55790230840626
  0
LINE
  8
_0-1_計細線
  6
CONTINUOUS
 62
    3
 10
691.98838772312592
 20
721.6745905870996
 11
694.5955178930526
 21
721.6745905870996
  0
LINE
  8
_0-1_計細線
  6
CONTINUOUS
 62
    3
 10
688.07769547868975
 20
719.41675118337957
 11
667.93780412293927
 21
754.3000629046885
  0
ARC
  8
_0-1_計細線
  6
CONTINUOUS
 62
    3
 10
659.08004726413492
 20
693.07529147331957
 40
0.501740082747087
 50
219.81000899998574
 51
269.99999999999977
  0
LINE
  8
_0-1_計細線
  6
CONTINUOUS
 62
    3
 10
691.98838772312592
 20
717.15891177966046
 11
671.84849636737908
 21
682.27560005835346
  0
LINE
  8
_0-1_計細線
  6
CONTINUOUS
 62
    3
 10
688.07769547868975
 20
719.41675118337957
 11
667.93780412293927
 21
684.53343946207258
  0
ARC
  8
_0-1_計細線
  6
CONTINUOUS
 62
    3
 10
690.68481962771057
 20
719.41675118337957
 40
46.4111412917104
 50
89.999999999999915
 51
269.99999999999977
  0
ARC
  8
_0-1_計細線
  6
CONTINUOUS
 62
    3
 10
690.68481962771057
 20
719.41675118337957
 40
57.198598227560836
 50
89.999999999999915
 51
269.99999999999977
  0
CIRCLE
  8
_0-1_計細線
  6
CONTINUOUS
 62
    3
 10
690.68481962771057
 20
719.41675118337957
 40
58.202084413960065
  0
LINE
  8
_0-1_計細線
  6
CONTINUOUS
 62
    3
 10
691.98838772312592
 20
721.6745905870996
 11
732.26816441371648
 21
721.6745905870996
  0
LINE
  8
_0-1_計細線
  6
CONTINUOUS
 62
    3
 10
691.98838772312592
 20
717.15891177966046
 11
732.26816441371648
 21
717.15891177966046
  0
ARC
  8
_0-1_計細線
  6
CONTINUOUS
 62
    3
 10
690.68481962771057
 20
719.41675118337957
 40
46.4111412917104
 50
269.99999999999977
 51
89.999999999999545
  0
ARC
  8
_0-1_計細線
  6
CONTINUOUS
 62
    3
 10
690.68481962771057
 20
719.41675118337957
 40
57.198598227560836
 50
269.99999999999977
 51
89.999999999999545
  0
ARC
  8
_0-1_計細線
  6
CONTINUOUS
 62
    3
 10
690.68481962771057
 20
719.41675118337957
 40
41.644595453350377
 50
89.999999999999915
 51
116.89207624474167
  0
ARC
  8
_0-1_計細線
  6
CONTINUOUS
 62
    3
 10
690.68481962771057
 20
719.41675118337957
 40
41.644595453350377
 50
123.10791868694014
 51
236.89208131305782
  0
ARC
  8
_0-1_計細線
  6
CONTINUOUS
 62
    3
 10
690.68481962771057
 20
719.41675118337957
 40
41.644595453350377
 50
243.10792375525659
 51
269.99999999999977
  0
ARC
  8
_0-1_計細線
  6
CONTINUOUS
 62
    3
 10
690.68481962771057
 20
719.41675118337957
 40
41.644595453350377
 50
269.99999999999977
 51
356.8920785890931
  0
ARC
  8
_0-1_計細線
  6
CONTINUOUS
 62
    3
 10
690.68481962771057
 20
719.41675118337957
 40
41.644595453350377
 50
3.1079214109077964
 51
89.999999999999915
  0
ARC
  8
_0-0_計極細
  6
CONTINUOUS
 62
    2
 10
690.68481962771057
 20
719.41675118337957
 40
50.153133796808191
 50
269.99999999999977
 51
89.999999999999545
  0
ARC
  8
_0-0_計極細
  6
CONTINUOUS
 62
    2
 10
690.68481962771057
 20
719.41675118337957
 40
50.153133796808191
 50
89.999999999999915
 51
269.99999999999977
  0
ARC
  8
_0-0_計極細
  6
CONTINUOUS
 62
    2
 10
677.06981858320341
 20
690.31570895378832
 40
0.501740082747087
 50
149.99997568607938
 51
210.00002243784951
  0
ARC
  8
_0-0_計極細
  6
CONTINUOUS
 62
    2
 10
690.97450343365938
 20
713.39584610679356
 40
1.0034861863992508
 50
29.999999999951111
 51
149.99999999997101
  0
ARC
  8
_0-0_計極細
  6
CONTINUOUS
 62
    2
 10
690.97450343365938
 20
713.39584610679356
 40
1.0034861863992508
 50
29.999999999951111
 51
106.77865499997519
  0
ARC
  8
_0-0_計極細
  6
CONTINUOUS
 62
    2
 10
685.32572641623847
 20
716.65717169691322
 40
1.0034861863992508
 50
329.99999999995163
 51
89.999999999999545
  0
ARC
  8
_0-0_計極細
  6
CONTINUOUS
 62
    2
 10
650.18960332767267
 20
726.69551198247279
 40
0.501740082747087
 50
89.993779916795503
 51
169.8086801233749
  0
ARC
  8
_0-0_計極細
  6
CONTINUOUS
 62
    2
 10
650.18803762223979
 20
712.14498864971824
 40
0.501740082747087
 50
190.17882981053808
 51
269.99383436904543
  0
ARC
  8
_0-0_計極細
  6
CONTINUOUS
 62
    2
 10
650.13630533163359
 20
722.17983758001378
 40
1.0034861863992508
 50
176.10042624738318
 51
269.99385985774035
  0
ARC
  8
_0-0_計極細
  6
CONTINUOUS
 62
    2
 10
690.68481962771057
 20
719.41675118337957
 40
37.630656728658437
 50
317.45760300000074
 51
327.38710799999916
  0
ARC
  8
_0-0_計極細
  6
CONTINUOUS
 62
    2
 10
690.68481962771057
 20
719.41675118337957
 40
37.630656728658437
 50
32.612892000001082
 51
42.54239699999939
  0
LINE
  8
_0-0_計極細
  6
CONTINUOUS
 62
    2
 10
725.85903739869809
 20
700.13781312815422
 11
716.9009481776975
 21
715.65368551051574
  0
LINE
  8
_0-0_計極細
  6
CONTINUOUS
 62
    2
 10
724.45221078121904
 20
695.5501182750935
 11
712.12121053631381
 21
716.90803872783385
  0
LINE
  8
_0-0_計極細
  6
CONTINUOUS
 62
    2
 10
719.83027504098754
 20
691.51373361627589
 11
705.89307192789875
 21
715.65368551051574
  0
LINE
  8
_0-0_計極細
  6
CONTINUOUS
 62
    2
 10
725.85903739869809
 20
738.69568923860629
 11
716.9009481776975
 21
723.17981685624568
  0
LINE
  8
_0-0_計極細
  6
CONTINUOUS
 62
    2
 10
724.45221078121904
 20
743.28338409166679
 11
712.12121053631381
 21
721.92546363892575
  0
LINE
  8
_0-0_計極細
  6
CONTINUOUS
 62
    2
 10
719.83027504098754
 20
747.31976272958025
 11
705.89307192789875
 21
723.17981685624568
  0
LINE
  8
_0-0_計極細
  6
CONTINUOUS
 62
    2
 10
688.67785327581714
 20
692.39711478820823
 11
688.67785327581714
 21
700.3145266921523
  0
LINE
  8
_0-0_計極細
  6
CONTINUOUS
 62
    2
 10
689.17959335856449
 20
692.36452362902833
 11
689.17959335856449
 21
699.44548731611337
  0
ARC
  8
_0-0_計極細
  6
CONTINUOUS
 62
    2
 10
690.68481962771057
 20
719.41675118337957
 40
37.630656728658437
 50
213.59599499999973
 51
225.50677599999941
  0
LINE
  8
_0-0_計極細
  6
CONTINUOUS
 62
    2
 10
717.66715651593313
 20
688.23598299710989
 11
701.11333428651506
 21
716.90803872783385
  0
LINE
  8
_0-0_計極細
  6
CONTINUOUS
 62
    2
 10
712.47930386574455
 20
685.17979566385407
 11
694.88519567809919
 21
715.65368551051574
  0
LINE
  8
_0-0_計極細
  6
CONTINUOUS
 62
    2
 10
694.47023490022093
 20
678.2400161799103
 11
682.13923465531582
 21
699.59793663265134
  0
LINE
  8
_0-0_計極細
  6
CONTINUOUS
 62
    2
 10
700.27681381879393
 20
680.22453659767802
 11
686.33961070570422
 21
704.36448849191709
  0
LINE
  8
_0-0_計極細
  6
CONTINUOUS
 62
    2
 10
704.19699500963463
 20
680.45897859955198
 11
687.64317278021645
 21
709.13104035118226
  0
LINE
  8
_0-0_計極細
  6
CONTINUOUS
 62
    2
 10
709.43765099734537
 20
683.42370236378724
 11
691.84354883060496
 21
713.89758618954215
  0
LINE
  8
_0-0_計極細
  6
CONTINUOUS
 62
    2
 10
659.08004726413492
 20
692.57355139057267
 11
672.29008158750639
 21
692.57355139057267
  0
ARC
  8
_0-0_計極細
  6
CONTINUOUS
 62
    2
 10
668.81391204153897
 20
688.05787258313319
 40
1.0034861863992508
 50
329.99999999997061
 51
89.999999999999545
  0
ARC
  8
_0-0_計極細
  6
CONTINUOUS
 62
    2
 10
690.68481962771057
 20
719.41675118337957
 40
37.630656728658437
 50
233.77152299999938
 51
236.31964599999873
  0
ARC
  8
_0-0_計極細
  6
CONTINUOUS
 62
    2
 10
664.83293175123708
 20
688.05787258313319
 40
1.0034861863992508
 50
89.999999999999915
 51
230.49822999997428
  0
LINE
  8
_0-0_計極細
  6
CONTINUOUS
 62
    2
 10
664.83293175123708
 20
689.06135274862731
 11
668.81391204153897
 21
689.06135274862731
  0
ARC
  8
_0-0_計極細
  6
CONTINUOUS
 62
    2
 10
690.68481962771057
 20
719.41675118337957
 40
37.630656728658437
 50
272.61289199999942
 51
282.54239699999982
  0
ARC
  8
_0-0_計極細
  6
CONTINUOUS
 62
    2
 10
694.90475759869241
 20
678.49088923173599
 40
0.501740082747087
 50
210.00000000000426
 51
275.88706199997517
  0
LINE
  8
_0-0_計極細
  6
CONTINUOUS
 62
    2
 10
689.79376180180589
 20
679.31551239102669
 11
680.83567258080529
 21
694.83139079429225
  0
LINE
  8
_0-0_計極細
  6
CONTINUOUS
 62
    2
 10
683.24031369210115
 20
678.62461353348976
 11
676.63529653041678
 21
690.06483893502741
  0
ARC
  8
_0-0_計極細
  6
CONTINUOUS
 62
    2
 10
690.68481962771057
 20
719.41675118337957
 40
37.630656728658437
 50
254.49322399999932
 51
266.40400499999907
  0
ARC
  8
_0-0_計極細
  6
CONTINUOUS
 62
    2
 10
672.29008158750639
 20
693.07529147331957
 40
0.501740082747087
 50
269.99999999999977
 51
329.99999999989114
  0
ARC
  8
_0-0_計極細
  6
CONTINUOUS
 62
    2
 10
676.45318221456466
 20
681.34891653711134
 40
1.0034861863992508
 50
249.50177000005806
 51
29.999999999976708
  0
LINE
  8
_0-0_計極細
  6
CONTINUOUS
 62
    2
 10
677.3222215906053
 20
681.85065661985868
 11
675.33173445590637
 21
685.2982870757603
  0
ARC
  8
_0-0_計極細
  6
CONTINUOUS
 62
    2
 10
679.96662718386051
 20
694.32964469064086
 40
1.0034861863992508
 50
29.999999999977071
 51
149.99999999999699
  0
ARC
  8
_0-0_計極細
  6
CONTINUOUS
 62
    2
 10
690.68481962771057
 20
719.41675118337957
 40
27.094072844634091
 50
244.78019200000111
 51
249.77896100000117
  0
ARC
  8
_0-0_計極細
  6
CONTINUOUS
 62
    2
 10
690.68481962771057
 20
719.41675118337957
 40
37.630656728658437
 50
243.68035399999945
 51
246.22847699999838
  0
ARC
  8
_0-0_計極細
  6
CONTINUOUS
 62
    2
 10
674.46268905896159
 20
684.79654699301523
 40
1.0034861863992508
 50
29.999999999977071
 51
150.00000000002294
  0
ARC
  8
_0-0_計極細
  6
CONTINUOUS
 62
    2
 10
688.92472242576787
 20
678.81377230828116
 40
1.0034861863992508
 50
267.5178359999677
 51
30.000000000002665
  0
ARC
  8
_0-0_計極細
  6
CONTINUOUS
 62
    2
 10
683.67483639057264
 20
678.87548658531546
 40
0.501740082747087
 50
210.00000000010814
 51
260.18999100005101
  0
ARC
  8
_0-0_計極細
  6
CONTINUOUS
 62
    2
 10
690.68481962771057
 20
719.41675118337957
 40
27.094072844634091
 50
260.29098299999907
 51
275.37568199999987
  0
ARC
  8
_0-0_計極細
  6
CONTINUOUS
 62
    2
 10
690.68481962771057
 20
719.41675118337957
 40
37.630656728658437
 50
288.07291800000053
 51
297.3252259999997
  0
ARC
  8
_0-0_計極細
  6
CONTINUOUS
 62
    2
 10
690.68481962771057
 20
719.41675118337957
 40
27.094072844634091
 50
283.31934900000118
 51
296.2837799999993
  0
ARC
  8
_0-0_計極細
  6
CONTINUOUS
 62
    2
 10
704.63151168720015
 20
680.70985165137813
 40
0.501740082747087
 50
210.00000000010814
 51
289.81487200010849
  0
ARC
  8
_0-0_計極細
  6
CONTINUOUS
 62
    2
 10
699.40776842185005
 20
679.7227965149317
 40
1.0034861863992508
 50
282.39403400005705
 51
30.000000000002665
  0
ARC
  8
_0-0_計極細
  6
CONTINUOUS
 62
    2
 10
690.68481962771057
 20
719.41675118337957
 40
37.630656728658437
 50
302.67477399999865
 51
311.92708199999919
  0
ARC
  8
_0-0_計極細
  6
CONTINUOUS
 62
    2
 10
713.34834324178246
 20
685.68154176750681
 40
1.0034861863992508
 50
210.00000000002515
 51
303.89345000001418
  0
ARC
  8
_0-0_計極細
  6
CONTINUOUS
 62
    2
 10
717.23263381746074
 20
687.98510994528431
 40
0.501740082747087
 50
310.18512800003361
 51
29.999999999907399
  0
ARC
  8
_0-0_計極細
  6
CONTINUOUS
 62
    2
 10
708.56861162130645
 20
682.92195626013449
 40
1.0034861863992508
 50
296.10655000002453
 51
29.999999999999204
  0
LINE
  8
_0-0_計極細
  6
CONTINUOUS
 62
    2
 10
656.40165968262772
 20
698.59445646715835
 11
674.31785016643789
 21
698.59445646715835
  0
ARC
  8
_0-0_計極細
  6
CONTINUOUS
 62
    2
 10
668.81391204153897
 20
750.77562978362789
 40
1.0034861863992508
 50
269.99999999999977
 51
30.000000000051159
  0
LINE
  8
_0-0_計極細
  6
CONTINUOUS
 62
    2
 10
659.08004726413492
 20
746.25995097618829
 11
672.29008158750639
 21
746.25995097618829
  0
LINE
  8
_0-0_計極細
  6
CONTINUOUS
 62
    2
 10
656.40165968262772
 20
740.23904589960171
 11
674.31785016643789
 21
740.23904589960171
  0
LINE
  8
_0-0_計極細
  6
CONTINUOUS
 62
    2
 10
653.1320192225985
 20
736.72685327856311
 11
677.79401971240532
 21
736.72685327856311
  0
LINE
  8
_0-0_計極細
  6
CONTINUOUS
 62
    2
 10
651.94737604425427
 20
730.705948201978
 11
679.82178829133875
 21
730.705948201978
  0
LINE
  8
_0-0_計極細
  6
CONTINUOUS
 62
    2
 10
650.19031939937395
 20
727.19375558093748
 11
683.29795783730435
 21
727.19375558093748
  0
LINE
  8
_0-0_計極細
  6
CONTINUOUS
 62
    2
 10
650.13751004094684
 20
721.17285050435225
 11
685.32572641623847
 21
721.17285050435225
  0
LINE
  8
_0-0_計極細
  6
CONTINUOUS
 62
    2
 10
653.1320192225985
 20
702.10664908819797
 11
677.79401971240532
 21
702.10664908819797
  0
LINE
  8
_0-0_計極細
  6
CONTINUOUS
 62
    2
 10
651.94737604425427
 20
708.12755416478353
 11
679.82178829133875
 21
708.12755416478353
  0
LINE
  8
_0-0_計極細
  6
CONTINUOUS
 62
    2
 10
650.19031939937395
 20
711.63974678582349
 11
683.29795783730435
 21
711.63974678582349
  0
LINE
  8
_0-0_計極細
  6
CONTINUOUS
 62
    2
 10
650.13751004094684
 20
717.66065186240735
 11
685.32572641623847
 21
717.66065186240735
  0
ARC
  8
_0-0_計極細
  6
CONTINUOUS
 62
    2
 10
690.68481962771057
 20
719.41675118337957
 40
27.094072844634091
 50
140.2909829999995
 51
155.37568200000004
  0
ARC
  8
_0-0_計極細
  6
CONTINUOUS
 62
    2
 10
690.68481962771057
 20
719.41675118337957
 40
37.630656728658437
 50
152.61289200000007
 51
162.54239699999968
  0
ARC
  8
_0-0_計極細
  6
CONTINUOUS
 62
    2
 10
651.94737604425427
 20
731.70943438837855
 40
1.0034861863992508
 50
162.39403400002107
 51
269.99999999999977
  0
ARC
  8
_0-0_計極細
  6
CONTINUOUS
 62
    2
 10
656.40165968262772
 20
697.5909702807578
 40
1.0034861863992508
 50
89.999999999999915
 51
212.4821639999854
  0
ARC
  8
_0-0_計極細
  6
CONTINUOUS
 62
    2
 10
690.68481962771057
 20
719.41675118337957
 40
37.630656728658437
 50
168.07291799999925
 51
177.32522600000016
  0
ARC
  8
_0-0_計極細
  6
CONTINUOUS
 62
    2
 10
690.68481962771057
 20
719.41675118337957
 40
37.630656728658437
 50
182.67477399999882
 51
191.9270819999997
  0
ARC
  8
_0-0_計極細
  6
CONTINUOUS
 62
    2
 10
690.68481962771057
 20
719.41675118337957
 40
37.630656728658437
 50
197.4576029999993
 51
207.38710799999896
  0
ARC
  8
_0-0_計極細
  6
CONTINUOUS
 62
    2
 10
650.13751004094684
 20
716.65717169691402
 40
1.0034861863992508
 50
89.999999999999915
 51
183.89344999999844
  0
ARC
  8
_0-0_計極細
  6
CONTINUOUS
 62
    2
 10
651.94737604425427
 20
707.12406797838435
 40
1.0034861863992508
 50
89.999999999999915
 51
197.60596600000332
  0
ARC
  8
_0-0_計極細
  6
CONTINUOUS
 62
    2
 10
653.1320192225985
 20
702.60838917094384
 40
0.501740082747087
 50
204.11293800002809
 51
269.99999999999977
  0
ARC
  8
_0-0_計極細
  6
CONTINUOUS
 62
    2
 10
690.68481962771057
 20
719.41675118337957
 40
27.094072844634091
 50
163.31934899999951
 51
176.28377999999955
  0
ARC
  8
_0-0_計極細
  6
CONTINUOUS
 62
    2
 10
690.68481962771057
 20
719.41675118337957
 40
27.094072844634091
 50
183.71621999999911
 51
196.68065099999922
  0
ARC
  8
_0-0_計極細
  6
CONTINUOUS
 62
    2
 10
690.68481962771057
 20
719.41675118337957
 40
27.094072844634091
 50
204.62431799999874
 51
219.70901699999865
  0
ARC
  8
_0-0_計極細
  6
CONTINUOUS
 62
    2
 10
653.1320192225985
 20
736.22511319581713
 40
0.501740082747087
 50
89.999999999999915
 51
155.88706199997156
  0
ARC
  8
_0-0_計極細
  6
CONTINUOUS
 62
    2
 10
656.40165968262772
 20
741.24253208600283
 40
1.0034861863992508
 50
147.5178360000142
 51
269.99999999999977
  0
ARC
  8
_0-0_計極細
  6
CONTINUOUS
 62
    2
 10
690.68481962771057
 20
719.41675118337957
 40
37.630656728658437
 50
123.68035400000058
 51
126.22847700000025
  0
ARC
  8
_0-0_計極細
  6
CONTINUOUS
 62
    2
 10
690.68481962771057
 20
719.41675118337957
 40
37.630656728658437
 50
134.49322399999971
 51
146.40400499999933
  0
ARC
  8
_0-0_計極細
  6
CONTINUOUS
 62
    2
 10
659.08004726413492
 20
745.75821089344186
 40
0.501740082747087
 50
89.999999999999915
 51
140.18999100005377
  0
ARC
  8
_0-0_計極細
  6
CONTINUOUS
 62
    2
 10
664.83293175123708
 20
750.77562978362789
 40
1.0034861863992508
 50
129.50177000002535
 51
269.99999999999977
  0
LINE
  8
_0-0_計極細
  6
CONTINUOUS
 62
    2
 10
664.83293175123708
 20
749.77214961813377
 11
668.81391204153897
 21
749.77214961813377
  0
ARC
  8
_0-0_計極細
  6
CONTINUOUS
 62
    2
 10
690.68481962771057
 20
719.41675118337957
 40
37.630656728658437
 50
77.457603000000148
 51
87.387108000000282
  0
ARC
  8
_0-0_計極細
  6
CONTINUOUS
 62
    2
 10
690.68481962771057
 20
719.41675118337957
 40
37.630656728658437
 50
77.457603000000148
 51
87.387108000000282
  0
ARC
  8
_0-0_計極細
  6
CONTINUOUS
 62
    2
 10
695.75424107504386
 20
716.15542559326218
 40
1.0034861863992508
 50
89.999999999999915
 51
209.9999999999992
  0
ARC
  8
_0-0_計極細
  6
CONTINUOUS
 62
    2
 10
695.75424107504386
 20
722.67807677350015
 40
1.0034861863992508
 50
150.00000000000043
 51
269.99999999999977
  0
ARC
  8
_0-0_計極細
  6
CONTINUOUS
 62
    2
 10
694.90475759869241
 20
760.34261313502225
 40
0.501740082747087
 50
84.112938000024442
 51
150.00000000004033
  0
LINE
  8
_0-0_計極細
  6
CONTINUOUS
 62
    2
 10
700.27681381879393
 20
758.60895974817583
 11
686.33961070570422
 21
734.46901387484399
  0
LINE
  8
_0-0_計極細
  6
CONTINUOUS
 62
    2
 10
704.19699500963463
 20
758.37451774630449
 11
687.64317278021645
 21
729.7024620155787
  0
LINE
  8
_0-0_計極細
  6
CONTINUOUS
 62
    2
 10
709.43765099734537
 20
755.40980000297384
 11
691.84354883060496
 21
724.93591617721893
  0
LINE
  8
_0-0_計極細
  6
CONTINUOUS
 62
    2
 10
688.67785327581714
 20
727.40859953678523
 11
688.67785327581714
 21
731.49458441162392
  0
LINE
  8
_0-0_計極細
  6
CONTINUOUS
 62
    2
 10
689.17959335856449
 20
726.5395601607463
 11
689.17959335856449
 21
732.363629808567
  0
ARC
  8
_0-0_計極細
  6
CONTINUOUS
 62
    2
 10
679.82178829133875
 20
731.70943438837855
 40
1.0034861863992508
 50
269.99999999999977
 51
29.999999999999204
  0
LINE
  8
_0-0_計極細
  6
CONTINUOUS
 62
    2
 10
692.19004589685755
 20
725.53607397434848
 11
692.19004589685755
 21
737.57788412751802
  0
LINE
  8
_0-0_計極細
  6
CONTINUOUS
 62
    2
 10
692.69179200050894
 20
726.40511937129099
 11
692.69179200050894
 21
738.44692952446326
  0
ARC
  8
_0-0_計極細
  6
CONTINUOUS
 62
    2
 10
679.82178829133875
 20
707.12406797838435
 40
1.0034861863992508
 50
329.9999999999776
 51
89.999999999999545
  0
ARC
  8
_0-0_計極細
  6
CONTINUOUS
 62
    2
 10
677.79401971240532
 20
702.60838917094384
 40
0.501740082747087
 50
269.99999999999977
 51
329.999999999995
  0
ARC
  8
_0-0_計極細
  6
CONTINUOUS
 62
    2
 10
690.68481962771057
 20
719.41675118337957
 40
27.094072844634091
 50
230.22103899999877
 51
235.21980799999864
  0
ARC
  8
_0-0_計極細
  6
CONTINUOUS
 62
    2
 10
674.31785016643789
 20
697.5909702807578
 40
1.0034861863992508
 50
330.00000000000011
 51
89.999999999999545
  0
ARC
  8
_0-0_計極細
  6
CONTINUOUS
 62
    2
 10
682.5737573537881
 20
699.84880968447828
 40
0.501740082747087
 50
149.9999999999884
 51
210.00000000005619
  0
LINE
  8
_0-0_計極細
  6
CONTINUOUS
 62
    2
 10
688.67785327581714
 20
707.33891795513716
 11
688.67785327581714
 21
711.42490282997574
  0
LINE
  8
_0-0_計極細
  6
CONTINUOUS
 62
    2
 10
689.17959335856449
 20
706.46987255819226
 11
689.17959335856449
 21
712.29394220601421
  0
ARC
  8
_0-0_計極細
  6
CONTINUOUS
 62
    2
 10
683.29795783730435
 20
712.14149288947499
 40
0.501740082747087
 50
269.99999999999977
 51
330.00000000003996
  0
ARC
  8
_0-0_計極細
  6
CONTINUOUS
 62
    2
 10
688.07769547868975
 20
709.38190738210255
 40
0.501740082747087
 50
150.00000000009922
 51
209.99999999985545
  0
ARC
  8
_0-0_計極細
  6
CONTINUOUS
 62
    2
 10
685.47056530875943
 20
703.86274840916963
 40
1.0034861863992508
 50
29.999999999999559
 51
150.00000000000043
  0
ARC
  8
_0-0_計極細
  6
CONTINUOUS
 62
    2
 10
688.07769547868975
 20
729.4515949846575
 40
0.501740082747087
 50
150.00000000009922
 51
209.99999999985545
  0
ARC
  8
_0-0_計極細
  6
CONTINUOUS
 62
    2
 10
690.97450343365938
 20
725.43765625996616
 40
1.0034861863992508
 50
210.00000000005113
 51
330.00000000002603
  0
ARC
  8
_0-0_計極細
  6
CONTINUOUS
 62
    2
 10
683.29795783730435
 20
726.69200947728473
 40
0.501740082747087
 50
29.99999999995967
 51
89.999999999999901
  0
ARC
  8
_0-0_計極細
  6
CONTINUOUS
 62
    2
 10
685.32572641623847
 20
722.17633066984706
 40
1.0034861863992508
 50
269.99999999999977
 51
30.000000000002665
  0
LINE
  8
_0-0_計極細
  6
CONTINUOUS
 62
    2
 10
692.19004589685755
 20
701.25561823924204
 11
692.19004589685755
 21
713.29742839241385
  0
LINE
  8
_0-0_計極細
  6
CONTINUOUS
 62
    2
 10
692.69179200050894
 20
700.38657284229907
 11
692.69179200050894
 21
712.42838299546906
  0
ARC
  8
_0-0_計極細
  6
CONTINUOUS
 62
    2
 10
690.97450343365938
 20
725.43765625996616
 40
1.0034861863992508
 50
253.22134500003193
 51
330.00000000002603
  0
LINE
  8
_0-0_計極細
  6
CONTINUOUS
 62
    2
 10
689.79376180180589
 20
759.51798395482933
 11
680.83567258080529
 21
744.00211157246827
  0
ARC
  8
_0-0_計極細
  6
CONTINUOUS
 62
    2
 10
690.68481962771057
 20
719.41675118337957
 40
37.630656728658437
 50
93.595995000000485
 51
105.50677600000017
  0
LINE
  8
_0-0_計極細
  6
CONTINUOUS
 62
    2
 10
683.24031369210115
 20
760.20888883327348
 11
676.63529653041678
 21
748.76866343173322
  0
LINE
  8
_0-0_計極細
  6
CONTINUOUS
 62
    2
 10
694.47023490022093
 20
760.5934861868493
 11
682.13923465531582
 21
739.23556573410792
  0
ARC
  8
_0-0_計極細
  6
CONTINUOUS
 62
    2
 10
682.5737573537881
 20
738.98469268228268
 40
0.501740082747087
 50
149.9999999999884
 51
210.00000000001123
  0
ARC
  8
_0-0_計極細
  6
CONTINUOUS
 62
    2
 10
690.68481962771057
 20
719.41675118337957
 40
27.094072844634091
 50
110.2210389999981
 51
115.21980799999808
  0
ARC
  8
_0-0_計極細
  6
CONTINUOUS
 62
    2
 10
679.96662718386051
 20
744.50385767612147
 40
1.0034861863992508
 50
210.00000000000267
 51
330.00000000002257
  0
ARC
  8
_0-0_計極細
  6
CONTINUOUS
 62
    2
 10
677.06981922888826
 20
748.51779037990696
 40
0.501740082747087
 50
149.99999999999537
 51
209.9999999999593
  0
ARC
  8
_0-0_計極細
  6
CONTINUOUS
 62
    2
 10
690.68481962771057
 20
719.41675118337957
 40
37.630656728658437
 50
113.77152300000098
 51
116.31964599999986
  0
ARC
  8
_0-0_計極細
  6
CONTINUOUS
 62
    2
 10
676.45318221456466
 20
757.48458582964975
 40
1.0034861863992508
 50
330.00000000002257
 51
110.49822999994124
  0
ARC
  8
_0-0_計極細
  6
CONTINUOUS
 62
    2
 10
674.46268905896159
 20
754.03695537374483
 40
1.0034861863992508
 50
209.9999999999992
 51
330.00000000000011
  0
LINE
  8
_0-0_計極細
  6
CONTINUOUS
 62
    2
 10
677.3222215906053
 20
756.98284574690229
 11
675.33173445590637
 21
753.53521529100021
  0
ARC
  8
_0-0_計極細
  6
CONTINUOUS
 62
    2
 10
690.68481962771057
 20
719.41675118337957
 40
27.094072844634091
 50
124.78019199999984
 51
129.77896100000024
  0
ARC
  8
_0-0_計極細
  6
CONTINUOUS
 62
    2
 10
672.29008158750639
 20
745.75821089344186
 40
0.501740082747087
 50
30.000000000063526
 51
89.999999999999915
  0
ARC
  8
_0-0_計極細
  6
CONTINUOUS
 62
    2
 10
674.31785016643789
 20
741.24253208600283
 40
1.0034861863992508
 50
269.99999999999977
 51
29.999999999999204
  0
ARC
  8
_0-0_計極細
  6
CONTINUOUS
 62
    2
 10
677.79401971240532
 20
736.22511319581713
 40
0.501740082747087
 50
29.99999999995967
 51
89.999999999999901
  0
LINE
  8
_0-0_計極細
  6
CONTINUOUS
 62
    2
 10
689.17959335856449
 20
739.38801505064771
 11
689.17959335856449
 21
746.46897873773264
  0
LINE
  8
_0-0_計極細
  6
CONTINUOUS
 62
    2
 10
688.67785327581714
 20
738.51897567460924
 11
688.67785327581714
 21
746.43638757855274
  0
ARC
  8
_0-0_計極細
  6
CONTINUOUS
 62
    2
 10
688.92472242576787
 20
760.01973005848299
 40
1.0034861863992508
 50
329.99999999997414
 51
92.482164000031602
  0
ARC
  8
_0-0_計極細
  6
CONTINUOUS
 62
    2
 10
690.68481962771057
 20
719.41675118337957
 40
27.094072844634091
 50
84.624317999999832
 51
99.709017000000401
  0
ARC
  8
_0-0_計極細
  6
CONTINUOUS
 62
    2
 10
683.67483639057264
 20
759.95801578144824
 40
0.501740082747087
 50
99.810008999948636
 51
149.99999999993648
  0
ARC
  8
_0-0_計極細
  6
CONTINUOUS
 62
    2
 10
685.47056530875943
 20
734.97075395758998
 40
1.0034861863992508
 50
209.9999999999992
 51
330.00000000000011
  0
ARC
  8
_0-0_計極細
  6
CONTINUOUS
 62
    2
 10
690.68481962771057
 20
719.41675118337957
 40
27.094072844634091
 50
84.624317999999832
 51
89.999999999999915
  0
ARC
  8
_0-0_計極細
  6
CONTINUOUS
 62
    2
 10
690.68481962771057
 20
719.41675118337957
 40
27.094072844634091
 50
20.290983000001571
 51
35.37568200000068
  0
LINE
  8
_0-0_計極細
  6
CONTINUOUS
 62
    2
 10
717.66715651593313
 20
750.59751936965245
 11
701.11333428651506
 21
721.92546363892575
  0
LINE
  8
_0-0_計極細
  6
CONTINUOUS
 62
    2
 10
712.47930386574455
 20
753.65370670290645
 11
694.88519567809919
 21
723.17981685624568
  0
ARC
  8
_0-0_計極細
  6
CONTINUOUS
 62
    2
 10
690.68481962771057
 20
719.41675118337957
 40
27.094072844634091
 50
303.71622000000156
 51
316.68065099999922
  0
ARC
  8
_0-0_計極細
  6
CONTINUOUS
 62
    2
 10
706.76211130393585
 20
716.15542559326218
 40
1.0034861863992508
 50
89.999999999999915
 51
210.00000000002515
  0
ARC
  8
_0-0_計極細
  6
CONTINUOUS
 62
    2
 10
700.67881158804357
 20
716.65717169691402
 40
0.501740082747087
 50
30.0000000001085
 51
89.999999999999915
  0
ARC
  8
_0-0_計極細
  6
CONTINUOUS
 62
    2
 10
706.76211130393585
 20
722.67807677350015
 40
1.0034861863992508
 50
149.99999999997448
 51
269.99999999999977
  0
ARC
  8
_0-0_計極細
  6
CONTINUOUS
 62
    2
 10
700.67881158804357
 20
722.17633066984706
 40
0.501740082747087
 50
269.99999999999977
 51
329.99999999989114
  0
ARC
  8
_0-0_計極細
  6
CONTINUOUS
 62
    2
 10
690.68481962771057
 20
719.41675118337957
 40
27.094072844634091
 50
324.62431799999973
 51
339.7090169999999
  0
ARC
  8
_0-0_計極細
  6
CONTINUOUS
 62
    2
 10
690.68481962771057
 20
719.41675118337957
 40
27.094072844634091
 50
350.22103899999934
 51
355.21980800000068
  0
ARC
  8
_0-0_計極細
  6
CONTINUOUS
 62
    2
 10
690.68481962771057
 20
719.41675118337957
 40
27.094072844634091
 50
4.7801919999998796
 51
9.778961000001221
  0
ARC
  8
_0-0_計極細
  6
CONTINUOUS
 62
    2
 10
717.76998755373552
 20
716.15542559326218
 40
1.0034861863992508
 50
89.999999999999915
 51
210.00000000002515
  0
ARC
  8
_0-0_計極細
  6
CONTINUOUS
 62
    2
 10
711.68668783784244
 20
716.65717169691402
 40
0.501740082747087
 50
30.000000000056566
 51
89.999999999999915
  0
ARC
  8
_0-0_計極細
  6
CONTINUOUS
 62
    2
 10
717.76998755373552
 20
722.67807677350015
 40
1.0034861863992508
 50
149.99999999997448
 51
269.99999999999977
  0
ARC
  8
_0-0_計極細
  6
CONTINUOUS
 62
    2
 10
711.68668783784244
 20
722.17633066984706
 40
0.501740082747087
 50
269.99999999999977
 51
329.9999999999431
  0
ARC
  8
_0-0_計極細
  6
CONTINUOUS
 62
    2
 10
690.68481962771057
 20
719.41675118337957
 40
27.094072844634091
 50
43.319349000001104
 51
56.28377999999919
  0
ARC
  8
_0-0_計極細
  6
CONTINUOUS
 62
    2
 10
690.68481962771057
 20
719.41675118337957
 40
37.630656728658437
 50
62.674774000000312
 51
71.927081999999317
  0
ARC
  8
_0-0_計極細
  6
CONTINUOUS
 62
    2
 10
690.68481962771057
 20
719.41675118337957
 40
27.094072844634091
 50
63.716220000000746
 51
76.680650999998889
  0
ARC
  8
_0-0_計極細
  6
CONTINUOUS
 62
    2
 10
704.63151168720015
 20
758.12365071538238
 40
0.501740082747087
 50
70.185127999891137
 51
149.99999999993648
  0
ARC
  8
_0-0_計極細
  6
CONTINUOUS
 62
    2
 10
699.40776842185005
 20
759.11070585182938
 40
1.0034861863992508
 50
329.99999999999665
 51
77.605965999942228
  0
ARC
  8
_0-0_計極細
  6
CONTINUOUS
 62
    2
 10
690.68481962771057
 20
719.41675118337957
 40
37.630656728658437
 50
48.072918000001373
 51
57.325226000001372
  0
ARC
  8
_0-0_計極細
  6
CONTINUOUS
 62
    2
 10
713.34834324178246
 20
753.15196059925472
 40
1.0034861863992508
 50
56.106549999971008
 51
149.99999999999699
  0
ARC
  8
_0-0_計極細
  6
CONTINUOUS
 62
    2
 10
717.23263381746074
 20
750.84838640057274
 40
0.501740082747087
 50
330.00000000009186
 51
49.814871999965682
  0
ARC
  8
_0-0_計極細
  6
CONTINUOUS
 62
    2
 10
708.56861162130645
 20
755.91154610662511
 40
1.0034861863992508
 50
330.00000000000011
 51
63.893449999974756
  0
ARC
  8
_0-0_計極細
  6
CONTINUOUS
 62
    2
 10
720.69932043793062
 20
692.01547971992863
 40
1.0034861863992508
 50
210.00000000002515
 51
317.6059660000256
  0
ARC
  8
_0-0_計極細
  6
CONTINUOUS
 62
    2
 10
724.0176941036508
 20
695.29924522326769
 40
0.501740082747087
 50
324.11293799996702
 51
29.999999999959307
  0
ARC
  8
_0-0_計極細
  6
CONTINUOUS
 62
    2
 10
690.68481962771057
 20
719.41675118337957
 40
37.630656728658437
 50
14.493223999999607
 51
26.404005000000534
  0
LINE
  8
_0-0_計極細
  6
CONTINUOUS
 62
    2
 10
729.73410394779876
 20
733.36568904046476
 11
723.12908678611348
 21
721.92546363892575
  0
ARC
  8
_0-0_計極細
  6
CONTINUOUS
 62
    2
 10
730.76835695913996
 20
712.70779513735783
 40
1.0034861863992508
 50
209.99999999997672
 51
350.4982300000064
  0
ARC
  8
_0-0_計極細
  6
CONTINUOUS
 62
    2
 10
730.76835695913996
 20
726.12570722940313
 40
1.0034861863992508
 50
9.5017699999932326
 51
150.00000000000043
  0
ARC
  8
_0-0_計極細
  6
CONTINUOUS
 62
    2
 10
690.68481962771057
 20
719.41675118337957
 40
37.630656728658437
 50
3.6803540000001762
 51
6.228477000000372
  0
ARC
  8
_0-0_計極細
  6
CONTINUOUS
 62
    2
 10
690.68481962771057
 20
719.41675118337957
 40
37.630656728658437
 50
353.77152300000063
 51
356.31964600000015
  0
ARC
  8
_0-0_計極細
  6
CONTINUOUS
 62
    2
 10
690.68481962771057
 20
719.41675118337957
 40
37.630656728658437
 50
333.59599499999973
 51
345.50677600000074
  0
ARC
  8
_0-0_計極細
  6
CONTINUOUS
 62
    2
 10
726.72808279564288
 20
700.63955321090123
 40
1.0034861863992508
 50
209.99999999997672
 51
332.48216400001218
  0
ARC
  8
_0-0_計極細
  6
CONTINUOUS
 62
    2
 10
728.77786380353427
 20
716.15542559326218
 40
1.0034861863992508
 50
89.999999999999915
 51
210.00000000002515
  0
ARC
  8
_0-0_計極細
  6
CONTINUOUS
 62
    2
 10
722.69456408764108
 20
716.65717169691402
 40
0.501740082747087
 50
30.000000000004636
 51
89.999999999999915
  0
LINE
  8
_0-0_計極細
  6
CONTINUOUS
 62
    2
 10
729.89931156219529
 20
712.2060550546114
 11
727.90882442749637
 21
715.65368551051574
  0
LINE
  8
_0-0_計極細
  6
CONTINUOUS
 62
    2
 10
729.73410394779876
 20
705.46781332629723
 11
723.12908678611348
 21
716.90803872783385
  0
ARC
  8
_0-0_計極細
  6
CONTINUOUS
 62
    2
 10
728.77786380353427
 20
722.67807677350015
 40
1.0034861863992508
 50
149.99999999997448
 51
269.99999999999977
  0
ARC
  8
_0-0_計極細
  6
CONTINUOUS
 62
    2
 10
722.69456408764108
 20
722.17633066984706
 40
0.501740082747087
 50
269.99999999999977
 51
329.999999999995
  0
LINE
  8
_0-0_計極細
  6
CONTINUOUS
 62
    2
 10
729.89931156219529
 20
726.62744731214957
 11
727.90882442749637
 21
723.17981685624568
  0
ARC
  8
_0-0_計極細
  6
CONTINUOUS
 62
    2
 10
720.69932043793062
 20
746.81802264683245
 40
1.0034861863992508
 50
42.394033999974049
 51
149.99999999997448
  0
ARC
  8
_0-0_計極細
  6
CONTINUOUS
 62
    2
 10
724.0176941036508
 20
743.53425714349282
 40
0.501740082747087
 50
330.00000000003996
 51
35.887062000032259
  0
ARC
  8
_0-0_計極細
  6
CONTINUOUS
 62
    2
 10
726.72808279564288
 20
738.19394915585985
 40
1.0034861863992508
 50
27.517836000010465
 51
150.00000000000043
  0
LINE
  8
_0-0_計極細
  6
CONTINUOUS
 62
    2
 10
692.19004589685755
 20
692.364522491662
 11
692.19004589685755
 21
694.23123414175529
  0
LINE
  8
_0-0_計極細
  6
CONTINUOUS
 62
    2
 10
692.69179200050894
 20
692.39711304359048
 11
692.69179200050894
 21
693.36218411019695
  0
LINE
  8
_0-0_計極細
  6
CONTINUOUS
 62
    2
 10
692.19004589685755
 20
744.60226569760312
 11
692.19004589685755
 21
746.4689798750976
  0
LINE
  8
_0-0_計極細
  6
CONTINUOUS
 62
    2
 10
692.69179200050894
 20
745.47131551240568
 11
692.69179200050894
 21
746.43638932316912
  0
LINE
  8
_0-0_計極細
  6
CENTER2
 62
    2
 10
386.1342258806344
 20
719.41031608886419
 11
1000.285169276861
 21
719.41031608886419
  0
ARC
  8
_0-1_計細線
  6
CONTINUOUS
 62
    3
 10
977.18273557557825
 20
657.91031608886374
 40
2
 50
269.99999999999977
 51
0.0000000000126713
  0
ARC
  8
_0-1_計細線
  6
DASHED2
 62
    3
 10
409.68273557557677
 20
775.41031608886431
 40
12.5
 50
233.13010235415936
 51
36.869897645840759
  0
ARC
  8
_0-1_計細線
  6
CONTINUOUS
 62
    3
 10
409.68273557557677
 20
775.41031608886431
 40
12.5
 50
36.8698976458411
 51
233.13010235415564
  0
ARC
  8
_0-1_計細線
  6
DASHED2
 62
    3
 10
409.682735575577
 20
663.41031608886419
 40
12.5
 50
323.11949922673051
 51
126.86989764584366
  0
ARC
  8
_0-1_計細線
  6
CONTINUOUS
 62
    3
 10
409.682735575577
 20
663.41031608886419
 40
12.5
 50
126.86989764584402
 51
323.11949922673051
  0
ARC
  8
_0-1_計細線
  6
CONTINUOUS
 62
    3
 10
971.68273557557836
 20
663.41031608886419
 40
12.5
 50
216.88050077326872
 51
53.130102354155625
  0
ARC
  8
_0-1_計細線
  6
DASHED2
 62
    3
 10
971.68273557557836
 20
663.41031608886419
 40
12.5
 50
53.13010235415598
 51
216.88050077326872
  0
ARC
  8
_0-1_計細線
  6
CONTINUOUS
 62
    3
 10
971.68273557557757
 20
775.41031608886431
 40
12.5
 50
306.85112007309164
 51
143.14070401012805
  0
ARC
  8
_0-1_計細線
  6
DASHED2
 62
    3
 10
971.68273557557757
 20
775.41031608886431
 40
12.5
 50
143.14070401012839
 51
306.85112205553207
  0
LINE
  8
_0-1_計細線
  6
CONTINUOUS
 62
    3
 10
402.18273557557723
 20
739.41031608886442
 11
399.18273557557836
 21
739.41031608886487
  0
ARC
  8
_0-1_計細線
  6
CONTINUOUS
 62
    3
 10
399.18273557557836
 20
737.41031608886487
 40
2
 50
89.999999999999915
 51
180.00000000001268
  0
LINE
  8
_0-1_計細線
  6
CONTINUOUS
 62
    3
 10
397.18273557557836
 20
737.41031608886442
 11
397.18273557557836
 21
701.41031608886453
  0
LINE
  8
_0-1_計細線
  6
CONTINUOUS
 62
    3
 10
399.18273557557836
 20
699.41031608886487
 11
402.18273557557723
 21
699.41031608886442
  0
ARC
  8
_0-1_計細線
  6
CONTINUOUS
 62
    3
 10
399.18273557557836
 20
701.41031608886487
 40
2
 50
180.00000000001268
 51
269.99999999999977
  0
LINE
  8
_0-1_計細線
  6
CONTINUOUS
 62
    3
 10
399.18273557557836
 20
704.41031608886442
 11
402.18273557557723
 21
704.41031608886442
  0
LINE
  8
_0-1_計細線
  6
CONTINUOUS
 62
    3
 10
399.18273557557836
 20
734.41031608886442
 11
399.18273557557836
 21
704.41031608886442
  0
LINE
  8
_0-1_計細線
  6
CONTINUOUS
 62
    3
 10
402.18273557557723
 20
734.41031608886442
 11
399.18273557557836
 21
734.41031608886442
  0
LINE
  8
_0-1_計細線
  6
DASHED2
 62
    3
 10
402.18273557557723
 20
739.41031608886442
 11
409.68273557557836
 21
739.41031608886442
  0
LINE
  8
_0-1_計細線
  6
DASHED2
 62
    3
 10
409.68273557557836
 20
699.41031608886442
 11
402.18273557557723
 21
699.41031608886442
  0
LINE
  8
_0-1_計細線
  6
DASHED2
 62
    3
 10
409.68273557557836
 20
739.41031608886442
 11
409.68273557557836
 21
699.41031608886442
  0
LINE
  8
_0-5_寸法線
  6
CONTINUOUS
 62
    7
 10
398.48747105335269
 20
739.28557800234091
 11
391.71059043216974
 21
746.63907302486132
  0
LINE
  8
_0-5_寸法線
  6
CONTINUOUS
 62
    7
 10
398.48747105335269
 20
739.28557800234091
 11
396.29526778825408
 21
749.04233180903748
  0
LINE
  8
_0-5_寸法線
  6
CONTINUOUS
 62
    7
 10
398.48747105335269
 20
739.28557800234091
 11
343.31048230948164
 21
844.54627341166315
  0
LINE
  8
_0-5_寸法線
  6
CONTINUOUS
 62
    7
 10
343.31048230948164
 20
844.54627341166315
 11
295.31048230948159
 21
844.54627341166338
  0
TEXT
  8
_0-5_寸法線
 62
    7
 10
295.31048230948159
 20
844.54627341166315
 40
15
 41
0.8000000000000001
 50
0
  1
取っ手部
  0
LINE
  8
_0-5_寸法線
  6
CONTINUOUS
 62
    7
 10
383.68273557557768
 20
791.41031608886419
 11
338.68273557557768
 21
791.41031608886419
  0
LINE
  8
_0-5_寸法線
  6
CONTINUOUS
 62
    7
 10
343.68273557557768
 20
791.41031608886419
 11
341.0945451245525
 21
801.06957435175502
  0
LINE
  8
_0-5_寸法線
  6
CONTINUOUS
 62
    7
 10
343.68273557557768
 20
791.41031608886419
 11
346.27092602660292
 21
801.06957435175502
  0
LINE
  8
_0-5_寸法線
  6
CONTINUOUS
 62
    7
 10
383.68273557557768
 20
788.91031608886419
 11
338.68273557557768
 21
788.91031608886419
  0
LINE
  8
_0-5_寸法線
  6
CONTINUOUS
 62
    7
 10
343.68273557557768
 20
829.05872767843209
 11
343.68273557557768
 21
788.91031608886419
  0
TEXT
  8
_0-5_寸法線
 62
    7
 10
343.68273557557768
 20
803.13332989429557
 40
15
 41
1
 50
89.999999999999815
  1
2.5
  0
LINE
  8
_0-5_寸法線
  6
CONTINUOUS
 62
    7
 10
343.68273557557768
 20
788.91031608886419
 11
346.27092602660292
 21
779.25105782597359
  0
LINE
  8
_0-5_寸法線
  6
CONTINUOUS
 62
    7
 10
343.68273557557768
 20
788.91031608886419
 11
341.09454512455244
 21
779.25105782597359
  0
LINE
  8
_0-5_寸法線
  6
CONTINUOUS
 62
    7
 10
383.68273557557768
 20
649.91031608886419
 11
338.68273557557768
 21
649.91031608886419
  0
LINE
  8
_0-5_寸法線
  6
CONTINUOUS
 62
    7
 10
343.68273557557768
 20
649.91031608886419
 11
341.09454512455244
 21
659.56957435175491
  0
LINE
  8
_0-5_寸法線
  6
CONTINUOUS
 62
    7
 10
343.68273557557768
 20
649.91031608886419
 11
346.27092602660292
 21
659.56957435175491
  0
LINE
  8
_0-5_寸法線
  6
CONTINUOUS
 62
    7
 10
343.68273557557768
 20
788.91031608886419
 11
343.68273557557768
 21
649.91031608886419
  0
TEXT
  8
_0-5_寸法線
 62
    7
 10
343.68273557557768
 20
708.16031608886419
 40
15
 41
1
 50
90
  1
139
  0
LINE
  8
_0-5_寸法線
  6
CONTINUOUS
 62
    7
 10
383.68273557557768
 20
647.41031608886419
 11
338.68273557557768
 21
647.41031608886419
  0
LINE
  8
_0-5_寸法線
  6
CONTINUOUS
 62
    7
 10
343.68273557557768
 20
647.41031608886419
 11
346.27092602660292
 21
637.75105782597348
  0
LINE
  8
_0-5_寸法線
  6
CONTINUOUS
 62
    7
 10
343.68273557557768
 20
647.41031608886419
 11
341.09454512455244
 21
637.75105782597348
  0
LINE
  8
_0-5_寸法線
  6
CONTINUOUS
 62
    7
 10
343.68273557557768
 20
649.91031608886419
 11
343.68273557557768
 21
609.76190449929641
  0
TEXT
  8
_0-5_寸法線
 62
    7
 10
343.68273557557762
 20
614.03692603932564
 40
15
 41
1
 50
89.999999999999815
  1
2.5
  0
LINE
  8
_0-5_寸法線
  6
CONTINUOUS
 62
    7
 10
383.68273557557768
 20
791.41031608886419
 11
303.68273557557768
 21
791.41031608886419
  0
LINE
  8
_0-5_寸法線
  6
CONTINUOUS
 62
    7
 10
308.68273557557768
 20
791.41031608886419
 11
311.27092602660298
 21
781.75105782597359
  0
LINE
  8
_0-5_寸法線
  6
CONTINUOUS
 62
    7
 10
308.68273557557768
 20
791.41031608886419
 11
306.0945451245525
 21
781.75105782597359
  0
LINE
  8
_0-5_寸法線
  6
CONTINUOUS
 62
    7
 10
383.68273557557768
 20
647.41031608886419
 11
303.68273557557768
 21
647.41031608886419
  0
LINE
  8
_0-5_寸法線
  6
CONTINUOUS
 62
    7
 10
308.68273557557768
 20
647.41031608886419
 11
306.0945451245525
 21
657.06957435175491
  0
LINE
  8
_0-5_寸法線
  6
CONTINUOUS
 62
    7
 10
308.68273557557768
 20
647.41031608886419
 11
311.27092602660298
 21
657.06957435175491
  0
LINE
  8
_0-5_寸法線
  6
CONTINUOUS
 62
    7
 10
308.68273557557768
 20
791.41031608886419
 11
308.68273557557768
 21
647.41031608886419
  0
TEXT
  8
_0-5_寸法線
 62
    7
 10
308.68273557557768
 20
708.16031608886419
 40
15
 41
1
 50
90
  1
144
  0
LINE
  8
_0-5_寸法線
  6
CONTINUOUS
 62
    7
 10
393.68273557557768
 20
801.41031608886419
 11
393.68273557557768
 21
916.41031608886419
  0
LINE
  8
_0-5_寸法線
  6
CONTINUOUS
 62
    7
 10
393.68273557557768
 20
911.41031608886419
 11
403.3419938384684
 21
913.99850653988949
  0
LINE
  8
_0-5_寸法線
  6
CONTINUOUS
 62
    7
 10
393.68273557557768
 20
911.41031608886419
 11
403.3419938384684
 21
908.82212563783912
  0
LINE
  8
_0-5_寸法線
  6
CONTINUOUS
 62
    7
 10
987.68273557557779
 20
801.41031608886419
 11
987.68273557557779
 21
916.41031608886419
  0
LINE
  8
_0-5_寸法線
  6
CONTINUOUS
 62
    7
 10
987.68273557557779
 20
911.41031608886419
 11
978.02347731268696
 21
908.82212563783912
  0
LINE
  8
_0-5_寸法線
  6
CONTINUOUS
 62
    7
 10
987.68273557557779
 20
911.41031608886419
 11
978.02347731268696
 21
913.99850653988949
  0
LINE
  8
_0-5_寸法線
  6
CONTINUOUS
 62
    7
 10
393.68273557557768
 20
911.41031608886419
 11
987.68273557557779
 21
911.41031608886419
  0
TEXT
  8
_0-5_寸法線
 62
    7
 10
679.43273557557768
 20
911.41031608886419
 40
15
 41
1
 50
0
  1
594
  0
LINE
  8
_0-5_寸法線
  6
CONTINUOUS
 62
    7
 10
393.68273557557768
 20
637.41031608886419
 11
393.68273557557768
 21
592.41031608886419
  0
LINE
  8
_0-5_寸法線
  6
CONTINUOUS
 62
    7
 10
393.68273557557768
 20
597.41031608886419
 11
403.3419938384684
 21
599.99850653988938
  0
LINE
  8
_0-5_寸法線
  6
CONTINUOUS
 62
    7
 10
393.68273557557768
 20
597.41031608886419
 11
403.3419938384684
 21
594.82212563783901
  0
LINE
  8
_0-5_寸法線
  6
CONTINUOUS
 62
    7
 10
690.68273557557768
 20
637.41031608886419
 11
690.68273557557768
 21
592.41031608886419
  0
LINE
  8
_0-5_寸法線
  6
CONTINUOUS
 62
    7
 10
690.68273557557768
 20
597.41031608886419
 11
681.02347731268696
 21
594.82212563783901
  0
LINE
  8
_0-5_寸法線
  6
CONTINUOUS
 62
    7
 10
690.68273557557768
 20
597.41031608886419
 11
681.02347731268696
 21
599.99850653988938
  0
LINE
  8
_0-5_寸法線
  6
CONTINUOUS
 62
    7
 10
393.68273557557768
 20
597.41031608886419
 11
690.68273557557768
 21
597.41031608886419
  0
TEXT
  8
_0-5_寸法線
 62
    7
 10
530.93273557557768
 20
597.41031608886419
 40
15
 41
1
 50
0
  1
297
  0
LINE
  8
_0-5_寸法線
  6
CONTINUOUS
 62
    7
 10
690.68273557557768
 20
597.41031608886419
 11
700.3419938384684
 21
599.99850653988938
  0
LINE
  8
_0-5_寸法線
  6
CONTINUOUS
 62
    7
 10
690.68273557557768
 20
597.41031608886419
 11
700.3419938384684
 21
594.82212563783889
  0
LINE
  8
_0-5_寸法線
  6
CONTINUOUS
 62
    7
 10
987.68273557557779
 20
637.41031608886419
 11
987.68273557557779
 21
592.41031608886419
  0
LINE
  8
_0-5_寸法線
  6
CONTINUOUS
 62
    7
 10
987.68273557557779
 20
597.41031608886419
 11
978.02347731268696
 21
594.82212563783901
  0
LINE
  8
_0-5_寸法線
  6
CONTINUOUS
 62
    7
 10
987.68273557557779
 20
597.41031608886419
 11
978.02347731268696
 21
599.99850653988938
  0
LINE
  8
_0-5_寸法線
  6
CONTINUOUS
 62
    7
 10
690.68273557557768
 20
597.41031608886419
 11
987.68273557557779
 21
597.41031608886419
  0
TEXT
  8
_0-5_寸法線
 62
    7
 10
827.93273557557768
 20
597.41031608886419
 40
15
 41
1
 50
0
  1
297
  0
LINE
  8
_0-5_寸法線
  6
CONTINUOUS
 62
    7
 10
524.11034846458756
 20
648.68244760559742
 11
529.11034848195982
 21
640.0221935777829
  0
LINE
  8
_0-5_寸法線
  6
CONTINUOUS
 62
    7
 10
524.11034846458756
 20
648.68244760559742
 11
524.11034848464737
 21
638.68244760559742
  0
LINE
  8
_0-5_寸法線
  6
CONTINUOUS
 62
    7
 10
524.11034846458756
 20
648.68244760559742
 11
531.360009610112
 21
621.62634408993836
  0
LINE
  8
_0-5_寸法線
  6
CONTINUOUS
 62
    7
 10
531.360009610112
 20
621.62634408993836
 11
603.360009610112
 21
621.62634408993836
  0
TEXT
  8
_0-5_寸法線
 62
    7
 10
531.360009610112
 20
621.62634408993836
 40
15
 41
0.8000000000000001
 50
0
  1
排水ユニット
  0
LINE
  8
_0-5_寸法線
  6
CONTINUOUS
 62
    7
 10
441.84726405296652
 20
691.28147285507862
 11
446.80814662987916
 21
682.59875184965153
  0
LINE
  8
_0-5_寸法線
  6
CONTINUOUS
 62
    7
 10
441.84726405296652
 20
691.28147285507862
 11
441.80215388705096
 21
681.28157460194973
  0
LINE
  8
_0-5_寸法線
  6
CONTINUOUS
 62
    7
 10
441.84726405296652
 20
691.28147285507862
 11
460.17492761712725
 21
621.62634408993836
  0
LINE
  8
_0-5_寸法線
  6
CONTINUOUS
 62
    7
 10
460.17492761712725
 20
621.62634408993836
 11
496.17492761712725
 21
621.62634408993836
  0
TEXT
  8
_0-5_寸法線
 62
    7
 10
460.17492761712725
 20
621.62634408993836
 40
15
 41
0.8000000000000001
 50
0
  1
上フタ
  0
LINE
  8
_0-1_計細線
  6
CONTINUOUS
 62
    3
 10
404.18273557557723
 20
780.91031608886419
 11
404.18273557557723
 21
657.91031608886431
  0
LINE
  8
_0-1_計細線
  6
CONTINUOUS
 62
    3
 10
404.18273557557723
 20
657.91031608886431
 11
624.38836087579375
 21
657.91031608886431
  0
LINE
  8
_0-1_計細線
  6
CONTINUOUS
 62
    3
 10
619.57493567461529
 20
780.91031608886419
 11
404.18273557557723
 21
780.91031608886419
  0
ARC
  8
_0-1_計細線
  6
CONTINUOUS
 62
    3
 10
404.18273557557723
 20
780.91031608886385
 40
2
 50
89.999999999999915
 51
179.99999999999983
  0
LINE
  8
_0-1_計細線
  6
CONTINUOUS
 62
    3
 10
402.18273557557723
 20
657.91031608886431
 11
402.18273557557723
 21
780.91031608886385
  0
ARC
  8
_0-1_計細線
  6
CONTINUOUS
 62
    3
 10
404.18273557557723
 20
657.91031608886374
 40
2
 50
179.99999999998698
 51
269.99999999999977
  0
LINE
  8
_0-1_計細線
  6
CONTINUOUS
 62
    3
 10
404.18273557557723
 20
782.91031608886385
 11
618.00700024684249
 21
782.91031608886385
  0
LINE
  8
_0-1_計細線
  6
CONTINUOUS
 62
    3
 10
625.95629630356598
 20
655.91031608886533
 11
404.18273557557723
 21
655.91031608886385
  0
ARC
  8
_0-1_計細線
  6
CONTINUOUS
 62
    3
 10
977.18273557557825
 20
780.91031608886385
 40
2
 50
0
 51
89.999999999999915
  0
LINE
  8
_0-1_計細線
  6
CONTINUOUS
 62
    3
 10
979.18273557557825
 20
657.91031608886465
 11
979.18273557557825
 21
780.91031608886385
  0
LINE
  8
_0-1_計細線
  6
CONTINUOUS
 62
    3
 10
763.89934350497856
 20
655.91031608886465
 11
977.18311645105075
 21
655.91031608886385
  0
LINE
  8
_0-1_計細線
  6
CONTINUOUS
 62
    3
 10
977.18273557557825
 20
782.91031608886385
 11
755.95004744825519
 21
782.91031608886385
  0
LINE
  8
_0-1_計細線
  6
CONTINUOUS
 62
    3
 10
977.18273557557825
 20
780.91031608886419
 11
977.18273557557825
 21
657.91031608886431
  0
LINE
  8
_0-1_計細線
  6
CONTINUOUS
 62
    3
 10
757.51798287602719
 20
780.91031608886419
 11
977.18273557557825
 21
780.91031608886419
  0
LINE
  8
_0-1_計細線
  6
CONTINUOUS
 62
    3
 10
977.18273557557825
 20
657.91031608886431
 11
762.33140807720588
 21
657.91031608886431
  0
LINE
  8
_0-0_計極細
  6
CENTER1
 62
    2
 10
690.68273557557768
 20
801.41031608886419
 11
690.68273557557768
 21
324.91029936886031
  0
LINE
  8
_0-0_計極細
  6
CENTER2
 62
    2
 10
952.68273557557779
 20
493.91031608886379
 11
952.68273557557779
 21
444.78424138380512
  0
LINE
  8
_0-1_計細線
  6
DASHED2
 62
    3
 10
959.68273542249619
 20
486.91031608886425
 11
959.18273557557768
 21
487.41031593578271
  0
LINE
  8
_0-1_計細線
  6
DASHED2
 62
    3
 10
960.68273542249699
 20
485.91031608886385
 11
959.68273542249619
 21
486.91031608886425
  0
LINE
  8
_0-1_計細線
  6
DASHED2
 62
    3
 10
960.68273542249699
 20
481.91031685426958
 11
960.68273542249699
 21
485.91031608886385
  0
LINE
  8
_0-1_計細線
  6
DASHED2
 62
    3
 10
960.68273542249699
 20
475.91031608886385
 11
960.68273542249699
 21
481.91031685426958
  0
LINE
  8
_0-1_計細線
  6
DASHED2
 62
    3
 10
959.18273557557768
 20
487.41031593578271
 11
958.6827354224971
 21
487.91031608886385
  0
ARC
  8
_0-1_計細線
  6
DASHED2
 62
    3
 10
957.68273542249699
 20
455.91031608886385
 40
3.0000000000000004
 50
269.99999999999977
 51
359.99999999999966
  0
LINE
  8
_0-1_計細線
  6
DASHED2
 62
    3
 10
960.68273542249699
 20
469.91031608886379
 11
960.68273542249699
 21
455.91031608886385
  0
LINE
  8
_0-1_計細線
  6
DASHED2
 62
    3
 10
947.68273572865837
 20
452.91031608886385
 11
957.68273542249699
 21
452.91031608886385
  0
ARC
  8
_0-1_計細線
  6
DASHED2
 62
    3
 10
947.68273572865837
 20
455.91031608886385
 40
3.0000000000000004
 50
179.99999999999983
 51
269.99999999999977
  0
LINE
  8
_0-1_計細線
  6
DASHED2
 62
    3
 10
944.68273572865837
 20
469.91031608886379
 11
944.68273572865837
 21
455.91031608886385
  0
LINE
  8
_0-1_計細線
  6
DASHED2
 62
    3
 10
960.68273542249699
 20
475.91031608886385
 11
958.6827354224971
 21
473.91031608886379
  0
LINE
  8
_0-1_計細線
  6
DASHED2
 62
    3
 10
958.6827354224971
 20
473.91031608886379
 11
958.6827354224971
 21
471.91031608886385
  0
LINE
  8
_0-1_計細線
  6
DASHED2
 62
    3
 10
958.6827354224971
 20
471.91031608886385
 11
960.68273542249699
 21
469.91031608886379
  0
LINE
  8
_0-1_計細線
  6
DASHED2
 62
    3
 10
944.68273572865837
 20
475.91031608886385
 11
946.68273572865837
 21
473.91031608886379
  0
LINE
  8
_0-1_計細線
  6
DASHED2
 62
    3
 10
946.68273572865837
 20
473.91031608886379
 11
946.68273572865837
 21
471.91031608886385
  0
LINE
  8
_0-1_計細線
  6
DASHED2
 62
    3
 10
946.68273572865837
 20
471.91031608886385
 11
944.68273572865837
 21
469.91031608886379
  0
LINE
  8
_0-1_計細線
  6
DASHED2
 62
    3
 10
958.6827354224971
 20
487.91031608886385
 11
946.68273572865837
 21
487.91031608886385
  0
LINE
  8
_0-1_計細線
  6
DASHED2
 62
    3
 10
944.68273572865837
 20
475.91031608886385
 11
944.68273572865837
 21
485.91031608886385
  0
LINE
  8
_0-1_計細線
  6
DASHED2
 62
    3
 10
946.68273572865837
 20
487.91031608886385
 11
944.68273572865837
 21
485.91031608886385
  0
LINE
  8
_0-5_寸法線
  6
CONTINUOUS
 62
    7
 10
393.68273557557768
 20
522.41031608886419
 11
393.68273557557768
 21
567.41031608886419
  0
LINE
  8
_0-5_寸法線
  6
CONTINUOUS
 62
    7
 10
393.68273557557768
 20
562.41031608886419
 11
403.3419938384684
 21
564.99850653988938
  0
LINE
  8
_0-5_寸法線
  6
CONTINUOUS
 62
    7
 10
393.68273557557768
 20
562.41031608886419
 11
403.3419938384684
 21
559.82212563783901
  0
LINE
  8
_0-5_寸法線
  6
CONTINUOUS
 62
    7
 10
428.68273557557768
 20
522.41031608886419
 11
428.68273557557768
 21
567.41031608886419
  0
LINE
  8
_0-5_寸法線
  6
CONTINUOUS
 62
    7
 10
428.68273557557768
 20
562.41031608886419
 11
419.02347731268696
 21
559.82212563783901
  0
LINE
  8
_0-5_寸法線
  6
CONTINUOUS
 62
    7
 10
428.68273557557768
 20
562.41031608886419
 11
419.02347731268708
 21
564.99850653988938
  0
LINE
  8
_0-5_寸法線
  6
CONTINUOUS
 62
    7
 10
393.68273557557768
 20
562.41031608886419
 11
428.68273557557768
 21
562.41031608886419
  0
TEXT
  8
_0-5_寸法線
 62
    7
 10
403.68273557557768
 20
562.41031608886396
 40
15
 41
1
 50
0
  1
35
  0
LINE
  8
_0-5_寸法線
  6
CONTINUOUS
 62
    7
 10
428.68273557557768
 20
562.41031608886419
 11
438.34199383846845
 21
564.99850653988938
  0
LINE
  8
_0-5_寸法線
  6
CONTINUOUS
 62
    7
 10
428.68273557557768
 20
562.41031608886419
 11
438.3419938384684
 21
559.82212563783889
  0
LINE
  8
_0-5_寸法線
  6
CONTINUOUS
 62
    7
 10
952.68273557557779
 20
522.41031608886419
 11
952.68273557557779
 21
567.41031608886419
  0
LINE
  8
_0-5_寸法線
  6
CONTINUOUS
 62
    7
 10
952.68273557557779
 20
562.41031608886419
 11
943.02347731268696
 21
559.82212563783901
  0
LINE
  8
_0-5_寸法線
  6
CONTINUOUS
 62
    7
 10
952.68273557557779
 20
562.41031608886419
 11
943.02347731268696
 21
564.99850653988938
  0
LINE
  8
_0-5_寸法線
  6
CONTINUOUS
 62
    7
 10
428.68273557557768
 20
562.41031608886419
 11
952.68273557557779
 21
562.41031608886419
  0
TEXT
  8
_0-5_寸法線
 62
    7
 10
679.43273557557768
 20
562.41031608886396
 40
15
 41
1
 50
0
  1
524
  0
LINE
  8
_0-5_寸法線
  6
CONTINUOUS
 62
    7
 10
952.68273557557779
 20
562.41031608886419
 11
962.3419938384684
 21
564.99850653988938
  0
LINE
  8
_0-5_寸法線
  6
CONTINUOUS
 62
    7
 10
952.68273557557779
 20
562.41031608886419
 11
962.3419938384684
 21
559.82212563783889
  0
LINE
  8
_0-5_寸法線
  6
CONTINUOUS
 62
    7
 10
987.68273557557779
 20
522.41031608886396
 11
987.68273557557779
 21
567.41031608886419
  0
LINE
  8
_0-5_寸法線
  6
CONTINUOUS
 62
    7
 10
987.68273557557779
 20
562.41031608886419
 11
978.02347731268696
 21
559.82212563783901
  0
LINE
  8
_0-5_寸法線
  6
CONTINUOUS
 62
    7
 10
987.68273557557779
 20
562.41031608886419
 11
978.02347731268696
 21
564.99850653988938
  0
LINE
  8
_0-5_寸法線
  6
CONTINUOUS
 62
    7
 10
952.68273557557779
 20
562.41031608886419
 11
987.68273557557779
 21
562.41031608886419
  0
TEXT
  8
_0-5_寸法線
 62
    7
 10
962.68273557557779
 20
562.41031608886396
 40
15
 41
1
 50
0
  1
35
  0
LINE
  8
_0-5_寸法線
  6
CONTINUOUS
 62
    7
 10
428.68273557557768
 20
452.91031608886431
 11
433.68273557557757
 21
444.25006205101977
  0
LINE
  8
_0-5_寸法線
  6
CONTINUOUS
 62
    7
 10
428.68273557557768
 20
452.91031608886431
 11
428.68273557557757
 21
442.91031608886431
  0
LINE
  8
_0-5_寸法線
  6
CONTINUOUS
 62
    7
 10
428.68273557557768
 20
452.91031608886431
 11
436.44266409485579
 21
423.94986859181415
  0
LINE
  8
_0-5_寸法線
  6
CONTINUOUS
 62
    7
 10
436.44266409485579
 20
423.94986859181415
 11
484.44266409485584
 21
423.94986859181415
  0
TEXT
  8
_0-5_寸法線
 62
    7
 10
436.44266409485579
 20
423.94986859181415
 40
15
 41
0.8000000000000001
 50
0
  1
アンカー
  0
LINE
  8
_0-1_計細線
  6
CONTINUOUS
 62
    3
 10
959.18273557557768
 20
494.91031608886431
 11
984.18273557557768
 21
494.91031608886431
  0
LINE
  8
_0-1_計細線
  6
CONTINUOUS
 62
    3
 10
959.18273557557768
 20
486.91031608886425
 11
959.18273557557768
 21
494.91031608886431
  0
LINE
  8
_0-1_計細線
  6
CONTINUOUS
 62
    3
 10
984.18273557557768
 20
494.91031608886431
 11
984.18273557557768
 21
486.91031608886425
  0
LINE
  8
_0-1_計細線
  6
CONTINUOUS
 62
    3
 10
959.18273557557768
 20
486.91031608886425
 11
984.18273557557768
 21
486.91031608886425
  0
LINE
  8
_0-1_計細線
  6
CONTINUOUS
 62
    3
 10
961.36118202963291
 20
478.51808381858774
 11
959.68273557557779
 21
486.91031608886425
  0
ARC
  8
_0-1_計細線
  6
CONTINUOUS
 62
    3
 10
963.32234338101546
 20
478.91031608886431
 40
2
 50
191.30993247401983
 51
269.99999999999977
  0
LINE
  8
_0-1_計細線
  6
CONTINUOUS
 62
    3
 10
983.68273557557768
 20
486.91031608886425
 11
982.00428912152256
 21
478.51808381858774
  0
LINE
  8
_0-1_計細線
  6
CONTINUOUS
 62
    3
 10
980.04312777014093
 20
476.91031608886425
 11
963.32234338101546
 21
476.91031608886425
  0
ARC
  8
_0-1_計細線
  6
CONTINUOUS
 62
    3
 10
980.04312777014093
 20
478.91031608886431
 40
2
 50
269.99999999999977
 51
348.69006752597431
  0
LINE
  8
_0-1_計細線
  6
CONTINUOUS
 62
    3
 10
766.6794582142461
 20
494.91031608886431
 11
791.6794582142461
 21
494.91031608886431
  0
LINE
  8
_0-1_計細線
  6
CONTINUOUS
 62
    3
 10
766.6794582142461
 20
486.91031608886425
 11
766.6794582142461
 21
494.91031608886431
  0
LINE
  8
_0-1_計細線
  6
CONTINUOUS
 62
    3
 10
791.6794582142461
 20
494.91031608886431
 11
791.6794582142461
 21
486.91031608886425
  0
LINE
  8
_0-1_計細線
  6
CONTINUOUS
 62
    3
 10
766.6794582142461
 20
486.91031608886425
 11
791.6794582142461
 21
486.91031608886425
  0
LINE
  8
_0-1_計細線
  6
CONTINUOUS
 62
    3
 10
768.85790466830133
 20
478.51808381858774
 11
767.1794582142461
 21
486.91031608886425
  0
ARC
  8
_0-1_計細線
  6
CONTINUOUS
 62
    3
 10
770.81906601968387
 20
478.91031608886431
 40
2
 50
191.30993247401983
 51
269.99999999999977
  0
LINE
  8
_0-1_計細線
  6
CONTINUOUS
 62
    3
 10
791.1794582142461
 20
486.91031608886425
 11
789.50101176019098
 21
478.51808381858774
  0
LINE
  8
_0-1_計細線
  6
CONTINUOUS
 62
    3
 10
787.53985040880934
 20
476.91031608886425
 11
770.81906601968387
 21
476.91031608886425
  0
ARC
  8
_0-1_計細線
  6
CONTINUOUS
 62
    3
 10
787.53985040880934
 20
478.91031608886431
 40
2
 50
269.99999999999977
 51
348.69006752597431
  0
LINE
  8
_0-1_計細線
  6
CONTINUOUS
 62
    3
 10
422.18273557557774
 20
494.91031608886431
 11
397.18273557557774
 21
494.91031608886431
  0
LINE
  8
_0-1_計細線
  6
CONTINUOUS
 62
    3
 10
422.18273557557774
 20
486.91031608886425
 11
422.18273557557774
 21
494.91031608886431
  0
LINE
  8
_0-1_計細線
  6
CONTINUOUS
 62
    3
 10
397.18273557557774
 20
494.91031608886431
 11
397.18273557557774
 21
486.91031608886425
  0
LINE
  8
_0-1_計細線
  6
CONTINUOUS
 62
    3
 10
422.18273557557774
 20
486.91031608886425
 11
397.18273557557774
 21
486.91031608886425
  0
LINE
  8
_0-1_計細線
  6
CONTINUOUS
 62
    3
 10
420.00428912152256
 20
478.51808381858774
 11
421.68273557557768
 21
486.91031608886425
  0
ARC
  8
_0-1_計細線
  6
CONTINUOUS
 62
    3
 10
418.04312777014002
 20
478.91031608886431
 40
2
 50
269.99999999999977
 51
348.69006752597943
  0
LINE
  8
_0-1_計細線
  6
CONTINUOUS
 62
    3
 10
397.68273557557768
 20
486.91031608886425
 11
399.36118202963286
 21
478.51808381858774
  0
LINE
  8
_0-1_計細線
  6
CONTINUOUS
 62
    3
 10
401.32234338101449
 20
476.91031608886425
 11
418.04312777014002
 21
476.91031608886425
  0
ARC
  8
_0-1_計細線
  6
CONTINUOUS
 62
    3
 10
401.32234338101449
 20
478.91031608886431
 40
2
 50
191.30993247402495
 51
269.99999999999977
  0
LINE
  8
_0-1_計細線
  6
CONTINUOUS
 62
    3
 10
614.68601293690926
 20
494.91031608886431
 11
589.68601293690926
 21
494.91031608886431
  0
LINE
  8
_0-1_計細線
  6
CONTINUOUS
 62
    3
 10
614.68601293690926
 20
486.91031608886425
 11
614.68601293690926
 21
494.91031608886431
  0
LINE
  8
_0-1_計細線
  6
CONTINUOUS
 62
    3
 10
589.68601293690926
 20
494.91031608886431
 11
589.68601293690926
 21
486.91031608886425
  0
LINE
  8
_0-1_計細線
  6
CONTINUOUS
 62
    3
 10
614.68601293690926
 20
486.91031608886425
 11
589.68601293690926
 21
486.91031608886425
  0
LINE
  8
_0-1_計細線
  6
CONTINUOUS
 62
    3
 10
612.50756648285414
 20
478.51808381858774
 11
614.18601293690926
 21
486.91031608886425
  0
ARC
  8
_0-1_計細線
  6
CONTINUOUS
 62
    3
 10
610.5464051314716
 20
478.91031608886431
 40
2
 50
269.99999999999977
 51
348.69006752597943
  0
LINE
  8
_0-1_計細線
  6
CONTINUOUS
 62
    3
 10
590.18601293690926
 20
486.91031608886425
 11
591.86445939096438
 21
478.51808381858774
  0
LINE
  8
_0-1_計細線
  6
CONTINUOUS
 62
    3
 10
593.82562074234602
 20
476.91031608886425
 11
610.5464051314716
 21
476.91031608886425
  0
ARC
  8
_0-1_計細線
  6
CONTINUOUS
 62
    3
 10
593.82562074234602
 20
478.91031608886431
 40
2
 50
191.30993247402495
 51
269.99999999999977
  0
LINE
  8
_0-1_計細線
  6
CONTINUOUS
 62
    3
 10
979.1827355755795
 20
494.91031608886431
 11
979.1827355755795
 21
511.91031608886425
  0
LINE
  8
_0-1_計細線
  6
CONTINUOUS
 62
    3
 10
977.1827355755795
 20
496.91031608886425
 11
977.1827355755795
 21
511.91031608886425
  0
LINE
  8
_0-1_計細線
  6
CONTINUOUS
 62
    3
 10
979.1827355755795
 20
494.91031608886431
 11
402.18273557557586
 21
494.91031608886431
  0
LINE
  8
_0-1_計細線
  6
CONTINUOUS
 62
    3
 10
977.1827355755795
 20
496.91031608886425
 11
404.18273557557592
 21
496.91031608886425
  0
LINE
  8
_0-1_計細線
  6
CONTINUOUS
 62
    3
 10
404.18273557557592
 20
496.91031608886425
 11
404.18273557557592
 21
511.91031608886425
  0
LINE
  8
_0-1_計細線
  6
CONTINUOUS
 62
    3
 10
402.18273557557586
 20
494.91031608886431
 11
402.18273557557586
 21
511.91031608886425
  0
LINE
  8
_0-1_計細線
  6
CONTINUOUS
 62
    3
 10
979.1827355755795
 20
511.91031608886425
 11
402.18273557557586
 21
511.91031608886425
  0
ARC
  8
_0-1_計細線
  6
CONTINUOUS
 62
    3
 10
750.18260941555229
 20
475.41031608886431
 40
1.5000000000000002
 50
89.999999999999915
 51
179.99999999999983
  0
LINE
  8
_0-1_計細線
  6
CONTINUOUS
 62
    3
 10
985.18273557557779
 20
476.91031608886425
 11
750.18260941555229
 21
476.91031608886425
  0
LINE
  8
_0-1_計細線
  6
CONTINUOUS
 62
    3
 10
986.18273557557768
 20
475.91031608886425
 11
750.18260941555229
 21
475.91031608886425
  0
LINE
  8
_0-1_計細線
  6
CONTINUOUS
 62
    3
 10
749.68260941555218
 20
474.41033280886802
 11
749.68260941555218
 21
475.41031608886431
  0
ARC
  8
_0-1_計細線
  6
CONTINUOUS
 62
    3
 10
750.18260941555229
 20
475.41031608886431
 40
0.5
 50
89.999999999999915
 51
179.99999999999983
  0
LINE
  8
_0-1_計細線
  6
CONTINUOUS
 62
    3
 10
749.68260941555218
 20
474.41033280886802
 11
749.68260941555218
 21
473.41031608886385
  0
ARC
  8
_0-1_計細線
  6
CONTINUOUS
 62
    3
 10
748.18260941555218
 20
473.41031608886385
 40
1.5000000000000002
 50
269.99999999999977
 51
359.99999999999966
  0
LINE
  8
_0-1_計細線
  6
CONTINUOUS
 62
    3
 10
748.68260941555036
 20
474.91029936886008
 11
748.68260941555036
 21
473.41031608886385
  0
ARC
  8
_0-1_計細線
  6
CONTINUOUS
 62
    3
 10
748.18260941555036
 20
473.41031608886385
 40
0.5
 50
269.99999999999977
 51
359.99999999999966
  0
LINE
  8
_0-1_計細線
  6
CONTINUOUS
 62
    3
 10
748.68260941555218
 20
475.41031608886431
 11
748.68260941555218
 21
474.91029936886008
  0
LINE
  8
_0-1_計細線
  6
CONTINUOUS
 62
    3
 10
748.08417943257029
 20
472.91031608886385
 11
748.18260941555218
 21
472.91031608886385
  0
LINE
  8
_0-1_計細線
  6
CONTINUOUS
 62
    3
 10
748.18260941555218
 20
471.91031608886385
 11
748.08417943257029
 21
471.91031608886385
  0
LINE
  8
_0-1_計細線
  6
CONTINUOUS
 62
    3
 10
748.08417943257029
 20
471.91031608886385
 11
747.58273557557732
 21
471.91031608886385
  0
LINE
  8
_0-1_計細線
  6
CONTINUOUS
 62
    3
 10
748.18260941555036
 20
472.91031608886385
 11
747.58273557557732
 21
472.91031608886385
  0
ARC
  8
_0-1_計細線
  6
CONTINUOUS
 62
    3
 10
631.18286173560318
 20
475.41031608886431
 40
1.5000000000000002
 50
0
 51
89.999999999999915
  0
LINE
  8
_0-1_計細線
  6
CONTINUOUS
 62
    3
 10
631.68286173560318
 20
474.41033280886802
 11
631.68286173560318
 21
475.41031608886431
  0
ARC
  8
_0-1_計細線
  6
CONTINUOUS
 62
    3
 10
631.18286173560318
 20
475.41031608886431
 40
0.5
 50
0
 51
89.999999999999915
  0
LINE
  8
_0-1_計細線
  6
CONTINUOUS
 62
    3
 10
631.68286173560318
 20
474.41033280886802
 11
631.68286173560318
 21
473.41031608886385
  0
ARC
  8
_0-1_計細線
  6
CONTINUOUS
 62
    3
 10
633.18286173560318
 20
473.41031608886385
 40
1.5000000000000002
 50
179.99999999999983
 51
269.99999999999977
  0
LINE
  8
_0-1_計細線
  6
CONTINUOUS
 62
    3
 10
632.682861735605
 20
474.91029936886008
 11
632.682861735605
 21
473.41031608886385
  0
ARC
  8
_0-1_計細線
  6
CONTINUOUS
 62
    3
 10
633.182861735605
 20
473.41031608886385
 40
0.5
 50
179.99999999999983
 51
269.99999999999977
  0
LINE
  8
_0-1_計細線
  6
CONTINUOUS
 62
    3
 10
632.68286173560318
 20
475.41031608886431
 11
632.68286173560318
 21
474.91029936886008
  0
LINE
  8
_0-1_計細線
  6
CONTINUOUS
 62
    3
 10
633.28129171858518
 20
472.91031608886385
 11
633.18286173560318
 21
472.91031608886385
  0
LINE
  8
_0-1_計細線
  6
CONTINUOUS
 62
    3
 10
633.18286173560318
 20
471.91031608886385
 11
633.28129171858518
 21
471.91031608886385
  0
LINE
  8
_0-1_計細線
  6
CONTINUOUS
 62
    3
 10
633.28129171858518
 20
471.91031608886385
 11
633.78273557557804
 21
471.91031608886385
  0
LINE
  8
_0-1_計細線
  6
CONTINUOUS
 62
    3
 10
633.182861735605
 20
472.91031608886385
 11
633.78273557557804
 21
472.91031608886385
  0
LINE
  8
_0-1_計細線
  6
CONTINUOUS
 62
    3
 10
396.18273557557768
 20
476.91031608886425
 11
631.18286173560318
 21
476.91031608886425
  0
LINE
  8
_0-1_計細線
  6
CONTINUOUS
 62
    3
 10
395.18273557557745
 20
475.91031608886425
 11
631.18286173560318
 21
475.91031608886425
  0
LINE
  8
_0-1_計細線
  6
CONTINUOUS
 62
    3
 10
986.43273557557973
 20
512.41031608886419
 11
394.94379773811261
 21
512.41031608886419
  0
LINE
  8
_0-1_計細線
  6
CONTINUOUS
 62
    3
 10
394.18273557557768
 20
502.41031608886431
 11
395.18273557557745
 21
502.41031608886431
  0
ARC
  8
_0-1_計細線
  6
CONTINUOUS
 62
    3
 10
394.93273557557751
 20
511.16031608886431
 40
1.25
 50
0
 51
180.00000000002049
  0
ARC
  8
_0-1_計細線
  6
CONTINUOUS
 62
    3
 10
394.93273557557768
 20
511.16031608886431
 40
0.25
 50
0
 51
89.999999999999915
  0
LINE
  8
_0-1_計細線
  6
CONTINUOUS
 62
    3
 10
394.93273557557768
 20
511.41031608886431
 11
394.94379773811261
 21
511.41031608886431
  0
LINE
  8
_0-1_計細線
  6
CONTINUOUS
 62
    3
 10
395.18273557557745
 20
507.47668906407478
 11
394.69599076294168
 21
511.1272751588416
  0
ARC
  8
_0-1_計細線
  6
CONTINUOUS
 62
    3
 10
394.94379773811261
 20
511.16031608886431
 40
0.25
 50
89.999999999999915
 51
187.59464336857042
  0
LINE
  8
_0-1_計細線
  6
CONTINUOUS
 62
    3
 10
394.18273557557768
 20
507.27757013844331
 11
394.18273557557768
 21
502.41031608886431
  0
LINE
  8
_0-1_計細線
  6
CONTINUOUS
 62
    3
 10
394.16519137694263
 20
507.54189757862548
 11
393.68273557557728
 21
511.16031608886431
  0
ARC
  8
_0-1_計細線
  6
CONTINUOUS
 62
    3
 10
392.18273557557751
 20
507.27757013844331
 40
2
 50
0
 51
7.5946433685940278
  0
LINE
  8
_0-1_計細線
  6
CONTINUOUS
 62
    3
 10
396.18273557557768
 20
511.16031608886431
 11
396.18273557557768
 21
476.91031608886425
  0
LINE
  8
_0-1_計細線
  6
CONTINUOUS
 62
    3
 10
395.18273557557745
 20
511.16031608886431
 11
395.18273557557745
 21
475.91031608886425
  0
LINE
  8
_0-1_計細線
  6
CONTINUOUS
 62
    3
 10
987.18273557557779
 20
502.41031608886431
 11
986.18273557557802
 21
502.41031608886431
  0
LINE
  8
_0-1_計細線
  6
CONTINUOUS
 62
    3
 10
985.18273557557779
 20
511.16031608886431
 11
985.18273557557779
 21
476.91031608886425
  0
ARC
  8
_0-1_計細線
  6
CONTINUOUS
 62
    3
 10
986.43273557557791
 20
511.16031608886431
 40
1.25
 50
359.9999999999788
 51
179.99999999999946
  0
LINE
  8
_0-1_計細線
  6
CONTINUOUS
 62
    3
 10
986.18273557557802
 20
511.16031608886431
 11
986.18273557557802
 21
475.91031608886425
  0
ARC
  8
_0-1_計細線
  6
CONTINUOUS
 62
    3
 10
986.43273557557779
 20
511.16031608886431
 40
0.25
 50
89.999999999999915
 51
179.99999999999983
  0
LINE
  8
_0-1_計細線
  6
CONTINUOUS
 62
    3
 10
986.43273557557779
 20
511.41031608886431
 11
986.42167341304287
 21
511.41031608886431
  0
LINE
  8
_0-1_計細線
  6
CONTINUOUS
 62
    3
 10
986.18273557557802
 20
507.47668906407478
 11
986.66948038821374
 21
511.1272751588416
  0
ARC
  8
_0-1_計細線
  6
CONTINUOUS
 62
    3
 10
986.42167341304287
 20
511.16031608886431
 40
0.25
 50
352.4053566314289
 51
89.999999999999545
  0
LINE
  8
_0-1_計細線
  6
CONTINUOUS
 62
    3
 10
987.18273557557779
 20
507.27757013844331
 11
987.18273557557779
 21
502.41031608886431
  0
LINE
  8
_0-1_計細線
  6
CONTINUOUS
 62
    3
 10
987.20027977421285
 20
507.54189757862548
 11
987.68273557557814
 21
511.16031608886431
  0
ARC
  8
_0-1_計細線
  6
CONTINUOUS
 62
    3
 10
989.18273557557791
 20
507.27757013844331
 40
2
 50
172.40535663140597
 51
179.99999999999983
  0
LINE
  8
_0-0_計極細
  6
CENTER2
 62
    2
 10
428.68273557557768
 20
493.91031608886379
 11
428.68273557557768
 21
444.78424138380512
  0
ARC
  8
_0-1_計細線
  6
DASHED2
 62
    3
 10
433.68273542249705
 20
455.91031608886385
 40
3.0000000000000004
 50
269.99999999999977
 51
359.99999999999966
  0
LINE
  8
_0-1_計細線
  6
DASHED2
 62
    3
 10
436.68273542249699
 20
469.91031608886379
 11
436.68273542249699
 21
455.91031608886385
  0
LINE
  8
_0-1_計細線
  6
DASHED2
 62
    3
 10
423.68273572865837
 20
452.91031608886385
 11
433.68273542249705
 21
452.91031608886385
  0
ARC
  8
_0-1_計細線
  6
DASHED2
 62
    3
 10
423.68273572865837
 20
455.91031608886385
 40
3.0000000000000004
 50
179.99999999999983
 51
269.99999999999977
  0
LINE
  8
_0-1_計細線
  6
DASHED2
 62
    3
 10
420.68273572865843
 20
469.91031608886379
 11
420.68273572865843
 21
455.91031608886385
  0
LINE
  8
_0-1_計細線
  6
DASHED2
 62
    3
 10
436.68273542249699
 20
475.91031608886385
 11
434.68273542249705
 21
473.91031608886379
  0
LINE
  8
_0-1_計細線
  6
DASHED2
 62
    3
 10
434.68273542249705
 20
473.91031608886379
 11
434.68273542249705
 21
471.91031608886385
  0
LINE
  8
_0-1_計細線
  6
DASHED2
 62
    3
 10
434.68273542249705
 20
471.91031608886385
 11
436.68273542249699
 21
469.91031608886379
  0
LINE
  8
_0-1_計細線
  6
DASHED2
 62
    3
 10
420.68273572865843
 20
475.91031608886385
 11
422.68273572865837
 21
473.91031608886379
  0
LINE
  8
_0-1_計細線
  6
DASHED2
 62
    3
 10
422.68273572865837
 20
473.91031608886379
 11
422.68273572865837
 21
471.91031608886385
  0
LINE
  8
_0-1_計細線
  6
DASHED2
 62
    3
 10
422.68273572865837
 20
471.91031608886385
 11
420.68273572865843
 21
469.91031608886379
  0
LINE
  8
_0-1_計細線
  6
DASHED2
 62
    3
 10
436.68273542249699
 20
475.91031608886385
 11
436.68273542249699
 21
485.91031608886385
  0
LINE
  8
_0-1_計細線
  6
DASHED2
 62
    3
 10
436.68273542249699
 20
485.91031608886385
 11
434.68273542249705
 21
487.91031608886385
  0
LINE
  8
_0-1_計細線
  6
DASHED2
 62
    3
 10
434.68273542249705
 20
487.91031608886385
 11
422.68273572865837
 21
487.91031608886385
  0
LINE
  8
_0-1_計細線
  6
DASHED2
 62
    3
 10
420.68273572865843
 20
475.91031608886385
 11
420.68273572865843
 21
485.91031608886385
  0
LINE
  8
_0-1_計細線
  6
DASHED2
 62
    3
 10
422.68273572865837
 20
487.91031608886385
 11
420.68273572865843
 21
485.91031608886385
  0
LINE
  8
_0-5_寸法線
  6
CONTINUOUS
 62
    7
 10
761.09361042817125
 20
512.41031608886317
 11
802.58273557557709
 21
512.41031608886283
  0
LINE
  8
_0-5_寸法線
  6
CONTINUOUS
 62
    7
 10
797.58273557557709
 20
512.41031608886283
 11
794.99454512455202
 21
522.06957435175354
  0
LINE
  8
_0-5_寸法線
  6
CONTINUOUS
 62
    7
 10
797.58273557557709
 20
512.41031608886283
 11
800.17092602660227
 21
522.06957435175354
  0
LINE
  8
_0-5_寸法線
  6
CONTINUOUS
 62
    7
 10
761.27353746236906
 20
475.91031608886459
 11
802.58273557557686
 21
475.91031608886425
  0
LINE
  8
_0-5_寸法線
  6
CONTINUOUS
 62
    7
 10
797.58273557557743
 20
552.41031608886283
 11
797.58273557557686
 21
475.91031608886425
  0
TEXT
  8
_0-5_寸法線
 62
    7
 10
797.58273557557709
 20
523.19457458517138
 40
15
 41
1
 50
90
  1
36.5
  0
LINE
  8
_0-5_寸法線
  6
CONTINUOUS
 62
    7
 10
797.58273557557686
 20
475.91031608886425
 11
800.17092602660216
 21
466.25105782597359
  0
LINE
  8
_0-5_寸法線
  6
CONTINUOUS
 62
    7
 10
797.58273557557686
 20
475.91031608886425
 11
794.99454512455168
 21
466.25105782597359
  0
LINE
  8
_0-5_寸法線
  6
CONTINUOUS
 62
    7
 10
728.68417943257055
 20
334.91029936886008
 11
802.58273557557686
 21
334.91029936886008
  0
LINE
  8
_0-5_寸法線
  6
CONTINUOUS
 62
    7
 10
797.58273557557686
 20
334.91029936886008
 11
794.99454512455168
 21
344.56955763175074
  0
LINE
  8
_0-5_寸法線
  6
CONTINUOUS
 62
    7
 10
797.58273557557686
 20
334.91029936886008
 11
800.17092602660216
 21
344.5695576317508
  0
LINE
  8
_0-5_寸法線
  6
CONTINUOUS
 62
    7
 10
797.58273557557686
 20
475.91031608886425
 11
797.58273557557686
 21
334.91029936886008
  0
TEXT
  8
_0-5_寸法線
 62
    7
 10
797.58273557557743
 20
394.16030772886381
 40
15
 41
1
 50
90
  1
141
  0
LINE
  8
_0-5_寸法線
  6
CONTINUOUS
 62
    7
 10
761.09361042817125
 20
512.41031608886328
 11
837.58273557557743
 21
512.41031608886328
  0
LINE
  8
_0-5_寸法線
  6
CONTINUOUS
 62
    7
 10
832.58273557557743
 20
512.41031608886328
 11
835.1709260266025
 21
502.75105782597268
  0
LINE
  8
_0-5_寸法線
  6
CONTINUOUS
 62
    7
 10
832.58273557557743
 20
512.41031608886328
 11
829.99454512455213
 21
502.75105782597257
  0
LINE
  8
_0-5_寸法線
  6
CONTINUOUS
 62
    7
 10
728.68417943257055
 20
334.91029936886002
 11
837.58273557557743
 21
334.91029936885917
  0
LINE
  8
_0-5_寸法線
  6
CONTINUOUS
 62
    7
 10
832.58273557557743
 20
334.91029936885917
 11
829.99454512455213
 21
344.56955763174983
  0
LINE
  8
_0-5_寸法線
  6
CONTINUOUS
 62
    7
 10
832.58273557557743
 20
334.91029936885917
 11
835.1709260266025
 21
344.56955763174989
  0
LINE
  8
_0-5_寸法線
  6
CONTINUOUS
 62
    7
 10
832.58273557557743
 20
512.41031608886328
 11
832.58273557557743
 21
334.91029936885917
  0
TEXT
  8
_0-5_寸法線
 62
    7
 10
832.58273557557789
 20
404.91030772886108
 40
15
 41
1
 50
90
  1
177.5
  0
LINE
  8
_0-1_計細線
  6
DASHED2
 62
    3
 10
399.18273557557654
 20
491.91031608886425
 11
399.18273557557654
 21
494.91031608886431
  0
LINE
  8
_0-1_計細線
  6
DASHED2
 62
    3
 10
402.18273557557586
 20
494.91031608886431
 11
402.18273557557586
 21
491.91031608886425
  0
LINE
  8
_0-1_計細線
  6
CONTINUOUS
 62
    3
 10
397.18273576450747
 20
491.91031608886425
 11
409.68273624134468
 21
491.91031608886425
  0
LINE
  8
_0-1_計細線
  6
CONTINUOUS
 62
    3
 10
409.68273624134468
 20
491.91031608886425
 11
409.6827355755766
 21
494.91031608886431
  0
LINE
  8
_0-1_計細線
  6
CONTINUOUS
 62
    3
 10
397.18273576450747
 20
491.91031608886425
 11
397.18273557557586
 21
494.91031608886431
  0
LINE
  8
_0-1_計細線
  6
CONTINUOUS
 62
    3
 10
397.18273557557586
 20
494.91031608886431
 11
409.6827355755766
 21
494.91031608886431
  0
LINE
  8
_0-1_計細線
  6
CONTINUOUS
 62
    3
 10
1135.1686426409726
 20
660.91044224889015
 11
1133.6686593609759
 21
660.91044224889015
  0
ARC
  8
_0-1_計細線
  6
CONTINUOUS
 62
    3
 10
1135.1686426409726
 20
662.91044224889015
 40
2
 50
269.99999999999977
 51
359.99999999999966
  0
LINE
  8
_0-1_計細線
  6
CONTINUOUS
 62
    3
 10
1137.1686426409726
 20
662.91044224889015
 11
1137.1686426409726
 21
668.41031608886419
  0
LINE
  8
_0-1_計細線
  6
CONTINUOUS
 62
    3
 10
1135.1686426409726
 20
777.91018992883778
 11
1133.6686593609768
 21
777.91018992883778
  0
ARC
  8
_0-1_計細線
  6
CONTINUOUS
 62
    3
 10
1135.1686426409726
 20
775.91018992883789
 40
2
 50
0
 51
89.999999999999915
  0
LINE
  8
_0-1_計細線
  6
CONTINUOUS
 62
    3
 10
1137.1686426409726
 20
764.41031608886419
 11
1137.1686426409726
 21
775.91018992883789
  0
LINE
  8
_0-1_計細線
  6
CONTINUOUS
 62
    3
 10
1137.1686426409726
 20
663.67154008886405
 11
1137.1686426409726
 21
764.41031608886419
  0
ARC
  8
_0-1_計細線
  6
CONTINUOUS
 62
    3
 10
1098.418659360977
 20
790.16031601232442
 40
1.25
 50
89.999999999999915
 51
179.99999999999983
  0
LINE
  8
_0-1_計細線
  6
CONTINUOUS
 62
    3
 10
1102.3014053113977
 20
790.91031601232385
 11
1107.168659360977
 21
790.91031601232385
  0
LINE
  8
_0-1_計細線
  6
CONTINUOUS
 62
    3
 10
1102.0370778712158
 20
790.92786021095878
 11
1098.418659360977
 21
791.41031601232442
  0
ARC
  8
_0-1_計細線
  6
CONTINUOUS
 62
    3
 10
1102.3014053113977
 20
792.91031601232385
 40
2
 50
262.40535663140565
 51
269.99999999999977
  0
LINE
  8
_0-1_計細線
  6
CONTINUOUS
 62
    3
 10
1097.1686593609777
 20
790.16031601232442
 11
1097.168659360977
 21
648.66031616540408
  0
LINE
  8
_0-1_計細線
  6
CONTINUOUS
 62
    3
 10
1107.168659360977
 20
647.91031616540454
 11
1107.168659360977
 21
790.91031601232385
  0
ARC
  8
_0-1_計細線
  6
CONTINUOUS
 62
    3
 10
1098.418659360977
 20
648.66031616540408
 40
1.25
 50
179.99999999999983
 51
269.99999999999977
  0
LINE
  8
_0-1_計細線
  6
CONTINUOUS
 62
    3
 10
1102.3014053113977
 20
647.91031616540454
 11
1107.168659360977
 21
647.91031616540454
  0
LINE
  8
_0-1_計細線
  6
CONTINUOUS
 62
    3
 10
1102.0370778712158
 20
647.89277196676971
 11
1098.418659360977
 21
647.41031616540408
  0
ARC
  8
_0-1_計細線
  6
CONTINUOUS
 62
    3
 10
1102.3014053113977
 20
645.91031616540465
 40
2
 50
89.999999999999915
 51
97.594643368594035
  0
LINE
  8
_0-1_計細線
  6
CONTINUOUS
 62
    3
 10
1133.6686593609768
 20
789.91031601232396
 11
1133.6686593609768
 21
648.91031616540477
  0
LINE
  8
_0-1_計細線
  6
CONTINUOUS
 62
    3
 10
1133.6686593609768
 20
789.91031601232396
 11
1107.168659360977
 21
789.91031601232396
  0
LINE
  8
_0-1_計細線
  6
CONTINUOUS
 62
    3
 10
1133.6686593609768
 20
648.91031616540454
 11
1107.168659360977
 21
648.91031616540454
  0
LINE
  8
_0-0_計極細
  6
CONTINUOUS
 62
    2
 10
1123.6685785409784
 20
789.9103160123243
 11
1123.6685785409784
 21
791.11031601232366
  0
LINE
  8
_0-0_計極細
  6
CONTINUOUS
 62
    2
 10
1133.6686593609768
 20
789.9103160123243
 11
1133.6686593609768
 21
791.11031601232366
  0
LINE
  8
_0-0_計極細
  6
CONTINUOUS
 62
    2
 10
1135.6686593609768
 20
789.91031601232396
 11
1135.6686593609768
 21
791.11031601232366
  0
LINE
  8
_0-0_計極細
  6
CONTINUOUS
 62
    2
 10
1137.6686593609768
 20
789.91031601232396
 11
1137.6686593609768
 21
791.11031601232366
  0
LINE
  8
_0-0_計極細
  6
CONTINUOUS
 62
    2
 10
1139.668659360977
 20
789.91031601232396
 11
1139.668659360977
 21
791.11031601232366
  0
LINE
  8
_0-0_計極細
  6
CONTINUOUS
 62
    2
 10
1153.6686593609768
 20
789.91031601232396
 11
1153.6686593609768
 21
791.11031601232366
  0
LINE
  8
_0-1_計細線
  6
CONTINUOUS
 62
    3
 10
1121.6685785409784
 20
791.11031601232366
 11
1156.6686593609768
 21
791.11031601232366
  0
LINE
  8
_0-1_計細線
  6
CONTINUOUS
 62
    3
 10
1156.6686593609768
 20
791.11031601232366
 11
1156.6686593609768
 21
789.91031601232396
  0
LINE
  8
_0-1_計細線
  6
CONTINUOUS
 62
    3
 10
1121.6685785409784
 20
789.9103160123243
 11
1121.6685785409784
 21
791.11031601232366
  0
LINE
  8
_0-1_計細線
  6
CONTINUOUS
 62
    3
 10
1156.6686593609768
 20
789.91031601232396
 11
1121.6685785409784
 21
789.91031601232396
  0
LINE
  8
_0-0_計極細
  6
CONTINUOUS
 62
    2
 10
1123.6685785409784
 20
647.71031616540529
 11
1123.6685785409784
 21
648.91031616540477
  0
LINE
  8
_0-0_計極細
  6
CONTINUOUS
 62
    2
 10
1133.6686593609768
 20
647.71031616540529
 11
1133.6686593609768
 21
648.91031616540477
  0
LINE
  8
_0-0_計極細
  6
CONTINUOUS
 62
    2
 10
1135.6686593609768
 20
647.71031616540495
 11
1135.6686593609768
 21
648.91031616540477
  0
LINE
  8
_0-0_計極細
  6
CONTINUOUS
 62
    2
 10
1137.6686593609768
 20
647.71031616540495
 11
1137.6686593609768
 21
648.91031616540477
  0
LINE
  8
_0-0_計極細
  6
CONTINUOUS
 62
    2
 10
1139.668659360977
 20
647.71031616540495
 11
1139.668659360977
 21
648.91031616540477
  0
LINE
  8
_0-0_計極細
  6
CONTINUOUS
 62
    2
 10
1153.6686593609768
 20
647.71031616540495
 11
1153.6686593609768
 21
648.91031616540454
  0
LINE
  8
_0-1_計細線
  6
CONTINUOUS
 62
    3
 10
1121.6685785409784
 20
648.91031616540477
 11
1156.6686593609768
 21
648.91031616540454
  0
LINE
  8
_0-1_計細線
  6
CONTINUOUS
 62
    3
 10
1156.6686593609768
 20
648.91031616540454
 11
1156.6686593609768
 21
647.71031616540495
  0
LINE
  8
_0-1_計細線
  6
CONTINUOUS
 62
    3
 10
1121.6685785409784
 20
647.71031616540529
 11
1121.6685785409784
 21
648.91031616540477
  0
LINE
  8
_0-1_計細線
  6
CONTINUOUS
 62
    3
 10
1156.6686593609768
 20
647.71031616540495
 11
1121.6685785409784
 21
647.71031616540495
  0
LINE
  8
_0-5_寸法線
  6
CONTINUOUS
 62
    7
 10
1097.168659360977
 20
801.41031608886419
 11
1097.168659360977
 21
846.41031608886419
  0
LINE
  8
_0-5_寸法線
  6
CONTINUOUS
 62
    7
 10
1097.168659360977
 20
841.41031608886419
 11
1087.5094010980861
 21
838.82212563783912
  0
LINE
  8
_0-5_寸法線
  6
CONTINUOUS
 62
    7
 10
1097.168659360977
 20
841.41031608886419
 11
1087.5094010980861
 21
843.99850653988949
  0
LINE
  8
_0-5_寸法線
  6
CONTINUOUS
 62
    7
 10
1133.6686593609768
 20
798.91031608886419
 11
1133.6686593609768
 21
846.41031608886419
  0
CIRCLE
  8
_0-5_寸法線
  6
CONTINUOUS
 62
    1
 10
1133.6686593609768
 20
841.41031608886419
 40
1.5000000000000002
  0
LINE
  8
_0-5_寸法線
  6
CONTINUOUS
 62
    7
 10
1057.168659360977
 20
841.41031608886419
 11
1133.6686593609768
 21
841.41031608886419
  0
TEXT
  8
_0-5_寸法線
 62
    7
 10
1057.6149898553167
 20
841.41031608886419
 40
15
 41
1
 50
0
  1
36.5
  0
LINE
  8
_0-5_寸法線
  6
CONTINUOUS
 62
    7
 10
1156.6686593609768
 20
800.11031608886378
 11
1156.6686593609768
 21
846.41031608886419
  0
LINE
  8
_0-5_寸法線
  6
CONTINUOUS
 62
    7
 10
1156.6686593609768
 20
841.41031608886419
 11
1166.3279176238675
 21
843.99850653988949
  0
LINE
  8
_0-5_寸法線
  6
CONTINUOUS
 62
    7
 10
1156.6686593609768
 20
841.41031608886419
 11
1166.3279176238675
 21
838.82212563783901
  0
LINE
  8
_0-5_寸法線
  6
CONTINUOUS
 62
    7
 10
1133.6686593609768
 20
841.41031608886419
 11
1182.4125574294892
 21
841.41031608886419
  0
TEXT
  8
_0-5_寸法線
 62
    7
 10
1167.4125574294892
 20
841.41031608886419
 40
15
 41
1
 50
0
  1
23
  0
LINE
  8
_0-5_寸法線
  6
CONTINUOUS
 62
    7
 10
1097.168659360977
 20
801.41031608886419
 11
1097.168659360977
 21
881.41031608886419
  0
LINE
  8
_0-5_寸法線
  6
CONTINUOUS
 62
    7
 10
1097.168659360977
 20
876.41031608886419
 11
1106.8279176238675
 21
878.99850653988949
  0
LINE
  8
_0-5_寸法線
  6
CONTINUOUS
 62
    7
 10
1097.168659360977
 20
876.41031608886419
 11
1106.8279176238675
 21
873.82212563783912
  0
LINE
  8
_0-5_寸法線
  6
CONTINUOUS
 62
    7
 10
1156.6686593609768
 20
800.11031608886378
 11
1156.6686593609768
 21
881.41031608886419
  0
LINE
  8
_0-5_寸法線
  6
CONTINUOUS
 62
    7
 10
1156.6686593609768
 20
876.41031608886419
 11
1147.0094010980861
 21
873.82212563783912
  0
LINE
  8
_0-5_寸法線
  6
CONTINUOUS
 62
    7
 10
1156.6686593609768
 20
876.41031608886419
 11
1147.0094010980861
 21
878.99850653988949
  0
LINE
  8
_0-5_寸法線
  6
CONTINUOUS
 62
    7
 10
1097.168659360977
 20
876.41031608886419
 11
1156.6686593609768
 21
876.41031608886419
  0
TEXT
  8
_0-5_寸法線
 62
    7
 10
1111.9186593609768
 20
876.41031608886408
 40
15
 41
1
 50
0
  1
59.5
  0
LINE
  8
_0-0_計極細
  6
CENTER2
 62
    2
 10
1085.7419243719821
 20
719.41031608886419
 11
1150.479670441475
 21
719.41031608886419
  0
LINE
  8
_0-5_寸法線
  6
CONTINUOUS
 62
    7
 10
652.88073967585785
 20
434.55510149459229
 11
649.43365965063526
 21
419.95655227558734
  0
LINE
  8
_0-5_寸法線
  6
CONTINUOUS
 62
    7
 10
652.88073967585785
 20
434.55510149459229
 11
642.59620619563464
 21
423.63592702514785
  0
LINE
  8
_0-5_寸法線
  6
CONTINUOUS
 62
    7
 10
652.88073967585785
 20
434.55510149459229
 11
623.16760808185927
 21
379.33861279619686
  0
LINE
  8
_0-5_寸法線
  6
CONTINUOUS
 62
    7
 10
623.16760808185927
 20
379.33861279619686
 11
491.16760808185927
 21
379.33861279619686
  0
TEXT
  8
_0-5_寸法線
 62
    7
 10
491.16760808185927
 20
379.33861279619686
 40
15
 41
0.7999999999999997
 50
0
  1
縦引き排水トラップ一式
  0
TEXT
  8
_0-7_枠細線
 62
    5
 10
960.50000000000011
 20
149.53034845114914
 40
20
 41
0.6
 50
0
  1
フリースタイルユニット
  0
TEXT
  8
_0-7_枠細線
 62
    5
 10
1194
 20
117.5
 40
20
 41
0.6999999999999997
 50
0
  1
１：５
  0
TEXT
  8
_0-7_枠細線
 62
    5
 10
1310
 20
67.5
 40
15
 41
0.6666666666666666
 50
0
  1
２０２０年０７月０１日
  0
TEXT
  8
_0-7_枠細線
 62
    5
 10
1375
 20
95
 40
20
 41
1
 50
0
  1
石井
  0
LINE
  8
_0-5_寸法線
  6
CONTINUOUS
 62
    7
 10
987.68273557557791
 20
801.41031608886419
 11
987.68273557557848
 21
881.41031608886419
  0
LINE
  8
_0-5_寸法線
  6
CONTINUOUS
 62
    7
 10
987.68273557557848
 20
876.41031608886419
 11
997.34199383846908
 21
878.99850653988949
  0
LINE
  8
_0-5_寸法線
  6
CONTINUOUS
 62
    7
 10
987.68273557557848
 20
876.41031608886419
 11
997.34199383846908
 21
873.82212563783901
  0
LINE
  8
_0-5_寸法線
  6
CONTINUOUS
 62
    7
 10
985.18273557557791
 20
801.41031608886419
 11
985.1827355755795
 21
881.41031608886419
  0
LINE
  8
_0-5_寸法線
  6
CONTINUOUS
 62
    7
 10
1027.6827355755786
 20
876.41031608886419
 11
985.18273557557927
 21
876.41031608886419
  0
TEXT
  8
_0-5_寸法線
 62
    7
 10
1004.0116855050908
 20
876.41031608886374
 40
15
 41
1
 50
0
  1
2.5
  0
LINE
  8
_0-5_寸法線
  6
CONTINUOUS
 62
    7
 10
985.18273557557927
 20
876.41031608886419
 11
975.52347731268867
 21
873.82212563783912
  0
LINE
  8
_0-5_寸法線
  6
CONTINUOUS
 62
    7
 10
985.18273557557927
 20
876.41031608886419
 11
975.52347731268867
 21
878.99850653988949
  0
LINE
  8
_0-5_寸法線
  6
CONTINUOUS
 62
    7
 10
396.18273557557785
 20
801.41031608886419
 11
396.18273557557939
 21
881.41031608886419
  0
LINE
  8
_0-5_寸法線
  6
CONTINUOUS
 62
    7
 10
396.18273557557927
 20
876.41031608886419
 11
405.84199383846993
 21
878.99850653988949
  0
LINE
  8
_0-5_寸法線
  6
CONTINUOUS
 62
    7
 10
396.18273557557927
 20
876.41031608886419
 11
405.84199383846993
 21
873.82212563783912
  0
LINE
  8
_0-5_寸法線
  6
CONTINUOUS
 62
    7
 10
985.18273557557927
 20
876.41031608886419
 11
396.18273557557927
 21
876.41031608886419
  0
TEXT
  8
_0-5_寸法線
 62
    7
 10
679.43273557557882
 20
876.41031608886374
 40
15
 41
1
 50
0
  1
589
  0
LINE
  8
_0-5_寸法線
  6
CONTINUOUS
 62
    7
 10
393.68273557557785
 20
801.41031608886419
 11
393.6827355755787
 21
881.41031608886419
  0
LINE
  8
_0-5_寸法線
  6
CONTINUOUS
 62
    7
 10
393.68273557557865
 20
876.41031608886419
 11
384.02347731268787
 21
873.82212563783912
  0
LINE
  8
_0-5_寸法線
  6
CONTINUOUS
 62
    7
 10
393.68273557557865
 20
876.41031608886419
 11
384.02347731268799
 21
878.99850653988949
  0
LINE
  8
_0-5_寸法線
  6
CONTINUOUS
 62
    7
 10
396.18273557557927
 20
876.41031608886419
 11
353.68273557557865
 21
876.41031608886419
  0
TEXT
  8
_0-5_寸法線
 62
    7
 10
356.40195429152465
 20
876.41031608886419
 40
15
 41
1
 50
0
  1
2.5
  0
LINE
  8
_0-5_寸法線
  6
CONTINUOUS
 62
    7
 10
402.18273557557734
 20
801.41031608886419
 11
402.18273557557751
 21
846.41031608886419
  0
LINE
  8
_0-5_寸法線
  6
CONTINUOUS
 62
    7
 10
402.18273557557751
 20
841.41031608886419
 11
411.84199383846817
 21
843.99850653988949
  0
LINE
  8
_0-5_寸法線
  6
CONTINUOUS
 62
    7
 10
402.18273557557751
 20
841.41031608886419
 11
411.84199383846817
 21
838.82212563783912
  0
LINE
  8
_0-5_寸法線
  6
CONTINUOUS
 62
    7
 10
979.18273557557825
 20
801.41031608886419
 11
979.18273557557836
 21
846.41031608886419
  0
LINE
  8
_0-5_寸法線
  6
CONTINUOUS
 62
    7
 10
979.18273557557836
 20
841.41031608886419
 11
969.52347731268776
 21
838.82212563783912
  0
LINE
  8
_0-5_寸法線
  6
CONTINUOUS
 62
    7
 10
979.18273557557836
 20
841.41031608886419
 11
969.52347731268776
 21
843.99850653988949
  0
LINE
  8
_0-5_寸法線
  6
CONTINUOUS
 62
    7
 10
402.18273557557751
 20
841.41031608886419
 11
979.18273557557836
 21
841.41031608886419
  0
TEXT
  8
_0-5_寸法線
 62
    7
 10
679.43273557557791
 20
841.41031608886419
 40
15
 41
1
 50
0
  1
577
  0
ARC
  8
_0-1_計細線
  6
DASHED2
 62
    3
 10
779.18273557557768
 20
719.41031608886419
 40
12.5
 50
53.13010235415598
 51
216.86989764584365
  0
ARC
  8
_0-1_計細線
  6
DASHED2
 62
    3
 10
779.18273557557768
 20
719.41031608886419
 40
12.5
 50
216.86989764584365
 51
53.130102354155625
  0
ARC
  8
_0-1_計細線
  6
DASHED2
 62
    3
 10
602.18273557557768
 20
719.41031608886419
 40
12.5
 50
53.13010235415598
 51
216.86989764584365
  0
ARC
  8
_0-1_計細線
  6
DASHED2
 62
    3
 10
602.18273557557768
 20
719.41031608886419
 40
12.5
 50
216.86989764584365
 51
53.130102354155625
  0
ARC
  8
_0-0_計極細
  6
CONTINUOUS
 62
    2
 10
576.06170044480882
 20
748.41675118329476
 40
54.312365187078854
 50
327.72737804884275
 51
41.725734002915807
  0
ARC
  8
_0-0_計極細
  6
CONTINUOUS
 62
    2
 10
714.00474764622129
 20
748.41675118329476
 40
54.312365187078854
 50
327.72737804884275
 51
41.717250014225037
  0
ARC
  8
_0-0_計極細
  6
CONTINUOUS
 62
    2
 10
805.84881141127323
 20
690.41675118347098
 40
54.312365187078854
 50
147.72737804884292
 51
222.99973043384148
  0
ARC
  8
_0-0_計極細
  6
CONTINUOUS
 62
    2
 10
667.90576420986076
 20
690.41675118347098
 40
54.312365187078854
 50
147.72737804884292
 51
222.98978477068863
  0
TEXT
  8
_0-7_枠細線
 62
    5
 10
961.4307702470602
 20
110
 40
20
 41
0.6
 50
0
  1
ＨＴＡＴ－１５Ｌ６００
  0
LINE
  8
_1-5_寸法3
  6
CONTINUOUS
 62
    7
 10
1002.3268429194803
 20
313.16744246628792
 11
957.32684291948067
 21
313.16744246628804
  0
LINE
  8
_1-5_寸法3
  6
CONTINUOUS
 62
    7
 10
962.32684291948067
 20
313.16744246628804
 11
964.91503337050574
 21
303.50818420339738
  0
LINE
  8
_1-5_寸法3
  6
CONTINUOUS
 62
    7
 10
962.32684291948067
 20
313.16744246628804
 11
959.73865246845548
 21
303.50818420339738
  0
LINE
  8
_1-5_寸法3
  6
CONTINUOUS
 62
    7
 10
1004.8268429194807
 20
252.3341091329545
 11
957.32684291948067
 21
252.33410913295461
  0
LINE
  8
_1-5_寸法3
  6
CONTINUOUS
 62
    7
 10
962.32684291948067
 20
252.33410913295461
 11
959.73865246845548
 21
261.99336739584527
  0
LINE
  8
_1-5_寸法3
  6
CONTINUOUS
 62
    7
 10
962.32684291948067
 20
252.33410913295461
 11
964.91503337050574
 21
261.99336739584527
  0
LINE
  8
_1-5_寸法3
  6
CONTINUOUS
 62
    7
 10
962.32684291948067
 20
313.16744246628804
 11
962.32684291948067
 21
252.33410913295461
  0
TEXT
  8
_1-5_寸法3
 62
    7
 10
962.32684291948067
 20
267.75077579962118
 40
15
 41
1
 50
90
  1
36.5
  0
LINE
  8
_1-5_寸法3
  6
CONTINUOUS
 62
    7
 10
1262.3268429194804
 20
313.16744246628775
 11
1307.3268429194807
 21
313.16744246628735
  0
LINE
  8
_1-5_寸法3
  6
CONTINUOUS
 62
    7
 10
1302.3268429194807
 20
313.16744246628741
 11
1304.9150333705056
 21
303.50818420339681
  0
LINE
  8
_1-5_寸法3
  6
CONTINUOUS
 62
    7
 10
1302.3268429194807
 20
313.16744246628741
 11
1299.7386524684553
 21
303.50818420339681
  0
LINE
  8
_1-5_寸法3
  6
CONTINUOUS
 62
    7
 10
1262.3268429194804
 20
296.50077579962107
 11
1307.3268429194807
 21
296.50077579962067
  0
LINE
  8
_1-5_寸法3
  6
CONTINUOUS
 62
    7
 10
1302.3268429194807
 20
296.50077579962073
 11
1299.7386524684553
 21
306.16003406251139
  0
LINE
  8
_1-5_寸法3
  6
CONTINUOUS
 62
    7
 10
1302.3268429194807
 20
296.50077579962073
 11
1304.9150333705056
 21
306.16003406251139
  0
LINE
  8
_1-5_寸法3
  6
CONTINUOUS
 62
    7
 10
1302.3268429194807
 20
313.16744246628741
 11
1302.3268429194807
 21
296.50077579962073
  0
TEXT
  8
_1-5_寸法3
 62
    7
 10
1302.3268429194807
 20
297.33410913295404
 40
15
 41
1
 50
90
  1
10
  0
TEXT
  8
_0-7_枠細線
 62
    5
 10
1084.2722986078838
 20
206.08585173847675
 40
25
 41
0.8
 50
0
  1
断面詳細図
  0
LINE
  8
_1-2_極細3
  6
CENTER1
 62
    2
 10
1132.3268429194804
 20
326.24754095382252
 11
1132.3268429194804
 21
243.84949882074523
  0
LINE
  8
_1-2_極細3
  6
CONTINUOUS
 62
    2
 10
1251.4935094585799
 20
296.50077579961811
 11
1249.8268427919134
 21
296.50077579961811
  0
LINE
  8
_1-2_極細3
  6
CONTINUOUS
 62
    2
 10
1248.1601761252464
 20
311.08410913295137
 11
1248.1601761252464
 21
254.00077579961811
  0
ARC
  8
_1-2_極細3
  6
CONTINUOUS
 62
    2
 10
1250.2435094585803
 20
311.08410913295137
 40
2.0833333333333339
 50
359.99999999998244
 51
179.99999999999946
  0
LINE
  8
_1-2_極細3
  6
CONTINUOUS
 62
    2
 10
1249.8268427919134
 20
311.08410913295148
 11
1249.8268427919134
 21
252.33410913295131
  0
ARC
  8
_1-2_極細3
  6
CONTINUOUS
 62
    2
 10
1250.2435094585799
 20
311.08410913295137
 40
0.4166666666666667
 50
89.999999999999915
 51
179.99999999998437
  0
LINE
  8
_1-2_極細3
  6
CONTINUOUS
 62
    2
 10
1250.2435094585799
 20
311.50077579961811
 11
1250.2250725210215
 21
311.50077579961811
  0
LINE
  8
_1-2_極細3
  6
CONTINUOUS
 62
    2
 10
1249.8268427919134
 20
304.94473075830228
 11
1250.6380841463065
 21
311.02904091624686
  0
ARC
  8
_1-2_極細3
  6
CONTINUOUS
 62
    2
 10
1250.2250725210215
 20
311.08410913295137
 40
0.4166666666666667
 50
352.4053566314289
 51
89.999999999999545
  0
LINE
  8
_1-2_極細3
  6
CONTINUOUS
 62
    2
 10
1249.8268427919134
 20
252.33410913295131
 11
1014.826843047048
 21
252.33410913295131
  0
LINE
  8
_1-2_極細3
  6
CONTINUOUS
 62
    2
 10
1248.1601761252464
 20
254.00077579961811
 11
1016.4935097137151
 21
254.00077579961811
  0
LINE
  8
_1-2_極細3
  6
CONTINUOUS
 62
    2
 10
1251.4935094585799
 20
304.61286588224954
 11
1251.4935094585799
 21
296.50077579961811
  0
LINE
  8
_1-2_極細3
  6
CONTINUOUS
 62
    2
 10
1251.5227497896381
 20
305.05341161588649
 11
1252.3268427919138
 21
311.08410913295137
  0
ARC
  8
_1-2_極細3
  6
CONTINUOUS
 62
    2
 10
1254.8268427919134
 20
304.61286588224971
 40
3.3333333333333339
 50
172.40535663140824
 51
180.00000000000256
  0
LINE
  8
_1-2_極細3
  6
CONTINUOUS
 62
    2
 10
1013.1601763803815
 20
296.50077579961811
 11
1014.826843047048
 21
296.50077579961811
  0
LINE
  8
_1-2_極細3
  6
CONTINUOUS
 62
    2
 10
1016.4935097137151
 20
311.08410913295137
 11
1016.4935097137151
 21
254.00077579961811
  0
ARC
  8
_1-2_極細3
  6
CONTINUOUS
 62
    2
 10
1014.410176380381
 20
311.08410913295137
 40
2.0833333333333339
 50
0
 51
180.00000000001685
  0
LINE
  8
_1-2_極細3
  6
CONTINUOUS
 62
    2
 10
1014.826843047048
 20
311.08410913295148
 11
1014.826843047048
 21
252.33410913295131
  0
ARC
  8
_1-2_極細3
  6
CONTINUOUS
 62
    2
 10
1014.4101763803815
 20
311.08410913295137
 40
0.4166666666666667
 50
0.000000000015633
 51
89.999999999999915
  0
LINE
  8
_1-2_極細3
  6
CONTINUOUS
 62
    2
 10
1014.4101763803815
 20
311.50077579961811
 11
1014.4286133179399
 21
311.50077579961811
  0
LINE
  8
_1-2_極細3
  6
CONTINUOUS
 62
    2
 10
1014.826843047048
 20
304.94473075830228
 11
1014.015601692655
 21
311.02904091624686
  0
ARC
  8
_1-2_極細3
  6
CONTINUOUS
 62
    2
 10
1014.4286133179399
 20
311.08410913295137
 40
0.4166666666666667
 50
89.999999999999915
 51
187.59464336857042
  0
LINE
  8
_1-2_極細3
  6
CONTINUOUS
 62
    2
 10
1013.1601763803815
 20
304.61286588224954
 11
1013.1601763803815
 21
296.50077579961811
  0
LINE
  8
_1-2_極細3
  6
CONTINUOUS
 62
    2
 10
1013.1309360493233
 20
305.05341161588649
 11
1012.326843047048
 21
311.08410913295137
  0
ARC
  8
_1-2_極細3
  6
CONTINUOUS
 62
    2
 10
1009.826843047048
 20
304.61286588224971
 40
3.3333333333333339
 50
359.9999999999967
 51
7.5946433685914272
  0
TEXT
  8
_0-7_枠細線
 62
    5
 10
1199.2212683570524
 20
207.83959385422182
 40
20
 41
0.6
 50
0
  1
Ｓ＝１：３
  0
LINE
  8
_1-3_細線3
  6
CONTINUOUS
 62
    4
 10
1029.826843047048
 20
287.33410913295432
 11
1029.826843047048
 21
312.33410913295432
  0
LINE
  8
_1-3_細線3
  6
CONTINUOUS
 62
    4
 10
1234.8268430470489
 20
287.33410913295518
 11
1029.826843047048
 21
287.33410913295432
  0
LINE
  8
_1-3_細線3
  6
CONTINUOUS
 62
    4
 10
1234.8268430470489
 20
312.33410913295518
 11
1234.8268430470489
 21
287.33410913295518
  0
LINE
  8
_1-3_細線3
  6
CONTINUOUS
 62
    4
 10
1238.1601763803819
 20
312.33410913295518
 11
1026.493509713715
 21
312.33410913295432
  0
LINE
  8
_1-3_細線3
  6
CONTINUOUS
 62
    4
 10
1238.1601763803819
 20
284.0007757996209
 11
1238.1601763803819
 21
312.33410913295518
  0
LINE
  8
_1-3_細線3
  6
CONTINUOUS
 62
    4
 10
1026.493509713715
 20
284.0007757996209
 11
1238.1601763803819
 21
284.0007757996209
  0
LINE
  8
_1-3_細線3
  6
CONTINUOUS
 62
    4
 10
1026.493509713715
 20
312.33410913295432
 11
1026.493509713715
 21
284.0007757996209
  0
LINE
  8
_1-5_寸法3
  6
CONTINUOUS
 62
    7
 10
1124.6694827265396
 20
290.42865189648626
 11
1093.5180364727803
 21
316.56781895865453
  0
LINE
  8
_1-5_寸法3
  6
CONTINUOUS
 62
    7
 10
1097.3482586883752
 20
313.35388091022185
 11
1094.76006823735
 21
323.01313917311256
  0
LINE
  8
_1-5_寸法3
  6
CONTINUOUS
 62
    7
 10
1097.3482586883752
 20
313.35388091022185
 11
1099.9364491394003
 21
323.01313917311256
  0
LINE
  8
_1-5_寸法3
  6
CONTINUOUS
 62
    7
 10
1124.6694827265396
 20
318.76198522982008
 11
1093.5180364727803
 21
344.90115229198835
  0
LINE
  8
_1-5_寸法3
  6
CONTINUOUS
 62
    7
 10
1097.3482586883752
 20
341.68721424355567
 11
1099.9364491394003
 21
332.02795598066501
  0
LINE
  8
_1-5_寸法3
  6
CONTINUOUS
 62
    7
 10
1097.3482586883752
 20
341.68721424355567
 11
1094.76006823735
 21
332.02795598066501
  0
LINE
  8
_1-5_寸法3
  6
CONTINUOUS
 62
    7
 10
1097.3482586883752
 20
313.35388091022185
 11
1097.3482586883752
 21
341.68721424355567
  0
TEXT
  8
_1-5_寸法3
 62
    7
 10
1097.3482586883752
 20
320.02054757688876
 40
15
 41
1
 50
90
  1
17
  0
LINE
  8
_1-5_寸法3
  6
CONTINUOUS
 62
    7
 10
1186.8713132530493
 20
284.0007757996209
 11
1189.4595037040745
 21
274.34151753673018
  0
LINE
  8
_1-5_寸法3
  6
CONTINUOUS
 62
    7
 10
1186.8713132530493
 20
284.0007757996209
 11
1184.2831228020241
 21
274.34151753673024
  0
LINE
  8
_1-5_寸法3
  6
CONTINUOUS
 62
    7
 10
1186.8713132530493
 20
287.33410913295472
 11
1184.2831228020241
 21
296.99336739584538
  0
LINE
  8
_1-5_寸法3
  6
CONTINUOUS
 62
    7
 10
1186.8713132530493
 20
287.33410913295472
 11
1189.4595037040745
 21
296.99336739584538
  0
LINE
  8
_1-5_寸法3
  6
CONTINUOUS
 62
    7
 10
1186.8713132530493
 20
259.0007757996209
 11
1186.8713132530493
 21
312.33410913295472
  0
TEXT
  8
_1-5_寸法3
 62
    7
 10
1186.8713132530493
 20
263.90334546371173
 40
15
 41
1
 50
90
  1
2
  0
ARC
  8
_1-3_細線3
  6
CONTINUOUS
 62
    4
 10
1239.5941632437516
 20
257.33410913295461
 40
3.333333333333333
 50
269.99999999999977
 51
348.69006752597693
  0
LINE
  8
_1-3_細線3
  6
CONTINUOUS
 62
    4
 10
1239.5941632437516
 20
254.00077579962118
 11
1211.7261892618749
 21
254.00077579962118
  0
LINE
  8
_1-3_細線3
  6
CONTINUOUS
 62
    4
 10
1245.6601762528139
 20
270.66744246628804
 11
1242.8627654960546
 21
256.68038868249386
  0
ARC
  8
_1-3_細線3
  6
CONTINUOUS
 62
    4
 10
1211.7261892618749
 20
257.33410913295461
 40
3.333333333333333
 50
191.3099324740254
 51
269.99999999999977
  0
LINE
  8
_1-3_細線3
  6
CONTINUOUS
 62
    4
 10
1208.4575870095728
 20
256.68038868249386
 11
1205.6601762528139
 21
270.66744246628804
  0
LINE
  8
_1-3_細線3
  6
CONTINUOUS
 62
    4
 10
1204.8268429194809
 20
284.00077579962192
 11
1246.493509586147
 21
284.00077579962147
  0
LINE
  8
_1-3_細線3
  6
CONTINUOUS
 62
    4
 10
1204.8268429194809
 20
270.66744246628804
 11
1204.8268429194809
 21
284.00077579962175
  0
LINE
  8
_1-3_細線3
  6
CONTINUOUS
 62
    4
 10
1204.8268429194809
 20
270.66744246628804
 11
1246.493509586147
 21
270.66744246628804
  0
LINE
  8
_1-3_細線3
  6
CONTINUOUS
 62
    4
 10
1246.493509586147
 20
284.00077579962147
 11
1246.493509586147
 21
270.66744246628804
  0
ARC
  8
_1-3_細線3
  6
CONTINUOUS
 62
    4
 10
1052.9274965770855
 20
257.33410913295415
 40
3.333333333333333
 50
269.99999999999977
 51
348.69006752597676
  0
LINE
  8
_1-3_細線3
  6
CONTINUOUS
 62
    4
 10
1052.9274965770855
 20
254.0007757996209
 11
1025.0595225952088
 21
254.0007757996209
  0
LINE
  8
_1-3_細線3
  6
CONTINUOUS
 62
    4
 10
1058.993509586147
 20
270.66744246628775
 11
1056.1960988293877
 21
256.68038868249357
  0
ARC
  8
_1-3_細線3
  6
CONTINUOUS
 62
    4
 10
1025.0595225952088
 20
257.33410913295415
 40
3.333333333333333
 50
191.30993247401983
 51
269.99999999999977
  0
LINE
  8
_1-3_細線3
  6
CONTINUOUS
 62
    4
 10
1021.7909203429059
 20
256.68038868249357
 11
1018.9935095861472
 21
270.66744246628775
  0
LINE
  8
_1-3_細線3
  6
CONTINUOUS
 62
    4
 10
1059.8268429194809
 20
284.00077579962118
 11
1018.160176252814
 21
284.00077579962118
  0
LINE
  8
_1-3_細線3
  6
CONTINUOUS
 62
    4
 10
1059.8268429194809
 20
270.66744246628775
 11
1059.8268429194809
 21
284.00077579962158
  0
LINE
  8
_1-3_細線3
  6
CONTINUOUS
 62
    4
 10
1018.160176252814
 20
270.66744246628775
 11
1059.8268429194809
 21
270.66744246628775
  0
LINE
  8
_1-3_細線3
  6
CONTINUOUS
 62
    4
 10
1018.160176252814
 20
284.00077579962118
 11
1018.160176252814
 21
270.66744246628775
  0
LINE
  8
_1-5_寸法3
  6
CONTINUOUS
 62
    7
 10
1012.3268430470475
 20
323.16744246628468
 11
1012.3268430470476
 21
368.16744246628468
  0
LINE
  8
_1-5_寸法3
  6
CONTINUOUS
 62
    7
 10
1012.3268430470476
 20
363.16744246628468
 11
1002.6675847841568
 21
360.57925201525956
  0
LINE
  8
_1-5_寸法3
  6
CONTINUOUS
 62
    7
 10
1012.3268430470476
 20
363.16744246628468
 11
1002.6675847841568
 21
365.75563291730992
  0
LINE
  8
_1-5_寸法3
  6
CONTINUOUS
 62
    7
 10
1016.4935097137152
 20
323.16744246628468
 11
1016.4935097137152
 21
368.16744246628468
  0
CIRCLE
  8
_1-5_寸法3
  6
CONTINUOUS
 62
    1
 10
1016.4935097137152
 20
363.16744246628468
 40
1.5000000000000002
  0
LINE
  8
_1-5_寸法3
  6
CONTINUOUS
 62
    7
 10
981.54626917360429
 20
363.16744246628468
 11
1016.4935097137152
 21
363.16744246628468
  0
TEXT
  8
_1-5_寸法3
 62
    7
 10
981.54626917360429
 20
363.16744246628474
 40
15
 41
1
 50
0
  1
2.5
  0
LINE
  8
_1-5_寸法3
  6
CONTINUOUS
 62
    7
 10
1026.493509713715
 20
323.16744246628468
 11
1026.493509713715
 21
368.16744246628468
  0
LINE
  8
_1-5_寸法3
  6
CONTINUOUS
 62
    7
 10
1016.4935097137152
 20
363.16744246628468
 11
1026.493509713715
 21
363.16744246628468
  0
TEXT
  8
_1-5_寸法3
 62
    7
 10
1017.7435097137152
 20
363.16744246628468
 40
15
 41
1
 50
0
  1
6
  0
LINE
  8
_1-5_寸法3
  6
CONTINUOUS
 62
    7
 10
1026.493509713715
 20
363.16744246628468
 11
1036.1527679766057
 21
365.75563291730987
  0
LINE
  8
_1-5_寸法3
  6
CONTINUOUS
 62
    7
 10
1026.493509713715
 20
363.16744246628468
 11
1036.1527679766057
 21
360.57925201525956
  0
LINE
  8
_1-5_寸法3
  6
CONTINUOUS
 62
    7
 10
1238.1601763803819
 20
323.16744246628468
 11
1238.1601763803819
 21
368.16744246628468
  0
LINE
  8
_1-5_寸法3
  6
CONTINUOUS
 62
    7
 10
1238.1601763803819
 20
363.16744246628468
 11
1228.5009181174912
 21
360.57925201525956
  0
LINE
  8
_1-5_寸法3
  6
CONTINUOUS
 62
    7
 10
1238.1601763803819
 20
363.16744246628468
 11
1228.5009181174912
 21
365.75563291730992
  0
LINE
  8
_1-5_寸法3
  6
CONTINUOUS
 62
    7
 10
1026.493509713715
 20
363.16744246628468
 11
1238.1601763803819
 21
363.16744246628468
  0
TEXT
  8
_1-5_寸法3
 62
    7
 10
1121.0768430470484
 20
363.16744246628468
 40
15
 41
1
 50
0
  1
127
  0
LINE
  8
_1-5_寸法3
  6
CONTINUOUS
 62
    7
 10
1248.1601761252464
 20
323.16744246628468
 11
1248.1601761252464
 21
368.16744246628468
  0
CIRCLE
  8
_1-5_寸法3
  6
CONTINUOUS
 62
    1
 10
1248.1601761252464
 20
363.16744246628468
 40
1.5000000000000002
  0
LINE
  8
_1-5_寸法3
  6
CONTINUOUS
 62
    7
 10
1238.1601763803819
 20
363.16744246628468
 11
1248.1601761252464
 21
363.16744246628468
  0
TEXT
  8
_1-5_寸法3
 62
    7
 10
1239.4101762528139
 20
363.16744246628468
 40
15
 41
1
 50
0
  1
6
  0
LINE
  8
_1-5_寸法3
  6
CONTINUOUS
 62
    7
 10
1252.3268427919138
 20
323.16744246628468
 11
1252.3268427919138
 21
368.16744246628468
  0
LINE
  8
_1-5_寸法3
  6
CONTINUOUS
 62
    7
 10
1252.3268427919138
 20
363.16744246628468
 11
1261.9861010548045
 21
365.75563291730981
  0
LINE
  8
_1-5_寸法3
  6
CONTINUOUS
 62
    7
 10
1252.3268427919138
 20
363.16744246628468
 11
1261.9861010548045
 21
360.5792520152595
  0
LINE
  8
_1-5_寸法3
  6
CONTINUOUS
 62
    7
 10
1248.1601761252464
 20
363.16744246628468
 11
1287.9538258250318
 21
363.16744246628468
  0
TEXT
  8
_1-5_寸法3
 62
    7
 10
1265.4538258250318
 20
363.16744246628468
 40
15
 41
1
 50
0
  1
2.5
  0
LINE
  8
_1-5_寸法3
  6
CONTINUOUS
 62
    7
 10
1012.3268429194807
 20
323.16744246628787
 11
1012.3268429194807
 21
403.16744246628474
  0
LINE
  8
_1-5_寸法3
  6
CONTINUOUS
 62
    7
 10
1012.3268429194807
 20
398.16744246628474
 11
1021.9861011823713
 21
400.75563291730987
  0
LINE
  8
_1-5_寸法3
  6
CONTINUOUS
 62
    7
 10
1012.3268429194807
 20
398.16744246628474
 11
1021.9861011823713
 21
395.57925201525956
  0
LINE
  8
_1-5_寸法3
  6
CONTINUOUS
 62
    7
 10
1252.3268429194804
 20
323.16744246628787
 11
1252.3268429194804
 21
403.16744246628474
  0
LINE
  8
_1-5_寸法3
  6
CONTINUOUS
 62
    7
 10
1252.3268429194804
 20
398.16744246628474
 11
1242.6675846565897
 21
395.57925201525956
  0
LINE
  8
_1-5_寸法3
  6
CONTINUOUS
 62
    7
 10
1252.3268429194804
 20
398.16744246628474
 11
1242.6675846565897
 21
400.75563291730992
  0
LINE
  8
_1-5_寸法3
  6
CONTINUOUS
 62
    7
 10
1012.3268429194807
 20
398.16744246628474
 11
1252.3268429194804
 21
398.16744246628474
  0
TEXT
  8
_1-5_寸法3
 62
    7
 10
1121.0768429194804
 20
398.16744246628468
 40
15
 41
1
 50
0
  1
144
  0
LINE
  8
_1-3_細線3
  6
CONTINUOUS
 62
    4
 10
1098.9996779350768
 20
279.00077579962147
 11
1098.9996779350768
 21
284.00077579962101
  0
LINE
  8
_1-3_細線3
  6
CONTINUOUS
 62
    4
 10
1165.6663446017437
 20
279.00077579962158
 11
1098.9996779350768
 21
279.00077579962147
  0
LINE
  8
_1-3_細線3
  6
CONTINUOUS
 62
    4
 10
1165.6663446017437
 20
284.00077579962101
 11
1165.6663446017437
 21
279.00077579962158
  0
ARC
  8
_1-3_細線3
  6
CONTINUOUS
 62
    4
 10
1146.2608299104186
 20
257.33410913295387
 40
3.333333333333333
 50
269.99999999999977
 51
348.69006752597676
  0
LINE
  8
_1-3_細線3
  6
CONTINUOUS
 62
    4
 10
1146.2608299104186
 20
254.00077579962061
 11
1118.3928559285418
 21
254.00077579962061
  0
LINE
  8
_1-3_細線3
  6
CONTINUOUS
 62
    4
 10
1152.32684291948
 20
270.66744246628747
 11
1149.5294321627207
 21
256.68038868249329
  0
ARC
  8
_1-3_細線3
  6
CONTINUOUS
 62
    4
 10
1118.3928559285418
 20
257.33410913295387
 40
3.333333333333333
 50
191.30993247401946
 51
269.99999999999977
  0
LINE
  8
_1-3_細線3
  6
CONTINUOUS
 62
    4
 10
1115.1242536762388
 20
256.68038868249329
 11
1112.32684291948
 21
270.66744246628747
  0
LINE
  8
_1-3_細線3
  6
CONTINUOUS
 62
    4
 10
1111.493509586147
 20
270.66744246628747
 11
1153.1601762528139
 21
270.66744246628747
  0
LINE
  8
_1-3_細線3
  6
CONTINUOUS
 62
    4
 10
1111.493509586147
 20
279.00077579962135
 11
1111.493509586147
 21
270.66744246628747
  0
LINE
  8
_1-3_細線3
  6
CONTINUOUS
 62
    4
 10
1153.1601762528139
 20
270.66744246628747
 11
1153.1601762528139
 21
279.00077579962158
  0
TEXT
  8
_0-7_枠細線
 62
    5
 10
205.35719220628565
 20
77.767756089039253
 40
25
 41
0.8
 50
0
  1
排水部詳細図
  0
TEXT
  8
_0-7_枠細線
 62
    5
 10
343.88293569746884
 20
78.376981502442291
 40
20
 41
0.6
 50
0
  1
Ｓ＝１：４
  0
LINE
  8
_0-a_極細1
  6
CONTINUOUS
 62
    7
 10
436.64593863632501
 20
268.22784514170445
 11
448.64593743632588
 21
268.22784514170445
  0
LINE
  8
_0-a_極細1
  6
CONTINUOUS
 62
    7
 10
436.64593863632501
 20
268.89451174170449
 11
448.64593743632588
 21
268.89451174170449
  0
LINE
  8
_0-a_極細1
  6
CONTINUOUS
 62
    7
 10
436.53851620337048
 20
269.56117834170442
 11
448.64593743632588
 21
269.56117834170442
  0
LINE
  8
_0-a_極細1
  6
CONTINUOUS
 62
    7
 10
435.87184960337038
 20
270.22784494170452
 11
448.64593743632588
 21
270.22784494170452
  0
LINE
  8
_0-a_極細1
  6
CONTINUOUS
 62
    7
 10
435.20518300337073
 20
270.8945115417045
 11
448.64593743632588
 21
270.8945115417045
  0
LINE
  8
_0-a_極細1
  6
CONTINUOUS
 62
    7
 10
435.42002786927935
 20
271.5611781417046
 11
448.64593743632588
 21
271.5611781417046
  0
LINE
  8
_0-a_極細1
  6
CONTINUOUS
 62
    7
 10
436.08669446927945
 20
272.2278447417047
 11
448.64593743632588
 21
272.2278447417047
  0
LINE
  8
_0-a_極細1
  6
CONTINUOUS
 62
    7
 10
436.64593863632501
 20
272.89451134170451
 11
448.64593743632588
 21
272.89451134170451
  0
LINE
  8
_0-a_極細1
  6
CONTINUOUS
 62
    7
 10
436.64593863632501
 20
273.56117794170461
 11
448.64593743632588
 21
273.56117794170461
  0
LINE
  8
_0-a_極細1
  6
CONTINUOUS
 62
    7
 10
436.64593863632501
 20
274.22784454170471
 11
448.64593743632588
 21
274.22784454170471
  0
LINE
  8
_0-a_極細1
  6
CONTINUOUS
 62
    7
 10
436.64593863632501
 20
274.89451114170464
 11
448.64593743632588
 21
274.89451114170464
  0
LINE
  8
_0-a_極細1
  6
CONTINUOUS
 62
    7
 10
436.64593863632501
 20
275.56117774170474
 11
448.64593743632588
 21
275.56117774170474
  0
LINE
  8
_0-a_極細1
  6
CONTINUOUS
 62
    7
 10
436.64593863632501
 20
276.22784434170484
 11
448.64593743632588
 21
276.22784434170484
  0
LINE
  8
_0-a_極細1
  6
CONTINUOUS
 62
    7
 10
436.64593863632501
 20
276.89451094170471
 11
448.64593743632588
 21
276.89451094170471
  0
LINE
  8
_0-a_極細1
  6
CONTINUOUS
 62
    7
 10
436.20518290337043
 20
277.56117754170469
 11
448.88100716056869
 21
277.56117754170469
  0
LINE
  8
_0-a_極細1
  6
CONTINUOUS
 62
    7
 10
435.53851630337033
 20
278.22784414170479
 11
449.23656268056823
 21
278.22784414170479
  0
LINE
  8
_0-a_極細1
  6
CONTINUOUS
 62
    7
 10
435.08669456928027
 20
278.89451074170483
 11
449.59211820056828
 21
278.89451074170483
  0
LINE
  8
_0-a_極細1
  6
CONTINUOUS
 62
    7
 10
435.75336116927986
 20
279.56117734170493
 11
449.94767372056833
 21
279.56117734170493
  0
LINE
  8
_0-a_極細1
  6
CONTINUOUS
 62
    7
 10
436.42002776927995
 20
280.22784394170503
 11
450.30322924056838
 21
280.22784394170503
  0
LINE
  8
_0-a_極細1
  6
CONTINUOUS
 62
    7
 10
436.64593863632501
 20
280.89451054170485
 11
450.65878476056844
 21
280.89451054170485
  0
LINE
  8
_0-a_極細1
  6
CONTINUOUS
 62
    7
 10
436.64593863632501
 20
281.56117714170495
 11
451.01434028056809
 21
281.56117714170495
  0
LINE
  8
_0-a_極細1
  6
CONTINUOUS
 62
    7
 10
470.33949256420613
 20
251.96028162200065
 11
470.33949256420613
 21
303.41009446758443
  0
LINE
  8
_0-a_極細1
  6
CONTINUOUS
 62
    7
 10
469.67282596420603
 20
251.29361502200069
 11
469.67282596420603
 21
303.26588930911868
  0
LINE
  8
_0-a_極細1
  6
CONTINUOUS
 62
    7
 10
469.00615936420593
 20
250.62694842200059
 11
469.00615936420593
 21
302.97226179095918
  0
LINE
  8
_0-a_極細1
  6
CONTINUOUS
 62
    7
 10
468.33949276420583
 20
249.9602818220007
 11
468.33949276420583
 21
302.47800091221438
  0
LINE
  8
_0-a_極細1
  6
CONTINUOUS
 62
    7
 10
467.67282616420624
 20
249.29361522200082
 11
467.67282616420624
 21
301.61459841240446
  0
LINE
  8
_0-a_極細1
  6
CONTINUOUS
 62
    7
 10
467.00615956420614
 20
248.62694862200087
 11
467.00615956420614
 21
299.01610670545978
  0
LINE
  8
_0-a_極細1
  6
CONTINUOUS
 62
    7
 10
466.33949296420604
 20
247.96028202200063
 11
466.33949296420604
 21
297.63523913959006
  0
LINE
  8
_0-a_極細1
  6
CONTINUOUS
 62
    7
 10
465.67282636420595
 20
247.43339144411991
 11
465.67282636420595
 21
296.80959875813545
  0
LINE
  8
_0-a_極細1
  6
CONTINUOUS
 62
    7
 10
465.00615976420625
 20
247.43339144411991
 11
465.00615976420625
 21
296.22551358684791
  0
LINE
  8
_0-a_極細1
  6
CONTINUOUS
 62
    7
 10
464.33949316420575
 20
247.43339144411991
 11
464.33949316420575
 21
295.79707071994551
  0
LINE
  8
_0-a_極細1
  6
CONTINUOUS
 62
    7
 10
463.67282656420605
 20
247.43339144411991
 11
463.67282656420605
 21
295.48624810775794
  0
LINE
  8
_0-a_極細1
  6
CONTINUOUS
 62
    7
 10
463.00615996420595
 20
247.43339144411991
 11
463.00615996420595
 21
295.27304508942001
  0
LINE
  8
_0-a_極細1
  6
CONTINUOUS
 62
    7
 10
462.33949336420585
 20
247.43339144411991
 11
462.33949336420585
 21
295.14634137981534
  0
LINE
  8
_0-a_極細1
  6
CONTINUOUS
 62
    7
 10
461.67282676420575
 20
247.43339144411991
 11
461.67282676420575
 21
295.10033148133107
  0
LINE
  8
_0-a_極細1
  6
CONTINUOUS
 62
    7
 10
461.00616016420565
 20
247.43339144411991
 11
461.00616016420565
 21
295.10005334412023
  0
LINE
  8
_0-a_極細1
  6
CONTINUOUS
 62
    7
 10
460.33949356420555
 20
247.43339144411991
 11
460.33949356420555
 21
295.10005334412023
  0
LINE
  8
_0-a_極細1
  6
CONTINUOUS
 62
    7
 10
459.67282696420597
 20
247.43339144411991
 11
459.67282696420597
 21
295.10005334412023
  0
LINE
  8
_0-a_極細1
  6
CONTINUOUS
 62
    7
 10
459.00616036420627
 20
247.43339144411991
 11
459.00616036420627
 21
295.10005334412023
  0
LINE
  8
_0-a_極細1
  6
CONTINUOUS
 62
    7
 10
458.33949376420617
 20
247.43339144411991
 11
458.33949376420617
 21
295.10005334412023
  0
LINE
  8
_0-a_極細1
  6
CONTINUOUS
 62
    7
 10
457.67282716420607
 20
247.43339144411991
 11
457.67282716420607
 21
295.10005334412023
  0
LINE
  8
_0-a_極細1
  6
CONTINUOUS
 62
    7
 10
457.00616056420597
 20
247.43339144411991
 11
457.00616056420597
 21
295.04108322835793
  0
LINE
  8
_0-a_極細1
  6
CONTINUOUS
 62
    7
 10
456.33949396420587
 20
247.43339144411991
 11
456.33949396420587
 21
294.84708393046719
  0
LINE
  8
_0-a_極細1
  6
CONTINUOUS
 62
    7
 10
455.67282736420577
 20
247.43339144411991
 11
455.67282736420577
 21
294.49087325695973
  0
LINE
  8
_0-a_極細1
  6
CONTINUOUS
 62
    7
 10
455.00616076420567
 20
247.43339144411991
 11
455.00616076420567
 21
293.89822283996835
  0
LINE
  8
_0-a_極細1
  6
CONTINUOUS
 62
    7
 10
454.33949416420558
 20
247.43339144411991
 11
454.33949416420558
 21
292.74785001309459
  0
LINE
  8
_0-a_極細1
  6
CONTINUOUS
 62
    7
 10
453.67282756420548
 20
247.43339144411991
 11
453.67282756420548
 21
254.10005744411976
  0
LINE
  8
_0-a_極細1
  6
CONTINUOUS
 62
    7
 10
453.00616096420538
 20
247.43339144411991
 11
453.00616096420538
 21
254.10005744411976
  0
LINE
  8
_0-a_極細1
  6
CONTINUOUS
 62
    7
 10
452.33949436420528
 20
247.43339144411991
 11
452.33949436420528
 21
254.10005744411976
  0
LINE
  8
_0-a_極細1
  6
CONTINUOUS
 62
    7
 10
451.67282776420564
 20
247.43339144411991
 11
451.67282776420564
 21
254.10005744411976
  0
LINE
  8
_0-a_極細1
  6
CONTINUOUS
 62
    7
 10
451.00616116420554
 20
247.43339144411991
 11
451.00616116420554
 21
254.10005744411976
  0
LINE
  8
_0-a_極細1
  6
CONTINUOUS
 62
    7
 10
450.33949456420544
 20
247.43339144411991
 11
450.33949456420544
 21
254.10005744411976
  0
LINE
  8
_0-a_極細1
  6
CONTINUOUS
 62
    7
 10
449.67282796420534
 20
247.43339144411991
 11
449.67282796420534
 21
254.10005744411976
  0
LINE
  8
_0-a_極細1
  6
CONTINUOUS
 62
    7
 10
449.00616136420575
 20
247.43339144411991
 11
449.00616136420575
 21
254.10005744411976
  0
LINE
  8
_0-a_極細1
  6
CONTINUOUS
 62
    7
 10
448.33949476420514
 20
247.43339144411991
 11
448.33949476420514
 21
254.10005744411976
  0
LINE
  8
_0-a_極細1
  6
CONTINUOUS
 62
    7
 10
447.67282816420555
 20
247.43339144411991
 11
447.67282816420555
 21
254.10005744411976
  0
LINE
  8
_0-a_極細1
  6
CONTINUOUS
 62
    7
 10
447.00616156420637
 20
240.7667254441198
 11
447.00616156420637
 21
260.7667234441198
  0
LINE
  8
_0-a_極細1
  6
CONTINUOUS
 62
    7
 10
446.33949496420666
 20
240.7667254441198
 11
446.33949496420666
 21
260.7667234441198
  0
LINE
  8
_0-a_極細1
  6
CONTINUOUS
 62
    7
 10
445.67282836420657
 20
240.7667254441198
 11
445.67282836420657
 21
243.07799622638467
  0
LINE
  8
_0-a_極細1
  6
CONTINUOUS
 62
    7
 10
445.67282836420657
 20
247.76932141052711
 11
445.67282836420657
 21
260.7667234441198
  0
LINE
  8
_0-a_極細1
  6
CONTINUOUS
 62
    7
 10
445.00616176420647
 20
240.7667254441198
 11
445.00616176420647
 21
241.25758983311556
  0
LINE
  8
_0-a_極細1
  6
CONTINUOUS
 62
    7
 10
445.00616176420647
 20
247.76932141052711
 11
445.00616176420647
 21
260.7667234441198
  0
LINE
  8
_0-a_極細1
  6
CONTINUOUS
 62
    7
 10
444.33949516420637
 20
247.76932141052711
 11
444.33949516420637
 21
260.7667234441198
  0
LINE
  8
_0-a_極細1
  6
CONTINUOUS
 62
    7
 10
443.67282856420627
 20
247.76932141052711
 11
443.67282856420627
 21
260.7667234441198
  0
LINE
  8
_0-a_極細1
  6
CONTINUOUS
 62
    7
 10
443.00616196420617
 20
247.76932141052711
 11
443.00616196420617
 21
260.7667234441198
  0
LINE
  8
_0-a_極細1
  6
CONTINUOUS
 62
    7
 10
442.33949536420607
 20
247.76932141052711
 11
442.33949536420607
 21
260.7667234441198
  0
LINE
  8
_0-a_極細1
  6
CONTINUOUS
 62
    7
 10
441.67282876420597
 20
247.76932141052711
 11
441.67282876420597
 21
260.7667234441198
  0
LINE
  8
_0-a_極細1
  6
CONTINUOUS
 62
    7
 10
441.00616216420588
 20
247.76932141052711
 11
441.00616216420588
 21
260.7667234441198
  0
LINE
  8
_0-a_極細1
  6
CONTINUOUS
 62
    7
 10
440.33949556420578
 20
247.76932141052711
 11
440.33949556420578
 21
260.7667234441198
  0
LINE
  8
_0-a_極細1
  6
CONTINUOUS
 62
    7
 10
439.67282896420613
 20
247.76932141052711
 11
439.67282896420613
 21
260.7667234441198
  0
LINE
  8
_0-a_極細1
  6
CONTINUOUS
 62
    7
 10
439.00616236420603
 20
247.76932141052711
 11
439.00616236420603
 21
260.7667234441198
  0
LINE
  8
_0-a_極細1
  6
CONTINUOUS
 62
    7
 10
438.33949576420594
 20
247.76932141052711
 11
438.33949576420594
 21
260.7667234441198
  0
LINE
  8
_0-a_極細1
  6
CONTINUOUS
 62
    7
 10
429.14593938632527
 20
237.76932241052734
 11
429.14593938632527
 21
247.43339144411991
  0
ARC
  8
_0-a_極細1
  6
CONTINUOUS
 62
    7
 10
419.14594038632566
 20
247.76932141052711
 40
9.999998999999999
 50
358.07490068720404
 51
50.029499419963059
  0
LINE
  8
_0-a_極細1
  6
CONTINUOUS
 62
    7
 10
470.74260189332574
 20
298.89450874170444
 11
474.93559511505657
 21
298.89450874170444
  0
LINE
  8
_0-a_極細1
  6
CONTINUOUS
 62
    7
 10
470.74260189332574
 20
299.56117534170448
 11
480.7030945383068
 21
299.56117534170448
  0
LINE
  8
_0-a_極細1
  6
CONTINUOUS
 62
    7
 10
470.74260189332574
 20
300.22784194170441
 11
486.47059396155663
 21
300.22784194170441
  0
LINE
  8
_0-a_極細1
  6
CONTINUOUS
 62
    7
 10
470.74260189332574
 20
300.89450854170451
 11
492.23809338480686
 21
300.89450854170451
  0
LINE
  8
_0-a_極細1
  6
CONTINUOUS
 62
    7
 10
470.74260189332574
 20
301.5611751417045
 11
493.81259958632535
 21
301.5611751417045
  0
LINE
  8
_0-a_極細1
  6
CONTINUOUS
 62
    7
 10
470.74260189332574
 20
302.22784174170459
 11
493.81259958632535
 21
302.22784174170459
  0
LINE
  8
_0-a_極細1
  6
CONTINUOUS
 62
    7
 10
470.74260189332574
 20
302.89450834170469
 11
493.81259958632535
 21
302.89450834170469
  0
LINE
  8
_0-a_極細1
  6
CONTINUOUS
 62
    7
 10
471.80514248870406
 20
303.56117494170479
 11
493.81259958632535
 21
303.56117494170479
  0
LINE
  8
_0-a_極細1
  6
CONTINUOUS
 62
    7
 10
476.48580616320407
 20
304.22784154170461
 11
493.81259958632535
 21
304.22784154170461
  0
LINE
  8
_0-a_極細1
  6
CONTINUOUS
 62
    7
 10
481.16646983770408
 20
304.8945081417047
 11
493.81259958632535
 21
304.8945081417047
  0
LINE
  8
_0-a_極細1
  6
CONTINUOUS
 62
    7
 10
485.84713351220364
 20
305.5611747417048
 11
493.81259958632535
 21
305.5611747417048
  0
LINE
  8
_0-a_極細1
  6
CONTINUOUS
 62
    7
 10
490.52779718670365
 20
306.22784134170473
 11
493.81259958632535
 21
306.22784134170473
  0
LINE
  8
_0-a_極細1
  6
CONTINUOUS
 62
    7
 10
493.81259958632535
 20
306.74317217980791
 11
493.81259958632535
 21
309.05257533110188
  0
LINE
  8
_0-a_極細1
  6
CONTINUOUS
 62
    7
 10
470.74260189332574
 20
305.7667189441201
 11
493.81259958632535
 21
309.05257533110188
  0
LINE
  8
_0-a_極細1
  6
CONTINUOUS
 62
    7
 10
449.14593738632504
 20
282.76931791052721
 11
449.14593738632504
 21
285.76672094411992
  0
LINE
  8
_0-a_極細1
  6
CONTINUOUS
 62
    7
 10
449.14593738632504
 20
262.43598661052687
 11
449.14593738632504
 21
267.4359861105267
  0
LINE
  8
_0-a_極細1
  6
CONTINUOUS
 62
    7
 10
436.64593863632547
 20
277.12042180875005
 11
436.64593863632547
 21
272.78708890875004
  0
LINE
  8
_0-a_極細1
  6
CONTINUOUS
 62
    7
 10
436.64593863632547
 20
269.45375590874988
 11
436.64593863632547
 21
267.78708940874998
  0
LINE
  8
_0-a_極細1
  6
CONTINUOUS
 62
    7
 10
448.64593743632588
 20
277.12042180875005
 11
448.64593743632588
 21
267.78708940874998
  0
LINE
  8
_0-a_極細1
  6
CONTINUOUS
 62
    7
 10
434.97927213632522
 20
278.78708830875001
 11
436.64593863632547
 21
280.45375480874998
  0
LINE
  8
_0-a_極細1
  6
CONTINUOUS
 62
    7
 10
436.64593863632547
 20
277.12042180875005
 11
434.97927213632522
 21
278.78708830875001
  0
LINE
  8
_0-a_極細1
  6
CONTINUOUS
 62
    7
 10
436.64593863632547
 20
269.45375590874988
 11
434.97927213632522
 21
271.12042240875013
  0
LINE
  8
_0-a_極細1
  6
CONTINUOUS
 62
    7
 10
434.97927213632522
 20
271.12042240875013
 11
436.64593863632547
 21
272.78708890875004
  0
LINE
  8
_0-a_極細1
  6
CONTINUOUS
 62
    7
 10
448.64593743632588
 20
277.12042180875005
 11
451.31260383632537
 21
282.12042130874966
  0
LINE
  8
_0-a_極細1
  6
CONTINUOUS
 62
    7
 10
436.64593863632547
 20
282.12042130874966
 11
436.64593863632547
 21
280.45375480874998
  0
ARC
  8
_0-a_極細1
  6
CONTINUOUS
 62
    7
 10
457.3126032363258
 20
302.43338594412012
 40
1.6666665000000003
 50
24.05454899999916
 51
89.999999999999915
  0
ARC
  8
_0-a_極細1
  6
CONTINUOUS
 62
    7
 10
458.31260313632595
 20
298.10005304412005
 40
0.6666665999999621
 50
269.99999999999977
 51
359.99999999999966
  0
ARC
  8
_0-a_極細1
  6
CONTINUOUS
 62
    7
 10
457.3126032363258
 20
302.43338594412012
 40
1.6666665000000003
 50
0
 51
24.05454899999916
  0
LINE
  8
_0-a_極細1
  6
CONTINUOUS
 62
    7
 10
451.81260378632544
 20
287.43338744411989
 11
451.81260378632635
 21
297.43338644412023
  0
LINE
  8
_0-a_極細1
  6
CONTINUOUS
 62
    7
 10
451.81260378632635
 20
297.43338644412023
 11
458.31260313632595
 21
297.43338644412023
  0
LINE
  8
_0-a_極細1
  6
CONTINUOUS
 62
    7
 10
458.97926973632605
 20
298.10005304412005
 11
458.97926973632605
 21
302.43338594412012
  0
LINE
  8
_0-a_極細1
  6
CONTINUOUS
 62
    7
 10
447.47927088632531
 20
247.43339144411991
 11
465.81260238632478
 21
247.43339144411991
  0
LINE
  8
_0-a_極細1
  6
CONTINUOUS
 62
    7
 10
444.71199116305354
 20
240.7667254441198
 11
447.47927088632531
 21
240.7667254441198
  0
LINE
  8
_0-a_極細1
  6
CONTINUOUS
 62
    7
 10
447.47927088632531
 20
256.43339054412013
 11
451.81260378632544
 21
256.43339054412013
  0
LINE
  8
_0-a_極細1
  6
CONTINUOUS
 62
    7
 10
447.47927088632531
 20
254.10005744411976
 11
454.14593688632533
 21
254.10005744411976
  0
LINE
  8
_0-a_極細1
  6
CONTINUOUS
 62
    7
 10
447.47927088632531
 20
240.7667254441198
 11
447.47927088632531
 21
260.7667234441198
  0
LINE
  8
_0-a_極細1
  6
CONTINUOUS
 62
    7
 10
470.74260189332574
 20
252.36339095111992
 11
465.81260238632478
 21
247.43339144411991
  0
LINE
  8
_0-a_極細1
  6
CONTINUOUS
 62
    7
 10
454.14593688632533
 20
254.10005744411976
 11
454.14593688632579
 21
291.60005369411982
  0
ARC
  8
_0-a_極細1
  6
CONTINUOUS
 62
    7
 10
457.64593653632585
 20
291.60005369411982
 40
3.4999996500000385
 50
89.999999999999915
 51
179.99999999999983
  0
LINE
  8
_0-a_極細1
  6
CONTINUOUS
 62
    7
 10
461.61668280591823
 20
295.10005334412023
 11
457.64593653632585
 21
295.10005334412023
  0
ARC
  8
_0-a_極細1
  6
CONTINUOUS
 62
    7
 10
461.61668280591823
 20
300.76671944411987
 40
5.6666660999999614
 50
269.99999999999977
 51
356.64911199999869
  0
ARC
  8
_0-a_極細1
  6
CONTINUOUS
 62
    7
 10
461.61668280591823
 20
300.76671944411987
 40
3.3333330000000005
 50
269.99999999999977
 51
356.64911200000182
  0
ARC
  8
_0-a_極細1
  6
CONTINUOUS
 62
    7
 10
470.74260189332574
 20
299.93338619411992
 40
5.8333327500000012
 50
89.999999999999915
 51
175.84900999999849
  0
ARC
  8
_0-a_極細1
  6
CONTINUOUS
 62
    7
 10
457.64593653632585
 20
291.60005369411982
 40
5.8333327500000012
 50
89.999999999999915
 51
179.99999999999983
  0
LINE
  8
_0-a_極細1
  6
CONTINUOUS
 62
    7
 10
459.14593638632607
 20
297.43338644412023
 11
459.14593638632607
 21
305.7667189441201
  0
LINE
  8
_0-a_極細1
  6
CONTINUOUS
 62
    7
 10
451.81260378632544
 20
256.43339054412013
 11
451.81260378632544
 21
291.60005369411982
  0
LINE
  8
_0-a_極細1
  6
CONTINUOUS
 62
    7
 10
461.61668280591823
 20
297.43338644412023
 11
457.64593653632585
 21
297.43338644412023
  0
LINE
  8
_0-a_極細1
  6
CONTINUOUS
 62
    7
 10
438.31260513632571
 20
260.7667234441198
 11
451.81260378632544
 21
260.7667234441198
  0
LINE
  8
_0-a_極細1
  6
CONTINUOUS
 62
    7
 10
493.81259958632535
 20
301.0765060798081
 11
470.74260189332574
 21
298.40983967980804
  0
LINE
  8
_0-a_極細1
  6
CONTINUOUS
 62
    7
 10
470.74260189332443
 20
235.07651267980802
 11
465.81260238632478
 21
237.74317907980793
  0
LINE
  8
_0-a_極細1
  6
CONTINUOUS
 62
    7
 10
465.81260238632478
 20
237.74317907980793
 11
465.81260238632478
 21
247.43339144411991
  0
LINE
  8
_0-a_極細1
  6
CONTINUOUS
 62
    7
 10
493.81259958632535
 20
256.26064722806126
 11
493.81259958632535
 21
309.00509862028218
  0
LINE
  8
_0-a_極細1
  6
CONTINUOUS
 62
    7
 10
480.81260088632519
 20
254.40984407980793
 11
493.81259958632535
 21
254.40984407980793
  0
LINE
  8
_0-a_極細1
  6
CONTINUOUS
 62
    7
 10
493.81259958632535
 20
254.40984407980793
 11
493.81259958632535
 21
256.26064722806126
  0
LINE
  8
_0-a_極細1
  6
CONTINUOUS
 62
    7
 10
480.81260088632519
 20
227.74318007980781
 11
480.81260088632519
 21
254.40984407980793
  0
LINE
  8
_0-a_極細1
  6
CONTINUOUS
 62
    7
 10
470.74260189332574
 20
303.40983735897197
 11
493.81259958632535
 21
306.69569551788885
  0
LINE
  8
_0-a_極細1
  6
CONTINUOUS
 62
    7
 10
470.74260189332574
 20
252.36339095111992
 11
470.74260189332574
 21
303.43338584412027
  0
ARC
  8
_0-a_極細1
  6
CONTINUOUS
 62
    7
 10
470.74260189332574
 20
299.93338619411992
 40
3.4999996500000385
 50
89.999999999999915
 51
175.84900999999951
  0
LINE
  8
_0-a_極細1
  6
CONTINUOUS
 62
    7
 10
439.14593838632538
 20
237.76932241052734
 11
429.14593938632527
 21
237.76932241052734
  0
ARC
  8
_0-a_極細1
  6
CONTINUOUS
 62
    7
 10
439.14593838632538
 20
244.43598841052719
 40
6.6666660000000011
 50
269.99999999999977
 51
359.99999999999966
  0
LINE
  8
_0-a_極細1
  6
CONTINUOUS
 62
    7
 10
445.81260438632546
 20
244.43598841052719
 11
445.81260438632546
 21
247.76932141052711
  0
LINE
  8
_0-a_極細1
  6
CONTINUOUS
 62
    7
 10
445.81260438632546
 20
247.76932141052711
 11
438.31260513632571
 21
247.76932141052711
  0
LINE
  8
_0-a_極細1
  6
CONTINUOUS
 62
    7
 10
449.14593738632504
 20
262.43598661052687
 11
438.31260513632571
 21
262.43598661052687
  0
LINE
  8
_0-a_極細1
  6
CONTINUOUS
 62
    7
 10
438.31260513632571
 20
247.76932141052711
 11
438.31260513632571
 21
262.4359866105271
  0
LINE
  8
_0-a_極細1
  6
CONTINUOUS
 62
    7
 10
448.14593748632581
 20
285.76672094411992
 11
448.14593748632581
 21
289.10005394411985
  0
ARC
  8
_0-a_極細1
  6
CONTINUOUS
 62
    7
 10
450.14593728632519
 20
287.43338744411989
 40
1.6666665000000003
 50
269.99999999999977
 51
359.99999999999966
  0
CIRCLE
  8
_0-a_極細1
  6
CONTINUOUS
 62
    7
 10
452.56320323164908
 20
277.15385481142397
 40
62.050673138549151
  0
ARC
  8
_0-a_極細1
  6
CONTINUOUS
 62
    7
 10
489.14593338632505
 20
213.30942485651718
 40
16.666665000000002
 50
120.00000000000014
 51
161.13978923390172
  0
LINE
  8
_0-a_極細1
  6
CONTINUOUS
 62
    7
 10
464.14593588632499
 20
216.19381592366273
 11
464.14593588632499
 21
235.07651267980802
  0
LINE
  8
_0-a_極細1
  6
CONTINUOUS
 62
    7
 10
479.49337332301786
 20
226.8963967946076
 11
480.81260088632519
 21
228.21562435791537
  0
LINE
  8
_0-a_極細1
  6
CONTINUOUS
 62
    7
 10
464.14593588632499
 20
216.26300409442109
 11
480.81260088632519
 21
232.92966909442106
  0
LINE
  8
_0-a_極細1
  6
CONTINUOUS
 62
    7
 10
464.14593588632499
 20
218.62002646267405
 11
480.81260088632519
 21
235.28669146267404
  0
LINE
  8
_0-a_極細1
  6
CONTINUOUS
 62
    7
 10
464.14593588632499
 20
220.97704883092703
 11
480.81260088632519
 21
237.64371383092697
  0
LINE
  8
_0-a_極細1
  6
CONTINUOUS
 62
    7
 10
464.14593588632499
 20
223.33407119917996
 11
480.81260088632519
 21
240.00073619917984
  0
LINE
  8
_0-a_極細1
  6
CONTINUOUS
 62
    7
 10
464.14593588632499
 20
225.69109356743283
 11
480.81260088632519
 21
242.35775856743265
  0
LINE
  8
_0-a_極細1
  6
CONTINUOUS
 62
    7
 10
492.8646863987002
 20
254.40984407980793
 11
493.81259958632535
 21
255.35775726743279
  0
LINE
  8
_0-a_極細1
  6
CONTINUOUS
 62
    7
 10
464.14593588632499
 20
228.04811593568544
 11
480.81260088632519
 21
244.71478093568564
  0
LINE
  8
_0-a_極細1
  6
CONTINUOUS
 62
    7
 10
490.50766403044747
 20
254.40984407980793
 11
493.81259958632575
 21
257.71477963568589
  0
LINE
  8
_0-a_極細1
  6
CONTINUOUS
 62
    7
 10
464.14593588632499
 20
230.40513830393849
 11
468.81731026219461
 21
235.07651267980802
  0
LINE
  8
_0-a_極細1
  6
CONTINUOUS
 62
    7
 10
469.4931476052858
 20
235.75235002289887
 11
480.81260088632519
 21
247.07180330393868
  0
LINE
  8
_0-a_極細1
  6
CONTINUOUS
 62
    7
 10
488.1506416621948
 20
254.40984407980812
 11
493.81259958632535
 21
260.07180200393867
  0
LINE
  8
_0-a_極細1
  6
CONTINUOUS
 62
    7
 10
464.14593588632499
 20
232.76216067219124
 11
466.46028789394234
 21
235.07651267980833
  0
LINE
  8
_0-a_極細1
  6
CONTINUOUS
 62
    7
 10
467.96351351899978
 20
236.57973830486569
 11
480.81260088632519
 21
249.42882567219144
  0
LINE
  8
_0-a_極細1
  6
CONTINUOUS
 62
    7
 10
485.79361929394202
 20
254.40984407980793
 11
493.81259958632535
 21
262.42882437219168
  0
LINE
  8
_0-a_極細1
  6
CONTINUOUS
 62
    7
 10
466.43387943271375
 20
237.4071265868325
 11
480.81260088632519
 21
251.78584804044448
  0
LINE
  8
_0-a_極細1
  6
CONTINUOUS
 62
    7
 10
483.43659692568883
 20
254.40984407980793
 11
493.81259958632535
 21
264.78584674044436
  0
LINE
  8
_0-a_極細1
  6
CONTINUOUS
 62
    7
 10
465.81260238632524
 20
239.14287190869715
 11
480.81260088632519
 21
254.14287040869735
  0
LINE
  8
_0-a_極細1
  6
CONTINUOUS
 62
    7
 10
481.07957455743616
 20
254.40984407980793
 11
493.81259958632535
 21
267.14286910869731
  0
LINE
  8
_0-a_極細1
  6
CONTINUOUS
 62
    7
 10
465.81260238632524
 20
241.49989427695002
 11
493.81259958632535
 21
269.49989147695027
  0
LINE
  8
_0-a_極細1
  6
CONTINUOUS
 62
    7
 10
465.81260238632524
 20
243.85691664520272
 11
493.81259958632575
 21
271.85691384520328
  0
LINE
  8
_0-a_極細1
  6
CONTINUOUS
 62
    7
 10
465.81260238632524
 20
246.2139390134557
 11
493.81259958632575
 21
274.21393621345618
  0
LINE
  8
_0-a_極細1
  6
CONTINUOUS
 62
    7
 10
470.74260189332574
 20
253.50096088870927
 11
493.81259958632535
 21
276.57095858170908
  0
LINE
  8
_0-a_極細1
  6
CONTINUOUS
 62
    7
 10
470.74260189332574
 20
255.857983256962
 11
493.81259958632535
 21
278.92798094996175
  0
LINE
  8
_0-a_極細1
  6
CONTINUOUS
 62
    7
 10
470.74260189332574
 20
258.21500562521493
 11
493.81259958632535
 21
281.28500331821471
  0
LINE
  8
_0-a_極細1
  6
CONTINUOUS
 62
    7
 10
470.74260189332574
 20
260.572027993468
 11
493.81259958632535
 21
283.64202568646755
  0
LINE
  8
_0-a_極細1
  6
CONTINUOUS
 62
    7
 10
470.74260189332574
 20
262.9290503617209
 11
493.81259958632575
 21
285.9990480547205
  0
LINE
  8
_0-a_極細1
  6
CONTINUOUS
 62
    7
 10
470.74260189332574
 20
265.28607272997368
 11
493.81259958632575
 21
288.35607042297346
  0
LINE
  8
_0-a_極細1
  6
CONTINUOUS
 62
    7
 10
470.74260189332574
 20
267.64309509822669
 11
493.81259958632575
 21
290.71309279122647
  0
LINE
  8
_0-a_極細1
  6
CONTINUOUS
 62
    7
 10
470.74260189332574
 20
270.00011746647959
 11
493.81259958632535
 21
293.07011515947937
  0
LINE
  8
_0-a_極細1
  6
CONTINUOUS
 62
    7
 10
470.74260189332574
 20
272.35713983473249
 11
493.81259958632535
 21
295.4271375277321
  0
LINE
  8
_0-a_極細1
  6
CONTINUOUS
 62
    7
 10
470.74260189332574
 20
274.71416220298528
 11
493.81259958632535
 21
297.78415989598506
  0
LINE
  8
_0-a_極細1
  6
CONTINUOUS
 62
    7
 10
470.74260189332574
 20
277.07118457123812
 11
493.81259958632575
 21
300.1411822642379
  0
LINE
  8
_0-a_極細1
  6
CONTINUOUS
 62
    7
 10
470.74260189332574
 20
279.42820693949091
 11
492.20508844711333
 21
300.89069349327877
  0
LINE
  8
_0-a_極細1
  6
CONTINUOUS
 62
    7
 10
470.74260189332574
 20
281.78522930774392
 11
489.54000891588078
 21
300.58263633029839
  0
LINE
  8
_0-a_極細1
  6
CONTINUOUS
 62
    7
 10
470.74260189332574
 20
284.14225167599676
 11
486.87492938464686
 21
300.27457916731822
  0
LINE
  8
_0-a_極細1
  6
CONTINUOUS
 62
    7
 10
470.74260189332574
 20
286.49927404424972
 11
484.20984985341431
 21
299.96652200433789
  0
LINE
  8
_0-a_極細1
  6
CONTINUOUS
 62
    7
 10
470.74260189332574
 20
288.85629641250279
 11
481.5447703221804
 21
299.65846484135744
  0
LINE
  8
_0-a_極細1
  6
CONTINUOUS
 62
    7
 10
470.74260189332574
 20
291.21331878075529
 11
478.87969079094745
 21
299.35040767837722
  0
LINE
  8
_0-a_極細1
  6
CONTINUOUS
 62
    7
 10
470.74260189332574
 20
293.5703411490083
 11
476.21461125971445
 21
299.04235051539689
  0
LINE
  8
_0-a_極細1
  6
CONTINUOUS
 62
    7
 10
470.74260189332574
 20
295.92736351726131
 11
473.54953172848138
 21
298.73429335241656
  0
LINE
  8
_0-a_極細1
  6
CONTINUOUS
 62
    7
 10
470.74260189332574
 20
298.28438588551415
 11
470.88445219724798
 21
298.42623618943634
  0
LINE
  8
_0-a_極細1
  6
CONTINUOUS
 62
    7
 10
467.06043180157315
 20
216.82047764141618
 11
480.81260088632519
 21
230.57264672616824
  0
LINE
  8
_0-a_極細1
  6
CONTINUOUS
 62
    7
 10
470.28453455771717
 20
217.68755802930747
 11
475.55896144823475
 21
222.96198491982452
  0
LINE
  8
_0-a_極細1
  6
CONTINUOUS
 62
    7
 10
406.95856184411025
 20
235.07651267980802
 11
470.74260189332443
 21
235.07651267980802
  0
LINE
  8
_0-a_極細1
  6
CONTINUOUS
 62
    7
 10
404.6352919969155
 20
237.74317907980793
 11
465.81260238632478
 21
237.74317907980793
  0
LINE
  8
_0-a_極細1
  6
CONTINUOUS
 62
    7
 10
398.09321062856696
 20
247.43339144411991
 11
429.14593938632527
 21
247.43339144411991
  0
LINE
  8
_0-a_極細1
  6
CONTINUOUS
 62
    7
 10
399.33954621567011
 20
309.05257533110188
 11
493.81259958632535
 21
309.05257533110188
  0
LINE
  8
_0-a_極細1
  6
CONTINUOUS
 62
    7
 10
397.50332634229392
 20
305.76671894412033
 11
470.74260189332574
 21
305.7667189441201
  0
LINE
  8
_0-a_極細1
  6
CONTINUOUS
 62
    7
 10
396.66876280966443
 20
304.10005244412008
 11
457.3126032363258
 21
304.10005244411985
  0
LINE
  8
_0-a_極細1
  6
CONTINUOUS
 62
    7
 10
391.67334887783198
 20
289.10005394412013
 11
448.14593748632581
 21
289.10005394411985
  0
LINE
  8
_0-a_極細1
  6
CONTINUOUS
 62
    7
 10
391.11318635673399
 20
285.76672094411998
 11
450.14593728632519
 21
285.76672094411992
  0
LINE
  8
_0-a_極細1
  6
CONTINUOUS
 62
    7
 10
449.14593738632504
 20
282.76931791052721
 11
390.76714663311134
 21
282.76931791052721
  0
LINE
  8
_0-a_極細1
  6
CONTINUOUS
 62
    7
 10
390.7116126767188
 20
282.12042130875005
 11
451.31260383632537
 21
282.12042130874966
  0
LINE
  8
_0-a_極細1
  6
CONTINUOUS
 62
    7
 10
390.53402795670053
 20
278.78708830875013
 11
434.97927213632522
 21
278.78708830875001
  0
LINE
  8
_0-a_極細1
  6
CONTINUOUS
 62
    7
 10
390.80655395086762
 20
271.12042240875013
 11
434.97927213632522
 21
271.12042240875013
  0
LINE
  8
_0-a_極細1
  6
CONTINUOUS
 62
    7
 10
391.22357702771495
 20
267.78708940874998
 11
448.64593743632588
 21
267.78708940874998
  0
LINE
  8
_0-a_極細1
  6
CONTINUOUS
 62
    7
 10
449.14593738632504
 20
267.4359861105267
 11
391.27822085538327
 21
267.4359861105267
  0
LINE
  8
_0-a_極細1
  6
CONTINUOUS
 62
    7
 10
438.31260513632571
 20
262.4359866105271
 11
392.28326965033119
 21
262.4359866105271
  0
LINE
  8
_0-a_極細1
  6
CONTINUOUS
 62
    7
 10
419.67283096420636
 20
241.7667253441202
 11
419.67283096420636
 21
247.43339144411991
  0
LINE
  8
_0-a_極細1
  6
CONTINUOUS
 62
    7
 10
419.00616436420626
 20
241.7667253441202
 11
419.00616436420626
 21
247.43339144411991
  0
LINE
  8
_0-a_極細1
  6
CONTINUOUS
 62
    7
 10
418.33949776420616
 20
241.7667253441202
 11
418.33949776420616
 21
247.43339144411991
  0
LINE
  8
_0-a_極細1
  6
CONTINUOUS
 62
    7
 10
417.67283116420606
 20
241.7667253441202
 11
417.67283116420606
 21
247.43339144411991
  0
LINE
  8
_0-a_極細1
  6
CONTINUOUS
 62
    7
 10
417.00616456420596
 20
241.7667253441202
 11
417.00616456420596
 21
247.43339144411991
  0
LINE
  8
_0-a_極細1
  6
CONTINUOUS
 62
    7
 10
416.33949796420586
 20
241.7667253441202
 11
416.33949796420586
 21
247.43339144411991
  0
LINE
  8
_0-a_極細1
  6
CONTINUOUS
 62
    7
 10
415.67283136420627
 20
241.7667253441202
 11
415.67283136420627
 21
247.43339144411991
  0
LINE
  8
_0-a_極細1
  6
CONTINUOUS
 62
    7
 10
415.00616476420618
 20
241.7667253441202
 11
415.00616476420618
 21
247.43339144411991
  0
LINE
  8
_0-a_極細1
  6
CONTINUOUS
 62
    7
 10
414.33949816420608
 20
241.7667253441202
 11
414.33949816420608
 21
247.43339144411991
  0
LINE
  8
_0-a_極細1
  6
CONTINUOUS
 62
    7
 10
413.67283156420598
 20
241.7667253441202
 11
413.67283156420598
 21
247.43339144411991
  0
LINE
  8
_0-a_極細1
  6
CONTINUOUS
 62
    7
 10
413.00616496420628
 20
241.7667253441202
 11
413.00616496420628
 21
247.43339144411991
  0
LINE
  8
_0-a_極細1
  6
CONTINUOUS
 62
    7
 10
412.33949836420578
 20
241.7667253441202
 11
412.33949836420578
 21
247.43339144411991
  0
LINE
  8
_0-a_極細1
  6
CONTINUOUS
 62
    7
 10
411.67283176420608
 20
241.7667253441202
 11
411.67283176420608
 21
247.43339144411991
  0
LINE
  8
_0-a_極細1
  6
CONTINUOUS
 62
    7
 10
411.00616516420598
 20
241.7667253441202
 11
411.00616516420598
 21
247.43339144411991
  0
LINE
  8
_0-a_極細1
  6
CONTINUOUS
 62
    7
 10
410.33949856420588
 20
241.7667253441202
 11
410.33949856420588
 21
247.43339144411991
  0
LINE
  8
_0-a_極細1
  6
CONTINUOUS
 62
    7
 10
409.67283196420578
 20
241.7667253441202
 11
409.67283196420578
 21
247.43339144411991
  0
LINE
  8
_0-a_極細1
  6
CONTINUOUS
 62
    7
 10
409.00616536420569
 20
241.7667253441202
 11
409.00616536420569
 21
247.43339144411991
  0
LINE
  8
_0-a_極細1
  6
CONTINUOUS
 62
    7
 10
408.33949876420559
 20
241.7667253441202
 11
408.33949876420559
 21
247.43339144411991
  0
LINE
  8
_0-a_極細1
  6
CONTINUOUS
 62
    7
 10
407.67283216420594
 20
241.7667253441202
 11
407.67283216420594
 21
247.43339144411991
  0
LINE
  8
_0-a_極細1
  6
CONTINUOUS
 62
    7
 10
407.00616556420584
 20
241.7667253441202
 11
407.00616556420584
 21
247.43339144411991
  0
LINE
  8
_0-a_極細1
  6
CONTINUOUS
 62
    7
 10
406.33949896420575
 20
241.7667253441202
 11
406.33949896420575
 21
247.43339144411991
  0
LINE
  8
_0-a_極細1
  6
CONTINUOUS
 62
    7
 10
405.67283236420565
 20
241.7667253441202
 11
405.67283236420565
 21
247.43339144411991
  0
LINE
  8
_0-a_極細1
  6
CONTINUOUS
 62
    7
 10
405.00616576420555
 20
241.7667253441202
 11
405.00616576420555
 21
247.43339144411991
  0
LINE
  8
_0-a_極細1
  6
CONTINUOUS
 62
    7
 10
404.33949916420545
 20
241.7667253441202
 11
404.33949916420545
 21
247.43339144411991
  0
LINE
  8
_0-a_極細1
  6
CONTINUOUS
 62
    7
 10
403.67283256420586
 20
241.7667253441202
 11
403.67283256420586
 21
247.43339144411991
  0
LINE
  8
_0-a_極細1
  6
CONTINUOUS
 62
    7
 10
420.10031695755436
 20
241.7667253441202
 11
420.10031695755436
 21
247.43339144411991
  0
LINE
  8
_0-a_極細1
  6
CONTINUOUS
 62
    7
 10
403.43365195755416
 20
241.7667253441202
 11
403.43365195755416
 21
247.43339144411991
  0
LINE
  8
_0-a_極細1
  6
CONTINUOUS
 62
    7
 10
403.43365195755416
 20
241.7667253441202
 11
420.10031695755436
 21
241.7667253441202
  0
ARC
  8
_0-a_極細1
  6
CONTINUOUS
 62
    7
 10
414.14594088632532
 20
239.01680895244516
 40
19.999997999999998
 50
55.166292356154557
 51
148.68484545273043
  0
LINE
  8
_0-a_極細1
  6
CONTINUOUS
 62
    7
 10
429.10272709933463
 20
247.43339144411991
 11
429.10272709933463
 21
248.69796469599802
  0
LINE
  8
_0-a_極細1
  6
CONTINUOUS
 62
    7
 10
428.10272709933463
 20
247.43339144411991
 11
428.10272709933463
 21
252.21633746375514
  0
LINE
  8
_0-a_極細1
  6
CONTINUOUS
 62
    7
 10
427.10272709933463
 20
247.43339144411991
 11
427.10272709933463
 21
253.82650930621637
  0
LINE
  8
_0-a_極細1
  6
CONTINUOUS
 62
    7
 10
426.10272709933469
 20
247.43339144411991
 11
426.10272709933469
 21
254.95285108817887
  0
LINE
  8
_0-a_極細1
  6
CONTINUOUS
 62
    7
 10
425.10272709933469
 20
247.43339144411991
 11
425.10272709933469
 21
255.74847820217673
  0
LINE
  8
_0-a_極細1
  6
CONTINUOUS
 62
    7
 10
424.10272709933463
 20
247.43339144411991
 11
424.10272709933463
 21
256.36219243936853
  0
LINE
  8
_0-a_極細1
  6
CONTINUOUS
 62
    7
 10
423.10272709933463
 20
247.43339144411991
 11
423.10272709933463
 21
256.89908791052125
  0
LINE
  8
_0-a_極細1
  6
CONTINUOUS
 62
    7
 10
422.10272709933463
 20
247.43339144411991
 11
422.10272709933463
 21
257.36590901649396
  0
LINE
  8
_0-a_極細1
  6
CONTINUOUS
 62
    7
 10
421.10272709933469
 20
247.43339144411991
 11
421.10272709933469
 21
257.76789013691263
  0
LINE
  8
_0-a_極細1
  6
CONTINUOUS
 62
    7
 10
420.10272709933469
 20
247.43339144411991
 11
420.10272709933469
 21
258.10912725097853
  0
LINE
  8
_0-a_極細1
  6
CONTINUOUS
 62
    7
 10
419.10272709933463
 20
247.43339144411991
 11
419.10272709933463
 21
258.39282996911749
  0
LINE
  8
_0-a_極細1
  6
CONTINUOUS
 62
    7
 10
418.10272709933463
 20
247.43339144411991
 11
418.10272709933463
 21
258.62149622015096
  0
LINE
  8
_0-a_極細1
  6
CONTINUOUS
 62
    7
 10
417.10272709933463
 20
247.43339144411991
 11
417.10272709933463
 21
258.7970348179544
  0
LINE
  8
_0-a_極細1
  6
CONTINUOUS
 62
    7
 10
416.10272709933469
 20
247.43339144411991
 11
416.10272709933469
 21
258.92085144929951
  0
LINE
  8
_0-a_極細1
  6
CONTINUOUS
 62
    7
 10
415.10272709933469
 20
247.43339144411991
 11
415.10272709933469
 21
258.99390784449156
  0
LINE
  8
_0-a_極細1
  6
CONTINUOUS
 62
    7
 10
414.10272709933463
 20
247.43339144411991
 11
414.10272709933463
 21
259.0167602666013
  0
LINE
  8
_0-a_極細1
  6
CONTINUOUS
 62
    7
 10
413.10272709933463
 20
247.43339144411991
 11
413.10272709933463
 21
258.98958104333519
  0
LINE
  8
_0-a_極細1
  6
CONTINUOUS
 62
    7
 10
412.10272709933417
 20
247.43339144411991
 11
412.10272709933417
 21
258.91216512972068
  0
LINE
  8
_0-a_極細1
  6
CONTINUOUS
 62
    7
 10
411.10272709933417
 20
247.43339144411991
 11
411.10272709933417
 21
258.78392229371673
  0
LINE
  8
_0-a_極細1
  6
CONTINUOUS
 62
    7
 10
410.10272709933417
 20
247.43339144411991
 11
410.10272709933417
 21
258.60385421896484
  0
LINE
  8
_0-a_極細1
  6
CONTINUOUS
 62
    7
 10
409.10272709933423
 20
247.43339144411991
 11
409.10272709933423
 21
258.37051440382339
  0
LINE
  8
_0-a_極細1
  6
CONTINUOUS
 62
    7
 10
408.10272709933423
 20
247.43339144411991
 11
408.10272709933423
 21
258.08194695679038
  0
LINE
  8
_0-a_極細1
  6
CONTINUOUS
 62
    7
 10
407.10272709933417
 20
247.43339144411991
 11
407.10272709933417
 21
257.73559789699891
  0
LINE
  8
_0-a_極細1
  6
CONTINUOUS
 62
    7
 10
406.10272709933417
 20
247.43339144411991
 11
406.10272709933417
 21
257.32818880151075
  0
LINE
  8
_0-a_極細1
  6
CONTINUOUS
 62
    7
 10
405.10272709933417
 20
247.43339144411991
 11
405.10272709933417
 21
256.85553660894516
  0
LINE
  8
_0-a_極細1
  6
CONTINUOUS
 62
    7
 10
404.10272709933423
 20
247.43339144411991
 11
404.10272709933423
 21
256.31229324253644
  0
LINE
  8
_0-a_極細1
  6
CONTINUOUS
 62
    7
 10
403.10272709933423
 20
247.43339144411991
 11
403.10272709933423
 21
255.69156080231727
  0
LINE
  8
_0-a_極細1
  6
CONTINUOUS
 62
    7
 10
402.10272709933417
 20
247.43339144411991
 11
402.10272709933417
 21
254.98430473859884
  0
LINE
  8
_0-a_極細1
  6
CONTINUOUS
 62
    7
 10
401.10272709933417
 20
247.43339144411991
 11
401.10272709933417
 21
254.1784214691549
  0
LINE
  8
_0-a_極細1
  6
CONTINUOUS
 62
    7
 10
400.10272709933417
 20
247.43339144411991
 11
400.10272709933417
 21
253.25717645236836
  0
LINE
  8
_0-a_極細1
  6
CONTINUOUS
 62
    7
 10
399.10272709933423
 20
247.43339144411991
 11
399.10272709933423
 21
252.19640071239297
  0
LINE
  8
_0-a_極細1
  6
CONTINUOUS
 62
    7
 10
398.10272709933423
 20
247.43339144411991
 11
398.10272709933423
 21
250.95897003764679
  0
LINE
  8
_0-a_極細1
  6
CONTINUOUS
 62
    7
 10
397.10272709933417
 20
249.32542287349355
 11
397.10272709933417
 21
249.48240897398804
  0
LINE
  8
_0-d_寸法1
  6
CONTINUOUS
 62
    7
 10
487.16792085521922
 20
302.74657648467036
 11
491.24983641714198
 21
311.87553947864365
  0
LINE
  8
_0-d_寸法1
  6
CONTINUOUS
 62
    7
 10
487.16792085521922
 20
302.74657648467036
 11
495.26744492493401
 21
308.61153256669797
  0
LINE
  8
_0-d_寸法1
  6
CONTINUOUS
 62
    7
 10
487.16792085521922
 20
302.74657648467036
 11
507.62585861752552
 21
327.92789105386106
  0
LINE
  8
_0-d_寸法1
  6
CONTINUOUS
 62
    7
 10
507.62585861752552
 20
327.92789105386106
 11
555.62585861752564
 21
327.92789105386106
  0
TEXT
  8
_0-d_寸法1
 62
    7
 10
507.62585861752552
 20
327.92789105386106
 40
15
 41
0.8000000000000001
 50
0
  1
パッキン
  0
LINE
  8
_0-d_寸法1
  6
CONTINUOUS
 62
    7
 10
444.13103854789932
 20
272.30035146194541
 11
451.20207097437032
 21
265.22924826486246
  0
LINE
  8
_0-d_寸法1
  6
CONTINUOUS
 62
    7
 10
444.13103854789932
 20
272.30035146194541
 11
446.71918066166529
 21
262.64108024725476
  0
LINE
  8
_0-d_寸法1
  6
CONTINUOUS
 62
    7
 10
444.13103854789932
 20
272.30035146194541
 11
481.53635370883205
 21
207.51169638320249
  0
LINE
  8
_0-d_寸法1
  6
CONTINUOUS
 62
    7
 10
481.53635370883205
 20
207.51169638320249
 11
601.53635370883217
 21
207.51169638320249
  0
TEXT
  8
_0-d_寸法1
 62
    7
 10
481.53635370883205
 20
207.51169638320249
 40
15
 41
0.8000000000000001
 50
0
  1
防臭インナーパッキン
  0
LINE
  8
_0-d_寸法1
  6
CONTINUOUS
 62
    7
 10
486.48092349906955
 20
259.16063923005282
 11
493.55231939117266
 21
252.08989951364785
  0
LINE
  8
_0-d_寸法1
  6
CONTINUOUS
 62
    7
 10
486.48092349906955
 20
259.16063923005282
 11
489.06956212364526
 21
249.50150106604696
  0
LINE
  8
_0-d_寸法1
  6
CONTINUOUS
 62
    7
 10
486.48092349906955
 20
259.16063923005282
 11
505.15398651768703
 21
226.82141068844675
  0
LINE
  8
_0-d_寸法1
  6
CONTINUOUS
 62
    7
 10
505.15398651768703
 20
226.82141068844675
 11
589.15398651768692
 21
226.82141068844675
  0
TEXT
  8
_0-d_寸法1
 62
    7
 10
505.15398651768703
 20
226.82141068844675
 40
15
 41
0.8000000000000001
 50
0
  1
ロックフランジ
  0
TEXT
  8
_0-7_枠細線
 62
    5
 10
400.90575050490099
 20
163.14936202459563
 40
25
 41
0.8
 50
0
  1
Ｃ部拡大図
  0
LINE
  8
_1-1_寸法4
  6
CONTINUOUS
 62
    7
 10
221.79871552289384
 20
217.96467224414647
 11
221.79871552289313
 21
149.21467224414647
  0
LINE
  8
_1-1_寸法4
  6
CONTINUOUS
 62
    7
 10
221.79871552289319
 20
154.21467224414647
 11
231.45797378578393
 21
156.80286269517168
  0
LINE
  8
_1-1_寸法4
  6
CONTINUOUS
 62
    7
 10
221.79871552289319
 20
154.21467224414647
 11
231.45797378578393
 21
151.62648179312129
  0
LINE
  8
_1-1_寸法4
  6
CONTINUOUS
 62
    7
 10
317.42371552289291
 20
217.96467224414647
 11
317.42371552289239
 21
149.21467224414647
  0
LINE
  8
_1-1_寸法4
  6
CONTINUOUS
 62
    7
 10
317.42371552289256
 20
154.21467224414647
 11
307.76445726000179
 21
151.62648179312129
  0
LINE
  8
_1-1_寸法4
  6
CONTINUOUS
 62
    7
 10
317.42371552289256
 20
154.21467224414647
 11
307.7644572600019
 21
156.80286269517168
  0
LINE
  8
_1-1_寸法4
  6
CONTINUOUS
 62
    7
 10
221.79871552289319
 20
154.21467224414647
 11
317.42371552289256
 21
154.21467224414647
  0
TEXT
  8
_1-1_寸法4
 62
    7
 10
239.61121552289299
 20
154.21467224414647
 40
15
 41
1
 50
0
  1
VU65内接
  0
LINE
  8
_1-1_寸法4
  6
CONTINUOUS
 62
    7
 10
218.23621552289381
 20
217.96467224414647
 11
218.23621552289296
 21
119.21467224414648
  0
LINE
  8
_1-1_寸法4
  6
CONTINUOUS
 62
    7
 10
218.23621552289296
 20
124.21467224414648
 11
227.89547378578362
 21
126.80286269517168
  0
LINE
  8
_1-1_寸法4
  6
CONTINUOUS
 62
    7
 10
218.23621552289296
 20
124.21467224414648
 11
227.89547378578362
 21
121.62648179312129
  0
LINE
  8
_1-1_寸法4
  6
CONTINUOUS
 62
    7
 10
320.9862155228933
 20
217.96467224414647
 11
320.98621552289245
 21
119.21467224414648
  0
LINE
  8
_1-1_寸法4
  6
CONTINUOUS
 62
    7
 10
320.98621552289251
 20
124.21467224414648
 11
311.32695726000179
 21
121.62648179312129
  0
LINE
  8
_1-1_寸法4
  6
CONTINUOUS
 62
    7
 10
320.98621552289251
 20
124.21467224414648
 11
311.32695726000185
 21
126.80286269517168
  0
LINE
  8
_1-1_寸法4
  6
CONTINUOUS
 62
    7
 10
218.23621552289296
 20
124.21467224414648
 11
320.98621552289251
 21
124.21467224414648
  0
TEXT
  8
_1-1_寸法4
 62
    7
 10
239.61121552289299
 20
124.21467224414648
 40
15
 41
1
 50
0
  1
VU75外接
  0
LINE
  8
_1-1_寸法4
  6
CONTINUOUS
 62
    7
 10
235.23621552289376
 20
211.71467224414647
 11
235.23621552289342
 21
179.21467224414647
  0
LINE
  8
_1-1_寸法4
  6
CONTINUOUS
 62
    7
 10
235.23621552289342
 20
184.21467224414647
 11
244.89547378578408
 21
186.80286269517168
  0
LINE
  8
_1-1_寸法4
  6
CONTINUOUS
 62
    7
 10
235.23621552289342
 20
184.21467224414647
 11
244.89547378578408
 21
181.62648179312129
  0
LINE
  8
_1-1_寸法4
  6
CONTINUOUS
 62
    7
 10
303.9862155228933
 20
211.71467224414647
 11
303.98621552289291
 21
179.21467224414647
  0
LINE
  8
_1-1_寸法4
  6
CONTINUOUS
 62
    7
 10
303.98621552289296
 20
184.21467224414647
 11
294.32695726000225
 21
181.62648179312129
  0
LINE
  8
_1-1_寸法4
  6
CONTINUOUS
 62
    7
 10
303.98621552289296
 20
184.21467224414647
 11
294.32695726000236
 21
186.80286269517168
  0
LINE
  8
_1-1_寸法4
  6
CONTINUOUS
 62
    7
 10
235.23621552289342
 20
184.21467224414647
 11
303.98621552289296
 21
184.21467224414647
  0
TEXT
  8
_1-1_寸法4
 62
    7
 10
239.61121552289342
 20
184.21467224414647
 40
15
 41
1
 50
0
  1
VU50外接
  0
CIRCLE
  8
_1-1_寸法4
  6
CONTINUOUS
 62
    7
 10
324.98621552289342
 20
384.90059350255621
 40
22.573972114296122
  0
TEXT
  8
_1-1_寸法4
 62
    7
 10
336.59180831086769
 20
404.26278431498088
 40
15
 41
0.8000000000000001
 50
0
  1
Ｃ部
  0
LINE
  8
_1-1_寸法4
  6
CONTINUOUS
 62
    7
 10
240.85351729255493
 20
392.3889892089685
 11
231.95528603932593
 21
396.95204526429586
  0
LINE
  8
_1-1_寸法4
  6
CONTINUOUS
 62
    7
 10
240.85351729255493
 20
392.3889892089685
 11
235.42895100617358
 21
400.78982729838884
  0
LINE
  8
_1-1_寸法4
  6
CONTINUOUS
 62
    7
 10
240.85351729255493
 20
392.3889892089685
 11
221.47867860303563
 21
409.92560223082114
  0
LINE
  8
_1-1_寸法4
  6
CONTINUOUS
 62
    7
 10
221.47867860303563
 20
409.92560223082114
 11
149.4786786030356
 21
409.92560223082114
  0
TEXT
  8
_1-1_寸法4
 62
    7
 10
149.4786786030356
 20
409.92560223082131
 40
15
 41
0.8000000000000001
 50
-0.0000000000001696
  1
ストレーナー
  0
LINE
  8
_1-1_寸法4
  6
CONTINUOUS
 62
    7
 10
250.44065176252346
 20
327.15959628001934
 11
244.42588761722007
 21
319.17069070563844
  0
LINE
  8
_1-1_寸法4
  6
CONTINUOUS
 62
    7
 10
250.44065176252346
 20
327.15959628001934
 11
241.23726042772859
 21
323.24838317682202
  0
LINE
  8
_1-1_寸法4
  6
CONTINUOUS
 62
    7
 10
250.44065176252346
 20
327.15959628001934
 11
193.95648296367972
 21
282.9907538082997
  0
LINE
  8
_1-1_寸法4
  6
CONTINUOUS
 62
    7
 10
193.95648296367972
 20
282.9907538082997
 11
97.956482963679292
 21
282.9907538082997
  0
TEXT
  8
_1-1_寸法4
 62
    7
 10
97.956482963679292
 20
282.99075380829998
 40
15
 41
0.8000000000000001
 50
-0.0000000000001696
  1
防臭インナー１号
  0
LINE
  8
_1-1_寸法4
  6
CONTINUOUS
 62
    7
 10
213.20174836826297
 20
271.99645786124552
 11
207.13420997508962
 21
264.04755995981498
  0
LINE
  8
_1-1_寸法4
  6
CONTINUOUS
 62
    7
 10
213.20174836826297
 20
271.99645786124552
 11
203.97265703062217
 21
268.14627954310453
  0
LINE
  8
_1-1_寸法4
  6
CONTINUOUS
 62
    7
 10
213.20174836826297
 20
271.99645786124552
 11
193.95648296367972
 21
257.15159612564821
  0
LINE
  8
_1-1_寸法4
  6
CONTINUOUS
 62
    7
 10
193.95648296367972
 20
257.15159612564821
 11
121.9564829636797
 21
257.15159612564821
  0
TEXT
  8
_1-1_寸法4
 62
    7
 10
121.9564829636797
 20
257.15159612564833
 40
15
 41
0.8000000000000001
 50
-0.0000000000001696
  1
トラップ本体
  0
LINE
  8
_1-1_寸法4
  6
CONTINUOUS
 62
    7
 10
227.59469875990959
 20
347.00810389690469
 11
221.5840258215465
 21
339.01611973600757
  0
LINE
  8
_1-1_寸法4
  6
CONTINUOUS
 62
    7
 10
227.59469875990959
 20
347.00810389690469
 11
218.39331122099892
 21
343.09217905610643
  0
LINE
  8
_1-1_寸法4
  6
CONTINUOUS
 62
    7
 10
227.59469875990959
 20
347.00810389690469
 11
193.95648296367972
 21
320.6763118770578
  0
LINE
  8
_1-1_寸法4
  6
CONTINUOUS
 62
    7
 10
193.95648296367972
 20
320.6763118770578
 11
97.956482963679292
 21
320.6763118770578
  0
TEXT
  8
_1-1_寸法4
 62
    7
 10
97.956482963679292
 20
320.67631187705791
 40
15
 41
0.8000000000000001
 50
-0.0000000000001696
  1
防臭インナー２号
  0
LINE
  8
_0-e_極細4
  6
CONTINUOUS
 62
    6
 10
215.42371552289339
 20
382.64035696653059
 11
219.92371552289384
 21
382.64035696653059
  0
LINE
  8
_0-e_極細4
  6
CONTINUOUS
 62
    6
 10
215.42371552289339
 20
383.39035696653065
 11
220.51451920051434
 21
383.39035696653065
  0
LINE
  8
_0-e_極細4
  6
CONTINUOUS
 62
    6
 10
215.42371552289339
 20
384.14035696653053
 11
219.92371552289384
 21
384.14035696653053
  0
LINE
  8
_0-e_極細4
  6
CONTINUOUS
 62
    6
 10
215.42371552289339
 20
384.89035696653048
 11
219.92371552289384
 21
384.89035696653048
  0
LINE
  8
_0-e_極細4
  6
CONTINUOUS
 62
    6
 10
215.4054774842912
 20
385.6403569665307
 11
219.95791184527297
 21
385.6403569665307
  0
LINE
  8
_0-e_極細4
  6
CONTINUOUS
 62
    6
 10
215.00547748429113
 20
386.39035696653053
 11
220.38951920051389
 21
386.39035696653053
  0
LINE
  8
_0-e_極細4
  6
CONTINUOUS
 62
    6
 10
214.60547748429099
 20
387.14035696653065
 11
219.92371552289384
 21
387.14035696653065
  0
LINE
  8
_0-e_極細4
  6
CONTINUOUS
 62
    6
 10
319.29871552289342
 20
382.64035696653059
 11
323.79871552289387
 21
382.64035696653059
  0
LINE
  8
_0-e_極細4
  6
CONTINUOUS
 62
    6
 10
318.70791184527297
 20
383.39035696653065
 11
323.79871552289387
 21
383.39035696653065
  0
LINE
  8
_0-e_極細4
  6
CONTINUOUS
 62
    6
 10
319.29871552289342
 20
384.14035696653053
 11
323.79871552289387
 21
384.14035696653053
  0
LINE
  8
_0-e_極細4
  6
CONTINUOUS
 62
    6
 10
319.29871552289342
 20
384.89035696653048
 11
323.79871552289387
 21
384.89035696653048
  0
LINE
  8
_0-e_極細4
  6
CONTINUOUS
 62
    6
 10
319.2645192005134
 20
385.6403569665307
 11
323.81695356149612
 21
385.6403569665307
  0
LINE
  8
_0-e_極細4
  6
CONTINUOUS
 62
    6
 10
318.83291184527297
 20
386.39035696653053
 11
324.21695356149576
 21
386.39035696653053
  0
LINE
  8
_0-e_極細4
  6
CONTINUOUS
 62
    6
 10
319.29871552289342
 20
387.14035696653065
 11
324.6169535614963
 21
387.14035696653065
  0
LINE
  8
_0-e_極細4
  6
CONTINUOUS
 62
    6
 10
215.24974648581207
 20
374.47352314415093
 11
215.24974648581207
 21
376.97352314415093
  0
LINE
  8
_0-e_極細4
  6
CONTINUOUS
 62
    6
 10
214.49974648581204
 20
374.47352314415093
 11
214.49974648581204
 21
376.97352314415093
  0
LINE
  8
_0-e_極細4
  6
CONTINUOUS
 62
    6
 10
213.74974648581201
 20
374.47352314415093
 11
213.74974648581201
 21
376.97352314415093
  0
LINE
  8
_0-e_極細4
  6
CONTINUOUS
 62
    6
 10
212.99974648581198
 20
374.47352314415093
 11
212.99974648581198
 21
391.94056521479803
  0
LINE
  8
_0-e_極細4
  6
CONTINUOUS
 62
    6
 10
212.24974648581201
 20
374.47352314415093
 11
212.24974648581201
 21
392.33303617490583
  0
LINE
  8
_0-e_極細4
  6
CONTINUOUS
 62
    6
 10
211.49974648581207
 20
374.47352314415093
 11
211.49974648581207
 21
392.34852314415105
  0
LINE
  8
_0-e_極細4
  6
CONTINUOUS
 62
    6
 10
210.74974648581204
 20
374.47352314415093
 11
210.74974648581204
 21
392.34852314415105
  0
LINE
  8
_0-e_極細4
  6
CONTINUOUS
 62
    6
 10
209.99974648581201
 20
374.47352314415093
 11
209.99974648581201
 21
392.42362234783144
  0
LINE
  8
_0-e_極細4
  6
CONTINUOUS
 62
    6
 10
209.24974648581198
 20
374.47352314415093
 11
209.24974648581198
 21
392.8002973019141
  0
LINE
  8
_0-e_極細4
  6
CONTINUOUS
 62
    6
 10
208.49974648581201
 20
374.95999218123268
 11
208.49974648581201
 21
393.95172225922721
  0
LINE
  8
_0-e_極細4
  6
CONTINUOUS
 62
    6
 10
207.74974648581156
 20
375.70999218123268
 11
207.74974648581156
 21
395.32195736814828
  0
LINE
  8
_0-e_極細4
  6
CONTINUOUS
 62
    6
 10
331.49974648581201
 20
375.73705410706964
 11
331.49974648581201
 21
395.33583160881136
  0
LINE
  8
_0-e_極細4
  6
CONTINUOUS
 62
    6
 10
330.74974648581247
 20
374.98705410706987
 11
330.74974648581247
 21
394.07345817345663
  0
LINE
  8
_0-e_極細4
  6
CONTINUOUS
 62
    6
 10
329.99974648581201
 20
374.47352314415093
 11
329.99974648581201
 21
392.82184114535283
  0
LINE
  8
_0-e_極細4
  6
CONTINUOUS
 62
    6
 10
329.24974648581207
 20
374.47352314415093
 11
329.24974648581207
 21
392.43120708890075
  0
LINE
  8
_0-e_極細4
  6
CONTINUOUS
 62
    6
 10
328.49974648581201
 20
374.47352314415093
 11
328.49974648581201
 21
392.34852314415105
  0
LINE
  8
_0-e_極細4
  6
CONTINUOUS
 62
    6
 10
327.74974648581201
 20
374.47352314415093
 11
327.74974648581201
 21
392.34852314415105
  0
LINE
  8
_0-e_極細4
  6
CONTINUOUS
 62
    6
 10
326.99974648581201
 20
374.47352314415093
 11
326.99974648581201
 21
392.33694244377614
  0
LINE
  8
_0-e_極細4
  6
CONTINUOUS
 62
    6
 10
326.24974648581201
 20
374.47352314415093
 11
326.24974648581201
 21
391.96819129878588
  0
LINE
  8
_0-e_極細4
  6
CONTINUOUS
 62
    6
 10
325.49974648581207
 20
374.47352314415093
 11
325.49974648581207
 21
376.97352314415093
  0
LINE
  8
_0-e_極細4
  6
CONTINUOUS
 62
    6
 10
324.74974648581201
 20
374.47352314415093
 11
324.74974648581201
 21
376.97352314415093
  0
LINE
  8
_0-e_極細4
  6
CONTINUOUS
 62
    6
 10
323.99974648581156
 20
374.47352314415093
 11
323.99974648581156
 21
376.97352314415093
  0
LINE
  8
_0-e_極細4
  6
CONTINUOUS
 62
    6
 10
323.24974648581247
 20
371.97352314415105
 11
323.24974648581247
 21
379.47352314415093
  0
LINE
  8
_0-e_極細4
  6
CONTINUOUS
 62
    6
 10
322.49974648581201
 20
371.97352314415105
 11
322.49974648581201
 21
372.28816396810578
  0
LINE
  8
_0-e_極細4
  6
CONTINUOUS
 62
    6
 10
322.49974648581201
 20
374.59949689415106
 11
322.49974648581201
 21
379.47352314415093
  0
LINE
  8
_0-e_極細4
  6
CONTINUOUS
 62
    6
 10
321.74974648581207
 20
374.59949689415106
 11
321.74974648581207
 21
379.47352314415093
  0
LINE
  8
_0-e_極細4
  6
CONTINUOUS
 62
    6
 10
320.99974648581201
 20
374.59949689415106
 11
320.99974648581201
 21
379.47352314415093
  0
LINE
  8
_0-e_極細4
  6
CONTINUOUS
 62
    6
 10
320.24974648581201
 20
374.59949689415106
 11
320.24974648581201
 21
379.47352314415093
  0
LINE
  8
_0-e_極細4
  6
CONTINUOUS
 62
    6
 10
218.99974648581207
 20
374.59949689415106
 11
218.99974648581207
 21
379.47352314415093
  0
LINE
  8
_0-e_極細4
  6
CONTINUOUS
 62
    6
 10
218.24974648581204
 20
374.59949689415106
 11
218.24974648581204
 21
379.47352314415093
  0
LINE
  8
_0-e_極細4
  6
CONTINUOUS
 62
    6
 10
217.49974648581201
 20
374.59949689415106
 11
217.49974648581201
 21
379.47352314415093
  0
LINE
  8
_0-e_極細4
  6
CONTINUOUS
 62
    6
 10
216.74974648581198
 20
371.97352314415105
 11
216.74974648581198
 21
372.23226538449177
  0
LINE
  8
_0-e_極細4
  6
CONTINUOUS
 62
    6
 10
216.74974648581198
 20
374.59949689415106
 11
216.74974648581198
 21
379.47352314415093
  0
LINE
  8
_0-e_極細4
  6
CONTINUOUS
 62
    6
 10
215.99974648581201
 20
371.97352314415105
 11
215.99974648581201
 21
379.47352314415093
  0
LINE
  8
_0-e_極細4
  6
CONTINUOUS
 62
    6
 10
231.74974648581198
 20
372.34852314415116
 11
231.74974648581198
 21
374.47352314415093
  0
LINE
  8
_0-e_極細4
  6
CONTINUOUS
 62
    6
 10
230.99974648581201
 20
372.34852314415116
 11
230.99974648581201
 21
374.47352314415093
  0
LINE
  8
_0-e_極細4
  6
CONTINUOUS
 62
    6
 10
230.24974648581207
 20
372.34852314415116
 11
230.24974648581207
 21
374.47352314415093
  0
LINE
  8
_0-e_極細4
  6
CONTINUOUS
 62
    6
 10
229.49974648581204
 20
372.34852314415116
 11
229.49974648581204
 21
374.47352314415093
  0
LINE
  8
_0-e_極細4
  6
CONTINUOUS
 62
    6
 10
228.74974648581201
 20
372.34852314415116
 11
228.74974648581201
 21
374.47352314415093
  0
LINE
  8
_0-e_極細4
  6
CONTINUOUS
 62
    6
 10
227.99974648581198
 20
372.34852314415116
 11
227.99974648581198
 21
374.47352314415093
  0
LINE
  8
_0-e_極細4
  6
CONTINUOUS
 62
    6
 10
227.24974648581201
 20
372.34852314415116
 11
227.24974648581201
 21
374.47352314415093
  0
LINE
  8
_0-e_極細4
  6
CONTINUOUS
 62
    6
 10
226.49974648581178
 20
372.34852314415116
 11
226.49974648581178
 21
374.47352314415093
  0
LINE
  8
_0-e_極細4
  6
CONTINUOUS
 62
    6
 10
312.74974648581207
 20
372.34852314415116
 11
312.74974648581207
 21
374.47352314415093
  0
LINE
  8
_0-e_極細4
  6
CONTINUOUS
 62
    6
 10
311.99974648581247
 20
372.34852314415116
 11
311.99974648581247
 21
374.47352314415093
  0
LINE
  8
_0-e_極細4
  6
CONTINUOUS
 62
    6
 10
311.24974648581156
 20
372.34852314415116
 11
311.24974648581156
 21
374.47352314415093
  0
LINE
  8
_0-e_極細4
  6
CONTINUOUS
 62
    6
 10
310.49974648581201
 20
372.34852314415116
 11
310.49974648581201
 21
374.47352314415093
  0
LINE
  8
_0-e_極細4
  6
CONTINUOUS
 62
    6
 10
309.74974648581201
 20
372.34852314415116
 11
309.74974648581201
 21
374.47352314415093
  0
LINE
  8
_0-e_極細4
  6
CONTINUOUS
 62
    6
 10
308.99974648581207
 20
372.34852314415116
 11
308.99974648581207
 21
374.47352314415093
  0
LINE
  8
_0-e_極細4
  6
CONTINUOUS
 62
    6
 10
308.24974648581201
 20
372.34852314415116
 11
308.24974648581201
 21
374.47352314415093
  0
LINE
  8
_0-e_極細4
  6
CONTINUOUS
 62
    6
 10
307.49974648581156
 20
372.34852314415116
 11
307.49974648581156
 21
374.47352314415093
  0
LINE
  8
_0-e_極細4
  6
CONTINUOUS
 62
    6
 10
234.74974648581224
 20
374.47352314415093
 11
234.74974648581224
 21
375.24625745264279
  0
LINE
  8
_0-e_極細4
  6
CONTINUOUS
 62
    6
 10
233.99974648581207
 20
374.47352314415093
 11
233.99974648581207
 21
376.26270312228314
  0
LINE
  8
_0-e_極細4
  6
CONTINUOUS
 62
    6
 10
233.24974648581204
 20
374.47352314415093
 11
233.24974648581204
 21
377.00520954671725
  0
LINE
  8
_0-e_極細4
  6
CONTINUOUS
 62
    6
 10
232.49974648581201
 20
374.47352314415093
 11
232.49974648581201
 21
377.57210746610832
  0
LINE
  8
_0-e_極細4
  6
CONTINUOUS
 62
    6
 10
231.74974648581198
 20
374.47352314415093
 11
231.74974648581198
 21
378.00818310425655
  0
LINE
  8
_0-e_極細4
  6
CONTINUOUS
 62
    6
 10
230.99974648581201
 20
374.47352314415093
 11
230.99974648581201
 21
378.33785667710737
  0
LINE
  8
_0-e_極細4
  6
CONTINUOUS
 62
    6
 10
230.24974648581207
 20
374.47352314415093
 11
230.24974648581207
 21
378.57564103570337
  0
LINE
  8
_0-e_極細4
  6
CONTINUOUS
 62
    6
 10
229.49974648581204
 20
374.47352314415093
 11
229.49974648581204
 21
378.73038386536132
  0
LINE
  8
_0-e_極細4
  6
CONTINUOUS
 62
    6
 10
228.74974648581201
 20
374.47352314415093
 11
228.74974648581201
 21
378.80723387918977
  0
LINE
  8
_0-e_極細4
  6
CONTINUOUS
 62
    6
 10
227.99974648581198
 20
374.47352314415093
 11
227.99974648581198
 21
378.80858867224583
  0
LINE
  8
_0-e_極細4
  6
CONTINUOUS
 62
    6
 10
227.24974648581201
 20
374.47352314415093
 11
227.24974648581201
 21
378.73448961359975
  0
LINE
  8
_0-e_極細4
  6
CONTINUOUS
 62
    6
 10
226.49974648581156
 20
374.47352314415093
 11
226.49974648581156
 21
378.58262840784676
  0
LINE
  8
_0-e_極細4
  6
CONTINUOUS
 62
    6
 10
225.74974648581204
 20
374.47352314415093
 11
225.74974648581204
 21
378.34796790966391
  0
LINE
  8
_0-e_極細4
  6
CONTINUOUS
 62
    6
 10
224.99974648581158
 20
374.47352314415093
 11
224.99974648581158
 21
378.02181973179779
  0
LINE
  8
_0-e_極細4
  6
CONTINUOUS
 62
    6
 10
224.24974648581198
 20
374.47352314415093
 11
224.24974648581198
 21
377.58992923205722
  0
LINE
  8
_0-e_極細4
  6
CONTINUOUS
 62
    6
 10
223.49974648581153
 20
374.47352314415093
 11
223.49974648581153
 21
376.86742605762822
  0
LINE
  8
_0-e_極細4
  6
CONTINUOUS
 62
    6
 10
222.74974648581156
 20
374.47352314415093
 11
222.74974648581156
 21
374.91777214441038
  0
ARC
  8
_0-e_極細4
  6
CONTINUOUS
 62
    6
 10
228.36121552289384
 20
371.31730439415117
 40
7.5
 50
0
 51
24.886947317069033
  0
LINE
  8
_0-e_極細4
  6
CONTINUOUS
 62
    6
 10
235.16476483205201
 20
374.47352314415093
 11
222.73621552289384
 21
374.47352314415093
  0
ARC
  8
_0-e_極細4
  6
CONTINUOUS
 62
    6
 10
228.36121552289384
 20
371.31730439415117
 40
7.5
 50
24.886947317069033
 51
124.83370764384777
  0
LINE
  8
_0-e_極細4
  6
CONTINUOUS
 62
    6
 10
222.73621552289384
 20
370.84949689415134
 11
222.73621552289384
 21
374.47352314415093
  0
ARC
  8
_0-e_極細4
  6
CONTINUOUS
 62
    6
 10
226.48621552289384
 20
374.59949689415106
 40
3.75
 50
129.97050058004112
 51
181.92509931279508
  0
LINE
  8
_0-e_極細4
  6
CONTINUOUS
 62
    6
 10
315.74974648581247
 20
374.47352314415093
 11
315.74974648581247
 21
376.83134167717924
  0
LINE
  8
_0-e_極細4
  6
CONTINUOUS
 62
    6
 10
314.99974648581156
 20
374.47352314415093
 11
314.99974648581156
 21
377.57210746610815
  0
LINE
  8
_0-e_極細4
  6
CONTINUOUS
 62
    6
 10
314.24974648581201
 20
374.47352314415093
 11
314.24974648581201
 21
378.00818310425632
  0
LINE
  8
_0-e_極細4
  6
CONTINUOUS
 62
    6
 10
313.49974648581201
 20
374.47352314415093
 11
313.49974648581201
 21
378.33785667710708
  0
LINE
  8
_0-e_極細4
  6
CONTINUOUS
 62
    6
 10
312.74974648581207
 20
374.47352314415093
 11
312.74974648581207
 21
378.57564103570303
  0
LINE
  8
_0-e_極細4
  6
CONTINUOUS
 62
    6
 10
311.99974648581201
 20
374.47352314415093
 11
311.99974648581201
 21
378.7303838653612
  0
LINE
  8
_0-e_極細4
  6
CONTINUOUS
 62
    6
 10
311.24974648581156
 20
374.47352314415093
 11
311.24974648581156
 21
378.80723387918977
  0
LINE
  8
_0-e_極細4
  6
CONTINUOUS
 62
    6
 10
310.49974648581201
 20
374.47352314415093
 11
310.49974648581201
 21
378.80858867224595
  0
LINE
  8
_0-e_極細4
  6
CONTINUOUS
 62
    6
 10
309.74974648581201
 20
374.47352314415093
 11
309.74974648581201
 21
378.73448961359975
  0
LINE
  8
_0-e_極細4
  6
CONTINUOUS
 62
    6
 10
308.99974648581156
 20
374.47352314415093
 11
308.99974648581156
 21
378.58262840784698
  0
LINE
  8
_0-e_極細4
  6
CONTINUOUS
 62
    6
 10
308.24974648581201
 20
374.47352314415093
 11
308.24974648581201
 21
378.34796790966402
  0
LINE
  8
_0-e_極細4
  6
CONTINUOUS
 62
    6
 10
307.49974648581156
 20
374.47352314415093
 11
307.49974648581156
 21
378.0218197317979
  0
LINE
  8
_0-e_極細4
  6
CONTINUOUS
 62
    6
 10
306.74974648581201
 20
374.47352314415093
 11
306.74974648581201
 21
377.58992923205744
  0
LINE
  8
_0-e_極細4
  6
CONTINUOUS
 62
    6
 10
305.99974648581156
 20
374.47352314415093
 11
305.99974648581156
 21
377.02835673163656
  0
LINE
  8
_0-e_極細4
  6
CONTINUOUS
 62
    6
 10
305.24974648581156
 20
374.47352314415093
 11
305.24974648581156
 21
376.29338872280471
  0
LINE
  8
_0-e_極細4
  6
CONTINUOUS
 62
    6
 10
304.49974648581201
 20
374.47352314415093
 11
304.49974648581201
 21
375.28992464912767
  0
LINE
  8
_0-e_極細4
  6
CONTINUOUS
 62
    6
 10
316.48621552289342
 20
370.84949689415134
 11
316.48621552289342
 21
374.47352314415093
  0
LINE
  8
_0-e_極細4
  6
CONTINUOUS
 62
    6
 10
304.05766621373505
 20
374.47352314415093
 11
316.48621552289342
 21
374.47352314415093
  0
ARC
  8
_0-e_極細4
  6
CONTINUOUS
 62
    6
 10
312.73621552289342
 20
374.59949689415106
 40
3.75
 50
358.07490068720398
 51
50.02949941996652
  0
ARC
  8
_0-e_極細4
  6
CONTINUOUS
 62
    6
 10
310.86121552289342
 20
371.31730439415117
 40
7.5
 50
55.166292356156504
 51
155.11305268293171
  0
ARC
  8
_0-e_極細4
  6
CONTINUOUS
 62
    6
 10
310.86121552289342
 20
371.31730439415117
 40
7.5
 50
155.11305268293171
 51
179.99999999999983
  0
LINE
  8
_0-e_極細4
  6
CONTINUOUS
 62
    6
 10
204.536347629532
 20
393.89035696653059
 11
207.13746552289379
 21
393.89035696653059
  0
LINE
  8
_0-e_極細4
  6
CONTINUOUS
 62
    6
 10
198.48621552289345
 20
394.64035696653065
 11
207.13746552289379
 21
394.64035696653065
  0
LINE
  8
_0-e_極細4
  6
CONTINUOUS
 62
    6
 10
198.48621552289345
 20
395.3903569665307
 11
207.13746552289379
 21
395.3903569665307
  0
LINE
  8
_0-e_極細4
  6
CONTINUOUS
 62
    6
 10
198.48621552289345
 20
396.14035696653076
 11
202.39362759010007
 21
396.14035696653076
  0
LINE
  8
_0-e_極細4
  6
CONTINUOUS
 62
    6
 10
332.08496552289353
 20
393.89035696653059
 11
334.68608341625492
 21
393.89035696653059
  0
LINE
  8
_0-e_極細4
  6
CONTINUOUS
 62
    6
 10
332.08496552289353
 20
394.64035696653065
 11
340.73621552289387
 21
394.64035696653065
  0
LINE
  8
_0-e_極細4
  6
CONTINUOUS
 62
    6
 10
332.08496552289353
 20
395.3903569665307
 11
340.73621552289387
 21
395.3903569665307
  0
LINE
  8
_0-e_極細4
  6
CONTINUOUS
 62
    6
 10
336.82880345568719
 20
396.14035696653076
 11
340.73621552289387
 21
396.14035696653076
  0
LINE
  8
_0-e_極細4
  6
CONTINUOUS
 62
    6
 10
236.55133391095296
 20
221.71467224414647
 11
237.75472929808032
 21
222.91806763127383
  0
LINE
  8
_0-e_極細4
  6
CONTINUOUS
 62
    6
 10
235.21430516155945
 20
223.02929392420259
 11
237.7961613360408
 21
225.61115009868359
  0
LINE
  8
_0-e_極細4
  6
CONTINUOUS
 62
    6
 10
235.17083548238793
 20
225.63747467448087
 11
237.83759337400056
 21
228.30423256609328
  0
LINE
  8
_0-e_極細4
  6
CONTINUOUS
 62
    6
 10
235.12736580321686
 20
228.24565542475906
 11
237.87902541196081
 21
230.99731503350284
  0
LINE
  8
_0-e_極細4
  6
CONTINUOUS
 62
    6
 10
235.08389612404562
 20
230.85383617503743
 11
237.9204574499208
 21
233.69039750091264
  0
LINE
  8
_0-e_極細4
  6
CONTINUOUS
 62
    6
 10
235.04042644487441
 20
233.46201692531571
 11
237.96188948788085
 21
236.38347996832235
  0
LINE
  8
_0-e_極細4
  6
CONTINUOUS
 62
    6
 10
234.99695676570312
 20
236.0701976755939
 11
238.0033215258411
 21
239.076562435732
  0
LINE
  8
_0-e_極細4
  6
CONTINUOUS
 62
    6
 10
234.9534870865316
 20
238.67837842587207
 11
238.04475356380138
 21
241.76964490314168
  0
LINE
  8
_0-e_極細4
  6
CONTINUOUS
 62
    6
 10
221.58813047535637
 20
227.96467224414639
 11
221.80084264458628
 21
228.17738441337616
  0
LINE
  8
_0-e_極細4
  6
CONTINUOUS
 62
    6
 10
234.91001740736053
 20
241.28655917615035
 11
238.08618560176114
 21
244.46272737055139
  0
LINE
  8
_0-e_極細4
  6
CONTINUOUS
 62
    6
 10
218.93648004590659
 20
227.96467224414647
 11
221.82762699235852
 21
230.85581919059797
  0
LINE
  8
_0-e_極細4
  6
CONTINUOUS
 62
    6
 10
234.86654772818929
 20
243.89473992642874
 11
238.12761763972162
 21
247.1558098379613
  0
LINE
  8
_0-e_極細4
  6
CONTINUOUS
 62
    6
 10
218.20548503617806
 20
229.8853276638674
 11
221.85441134013081
 21
233.53425396781978
  0
LINE
  8
_0-e_極細4
  6
CONTINUOUS
 62
    6
 10
234.82307804901757
 20
246.50292067670691
 11
238.16904967768187
 21
249.84889230537084
  0
LINE
  8
_0-e_極細4
  6
CONTINUOUS
 62
    6
 10
218.16372676169863
 20
232.49521981883728
 11
221.88119568790285
 21
236.21268874504139
  0
LINE
  8
_0-e_極細4
  6
CONTINUOUS
 62
    6
 10
234.77960836984607
 20
249.11110142698493
 11
238.21048171564186
 21
252.54197477278052
  0
LINE
  8
_0-e_極細4
  6
CONTINUOUS
 62
    6
 10
218.12196848721939
 20
235.10511197380751
 11
221.90798003567537
 21
238.8911235222632
  0
LINE
  8
_0-e_極細4
  6
CONTINUOUS
 62
    6
 10
234.73613869067506
 20
251.71928217726332
 11
238.25191375360191
 21
255.23505724019032
  0
LINE
  8
_0-e_極細4
  6
CONTINUOUS
 62
    6
 10
218.0802102127393
 20
237.71500412877748
 11
221.93476438344717
 21
241.56955829948501
  0
LINE
  8
_0-e_極細4
  6
CONTINUOUS
 62
    6
 10
234.69266901150377
 20
254.32746292754172
 11
238.29334579156216
 21
257.92813970759983
  0
LINE
  8
_0-e_極細4
  6
CONTINUOUS
 62
    6
 10
218.03845193826007
 20
240.32489628374748
 11
221.96154873121918
 21
244.24799307670682
  0
LINE
  8
_0-e_極細4
  6
CONTINUOUS
 62
    6
 10
234.64919933233247
 20
256.93564367781971
 11
238.33477782952244
 21
260.62122217500951
  0
LINE
  8
_0-e_極細4
  6
CONTINUOUS
 62
    6
 10
217.99669366378069
 20
242.93478843871759
 11
221.98833307899164
 21
246.92642785392849
  0
LINE
  8
_0-e_極細4
  6
CONTINUOUS
 62
    6
 10
234.27657746920977
 20
259.21467224414641
 11
237.40157746920977
 21
262.33967224414653
  0
LINE
  8
_0-e_極細4
  6
CONTINUOUS
 62
    6
 10
217.95493538930123
 20
245.54468059368759
 11
222.01511742676394
 21
249.6048626311503
  0
LINE
  8
_0-e_極細4
  6
CONTINUOUS
 62
    6
 10
231.62492703976028
 20
259.21467224414641
 11
234.74992703976
 21
262.33967224414653
  0
LINE
  8
_0-e_極細4
  6
CONTINUOUS
 62
    6
 10
217.91317711482179
 20
248.1545727486577
 11
222.04190177453597
 21
252.28329740837211
  0
LINE
  8
_0-e_極細4
  6
CONTINUOUS
 62
    6
 10
228.97327661031071
 20
259.21467224414641
 11
232.09827661031071
 21
262.33967224414653
  0
LINE
  8
_0-e_極細4
  6
CONTINUOUS
 62
    6
 10
217.87141884034213
 20
250.76446490362784
 11
222.06868612230849
 21
254.96173218559366
  0
LINE
  8
_0-e_極細4
  6
CONTINUOUS
 62
    6
 10
226.3216261808607
 20
259.21467224414641
 11
229.4466261808609
 21
262.33967224414653
  0
LINE
  8
_0-e_極細4
  6
CONTINUOUS
 62
    6
 10
217.82966056586289
 20
253.3743570585977
 11
222.0954704700803
 21
257.64016696281544
  0
LINE
  8
_0-e_極細4
  6
CONTINUOUS
 62
    6
 10
223.66997575141156
 20
259.21467224414641
 11
226.79497575141156
 21
262.33967224414653
  0
LINE
  8
_0-e_極細4
  6
CONTINUOUS
 62
    6
 10
217.78790229138352
 20
255.98424921356781
 11
224.14332532196204
 21
262.33967224414653
  0
LINE
  8
_0-e_極細4
  6
CONTINUOUS
 62
    6
 10
217.74614401690357
 20
258.59414136853786
 11
221.49167489251255
 21
262.33967224414653
  0
LINE
  8
_0-e_極細4
  6
CONTINUOUS
 62
    6
 10
215.74270329089501
 20
259.24235107197853
 11
218.86770329089501
 21
262.36735107197853
  0
LINE
  8
_0-e_極細4
  6
CONTINUOUS
 62
    6
 10
213.51498276180905
 20
259.66628097234263
 11
216.63998276180934
 21
262.79128097234263
  0
LINE
  8
_0-e_極細4
  6
CONTINUOUS
 62
    6
 10
211.6557673307102
 20
260.45871597069288
 11
214.7807673307102
 21
263.58371597069288
  0
LINE
  8
_0-e_極細4
  6
CONTINUOUS
 62
    6
 10
210.08082074996742
 20
261.53541981940009
 11
213.20582074996764
 21
264.66041981939998
  0
LINE
  8
_0-e_極細4
  6
CONTINUOUS
 62
    6
 10
208.75988908004089
 20
262.86613857892291
 11
211.88488908004089
 21
265.99113857892291
  0
LINE
  8
_0-e_極細4
  6
CONTINUOUS
 62
    6
 10
207.69352247796903
 20
264.45142240630048
 11
210.81852247796903
 21
267.57642240630071
  0
LINE
  8
_0-e_極細4
  6
CONTINUOUS
 62
    6
 10
206.91343419724902
 20
266.32298455502985
 11
210.03843419724902
 21
269.44798455503008
  0
LINE
  8
_0-e_極細4
  6
CONTINUOUS
 62
    6
 10
206.50712553675291
 20
268.5683263239838
 11
209.63212553675339
 21
271.6933263239838
  0
LINE
  8
_0-e_極細4
  6
CONTINUOUS
 62
    6
 10
206.48621552289384
 20
271.19906673957382
 11
209.61121552289384
 21
274.32406673957382
  0
LINE
  8
_0-e_極細4
  6
CONTINUOUS
 62
    6
 10
206.48621552289384
 20
273.85071716902337
 11
209.61121552289384
 21
276.97571716902337
  0
LINE
  8
_0-e_極細4
  6
CONTINUOUS
 62
    6
 10
206.48621552289384
 20
276.50236759847292
 11
209.61121552289384
 21
279.62736759847303
  0
LINE
  8
_0-e_極細4
  6
CONTINUOUS
 62
    6
 10
206.48621552289384
 20
279.15401802792246
 11
209.61121552289384
 21
282.27901802792246
  0
LINE
  8
_0-e_極細4
  6
CONTINUOUS
 62
    6
 10
206.48621552289384
 20
281.80566845737201
 11
209.61121552289384
 21
284.93066845737189
  0
LINE
  8
_0-e_極細4
  6
CONTINUOUS
 62
    6
 10
206.48621552289384
 20
284.45731888682155
 11
209.61121552289384
 21
287.58231888682155
  0
LINE
  8
_0-e_極細4
  6
CONTINUOUS
 62
    6
 10
206.48621552289384
 20
287.10896931627121
 11
209.61121552289384
 21
290.2339693162711
  0
LINE
  8
_0-e_極細4
  6
CONTINUOUS
 62
    6
 10
206.48621552289384
 20
289.76061974572076
 11
209.61121552289384
 21
292.88561974572065
  0
LINE
  8
_0-e_極細4
  6
CONTINUOUS
 62
    6
 10
206.48621552289384
 20
292.41227017517042
 11
209.61121552289384
 21
295.53727017517008
  0
LINE
  8
_0-e_極細4
  6
CONTINUOUS
 62
    6
 10
206.48621552289384
 20
295.06392060461997
 11
209.61121552289384
 21
298.18892060461963
  0
LINE
  8
_0-e_極細4
  6
CONTINUOUS
 62
    6
 10
206.48621552289384
 20
297.71557103406928
 11
209.61121552289384
 21
300.84057103406928
  0
LINE
  8
_0-e_極細4
  6
CONTINUOUS
 62
    6
 10
206.48621552289384
 20
300.3672214635186
 11
209.61121552289384
 21
303.49222146351883
  0
LINE
  8
_0-e_極細4
  6
CONTINUOUS
 62
    6
 10
206.48621552289384
 20
303.01887189296838
 11
209.61121552289384
 21
306.14387189296838
  0
LINE
  8
_0-e_極細4
  6
CONTINUOUS
 62
    6
 10
206.48621552289384
 20
305.67052232241781
 11
209.61121552289384
 21
308.79552232241792
  0
LINE
  8
_0-e_極細4
  6
CONTINUOUS
 62
    6
 10
206.48621552289384
 20
308.32217275186736
 11
209.61121552289384
 21
311.44717275186758
  0
LINE
  8
_0-e_極細4
  6
CONTINUOUS
 62
    6
 10
206.48621552289384
 20
310.97382318131702
 11
209.61121552289384
 21
314.09882318131702
  0
LINE
  8
_0-e_極細4
  6
CONTINUOUS
 62
    6
 10
206.48621552289384
 20
313.62547361076656
 11
209.61121552289384
 21
316.75047361076656
  0
LINE
  8
_0-e_極細4
  6
CONTINUOUS
 62
    6
 10
206.48621552289384
 20
316.27712404021611
 11
209.61121552289384
 21
319.40212404021634
  0
LINE
  8
_0-e_極細4
  6
CONTINUOUS
 62
    6
 10
206.48621552289384
 20
318.92877446966565
 11
209.61121552289384
 21
322.0537744696656
  0
LINE
  8
_0-e_極細4
  6
CONTINUOUS
 62
    6
 10
206.48621552289384
 20
321.58042489911531
 11
209.61121552289384
 21
324.7054248991152
  0
LINE
  8
_0-e_極細4
  6
CONTINUOUS
 62
    6
 10
206.48621552289384
 20
324.23207532856486
 11
209.61121552289384
 21
327.35707532856486
  0
LINE
  8
_0-e_極細4
  6
CONTINUOUS
 62
    6
 10
206.48621552289384
 20
326.88372575801446
 11
209.61121552289384
 21
330.00872575801446
  0
LINE
  8
_0-e_極細4
  6
CONTINUOUS
 62
    6
 10
206.48621552289384
 20
329.53537618746407
 11
209.61121552289384
 21
332.66037618746407
  0
LINE
  8
_0-e_極細4
  6
CONTINUOUS
 62
    6
 10
206.48621552289384
 20
332.18702661691361
 11
209.61121552289384
 21
335.31202661691339
  0
LINE
  8
_0-e_極細4
  6
CONTINUOUS
 62
    6
 10
206.48621552289384
 20
334.83867704636305
 11
209.61121552289384
 21
337.96367704636293
  0
LINE
  8
_0-e_極細4
  6
CONTINUOUS
 62
    6
 10
206.48621552289384
 20
337.49032747581259
 11
209.61121552289384
 21
340.61532747581248
  0
LINE
  8
_0-e_極細4
  6
CONTINUOUS
 62
    6
 10
206.48621552289384
 20
340.14197790526225
 11
209.61121552289384
 21
343.26697790526202
  0
LINE
  8
_0-e_極細4
  6
CONTINUOUS
 62
    6
 10
206.48621552289384
 20
342.7936283347118
 11
209.61121552289384
 21
345.9186283347118
  0
LINE
  8
_0-e_極細4
  6
CONTINUOUS
 62
    6
 10
206.48621552289384
 20
345.44527876416134
 11
209.61121552289384
 21
348.57027876416112
  0
LINE
  8
_0-e_極細4
  6
CONTINUOUS
 62
    6
 10
206.48621552289384
 20
348.09692919361089
 11
209.61121552289384
 21
351.22192919361078
  0
LINE
  8
_0-e_極細4
  6
CONTINUOUS
 62
    6
 10
206.48621552289384
 20
350.74857962306032
 11
209.61121552289384
 21
353.87357962306032
  0
LINE
  8
_0-e_極細4
  6
CONTINUOUS
 62
    6
 10
206.48621552289384
 20
353.40023005250993
 11
209.61121552289384
 21
356.52523005250993
  0
LINE
  8
_0-e_極細4
  6
CONTINUOUS
 62
    6
 10
206.48621552289384
 20
356.05188048195936
 11
209.61121552289384
 21
359.17688048195936
  0
LINE
  8
_0-e_極細4
  6
CONTINUOUS
 62
    6
 10
206.48621552289384
 20
358.70353091140908
 11
209.61121552289384
 21
361.82853091140908
  0
LINE
  8
_0-e_極細4
  6
CONTINUOUS
 62
    6
 10
206.48621552289384
 20
361.35518134085851
 11
209.61121552289384
 21
364.48018134085862
  0
LINE
  8
_0-e_極細4
  6
CONTINUOUS
 62
    6
 10
206.15728298551673
 20
363.67789923293111
 11
209.61121552289384
 21
367.13183177030822
  0
LINE
  8
_0-e_極細4
  6
CONTINUOUS
 62
    6
 10
205.24415642577969
 20
365.41642310264359
 11
209.61121552289384
 21
369.78348219975766
  0
LINE
  8
_0-e_極細4
  6
CONTINUOUS
 62
    6
 10
203.90964175673346
 20
366.73355886304671
 11
208.98621552289384
 21
371.81013262920709
  0
LINE
  8
_0-e_極細4
  6
CONTINUOUS
 62
    6
 10
203.36121552289342
 20
368.83678305865652
 11
208.98621552289384
 21
374.46178305865652
  0
LINE
  8
_0-e_極細4
  6
CONTINUOUS
 62
    6
 10
203.36121552289342
 20
371.48843348810624
 11
207.66626035091576
 21
375.7934783161287
  0
LINE
  8
_0-e_極細4
  6
CONTINUOUS
 62
    6
 10
203.36121552289342
 20
374.14008391755578
 11
207.13746552289379
 21
377.91633391755579
  0
LINE
  8
_0-e_極細4
  6
CONTINUOUS
 62
    6
 10
203.36121552289342
 20
376.79173434700522
 11
207.13746552289379
 21
380.56798434700534
  0
LINE
  8
_0-e_極細4
  6
CONTINUOUS
 62
    6
 10
201.00752389058968
 20
377.08969314415094
 11
207.13746552289379
 21
383.21963477645488
  0
LINE
  8
_0-e_極細4
  6
CONTINUOUS
 62
    6
 10
198.48621552289364
 20
377.22003520590442
 11
207.13746552289379
 21
385.87128520590448
  0
LINE
  8
_0-e_極細4
  6
CONTINUOUS
 62
    6
 10
198.48621552289364
 20
379.87168563535397
 11
207.13746552289379
 21
388.52293563535392
  0
LINE
  8
_0-e_極細4
  6
CONTINUOUS
 62
    6
 10
198.48621552289364
 20
382.52333606480357
 11
207.13746552289379
 21
391.17458606480369
  0
LINE
  8
_0-e_極細4
  6
CONTINUOUS
 62
    6
 10
198.48621552289345
 20
385.17498649425318
 11
206.92543126229836
 21
393.61420223365798
  0
LINE
  8
_0-e_極細4
  6
CONTINUOUS
 62
    6
 10
198.48621552289345
 20
387.82663692370278
 11
204.54852767180228
 21
393.88894907261124
  0
LINE
  8
_0-e_極細4
  6
CONTINUOUS
 62
    6
 10
198.48621552289345
 20
390.47828735315204
 11
202.17162408130619
 21
394.16369591156479
  0
LINE
  8
_0-e_極細4
  6
CONTINUOUS
 62
    6
 10
198.48621552289364
 20
393.12993778260164
 11
199.79472049081011
 21
394.43844275051839
  0
LINE
  8
_0-e_極細4
  6
CONTINUOUS
 62
    6
 10
237.40157746920977
 20
262.33967224414653
 11
238.36121552289384
 21
263.29931029783063
  0
LINE
  8
_0-e_極細4
  6
CONTINUOUS
 62
    6
 10
234.74992703976
 20
262.33967224414653
 11
238.36121552289384
 21
265.95096072728018
  0
LINE
  8
_0-e_極細4
  6
CONTINUOUS
 62
    6
 10
232.09827661031071
 20
262.33967224414653
 11
238.36121552289384
 21
268.60261115672972
  0
LINE
  8
_0-e_極細4
  6
CONTINUOUS
 62
    6
 10
229.4466261808609
 20
262.3396722441463
 11
238.36121552289384
 21
271.25426158617904
  0
LINE
  8
_0-e_極細4
  6
CONTINUOUS
 62
    6
 10
226.79497575141156
 20
262.3396722441463
 11
238.36121552289384
 21
273.90591201562859
  0
LINE
  8
_0-e_極細4
  6
CONTINUOUS
 62
    6
 10
224.14332532196204
 20
262.3396722441463
 11
236.64332532196204
 21
274.83967224414641
  0
LINE
  8
_0-e_極細4
  6
CONTINUOUS
 62
    6
 10
221.49167489251226
 20
262.33967224414653
 11
234.06521435174184
 21
274.91321170337562
  0
LINE
  8
_0-e_極細4
  6
CONTINUOUS
 62
    6
 10
218.86770329089501
 20
262.36735107197853
 11
231.81272650237631
 21
275.31237428345992
  0
LINE
  8
_0-e_極細4
  6
CONTINUOUS
 62
    6
 10
216.63998276180934
 20
262.79128097234263
 11
229.82382733300688
 21
275.97512554354
  0
LINE
  8
_0-e_極細4
  6
CONTINUOUS
 62
    6
 10
214.7807673307102
 20
263.58371597069288
 11
228.04721119034502
 21
276.8501598303277
  0
LINE
  8
_0-e_極細4
  6
CONTINUOUS
 62
    6
 10
213.20582074996764
 20
264.66041981939998
 11
226.45553055442676
 21
277.91012962385923
  0
LINE
  8
_0-e_極細4
  6
CONTINUOUS
 62
    6
 10
211.88488908004089
 20
265.99113857892291
 11
225.03486949375088
 21
279.14111899263276
  0
LINE
  8
_0-e_極細4
  6
CONTINUOUS
 62
    6
 10
210.81852247796903
 20
267.57642240630071
 11
223.78060829189849
 21
280.53850822023003
  0
LINE
  8
_0-e_極細4
  6
CONTINUOUS
 62
    6
 10
210.03843419724902
 20
269.44798455503008
 11
222.69621707462056
 21
282.10576743240119
  0
LINE
  8
_0-e_極細4
  6
CONTINUOUS
 62
    6
 10
209.63212553675339
 20
271.6933263239838
 11
221.7941544587957
 21
283.85535524602597
  0
LINE
  8
_0-e_極細4
  6
CONTINUOUS
 62
    6
 10
209.61121552289384
 20
274.32406673957382
 11
221.0994768324108
 21
285.81232804909064
  0
LINE
  8
_0-e_極細4
  6
CONTINUOUS
 62
    6
 10
209.61121552289384
 20
276.97571716902337
 11
220.65906297186871
 21
288.02356461799832
  0
LINE
  8
_0-e_極細4
  6
CONTINUOUS
 62
    6
 10
209.61121552289384
 20
279.62736759847303
 11
220.54871552289384
 21
290.56486759847292
  0
LINE
  8
_0-e_極細4
  6
CONTINUOUS
 62
    6
 10
209.61121552289384
 20
282.27901802792246
 11
220.54871552289384
 21
293.21651802792246
  0
LINE
  8
_0-e_極細4
  6
CONTINUOUS
 62
    6
 10
209.61121552289384
 20
284.93066845737189
 11
220.54871552289384
 21
295.86816845737201
  0
LINE
  8
_0-e_極細4
  6
CONTINUOUS
 62
    6
 10
209.61121552289384
 20
287.58231888682155
 11
220.54871552289384
 21
298.51981888682155
  0
LINE
  8
_0-e_極細4
  6
CONTINUOUS
 62
    6
 10
209.61121552289384
 20
290.2339693162711
 11
220.54871552289384
 21
301.17146931627121
  0
LINE
  8
_0-e_極細4
  6
CONTINUOUS
 62
    6
 10
209.61121552289384
 20
292.88561974572065
 11
220.54871552289384
 21
303.82311974572042
  0
LINE
  8
_0-e_極細4
  6
CONTINUOUS
 62
    6
 10
209.61121552289384
 20
295.53727017517008
 11
220.54871552289384
 21
306.47477017517019
  0
LINE
  8
_0-e_極細4
  6
CONTINUOUS
 62
    6
 10
209.61121552289384
 20
298.18892060461963
 11
220.54871552289384
 21
309.12642060461974
  0
LINE
  8
_0-e_極細4
  6
CONTINUOUS
 62
    6
 10
209.61121552289384
 20
300.84057103406928
 11
220.54871552289384
 21
311.77807103406928
  0
LINE
  8
_0-e_極細4
  6
CONTINUOUS
 62
    6
 10
209.61121552289384
 20
303.49222146351883
 11
220.54871552289384
 21
314.42972146351872
  0
LINE
  8
_0-e_極細4
  6
CONTINUOUS
 62
    6
 10
209.61121552289384
 20
306.14387189296838
 11
220.54871552289384
 21
317.08137189296815
  0
LINE
  8
_0-e_極細4
  6
CONTINUOUS
 62
    6
 10
209.61121552289384
 20
308.79552232241792
 11
220.54871552289384
 21
319.7330223224177
  0
LINE
  8
_0-e_極細4
  6
CONTINUOUS
 62
    6
 10
209.61121552289384
 20
311.44717275186758
 11
220.54871552289384
 21
322.38467275186747
  0
LINE
  8
_0-e_極細4
  6
CONTINUOUS
 62
    6
 10
209.61121552289384
 20
314.09882318131702
 11
220.54871552289384
 21
325.03632318131702
  0
LINE
  8
_0-e_極細4
  6
CONTINUOUS
 62
    6
 10
209.61121552289384
 20
316.75047361076656
 11
220.54871552289384
 21
327.68797361076656
  0
LINE
  8
_0-e_極細4
  6
CONTINUOUS
 62
    6
 10
209.61121552289384
 20
319.40212404021634
 11
220.54871552289384
 21
330.33962404021599
  0
LINE
  8
_0-e_極細4
  6
CONTINUOUS
 62
    6
 10
209.61121552289384
 20
322.0537744696656
 11
220.54871552289384
 21
332.99127446966565
  0
LINE
  8
_0-e_極細4
  6
CONTINUOUS
 62
    6
 10
209.61121552289384
 20
324.7054248991152
 11
219.65722569145925
 21
334.75143506768086
  0
LINE
  8
_0-e_極細4
  6
CONTINUOUS
 62
    6
 10
209.61121552289384
 20
327.35707532856486
 11
217.00557526200967
 21
334.75143506768086
  0
LINE
  8
_0-e_極細4
  6
CONTINUOUS
 62
    6
 10
209.61121552289384
 20
330.00872575801446
 11
214.3539248325601
 21
334.75143506768086
  0
LINE
  8
_0-e_極細4
  6
CONTINUOUS
 62
    6
 10
209.61121552289384
 20
332.66037618746407
 11
211.70227440311052
 21
334.75143506768086
  0
LINE
  8
_0-e_極細4
  6
CONTINUOUS
 62
    6
 10
209.61121552289384
 20
335.31202661691339
 11
209.73941015214768
 21
335.44022124616754
  0
LINE
  8
_0-e_極細4
  6
CONTINUOUS
 62
    6
 10
322.76459770375686
 20
262.84987873630791
 11
329.1010090307318
 21
269.18629006328263
  0
LINE
  8
_0-e_極細4
  6
CONTINUOUS
 62
    6
 10
319.60274078214616
 20
262.33967224414653
 11
329.61121552289342
 21
272.3481469848939
  0
LINE
  8
_0-e_極細4
  6
CONTINUOUS
 62
    6
 10
316.95109035269616
 20
262.33967224414653
 11
329.61121552289342
 21
274.99979741434345
  0
LINE
  8
_0-e_極細4
  6
CONTINUOUS
 62
    6
 10
314.29943992324706
 20
262.33967224414653
 11
329.61121552289342
 21
277.65144784379311
  0
LINE
  8
_0-e_極細4
  6
CONTINUOUS
 62
    6
 10
311.64778949379752
 20
262.33967224414653
 11
329.61121552289342
 21
280.30309827324265
  0
LINE
  8
_0-e_極細4
  6
CONTINUOUS
 62
    6
 10
308.99613906434752
 20
262.33967224414653
 11
329.61121552289342
 21
282.9547487026922
  0
LINE
  8
_0-e_極細4
  6
CONTINUOUS
 62
    6
 10
306.34448863489797
 20
262.33967224414653
 11
329.61121552289342
 21
285.60639913214175
  0
LINE
  8
_0-e_極細4
  6
CONTINUOUS
 62
    6
 10
303.69283820544842
 20
262.33967224414653
 11
329.61121552289342
 21
288.25804956159129
  0
LINE
  8
_0-e_極細4
  6
CONTINUOUS
 62
    6
 10
301.04118777599894
 20
262.33967224414653
 11
329.61121552289342
 21
290.90969999104084
  0
LINE
  8
_0-e_極細4
  6
CONTINUOUS
 62
    6
 10
300.86121552289296
 20
264.81135042049038
 11
329.61121552289342
 21
293.5613504204905
  0
LINE
  8
_0-e_極細4
  6
CONTINUOUS
 62
    6
 10
300.86121552289296
 20
267.46300084993993
 11
309.35570373157907
 21
275.95748905862581
  0
LINE
  8
_0-e_極細4
  6
CONTINUOUS
 62
    6
 10
317.55589870841459
 20
284.15768403546065
 11
329.61121552289342
 21
296.21300084994004
  0
LINE
  8
_0-e_極細4
  6
CONTINUOUS
 62
    6
 10
300.86121552289296
 20
270.11465127938948
 11
305.72750315065065
 21
274.98093890714665
  0
LINE
  8
_0-e_極細4
  6
CONTINUOUS
 62
    6
 10
318.53244885989352
 20
287.78588461638935
 11
329.61121552289342
 21
298.8646512793897
  0
LINE
  8
_0-e_極細4
  6
CONTINUOUS
 62
    6
 10
300.86121552289296
 20
272.76630170883914
 11
302.93458605820069
 21
274.8396722441463
  0
LINE
  8
_0-e_極細4
  6
CONTINUOUS
 62
    6
 10
318.67371552289296
 20
290.57880170883914
 11
329.61121552289342
 21
301.51630170883891
  0
LINE
  8
_0-e_極細4
  6
CONTINUOUS
 62
    6
 10
318.67371552289296
 20
293.23045213828857
 11
329.61121552289342
 21
304.16795213828857
  0
LINE
  8
_0-e_極細4
  6
CONTINUOUS
 62
    6
 10
318.67371552289296
 20
295.88210256773812
 11
329.61121552289342
 21
306.81960256773789
  0
LINE
  8
_0-e_極細4
  6
CONTINUOUS
 62
    6
 10
318.67371552289296
 20
298.53375299718766
 11
329.61121552289342
 21
309.47125299718743
  0
LINE
  8
_0-e_極細4
  6
CONTINUOUS
 62
    6
 10
318.67371552289296
 20
301.18540342663721
 11
329.61121552289342
 21
312.12290342663698
  0
LINE
  8
_0-e_極細4
  6
CONTINUOUS
 62
    6
 10
318.67371552289296
 20
303.83705385608675
 11
329.61121552289342
 21
314.77455385608664
  0
LINE
  8
_0-e_極細4
  6
CONTINUOUS
 62
    6
 10
318.67371552289296
 20
306.4887042855363
 11
329.61121552289342
 21
317.4262042855363
  0
LINE
  8
_0-e_極細4
  6
CONTINUOUS
 62
    6
 10
318.67371552289296
 20
309.14035471498585
 11
329.61121552289342
 21
320.07785471498585
  0
LINE
  8
_0-e_極細4
  6
CONTINUOUS
 62
    6
 10
318.67371552289296
 20
311.79200514443551
 11
329.61121552289342
 21
322.72950514443528
  0
LINE
  8
_0-e_極細4
  6
CONTINUOUS
 62
    6
 10
318.67371552289296
 20
314.44365557388517
 11
329.61121552289342
 21
325.38115557388494
  0
LINE
  8
_0-e_極細4
  6
CONTINUOUS
 62
    6
 10
318.67371552289296
 20
317.09530600333471
 11
329.61121552289342
 21
328.0328060033346
  0
LINE
  8
_0-e_極細4
  6
CONTINUOUS
 62
    6
 10
318.67371552289296
 20
319.74695643278415
 11
329.61121552289342
 21
330.68445643278415
  0
LINE
  8
_0-e_極細4
  6
CONTINUOUS
 62
    6
 10
318.67371552289296
 20
322.39860686223381
 11
329.61121552289342
 21
333.33610686223358
  0
LINE
  8
_0-e_極細4
  6
CONTINUOUS
 62
    6
 10
318.67371552289296
 20
325.05025729168347
 11
328.37489329889149
 21
334.75143506768075
  0
LINE
  8
_0-e_極細4
  6
CONTINUOUS
 62
    6
 10
329.61120950197761
 20
335.98775127076749
 11
329.61121552289342
 21
335.98775729168335
  0
LINE
  8
_0-e_極細4
  6
CONTINUOUS
 62
    6
 10
318.67371552289296
 20
327.70190772113267
 11
325.72324286944149
 21
334.75143506768086
  0
LINE
  8
_0-e_極細4
  6
CONTINUOUS
 62
    6
 10
318.67371552289296
 20
330.35355815058233
 11
323.07159243999195
 21
334.75143506768075
  0
LINE
  8
_0-e_極細4
  6
CONTINUOUS
 62
    6
 10
318.67371552289296
 20
333.00520858003176
 11
320.41994201054246
 21
334.75143506768075
  0
LINE
  8
_0-e_極細4
  6
CONTINUOUS
 62
    6
 10
319.69919636499026
 20
227.96467224414647
 11
321.00714266367231
 21
229.27261854282852
  0
LINE
  8
_0-e_極細4
  6
CONTINUOUS
 62
    6
 10
317.41999107153333
 20
228.3371173801392
 11
321.05025893081802
 21
231.96738523942369
  0
LINE
  8
_0-e_極細4
  6
CONTINUOUS
 62
    6
 10
317.39373710688511
 20
230.96251384494096
 11
321.09337519796327
 21
234.66215193601894
  0
LINE
  8
_0-e_極細4
  6
CONTINUOUS
 62
    6
 10
317.36748314223723
 20
233.58791030974231
 11
321.13649146510903
 21
237.35691863261394
  0
LINE
  8
_0-e_極細4
  6
CONTINUOUS
 62
    6
 10
302.84259464719162
 20
221.71467224414647
 11
304.0055989275661
 21
222.87767652452075
  0
LINE
  8
_0-e_極細4
  6
CONTINUOUS
 62
    6
 10
317.34122917758941
 20
236.21330677454395
 11
321.17960773225428
 21
240.05168532920896
  0
LINE
  8
_0-e_極細4
  6
CONTINUOUS
 62
    6
 10
301.46659020008838
 20
222.99031822649232
 11
304.0505421551843
 21
225.57427018158816
  0
LINE
  8
_0-e_極細4
  6
CONTINUOUS
 62
    6
 10
317.31497521294159
 20
238.83870323934545
 11
321.22272399939993
 21
242.74645202580402
  0
LINE
  8
_0-e_極細4
  6
CONTINUOUS
 62
    6
 10
301.42641367842953
 20
225.60179213428358
 11
304.0954853828016
 21
228.27086383865566
  0
LINE
  8
_0-e_極細4
  6
CONTINUOUS
 62
    6
 10
317.28872124829337
 20
241.46409970414706
 11
321.26584026654518
 21
245.44121872239927
  0
LINE
  8
_0-e_極細4
  6
CONTINUOUS
 62
    6
 10
301.38623715677159
 20
228.21326604207462
 11
304.1404286104198
 21
230.96745749572284
  0
LINE
  8
_0-e_極細4
  6
CONTINUOUS
 62
    6
 10
317.26246728364549
 20
244.08949616894864
 11
321.30895653369089
 21
248.13598541899415
  0
LINE
  8
_0-e_極細4
  6
CONTINUOUS
 62
    6
 10
301.34606063511319
 20
230.82473994986614
 11
304.18537183803755
 21
233.66405115279051
  0
LINE
  8
_0-e_極細4
  6
CONTINUOUS
 62
    6
 10
317.23621331899722
 20
246.71489263375014
 11
321.35207280083659
 21
250.83075211558932
  0
LINE
  8
_0-e_極細4
  6
CONTINUOUS
 62
    6
 10
301.30588411345485
 20
233.43621385765729
 11
304.23031506565536
 21
236.36064480985755
  0
LINE
  8
_0-e_極細4
  6
CONTINUOUS
 62
    6
 10
317.20995935434939
 20
249.34028909855164
 11
321.39518906798185
 21
253.52551881218454
  0
LINE
  8
_0-e_極細4
  6
CONTINUOUS
 62
    6
 10
301.26570759179685
 20
236.04768776544856
 11
304.27525829327305
 21
239.05723846692496
  0
LINE
  8
_0-e_極細4
  6
CONTINUOUS
 62
    6
 10
317.18370538970112
 20
251.96568556335311
 11
321.43830533512755
 21
256.22028550877951
  0
LINE
  8
_0-e_極細4
  6
CONTINUOUS
 62
    6
 10
324.60977027560011
 20
259.39175044925207
 11
332.5591373177877
 21
267.34111749143949
  0
LINE
  8
_0-e_極細4
  6
CONTINUOUS
 62
    6
 10
301.22553107013755
 20
238.65916167323979
 11
304.32020152089035
 21
241.7538321239924
  0
LINE
  8
_0-e_極細4
  6
CONTINUOUS
 62
    6
 10
317.1574514250533
 20
254.59108202815486
 11
321.48142160227331
 21
258.91505220537454
  0
LINE
  8
_0-e_極細4
  6
CONTINUOUS
 62
    6
 10
321.78104164104525
 20
259.21467224414641
 11
332.73621552289342
 21
270.1698461259947
  0
LINE
  8
_0-e_極細4
  6
CONTINUOUS
 62
    6
 10
301.18535454847961
 20
241.27063558103094
 11
304.36514474850856
 21
244.45042578105969
  0
LINE
  8
_0-e_極細4
  6
CONTINUOUS
 62
    6
 10
317.13119746040547
 20
257.2164784929563
 11
322.76459770375686
 21
262.84987873630791
  0
LINE
  8
_0-e_極細4
  6
CONTINUOUS
 62
    6
 10
329.1010090307318
 20
269.18629006328263
 11
332.73621552289342
 21
272.82149655544424
  0
LINE
  8
_0-e_極細4
  6
CONTINUOUS
 62
    6
 10
301.14517802682121
 20
243.8821094888221
 11
304.41008797612631
 21
247.1470194381271
  0
LINE
  8
_0-e_極細4
  6
CONTINUOUS
 62
    6
 10
316.4777407821457
 20
259.21467224414641
 11
319.6027407821457
 21
262.3396722441463
  0
LINE
  8
_0-e_極細4
  6
CONTINUOUS
 62
    6
 10
329.61121552289342
 20
272.34814698489402
 11
332.73621552289342
 21
275.47314698489379
  0
LINE
  8
_0-e_極細4
  6
CONTINUOUS
 62
    6
 10
301.10500150516327
 20
246.49358339661347
 11
304.45503120374411
 21
249.84361309519448
  0
LINE
  8
_0-e_極細4
  6
CONTINUOUS
 62
    6
 10
313.82609035269616
 20
259.21467224414641
 11
316.95109035269616
 21
262.3396722441463
  0
LINE
  8
_0-e_極細4
  6
CONTINUOUS
 62
    6
 10
329.61121552289342
 20
274.99979741434345
 11
332.73621552289342
 21
278.12479741434333
  0
LINE
  8
_0-e_極細4
  6
CONTINUOUS
 62
    6
 10
301.06482498350488
 20
249.10505730440462
 11
304.49997443136226
 21
252.54020675226175
  0
LINE
  8
_0-e_極細4
  6
CONTINUOUS
 62
    6
 10
311.17443992324667
 20
259.21467224414641
 11
314.29943992324706
 21
262.3396722441463
  0
LINE
  8
_0-e_極細4
  6
CONTINUOUS
 62
    6
 10
329.61121552289342
 20
277.65144784379311
 11
332.73621552289342
 21
280.77644784379288
  0
LINE
  8
_0-e_極細4
  6
CONTINUOUS
 62
    6
 10
301.02464846184648
 20
251.71653121219589
 11
304.54491765898001
 21
255.23680040932905
  0
LINE
  8
_0-e_極細4
  6
CONTINUOUS
 62
    6
 10
308.52278949379706
 20
259.21467224414641
 11
311.64778949379752
 21
262.33967224414653
  0
LINE
  8
_0-e_極細4
  6
CONTINUOUS
 62
    6
 10
329.61121552289342
 20
280.30309827324265
 11
332.73621552289342
 21
283.42809827324254
  0
LINE
  8
_0-e_極細4
  6
CONTINUOUS
 62
    6
 10
300.98447194018809
 20
254.32800511998693
 11
304.58986088659776
 21
257.93339406639654
  0
LINE
  8
_0-e_極細4
  6
CONTINUOUS
 62
    6
 10
305.87113906434797
 20
259.21467224414641
 11
308.99613906434752
 21
262.33967224414653
  0
LINE
  8
_0-e_極細4
  6
CONTINUOUS
 62
    6
 10
329.61121552289342
 20
282.9547487026922
 11
332.73621552289342
 21
286.07974870269197
  0
LINE
  8
_0-e_極細4
  6
CONTINUOUS
 62
    6
 10
300.94429541852975
 20
256.93947902777825
 11
306.34448863489797
 21
262.3396722441463
  0
LINE
  8
_0-e_極細4
  6
CONTINUOUS
 62
    6
 10
329.61121552289342
 20
285.60639913214175
 11
332.73621552289342
 21
288.73139913214175
  0
LINE
  8
_0-e_極細4
  6
CONTINUOUS
 62
    6
 10
300.90411889687175
 20
259.5509529355694
 11
303.69283820544842
 21
262.33967224414653
  0
LINE
  8
_0-e_極細4
  6
CONTINUOUS
 62
    6
 10
329.61121552289342
 20
288.25804956159129
 11
332.73621552289342
 21
291.38304956159118
  0
LINE
  8
_0-e_極細4
  6
CONTINUOUS
 62
    6
 10
300.8639423752129
 20
262.16242684336066
 11
301.04118777599894
 21
262.33967224414653
  0
LINE
  8
_0-e_極細4
  6
CONTINUOUS
 62
    6
 10
329.61121552289342
 20
290.90969999104084
 11
332.73621552289342
 21
294.03469999104084
  0
LINE
  8
_0-e_極細4
  6
CONTINUOUS
 62
    6
 10
329.61121552289342
 20
293.5613504204905
 11
332.73621552289342
 21
296.68635042049016
  0
LINE
  8
_0-e_極細4
  6
CONTINUOUS
 62
    6
 10
329.61121552289342
 20
296.21300084994004
 11
332.73621552289342
 21
299.3380008499397
  0
LINE
  8
_0-e_極細4
  6
CONTINUOUS
 62
    6
 10
329.61121552289342
 20
298.8646512793897
 11
332.73621552289342
 21
301.98965127938936
  0
LINE
  8
_0-e_極細4
  6
CONTINUOUS
 62
    6
 10
329.61121552289342
 20
301.51630170883891
 11
332.73621552289342
 21
304.64130170883891
  0
LINE
  8
_0-e_極細4
  6
CONTINUOUS
 62
    6
 10
329.61121552289342
 20
304.16795213828857
 11
332.73621552289342
 21
307.29295213828857
  0
LINE
  8
_0-e_極細4
  6
CONTINUOUS
 62
    6
 10
329.61121552289342
 20
306.81960256773789
 11
332.73621552289342
 21
309.94460256773812
  0
LINE
  8
_0-e_極細4
  6
CONTINUOUS
 62
    6
 10
329.61121552289342
 20
309.47125299718766
 11
332.73621552289342
 21
312.59625299718766
  0
LINE
  8
_0-e_極細4
  6
CONTINUOUS
 62
    6
 10
329.61121552289342
 20
312.12290342663698
 11
332.73621552289342
 21
315.24790342663721
  0
LINE
  8
_0-e_極細4
  6
CONTINUOUS
 62
    6
 10
329.61121552289342
 20
314.77455385608664
 11
332.73621552289342
 21
317.89955385608687
  0
LINE
  8
_0-e_極細4
  6
CONTINUOUS
 62
    6
 10
329.61121552289342
 20
317.4262042855363
 11
332.73621552289342
 21
320.55120428553641
  0
LINE
  8
_0-e_極細4
  6
CONTINUOUS
 62
    6
 10
329.61121552289342
 20
320.07785471498585
 11
332.73621552289342
 21
323.20285471498585
  0
LINE
  8
_0-e_極細4
  6
CONTINUOUS
 62
    6
 10
329.61121552289342
 20
322.72950514443528
 11
332.73621552289342
 21
325.85450514443545
  0
LINE
  8
_0-e_極細4
  6
CONTINUOUS
 62
    6
 10
329.61121552289342
 20
325.38115557388494
 11
332.73621552289342
 21
328.50615557388494
  0
LINE
  8
_0-e_極細4
  6
CONTINUOUS
 62
    6
 10
329.61121552289342
 20
328.0328060033346
 11
332.73621552289342
 21
331.1578060033346
  0
LINE
  8
_0-e_極細4
  6
CONTINUOUS
 62
    6
 10
329.61121552289342
 20
330.68445643278415
 11
332.73621552289342
 21
333.80945643278415
  0
LINE
  8
_0-e_極細4
  6
CONTINUOUS
 62
    6
 10
329.61121552289342
 20
333.33610686223358
 11
332.73621552289342
 21
336.46110686223346
  0
LINE
  8
_0-e_極細4
  6
CONTINUOUS
 62
    6
 10
329.61121552289342
 20
335.98775729168335
 11
332.73621552289342
 21
339.11275729168301
  0
LINE
  8
_0-e_極細4
  6
CONTINUOUS
 62
    6
 10
329.61121552289342
 20
338.63940772113267
 11
332.73621552289342
 21
341.76440772113267
  0
LINE
  8
_0-e_極細4
  6
CONTINUOUS
 62
    6
 10
329.61121552289342
 20
341.29105815058233
 11
332.73621552289342
 21
344.41605815058222
  0
LINE
  8
_0-e_極細4
  6
CONTINUOUS
 62
    6
 10
329.61121552289342
 20
343.94270858003188
 11
332.73621552289342
 21
347.06770858003176
  0
LINE
  8
_0-e_極細4
  6
CONTINUOUS
 62
    6
 10
329.61121552289342
 20
346.59435900948148
 11
332.73621552289342
 21
349.71935900948131
  0
LINE
  8
_0-e_極細4
  6
CONTINUOUS
 62
    6
 10
329.61121552289342
 20
349.24600943893108
 11
332.73621552289342
 21
352.37100943893108
  0
LINE
  8
_0-e_極細4
  6
CONTINUOUS
 62
    6
 10
329.61121552289342
 20
351.89765986838063
 11
332.73621552289342
 21
355.0226598683804
  0
LINE
  8
_0-e_極細4
  6
CONTINUOUS
 62
    6
 10
329.61121552289342
 20
354.54931029782995
 11
332.73621552289342
 21
357.67431029783006
  0
LINE
  8
_0-e_極細4
  6
CONTINUOUS
 62
    6
 10
329.61121552289342
 20
357.20096072727949
 11
332.73621552289342
 21
360.32596072727961
  0
LINE
  8
_0-e_極細4
  6
CONTINUOUS
 62
    6
 10
329.61121552289342
 20
359.85261115672904
 11
332.913439897221
 21
363.15483553105685
  0
LINE
  8
_0-e_極細4
  6
CONTINUOUS
 62
    6
 10
329.61121552289342
 20
362.50426158617864
 11
335.86121552289342
 21
368.75426158617864
  0
LINE
  8
_0-e_極細4
  6
CONTINUOUS
 62
    6
 10
329.61121552289342
 20
365.15591201562808
 11
335.86121552289342
 21
371.40591201562836
  0
LINE
  8
_0-e_極細4
  6
CONTINUOUS
 62
    6
 10
329.61121552289342
 20
367.80756244507779
 11
331.64334622196657
 21
369.839693144151
  0
LINE
  8
_0-e_極細4
  6
CONTINUOUS
 62
    6
 10
331.79836835480592
 20
369.99471527699063
 11
335.86121552289342
 21
374.05756244507791
  0
LINE
  8
_0-e_極細4
  6
CONTINUOUS
 62
    6
 10
338.89334622196657
 20
377.08969314415094
 11
340.73621552289387
 21
378.93256244507768
  0
LINE
  8
_0-e_極細4
  6
CONTINUOUS
 62
    6
 10
330.23621552289342
 20
371.08421287452722
 11
335.86121552289342
 21
376.70921287452734
  0
LINE
  8
_0-e_極細4
  6
CONTINUOUS
 62
    6
 10
336.24169579251708
 20
377.08969314415094
 11
340.73621552289387
 21
381.58421287452734
  0
LINE
  8
_0-e_極細4
  6
CONTINUOUS
 62
    6
 10
330.23621552289342
 20
373.73586330397677
 11
340.73621552289387
 21
384.23586330397688
  0
LINE
  8
_0-e_極細4
  6
CONTINUOUS
 62
    6
 10
332.08496552289353
 20
378.23626373342643
 11
340.73621552289387
 21
386.88751373342649
  0
LINE
  8
_0-e_極細4
  6
CONTINUOUS
 62
    6
 10
332.08496552289353
 20
380.88791416287597
 11
340.73621552289387
 21
389.53916416287609
  0
LINE
  8
_0-e_極細4
  6
CONTINUOUS
 62
    6
 10
332.08496552289353
 20
383.53956459232558
 11
340.73621552289387
 21
392.19081459232569
  0
LINE
  8
_0-e_極細4
  6
CONTINUOUS
 62
    6
 10
332.08496552289353
 20
386.19121502177506
 11
340.4504069679133
 21
394.55665646679461
  0
LINE
  8
_0-e_極細4
  6
CONTINUOUS
 62
    6
 10
332.08496552289353
 20
388.84286545122478
 11
337.45219219545424
 21
394.21009212378533
  0
LINE
  8
_0-e_極細4
  6
CONTINUOUS
 62
    6
 10
332.08496552289353
 20
391.49451588067421
 11
334.45397742299519
 21
393.86352778077605
  0
LINE
  8
_0-e_極細4
  6
CENTER2
 62
    6
 10
269.61121552289342
 20
411.40996062617234
 11
269.61121552289342
 21
207.87526145123408
  0
LINE
  8
_0-e_極細4
  6
CONTINUOUS
 62
    6
 10
198.48621552289345
 20
397.58071941248897
 11
340.73621552289387
 21
397.58071941248897
  0
LINE
  8
_0-e_極細4
  6
CONTINUOUS
 62
    6
 10
340.73621552289387
 20
396.714693144151
 11
340.73621552289387
 21
397.58071941248897
  0
LINE
  8
_0-e_極細4
  6
CONTINUOUS
 62
    6
 10
303.36121552289342
 20
369.839693144151
 11
332.08496552289313
 21
369.839693144151
  0
LINE
  8
_0-e_極細4
  6
CONTINUOUS
 62
    6
 10
317.42371552289342
 20
363.33969314415094
 11
303.36121552289342
 21
363.33969314415094
  0
LINE
  8
_0-e_極細4
  6
CONTINUOUS
 62
    6
 10
332.08496552289353
 20
396.34852314415099
 11
340.73621552289387
 21
397.58071941248897
  0
LINE
  8
_0-e_極細4
  6
CONTINUOUS
 62
    6
 10
303.36121552289342
 20
369.47011314415113
 11
303.36121552289342
 21
371.31730439415117
  0
LINE
  8
_0-e_極細4
  6
CONTINUOUS
 62
    6
 10
303.36121552289342
 20
370.83969314415094
 11
330.23621552289342
 21
370.83969314415094
  0
LINE
  8
_0-e_極細4
  6
CONTINUOUS
 62
    6
 10
323.98621552289342
 20
387.72449689415106
 11
323.98621552289342
 21
388.84852314415099
  0
LINE
  8
_0-e_極細4
  6
CONTINUOUS
 62
    6
 10
323.98621552289342
 20
387.72449689415106
 11
269.61121552289342
 21
387.72449689415106
  0
LINE
  8
_0-e_極細4
  6
CONTINUOUS
 62
    6
 10
323.98621552289342
 20
381.97449689415089
 11
269.61121552289342
 21
381.97449689415117
  0
LINE
  8
_0-e_極細4
  6
CONTINUOUS
 62
    6
 10
323.98621552289342
 20
380.09949689415089
 11
323.98621552289342
 21
381.97449689415089
  0
LINE
  8
_0-e_極細4
  6
CONTINUOUS
 62
    6
 10
319.29871552289342
 20
385.60616064415109
 11
319.29871552289342
 21
383.98116064415092
  0
LINE
  8
_0-e_極細4
  6
CONTINUOUS
 62
    6
 10
319.29871552289342
 20
382.73116064415086
 11
319.29871552289342
 21
382.10616064415092
  0
LINE
  8
_0-e_極細4
  6
CONTINUOUS
 62
    6
 10
323.79871552289387
 20
385.60616064415109
 11
323.79871552289387
 21
382.10616064415092
  0
LINE
  8
_0-e_極細4
  6
CONTINUOUS
 62
    6
 10
269.61121552289342
 20
382.10616064415092
 11
323.79871552289387
 21
382.10616064415092
  0
LINE
  8
_0-e_極細4
  6
CONTINUOUS
 62
    6
 10
269.61121552289342
 20
383.35616064415092
 11
318.67371552289296
 21
383.35616064415092
  0
LINE
  8
_0-e_極細4
  6
CONTINUOUS
 62
    6
 10
269.61121552289342
 20
386.23116064415109
 11
318.67371552289296
 21
386.23116064415092
  0
LINE
  8
_0-e_極細4
  6
CONTINUOUS
 62
    6
 10
318.67371552289296
 20
386.23116064415092
 11
319.29871552289342
 21
386.85616064415092
  0
LINE
  8
_0-e_極細4
  6
CONTINUOUS
 62
    6
 10
319.29871552289342
 20
385.60616064415109
 11
318.67371552289296
 21
386.23116064415092
  0
LINE
  8
_0-e_極細4
  6
CONTINUOUS
 62
    6
 10
319.29871552289342
 20
382.73116064415086
 11
318.67371552289296
 21
383.35616064415092
  0
LINE
  8
_0-e_極細4
  6
CONTINUOUS
 62
    6
 10
318.67371552289296
 20
383.35616064415092
 11
319.29871552289342
 21
383.98116064415092
  0
LINE
  8
_0-e_極細4
  6
CONTINUOUS
 62
    6
 10
323.79871552289387
 20
385.60616064415109
 11
324.79871552289387
 21
387.48116064415086
  0
LINE
  8
_0-e_極細4
  6
CONTINUOUS
 62
    6
 10
319.29871552289342
 20
387.48116064415086
 11
319.29871552289342
 21
386.85616064415092
  0
LINE
  8
_0-e_極細4
  6
CONTINUOUS
 62
    6
 10
269.61121552289342
 20
387.48116064415109
 11
324.79871552289387
 21
387.48116064415086
  0
LINE
  8
_0-e_極細4
  6
CONTINUOUS
 62
    6
 10
269.86121552289347
 20
388.84852314415122
 11
324.36121552289342
 21
388.84852314415099
  0
LINE
  8
_0-e_極細4
  6
CONTINUOUS
 62
    6
 10
269.86121552289347
 20
390.09852314415105
 11
323.61121552289342
 21
390.09852314415099
  0
ARC
  8
_0-e_極細4
  6
CONTINUOUS
 62
    6
 10
327.04871552289342
 20
395.09852314415122
 40
0.625
 50
24.054548999996424
 51
89.999999999999915
  0
ARC
  8
_0-e_極細4
  6
CONTINUOUS
 62
    6
 10
327.42371552289342
 20
393.47352314415099
 40
0.2499999999999857
 50
269.99999999999977
 51
359.99999999999966
  0
ARC
  8
_0-e_極細4
  6
CONTINUOUS
 62
    6
 10
327.04871552289342
 20
395.09852314415122
 40
0.625
 50
0
 51
24.054548999996424
  0
LINE
  8
_0-e_極細4
  6
CONTINUOUS
 62
    6
 10
324.98621552289342
 20
389.47352314415105
 11
324.98621552289342
 21
393.22352314415122
  0
LINE
  8
_0-e_極細4
  6
CONTINUOUS
 62
    6
 10
324.98621552289342
 20
393.22352314415122
 11
327.42371552289342
 21
393.22352314415122
  0
LINE
  8
_0-e_極細4
  6
CONTINUOUS
 62
    6
 10
269.61121552289342
 20
395.72352314415122
 11
327.04871552289342
 21
395.72352314415099
  0
LINE
  8
_0-e_極細4
  6
CONTINUOUS
 62
    6
 10
327.67371552289342
 20
393.47352314415099
 11
327.67371552289342
 21
395.09852314415122
  0
LINE
  8
_0-e_極細4
  6
CONTINUOUS
 62
    6
 10
313.09410677289361
 20
372.34852314415116
 11
313.09410677289361
 21
374.47352314415093
  0
LINE
  8
_0-e_極細4
  6
CONTINUOUS
 62
    6
 10
306.84410677289361
 20
372.34852314415116
 11
306.84410677289361
 21
374.47352314415093
  0
LINE
  8
_0-e_極細4
  6
CONTINUOUS
 62
    6
 10
306.84410677289361
 20
372.34852314415116
 11
313.09410677289361
 21
372.34852314415116
  0
LINE
  8
_0-e_極細4
  6
CONTINUOUS
 62
    6
 10
323.36121552289342
 20
374.47352314415093
 11
330.23621552289342
 21
374.47352314415093
  0
LINE
  8
_0-e_極細4
  6
CONTINUOUS
 62
    6
 10
322.32348552289346
 20
371.97352314415105
 11
323.36121552289342
 21
371.97352314415105
  0
LINE
  8
_0-e_極細4
  6
CONTINUOUS
 62
    6
 10
323.36121552289342
 20
377.84852314415099
 11
324.98621552289342
 21
377.84852314415099
  0
LINE
  8
_0-e_極細4
  6
CONTINUOUS
 62
    6
 10
323.36121552289342
 20
376.97352314415093
 11
325.86121552289342
 21
376.97352314415093
  0
LINE
  8
_0-e_極細4
  6
CONTINUOUS
 62
    6
 10
323.36121552289342
 20
371.97352314415105
 11
323.36121552289342
 21
379.47352314415093
  0
LINE
  8
_0-e_極細4
  6
CONTINUOUS
 62
    6
 10
332.08496552289353
 20
376.32227314415098
 11
330.23621552289342
 21
374.47352314415093
  0
LINE
  8
_0-e_極細4
  6
CONTINUOUS
 62
    6
 10
325.86121552289342
 20
376.97352314415093
 11
325.86121552289342
 21
391.03602314415099
  0
ARC
  8
_0-e_極細4
  6
CONTINUOUS
 62
    6
 10
327.17371552289342
 20
391.03602314415099
 40
1.3125000000000142
 50
89.999999999999915
 51
179.99999999999983
  0
LINE
  8
_0-e_極細4
  6
CONTINUOUS
 62
    6
 10
328.6627455228936
 20
392.34852314415105
 11
327.17371552289342
 21
392.34852314415105
  0
ARC
  8
_0-e_極細4
  6
CONTINUOUS
 62
    6
 10
328.6627455228936
 20
394.47352314415099
 40
2.1249999999999858
 50
269.99999999999977
 51
356.64911199999841
  0
ARC
  8
_0-e_極細4
  6
CONTINUOUS
 62
    6
 10
328.6627455228936
 20
394.47352314415099
 40
1.25
 50
269.99999999999977
 51
356.64911200000347
  0
ARC
  8
_0-e_極細4
  6
CONTINUOUS
 62
    6
 10
332.08496552289353
 20
394.16102314415122
 40
2.1874999999999996
 50
89.999999999999915
 51
175.84901000000326
  0
ARC
  8
_0-e_極細4
  6
CONTINUOUS
 62
    6
 10
327.17371552289342
 20
391.03602314415099
 40
2.1874999999999996
 50
89.999999999999915
 51
179.99999999999983
  0
LINE
  8
_0-e_極細4
  6
CONTINUOUS
 62
    6
 10
327.73621552289342
 20
393.22352314415122
 11
327.73621552289342
 21
396.34852314415099
  0
LINE
  8
_0-e_極細4
  6
CONTINUOUS
 62
    6
 10
324.98621552289342
 20
377.84852314415099
 11
324.98621552289342
 21
391.03602314415099
  0
LINE
  8
_0-e_極細4
  6
CONTINUOUS
 62
    6
 10
328.6627455228936
 20
393.22352314415122
 11
327.17371552289342
 21
393.22352314415122
  0
LINE
  8
_0-e_極細4
  6
CONTINUOUS
 62
    6
 10
319.92371552289342
 20
379.47352314415093
 11
324.98621552289342
 21
379.47352314415093
  0
LINE
  8
_0-e_極細4
  6
CONTINUOUS
 62
    6
 10
269.61121552289342
 20
396.34852314415122
 11
332.08496552289353
 21
396.34852314415099
  0
ARC
  8
_0-e_極細4
  6
CONTINUOUS
 62
    6
 10
317.42371552289342
 20
362.08969314415123
 40
1.25
 50
89.999999999999915
 51
179.99999999999983
  0
ARC
  8
_0-e_極細4
  6
CONTINUOUS
 62
    6
 10
317.42371552289342
 20
362.08969314415123
 40
1.25
 50
0
 51
89.999999999999915
  0
LINE
  8
_0-e_極細4
  6
CONTINUOUS
 62
    6
 10
340.73621552289387
 20
394.589693144151
 11
332.08496552289353
 21
393.589693144151
  0
LINE
  8
_0-e_極細4
  6
CONTINUOUS
 62
    6
 10
332.08496552289313
 20
369.839693144151
 11
330.23621552289342
 21
370.83969314415094
  0
LINE
  8
_0-e_極細4
  6
CONTINUOUS
 62
    6
 10
330.23621552289342
 20
370.83969314415094
 11
330.23621552289342
 21
374.47352314415093
  0
LINE
  8
_0-e_極細4
  6
CONTINUOUS
 62
    6
 10
340.73621552289387
 20
377.78374439415126
 11
340.73621552289387
 21
397.56291564415102
  0
LINE
  8
_0-e_極細4
  6
CONTINUOUS
 62
    6
 10
335.86121552289342
 20
377.08969314415094
 11
340.73621552289387
 21
377.08969314415094
  0
LINE
  8
_0-e_極細4
  6
CONTINUOUS
 62
    6
 10
340.73621552289387
 20
377.08969314415094
 11
340.73621552289387
 21
377.78374439415126
  0
ARC
  8
_0-e_極細4
  6
CONTINUOUS
 62
    6
 10
338.98621552289342
 20
361.67703439415101
 40
6.25
 50
119.99999999999989
 51
179.99999999999983
  0
LINE
  8
_0-e_極細4
  6
CONTINUOUS
 62
    6
 10
335.86121552289342
 20
367.08969314415094
 11
335.86121552289342
 21
377.08969314415094
  0
LINE
  8
_0-e_極細4
  6
CONTINUOUS
 62
    6
 10
332.08496552289353
 20
395.46469246133762
 11
340.73621552289387
 21
396.69688939415107
  0
LINE
  8
_0-e_極細4
  6
CONTINUOUS
 62
    6
 10
332.08496552289353
 20
376.32227314415098
 11
332.08496552289353
 21
395.47352314415122
  0
ARC
  8
_0-e_極細4
  6
CONTINUOUS
 62
    6
 10
332.08496552289353
 20
394.16102314415122
 40
1.3125000000000142
 50
89.999999999999915
 51
175.84901000000821
  0
LINE
  8
_0-e_極細4
  6
CONTINUOUS
 62
    6
 10
320.23621552289342
 20
370.84949689415134
 11
316.48621552289342
 21
370.84949689415134
  0
ARC
  8
_0-e_極細4
  6
CONTINUOUS
 62
    6
 10
320.23621552289342
 20
373.34949689415106
 40
2.5
 50
269.99999999999977
 51
359.99999999999966
  0
LINE
  8
_0-e_極細4
  6
CONTINUOUS
 62
    6
 10
322.73621552289342
 20
373.34949689415106
 11
322.73621552289342
 21
374.59949689415106
  0
LINE
  8
_0-e_極細4
  6
CONTINUOUS
 62
    6
 10
322.73621552289342
 20
374.59949689415106
 11
319.92371552289342
 21
374.59949689415106
  0
LINE
  8
_0-e_極細4
  6
CONTINUOUS
 62
    6
 10
323.98621552289342
 20
380.09949689415089
 11
319.92371552289342
 21
380.09949689415089
  0
LINE
  8
_0-e_極細4
  6
CONTINUOUS
 62
    6
 10
319.92371552289342
 20
374.59949689415106
 11
319.92371552289342
 21
380.09949689415117
  0
LINE
  8
_0-e_極細4
  6
CONTINUOUS
 62
    6
 10
319.92371552289342
 20
380.09949689415117
 11
269.61121552289342
 21
380.09949689415117
  0
ARC
  8
_0-e_極細4
  6
CONTINUOUS
 62
    6
 10
303.67371552289296
 20
289.83967224414641
 40
12.5
 50
269.99999999999977
 51
359.99999999999966
  0
LINE
  8
_0-e_極細4
  6
CONTINUOUS
 62
    6
 10
269.61121552289342
 20
277.33967224414641
 11
303.67371552289296
 21
277.33967224414641
  0
LINE
  8
_0-e_極細4
  6
CONTINUOUS
 62
    6
 10
316.17371552289342
 20
289.83967224414641
 11
316.17371552289342
 21
362.08969314415123
  0
LINE
  8
_0-e_極細4
  6
CONTINUOUS
 62
    6
 10
318.67371552289296
 20
289.83967224414641
 11
318.67371552289296
 21
362.08969314415123
  0
LINE
  8
_0-e_極細4
  6
CONTINUOUS
 62
    6
 10
270.77500802289342
 20
274.83967224414641
 11
303.67371552289296
 21
274.83967224414641
  0
LINE
  8
_0-e_極細4
  6
CONTINUOUS
 62
    6
 10
269.61121552289342
 20
274.83967224414641
 11
270.77500802289342
 21
274.83967224414641
  0
LINE
  8
_0-e_極細4
  6
CONTINUOUS
 62
    6
 10
317.42371552289296
 20
227.96467224414647
 11
317.11121552289342
 21
259.21467224414641
  0
LINE
  8
_0-e_極細4
  6
CONTINUOUS
 62
    6
 10
329.61121552289342
 20
335.99163099414625
 11
329.61121552289342
 21
369.839693144151
  0
ARC
  8
_0-e_極細4
  6
CONTINUOUS
 62
    6
 10
328.36121552289342
 20
335.99163099414625
 40
1.25
 50
277.18075599999247
 51
359.99999999999966
  0
ARC
  8
_0-e_極細4
  6
CONTINUOUS
 62
    6
 10
303.67371552289296
 20
289.83967224414641
 40
15
 50
269.99999999999977
 51
359.99999999999966
  0
LINE
  8
_0-e_極細4
  6
CONTINUOUS
 62
    6
 10
300.86121552289296
 20
262.3396722441463
 11
300.86121552289296
 21
274.83967224414641
  0
LINE
  8
_0-e_極細4
  6
CONTINUOUS
 62
    6
 10
303.67371552289296
 20
274.83967224414641
 11
300.86121552289296
 21
274.83967224414641
  0
LINE
  8
_0-e_極細4
  6
CONTINUOUS
 62
    6
 10
318.67371552289296
 20
289.83967224414641
 11
318.67371552289296
 21
323.58967224414619
  0
LINE
  8
_0-e_極細4
  6
CONTINUOUS
 62
    6
 10
300.86318927289358
 20
262.21133099414658
 11
300.86121552289296
 21
262.3396722441463
  0
LINE
  8
_0-e_極細4
  6
CONTINUOUS
 62
    6
 10
300.86121552289296
 20
262.3396722441463
 11
269.61121552289342
 21
262.33967224414653
  0
ARC
  8
_0-e_極細4
  6
CONTINUOUS
 62
    6
 10
319.61121552289296
 20
272.33967224414641
 40
10
 50
269.99999999999977
 51
359.99999999999966
  0
LINE
  8
_0-e_極細4
  6
CONTINUOUS
 62
    6
 10
304.61121552289296
 20
259.21467224414641
 11
317.11121552289342
 21
259.21467224414641
  0
LINE
  8
_0-e_極細4
  6
CONTINUOUS
 62
    6
 10
301.48621552289342
 20
221.71467224414647
 11
300.86121552289296
 21
262.3396722441463
  0
LINE
  8
_0-e_極細4
  6
CONTINUOUS
 62
    6
 10
329.61121552289342
 20
272.33967224414641
 11
329.61121552289342
 21
335.99163099414625
  0
LINE
  8
_0-e_極細4
  6
CONTINUOUS
 62
    6
 10
319.61121552289296
 20
262.3396722441463
 11
300.86121552289296
 21
262.3396722441463
  0
LINE
  8
_0-e_極細4
  6
CONTINUOUS
 62
    6
 10
304.09038218955999
 20
227.96467224414647
 11
304.61121552289296
 21
259.21467224414641
  0
ARC
  8
_0-e_極細4
  6
CONTINUOUS
 62
    6
 10
322.73621552289342
 20
269.2146722441463
 40
10
 50
269.99999999999977
 51
359.99999999999966
  0
LINE
  8
_0-e_極細4
  6
CONTINUOUS
 62
    6
 10
332.73621552289342
 20
269.2146722441463
 11
332.73621552289342
 21
361.67703439415101
  0
LINE
  8
_0-e_極細4
  6
CONTINUOUS
 62
    6
 10
320.98621552289342
 20
227.96467224414647
 11
321.48621552289342
 21
259.21467224414641
  0
LINE
  8
_0-e_極細4
  6
CONTINUOUS
 62
    6
 10
304.09038177289318
 20
227.96467224414647
 11
320.98621552289342
 21
227.96467224414647
  0
LINE
  8
_0-e_極細4
  6
CONTINUOUS
 62
    6
 10
302.11121552289342
 20
296.34947599414625
 11
269.61121552289342
 21
296.34947599414625
  0
ARC
  8
_0-e_極細4
  6
CONTINUOUS
 62
    6
 10
302.11121552289342
 20
297.59947599414647
 40
1.25
 50
269.99954163375423
 51
359.99999999999966
  0
LINE
  8
_0-e_極細4
  6
CONTINUOUS
 62
    6
 10
303.36121552289342
 20
297.59947599414647
 11
303.36121552289342
 21
371.31730439415117
  0
LINE
  8
_0-e_極細4
  6
CONTINUOUS
 62
    6
 10
328.5174655276237
 20
334.75143506768075
 11
318.67371552289296
 21
334.75143506768075
  0
LINE
  8
_0-e_極細4
  6
CONTINUOUS
 62
    6
 10
321.48621552289342
 20
259.21467224414641
 11
322.73621552289342
 21
259.21467224414641
  0
LINE
  8
_0-e_極細4
  6
CONTINUOUS
 62
    6
 10
269.61121552289296
 20
221.71467224414647
 11
303.98621552289342
 21
221.71467224414647
  0
LINE
  8
_0-e_極細4
  6
CONTINUOUS
 62
    6
 10
303.98621552289342
 20
221.71467224414647
 11
304.09038218955999
 21
227.96467224414647
  0
LINE
  8
_0-e_極細4
  6
CONTINUOUS
 62
    6
 10
198.48621552289345
 20
396.714693144151
 11
198.48621552289345
 21
397.58071941248897
  0
LINE
  8
_0-e_極細4
  6
CONTINUOUS
 62
    6
 10
235.86121552289384
 20
369.839693144151
 11
207.13746552289379
 21
369.839693144151
  0
LINE
  8
_0-e_極細4
  6
CONTINUOUS
 62
    6
 10
221.79871552289384
 20
363.33969314415094
 11
235.86121552289384
 21
363.33969314415094
  0
LINE
  8
_0-e_極細4
  6
CONTINUOUS
 62
    6
 10
207.13746552289379
 20
396.34852314415099
 11
198.48621552289345
 21
397.58071941248897
  0
LINE
  8
_0-e_極細4
  6
CONTINUOUS
 62
    6
 10
235.86121552289384
 20
369.47011314415113
 11
235.86121552289384
 21
371.31730439415117
  0
LINE
  8
_0-e_極細4
  6
CONTINUOUS
 62
    6
 10
235.86121552289384
 20
370.83969314415094
 11
208.98621552289384
 21
370.83969314415094
  0
LINE
  8
_0-e_極細4
  6
CONTINUOUS
 62
    6
 10
215.23621552289384
 20
387.72449689415106
 11
215.23621552289384
 21
388.84852314415099
  0
LINE
  8
_0-e_極細4
  6
CONTINUOUS
 62
    6
 10
215.23621552289384
 20
387.72449689415106
 11
269.61121552289387
 21
387.72449689415106
  0
LINE
  8
_0-e_極細4
  6
CONTINUOUS
 62
    6
 10
215.23621552289384
 20
381.97449689415089
 11
269.61121552289387
 21
381.97449689415117
  0
LINE
  8
_0-e_極細4
  6
CONTINUOUS
 62
    6
 10
215.23621552289384
 20
380.09949689415089
 11
215.23621552289384
 21
381.97449689415089
  0
LINE
  8
_0-e_極細4
  6
CONTINUOUS
 62
    6
 10
219.92371552289384
 20
385.60616064415109
 11
219.92371552289384
 21
383.98116064415092
  0
LINE
  8
_0-e_極細4
  6
CONTINUOUS
 62
    6
 10
219.92371552289384
 20
382.73116064415086
 11
219.92371552289384
 21
382.10616064415092
  0
LINE
  8
_0-e_極細4
  6
CONTINUOUS
 62
    6
 10
215.42371552289339
 20
385.60616064415109
 11
215.42371552289339
 21
382.10616064415092
  0
LINE
  8
_0-e_極細4
  6
CONTINUOUS
 62
    6
 10
269.61121552289387
 20
382.10616064415092
 11
215.42371552289339
 21
382.10616064415092
  0
LINE
  8
_0-e_極細4
  6
CONTINUOUS
 62
    6
 10
269.61121552289387
 20
383.35616064415092
 11
220.54871552289384
 21
383.35616064415092
  0
LINE
  8
_0-e_極細4
  6
CONTINUOUS
 62
    6
 10
269.61121552289387
 20
386.23116064415109
 11
220.54871552289384
 21
386.23116064415092
  0
LINE
  8
_0-e_極細4
  6
CONTINUOUS
 62
    6
 10
220.54871552289384
 20
386.23116064415092
 11
219.92371552289384
 21
386.85616064415092
  0
LINE
  8
_0-e_極細4
  6
CONTINUOUS
 62
    6
 10
219.92371552289384
 20
385.60616064415109
 11
220.54871552289384
 21
386.23116064415092
  0
LINE
  8
_0-e_極細4
  6
CONTINUOUS
 62
    6
 10
219.92371552289384
 20
382.73116064415086
 11
220.54871552289384
 21
383.35616064415092
  0
LINE
  8
_0-e_極細4
  6
CONTINUOUS
 62
    6
 10
220.54871552289384
 20
383.35616064415092
 11
219.92371552289384
 21
383.98116064415092
  0
LINE
  8
_0-e_極細4
  6
CONTINUOUS
 62
    6
 10
215.42371552289339
 20
385.60616064415109
 11
214.42371552289345
 21
387.48116064415086
  0
LINE
  8
_0-e_極細4
  6
CONTINUOUS
 62
    6
 10
219.92371552289384
 20
387.48116064415086
 11
219.92371552289384
 21
386.85616064415092
  0
LINE
  8
_0-e_極細4
  6
CONTINUOUS
 62
    6
 10
269.61121552289387
 20
387.48116064415109
 11
214.42371552289345
 21
387.48116064415086
  0
LINE
  8
_0-e_極細4
  6
CONTINUOUS
 62
    6
 10
269.36121552289342
 20
388.84852314415122
 11
214.8612155228939
 21
388.84852314415099
  0
LINE
  8
_0-e_極細4
  6
CONTINUOUS
 62
    6
 10
269.36121552289342
 20
390.09852314415105
 11
215.61121552289342
 21
390.09852314415099
  0
ARC
  8
_0-e_極細4
  6
CONTINUOUS
 62
    6
 10
212.17371552289342
 20
395.09852314415122
 40
0.625
 50
89.999999999999915
 51
155.94545099998658
  0
ARC
  8
_0-e_極細4
  6
CONTINUOUS
 62
    6
 10
211.79871552289342
 20
393.47352314415099
 40
0.2499999999999857
 50
179.99999999999983
 51
269.99999999999977
  0
ARC
  8
_0-e_極細4
  6
CONTINUOUS
 62
    6
 10
212.17371552289342
 20
395.09852314415122
 40
0.625
 50
155.94545099998658
 51
179.99999999999983
  0
LINE
  8
_0-e_極細4
  6
CONTINUOUS
 62
    6
 10
214.2362155228939
 20
389.47352314415105
 11
214.23621552289347
 21
393.22352314415122
  0
LINE
  8
_0-e_極細4
  6
CONTINUOUS
 62
    6
 10
214.23621552289347
 20
393.22352314415122
 11
211.79871552289342
 21
393.22352314415122
  0
LINE
  8
_0-e_極細4
  6
CONTINUOUS
 62
    6
 10
269.61121552289342
 20
395.72352314415122
 11
212.17371552289342
 21
395.72352314415099
  0
LINE
  8
_0-e_極細4
  6
CONTINUOUS
 62
    6
 10
211.54871552289364
 20
393.47352314415099
 11
211.54871552289364
 21
395.09852314415122
  0
LINE
  8
_0-e_極細4
  6
CONTINUOUS
 62
    6
 10
226.12832427289368
 20
372.34852314415116
 11
226.12832427289368
 21
374.47352314415093
  0
LINE
  8
_0-e_極細4
  6
CONTINUOUS
 62
    6
 10
232.37832427289368
 20
372.34852314415116
 11
232.37832427289368
 21
374.47352314415093
  0
LINE
  8
_0-e_極細4
  6
CONTINUOUS
 62
    6
 10
232.37832427289368
 20
372.34852314415116
 11
226.12832427289368
 21
372.34852314415116
  0
LINE
  8
_0-e_極細4
  6
CONTINUOUS
 62
    6
 10
215.86121552289384
 20
374.47352314415093
 11
208.98621552289384
 21
374.47352314415093
  0
LINE
  8
_0-e_極細4
  6
CONTINUOUS
 62
    6
 10
216.89894552289346
 20
371.97352314415105
 11
215.86121552289384
 21
371.97352314415105
  0
LINE
  8
_0-e_極細4
  6
CONTINUOUS
 62
    6
 10
215.86121552289384
 20
377.84852314415099
 11
214.2362155228939
 21
377.84852314415099
  0
LINE
  8
_0-e_極細4
  6
CONTINUOUS
 62
    6
 10
215.86121552289384
 20
376.97352314415093
 11
213.36121552289384
 21
376.97352314415093
  0
LINE
  8
_0-e_極細4
  6
CONTINUOUS
 62
    6
 10
215.86121552289384
 20
371.97352314415105
 11
215.86121552289384
 21
379.47352314415093
  0
LINE
  8
_0-e_極細4
  6
CONTINUOUS
 62
    6
 10
207.13746552289379
 20
376.32227314415098
 11
208.98621552289384
 21
374.47352314415093
  0
LINE
  8
_0-e_極細4
  6
CONTINUOUS
 62
    6
 10
213.36121552289384
 20
376.97352314415093
 11
213.36121552289342
 21
391.03602314415099
  0
ARC
  8
_0-e_極細4
  6
CONTINUOUS
 62
    6
 10
212.0487155228939
 20
391.03602314415099
 40
1.3125000000000142
 50
0
 51
89.999999999999915
  0
LINE
  8
_0-e_極細4
  6
CONTINUOUS
 62
    6
 10
210.55968552289372
 20
392.34852314415105
 11
212.0487155228939
 21
392.34852314415105
  0
ARC
  8
_0-e_極細4
  6
CONTINUOUS
 62
    6
 10
210.55968552289372
 20
394.47352314415099
 40
2.1249999999999858
 50
183.35088800000048
 51
269.99999999999977
  0
ARC
  8
_0-e_極細4
  6
CONTINUOUS
 62
    6
 10
210.55968552289372
 20
394.47352314415099
 40
1.25
 50
183.35088799999582
 51
269.99999999999977
  0
ARC
  8
_0-e_極細4
  6
CONTINUOUS
 62
    6
 10
207.13746552289379
 20
394.16102314415122
 40
2.1874999999999996
 50
4.15098999999804
 51
89.999999999999915
  0
ARC
  8
_0-e_極細4
  6
CONTINUOUS
 62
    6
 10
212.0487155228939
 20
391.03602314415099
 40
2.1874999999999996
 50
0
 51
89.999999999999915
  0
LINE
  8
_0-e_極細4
  6
CONTINUOUS
 62
    6
 10
211.48621552289342
 20
393.22352314415122
 11
211.48621552289342
 21
396.34852314415099
  0
LINE
  8
_0-e_極細4
  6
CONTINUOUS
 62
    6
 10
214.2362155228939
 20
377.84852314415099
 11
214.2362155228939
 21
391.03602314415099
  0
LINE
  8
_0-e_極細4
  6
CONTINUOUS
 62
    6
 10
210.55968552289372
 20
393.22352314415122
 11
212.0487155228939
 21
393.22352314415122
  0
LINE
  8
_0-e_極細4
  6
CONTINUOUS
 62
    6
 10
219.29871552289342
 20
379.47352314415093
 11
214.2362155228939
 21
379.47352314415093
  0
LINE
  8
_0-e_極細4
  6
CONTINUOUS
 62
    6
 10
269.61121552289342
 20
396.34852314415122
 11
207.13746552289379
 21
396.34852314415099
  0
ARC
  8
_0-e_極細4
  6
CONTINUOUS
 62
    6
 10
221.79871552289384
 20
362.08969314415123
 40
1.25
 50
0
 51
89.999999999999915
  0
ARC
  8
_0-e_極細4
  6
CONTINUOUS
 62
    6
 10
221.79871552289384
 20
362.08969314415123
 40
1.25
 50
89.999999999999915
 51
179.99999999999983
  0
LINE
  8
_0-e_極細4
  6
CONTINUOUS
 62
    6
 10
198.48621552289345
 20
394.589693144151
 11
207.13746552289379
 21
393.589693144151
  0
LINE
  8
_0-e_極細4
  6
CONTINUOUS
 62
    6
 10
207.13746552289379
 20
369.839693144151
 11
208.98621552289384
 21
370.83969314415094
  0
LINE
  8
_0-e_極細4
  6
CONTINUOUS
 62
    6
 10
208.98621552289384
 20
370.83969314415094
 11
208.98621552289384
 21
374.47352314415093
  0
LINE
  8
_0-e_極細4
  6
CONTINUOUS
 62
    6
 10
198.48621552289345
 20
377.78374439415126
 11
198.48621552289345
 21
397.56291564415102
  0
LINE
  8
_0-e_極細4
  6
CONTINUOUS
 62
    6
 10
203.36121552289342
 20
377.08969314415094
 11
198.48621552289345
 21
377.08969314415094
  0
LINE
  8
_0-e_極細4
  6
CONTINUOUS
 62
    6
 10
198.48621552289345
 20
377.08969314415094
 11
198.48621552289345
 21
377.78374439415126
  0
ARC
  8
_0-e_極細4
  6
CONTINUOUS
 62
    6
 10
200.23621552289384
 20
361.67703439415101
 40
6.25
 50
0
 51
60.000000000003723
  0
LINE
  8
_0-e_極細4
  6
CONTINUOUS
 62
    6
 10
203.36121552289342
 20
367.08969314415094
 11
203.36121552289342
 21
377.08969314415094
  0
LINE
  8
_0-e_極細4
  6
CONTINUOUS
 62
    6
 10
207.13746552289379
 20
395.46469246133762
 11
198.48621552289345
 21
396.69688939415107
  0
LINE
  8
_0-e_極細4
  6
CONTINUOUS
 62
    6
 10
207.13746552289379
 20
376.32227314415098
 11
207.13746552289379
 21
395.47352314415122
  0
ARC
  8
_0-e_極細4
  6
CONTINUOUS
 62
    6
 10
207.13746552289379
 20
394.16102314415122
 40
1.3125000000000142
 50
4.150989999993234
 51
89.999999999999915
  0
LINE
  8
_0-e_極細4
  6
CONTINUOUS
 62
    6
 10
218.98621552289384
 20
370.84949689415134
 11
222.73621552289384
 21
370.84949689415134
  0
ARC
  8
_0-e_極細4
  6
CONTINUOUS
 62
    6
 10
218.98621552289384
 20
373.34949689415106
 40
2.5
 50
179.99999999999983
 51
269.99999999999977
  0
LINE
  8
_0-e_極細4
  6
CONTINUOUS
 62
    6
 10
216.48621552289384
 20
373.34949689415106
 11
216.48621552289384
 21
374.59949689415106
  0
LINE
  8
_0-e_極細4
  6
CONTINUOUS
 62
    6
 10
216.48621552289384
 20
374.59949689415106
 11
219.29871552289342
 21
374.59949689415106
  0
LINE
  8
_0-e_極細4
  6
CONTINUOUS
 62
    6
 10
215.23621552289384
 20
380.09949689415089
 11
219.29871552289342
 21
380.09949689415089
  0
LINE
  8
_0-e_極細4
  6
CONTINUOUS
 62
    6
 10
219.29871552289342
 20
374.59949689415106
 11
219.29871552289342
 21
380.09949689415117
  0
LINE
  8
_0-e_極細4
  6
CONTINUOUS
 62
    6
 10
219.29871552289342
 20
380.09949689415117
 11
269.61121552289387
 21
380.09949689415117
  0
ARC
  8
_0-e_極細4
  6
CONTINUOUS
 62
    6
 10
235.54871552289342
 20
289.83967224414641
 40
12.5
 50
179.99999999999983
 51
269.99999999999977
  0
LINE
  8
_0-e_極細4
  6
CONTINUOUS
 62
    6
 10
269.61121552289387
 20
277.33967224414641
 11
235.54871552289342
 21
277.33967224414641
  0
LINE
  8
_0-e_極細4
  6
CONTINUOUS
 62
    6
 10
223.04871552289384
 20
289.83967224414641
 11
223.04871552289384
 21
362.08969314415123
  0
LINE
  8
_0-e_極細4
  6
CONTINUOUS
 62
    6
 10
220.54871552289384
 20
289.83967224414641
 11
220.54871552289384
 21
362.08969314415123
  0
LINE
  8
_0-e_極細4
  6
CONTINUOUS
 62
    6
 10
268.44742302289387
 20
274.83967224414641
 11
235.54871552289342
 21
274.83967224414641
  0
LINE
  8
_0-e_極細4
  6
CONTINUOUS
 62
    6
 10
269.61121552289387
 20
274.83967224414641
 11
268.44742302289387
 21
274.83967224414641
  0
LINE
  8
_0-e_極細4
  6
CONTINUOUS
 62
    6
 10
221.79871552289384
 20
227.96467224414647
 11
222.11121552289384
 21
259.21467224414641
  0
LINE
  8
_0-e_極細4
  6
CONTINUOUS
 62
    6
 10
209.61121552289384
 20
335.99163099414625
 11
209.61121552289384
 21
369.839693144151
  0
ARC
  8
_0-e_極細4
  6
CONTINUOUS
 62
    6
 10
210.86121552289384
 20
335.99163099414625
 40
1.25
 50
179.99999999999983
 51
262.81924399998616
  0
ARC
  8
_0-e_極細4
  6
CONTINUOUS
 62
    6
 10
235.54871552289342
 20
289.83967224414641
 40
15
 50
179.99999999999983
 51
269.99999999999977
  0
LINE
  8
_0-e_極細4
  6
CONTINUOUS
 62
    6
 10
238.36121552289384
 20
262.3396722441463
 11
238.36121552289384
 21
274.83967224414641
  0
LINE
  8
_0-e_極細4
  6
CONTINUOUS
 62
    6
 10
235.54871552289342
 20
274.83967224414641
 11
238.36121552289384
 21
274.83967224414641
  0
LINE
  8
_0-e_極細4
  6
CONTINUOUS
 62
    6
 10
220.54871552289384
 20
289.83967224414641
 11
220.54871552289384
 21
323.58967224414619
  0
LINE
  8
_0-e_極細4
  6
CONTINUOUS
 62
    6
 10
238.35924177289348
 20
262.21133099414658
 11
238.36121552289384
 21
262.3396722441463
  0
LINE
  8
_0-e_極細4
  6
CONTINUOUS
 62
    6
 10
238.36121552289384
 20
262.3396722441463
 11
269.61121552289387
 21
262.33967224414653
  0
ARC
  8
_0-e_極細4
  6
CONTINUOUS
 62
    6
 10
219.61121552289384
 20
272.33967224414641
 40
10
 50
179.99999999999983
 51
269.99999999999977
  0
LINE
  8
_0-e_極細4
  6
CONTINUOUS
 62
    6
 10
234.61121552289384
 20
259.21467224414641
 11
222.11121552289384
 21
259.21467224414641
  0
LINE
  8
_0-e_極細4
  6
CONTINUOUS
 62
    6
 10
237.73621552289384
 20
221.71467224414647
 11
238.36121552289384
 21
262.3396722441463
  0
LINE
  8
_0-e_極細4
  6
CONTINUOUS
 62
    6
 10
209.61121552289384
 20
272.33967224414641
 11
209.61121552289384
 21
335.99163099414625
  0
LINE
  8
_0-e_極細4
  6
CONTINUOUS
 62
    6
 10
219.61121552289384
 20
262.3396722441463
 11
238.36121552289384
 21
262.3396722441463
  0
LINE
  8
_0-e_極細4
  6
CONTINUOUS
 62
    6
 10
235.13204885622713
 20
227.96467224414647
 11
234.61121552289384
 21
259.21467224414641
  0
ARC
  8
_0-e_極細4
  6
CONTINUOUS
 62
    6
 10
216.48621552289384
 20
269.2146722441463
 40
10
 50
179.99999999999983
 51
269.99999999999977
  0
LINE
  8
_0-e_極細4
  6
CONTINUOUS
 62
    6
 10
206.48621552289384
 20
269.2146722441463
 11
206.48621552289384
 21
361.67703439415101
  0
LINE
  8
_0-e_極細4
  6
CONTINUOUS
 62
    6
 10
218.23621552289387
 20
227.96467224414647
 11
217.73621552289384
 21
259.21467224414641
  0
LINE
  8
_0-e_極細4
  6
CONTINUOUS
 62
    6
 10
235.13204927289371
 20
227.96467224414647
 11
218.23621552289387
 21
227.96467224414647
  0
LINE
  8
_0-e_極細4
  6
CONTINUOUS
 62
    6
 10
237.11121552289342
 20
296.34947599414625
 11
269.61121552289387
 21
296.34947599414625
  0
ARC
  8
_0-e_極細4
  6
CONTINUOUS
 62
    6
 10
237.11121552289342
 20
297.59947599414647
 40
1.25
 50
179.99999999999983
 51
270.00045836623457
  0
LINE
  8
_0-e_極細4
  6
CONTINUOUS
 62
    6
 10
235.86121552289384
 20
297.59947599414647
 11
235.86121552289384
 21
371.31730439415117
  0
LINE
  8
_0-e_極細4
  6
CONTINUOUS
 62
    6
 10
210.70496551816319
 20
334.75143506768075
 11
220.54871552289384
 21
334.75143506768075
  0
LINE
  8
_0-e_極細4
  6
CONTINUOUS
 62
    6
 10
217.73621552289384
 20
259.21467224414641
 11
216.48621552289384
 21
259.21467224414641
  0
LINE
  8
_0-e_極細4
  6
CONTINUOUS
 62
    6
 10
269.61121552289387
 20
221.71467224414647
 11
235.23621552289384
 21
221.71467224414647
  0
LINE
  8
_0-e_極細4
  6
CONTINUOUS
 62
    6
 10
235.23621552289384
 20
221.71467224414647
 11
235.13204885622713
 21
227.96467224414647
  0
LINE
  8
_0-e_極細4
  6
CONTINUOUS
 62
    6
 10
323.61121552289342
 20
388.84852314415099
 11
323.61121552289342
 21
390.09852314415099
  0
ARC
  8
_0-e_極細4
  6
CONTINUOUS
 62
    6
 10
324.36121552289342
 20
389.47352314415105
 40
0.625
 50
269.99999999999977
 51
359.99999999999966
  0
LINE
  8
_0-e_極細4
  6
CONTINUOUS
 62
    6
 10
215.61121552289342
 20
388.84852314415099
 11
215.61121552289342
 21
390.09852314415099
  0
ARC
  8
_0-e_極細4
  6
CONTINUOUS
 62
    6
 10
214.8612155228939
 20
389.47352314415105
 40
0.625
 50
179.99999999999983
 51
269.99999999999977
  0
LINE
  8
_0-0_計極細
  6
CONTINUOUS
 62
    2
 10
691.18273557557768
 20
475.91031608886425
 11
690.68273557557768
 21
475.91031608886425
  0
LINE
  8
_0-0_計極細
  6
CONTINUOUS
 62
    2
 10
717.68273557557779
 20
453.41031608886385
 11
740.66173557557704
 21
453.41031608886385
  0
LINE
  8
_0-0_計極細
  6
CONTINUOUS
 62
    2
 10
728.93273557557779
 20
448.21031608886358
 11
717.68273557557779
 21
448.21031608886358
  0
LINE
  8
_0-0_計極細
  6
CONTINUOUS
 62
    2
 10
740.66173557557704
 20
474.61738008886357
 11
747.58273557557732
 21
475.60313710353364
  0
LINE
  8
_0-0_計極細
  6
CONTINUOUS
 62
    2
 10
717.68273557557779
 20
453.11465208886364
 11
717.68273557557779
 21
454.59240508886376
  0
LINE
  8
_0-0_計極細
  6
CONTINUOUS
 62
    2
 10
717.68273557557779
 20
454.21031608886352
 11
739.18273557557768
 21
454.21031608886352
  0
LINE
  8
_0-0_計極細
  6
CONTINUOUS
 62
    2
 10
734.18273557557768
 20
467.7181590888639
 11
734.18273557557768
 21
468.61738008886357
  0
LINE
  8
_0-0_計極細
  6
CONTINUOUS
 62
    2
 10
734.18273557557768
 20
461.61815908886354
 11
734.18273557557768
 21
463.11815908886354
  0
LINE
  8
_0-0_計極細
  6
CONTINUOUS
 62
    2
 10
730.43273557557768
 20
466.02349008886392
 11
730.43273557557768
 21
464.72349008886368
  0
LINE
  8
_0-0_計極細
  6
CONTINUOUS
 62
    2
 10
730.43273557557768
 20
463.72349008886374
 11
730.43273557557768
 21
463.22349008886368
  0
LINE
  8
_0-0_計極細
  6
CONTINUOUS
 62
    2
 10
734.03273557557804
 20
466.02349008886392
 11
734.03273557557804
 21
463.22349008886368
  0
LINE
  8
_0-0_計極細
  6
CONTINUOUS
 62
    2
 10
729.93273557557768
 20
466.52349008886392
 11
730.43273557557768
 21
467.02349008886387
  0
LINE
  8
_0-0_計極細
  6
CONTINUOUS
 62
    2
 10
730.43273557557768
 20
466.02349008886392
 11
729.93273557557768
 21
466.52349008886392
  0
LINE
  8
_0-0_計極細
  6
CONTINUOUS
 62
    2
 10
730.43273557557768
 20
463.72349008886374
 11
729.93273557557768
 21
464.22349008886374
  0
LINE
  8
_0-0_計極細
  6
CONTINUOUS
 62
    2
 10
729.93273557557768
 20
464.22349008886374
 11
730.43273557557768
 21
464.72349008886368
  0
LINE
  8
_0-0_計極細
  6
CONTINUOUS
 62
    2
 10
734.03273557557804
 20
466.02349008886392
 11
734.83273557557732
 21
467.52349008886392
  0
LINE
  8
_0-0_計極細
  6
CONTINUOUS
 62
    2
 10
730.43273557557768
 20
467.52349008886392
 11
730.43273557557768
 21
467.02349008886387
  0
LINE
  8
_0-0_計極細
  6
CONTINUOUS
 62
    2
 10
690.88273557557841
 20
468.61738008886397
 11
734.48273557557877
 21
468.61738008886357
  0
LINE
  8
_0-0_計極細
  6
CONTINUOUS
 62
    2
 10
690.88273557557841
 20
469.61738008886402
 11
733.88273557557841
 21
469.61738008886357
  0
ARC
  8
_0-0_計極細
  6
CONTINUOUS
 62
    2
 10
736.63273557557841
 20
473.61738008886357
 40
0.5
 50
24.054549000092944
 51
89.999999999999929
  0
ARC
  8
_0-0_計極細
  6
CONTINUOUS
 62
    2
 10
736.93273557557768
 20
472.31738008886384
 40
0.1999999999999886
 50
269.99999999999977
 51
359.99999999999966
  0
ARC
  8
_0-0_計極細
  6
CONTINUOUS
 62
    2
 10
736.63273557557841
 20
473.61738008886357
 40
0.5
 50
0
 51
24.054549000092944
  0
ARC
  8
_0-0_計極細
  6
CONTINUOUS
 62
    2
 10
734.48273557557877
 20
469.11738008886351
 40
0.5
 50
269.99999999999977
 51
359.99999999999966
  0
LINE
  8
_0-0_計極細
  6
CONTINUOUS
 62
    2
 10
733.88273557557841
 20
468.61738008886357
 11
733.88273557557841
 21
469.61738008886357
  0
LINE
  8
_0-0_計極細
  6
CONTINUOUS
 62
    2
 10
734.98273557557877
 20
469.11738008886351
 11
734.98273557557877
 21
472.11738008886357
  0
LINE
  8
_0-0_計極細
  6
CONTINUOUS
 62
    2
 10
734.98273557557877
 20
472.11738008886357
 11
736.93273557557768
 21
472.11738008886357
  0
LINE
  8
_0-0_計極細
  6
CONTINUOUS
 62
    2
 10
737.13273557557841
 20
472.31738008886384
 11
737.13273557557841
 21
473.61738008886357
  0
LINE
  8
_0-0_計極細
  6
CONTINUOUS
 62
    2
 10
721.9690485755782
 20
455.41738008886369
 11
721.9690485755782
 21
457.11738008886357
  0
LINE
  8
_0-0_計極細
  6
CONTINUOUS
 62
    2
 10
725.4690485755782
 20
455.41738008886369
 11
725.4690485755782
 21
457.11738008886357
  0
LINE
  8
_0-0_計極細
  6
CONTINUOUS
 62
    2
 10
720.4690485755782
 20
455.41738008886369
 11
720.4690485755782
 21
457.11738008886357
  0
LINE
  8
_0-0_計極細
  6
CONTINUOUS
 62
    2
 10
720.4690485755782
 20
455.41738008886369
 11
725.4690485755782
 21
455.41738008886369
  0
LINE
  8
_0-0_計極細
  6
CONTINUOUS
 62
    2
 10
733.68273557557768
 20
457.11738008886357
 11
739.18273557557768
 21
457.11738008886357
  0
LINE
  8
_0-0_計極細
  6
CONTINUOUS
 62
    2
 10
732.85255157557731
 20
455.11738008886357
 11
733.68273557557768
 21
455.11738008886357
  0
LINE
  8
_0-0_計極細
  6
CONTINUOUS
 62
    2
 10
733.68273557557768
 20
459.81738008886384
 11
734.98273557557877
 21
459.81738008886384
  0
LINE
  8
_0-0_計極細
  6
CONTINUOUS
 62
    2
 10
733.68273557557768
 20
459.11738008886351
 11
735.68273557557768
 21
459.11738008886351
  0
LINE
  8
_0-0_計極細
  6
CONTINUOUS
 62
    2
 10
731.43273557557779
 20
457.21815908886384
 11
731.43273557557779
 21
461.11738008886357
  0
LINE
  8
_0-0_計極細
  6
CONTINUOUS
 62
    2
 10
733.68273557557768
 20
455.11738008886357
 11
733.68273557557768
 21
461.11738008886357
  0
LINE
  8
_0-0_計極細
  6
CONTINUOUS
 62
    2
 10
740.66173557557704
 20
458.59638008886378
 11
739.18273557557768
 21
457.11738008886357
  0
LINE
  8
_0-0_計極細
  6
CONTINUOUS
 62
    2
 10
735.68273557557768
 20
459.11738008886351
 11
735.68273557557768
 21
470.36738008886351
  0
ARC
  8
_0-0_計極細
  6
CONTINUOUS
 62
    2
 10
736.73273557557877
 20
470.36738008886351
 40
1.0500000000000114
 50
89.999999999999915
 51
179.99999999999983
  0
LINE
  8
_0-0_計極細
  6
CONTINUOUS
 62
    2
 10
737.92395957557903
 20
471.41738008886369
 11
736.73273557557877
 21
471.41738008886369
  0
ARC
  8
_0-0_計極細
  6
CONTINUOUS
 62
    2
 10
737.92395957557903
 20
473.11738008886351
 40
1.6999999999999886
 50
269.99999999999977
 51
356.64911199999773
  0
ARC
  8
_0-0_計極細
  6
CONTINUOUS
 62
    2
 10
737.92395957557903
 20
473.11738008886351
 40
1
 50
269.99999999999977
 51
356.64911199999977
  0
ARC
  8
_0-0_計極細
  6
CONTINUOUS
 62
    2
 10
740.66173557557704
 20
472.86738008886351
 40
1.7500000000000002
 50
89.999999999999915
 51
175.8490099999841
  0
ARC
  8
_0-0_計極細
  6
CONTINUOUS
 62
    2
 10
736.73273557557877
 20
470.36738008886351
 40
1.7500000000000002
 50
89.999999999999915
 51
179.99999999999983
  0
LINE
  8
_0-0_計極細
  6
CONTINUOUS
 62
    2
 10
737.18273557557768
 20
472.11738008886357
 11
737.18273557557768
 21
474.61738008886357
  0
LINE
  8
_0-0_計極細
  6
CONTINUOUS
 62
    2
 10
734.98273557557877
 20
459.81738008886384
 11
734.98273557557877
 21
470.36738008886351
  0
LINE
  8
_0-0_計極細
  6
CONTINUOUS
 62
    2
 10
737.92395957557903
 20
472.11738008886357
 11
736.73273557557877
 21
472.11738008886357
  0
LINE
  8
_0-0_計極細
  6
CONTINUOUS
 62
    2
 10
730.93273557557768
 20
461.11738008886357
 11
734.98273557557877
 21
461.11738008886357
  0
LINE
  8
_0-0_計極細
  6
CONTINUOUS
 62
    2
 10
718.23989657557831
 20
457.11738008886357
 11
728.18104257557752
 21
457.11738008886357
  0
ARC
  8
_0-0_計極細
  6
CONTINUOUS
 62
    2
 10
728.93273557557779
 20
447.21031608886358
 40
1
 50
89.999999999999915
 51
179.99999999999983
  0
ARC
  8
_0-0_計極細
  6
CONTINUOUS
 62
    2
 10
728.93273557557779
 20
447.21031608886358
 40
1
 50
0
 51
89.999999999999915
  0
LINE
  8
_0-0_計極細
  6
CONTINUOUS
 62
    2
 10
747.58273557557732
 20
473.21031608886358
 11
740.66173557557704
 21
472.41031608886379
  0
LINE
  8
_0-0_計極細
  6
CONTINUOUS
 62
    2
 10
740.66173557557704
 20
453.41031608886385
 11
739.18273557557768
 21
454.21031608886352
  0
LINE
  8
_0-0_計極細
  6
CONTINUOUS
 62
    2
 10
739.18273557557768
 20
454.21031608886352
 11
739.18273557557768
 21
457.11738008886357
  0
LINE
  8
_0-1_計細線
  6
CONTINUOUS
 62
    3
 10
747.58273557557732
 20
459.765557088864
 11
747.58273557557732
 21
475.58889408886387
  0
LINE
  8
_0-1_計細線
  6
CONTINUOUS
 62
    3
 10
743.68273557557768
 20
459.21031608886352
 11
747.58273557557732
 21
459.21031608886352
  0
LINE
  8
_0-1_計細線
  6
CONTINUOUS
 62
    3
 10
747.58273557557732
 20
459.21031608886352
 11
747.58273557557732
 21
459.765557088864
  0
ARC
  8
_0-1_計細線
  6
CONTINUOUS
 62
    3
 10
746.18273557557768
 20
446.88018908886386
 40
5
 50
119.99999999999989
 51
179.99999999999983
  0
LINE
  8
_0-1_計細線
  6
CONTINUOUS
 62
    3
 10
743.68273557557768
 20
451.21031608886358
 11
743.68273557557768
 21
459.21031608886352
  0
LINE
  8
_0-0_計極細
  6
CONTINUOUS
 62
    2
 10
740.66173557557704
 20
473.91031554261269
 11
747.58273557557732
 21
474.89607308886377
  0
LINE
  8
_0-0_計極細
  6
CONTINUOUS
 62
    2
 10
740.66173557557704
 20
458.59638008886378
 11
740.66173557557704
 21
473.91738008886369
  0
ARC
  8
_0-0_計極細
  6
CONTINUOUS
 62
    2
 10
740.66173557557704
 20
472.86738008886351
 40
1.0500000000000114
 50
89.999999999999915
 51
175.84900999999113
  0
ARC
  8
_0-0_計極細
  6
CONTINUOUS
 62
    2
 10
723.68273557557768
 20
454.59240508886376
 40
6.0000000000000009
 50
55.166292356146954
 51
179.99999999999983
  0
ARC
  8
_0-0_計極細
  6
CONTINUOUS
 62
    2
 10
725.18273557557779
 20
457.21815908886384
 40
3.0000000000000004
 50
0
 51
50.029499419945331
  0
LINE
  8
_0-0_計極細
  6
CONTINUOUS
 62
    2
 10
728.18273557557768
 20
454.2181590888639
 11
728.18273557557768
 21
457.21815908886384
  0
LINE
  8
_0-0_計極細
  6
CONTINUOUS
 62
    2
 10
731.18273557557768
 20
454.2181590888639
 11
728.18273557557768
 21
454.2181590888639
  0
ARC
  8
_0-0_計極細
  6
CONTINUOUS
 62
    2
 10
731.18273557557768
 20
456.2181590888639
 40
2
 50
269.99999999999977
 51
359.99999999999966
  0
LINE
  8
_0-0_計極細
  6
CONTINUOUS
 62
    2
 10
733.18273557557768
 20
456.2181590888639
 11
733.18273557557768
 21
457.21815908886384
  0
LINE
  8
_0-0_計極細
  6
CONTINUOUS
 62
    2
 10
733.18273557557768
 20
457.21815908886384
 11
730.93273557557768
 21
457.21815908886384
  0
LINE
  8
_0-0_計極細
  6
CONTINUOUS
 62
    2
 10
734.18273557557768
 20
461.61815908886354
 11
730.93273557557768
 21
461.61815908886354
  0
LINE
  8
_0-0_計極細
  6
CONTINUOUS
 62
    2
 10
730.93273557557768
 20
457.21815908886384
 11
730.93273557557768
 21
461.61815908886399
  0
ARC
  8
_0-0_計極細
  6
CONTINUOUS
 62
    2
 10
717.93273557557768
 20
389.41029936886014
 40
10
 50
269.99999999999977
 51
359.99999999999966
  0
LINE
  8
_0-0_計極細
  6
CONTINUOUS
 62
    2
 10
727.93273557557768
 20
389.41029936886014
 11
727.93273557557768
 21
447.21031608886358
  0
LINE
  8
_0-0_計極細
  6
CONTINUOUS
 62
    2
 10
729.93273557557768
 20
389.41029936886014
 11
729.93273557557768
 21
447.21031608886358
  0
LINE
  8
_0-0_計極細
  6
CONTINUOUS
 62
    2
 10
691.61376957557877
 20
377.41029936886008
 11
717.93273557557768
 21
377.41029936886008
  0
ARC
  8
_0-0_計極細
  6
CONTINUOUS
 62
    2
 10
692.17929957557874
 20
367.91029936886014
 40
0.5
 50
180.3951370000056
 51
269.99999999999977
  0
LINE
  8
_0-0_計極細
  6
CONTINUOUS
 62
    2
 10
691.67931057557689
 20
367.9068513688602
 11
691.61384057557734
 21
377.40001636886001
  0
LINE
  8
_0-0_計極細
  6
CONTINUOUS
 62
    2
 10
728.93273557557779
 20
339.91029936886008
 11
728.68273557557768
 21
364.91029936886008
  0
LINE
  8
_0-0_計極細
  6
CONTINUOUS
 62
    2
 10
738.68273557557768
 20
426.33186636885995
 11
738.68273557557768
 21
453.41031608886385
  0
ARC
  8
_0-0_計極細
  6
CONTINUOUS
 62
    2
 10
737.68273557557779
 20
426.33186636885995
 40
1
 50
277.18075600005386
 51
359.99999999999966
  0
ARC
  8
_0-0_計極細
  6
CONTINUOUS
 62
    2
 10
717.93273557557768
 20
389.41029936886014
 40
12.000000000000002
 50
269.99999999999977
 51
359.99999999999966
  0
LINE
  8
_0-0_計極細
  6
CONTINUOUS
 62
    2
 10
715.68273557557768
 20
367.41029936886008
 11
715.68273557557768
 21
377.41029936886008
  0
LINE
  8
_0-0_計極細
  6
CONTINUOUS
 62
    2
 10
717.93273557557768
 20
377.41029936886008
 11
715.68273557557768
 21
377.41029936886008
  0
LINE
  8
_0-0_計極細
  6
CONTINUOUS
 62
    2
 10
729.93273557557768
 20
389.41029936886014
 11
729.93273557557768
 21
416.41029936886014
  0
ARC
  8
_0-0_計極細
  6
CONTINUOUS
 62
    2
 10
730.68273557557768
 20
375.41029936886014
 40
8
 50
269.99999999999977
 51
359.99999999999636
  0
LINE
  8
_0-0_計極細
  6
CONTINUOUS
 62
    2
 10
718.68273557557768
 20
364.91029936886008
 11
728.68273557557768
 21
364.91029936886008
  0
LINE
  8
_0-0_計極細
  6
CONTINUOUS
 62
    2
 10
716.18273557557768
 20
334.91029936886008
 11
715.68273557557768
 21
367.41029936886008
  0
LINE
  8
_0-0_計極細
  6
CONTINUOUS
 62
    2
 10
738.68273557557768
 20
375.41029936885963
 11
738.68273557557768
 21
426.33186636885995
  0
LINE
  8
_0-0_計極細
  6
CONTINUOUS
 62
    2
 10
730.68273557557768
 20
367.41029936886008
 11
715.68273557557768
 21
367.41029936886008
  0
LINE
  8
_0-0_計極細
  6
CONTINUOUS
 62
    2
 10
718.26606890891173
 20
339.91029936886008
 11
718.68273557557768
 21
364.91029936886008
  0
LINE
  8
_0-1_計細線
  6
CONTINUOUS
 62
    3
 10
718.18273557557768
 20
334.91029936886008
 11
718.26606890891173
 21
339.91029936886008
  0
ARC
  8
_0-1_計細線
  6
CONTINUOUS
 62
    3
 10
733.18273557557768
 20
372.91029936885963
 40
8
 50
269.99999999999977
 51
359.99999999999966
  0
LINE
  8
_0-1_計細線
  6
CONTINUOUS
 62
    3
 10
741.18273557557768
 20
372.91029936885963
 11
741.18273557557768
 21
446.88018908886386
  0
LINE
  8
_0-1_計細線
  6
CONTINUOUS
 62
    3
 10
731.78273557557804
 20
339.91029936886008
 11
732.18273557557768
 21
364.91029936886008
  0
LINE
  8
_0-1_計細線
  6
CONTINUOUS
 62
    3
 10
718.26606857557817
 20
339.91029936886008
 11
731.78273557557804
 21
339.91029936886008
  0
LINE
  8
_0-1_計細線
  6
CONTINUOUS
 62
    3
 10
715.2391365755775
 20
334.91029936886008
 11
718.18273557557768
 21
334.91029936886008
  0
ARC
  8
_0-0_計極細
  6
CONTINUOUS
 62
    2
 10
716.68271957557772
 20
395.61814236885982
 40
1
 50
179.99999999999983
 51
270.00045836628669
  0
ARC
  8
_0-0_計極細
  6
CONTINUOUS
 62
    2
 10
716.68273557557768
 20
395.61814236885982
 40
1
 50
269.99954163381682
 51
359.99999999999966
  0
LINE
  8
_0-0_計極細
  6
CONTINUOUS
 62
    2
 10
715.68271957557772
 20
395.61814236885982
 11
715.68271957557772
 21
453.41031608886385
  0
LINE
  8
_0-0_計極細
  6
CONTINUOUS
 62
    2
 10
717.68273557557779
 20
395.61814236885982
 11
717.68273557557779
 21
454.59240508886376
  0
LINE
  8
_0-0_計極細
  6
CONTINUOUS
 62
    2
 10
737.807735579363
 20
425.33970962768751
 11
729.93273557557768
 21
425.33970962768751
  0
LINE
  8
_0-1_計細線
  6
CONTINUOUS
 62
    3
 10
732.18273557557768
 20
364.91029936886008
 11
733.18273557557768
 21
364.91029936885968
  0
LINE
  8
_0-0_計極細
  6
CONTINUOUS
 62
    2
 10
663.68273557557768
 20
453.41031608886385
 11
640.70373557557832
 21
453.41031608886385
  0
LINE
  8
_0-0_計極細
  6
CONTINUOUS
 62
    2
 10
652.43273557557768
 20
448.21031608886358
 11
663.68273557557768
 21
448.21031608886358
  0
LINE
  8
_0-0_計極細
  6
CONTINUOUS
 62
    2
 10
640.70373557557832
 20
474.61738008886357
 11
633.78273557557804
 21
475.60313710353364
  0
LINE
  8
_0-0_計極細
  6
CONTINUOUS
 62
    2
 10
663.68273557557768
 20
453.11465208886364
 11
663.68273557557768
 21
454.59240508886376
  0
LINE
  8
_0-0_計極細
  6
CONTINUOUS
 62
    2
 10
663.68273557557768
 20
454.21031608886352
 11
642.18273557557768
 21
454.21031608886352
  0
LINE
  8
_0-0_計極細
  6
CONTINUOUS
 62
    2
 10
647.18273557557768
 20
467.7181590888639
 11
647.18273557557768
 21
468.61738008886357
  0
LINE
  8
_0-0_計極細
  6
CONTINUOUS
 62
    2
 10
647.18273557557768
 20
461.61815908886354
 11
647.18273557557768
 21
463.11815908886354
  0
LINE
  8
_0-0_計極細
  6
CONTINUOUS
 62
    2
 10
650.93273557557768
 20
466.02349008886392
 11
650.93273557557768
 21
464.72349008886368
  0
LINE
  8
_0-0_計極細
  6
CONTINUOUS
 62
    2
 10
650.93273557557768
 20
463.72349008886374
 11
650.93273557557768
 21
463.22349008886368
  0
LINE
  8
_0-0_計極細
  6
CONTINUOUS
 62
    2
 10
647.33273557557732
 20
466.02349008886392
 11
647.33273557557732
 21
463.22349008886368
  0
LINE
  8
_0-0_計極細
  6
CONTINUOUS
 62
    2
 10
651.43273557557779
 20
466.52349008886392
 11
650.93273557557768
 21
467.02349008886387
  0
LINE
  8
_0-0_計極細
  6
CONTINUOUS
 62
    2
 10
650.93273557557768
 20
466.02349008886392
 11
651.43273557557779
 21
466.52349008886392
  0
LINE
  8
_0-0_計極細
  6
CONTINUOUS
 62
    2
 10
650.93273557557768
 20
463.72349008886374
 11
651.43273557557779
 21
464.22349008886374
  0
LINE
  8
_0-0_計極細
  6
CONTINUOUS
 62
    2
 10
651.43273557557779
 20
464.22349008886374
 11
650.93273557557768
 21
464.72349008886368
  0
LINE
  8
_0-0_計極細
  6
CONTINUOUS
 62
    2
 10
647.33273557557732
 20
466.02349008886392
 11
646.53273557557804
 21
467.52349008886392
  0
LINE
  8
_0-0_計極細
  6
CONTINUOUS
 62
    2
 10
650.93273557557768
 20
467.52349008886392
 11
650.93273557557768
 21
467.02349008886387
  0
LINE
  8
_0-0_計極細
  6
CONTINUOUS
 62
    2
 10
690.48273557557695
 20
468.61738008886397
 11
646.88273557557659
 21
468.61738008886357
  0
LINE
  8
_0-0_計極細
  6
CONTINUOUS
 62
    2
 10
690.48273557557695
 20
469.61738008886402
 11
647.48273557557695
 21
469.61738008886357
  0
ARC
  8
_0-0_計極細
  6
CONTINUOUS
 62
    2
 10
644.73273557557707
 20
473.61738008886357
 40
0.5
 50
89.999999999999915
 51
155.94545099990708
  0
ARC
  8
_0-0_計極細
  6
CONTINUOUS
 62
    2
 10
644.43273557557768
 20
472.31738008886384
 40
0.1999999999999886
 50
179.99999999999983
 51
269.99999999999977
  0
ARC
  8
_0-0_計極細
  6
CONTINUOUS
 62
    2
 10
644.73273557557707
 20
473.61738008886357
 40
0.5
 50
155.94545099990708
 51
179.99999999999983
  0
ARC
  8
_0-0_計極細
  6
CONTINUOUS
 62
    2
 10
646.88273557557659
 20
469.11738008886351
 40
0.5
 50
179.99999999999983
 51
269.99999999999977
  0
LINE
  8
_0-0_計極細
  6
CONTINUOUS
 62
    2
 10
647.48273557557695
 20
468.61738008886357
 11
647.48273557557695
 21
469.61738008886357
  0
LINE
  8
_0-0_計極細
  6
CONTINUOUS
 62
    2
 10
646.3827355755767
 20
469.11738008886351
 11
646.3827355755767
 21
472.11738008886357
  0
LINE
  8
_0-0_計極細
  6
CONTINUOUS
 62
    2
 10
646.3827355755767
 20
472.11738008886357
 11
644.43273557557768
 21
472.11738008886357
  0
LINE
  8
_0-0_計極細
  6
CONTINUOUS
 62
    2
 10
644.23273557557695
 20
472.31738008886384
 11
644.23273557557695
 21
473.61738008886357
  0
LINE
  8
_0-0_計極細
  6
CONTINUOUS
 62
    2
 10
659.39642257557716
 20
455.41738008886369
 11
659.39642257557716
 21
457.11738008886357
  0
LINE
  8
_0-0_計極細
  6
CONTINUOUS
 62
    2
 10
655.89642257557716
 20
455.41738008886369
 11
655.89642257557716
 21
457.11738008886357
  0
LINE
  8
_0-0_計極細
  6
CONTINUOUS
 62
    2
 10
660.89642257557716
 20
455.41738008886369
 11
660.89642257557716
 21
457.11738008886357
  0
LINE
  8
_0-0_計極細
  6
CONTINUOUS
 62
    2
 10
660.89642257557716
 20
455.41738008886369
 11
655.89642257557716
 21
455.41738008886369
  0
LINE
  8
_0-0_計極細
  6
CONTINUOUS
 62
    2
 10
647.68273557557779
 20
457.11738008886357
 11
642.18273557557768
 21
457.11738008886357
  0
LINE
  8
_0-0_計極細
  6
CONTINUOUS
 62
    2
 10
648.51291957557805
 20
455.11738008886357
 11
647.68273557557779
 21
455.11738008886357
  0
LINE
  8
_0-0_計極細
  6
CONTINUOUS
 62
    2
 10
647.68273557557779
 20
459.81738008886384
 11
646.3827355755767
 21
459.81738008886384
  0
LINE
  8
_0-0_計極細
  6
CONTINUOUS
 62
    2
 10
647.68273557557779
 20
459.11738008886351
 11
645.68273557557768
 21
459.11738008886351
  0
LINE
  8
_0-0_計極細
  6
CONTINUOUS
 62
    2
 10
649.93273557557768
 20
457.21815908886384
 11
649.93273557557768
 21
461.11738008886357
  0
LINE
  8
_0-0_計極細
  6
CONTINUOUS
 62
    2
 10
647.68273557557779
 20
455.11738008886357
 11
647.68273557557779
 21
461.11738008886357
  0
LINE
  8
_0-0_計極細
  6
CONTINUOUS
 62
    2
 10
640.70373557557832
 20
458.59638008886378
 11
642.18273557557768
 21
457.11738008886357
  0
LINE
  8
_0-0_計極細
  6
CONTINUOUS
 62
    2
 10
645.68273557557768
 20
459.11738008886351
 11
645.68273557557768
 21
470.36738008886351
  0
ARC
  8
_0-0_計極細
  6
CONTINUOUS
 62
    2
 10
644.63273557557659
 20
470.36738008886351
 40
1.0500000000000114
 50
0
 51
89.999999999999915
  0
LINE
  8
_0-0_計極細
  6
CONTINUOUS
 62
    2
 10
643.44151157557644
 20
471.41738008886369
 11
644.63273557557659
 21
471.41738008886369
  0
ARC
  8
_0-0_計極細
  6
CONTINUOUS
 62
    2
 10
643.44151157557644
 20
473.11738008886351
 40
1.6999999999999886
 50
183.35088800000156
 51
269.99999999999977
  0
ARC
  8
_0-0_計極細
  6
CONTINUOUS
 62
    2
 10
643.44151157557644
 20
473.11738008886351
 40
1
 50
183.35088799999946
 51
269.99999999999977
  0
ARC
  8
_0-0_計極細
  6
CONTINUOUS
 62
    2
 10
640.70373557557832
 20
472.86738008886351
 40
1.7500000000000002
 50
4.1509900000159075
 51
89.999999999999915
  0
ARC
  8
_0-0_計極細
  6
CONTINUOUS
 62
    2
 10
644.63273557557659
 20
470.36738008886351
 40
1.7500000000000002
 50
0
 51
89.999999999999915
  0
LINE
  8
_0-0_計極細
  6
CONTINUOUS
 62
    2
 10
644.18273557557768
 20
472.11738008886357
 11
644.18273557557768
 21
474.61738008886357
  0
LINE
  8
_0-0_計極細
  6
CONTINUOUS
 62
    2
 10
646.3827355755767
 20
459.81738008886384
 11
646.3827355755767
 21
470.36738008886351
  0
LINE
  8
_0-0_計極細
  6
CONTINUOUS
 62
    2
 10
643.44151157557644
 20
472.11738008886357
 11
644.63273557557659
 21
472.11738008886357
  0
LINE
  8
_0-0_計極細
  6
CONTINUOUS
 62
    2
 10
650.43273557557768
 20
461.11738008886357
 11
646.3827355755767
 21
461.11738008886357
  0
LINE
  8
_0-0_計極細
  6
CONTINUOUS
 62
    2
 10
663.12557457557705
 20
457.11738008886357
 11
653.18442857557784
 21
457.11738008886357
  0
ARC
  8
_0-0_計極細
  6
CONTINUOUS
 62
    2
 10
652.43273557557768
 20
447.21031608886358
 40
1
 50
0
 51
89.999999999999915
  0
ARC
  8
_0-0_計極細
  6
CONTINUOUS
 62
    2
 10
652.43273557557768
 20
447.21031608886358
 40
1
 50
89.999999999999915
 51
179.99999999999983
  0
LINE
  8
_0-0_計極細
  6
CONTINUOUS
 62
    2
 10
633.78273557557804
 20
473.21031608886358
 11
640.70373557557832
 21
472.41031608886379
  0
LINE
  8
_0-0_計極細
  6
CONTINUOUS
 62
    2
 10
640.70373557557832
 20
453.41031608886385
 11
642.18273557557768
 21
454.21031608886352
  0
LINE
  8
_0-0_計極細
  6
CONTINUOUS
 62
    2
 10
642.18273557557768
 20
454.21031608886352
 11
642.18273557557768
 21
457.11738008886357
  0
LINE
  8
_0-1_計細線
  6
CONTINUOUS
 62
    3
 10
633.78273557557804
 20
459.765557088864
 11
633.78273557557804
 21
475.58889408886387
  0
LINE
  8
_0-1_計細線
  6
CONTINUOUS
 62
    3
 10
637.68273557557768
 20
459.21031608886352
 11
633.78273557557804
 21
459.21031608886352
  0
LINE
  8
_0-1_計細線
  6
CONTINUOUS
 62
    3
 10
633.78273557557804
 20
459.21031608886352
 11
633.78273557557804
 21
459.765557088864
  0
ARC
  8
_0-1_計細線
  6
CONTINUOUS
 62
    3
 10
635.18273557557768
 20
446.88018908886386
 40
5
 50
0
 51
60.000000000000107
  0
LINE
  8
_0-1_計細線
  6
CONTINUOUS
 62
    3
 10
637.68273557557768
 20
451.21031608886358
 11
637.68273557557768
 21
459.21031608886352
  0
LINE
  8
_0-0_計極細
  6
CONTINUOUS
 62
    2
 10
640.70373557557832
 20
473.91031554261269
 11
633.78273557557804
 21
474.89607308886377
  0
LINE
  8
_0-0_計極細
  6
CONTINUOUS
 62
    2
 10
640.70373557557832
 20
458.59638008886378
 11
640.70373557557832
 21
473.91738008886369
  0
ARC
  8
_0-0_計極細
  6
CONTINUOUS
 62
    2
 10
640.70373557557832
 20
472.86738008886351
 40
1.0500000000000114
 50
4.150990000008882
 51
89.999999999999915
  0
ARC
  8
_0-0_計極細
  6
CONTINUOUS
 62
    2
 10
657.68273557557779
 20
454.59240508886376
 40
6.0000000000000009
 50
0
 51
124.83370764385305
  0
ARC
  8
_0-0_計極細
  6
CONTINUOUS
 62
    2
 10
656.18273557557768
 20
457.21815908886384
 40
3.0000000000000004
 50
129.97050058005468
 51
179.99999999999983
  0
LINE
  8
_0-0_計極細
  6
CONTINUOUS
 62
    2
 10
653.18273557557768
 20
454.2181590888639
 11
653.18273557557768
 21
457.21815908886384
  0
LINE
  8
_0-0_計極細
  6
CONTINUOUS
 62
    2
 10
650.18273557557779
 20
454.2181590888639
 11
653.18273557557768
 21
454.2181590888639
  0
ARC
  8
_0-0_計極細
  6
CONTINUOUS
 62
    2
 10
650.18273557557779
 20
456.2181590888639
 40
2
 50
179.99999999999983
 51
269.99999999999977
  0
LINE
  8
_0-0_計極細
  6
CONTINUOUS
 62
    2
 10
648.18273557557768
 20
456.2181590888639
 11
648.18273557557768
 21
457.21815908886384
  0
LINE
  8
_0-0_計極細
  6
CONTINUOUS
 62
    2
 10
648.18273557557768
 20
457.21815908886384
 11
650.43273557557768
 21
457.21815908886384
  0
LINE
  8
_0-0_計極細
  6
CONTINUOUS
 62
    2
 10
647.18273557557768
 20
461.61815908886354
 11
650.43273557557768
 21
461.61815908886354
  0
LINE
  8
_0-0_計極細
  6
CONTINUOUS
 62
    2
 10
650.43273557557768
 20
457.21815908886384
 11
650.43273557557768
 21
461.61815908886399
  0
ARC
  8
_0-0_計極細
  6
CONTINUOUS
 62
    2
 10
663.43273557557768
 20
389.41029936886014
 40
10
 50
179.99999999999983
 51
269.99999999999977
  0
LINE
  8
_0-0_計極細
  6
CONTINUOUS
 62
    2
 10
653.43273557557768
 20
389.41029936886014
 11
653.43273557557768
 21
447.21031608886358
  0
LINE
  8
_0-0_計極細
  6
CONTINUOUS
 62
    2
 10
651.43273557557779
 20
389.41029936886014
 11
651.43273557557779
 21
447.21031608886358
  0
LINE
  8
_0-0_計極細
  6
CONTINUOUS
 62
    2
 10
689.75170157557659
 20
377.41029936886008
 11
663.43273557557768
 21
377.41029936886008
  0
ARC
  8
_0-0_計極細
  6
CONTINUOUS
 62
    2
 10
689.18617157557674
 20
367.91029936886014
 40
0.5
 50
269.99999999999977
 51
359.60486299999366
  0
LINE
  8
_0-0_計極細
  6
CONTINUOUS
 62
    2
 10
689.68616057557847
 20
367.9068513688602
 11
689.75163057557802
 21
377.40001636886001
  0
LINE
  8
_0-0_計極細
  6
CONTINUOUS
 62
    2
 10
652.43273557557768
 20
339.91029936886008
 11
652.68273557557779
 21
364.91029936886008
  0
LINE
  8
_0-0_計極細
  6
CONTINUOUS
 62
    2
 10
642.68273557557779
 20
426.33186636885995
 11
642.68273557557779
 21
453.41031608886385
  0
ARC
  8
_0-0_計極細
  6
CONTINUOUS
 62
    2
 10
643.68273557557768
 20
426.33186636885995
 40
1
 50
179.99999999999983
 51
262.81924399994546
  0
ARC
  8
_0-0_計極細
  6
CONTINUOUS
 62
    2
 10
663.43273557557768
 20
389.41029936886014
 40
12.000000000000002
 50
179.99999999999983
 51
269.99999999999977
  0
LINE
  8
_0-0_計極細
  6
CONTINUOUS
 62
    2
 10
665.68273557557768
 20
367.41029936886008
 11
665.68273557557768
 21
377.41029936886008
  0
LINE
  8
_0-0_計極細
  6
CONTINUOUS
 62
    2
 10
663.43273557557768
 20
377.41029936886008
 11
665.68273557557768
 21
377.41029936886008
  0
LINE
  8
_0-0_計極細
  6
CONTINUOUS
 62
    2
 10
651.43273557557779
 20
389.41029936886014
 11
651.43273557557779
 21
416.41029936886014
  0
LINE
  8
_0-0_計極細
  6
CONTINUOUS
 62
    2
 10
665.68115657557792
 20
367.30762636886021
 11
665.68273557557768
 21
367.41029936886008
  0
ARC
  8
_0-0_計極細
  6
CONTINUOUS
 62
    2
 10
650.68273557557768
 20
375.41029936886014
 40
8
 50
180.0000000000029
 51
269.99999999999977
  0
LINE
  8
_0-0_計極細
  6
CONTINUOUS
 62
    2
 10
662.68273557557779
 20
364.91029936886008
 11
652.68273557557779
 21
364.91029936886008
  0
LINE
  8
_0-0_計極細
  6
CONTINUOUS
 62
    2
 10
665.18273557557779
 20
334.91029936886008
 11
665.68273557557768
 21
367.41029936886008
  0
LINE
  8
_0-0_計極細
  6
CONTINUOUS
 62
    2
 10
642.68273557557779
 20
375.41029936885963
 11
642.68273557557779
 21
426.33186636885995
  0
LINE
  8
_0-0_計極細
  6
CONTINUOUS
 62
    2
 10
650.68273557557768
 20
367.41029936886008
 11
665.68273557557768
 21
367.41029936886008
  0
LINE
  8
_0-0_計極細
  6
CONTINUOUS
 62
    2
 10
663.09940224224374
 20
339.91029936886008
 11
662.68273557557779
 21
364.91029936886008
  0
LINE
  8
_0-1_計細線
  6
CONTINUOUS
 62
    3
 10
663.18273557557768
 20
334.91029936886008
 11
663.09940224224374
 21
339.91029936886008
  0
ARC
  8
_0-1_計細線
  6
CONTINUOUS
 62
    3
 10
648.18273557557768
 20
372.91029936885963
 40
8
 50
179.99999999999983
 51
269.99999999999977
  0
LINE
  8
_0-1_計細線
  6
CONTINUOUS
 62
    3
 10
640.18273557557779
 20
372.91029936885963
 11
640.18273557557779
 21
446.88018908886386
  0
LINE
  8
_0-1_計細線
  6
CONTINUOUS
 62
    3
 10
649.58273557557732
 20
339.91029936886008
 11
649.18273557557768
 21
364.91029936886008
  0
LINE
  8
_0-1_計細線
  6
CONTINUOUS
 62
    3
 10
663.0994025755773
 20
339.91029936886008
 11
649.58273557557732
 21
339.91029936886008
  0
LINE
  8
_0-1_計細線
  6
CONTINUOUS
 62
    3
 10
666.12633457557786
 20
334.91029936886008
 11
663.18273557557768
 21
334.91029936886008
  0
ARC
  8
_0-0_計極細
  6
CONTINUOUS
 62
    2
 10
664.68275157557764
 20
395.61814236885982
 40
1
 50
269.99954163371257
 51
359.99999999999966
  0
ARC
  8
_0-0_計極細
  6
CONTINUOUS
 62
    2
 10
664.68273557557768
 20
395.61814236885982
 40
1
 50
179.99999999999983
 51
270.0004583661825
  0
LINE
  8
_0-0_計極細
  6
CONTINUOUS
 62
    2
 10
665.68275157557764
 20
395.61814236885982
 11
665.68275157557764
 21
453.41031608886385
  0
LINE
  8
_0-0_計極細
  6
CONTINUOUS
 62
    2
 10
663.68273557557768
 20
395.61814236885982
 11
663.68273557557768
 21
454.59240508886376
  0
LINE
  8
_0-0_計極細
  6
CONTINUOUS
 62
    2
 10
643.55773557179236
 20
425.33970962768751
 11
651.43273557557779
 21
425.33970962768751
  0
LINE
  8
_0-1_計細線
  6
CONTINUOUS
 62
    3
 10
649.18273557557768
 20
364.91029936886008
 11
648.18273557557768
 21
364.91029936885968
  0
LINE
  8
_0-0_計極細
  6
CONTINUOUS
 62
    2
 10
690.88273557557841
 20
469.61738008886402
 11
690.48273557557695
 21
469.61738008886402
  0
LINE
  8
_0-0_計極細
  6
CONTINUOUS
 62
    2
 10
690.88273557557841
 20
468.61738008886397
 11
690.48273557557695
 21
468.61738008886397
  0
LINE
  8
_0-0_計極細
  6
CONTINUOUS
 62
    2
 10
734.18273557557768
 20
467.7181590888639
 11
647.18273557557768
 21
467.7181590888639
  0
LINE
  8
_0-0_計極細
  6
CONTINUOUS
 62
    2
 10
734.18273557557768
 20
463.11815908886354
 11
647.18273557557768
 21
463.11815908886354
  0
LINE
  8
_0-0_計極細
  6
CONTINUOUS
 62
    2
 10
647.33273557557732
 20
463.22349008886368
 11
734.03273557557804
 21
463.22349008886368
  0
LINE
  8
_0-0_計極細
  6
CONTINUOUS
 62
    2
 10
651.43273557557779
 20
464.22349008886374
 11
729.93273557557768
 21
464.22349008886374
  0
LINE
  8
_0-0_計極細
  6
CONTINUOUS
 62
    2
 10
651.43273557557779
 20
466.52349008886392
 11
729.93273557557768
 21
466.52349008886392
  0
LINE
  8
_0-0_計極細
  6
CONTINUOUS
 62
    2
 10
646.53273557557804
 20
467.52349008886392
 11
734.83273557557732
 21
467.52349008886392
  0
LINE
  8
_0-0_計極細
  6
CONTINUOUS
 62
    2
 10
644.73273557557707
 20
474.11738008886351
 11
736.63273557557841
 21
474.11738008886351
  0
LINE
  8
_0-0_計極細
  6
CONTINUOUS
 62
    2
 10
640.70373557557832
 20
474.61738008886357
 11
740.66173557557704
 21
474.61738008886357
  0
LINE
  8
_0-0_計極細
  6
CONTINUOUS
 62
    2
 10
665.68275157557764
 20
453.41031608886385
 11
715.68271957557772
 21
453.41031608886385
  0
LINE
  8
_0-0_計極細
  6
CONTINUOUS
 62
    2
 10
730.93273557557768
 20
461.61815908886399
 11
650.43273557557768
 21
461.61815908886399
  0
LINE
  8
_0-0_計極細
  6
CONTINUOUS
 62
    2
 10
663.43273557557768
 20
379.41029936886014
 11
717.93273557557768
 21
379.41029936886014
  0
LINE
  8
_0-0_計極細
  6
CONTINUOUS
 62
    2
 10
689.75170157557659
 20
377.41029936886008
 11
691.61376957557877
 21
377.41029936886008
  0
LINE
  8
_0-0_計極細
  6
CONTINUOUS
 62
    2
 10
715.68273557557768
 20
367.41029936886008
 11
665.68273557557768
 21
367.41029936886008
  0
LINE
  8
_0-1_計細線
  6
CONTINUOUS
 62
    3
 10
666.12633457557786
 20
334.91029936886008
 11
715.2391365755775
 21
334.91029936886008
  0
LINE
  8
_0-0_計極細
  6
CONTINUOUS
 62
    2
 10
716.68273557557768
 20
394.61814236885976
 11
664.68273557557768
 21
394.61814236885976
  0
LINE
  8
_0-0_計極細
  6
CONTINUOUS
 62
    2
 10
715.68273557557768
 20
377.35480295332701
 11
715.7382319911103
 21
377.41029936886008
  0
LINE
  8
_0-1_計細線
  6
CONTINUOUS
 62
    3
 10
633.78273557557804
 20
475.60313710353364
 11
747.58273557557732
 21
475.60313710353364
  0
ENDSEC
  0
EOF
