  0
SECTION
  2
HEADER
  9
$ACADVER
  1
AC1009
  9
$INSBASE
 10
0
 20
0
 30
0
  9
$EXTMIN
 10
0
 20
0
  9
$EXTMAX
 10
1485
 20
1050
  9
$LIMMIN
 10
0
 20
0
  9
$LIMMAX
 10
1485
 20
1050
  9
$LTSCALE
 40
5
  0
ENDSEC
  0
SECTION
  2
TABLES
  0
TABLE
  2
LTYPE
 70
     9
  0
LTYPE
  2
CONTINUOUS
 70
    64
  3
実線
 72
    65
 73
     0
 40
0.0
  0
LTYPE
  2
DASHED1
 70
    64
  3
--  --  --  --  --  --  --  --  
 72
    65
 73
     2
 40
2.5
 49
1.25
 49
-1.25
  0
LTYPE
  2
DASHED2
 70
    64
  3
----    ----    ----    ----    
 72
    65
 73
     2
 40
5.0
 49
2.5
 49
-2.5
  0
LTYPE
  2
DASHED3
 70
    64
  3
------  ------  ------  ------  
 72
    65
 73
     2
 40
5.0
 49
3.75
 49
-1.25
  0
LTYPE
  2
CENTER1
 70
    64
  3
----- - ----- - ----- - ----- - 
 72
    65
 73
     4
 40
10.0
 49
6.25
 49
-1.25
 49
1.25
 49
-1.25
  0
LTYPE
  2
CENTER2
 70
    64
  3
----------  --  ----------  --  
 72
    65
 73
     4
 40
20.0
 49
12.5
 49
-2.5
 49
2.5
 49
-2.5
  0
LTYPE
  2
PHANTOM1
 70
    64
  3
--- - - --- - - --- - - --- - - 
 72
    65
 73
     6
 40
10.0
 49
3.25
 49
-1.25
 49
1.25
 49
-1.25
 49
1.25
 49
-1.25
  0
LTYPE
  2
PHANTOM2
 70
    64
  3
--------  -  -  --------  -  -  
 72
    65
 73
     6
 40
20.0
 49
10.0
 49
-2.5
 49
1.25
 49
-2.5
 49
1.25
 49
-2.5
  0
LTYPE
  2
DOT
 70
    64
  3
-   -   -   -   -   -   -   -   
 72
    65
 73
     2
 40
2.5
 49
0.625
 49
-1.875
  0
LTYPE
  2
DUMMY
 70
    64
  3
ダミー
 72
    65
 73
     0
 40
0.0
  0
LTYPE
  2
RAND1
 70
    64
  3
ランダム線1
 72
    65
 73
     4
 40
10.0
 49
1.0
 49
-2.0
 49
3.0
 49
-4.0
  0
LTYPE
  2
RAND2
 70
    64
  3
ランダム線2
 72
    65
 73
     4
 40
14.0
 49
2.0
 49
-3.0
 49
4.0
 49
-5.0
  0
LTYPE
  2
RAND3
 70
    64
  3
ランダム線3
 72
    65
 73
     4
 40
18.0
 49
3.0
 49
-4.0
 49
5.0
 49
-6.0
  0
LTYPE
  2
RAND4
 70
    64
  3
ランダム線4
 72
    65
 73
     4
 40
22.0
 49
4.0
 49
-5.0
 49
6.0
 49
-7.0
  0
LTYPE
  2
RAND5
 70
    64
  3
ランダム線5
 72
    65
 73
     4
 40
26.0
 49
5.0
 49
-6.0
 49
7.0
 49
-8.0
  0
LTYPE
  2
LONG1
 70
    64
  3
----------  --  ----------  --  
 72
    65
 73
     4
 40
40.0
 49
32.5
 49
-2.5
 49
2.5
 49
-2.5
  0
LTYPE
  2
LONG2
 70
    64
  3
--------  -  -  --------  -  -  
 72
    65
 73
     6
 40
40.0
 49
30.0
 49
-2.5
 49
1.25
 49
-2.5
 49
1.25
 49
-2.5
  0
LTYPE
  2
LONG3
 70
    64
  3
+++++++++++++++..+++++++++++++++
 72
    65
 73
     2
 40
40.0
 49
37.5
 49
-2.5
  0
LTYPE
  2
LONG4
 70
    64
  3
+++++++++++++++..+++++++++++++++
 72
    65
 73
     2
 40
80.0
 49
75.0
 49
-5.0
  0
LTYPE
  2
LONG5
 70
    64
  3
----------  --  ----------  --  
 72
    65
 73
     4
 40
60.0
 49
37.5
 49
-7.5
 49
7.5
 49
-7.5
  0
LTYPE
  2
dashed
 70
   64
  3
-------   -------------   ------
 72
   65
 73
    2
 40
7.5
 49
6
 49
-1.5
  0
LTYPE
  2
dashed_spaced
 70
   64
  3
----        --------        ----
 72
   65
 73
    2
 40
12
 49
6
 49
-6
  0
LTYPE
  2
long_dashed_dotted
 70
   64
  3
------------- --- --------------
 72
   65
 73
    4
 40
15.25
 49
12
 49
-1.5
 49
0.25
 49
-1.5
  0
LTYPE
  2
long_dashed_double-dotted
 70
   64
  3
----------- --- --- ------------
 72
   65
 73
    6
 40
17
 49
12
 49
-1.5
 49
0.25
 49
-1.5
 49
0.25
 49
-1.5
  0
LTYPE
  2
long_dashed_triplicate-dotted
 70
   64
  3
--------- --- --- --- ----------
 72
   65
 73
    8
 40
18.75
 49
12
 49
-1.5
 49
0.25
 49
-1.5
 49
0.25
 49
-1.5
 49
0.25
 49
-1.5
  0
LTYPE
  2
dotted
 70
   64
  3
   -       -       -       -    
 72
   65
 73
    2
 40
1.75
 49
0.25
 49
-1.5
  0
LTYPE
  2
chain
 70
   64
  3
-------------- -- --------------
 72
   65
 73
    4
 40
18.5
 49
12
 49
-1.5
 49
3.5
 49
-1.5
  0
LTYPE
  2
chain_double_dash
 70
   64
  3
------------ -- -- -------------
 72
   65
 73
    6
 40
23.5
 49
12
 49
-1.5
 49
3.5
 49
-1.5
 49
3.5
 49
-1.5
  0
LTYPE
  2
dashed_dotted
 70
   64
  3
-----------     -     ----------
 72
   65
 73
    4
 40
9.25
 49
6
 49
-1.5
 49
0.25
 49
-1.5
  0
LTYPE
  2
double-dashed_dotted
 70
   64
  3
------   -----------   -   -----
 72
   65
 73
    6
 40
16.75
 49
6
 49
-1.5
 49
6
 49
-1.5
 49
0.25
 49
-1.5
  0
LTYPE
  2
dashed_double-dotted
 70
   64
  3
---------    -    -    ---------
 72
   65
 73
    6
 40
11
 49
6
 49
-1.5
 49
0.25
 49
-1.5
 49
0.25
 49
-1.5
  0
LTYPE
  2
double-dashed_double-dotted
 70
   64
  3
-----   ---------   -   -   ----
 72
   65
 73
    8
 40
18.5
 49
6
 49
-1.5
 49
6
 49
-1.5
 49
0.25
 49
-1.5
 49
0.25
 49
-1.5
  0
LTYPE
  2
dashed_triplicate-dotted
 70
   64
  3
-------    -    -    -    ------
 72
   65
 73
    8
 40
12.75
 49
6
 49
-1.5
 49
0.25
 49
-1.5
 49
0.25
 49
-1.5
 49
0.25
 49
-1.5
  0
LTYPE
  2
double-dashed_triplicate-dotted
 70
   64
  3
-----  ---------  -  -  -  -----
 72
   65
 73
   10
 40
20.25
 49
6
 49
-1.5
 49
6
 49
-1.5
 49
0.25
 49
-1.5
 49
0.25
 49
-1.5
 49
0.25
 49
-1.5
  0
LTYPE
  2
undefined
 70
   64
  3
--------------------------------
 72
   65
 73
    0
 40
0
  0
ENDTAB
  0
TABLE
  2
STYLE
  5
3
100
AcDbSymbolTable
 70
     1
  0
STYLE
  5
10
100
AcDbSymbolTableRecord
100
AcDbTextStyleTableRecord
  2
STANDARD
 70
     0
 40
0.0
 41
1.0
 50
0.0
 71
     0
 42
0.2
  3
txt
  4
bigfont.shx
  0
STYLE
  5
26
100
AcDbSymbolTableRecord
100
AcDbTextStyleTableRecord
  2
TATEGAKI
 70
    68
 40
0.0
 41
1.0
 50
0.0
 71
     0
 42
1.0
  3
txt
  4
bigfont.shx
  0
ENDTAB
  0
TABLE
  2
LAYER
 70
   13
  0
LAYER
  2
_0-0_計極細
 70
   64
 62
    7
  6
CONTINUOUS
  0
LAYER
  2
_0-1_計細線
 70
   64
 62
    7
  6
CONTINUOUS
  0
LAYER
  2
_0-5_寸法線
 70
   64
 62
    7
  6
CONTINUOUS
  0
LAYER
  2
_0-7_枠細線
 70
   64
 62
    7
  6
CONTINUOUS
  0
LAYER
  2
_0-8_枠中線
 70
   64
 62
    7
  6
CONTINUOUS
  0
LAYER
  2
_0-a_極細1
 70
   64
 62
    7
  6
CONTINUOUS
  0
LAYER
  2
_0-d_寸法1
 70
   64
 62
    7
  6
CONTINUOUS
  0
LAYER
  2
_0-e_極細4
 70
   64
 62
    7
  6
CONTINUOUS
  0
LAYER
  2
_1-1_寸法4
 70
   64
 62
    7
  6
CONTINUOUS
  0
LAYER
  2
_1-2_極細3
 70
   64
 62
    7
  6
CONTINUOUS
  0
LAYER
  2
_1-3_細線3
 70
   64
 62
    7
  6
CONTINUOUS
  0
LAYER
  2
_1-5_寸法3
 70
   64
 62
    7
  6
CONTINUOUS
  0
LAYER
  2
ADD_LINE
 70
   64
 62
    7
  6
CONTINUOUS
  0
ENDTAB
  0
ENDSEC
  0
SECTION
  2
BLOCKS
  0
ENDSEC
  0
SECTION
  2
ENTITIES
  0
LINE
  8
_0-8_枠中線
  6
CONTINUOUS
 62
    5
 10
60
 20
60
 11
60
 21
960
  0
LINE
  8
_0-8_枠中線
  6
CONTINUOUS
 62
    5
 10
60
 20
960
 11
1425
 21
960
  0
LINE
  8
_0-8_枠中線
  6
CONTINUOUS
 62
    5
 10
1425
 20
960
 11
1425
 21
60
  0
LINE
  8
_0-8_枠中線
  6
CONTINUOUS
 62
    5
 10
1425
 20
60
 11
60
 21
60
  0
TEXT
  8
_0-7_枠細線
 62
    5
 10
894.89374448775834
 20
945
 40
12.5
 41
1
 50
0
  1
記号
  0
TEXT
  8
_0-7_枠細線
 62
    5
 10
996.76874448775834
 20
945
 40
12.5
 41
1
 50
0
  1
訂　 正　 記　 事
  0
TEXT
  8
_0-7_枠細線
 62
    5
 10
1181.1437444877581
 20
945
 40
12.5
 41
1
 50
0
  1
訂 正 年 月 日
  0
TEXT
  8
_0-7_枠細線
 62
    5
 10
1306.1437444877581
 20
945
 40
12.5
 41
1
 50
0
  1
備　　　　　考
  0
LINE
  8
_0-7_枠細線
  6
CONTINUOUS
 62
    5
 10
889.89374448775834
 20
942.5
 11
889.89374448775834
 21
959.99999999999909
  0
LINE
  8
_0-7_枠細線
  6
CONTINUOUS
 62
    5
 10
924.89374448775834
 20
942.5
 11
924.89374448775834
 21
959.99999999999909
  0
LINE
  8
_0-7_枠細線
  6
CONTINUOUS
 62
    5
 10
1174.8937444877581
 20
942.5
 11
1174.8937444877581
 21
959.99999999999909
  0
LINE
  8
_0-7_枠細線
  6
CONTINUOUS
 62
    5
 10
1274.8937444877581
 20
942.5
 11
1274.8937444877581
 21
959.99999999999909
  0
LINE
  8
_0-7_枠細線
  6
CONTINUOUS
 62
    5
 10
1425
 20
942.5
 11
890
 21
942.5
  0
TEXT
  8
_0-7_枠細線
 62
    5
 10
937.5
 20
97.5
 40
17.5
 41
1
 50
0
  1
備考
  7
TATEGAKI
  0
TEXT
  8
_0-7_枠細線
 62
    5
 10
937.5
 20
137.5
 40
17.5
 41
1
 50
0
  1
品番
  7
TATEGAKI
  0
TEXT
  8
_0-7_枠細線
 62
    5
 10
937.5
 20
177.5
 40
17.5
 41
1
 50
0
  1
品名
  7
TATEGAKI
  0
LINE
  8
_0-7_枠細線
  6
CONTINUOUS
 62
    5
 10
950
 20
180
 11
950
 21
60
  0
LINE
  8
_0-8_枠中線
  6
CONTINUOUS
 62
    5
 10
1425
 20
180
 11
925
 21
180
  0
LINE
  8
_0-8_枠中線
  6
CONTINUOUS
 62
    5
 10
925
 20
180
 11
925
 21
60
  0
LINE
  8
_0-7_枠細線
  6
CONTINUOUS
 62
    5
 10
1185
 20
180
 11
1185
 21
100
  0
LINE
  8
_0-7_枠細線
  6
CONTINUOUS
 62
    5
 10
1185
 20
140
 11
925
 21
140
  0
LINE
  8
_0-7_枠細線
  6
CONTINUOUS
 62
    5
 10
1245
 20
180
 11
1245
 21
60
  0
TEXT
  8
_0-7_枠細線
 62
    5
 10
1192.5
 20
160
 40
15
 41
1
 50
0
  1
縮　尺
  0
LINE
  8
_0-7_枠細線
  6
CONTINUOUS
 62
    5
 10
1185
 20
155
 11
1245
 21
155
  0
LINE
  8
_0-7_枠細線
  6
CONTINUOUS
 62
    5
 10
1245
 20
100
 11
925
 21
100
  0
LINE
  8
_0-7_枠細線
  6
CONTINUOUS
 62
    5
 10
1425
 20
90
 11
1245
 21
90
  0
LINE
  8
_0-7_枠細線
  6
CONTINUOUS
 62
    5
 10
1245
 20
120
 11
1425
 21
120
  0
LINE
  8
_0-7_枠細線
  6
CONTINUOUS
 62
    5
 10
1425
 20
140
 11
1245
 21
140
  0
TEXT
  8
_0-7_枠細線
 62
    5
 10
1255
 20
147.5
 40
25
 41
0.8
 50
0
  1
株式会社シマブン
  0
TEXT
  8
_0-7_枠細線
 62
    5
 10
1252.5
 20
60
 40
15
 41
1
 50
0
  1
年月日
  0
TEXT
  8
_0-7_枠細線
 62
    5
 10
1252.5
 20
75
 40
15
 41
1
 50
0
  1
作　成
  0
TEXT
  8
_0-7_枠細線
 62
    5
 10
1256.25
 20
122.5
 40
15
 41
1
 50
0
  1
承 認
  0
LINE
  8
_0-7_枠細線
  6
CONTINUOUS
 62
    5
 10
1305
 20
140
 11
1305
 21
60
  0
TEXT
  8
_0-7_枠細線
 62
    5
 10
1316.25
 20
122.5
 40
15
 41
1
 50
0
  1
検 図
  0
LINE
  8
_0-7_枠細線
  6
CONTINUOUS
 62
    5
 10
1365
 20
140
 11
1365
 21
90
  0
TEXT
  8
_0-7_枠細線
 62
    5
 10
1376.25
 20
122.5
 40
15
 41
1
 50
0
  1
設 計
  0
TEXT
  8
_0-7_枠細線
 62
    5
 10
1255
 20
95
 40
20
 41
1
 50
0
  1
大野
  0
TEXT
  8
_0-7_枠細線
 62
    5
 10
1315
 20
95
 40
20
 41
1
 50
0
  1
中村
  0
LINE
  8
_0-1_計細線
  6
CONTINUOUS
 62
    3
 10
396.18273557557768
 20
788.91031608886419
 11
396.18273557557768
 21
649.91031608886419
  0
LINE
  8
_0-1_計細線
  6
CONTINUOUS
 62
    3
 10
396.18273557557768
 20
649.91031608886419
 11
985.18273557557779
 21
649.91031608886419
  0
LINE
  8
_0-1_計細線
  6
CONTINUOUS
 62
    3
 10
985.18273557557779
 20
649.91031608886419
 11
985.18273557557779
 21
788.91031608886419
  0
LINE
  8
_0-1_計細線
  6
CONTINUOUS
 62
    3
 10
985.18273557557779
 20
788.91031608886419
 11
396.18273557557768
 21
788.91031608886419
  0
LINE
  8
_0-1_計細線
  6
CONTINUOUS
 62
    3
 10
393.68273557557768
 20
647.41031608886419
 11
393.68273557557768
 21
791.41031608886419
  0
LINE
  8
_0-1_計細線
  6
CONTINUOUS
 62
    3
 10
393.68273557557768
 20
791.41031608886419
 11
987.68273557557779
 21
791.41031608886419
  0
LINE
  8
_0-1_計細線
  6
CONTINUOUS
 62
    3
 10
987.68273557557779
 20
791.41031608886419
 11
987.68273557557779
 21
647.41031608886419
  0
LINE
  8
_0-1_計細線
  6
CONTINUOUS
 62
    3
 10
987.68273557557779
 20
647.41031608886419
 11
393.68273557557768
 21
647.41031608886419
  0
ARC
  8
_0-1_計細線
  6
CONTINUOUS
 62
    3
 10
729.29958124932728
 20
733.61655607138505
 40
0.501740082747087
 50
330.00000000003996
 51
20.189990999990084
  0
ARC
  8
_0-1_計細線
  6
CONTINUOUS
 62
    3
 10
729.29958124932728
 20
705.21694629537592
 40
0.501740082747087
 50
339.81000900000919
 51
29.999999999959307
  0
LINE
  8
_0-1_計細線
  6
CONTINUOUS
 62
    3
 10
691.98838772312592
 20
721.6745905870996
 11
690.68481962771057
 21
723.93242999081872
  0
LINE
  8
_0-1_計細線
  6
CONTINUOUS
 62
    3
 10
691.98838772312592
 20
721.6745905870996
 11
671.84849636737908
 21
756.55790230840626
  0
LINE
  8
_0-1_計細線
  6
CONTINUOUS
 62
    3
 10
691.98838772312592
 20
721.6745905870996
 11
694.5955178930526
 21
721.6745905870996
  0
LINE
  8
_0-1_計細線
  6
CONTINUOUS
 62
    3
 10
688.07769547868975
 20
719.41675118337957
 11
667.93780412293927
 21
754.3000629046885
  0
ARC
  8
_0-1_計細線
  6
CONTINUOUS
 62
    3
 10
659.08004726413492
 20
693.07529147331957
 40
0.501740082747087
 50
219.81000899998574
 51
269.99999999999977
  0
LINE
  8
_0-1_計細線
  6
CONTINUOUS
 62
    3
 10
691.98838772312592
 20
717.15891177966046
 11
671.84849636737908
 21
682.27560005835346
  0
LINE
  8
_0-1_計細線
  6
CONTINUOUS
 62
    3
 10
688.07769547868975
 20
719.41675118337957
 11
667.93780412293927
 21
684.53343946207258
  0
ARC
  8
_0-1_計細線
  6
CONTINUOUS
 62
    3
 10
690.68481962771057
 20
719.41675118337957
 40
46.4111412917104
 50
89.999999999999915
 51
269.99999999999977
  0
ARC
  8
_0-1_計細線
  6
CONTINUOUS
 62
    3
 10
690.68481962771057
 20
719.41675118337957
 40
57.198598227560836
 50
89.999999999999915
 51
269.99999999999977
  0
CIRCLE
  8
_0-1_計細線
  6
CONTINUOUS
 62
    3
 10
690.68481962771057
 20
719.41675118337957
 40
58.202084413960065
  0
LINE
  8
_0-1_計細線
  6
CONTINUOUS
 62
    3
 10
691.98838772312592
 20
721.6745905870996
 11
732.26816441371648
 21
721.6745905870996
  0
LINE
  8
_0-1_計細線
  6
CONTINUOUS
 62
    3
 10
691.98838772312592
 20
717.15891177966046
 11
732.26816441371648
 21
717.15891177966046
  0
ARC
  8
_0-1_計細線
  6
CONTINUOUS
 62
    3
 10
690.68481962771057
 20
719.41675118337957
 40
46.4111412917104
 50
269.99999999999977
 51
89.999999999999545
  0
ARC
  8
_0-1_計細線
  6
CONTINUOUS
 62
    3
 10
690.68481962771057
 20
719.41675118337957
 40
57.198598227560836
 50
269.99999999999977
 51
89.999999999999545
  0
ARC
  8
_0-1_計細線
  6
CONTINUOUS
 62
    3
 10
690.68481962771057
 20
719.41675118337957
 40
41.644595453350377
 50
89.999999999999915
 51
116.89207624474167
  0
ARC
  8
_0-1_計細線
  6
CONTINUOUS
 62
    3
 10
690.68481962771057
 20
719.41675118337957
 40
41.644595453350377
 50
123.10791868694014
 51
236.89208131305782
  0
ARC
  8
_0-1_計細線
  6
CONTINUOUS
 62
    3
 10
690.68481962771057
 20
719.41675118337957
 40
41.644595453350377
 50
243.10792375525659
 51
269.99999999999977
  0
ARC
  8
_0-1_計細線
  6
CONTINUOUS
 62
    3
 10
690.68481962771057
 20
719.41675118337957
 40
41.644595453350377
 50
269.99999999999977
 51
356.8920785890931
  0
ARC
  8
_0-1_計細線
  6
CONTINUOUS
 62
    3
 10
690.68481962771057
 20
719.41675118337957
 40
41.644595453350377
 50
3.1079214109077964
 51
89.999999999999915
  0
ARC
  8
_0-0_計極細
  6
CONTINUOUS
 62
    2
 10
690.68481962771057
 20
719.41675118337957
 40
50.153133796808191
 50
269.99999999999977
 51
89.999999999999545
  0
ARC
  8
_0-0_計極細
  6
CONTINUOUS
 62
    2
 10
690.68481962771057
 20
719.41675118337957
 40
50.153133796808191
 50
89.999999999999915
 51
269.99999999999977
  0
ARC
  8
_0-0_計極細
  6
CONTINUOUS
 62
    2
 10
677.06981858320341
 20
690.31570895378832
 40
0.501740082747087
 50
149.99997568607938
 51
210.00002243784951
  0
ARC
  8
_0-0_計極細
  6
CONTINUOUS
 62
    2
 10
690.97450343365938
 20
713.39584610679356
 40
1.0034861863992508
 50
29.999999999951111
 51
149.99999999997101
  0
ARC
  8
_0-0_計極細
  6
CONTINUOUS
 62
    2
 10
690.97450343365938
 20
713.39584610679356
 40
1.0034861863992508
 50
29.999999999951111
 51
106.77865499997519
  0
ARC
  8
_0-0_計極細
  6
CONTINUOUS
 62
    2
 10
685.32572641623847
 20
716.65717169691322
 40
1.0034861863992508
 50
329.99999999995163
 51
89.999999999999545
  0
ARC
  8
_0-0_計極細
  6
CONTINUOUS
 62
    2
 10
650.18960332767267
 20
726.69551198247279
 40
0.501740082747087
 50
89.993779916795503
 51
169.8086801233749
  0
ARC
  8
_0-0_計極細
  6
CONTINUOUS
 62
    2
 10
650.18803762223979
 20
712.14498864971824
 40
0.501740082747087
 50
190.17882981053808
 51
269.99383436904543
  0
ARC
  8
_0-0_計極細
  6
CONTINUOUS
 62
    2
 10
650.13630533163359
 20
722.17983758001378
 40
1.0034861863992508
 50
176.10042624738318
 51
269.99385985774035
  0
ARC
  8
_0-0_計極細
  6
CONTINUOUS
 62
    2
 10
690.68481962771057
 20
719.41675118337957
 40
37.630656728658437
 50
317.45760300000074
 51
327.38710799999916
  0
ARC
  8
_0-0_計極細
  6
CONTINUOUS
 62
    2
 10
690.68481962771057
 20
719.41675118337957
 40
37.630656728658437
 50
32.612892000001082
 51
42.54239699999939
  0
LINE
  8
_0-0_計極細
  6
CONTINUOUS
 62
    2
 10
725.85903739869809
 20
700.13781312815422
 11
716.9009481776975
 21
715.65368551051574
  0
LINE
  8
_0-0_計極細
  6
CONTINUOUS
 62
    2
 10
724.45221078121904
 20
695.5501182750935
 11
712.12121053631381
 21
716.90803872783385
  0
LINE
  8
_0-0_計極細
  6
CONTINUOUS
 62
    2
 10
719.83027504098754
 20
691.51373361627589
 11
705.89307192789875
 21
715.65368551051574
  0
LINE
  8
_0-0_計極細
  6
CONTINUOUS
 62
    2
 10
725.85903739869809
 20
738.69568923860629
 11
716.9009481776975
 21
723.17981685624568
  0
LINE
  8
_0-0_計極細
  6
CONTINUOUS
 62
    2
 10
724.45221078121904
 20
743.28338409166679
 11
712.12121053631381
 21
721.92546363892575
  0
LINE
  8
_0-0_計極細
  6
CONTINUOUS
 62
    2
 10
719.83027504098754
 20
747.31976272958025
 11
705.89307192789875
 21
723.17981685624568
  0
LINE
  8
_0-0_計極細
  6
CONTINUOUS
 62
    2
 10
688.67785327581714
 20
692.39711478820823
 11
688.67785327581714
 21
700.3145266921523
  0
LINE
  8
_0-0_計極細
  6
CONTINUOUS
 62
    2
 10
689.17959335856449
 20
692.36452362902833
 11
689.17959335856449
 21
699.44548731611337
  0
ARC
  8
_0-0_計極細
  6
CONTINUOUS
 62
    2
 10
690.68481962771057
 20
719.41675118337957
 40
37.630656728658437
 50
213.59599499999973
 51
225.50677599999941
  0
LINE
  8
_0-0_計極細
  6
CONTINUOUS
 62
    2
 10
717.66715651593313
 20
688.23598299710989
 11
701.11333428651506
 21
716.90803872783385
  0
LINE
  8
_0-0_計極細
  6
CONTINUOUS
 62
    2
 10
712.47930386574455
 20
685.17979566385407
 11
694.88519567809919
 21
715.65368551051574
  0
LINE
  8
_0-0_計極細
  6
CONTINUOUS
 62
    2
 10
694.47023490022093
 20
678.2400161799103
 11
682.13923465531582
 21
699.59793663265134
  0
LINE
  8
_0-0_計極細
  6
CONTINUOUS
 62
    2
 10
700.27681381879393
 20
680.22453659767802
 11
686.33961070570422
 21
704.36448849191709
  0
LINE
  8
_0-0_計極細
  6
CONTINUOUS
 62
    2
 10
704.19699500963463
 20
680.45897859955198
 11
687.64317278021645
 21
709.13104035118226
  0
LINE
  8
_0-0_計極細
  6
CONTINUOUS
 62
    2
 10
709.43765099734537
 20
683.42370236378724
 11
691.84354883060496
 21
713.89758618954215
  0
LINE
  8
_0-0_計極細
  6
CONTINUOUS
 62
    2
 10
659.08004726413492
 20
692.57355139057267
 11
672.29008158750639
 21
692.57355139057267
  0
ARC
  8
_0-0_計極細
  6
CONTINUOUS
 62
    2
 10
668.81391204153897
 20
688.05787258313319
 40
1.0034861863992508
 50
329.99999999997061
 51
89.999999999999545
  0
ARC
  8
_0-0_計極細
  6
CONTINUOUS
 62
    2
 10
690.68481962771057
 20
719.41675118337957
 40
37.630656728658437
 50
233.77152299999938
 51
236.31964599999873
  0
ARC
  8
_0-0_計極細
  6
CONTINUOUS
 62
    2
 10
664.83293175123708
 20
688.05787258313319
 40
1.0034861863992508
 50
89.999999999999915
 51
230.49822999997428
  0
LINE
  8
_0-0_計極細
  6
CONTINUOUS
 62
    2
 10
664.83293175123708
 20
689.06135274862731
 11
668.81391204153897
 21
689.06135274862731
  0
ARC
  8
_0-0_計極細
  6
CONTINUOUS
 62
    2
 10
690.68481962771057
 20
719.41675118337957
 40
37.630656728658437
 50
272.61289199999942
 51
282.54239699999982
  0
ARC
  8
_0-0_計極細
  6
CONTINUOUS
 62
    2
 10
694.90475759869241
 20
678.49088923173599
 40
0.501740082747087
 50
210.00000000000426
 51
275.88706199997517
  0
LINE
  8
_0-0_計極細
  6
CONTINUOUS
 62
    2
 10
689.79376180180589
 20
679.31551239102669
 11
680.83567258080529
 21
694.83139079429225
  0
LINE
  8
_0-0_計極細
  6
CONTINUOUS
 62
    2
 10
683.24031369210115
 20
678.62461353348976
 11
676.63529653041678
 21
690.06483893502741
  0
ARC
  8
_0-0_計極細
  6
CONTINUOUS
 62
    2
 10
690.68481962771057
 20
719.41675118337957
 40
37.630656728658437
 50
254.49322399999932
 51
266.40400499999907
  0
ARC
  8
_0-0_計極細
  6
CONTINUOUS
 62
    2
 10
672.29008158750639
 20
693.07529147331957
 40
0.501740082747087
 50
269.99999999999977
 51
329.99999999989114
  0
ARC
  8
_0-0_計極細
  6
CONTINUOUS
 62
    2
 10
676.45318221456466
 20
681.34891653711134
 40
1.0034861863992508
 50
249.50177000005806
 51
29.999999999976708
  0
LINE
  8
_0-0_計極細
  6
CONTINUOUS
 62
    2
 10
677.3222215906053
 20
681.85065661985868
 11
675.33173445590637
 21
685.2982870757603
  0
ARC
  8
_0-0_計極細
  6
CONTINUOUS
 62
    2
 10
679.96662718386051
 20
694.32964469064086
 40
1.0034861863992508
 50
29.999999999977071
 51
149.99999999999699
  0
ARC
  8
_0-0_計極細
  6
CONTINUOUS
 62
    2
 10
690.68481962771057
 20
719.41675118337957
 40
27.094072844634091
 50
244.78019200000111
 51
249.77896100000117
  0
ARC
  8
_0-0_計極細
  6
CONTINUOUS
 62
    2
 10
690.68481962771057
 20
719.41675118337957
 40
37.630656728658437
 50
243.68035399999945
 51
246.22847699999838
  0
ARC
  8
_0-0_計極細
  6
CONTINUOUS
 62
    2
 10
674.46268905896159
 20
684.79654699301523
 40
1.0034861863992508
 50
29.999999999977071
 51
150.00000000002294
  0
ARC
  8
_0-0_計極細
  6
CONTINUOUS
 62
    2
 10
688.92472242576787
 20
678.81377230828116
 40
1.0034861863992508
 50
267.5178359999677
 51
30.000000000002665
  0
ARC
  8
_0-0_計極細
  6
CONTINUOUS
 62
    2
 10
683.67483639057264
 20
678.87548658531546
 40
0.501740082747087
 50
210.00000000010814
 51
260.18999100005101
  0
ARC
  8
_0-0_計極細
  6
CONTINUOUS
 62
    2
 10
690.68481962771057
 20
719.41675118337957
 40
27.094072844634091
 50
260.29098299999907
 51
275.37568199999987
  0
ARC
  8
_0-0_計極細
  6
CONTINUOUS
 62
    2
 10
690.68481962771057
 20
719.41675118337957
 40
37.630656728658437
 50
288.07291800000053
 51
297.3252259999997
  0
ARC
  8
_0-0_計極細
  6
CONTINUOUS
 62
    2
 10
690.68481962771057
 20
719.41675118337957
 40
27.094072844634091
 50
283.31934900000118
 51
296.2837799999993
  0
ARC
  8
_0-0_計極細
  6
CONTINUOUS
 62
    2
 10
704.63151168720015
 20
680.70985165137813
 40
0.501740082747087
 50
210.00000000010814
 51
289.81487200010849
  0
ARC
  8
_0-0_計極細
  6
CONTINUOUS
 62
    2
 10
699.40776842185005
 20
679.7227965149317
 40
1.0034861863992508
 50
282.39403400005705
 51
30.000000000002665
  0
ARC
  8
_0-0_計極細
  6
CONTINUOUS
 62
    2
 10
690.68481962771057
 20
719.41675118337957
 40
37.630656728658437
 50
302.67477399999865
 51
311.92708199999919
  0
ARC
  8
_0-0_計極細
  6
CONTINUOUS
 62
    2
 10
713.34834324178246
 20
685.68154176750681
 40
1.0034861863992508
 50
210.00000000002515
 51
303.89345000001418
  0
ARC
  8
_0-0_計極細
  6
CONTINUOUS
 62
    2
 10
717.23263381746074
 20
687.98510994528431
 40
0.501740082747087
 50
310.18512800003361
 51
29.999999999907399
  0
ARC
  8
_0-0_計極細
  6
CONTINUOUS
 62
    2
 10
708.56861162130645
 20
682.92195626013449
 40
1.0034861863992508
 50
296.10655000002453
 51
29.999999999999204
  0
LINE
  8
_0-0_計極細
  6
CONTINUOUS
 62
    2
 10
656.40165968262772
 20
698.59445646715835
 11
674.31785016643789
 21
698.59445646715835
  0
ARC
  8
_0-0_計極細
  6
CONTINUOUS
 62
    2
 10
668.81391204153897
 20
750.77562978362789
 40
1.0034861863992508
 50
269.99999999999977
 51
30.000000000051159
  0
LINE
  8
_0-0_計極細
  6
CONTINUOUS
 62
    2
 10
659.08004726413492
 20
746.25995097618829
 11
672.29008158750639
 21
746.25995097618829
  0
LINE
  8
_0-0_計極細
  6
CONTINUOUS
 62
    2
 10
656.40165968262772
 20
740.23904589960171
 11
674.31785016643789
 21
740.23904589960171
  0
LINE
  8
_0-0_計極細
  6
CONTINUOUS
 62
    2
 10
653.1320192225985
 20
736.72685327856311
 11
677.79401971240532
 21
736.72685327856311
  0
LINE
  8
_0-0_計極細
  6
CONTINUOUS
 62
    2
 10
651.94737604425427
 20
730.705948201978
 11
679.82178829133875
 21
730.705948201978
  0
LINE
  8
_0-0_計極細
  6
CONTINUOUS
 62
    2
 10
650.19031939937395
 20
727.19375558093748
 11
683.29795783730435
 21
727.19375558093748
  0
LINE
  8
_0-0_計極細
  6
CONTINUOUS
 62
    2
 10
650.13751004094684
 20
721.17285050435225
 11
685.32572641623847
 21
721.17285050435225
  0
LINE
  8
_0-0_計極細
  6
CONTINUOUS
 62
    2
 10
653.1320192225985
 20
702.10664908819797
 11
677.79401971240532
 21
702.10664908819797
  0
LINE
  8
_0-0_計極細
  6
CONTINUOUS
 62
    2
 10
651.94737604425427
 20
708.12755416478353
 11
679.82178829133875
 21
708.12755416478353
  0
LINE
  8
_0-0_計極細
  6
CONTINUOUS
 62
    2
 10
650.19031939937395
 20
711.63974678582349
 11
683.29795783730435
 21
711.63974678582349
  0
LINE
  8
_0-0_計極細
  6
CONTINUOUS
 62
    2
 10
650.13751004094684
 20
717.66065186240735
 11
685.32572641623847
 21
717.66065186240735
  0
ARC
  8
_0-0_計極細
  6
CONTINUOUS
 62
    2
 10
690.68481962771057
 20
719.41675118337957
 40
27.094072844634091
 50
140.2909829999995
 51
155.37568200000004
  0
ARC
  8
_0-0_計極細
  6
CONTINUOUS
 62
    2
 10
690.68481962771057
 20
719.41675118337957
 40
37.630656728658437
 50
152.61289200000007
 51
162.54239699999968
  0
ARC
  8
_0-0_計極細
  6
CONTINUOUS
 62
    2
 10
651.94737604425427
 20
731.70943438837855
 40
1.0034861863992508
 50
162.39403400002107
 51
269.99999999999977
  0
ARC
  8
_0-0_計極細
  6
CONTINUOUS
 62
    2
 10
656.40165968262772
 20
697.5909702807578
 40
1.0034861863992508
 50
89.999999999999915
 51
212.4821639999854
  0
ARC
  8
_0-0_計極細
  6
CONTINUOUS
 62
    2
 10
690.68481962771057
 20
719.41675118337957
 40
37.630656728658437
 50
168.07291799999925
 51
177.32522600000016
  0
ARC
  8
_0-0_計極細
  6
CONTINUOUS
 62
    2
 10
690.68481962771057
 20
719.41675118337957
 40
37.630656728658437
 50
182.67477399999882
 51
191.9270819999997
  0
ARC
  8
_0-0_計極細
  6
CONTINUOUS
 62
    2
 10
690.68481962771057
 20
719.41675118337957
 40
37.630656728658437
 50
197.4576029999993
 51
207.38710799999896
  0
ARC
  8
_0-0_計極細
  6
CONTINUOUS
 62
    2
 10
650.13751004094684
 20
716.65717169691402
 40
1.0034861863992508
 50
89.999999999999915
 51
183.89344999999844
  0
ARC
  8
_0-0_計極細
  6
CONTINUOUS
 62
    2
 10
651.94737604425427
 20
707.12406797838435
 40
1.0034861863992508
 50
89.999999999999915
 51
197.60596600000332
  0
ARC
  8
_0-0_計極細
  6
CONTINUOUS
 62
    2
 10
653.1320192225985
 20
702.60838917094384
 40
0.501740082747087
 50
204.11293800002809
 51
269.99999999999977
  0
ARC
  8
_0-0_計極細
  6
CONTINUOUS
 62
    2
 10
690.68481962771057
 20
719.41675118337957
 40
27.094072844634091
 50
163.31934899999951
 51
176.28377999999955
  0
ARC
  8
_0-0_計極細
  6
CONTINUOUS
 62
    2
 10
690.68481962771057
 20
719.41675118337957
 40
27.094072844634091
 50
183.71621999999911
 51
196.68065099999922
  0
ARC
  8
_0-0_計極細
  6
CONTINUOUS
 62
    2
 10
690.68481962771057
 20
719.41675118337957
 40
27.094072844634091
 50
204.62431799999874
 51
219.70901699999865
  0
ARC
  8
_0-0_計極細
  6
CONTINUOUS
 62
    2
 10
653.1320192225985
 20
736.22511319581713
 40
0.501740082747087
 50
89.999999999999915
 51
155.88706199997156
  0
ARC
  8
_0-0_計極細
  6
CONTINUOUS
 62
    2
 10
656.40165968262772
 20
741.24253208600283
 40
1.0034861863992508
 50
147.5178360000142
 51
269.99999999999977
  0
ARC
  8
_0-0_計極細
  6
CONTINUOUS
 62
    2
 10
690.68481962771057
 20
719.41675118337957
 40
37.630656728658437
 50
123.68035400000058
 51
126.22847700000025
  0
ARC
  8
_0-0_計極細
  6
CONTINUOUS
 62
    2
 10
690.68481962771057
 20
719.41675118337957
 40
37.630656728658437
 50
134.49322399999971
 51
146.40400499999933
  0
ARC
  8
_0-0_計極細
  6
CONTINUOUS
 62
    2
 10
659.08004726413492
 20
745.75821089344186
 40
0.501740082747087
 50
89.999999999999915
 51
140.18999100005377
  0
ARC
  8
_0-0_計極細
  6
CONTINUOUS
 62
    2
 10
664.83293175123708
 20
750.77562978362789
 40
1.0034861863992508
 50
129.50177000002535
 51
269.99999999999977
  0
LINE
  8
_0-0_計極細
  6
CONTINUOUS
 62
    2
 10
664.83293175123708
 20
749.77214961813377
 11
668.81391204153897
 21
749.77214961813377
  0
ARC
  8
_0-0_計極細
  6
CONTINUOUS
 62
    2
 10
690.68481962771057
 20
719.41675118337957
 40
37.630656728658437
 50
77.457603000000148
 51
87.387108000000282
  0
ARC
  8
_0-0_計極細
  6
CONTINUOUS
 62
    2
 10
690.68481962771057
 20
719.41675118337957
 40
37.630656728658437
 50
77.457603000000148
 51
87.387108000000282
  0
ARC
  8
_0-0_計極細
  6
CONTINUOUS
 62
    2
 10
695.75424107504386
 20
716.15542559326218
 40
1.0034861863992508
 50
89.999999999999915
 51
209.9999999999992
  0
ARC
  8
_0-0_計極細
  6
CONTINUOUS
 62
    2
 10
695.75424107504386
 20
722.67807677350015
 40
1.0034861863992508
 50
150.00000000000043
 51
269.99999999999977
  0
ARC
  8
_0-0_計極細
  6
CONTINUOUS
 62
    2
 10
694.90475759869241
 20
760.34261313502225
 40
0.501740082747087
 50
84.112938000024442
 51
150.00000000004033
  0
LINE
  8
_0-0_計極細
  6
CONTINUOUS
 62
    2
 10
700.27681381879393
 20
758.60895974817583
 11
686.33961070570422
 21
734.46901387484399
  0
LINE
  8
_0-0_計極細
  6
CONTINUOUS
 62
    2
 10
704.19699500963463
 20
758.37451774630449
 11
687.64317278021645
 21
729.7024620155787
  0
LINE
  8
_0-0_計極細
  6
CONTINUOUS
 62
    2
 10
709.43765099734537
 20
755.40980000297384
 11
691.84354883060496
 21
724.93591617721893
  0
LINE
  8
_0-0_計極細
  6
CONTINUOUS
 62
    2
 10
688.67785327581714
 20
727.40859953678523
 11
688.67785327581714
 21
731.49458441162392
  0
LINE
  8
_0-0_計極細
  6
CONTINUOUS
 62
    2
 10
689.17959335856449
 20
726.5395601607463
 11
689.17959335856449
 21
732.363629808567
  0
ARC
  8
_0-0_計極細
  6
CONTINUOUS
 62
    2
 10
679.82178829133875
 20
731.70943438837855
 40
1.0034861863992508
 50
269.99999999999977
 51
29.999999999999204
  0
LINE
  8
_0-0_計極細
  6
CONTINUOUS
 62
    2
 10
692.19004589685755
 20
725.53607397434848
 11
692.19004589685755
 21
737.57788412751802
  0
LINE
  8
_0-0_計極細
  6
CONTINUOUS
 62
    2
 10
692.69179200050894
 20
726.40511937129099
 11
692.69179200050894
 21
738.44692952446326
  0
ARC
  8
_0-0_計極細
  6
CONTINUOUS
 62
    2
 10
679.82178829133875
 20
707.12406797838435
 40
1.0034861863992508
 50
329.9999999999776
 51
89.999999999999545
  0
ARC
  8
_0-0_計極細
  6
CONTINUOUS
 62
    2
 10
677.79401971240532
 20
702.60838917094384
 40
0.501740082747087
 50
269.99999999999977
 51
329.999999999995
  0
ARC
  8
_0-0_計極細
  6
CONTINUOUS
 62
    2
 10
690.68481962771057
 20
719.41675118337957
 40
27.094072844634091
 50
230.22103899999877
 51
235.21980799999864
  0
ARC
  8
_0-0_計極細
  6
CONTINUOUS
 62
    2
 10
674.31785016643789
 20
697.5909702807578
 40
1.0034861863992508
 50
330.00000000000011
 51
89.999999999999545
  0
ARC
  8
_0-0_計極細
  6
CONTINUOUS
 62
    2
 10
682.5737573537881
 20
699.84880968447828
 40
0.501740082747087
 50
149.9999999999884
 51
210.00000000005619
  0
LINE
  8
_0-0_計極細
  6
CONTINUOUS
 62
    2
 10
688.67785327581714
 20
707.33891795513716
 11
688.67785327581714
 21
711.42490282997574
  0
LINE
  8
_0-0_計極細
  6
CONTINUOUS
 62
    2
 10
689.17959335856449
 20
706.46987255819226
 11
689.17959335856449
 21
712.29394220601421
  0
ARC
  8
_0-0_計極細
  6
CONTINUOUS
 62
    2
 10
683.29795783730435
 20
712.14149288947499
 40
0.501740082747087
 50
269.99999999999977
 51
330.00000000003996
  0
ARC
  8
_0-0_計極細
  6
CONTINUOUS
 62
    2
 10
688.07769547868975
 20
709.38190738210255
 40
0.501740082747087
 50
150.00000000009922
 51
209.99999999985545
  0
ARC
  8
_0-0_計極細
  6
CONTINUOUS
 62
    2
 10
685.47056530875943
 20
703.86274840916963
 40
1.0034861863992508
 50
29.999999999999559
 51
150.00000000000043
  0
ARC
  8
_0-0_計極細
  6
CONTINUOUS
 62
    2
 10
688.07769547868975
 20
729.4515949846575
 40
0.501740082747087
 50
150.00000000009922
 51
209.99999999985545
  0
ARC
  8
_0-0_計極細
  6
CONTINUOUS
 62
    2
 10
690.97450343365938
 20
725.43765625996616
 40
1.0034861863992508
 50
210.00000000005113
 51
330.00000000002603
  0
ARC
  8
_0-0_計極細
  6
CONTINUOUS
 62
    2
 10
683.29795783730435
 20
726.69200947728473
 40
0.501740082747087
 50
29.99999999995967
 51
89.999999999999901
  0
ARC
  8
_0-0_計極細
  6
CONTINUOUS
 62
    2
 10
685.32572641623847
 20
722.17633066984706
 40
1.0034861863992508
 50
269.99999999999977
 51
30.000000000002665
  0
LINE
  8
_0-0_計極細
  6
CONTINUOUS
 62
    2
 10
692.19004589685755
 20
701.25561823924204
 11
692.19004589685755
 21
713.29742839241385
  0
LINE
  8
_0-0_計極細
  6
CONTINUOUS
 62
    2
 10
692.69179200050894
 20
700.38657284229907
 11
692.69179200050894
 21
712.42838299546906
  0
ARC
  8
_0-0_計極細
  6
CONTINUOUS
 62
    2
 10
690.97450343365938
 20
725.43765625996616
 40
1.0034861863992508
 50
253.22134500003193
 51
330.00000000002603
  0
LINE
  8
_0-0_計極細
  6
CONTINUOUS
 62
    2
 10
689.79376180180589
 20
759.51798395482933
 11
680.83567258080529
 21
744.00211157246827
  0
ARC
  8
_0-0_計極細
  6
CONTINUOUS
 62
    2
 10
690.68481962771057
 20
719.41675118337957
 40
37.630656728658437
 50
93.595995000000485
 51
105.50677600000017
  0
LINE
  8
_0-0_計極細
  6
CONTINUOUS
 62
    2
 10
683.24031369210115
 20
760.20888883327348
 11
676.63529653041678
 21
748.76866343173322
  0
LINE
  8
_0-0_計極細
  6
CONTINUOUS
 62
    2
 10
694.47023490022093
 20
760.5934861868493
 11
682.13923465531582
 21
739.23556573410792
  0
ARC
  8
_0-0_計極細
  6
CONTINUOUS
 62
    2
 10
682.5737573537881
 20
738.98469268228268
 40
0.501740082747087
 50
149.9999999999884
 51
210.00000000001123
  0
ARC
  8
_0-0_計極細
  6
CONTINUOUS
 62
    2
 10
690.68481962771057
 20
719.41675118337957
 40
27.094072844634091
 50
110.2210389999981
 51
115.21980799999808
  0
ARC
  8
_0-0_計極細
  6
CONTINUOUS
 62
    2
 10
679.96662718386051
 20
744.50385767612147
 40
1.0034861863992508
 50
210.00000000000267
 51
330.00000000002257
  0
ARC
  8
_0-0_計極細
  6
CONTINUOUS
 62
    2
 10
677.06981922888826
 20
748.51779037990696
 40
0.501740082747087
 50
149.99999999999537
 51
209.9999999999593
  0
ARC
  8
_0-0_計極細
  6
CONTINUOUS
 62
    2
 10
690.68481962771057
 20
719.41675118337957
 40
37.630656728658437
 50
113.77152300000098
 51
116.31964599999986
  0
ARC
  8
_0-0_計極細
  6
CONTINUOUS
 62
    2
 10
676.45318221456466
 20
757.48458582964975
 40
1.0034861863992508
 50
330.00000000002257
 51
110.49822999994124
  0
ARC
  8
_0-0_計極細
  6
CONTINUOUS
 62
    2
 10
674.46268905896159
 20
754.03695537374483
 40
1.0034861863992508
 50
209.9999999999992
 51
330.00000000000011
  0
LINE
  8
_0-0_計極細
  6
CONTINUOUS
 62
    2
 10
677.3222215906053
 20
756.98284574690229
 11
675.33173445590637
 21
753.53521529100021
  0
ARC
  8
_0-0_計極細
  6
CONTINUOUS
 62
    2
 10
690.68481962771057
 20
719.41675118337957
 40
27.094072844634091
 50
124.78019199999984
 51
129.77896100000024
  0
ARC
  8
_0-0_計極細
  6
CONTINUOUS
 62
    2
 10
672.29008158750639
 20
745.75821089344186
 40
0.501740082747087
 50
30.000000000063526
 51
89.999999999999915
  0
ARC
  8
_0-0_計極細
  6
CONTINUOUS
 62
    2
 10
674.31785016643789
 20
741.24253208600283
 40
1.0034861863992508
 50
269.99999999999977
 51
29.999999999999204
  0
ARC
  8
_0-0_計極細
  6
CONTINUOUS
 62
    2
 10
677.79401971240532
 20
736.22511319581713
 40
0.501740082747087
 50
29.99999999995967
 51
89.999999999999901
  0
LINE
  8
_0-0_計極細
  6
CONTINUOUS
 62
    2
 10
689.17959335856449
 20
739.38801505064771
 11
689.17959335856449
 21
746.46897873773264
  0
LINE
  8
_0-0_計極細
  6
CONTINUOUS
 62
    2
 10
688.67785327581714
 20
738.51897567460924
 11
688.67785327581714
 21
746.43638757855274
  0
ARC
  8
_0-0_計極細
  6
CONTINUOUS
 62
    2
 10
688.92472242576787
 20
760.01973005848299
 40
1.0034861863992508
 50
329.99999999997414
 51
92.482164000031602
  0
ARC
  8
_0-0_計極細
  6
CONTINUOUS
 62
    2
 10
690.68481962771057
 20
719.41675118337957
 40
27.094072844634091
 50
84.624317999999832
 51
99.709017000000401
  0
ARC
  8
_0-0_計極細
  6
CONTINUOUS
 62
    2
 10
683.67483639057264
 20
759.95801578144824
 40
0.501740082747087
 50
99.810008999948636
 51
149.99999999993648
  0
ARC
  8
_0-0_計極細
  6
CONTINUOUS
 62
    2
 10
685.47056530875943
 20
734.97075395758998
 40
1.0034861863992508
 50
209.9999999999992
 51
330.00000000000011
  0
ARC
  8
_0-0_計極細
  6
CONTINUOUS
 62
    2
 10
690.68481962771057
 20
719.41675118337957
 40
27.094072844634091
 50
84.624317999999832
 51
89.999999999999915
  0
ARC
  8
_0-0_計極細
  6
CONTINUOUS
 62
    2
 10
690.68481962771057
 20
719.41675118337957
 40
27.094072844634091
 50
20.290983000001571
 51
35.37568200000068
  0
LINE
  8
_0-0_計極細
  6
CONTINUOUS
 62
    2
 10
717.66715651593313
 20
750.59751936965245
 11
701.11333428651506
 21
721.92546363892575
  0
LINE
  8
_0-0_計極細
  6
CONTINUOUS
 62
    2
 10
712.47930386574455
 20
753.65370670290645
 11
694.88519567809919
 21
723.17981685624568
  0
ARC
  8
_0-0_計極細
  6
CONTINUOUS
 62
    2
 10
690.68481962771057
 20
719.41675118337957
 40
27.094072844634091
 50
303.71622000000156
 51
316.68065099999922
  0
ARC
  8
_0-0_計極細
  6
CONTINUOUS
 62
    2
 10
706.76211130393585
 20
716.15542559326218
 40
1.0034861863992508
 50
89.999999999999915
 51
210.00000000002515
  0
ARC
  8
_0-0_計極細
  6
CONTINUOUS
 62
    2
 10
700.67881158804357
 20
716.65717169691402
 40
0.501740082747087
 50
30.0000000001085
 51
89.999999999999915
  0
ARC
  8
_0-0_計極細
  6
CONTINUOUS
 62
    2
 10
706.76211130393585
 20
722.67807677350015
 40
1.0034861863992508
 50
149.99999999997448
 51
269.99999999999977
  0
ARC
  8
_0-0_計極細
  6
CONTINUOUS
 62
    2
 10
700.67881158804357
 20
722.17633066984706
 40
0.501740082747087
 50
269.99999999999977
 51
329.99999999989114
  0
ARC
  8
_0-0_計極細
  6
CONTINUOUS
 62
    2
 10
690.68481962771057
 20
719.41675118337957
 40
27.094072844634091
 50
324.62431799999973
 51
339.7090169999999
  0
ARC
  8
_0-0_計極細
  6
CONTINUOUS
 62
    2
 10
690.68481962771057
 20
719.41675118337957
 40
27.094072844634091
 50
350.22103899999934
 51
355.21980800000068
  0
ARC
  8
_0-0_計極細
  6
CONTINUOUS
 62
    2
 10
690.68481962771057
 20
719.41675118337957
 40
27.094072844634091
 50
4.7801919999998796
 51
9.778961000001221
  0
ARC
  8
_0-0_計極細
  6
CONTINUOUS
 62
    2
 10
717.76998755373552
 20
716.15542559326218
 40
1.0034861863992508
 50
89.999999999999915
 51
210.00000000002515
  0
ARC
  8
_0-0_計極細
  6
CONTINUOUS
 62
    2
 10
711.68668783784244
 20
716.65717169691402
 40
0.501740082747087
 50
30.000000000056566
 51
89.999999999999915
  0
ARC
  8
_0-0_計極細
  6
CONTINUOUS
 62
    2
 10
717.76998755373552
 20
722.67807677350015
 40
1.0034861863992508
 50
149.99999999997448
 51
269.99999999999977
  0
ARC
  8
_0-0_計極細
  6
CONTINUOUS
 62
    2
 10
711.68668783784244
 20
722.17633066984706
 40
0.501740082747087
 50
269.99999999999977
 51
329.9999999999431
  0
ARC
  8
_0-0_計極細
  6
CONTINUOUS
 62
    2
 10
690.68481962771057
 20
719.41675118337957
 40
27.094072844634091
 50
43.319349000001104
 51
56.28377999999919
  0
ARC
  8
_0-0_計極細
  6
CONTINUOUS
 62
    2
 10
690.68481962771057
 20
719.41675118337957
 40
37.630656728658437
 50
62.674774000000312
 51
71.927081999999317
  0
ARC
  8
_0-0_計極細
  6
CONTINUOUS
 62
    2
 10
690.68481962771057
 20
719.41675118337957
 40
27.094072844634091
 50
63.716220000000746
 51
76.680650999998889
  0
ARC
  8
_0-0_計極細
  6
CONTINUOUS
 62
    2
 10
704.63151168720015
 20
758.12365071538238
 40
0.501740082747087
 50
70.185127999891137
 51
149.99999999993648
  0
ARC
  8
_0-0_計極細
  6
CONTINUOUS
 62
    2
 10
699.40776842185005
 20
759.11070585182938
 40
1.0034861863992508
 50
329.99999999999665
 51
77.605965999942228
  0
ARC
  8
_0-0_計極細
  6
CONTINUOUS
 62
    2
 10
690.68481962771057
 20
719.41675118337957
 40
37.630656728658437
 50
48.072918000001373
 51
57.325226000001372
  0
ARC
  8
_0-0_計極細
  6
CONTINUOUS
 62
    2
 10
713.34834324178246
 20
753.15196059925472
 40
1.0034861863992508
 50
56.106549999971008
 51
149.99999999999699
  0
ARC
  8
_0-0_計極細
  6
CONTINUOUS
 62
    2
 10
717.23263381746074
 20
750.84838640057274
 40
0.501740082747087
 50
330.00000000009186
 51
49.814871999965682
  0
ARC
  8
_0-0_計極細
  6
CONTINUOUS
 62
    2
 10
708.56861162130645
 20
755.91154610662511
 40
1.0034861863992508
 50
330.00000000000011
 51
63.893449999974756
  0
ARC
  8
_0-0_計極細
  6
CONTINUOUS
 62
    2
 10
720.69932043793062
 20
692.01547971992863
 40
1.0034861863992508
 50
210.00000000002515
 51
317.6059660000256
  0
ARC
  8
_0-0_計極細
  6
CONTINUOUS
 62
    2
 10
724.0176941036508
 20
695.29924522326769
 40
0.501740082747087
 50
324.11293799996702
 51
29.999999999959307
  0
ARC
  8
_0-0_計極細
  6
CONTINUOUS
 62
    2
 10
690.68481962771057
 20
719.41675118337957
 40
37.630656728658437
 50
14.493223999999607
 51
26.404005000000534
  0
LINE
  8
_0-0_計極細
  6
CONTINUOUS
 62
    2
 10
729.73410394779876
 20
733.36568904046476
 11
723.12908678611348
 21
721.92546363892575
  0
ARC
  8
_0-0_計極細
  6
CONTINUOUS
 62
    2
 10
730.76835695913996
 20
712.70779513735783
 40
1.0034861863992508
 50
209.99999999997672
 51
350.4982300000064
  0
ARC
  8
_0-0_計極細
  6
CONTINUOUS
 62
    2
 10
730.76835695913996
 20
726.12570722940313
 40
1.0034861863992508
 50
9.5017699999932326
 51
150.00000000000043
  0
ARC
  8
_0-0_計極細
  6
CONTINUOUS
 62
    2
 10
690.68481962771057
 20
719.41675118337957
 40
37.630656728658437
 50
3.6803540000001762
 51
6.228477000000372
  0
ARC
  8
_0-0_計極細
  6
CONTINUOUS
 62
    2
 10
690.68481962771057
 20
719.41675118337957
 40
37.630656728658437
 50
353.77152300000063
 51
356.31964600000015
  0
ARC
  8
_0-0_計極細
  6
CONTINUOUS
 62
    2
 10
690.68481962771057
 20
719.41675118337957
 40
37.630656728658437
 50
333.59599499999973
 51
345.50677600000074
  0
ARC
  8
_0-0_計極細
  6
CONTINUOUS
 62
    2
 10
726.72808279564288
 20
700.63955321090123
 40
1.0034861863992508
 50
209.99999999997672
 51
332.48216400001218
  0
ARC
  8
_0-0_計極細
  6
CONTINUOUS
 62
    2
 10
728.77786380353427
 20
716.15542559326218
 40
1.0034861863992508
 50
89.999999999999915
 51
210.00000000002515
  0
ARC
  8
_0-0_計極細
  6
CONTINUOUS
 62
    2
 10
722.69456408764108
 20
716.65717169691402
 40
0.501740082747087
 50
30.000000000004636
 51
89.999999999999915
  0
LINE
  8
_0-0_計極細
  6
CONTINUOUS
 62
    2
 10
729.89931156219529
 20
712.2060550546114
 11
727.90882442749637
 21
715.65368551051574
  0
LINE
  8
_0-0_計極細
  6
CONTINUOUS
 62
    2
 10
729.73410394779876
 20
705.46781332629723
 11
723.12908678611348
 21
716.90803872783385
  0
ARC
  8
_0-0_計極細
  6
CONTINUOUS
 62
    2
 10
728.77786380353427
 20
722.67807677350015
 40
1.0034861863992508
 50
149.99999999997448
 51
269.99999999999977
  0
ARC
  8
_0-0_計極細
  6
CONTINUOUS
 62
    2
 10
722.69456408764108
 20
722.17633066984706
 40
0.501740082747087
 50
269.99999999999977
 51
329.999999999995
  0
LINE
  8
_0-0_計極細
  6
CONTINUOUS
 62
    2
 10
729.89931156219529
 20
726.62744731214957
 11
727.90882442749637
 21
723.17981685624568
  0
ARC
  8
_0-0_計極細
  6
CONTINUOUS
 62
    2
 10
720.69932043793062
 20
746.81802264683245
 40
1.0034861863992508
 50
42.394033999974049
 51
149.99999999997448
  0
ARC
  8
_0-0_計極細
  6
CONTINUOUS
 62
    2
 10
724.0176941036508
 20
743.53425714349282
 40
0.501740082747087
 50
330.00000000003996
 51
35.887062000032259
  0
ARC
  8
_0-0_計極細
  6
CONTINUOUS
 62
    2
 10
726.72808279564288
 20
738.19394915585985
 40
1.0034861863992508
 50
27.517836000010465
 51
150.00000000000043
  0
LINE
  8
_0-0_計極細
  6
CONTINUOUS
 62
    2
 10
692.19004589685755
 20
692.364522491662
 11
692.19004589685755
 21
694.23123414175529
  0
LINE
  8
_0-0_計極細
  6
CONTINUOUS
 62
    2
 10
692.69179200050894
 20
692.39711304359048
 11
692.69179200050894
 21
693.36218411019695
  0
LINE
  8
_0-0_計極細
  6
CONTINUOUS
 62
    2
 10
692.19004589685755
 20
744.60226569760312
 11
692.19004589685755
 21
746.4689798750976
  0
LINE
  8
_0-0_計極細
  6
CONTINUOUS
 62
    2
 10
692.69179200050894
 20
745.47131551240568
 11
692.69179200050894
 21
746.43638932316912
  0
LINE
  8
_0-0_計極細
  6
CENTER2
 62
    2
 10
386.1342258806344
 20
719.41031608886419
 11
1000.285169276861
 21
719.41031608886419
  0
ARC
  8
_0-1_計細線
  6
CONTINUOUS
 62
    3
 10
977.18273557557825
 20
657.91031608886374
 40
2
 50
269.99999999999977
 51
0.0000000000126713
  0
ARC
  8
_0-1_計細線
  6
DASHED2
 62
    3
 10
409.68273557557677
 20
775.41031608886431
 40
12.5
 50
233.13010235415936
 51
36.869897645840759
  0
ARC
  8
_0-1_計細線
  6
CONTINUOUS
 62
    3
 10
409.68273557557677
 20
775.41031608886431
 40
12.5
 50
36.8698976458411
 51
233.13010235415564
  0
ARC
  8
_0-1_計細線
  6
DASHED2
 62
    3
 10
409.682735575577
 20
663.41031608886419
 40
12.5
 50
323.11949922673051
 51
126.86989764584366
  0
ARC
  8
_0-1_計細線
  6
CONTINUOUS
 62
    3
 10
409.682735575577
 20
663.41031608886419
 40
12.5
 50
126.86989764584402
 51
323.11949922673051
  0
ARC
  8
_0-1_計細線
  6
CONTINUOUS
 62
    3
 10
971.68273557557836
 20
663.41031608886419
 40
12.5
 50
216.88050077326872
 51
53.130102354155625
  0
ARC
  8
_0-1_計細線
  6
DASHED2
 62
    3
 10
971.68273557557836
 20
663.41031608886419
 40
12.5
 50
53.13010235415598
 51
216.88050077326872
  0
ARC
  8
_0-1_計細線
  6
CONTINUOUS
 62
    3
 10
971.68273557557757
 20
775.41031608886431
 40
12.5
 50
306.85112007309164
 51
143.14070401012805
  0
ARC
  8
_0-1_計細線
  6
DASHED2
 62
    3
 10
971.68273557557757
 20
775.41031608886431
 40
12.5
 50
143.14070401012839
 51
306.85112205553207
  0
LINE
  8
_0-1_計細線
  6
CONTINUOUS
 62
    3
 10
402.18273557557723
 20
739.41031608886442
 11
399.18273557557836
 21
739.41031608886487
  0
ARC
  8
_0-1_計細線
  6
CONTINUOUS
 62
    3
 10
399.18273557557836
 20
737.41031608886487
 40
2
 50
89.999999999999915
 51
180.00000000001268
  0
LINE
  8
_0-1_計細線
  6
CONTINUOUS
 62
    3
 10
397.18273557557836
 20
737.41031608886442
 11
397.18273557557836
 21
701.41031608886453
  0
LINE
  8
_0-1_計細線
  6
CONTINUOUS
 62
    3
 10
399.18273557557836
 20
699.41031608886487
 11
402.18273557557723
 21
699.41031608886442
  0
ARC
  8
_0-1_計細線
  6
CONTINUOUS
 62
    3
 10
399.18273557557836
 20
701.41031608886487
 40
2
 50
180.00000000001268
 51
269.99999999999977
  0
LINE
  8
_0-1_計細線
  6
CONTINUOUS
 62
    3
 10
399.18273557557836
 20
704.41031608886442
 11
402.18273557557723
 21
704.41031608886442
  0
LINE
  8
_0-1_計細線
  6
CONTINUOUS
 62
    3
 10
399.18273557557836
 20
734.41031608886442
 11
399.18273557557836
 21
704.41031608886442
  0
LINE
  8
_0-1_計細線
  6
CONTINUOUS
 62
    3
 10
402.18273557557723
 20
734.41031608886442
 11
399.18273557557836
 21
734.41031608886442
  0
LINE
  8
_0-1_計細線
  6
DASHED2
 62
    3
 10
402.18273557557723
 20
739.41031608886442
 11
409.68273557557836
 21
739.41031608886442
  0
LINE
  8
_0-1_計細線
  6
DASHED2
 62
    3
 10
409.68273557557836
 20
699.41031608886442
 11
402.18273557557723
 21
699.41031608886442
  0
LINE
  8
_0-1_計細線
  6
DASHED2
 62
    3
 10
409.68273557557836
 20
739.41031608886442
 11
409.68273557557836
 21
699.41031608886442
  0
LINE
  8
_0-5_寸法線
  6
CONTINUOUS
 62
    7
 10
398.48747105335269
 20
739.28557800234091
 11
391.71059043216974
 21
746.63907302486132
  0
LINE
  8
_0-5_寸法線
  6
CONTINUOUS
 62
    7
 10
398.48747105335269
 20
739.28557800234091
 11
396.29526778825408
 21
749.04233180903748
  0
LINE
  8
_0-5_寸法線
  6
CONTINUOUS
 62
    7
 10
398.48747105335269
 20
739.28557800234091
 11
343.31048230948164
 21
844.54627341166315
  0
LINE
  8
_0-5_寸法線
  6
CONTINUOUS
 62
    7
 10
343.31048230948164
 20
844.54627341166315
 11
295.31048230948159
 21
844.54627341166338
  0
TEXT
  8
_0-5_寸法線
 62
    7
 10
295.31048230948159
 20
844.54627341166315
 40
15
 41
0.8000000000000001
 50
0
  1
取っ手部
  0
LINE
  8
_0-5_寸法線
  6
CONTINUOUS
 62
    7
 10
383.68273557557768
 20
791.41031608886419
 11
338.68273557557768
 21
791.41031608886419
  0
LINE
  8
_0-5_寸法線
  6
CONTINUOUS
 62
    7
 10
343.68273557557768
 20
791.41031608886419
 11
341.0945451245525
 21
801.06957435175502
  0
LINE
  8
_0-5_寸法線
  6
CONTINUOUS
 62
    7
 10
343.68273557557768
 20
791.41031608886419
 11
346.27092602660292
 21
801.06957435175502
  0
LINE
  8
_0-5_寸法線
  6
CONTINUOUS
 62
    7
 10
383.68273557557768
 20
788.91031608886419
 11
338.68273557557768
 21
788.91031608886419
  0
LINE
  8
_0-5_寸法線
  6
CONTINUOUS
 62
    7
 10
343.68273557557768
 20
829.05872767843209
 11
343.68273557557768
 21
788.91031608886419
  0
TEXT
  8
_0-5_寸法線
 62
    7
 10
343.68273557557768
 20
803.13332989429557
 40
15
 41
1
 50
89.999999999999815
  1
2.5
  0
LINE
  8
_0-5_寸法線
  6
CONTINUOUS
 62
    7
 10
343.68273557557768
 20
788.91031608886419
 11
346.27092602660292
 21
779.25105782597359
  0
LINE
  8
_0-5_寸法線
  6
CONTINUOUS
 62
    7
 10
343.68273557557768
 20
788.91031608886419
 11
341.09454512455244
 21
779.25105782597359
  0
LINE
  8
_0-5_寸法線
  6
CONTINUOUS
 62
    7
 10
383.68273557557768
 20
649.91031608886419
 11
338.68273557557768
 21
649.91031608886419
  0
LINE
  8
_0-5_寸法線
  6
CONTINUOUS
 62
    7
 10
343.68273557557768
 20
649.91031608886419
 11
341.09454512455244
 21
659.56957435175491
  0
LINE
  8
_0-5_寸法線
  6
CONTINUOUS
 62
    7
 10
343.68273557557768
 20
649.91031608886419
 11
346.27092602660292
 21
659.56957435175491
  0
LINE
  8
_0-5_寸法線
  6
CONTINUOUS
 62
    7
 10
343.68273557557768
 20
788.91031608886419
 11
343.68273557557768
 21
649.91031608886419
  0
TEXT
  8
_0-5_寸法線
 62
    7
 10
343.68273557557768
 20
708.16031608886419
 40
15
 41
1
 50
90
  1
139
  0
LINE
  8
_0-5_寸法線
  6
CONTINUOUS
 62
    7
 10
383.68273557557768
 20
647.41031608886419
 11
338.68273557557768
 21
647.41031608886419
  0
LINE
  8
_0-5_寸法線
  6
CONTINUOUS
 62
    7
 10
343.68273557557768
 20
647.41031608886419
 11
346.27092602660292
 21
637.75105782597348
  0
LINE
  8
_0-5_寸法線
  6
CONTINUOUS
 62
    7
 10
343.68273557557768
 20
647.41031608886419
 11
341.09454512455244
 21
637.75105782597348
  0
LINE
  8
_0-5_寸法線
  6
CONTINUOUS
 62
    7
 10
343.68273557557768
 20
649.91031608886419
 11
343.68273557557768
 21
609.76190449929641
  0
TEXT
  8
_0-5_寸法線
 62
    7
 10
343.68273557557762
 20
614.03692603932564
 40
15
 41
1
 50
89.999999999999815
  1
2.5
  0
LINE
  8
_0-5_寸法線
  6
CONTINUOUS
 62
    7
 10
383.68273557557768
 20
791.41031608886419
 11
303.68273557557768
 21
791.41031608886419
  0
LINE
  8
_0-5_寸法線
  6
CONTINUOUS
 62
    7
 10
308.68273557557768
 20
791.41031608886419
 11
311.27092602660298
 21
781.75105782597359
  0
LINE
  8
_0-5_寸法線
  6
CONTINUOUS
 62
    7
 10
308.68273557557768
 20
791.41031608886419
 11
306.0945451245525
 21
781.75105782597359
  0
LINE
  8
_0-5_寸法線
  6
CONTINUOUS
 62
    7
 10
383.68273557557768
 20
647.41031608886419
 11
303.68273557557768
 21
647.41031608886419
  0
LINE
  8
_0-5_寸法線
  6
CONTINUOUS
 62
    7
 10
308.68273557557768
 20
647.41031608886419
 11
306.0945451245525
 21
657.06957435175491
  0
LINE
  8
_0-5_寸法線
  6
CONTINUOUS
 62
    7
 10
308.68273557557768
 20
647.41031608886419
 11
311.27092602660298
 21
657.06957435175491
  0
LINE
  8
_0-5_寸法線
  6
CONTINUOUS
 62
    7
 10
308.68273557557768
 20
791.41031608886419
 11
308.68273557557768
 21
647.41031608886419
  0
TEXT
  8
_0-5_寸法線
 62
    7
 10
308.68273557557768
 20
708.16031608886419
 40
15
 41
1
 50
90
  1
144
  0
LINE
  8
_0-5_寸法線
  6
CONTINUOUS
 62
    7
 10
393.68273557557768
 20
801.41031608886419
 11
393.68273557557768
 21
916.41031608886419
  0
LINE
  8
_0-5_寸法線
  6
CONTINUOUS
 62
    7
 10
393.68273557557768
 20
911.41031608886419
 11
403.3419938384684
 21
913.99850653988949
  0
LINE
  8
_0-5_寸法線
  6
CONTINUOUS
 62
    7
 10
393.68273557557768
 20
911.41031608886419
 11
403.3419938384684
 21
908.82212563783912
  0
LINE
  8
_0-5_寸法線
  6
CONTINUOUS
 62
    7
 10
987.68273557557779
 20
801.41031608886419
 11
987.68273557557779
 21
916.41031608886419
  0
LINE
  8
_0-5_寸法線
  6
CONTINUOUS
 62
    7
 10
987.68273557557779
 20
911.41031608886419
 11
978.02347731268696
 21
908.82212563783912
  0
LINE
  8
_0-5_寸法線
  6
CONTINUOUS
 62
    7
 10
987.68273557557779
 20
911.41031608886419
 11
978.02347731268696
 21
913.99850653988949
  0
LINE
  8
_0-5_寸法線
  6
CONTINUOUS
 62
    7
 10
393.68273557557768
 20
911.41031608886419
 11
987.68273557557779
 21
911.41031608886419
  0
TEXT
  8
_0-5_寸法線
 62
    7
 10
679.43273557557768
 20
911.41031608886419
 40
15
 41
1
 50
0
  1
594
  0
LINE
  8
_0-5_寸法線
  6
CONTINUOUS
 62
    7
 10
393.68273557557768
 20
637.41031608886419
 11
393.68273557557768
 21
592.41031608886419
  0
LINE
  8
_0-5_寸法線
  6
CONTINUOUS
 62
    7
 10
393.68273557557768
 20
597.41031608886419
 11
403.3419938384684
 21
599.99850653988938
  0
LINE
  8
_0-5_寸法線
  6
CONTINUOUS
 62
    7
 10
393.68273557557768
 20
597.41031608886419
 11
403.3419938384684
 21
594.82212563783901
  0
LINE
  8
_0-5_寸法線
  6
CONTINUOUS
 62
    7
 10
690.68273557557768
 20
637.41031608886419
 11
690.68273557557768
 21
592.41031608886419
  0
LINE
  8
_0-5_寸法線
  6
CONTINUOUS
 62
    7
 10
690.68273557557768
 20
597.41031608886419
 11
681.02347731268696
 21
594.82212563783901
  0
LINE
  8
_0-5_寸法線
  6
CONTINUOUS
 62
    7
 10
690.68273557557768
 20
597.41031608886419
 11
681.02347731268696
 21
599.99850653988938
  0
LINE
  8
_0-5_寸法線
  6
CONTINUOUS
 62
    7
 10
393.68273557557768
 20
597.41031608886419
 11
690.68273557557768
 21
597.41031608886419
  0
TEXT
  8
_0-5_寸法線
 62
    7
 10
530.93273557557768
 20
597.41031608886419
 40
15
 41
1
 50
0
  1
297
  0
LINE
  8
_0-5_寸法線
  6
CONTINUOUS
 62
    7
 10
690.68273557557768
 20
597.41031608886419
 11
700.3419938384684
 21
599.99850653988938
  0
LINE
  8
_0-5_寸法線
  6
CONTINUOUS
 62
    7
 10
690.68273557557768
 20
597.41031608886419
 11
700.3419938384684
 21
594.82212563783889
  0
LINE
  8
_0-5_寸法線
  6
CONTINUOUS
 62
    7
 10
987.68273557557779
 20
637.41031608886419
 11
987.68273557557779
 21
592.41031608886419
  0
LINE
  8
_0-5_寸法線
  6
CONTINUOUS
 62
    7
 10
987.68273557557779
 20
597.41031608886419
 11
978.02347731268696
 21
594.82212563783901
  0
LINE
  8
_0-5_寸法線
  6
CONTINUOUS
 62
    7
 10
987.68273557557779
 20
597.41031608886419
 11
978.02347731268696
 21
599.99850653988938
  0
LINE
  8
_0-5_寸法線
  6
CONTINUOUS
 62
    7
 10
690.68273557557768
 20
597.41031608886419
 11
987.68273557557779
 21
597.41031608886419
  0
TEXT
  8
_0-5_寸法線
 62
    7
 10
827.93273557557768
 20
597.41031608886419
 40
15
 41
1
 50
0
  1
297
  0
LINE
  8
_0-5_寸法線
  6
CONTINUOUS
 62
    7
 10
524.11034846458756
 20
648.68244760559742
 11
529.11034848195982
 21
640.0221935777829
  0
LINE
  8
_0-5_寸法線
  6
CONTINUOUS
 62
    7
 10
524.11034846458756
 20
648.68244760559742
 11
524.11034848464737
 21
638.68244760559742
  0
LINE
  8
_0-5_寸法線
  6
CONTINUOUS
 62
    7
 10
524.11034846458756
 20
648.68244760559742
 11
531.360009610112
 21
621.62634408993836
  0
LINE
  8
_0-5_寸法線
  6
CONTINUOUS
 62
    7
 10
531.360009610112
 20
621.62634408993836
 11
603.360009610112
 21
621.62634408993836
  0
TEXT
  8
_0-5_寸法線
 62
    7
 10
531.360009610112
 20
621.62634408993836
 40
15
 41
0.8000000000000001
 50
0
  1
排水ユニット
  0
LINE
  8
_0-5_寸法線
  6
CONTINUOUS
 62
    7
 10
441.84726405296652
 20
691.28147285507862
 11
446.80814662987916
 21
682.59875184965153
  0
LINE
  8
_0-5_寸法線
  6
CONTINUOUS
 62
    7
 10
441.84726405296652
 20
691.28147285507862
 11
441.80215388705096
 21
681.28157460194973
  0
LINE
  8
_0-5_寸法線
  6
CONTINUOUS
 62
    7
 10
441.84726405296652
 20
691.28147285507862
 11
460.17492761712725
 21
621.62634408993836
  0
LINE
  8
_0-5_寸法線
  6
CONTINUOUS
 62
    7
 10
460.17492761712725
 20
621.62634408993836
 11
496.17492761712725
 21
621.62634408993836
  0
TEXT
  8
_0-5_寸法線
 62
    7
 10
460.17492761712725
 20
621.62634408993836
 40
15
 41
0.8000000000000001
 50
0
  1
上フタ
  0
LINE
  8
_0-1_計細線
  6
CONTINUOUS
 62
    3
 10
404.18273557557723
 20
780.91031608886419
 11
404.18273557557723
 21
657.91031608886431
  0
LINE
  8
_0-1_計細線
  6
CONTINUOUS
 62
    3
 10
404.18273557557723
 20
657.91031608886431
 11
624.38836087579375
 21
657.91031608886431
  0
LINE
  8
_0-1_計細線
  6
CONTINUOUS
 62
    3
 10
619.57493567461529
 20
780.91031608886419
 11
404.18273557557723
 21
780.91031608886419
  0
ARC
  8
_0-1_計細線
  6
CONTINUOUS
 62
    3
 10
404.18273557557723
 20
780.91031608886385
 40
2
 50
89.999999999999915
 51
179.99999999999983
  0
LINE
  8
_0-1_計細線
  6
CONTINUOUS
 62
    3
 10
402.18273557557723
 20
657.91031608886431
 11
402.18273557557723
 21
780.91031608886385
  0
ARC
  8
_0-1_計細線
  6
CONTINUOUS
 62
    3
 10
404.18273557557723
 20
657.91031608886374
 40
2
 50
179.99999999998698
 51
269.99999999999977
  0
LINE
  8
_0-1_計細線
  6
CONTINUOUS
 62
    3
 10
404.18273557557723
 20
782.91031608886385
 11
618.00700024684249
 21
782.91031608886385
  0
LINE
  8
_0-1_計細線
  6
CONTINUOUS
 62
    3
 10
625.95629630356598
 20
655.91031608886533
 11
404.18273557557723
 21
655.91031608886385
  0
ARC
  8
_0-1_計細線
  6
CONTINUOUS
 62
    3
 10
977.18273557557825
 20
780.91031608886385
 40
2
 50
0
 51
89.999999999999915
  0
LINE
  8
_0-1_計細線
  6
CONTINUOUS
 62
    3
 10
979.18273557557825
 20
657.91031608886465
 11
979.18273557557825
 21
780.91031608886385
  0
LINE
  8
_0-1_計細線
  6
CONTINUOUS
 62
    3
 10
763.89934350497856
 20
655.91031608886465
 11
977.18311645105075
 21
655.91031608886385
  0
LINE
  8
_0-1_計細線
  6
CONTINUOUS
 62
    3
 10
977.18273557557825
 20
782.91031608886385
 11
755.95004744825519
 21
782.91031608886385
  0
LINE
  8
_0-1_計細線
  6
CONTINUOUS
 62
    3
 10
977.18273557557825
 20
780.91031608886419
 11
977.18273557557825
 21
657.91031608886431
  0
LINE
  8
_0-1_計細線
  6
CONTINUOUS
 62
    3
 10
757.51798287602719
 20
780.91031608886419
 11
977.18273557557825
 21
780.91031608886419
  0
LINE
  8
_0-1_計細線
  6
CONTINUOUS
 62
    3
 10
977.18273557557825
 20
657.91031608886431
 11
762.33140807720588
 21
657.91031608886431
  0
LINE
  8
_0-0_計極細
  6
CENTER1
 62
    2
 10
690.68273557557768
 20
801.41031608886419
 11
690.68273557557768
 21
324.91029936886031
  0
LINE
  8
_0-0_計極細
  6
CENTER2
 62
    2
 10
952.68273557557779
 20
493.91031608886379
 11
952.68273557557779
 21
444.78424138380512
  0
LINE
  8
_0-1_計細線
  6
DASHED2
 62
    3
 10
959.68273542249619
 20
486.91031608886425
 11
959.18273557557768
 21
487.41031593578271
  0
LINE
  8
_0-1_計細線
  6
DASHED2
 62
    3
 10
960.68273542249699
 20
485.91031608886385
 11
959.68273542249619
 21
486.91031608886425
  0
LINE
  8
_0-1_計細線
  6
DASHED2
 62
    3
 10
960.68273542249699
 20
481.91031685426958
 11
960.68273542249699
 21
485.91031608886385
  0
LINE
  8
_0-1_計細線
  6
DASHED2
 62
    3
 10
960.68273542249699
 20
475.91031608886385
 11
960.68273542249699
 21
481.91031685426958
  0
LINE
  8
_0-1_計細線
  6
DASHED2
 62
    3
 10
959.18273557557768
 20
487.41031593578271
 11
958.6827354224971
 21
487.91031608886385
  0
ARC
  8
_0-1_計細線
  6
DASHED2
 62
    3
 10
957.68273542249699
 20
455.91031608886385
 40
3.0000000000000004
 50
269.99999999999977
 51
359.99999999999966
  0
LINE
  8
_0-1_計細線
  6
DASHED2
 62
    3
 10
960.68273542249699
 20
469.91031608886379
 11
960.68273542249699
 21
455.91031608886385
  0
LINE
  8
_0-1_計細線
  6
DASHED2
 62
    3
 10
947.68273572865837
 20
452.91031608886385
 11
957.68273542249699
 21
452.91031608886385
  0
ARC
  8
_0-1_計細線
  6
DASHED2
 62
    3
 10
947.68273572865837
 20
455.91031608886385
 40
3.0000000000000004
 50
179.99999999999983
 51
269.99999999999977
  0
LINE
  8
_0-1_計細線
  6
DASHED2
 62
    3
 10
944.68273572865837
 20
469.91031608886379
 11
944.68273572865837
 21
455.91031608886385
  0
LINE
  8
_0-1_計細線
  6
DASHED2
 62
    3
 10
960.68273542249699
 20
475.91031608886385
 11
958.6827354224971
 21
473.91031608886379
  0
LINE
  8
_0-1_計細線
  6
DASHED2
 62
    3
 10
958.6827354224971
 20
473.91031608886379
 11
958.6827354224971
 21
471.91031608886385
  0
LINE
  8
_0-1_計細線
  6
DASHED2
 62
    3
 10
958.6827354224971
 20
471.91031608886385
 11
960.68273542249699
 21
469.91031608886379
  0
LINE
  8
_0-1_計細線
  6
DASHED2
 62
    3
 10
944.68273572865837
 20
475.91031608886385
 11
946.68273572865837
 21
473.91031608886379
  0
LINE
  8
_0-1_計細線
  6
DASHED2
 62
    3
 10
946.68273572865837
 20
473.91031608886379
 11
946.68273572865837
 21
471.91031608886385
  0
LINE
  8
_0-1_計細線
  6
DASHED2
 62
    3
 10
946.68273572865837
 20
471.91031608886385
 11
944.68273572865837
 21
469.91031608886379
  0
LINE
  8
_0-1_計細線
  6
DASHED2
 62
    3
 10
958.6827354224971
 20
487.91031608886385
 11
946.68273572865837
 21
487.91031608886385
  0
LINE
  8
_0-1_計細線
  6
DASHED2
 62
    3
 10
944.68273572865837
 20
475.91031608886385
 11
944.68273572865837
 21
485.91031608886385
  0
LINE
  8
_0-1_計細線
  6
DASHED2
 62
    3
 10
946.68273572865837
 20
487.91031608886385
 11
944.68273572865837
 21
485.91031608886385
  0
LINE
  8
_0-5_寸法線
  6
CONTINUOUS
 62
    7
 10
393.68273557557768
 20
522.41031608886419
 11
393.68273557557768
 21
567.41031608886419
  0
LINE
  8
_0-5_寸法線
  6
CONTINUOUS
 62
    7
 10
393.68273557557768
 20
562.41031608886419
 11
403.3419938384684
 21
564.99850653988938
  0
LINE
  8
_0-5_寸法線
  6
CONTINUOUS
 62
    7
 10
393.68273557557768
 20
562.41031608886419
 11
403.3419938384684
 21
559.82212563783901
  0
LINE
  8
_0-5_寸法線
  6
CONTINUOUS
 62
    7
 10
428.68273557557768
 20
522.41031608886419
 11
428.68273557557768
 21
567.41031608886419
  0
LINE
  8
_0-5_寸法線
  6
CONTINUOUS
 62
    7
 10
428.68273557557768
 20
562.41031608886419
 11
419.02347731268696
 21
559.82212563783901
  0
LINE
  8
_0-5_寸法線
  6
CONTINUOUS
 62
    7
 10
428.68273557557768
 20
562.41031608886419
 11
419.02347731268708
 21
564.99850653988938
  0
LINE
  8
_0-5_寸法線
  6
CONTINUOUS
 62
    7
 10
393.68273557557768
 20
562.41031608886419
 11
428.68273557557768
 21
562.41031608886419
  0
TEXT
  8
_0-5_寸法線
 62
    7
 10
403.68273557557768
 20
562.41031608886396
 40
15
 41
1
 50
0
  1
35
  0
LINE
  8
_0-5_寸法線
  6
CONTINUOUS
 62
    7
 10
428.68273557557768
 20
562.41031608886419
 11
438.34199383846845
 21
564.99850653988938
  0
LINE
  8
_0-5_寸法線
  6
CONTINUOUS
 62
    7
 10
428.68273557557768
 20
562.41031608886419
 11
438.3419938384684
 21
559.82212563783889
  0
LINE
  8
_0-5_寸法線
  6
CONTINUOUS
 62
    7
 10
952.68273557557779
 20
522.41031608886419
 11
952.68273557557779
 21
567.41031608886419
  0
LINE
  8
_0-5_寸法線
  6
CONTINUOUS
 62
    7
 10
952.68273557557779
 20
562.41031608886419
 11
943.02347731268696
 21
559.82212563783901
  0
LINE
  8
_0-5_寸法線
  6
CONTINUOUS
 62
    7
 10
952.68273557557779
 20
562.41031608886419
 11
943.02347731268696
 21
564.99850653988938
  0
LINE
  8
_0-5_寸法線
  6
CONTINUOUS
 62
    7
 10
428.68273557557768
 20
562.41031608886419
 11
952.68273557557779
 21
562.41031608886419
  0
TEXT
  8
_0-5_寸法線
 62
    7
 10
679.43273557557768
 20
562.41031608886396
 40
15
 41
1
 50
0
  1
524
  0
LINE
  8
_0-5_寸法線
  6
CONTINUOUS
 62
    7
 10
952.68273557557779
 20
562.41031608886419
 11
962.3419938384684
 21
564.99850653988938
  0
LINE
  8
_0-5_寸法線
  6
CONTINUOUS
 62
    7
 10
952.68273557557779
 20
562.41031608886419
 11
962.3419938384684
 21
559.82212563783889
  0
LINE
  8
_0-5_寸法線
  6
CONTINUOUS
 62
    7
 10
987.68273557557779
 20
522.41031608886396
 11
987.68273557557779
 21
567.41031608886419
  0
LINE
  8
_0-5_寸法線
  6
CONTINUOUS
 62
    7
 10
987.68273557557779
 20
562.41031608886419
 11
978.02347731268696
 21
559.82212563783901
  0
LINE
  8
_0-5_寸法線
  6
CONTINUOUS
 62
    7
 10
987.68273557557779
 20
562.41031608886419
 11
978.02347731268696
 21
564.99850653988938
  0
LINE
  8
_0-5_寸法線
  6
CONTINUOUS
 62
    7
 10
952.68273557557779
 20
562.41031608886419
 11
987.68273557557779
 21
562.41031608886419
  0
TEXT
  8
_0-5_寸法線
 62
    7
 10
962.68273557557779
 20
562.41031608886396
 40
15
 41
1
 50
0
  1
35
  0
LINE
  8
_0-5_寸法線
  6
CONTINUOUS
 62
    7
 10
428.68273557557768
 20
452.91031608886431
 11
433.68273557557757
 21
444.25006205101977
  0
LINE
  8
_0-5_寸法線
  6
CONTINUOUS
 62
    7
 10
428.68273557557768
 20
452.91031608886431
 11
428.68273557557757
 21
442.91031608886431
  0
LINE
  8
_0-5_寸法線
  6
CONTINUOUS
 62
    7
 10
428.68273557557768
 20
452.91031608886431
 11
436.44266409485579
 21
423.94986859181415
  0
LINE
  8
_0-5_寸法線
  6
CONTINUOUS
 62
    7
 10
436.44266409485579
 20
423.94986859181415
 11
484.44266409485584
 21
423.94986859181415
  0
TEXT
  8
_0-5_寸法線
 62
    7
 10
436.44266409485579
 20
423.94986859181415
 40
15
 41
0.8000000000000001
 50
0
  1
アンカー
  0
LINE
  8
_0-1_計細線
  6
CONTINUOUS
 62
    3
 10
959.18273557557768
 20
494.91031608886431
 11
984.18273557557768
 21
494.91031608886431
  0
LINE
  8
_0-1_計細線
  6
CONTINUOUS
 62
    3
 10
959.18273557557768
 20
486.91031608886425
 11
959.18273557557768
 21
494.91031608886431
  0
LINE
  8
_0-1_計細線
  6
CONTINUOUS
 62
    3
 10
984.18273557557768
 20
494.91031608886431
 11
984.18273557557768
 21
486.91031608886425
  0
LINE
  8
_0-1_計細線
  6
CONTINUOUS
 62
    3
 10
959.18273557557768
 20
486.91031608886425
 11
984.18273557557768
 21
486.91031608886425
  0
LINE
  8
_0-1_計細線
  6
CONTINUOUS
 62
    3
 10
961.36118202963291
 20
478.51808381858774
 11
959.68273557557779
 21
486.91031608886425
  0
ARC
  8
_0-1_計細線
  6
CONTINUOUS
 62
    3
 10
963.32234338101546
 20
478.91031608886431
 40
2
 50
191.30993247401983
 51
269.99999999999977
  0
LINE
  8
_0-1_計細線
  6
CONTINUOUS
 62
    3
 10
983.68273557557768
 20
486.91031608886425
 11
982.00428912152256
 21
478.51808381858774
  0
LINE
  8
_0-1_計細線
  6
CONTINUOUS
 62
    3
 10
980.04312777014093
 20
476.91031608886425
 11
963.32234338101546
 21
476.91031608886425
  0
ARC
  8
_0-1_計細線
  6
CONTINUOUS
 62
    3
 10
980.04312777014093
 20
478.91031608886431
 40
2
 50
269.99999999999977
 51
348.69006752597431
  0
LINE
  8
_0-1_計細線
  6
CONTINUOUS
 62
    3
 10
766.6794582142461
 20
494.91031608886431
 11
791.6794582142461
 21
494.91031608886431
  0
LINE
  8
_0-1_計細線
  6
CONTINUOUS
 62
    3
 10
766.6794582142461
 20
486.91031608886425
 11
766.6794582142461
 21
494.91031608886431
  0
LINE
  8
_0-1_計細線
  6
CONTINUOUS
 62
    3
 10
791.6794582142461
 20
494.91031608886431
 11
791.6794582142461
 21
486.91031608886425
  0
LINE
  8
_0-1_計細線
  6
CONTINUOUS
 62
    3
 10
766.6794582142461
 20
486.91031608886425
 11
791.6794582142461
 21
486.91031608886425
  0
LINE
  8
_0-1_計細線
  6
CONTINUOUS
 62
    3
 10
768.85790466830133
 20
478.51808381858774
 11
767.1794582142461
 21
486.91031608886425
  0
ARC
  8
_0-1_計細線
  6
CONTINUOUS
 62
    3
 10
770.81906601968387
 20
478.91031608886431
 40
2
 50
191.30993247401983
 51
269.99999999999977
  0
LINE
  8
_0-1_計細線
  6
CONTINUOUS
 62
    3
 10
791.1794582142461
 20
486.91031608886425
 11
789.50101176019098
 21
478.51808381858774
  0
LINE
  8
_0-1_計細線
  6
CONTINUOUS
 62
    3
 10
787.53985040880934
 20
476.91031608886425
 11
770.81906601968387
 21
476.91031608886425
  0
ARC
  8
_0-1_計細線
  6
CONTINUOUS
 62
    3
 10
787.53985040880934
 20
478.91031608886431
 40
2
 50
269.99999999999977
 51
348.69006752597431
  0
LINE
  8
_0-1_計細線
  6
CONTINUOUS
 62
    3
 10
422.18273557557774
 20
494.91031608886431
 11
397.18273557557774
 21
494.91031608886431
  0
LINE
  8
_0-1_計細線
  6
CONTINUOUS
 62
    3
 10
422.18273557557774
 20
486.91031608886425
 11
422.18273557557774
 21
494.91031608886431
  0
LINE
  8
_0-1_計細線
  6
CONTINUOUS
 62
    3
 10
397.18273557557774
 20
494.91031608886431
 11
397.18273557557774
 21
486.91031608886425
  0
LINE
  8
_0-1_計細線
  6
CONTINUOUS
 62
    3
 10
422.18273557557774
 20
486.91031608886425
 11
397.18273557557774
 21
486.91031608886425
  0
LINE
  8
_0-1_計細線
  6
CONTINUOUS
 62
    3
 10
420.00428912152256
 20
478.51808381858774
 11
421.68273557557768
 21
486.91031608886425
  0
ARC
  8
_0-1_計細線
  6
CONTINUOUS
 62
    3
 10
418.04312777014002
 20
478.91031608886431
 40
2
 50
269.99999999999977
 51
348.69006752597943
  0
LINE
  8
_0-1_計細線
  6
CONTINUOUS
 62
    3
 10
397.68273557557768
 20
486.91031608886425
 11
399.36118202963286
 21
478.51808381858774
  0
LINE
  8
_0-1_計細線
  6
CONTINUOUS
 62
    3
 10
401.32234338101449
 20
476.91031608886425
 11
418.04312777014002
 21
476.91031608886425
  0
ARC
  8
_0-1_計細線
  6
CONTINUOUS
 62
    3
 10
401.32234338101449
 20
478.91031608886431
 40
2
 50
191.30993247402495
 51
269.99999999999977
  0
LINE
  8
_0-1_計細線
  6
CONTINUOUS
 62
    3
 10
614.68601293690926
 20
494.91031608886431
 11
589.68601293690926
 21
494.91031608886431
  0
LINE
  8
_0-1_計細線
  6
CONTINUOUS
 62
    3
 10
614.68601293690926
 20
486.91031608886425
 11
614.68601293690926
 21
494.91031608886431
  0
LINE
  8
_0-1_計細線
  6
CONTINUOUS
 62
    3
 10
589.68601293690926
 20
494.91031608886431
 11
589.68601293690926
 21
486.91031608886425
  0
LINE
  8
_0-1_計細線
  6
CONTINUOUS
 62
    3
 10
614.68601293690926
 20
486.91031608886425
 11
589.68601293690926
 21
486.91031608886425
  0
LINE
  8
_0-1_計細線
  6
CONTINUOUS
 62
    3
 10
612.50756648285414
 20
478.51808381858774
 11
614.18601293690926
 21
486.91031608886425
  0
ARC
  8
_0-1_計細線
  6
CONTINUOUS
 62
    3
 10
610.5464051314716
 20
478.91031608886431
 40
2
 50
269.99999999999977
 51
348.69006752597943
  0
LINE
  8
_0-1_計細線
  6
CONTINUOUS
 62
    3
 10
590.18601293690926
 20
486.91031608886425
 11
591.86445939096438
 21
478.51808381858774
  0
LINE
  8
_0-1_計細線
  6
CONTINUOUS
 62
    3
 10
593.82562074234602
 20
476.91031608886425
 11
610.5464051314716
 21
476.91031608886425
  0
ARC
  8
_0-1_計細線
  6
CONTINUOUS
 62
    3
 10
593.82562074234602
 20
478.91031608886431
 40
2
 50
191.30993247402495
 51
269.99999999999977
  0
LINE
  8
_0-1_計細線
  6
CONTINUOUS
 62
    3
 10
979.1827355755795
 20
494.91031608886431
 11
979.1827355755795
 21
511.91031608886425
  0
LINE
  8
_0-1_計細線
  6
CONTINUOUS
 62
    3
 10
977.1827355755795
 20
496.91031608886425
 11
977.1827355755795
 21
511.91031608886425
  0
LINE
  8
_0-1_計細線
  6
CONTINUOUS
 62
    3
 10
979.1827355755795
 20
494.91031608886431
 11
402.18273557557586
 21
494.91031608886431
  0
LINE
  8
_0-1_計細線
  6
CONTINUOUS
 62
    3
 10
977.1827355755795
 20
496.91031608886425
 11
404.18273557557592
 21
496.91031608886425
  0
LINE
  8
_0-1_計細線
  6
CONTINUOUS
 62
    3
 10
404.18273557557592
 20
496.91031608886425
 11
404.18273557557592
 21
511.91031608886425
  0
LINE
  8
_0-1_計細線
  6
CONTINUOUS
 62
    3
 10
402.18273557557586
 20
494.91031608886431
 11
402.18273557557586
 21
511.91031608886425
  0
LINE
  8
_0-1_計細線
  6
CONTINUOUS
 62
    3
 10
979.1827355755795
 20
511.91031608886425
 11
402.18273557557586
 21
511.91031608886425
  0
ARC
  8
_0-1_計細線
  6
CONTINUOUS
 62
    3
 10
750.18260941555229
 20
475.41031608886431
 40
1.5000000000000002
 50
89.999999999999915
 51
179.99999999999983
  0
LINE
  8
_0-1_計細線
  6
CONTINUOUS
 62
    3
 10
985.18273557557779
 20
476.91031608886425
 11
750.18260941555229
 21
476.91031608886425
  0
LINE
  8
_0-1_計細線
  6
CONTINUOUS
 62
    3
 10
986.18273557557768
 20
475.91031608886425
 11
750.18260941555229
 21
475.91031608886425
  0
LINE
  8
_0-1_計細線
  6
CONTINUOUS
 62
    3
 10
749.68260941555218
 20
474.41033280886802
 11
749.68260941555218
 21
475.41031608886431
  0
ARC
  8
_0-1_計細線
  6
CONTINUOUS
 62
    3
 10
750.18260941555229
 20
475.41031608886431
 40
0.5
 50
89.999999999999915
 51
179.99999999999983
  0
LINE
  8
_0-1_計細線
  6
CONTINUOUS
 62
    3
 10
749.68260941555218
 20
474.41033280886802
 11
749.68260941555218
 21
473.41031608886385
  0
ARC
  8
_0-1_計細線
  6
CONTINUOUS
 62
    3
 10
748.18260941555218
 20
473.41031608886385
 40
1.5000000000000002
 50
269.99999999999977
 51
359.99999999999966
  0
LINE
  8
_0-1_計細線
  6
CONTINUOUS
 62
    3
 10
748.68260941555036
 20
474.91029936886008
 11
748.68260941555036
 21
473.41031608886385
  0
ARC
  8
_0-1_計細線
  6
CONTINUOUS
 62
    3
 10
748.18260941555036
 20
473.41031608886385
 40
0.5
 50
269.99999999999977
 51
359.99999999999966
  0
LINE
  8
_0-1_計細線
  6
CONTINUOUS
 62
    3
 10
748.68260941555218
 20
475.41031608886431
 11
748.68260941555218
 21
474.91029936886008
  0
LINE
  8
_0-1_計細線
  6
CONTINUOUS
 62
    3
 10
748.08417943257029
 20
472.91031608886385
 11
748.18260941555218
 21
472.91031608886385
  0
LINE
  8
_0-1_計細線
  6
CONTINUOUS
 62
    3
 10
748.18260941555218
 20
471.91031608886385
 11
748.08417943257029
 21
471.91031608886385
  0
LINE
  8
_0-1_計細線
  6
CONTINUOUS
 62
    3
 10
748.08417943257029
 20
471.91031608886385
 11
747.58273557557732
 21
471.91031608886385
  0
LINE
  8
_0-1_計細線
  6
CONTINUOUS
 62
    3
 10
748.18260941555036
 20
472.91031608886385
 11
747.58273557557732
 21
472.91031608886385
  0
ARC
  8
_0-1_計細線
  6
CONTINUOUS
 62
    3
 10
631.18286173560318
 20
475.41031608886431
 40
1.5000000000000002
 50
0
 51
89.999999999999915
  0
LINE
  8
_0-1_計細線
  6
CONTINUOUS
 62
    3
 10
631.68286173560318
 20
474.41033280886802
 11
631.68286173560318
 21
475.41031608886431
  0
ARC
  8
_0-1_計細線
  6
CONTINUOUS
 62
    3
 10
631.18286173560318
 20
475.41031608886431
 40
0.5
 50
0
 51
89.999999999999915
  0
LINE
  8
_0-1_計細線
  6
CONTINUOUS
 62
    3
 10
631.68286173560318
 20
474.41033280886802
 11
631.68286173560318
 21
473.41031608886385
  0
ARC
  8
_0-1_計細線
  6
CONTINUOUS
 62
    3
 10
633.18286173560318
 20
473.41031608886385
 40
1.5000000000000002
 50
179.99999999999983
 51
269.99999999999977
  0
LINE
  8
_0-1_計細線
  6
CONTINUOUS
 62
    3
 10
632.682861735605
 20
474.91029936886008
 11
632.682861735605
 21
473.41031608886385
  0
ARC
  8
_0-1_計細線
  6
CONTINUOUS
 62
    3
 10
633.182861735605
 20
473.41031608886385
 40
0.5
 50
179.99999999999983
 51
269.99999999999977
  0
LINE
  8
_0-1_計細線
  6
CONTINUOUS
 62
    3
 10
632.68286173560318
 20
475.41031608886431
 11
632.68286173560318
 21
474.91029936886008
  0
LINE
  8
_0-1_計細線
  6
CONTINUOUS
 62
    3
 10
633.28129171858518
 20
472.91031608886385
 11
633.18286173560318
 21
472.91031608886385
  0
LINE
  8
_0-1_計細線
  6
CONTINUOUS
 62
    3
 10
633.18286173560318
 20
471.91031608886385
 11
633.28129171858518
 21
471.91031608886385
  0
LINE
  8
_0-1_計細線
  6
CONTINUOUS
 62
    3
 10
633.28129171858518
 20
471.91031608886385
 11
633.78273557557804
 21
471.91031608886385
  0
LINE
  8
_0-1_計細線
  6
CONTINUOUS
 62
    3
 10
633.182861735605
 20
472.91031608886385
 11
633.78273557557804
 21
472.91031608886385
  0
LINE
  8
_0-1_計細線
  6
CONTINUOUS
 62
    3
 10
396.18273557557768
 20
476.91031608886425
 11
631.18286173560318
 21
476.91031608886425
  0
LINE
  8
_0-1_計細線
  6
CONTINUOUS
 62
    3
 10
395.18273557557745
 20
475.91031608886425
 11
631.18286173560318
 21
475.91031608886425
  0
LINE
  8
_0-1_計細線
  6
CONTINUOUS
 62
    3
 10
986.43273557557973
 20
512.41031608886419
 11
394.94379773811261
 21
512.41031608886419
  0
LINE
  8
_0-1_計細線
  6
CONTINUOUS
 62
    3
 10
394.18273557557768
 20
502.41031608886431
 11
395.18273557557745
 21
502.41031608886431
  0
ARC
  8
_0-1_計細線
  6
CONTINUOUS
 62
    3
 10
394.93273557557751
 20
511.16031608886431
 40
1.25
 50
0
 51
180.00000000002049
  0
ARC
  8
_0-1_計細線
  6
CONTINUOUS
 62
    3
 10
394.93273557557768
 20
511.16031608886431
 40
0.25
 50
0
 51
89.999999999999915
  0
LINE
  8
_0-1_計細線
  6
CONTINUOUS
 62
    3
 10
394.93273557557768
 20
511.41031608886431
 11
394.94379773811261
 21
511.41031608886431
  0
LINE
  8
_0-1_計細線
  6
CONTINUOUS
 62
    3
 10
395.18273557557745
 20
507.47668906407478
 11
394.69599076294168
 21
511.1272751588416
  0
ARC
  8
_0-1_計細線
  6
CONTINUOUS
 62
    3
 10
394.94379773811261
 20
511.16031608886431
 40
0.25
 50
89.999999999999915
 51
187.59464336857042
  0
LINE
  8
_0-1_計細線
  6
CONTINUOUS
 62
    3
 10
394.18273557557768
 20
507.27757013844331
 11
394.18273557557768
 21
502.41031608886431
  0
LINE
  8
_0-1_計細線
  6
CONTINUOUS
 62
    3
 10
394.16519137694263
 20
507.54189757862548
 11
393.68273557557728
 21
511.16031608886431
  0
ARC
  8
_0-1_計細線
  6
CONTINUOUS
 62
    3
 10
392.18273557557751
 20
507.27757013844331
 40
2
 50
0
 51
7.5946433685940278
  0
LINE
  8
_0-1_計細線
  6
CONTINUOUS
 62
    3
 10
396.18273557557768
 20
511.16031608886431
 11
396.18273557557768
 21
476.91031608886425
  0
LINE
  8
_0-1_計細線
  6
CONTINUOUS
 62
    3
 10
395.18273557557745
 20
511.16031608886431
 11
395.18273557557745
 21
475.91031608886425
  0
LINE
  8
_0-1_計細線
  6
CONTINUOUS
 62
    3
 10
987.18273557557779
 20
502.41031608886431
 11
986.18273557557802
 21
502.41031608886431
  0
LINE
  8
_0-1_計細線
  6
CONTINUOUS
 62
    3
 10
985.18273557557779
 20
511.16031608886431
 11
985.18273557557779
 21
476.91031608886425
  0
ARC
  8
_0-1_計細線
  6
CONTINUOUS
 62
    3
 10
986.43273557557791
 20
511.16031608886431
 40
1.25
 50
359.9999999999788
 51
179.99999999999946
  0
LINE
  8
_0-1_計細線
  6
CONTINUOUS
 62
    3
 10
986.18273557557802
 20
511.16031608886431
 11
986.18273557557802
 21
475.91031608886425
  0
ARC
  8
_0-1_計細線
  6
CONTINUOUS
 62
    3
 10
986.43273557557779
 20
511.16031608886431
 40
0.25
 50
89.999999999999915
 51
179.99999999999983
  0
LINE
  8
_0-1_計細線
  6
CONTINUOUS
 62
    3
 10
986.43273557557779
 20
511.41031608886431
 11
986.42167341304287
 21
511.41031608886431
  0
LINE
  8
_0-1_計細線
  6
CONTINUOUS
 62
    3
 10
986.18273557557802
 20
507.47668906407478
 11
986.66948038821374
 21
511.1272751588416
  0
ARC
  8
_0-1_計細線
  6
CONTINUOUS
 62
    3
 10
986.42167341304287
 20
511.16031608886431
 40
0.25
 50
352.4053566314289
 51
89.999999999999545
  0
LINE
  8
_0-1_計細線
  6
CONTINUOUS
 62
    3
 10
987.18273557557779
 20
507.27757013844331
 11
987.18273557557779
 21
502.41031608886431
  0
LINE
  8
_0-1_計細線
  6
CONTINUOUS
 62
    3
 10
987.20027977421285
 20
507.54189757862548
 11
987.68273557557814
 21
511.16031608886431
  0
ARC
  8
_0-1_計細線
  6
CONTINUOUS
 62
    3
 10
989.18273557557791
 20
507.27757013844331
 40
2
 50
172.40535663140597
 51
179.99999999999983
  0
LINE
  8
_0-0_計極細
  6
CENTER2
 62
    2
 10
428.68273557557768
 20
493.91031608886379
 11
428.68273557557768
 21
444.78424138380512
  0
ARC
  8
_0-1_計細線
  6
DASHED2
 62
    3
 10
433.68273542249705
 20
455.91031608886385
 40
3.0000000000000004
 50
269.99999999999977
 51
359.99999999999966
  0
LINE
  8
_0-1_計細線
  6
DASHED2
 62
    3
 10
436.68273542249699
 20
469.91031608886379
 11
436.68273542249699
 21
455.91031608886385
  0
LINE
  8
_0-1_計細線
  6
DASHED2
 62
    3
 10
423.68273572865837
 20
452.91031608886385
 11
433.68273542249705
 21
452.91031608886385
  0
ARC
  8
_0-1_計細線
  6
DASHED2
 62
    3
 10
423.68273572865837
 20
455.91031608886385
 40
3.0000000000000004
 50
179.99999999999983
 51
269.99999999999977
  0
LINE
  8
_0-1_計細線
  6
DASHED2
 62
    3
 10
420.68273572865843
 20
469.91031608886379
 11
420.68273572865843
 21
455.91031608886385
  0
LINE
  8
_0-1_計細線
  6
DASHED2
 62
    3
 10
436.68273542249699
 20
475.91031608886385
 11
434.68273542249705
 21
473.91031608886379
  0
LINE
  8
_0-1_計細線
  6
DASHED2
 62
    3
 10
434.68273542249705
 20
473.91031608886379
 11
434.68273542249705
 21
471.91031608886385
  0
LINE
  8
_0-1_計細線
  6
DASHED2
 62
    3
 10
434.68273542249705
 20
471.91031608886385
 11
436.68273542249699
 21
469.91031608886379
  0
LINE
  8
_0-1_計細線
  6
DASHED2
 62
    3
 10
420.68273572865843
 20
475.91031608886385
 11
422.68273572865837
 21
473.91031608886379
  0
LINE
  8
_0-1_計細線
  6
DASHED2
 62
    3
 10
422.68273572865837
 20
473.91031608886379
 11
422.68273572865837
 21
471.91031608886385
  0
LINE
  8
_0-1_計細線
  6
DASHED2
 62
    3
 10
422.68273572865837
 20
471.91031608886385
 11
420.68273572865843
 21
469.91031608886379
  0
LINE
  8
_0-1_計細線
  6
DASHED2
 62
    3
 10
436.68273542249699
 20
475.91031608886385
 11
436.68273542249699
 21
485.91031608886385
  0
LINE
  8
_0-1_計細線
  6
DASHED2
 62
    3
 10
436.68273542249699
 20
485.91031608886385
 11
434.68273542249705
 21
487.91031608886385
  0
LINE
  8
_0-1_計細線
  6
DASHED2
 62
    3
 10
434.68273542249705
 20
487.91031608886385
 11
422.68273572865837
 21
487.91031608886385
  0
LINE
  8
_0-1_計細線
  6
DASHED2
 62
    3
 10
420.68273572865843
 20
475.91031608886385
 11
420.68273572865843
 21
485.91031608886385
  0
LINE
  8
_0-1_計細線
  6
DASHED2
 62
    3
 10
422.68273572865837
 20
487.91031608886385
 11
420.68273572865843
 21
485.91031608886385
  0
LINE
  8
_0-1_計細線
  6
DASHED2
 62
    3
 10
399.18273557557654
 20
491.91031608886425
 11
399.18273557557654
 21
494.91031608886431
  0
LINE
  8
_0-1_計細線
  6
DASHED2
 62
    3
 10
402.18273557557586
 20
494.91031608886431
 11
402.18273557557586
 21
491.91031608886425
  0
LINE
  8
_0-1_計細線
  6
CONTINUOUS
 62
    3
 10
397.18273576450747
 20
491.91031608886425
 11
409.68273624134468
 21
491.91031608886425
  0
LINE
  8
_0-1_計細線
  6
CONTINUOUS
 62
    3
 10
409.68273624134468
 20
491.91031608886425
 11
409.6827355755766
 21
494.91031608886431
  0
LINE
  8
_0-1_計細線
  6
CONTINUOUS
 62
    3
 10
397.18273576450747
 20
491.91031608886425
 11
397.18273557557586
 21
494.91031608886431
  0
LINE
  8
_0-1_計細線
  6
CONTINUOUS
 62
    3
 10
397.18273557557586
 20
494.91031608886431
 11
409.6827355755766
 21
494.91031608886431
  0
LINE
  8
_0-1_計細線
  6
CONTINUOUS
 62
    3
 10
1135.1686426409726
 20
660.91044224889015
 11
1133.6686593609759
 21
660.91044224889015
  0
ARC
  8
_0-1_計細線
  6
CONTINUOUS
 62
    3
 10
1135.1686426409726
 20
662.91044224889015
 40
2
 50
269.99999999999977
 51
359.99999999999966
  0
LINE
  8
_0-1_計細線
  6
CONTINUOUS
 62
    3
 10
1137.1686426409726
 20
662.91044224889015
 11
1137.1686426409726
 21
668.41031608886419
  0
LINE
  8
_0-1_計細線
  6
CONTINUOUS
 62
    3
 10
1135.1686426409726
 20
777.91018992883778
 11
1133.6686593609768
 21
777.91018992883778
  0
ARC
  8
_0-1_計細線
  6
CONTINUOUS
 62
    3
 10
1135.1686426409726
 20
775.91018992883789
 40
2
 50
0
 51
89.999999999999915
  0
LINE
  8
_0-1_計細線
  6
CONTINUOUS
 62
    3
 10
1137.1686426409726
 20
764.41031608886419
 11
1137.1686426409726
 21
775.91018992883789
  0
LINE
  8
_0-1_計細線
  6
CONTINUOUS
 62
    3
 10
1137.1686426409726
 20
663.67154008886405
 11
1137.1686426409726
 21
764.41031608886419
  0
ARC
  8
_0-1_計細線
  6
CONTINUOUS
 62
    3
 10
1098.418659360977
 20
790.16031601232442
 40
1.25
 50
89.999999999999915
 51
179.99999999999983
  0
LINE
  8
_0-1_計細線
  6
CONTINUOUS
 62
    3
 10
1102.3014053113977
 20
790.91031601232385
 11
1107.168659360977
 21
790.91031601232385
  0
LINE
  8
_0-1_計細線
  6
CONTINUOUS
 62
    3
 10
1102.0370778712158
 20
790.92786021095878
 11
1098.418659360977
 21
791.41031601232442
  0
ARC
  8
_0-1_計細線
  6
CONTINUOUS
 62
    3
 10
1102.3014053113977
 20
792.91031601232385
 40
2
 50
262.40535663140565
 51
269.99999999999977
  0
LINE
  8
_0-1_計細線
  6
CONTINUOUS
 62
    3
 10
1097.1686593609777
 20
790.16031601232442
 11
1097.168659360977
 21
648.66031616540408
  0
LINE
  8
_0-1_計細線
  6
CONTINUOUS
 62
    3
 10
1107.168659360977
 20
647.91031616540454
 11
1107.168659360977
 21
790.91031601232385
  0
ARC
  8
_0-1_計細線
  6
CONTINUOUS
 62
    3
 10
1098.418659360977
 20
648.66031616540408
 40
1.25
 50
179.99999999999983
 51
269.99999999999977
  0
LINE
  8
_0-1_計細線
  6
CONTINUOUS
 62
    3
 10
1102.3014053113977
 20
647.91031616540454
 11
1107.168659360977
 21
647.91031616540454
  0
LINE
  8
_0-1_計細線
  6
CONTINUOUS
 62
    3
 10
1102.0370778712158
 20
647.89277196676971
 11
1098.418659360977
 21
647.41031616540408
  0
ARC
  8
_0-1_計細線
  6
CONTINUOUS
 62
    3
 10
1102.3014053113977
 20
645.91031616540465
 40
2
 50
89.999999999999915
 51
97.594643368594035
  0
LINE
  8
_0-1_計細線
  6
CONTINUOUS
 62
    3
 10
1133.6686593609768
 20
789.91031601232396
 11
1133.6686593609768
 21
648.91031616540477
  0
LINE
  8
_0-1_計細線
  6
CONTINUOUS
 62
    3
 10
1133.6686593609768
 20
789.91031601232396
 11
1107.168659360977
 21
789.91031601232396
  0
LINE
  8
_0-1_計細線
  6
CONTINUOUS
 62
    3
 10
1133.6686593609768
 20
648.91031616540454
 11
1107.168659360977
 21
648.91031616540454
  0
LINE
  8
_0-0_計極細
  6
CONTINUOUS
 62
    2
 10
1123.6685785409784
 20
789.9103160123243
 11
1123.6685785409784
 21
791.11031601232366
  0
LINE
  8
_0-0_計極細
  6
CONTINUOUS
 62
    2
 10
1133.6686593609768
 20
789.9103160123243
 11
1133.6686593609768
 21
791.11031601232366
  0
LINE
  8
_0-0_計極細
  6
CONTINUOUS
 62
    2
 10
1135.6686593609768
 20
789.91031601232396
 11
1135.6686593609768
 21
791.11031601232366
  0
LINE
  8
_0-0_計極細
  6
CONTINUOUS
 62
    2
 10
1137.6686593609768
 20
789.91031601232396
 11
1137.6686593609768
 21
791.11031601232366
  0
LINE
  8
_0-0_計極細
  6
CONTINUOUS
 62
    2
 10
1139.668659360977
 20
789.91031601232396
 11
1139.668659360977
 21
791.11031601232366
  0
LINE
  8
_0-0_計極細
  6
CONTINUOUS
 62
    2
 10
1153.6686593609768
 20
789.91031601232396
 11
1153.6686593609768
 21
791.11031601232366
  0
LINE
  8
_0-1_計細線
  6
CONTINUOUS
 62
    3
 10
1121.6685785409784
 20
791.11031601232366
 11
1156.6686593609768
 21
791.11031601232366
  0
LINE
  8
_0-1_計細線
  6
CONTINUOUS
 62
    3
 10
1156.6686593609768
 20
791.11031601232366
 11
1156.6686593609768
 21
789.91031601232396
  0
LINE
  8
_0-1_計細線
  6
CONTINUOUS
 62
    3
 10
1121.6685785409784
 20
789.9103160123243
 11
1121.6685785409784
 21
791.11031601232366
  0
LINE
  8
_0-1_計細線
  6
CONTINUOUS
 62
    3
 10
1156.6686593609768
 20
789.91031601232396
 11
1121.6685785409784
 21
789.91031601232396
  0
LINE
  8
_0-0_計極細
  6
CONTINUOUS
 62
    2
 10
1123.6685785409784
 20
647.71031616540529
 11
1123.6685785409784
 21
648.91031616540477
  0
LINE
  8
_0-0_計極細
  6
CONTINUOUS
 62
    2
 10
1133.6686593609768
 20
647.71031616540529
 11
1133.6686593609768
 21
648.91031616540477
  0
LINE
  8
_0-0_計極細
  6
CONTINUOUS
 62
    2
 10
1135.6686593609768
 20
647.71031616540495
 11
1135.6686593609768
 21
648.91031616540477
  0
LINE
  8
_0-0_計極細
  6
CONTINUOUS
 62
    2
 10
1137.6686593609768
 20
647.71031616540495
 11
1137.6686593609768
 21
648.91031616540477
  0
LINE
  8
_0-0_計極細
  6
CONTINUOUS
 62
    2
 10
1139.668659360977
 20
647.71031616540495
 11
1139.668659360977
 21
648.91031616540477
  0
LINE
  8
_0-0_計極細
  6
CONTINUOUS
 62
    2
 10
1153.6686593609768
 20
647.71031616540495
 11
1153.6686593609768
 21
648.91031616540454
  0
LINE
  8
_0-1_計細線
  6
CONTINUOUS
 62
    3
 10
1121.6685785409784
 20
648.91031616540477
 11
1156.6686593609768
 21
648.91031616540454
  0
LINE
  8
_0-1_計細線
  6
CONTINUOUS
 62
    3
 10
1156.6686593609768
 20
648.91031616540454
 11
1156.6686593609768
 21
647.71031616540495
  0
LINE
  8
_0-1_計細線
  6
CONTINUOUS
 62
    3
 10
1121.6685785409784
 20
647.71031616540529
 11
1121.6685785409784
 21
648.91031616540477
  0
LINE
  8
_0-1_計細線
  6
CONTINUOUS
 62
    3
 10
1156.6686593609768
 20
647.71031616540495
 11
1121.6685785409784
 21
647.71031616540495
  0
LINE
  8
_0-5_寸法線
  6
CONTINUOUS
 62
    7
 10
1097.168659360977
 20
801.41031608886419
 11
1097.168659360977
 21
846.41031608886419
  0
LINE
  8
_0-5_寸法線
  6
CONTINUOUS
 62
    7
 10
1097.168659360977
 20
841.41031608886419
 11
1087.5094010980861
 21
838.82212563783912
  0
LINE
  8
_0-5_寸法線
  6
CONTINUOUS
 62
    7
 10
1097.168659360977
 20
841.41031608886419
 11
1087.5094010980861
 21
843.99850653988949
  0
LINE
  8
_0-5_寸法線
  6
CONTINUOUS
 62
    7
 10
1133.6686593609768
 20
798.91031608886419
 11
1133.6686593609768
 21
846.41031608886419
  0
CIRCLE
  8
_0-5_寸法線
  6
CONTINUOUS
 62
    1
 10
1133.6686593609768
 20
841.41031608886419
 40
1.5000000000000002
  0
LINE
  8
_0-5_寸法線
  6
CONTINUOUS
 62
    7
 10
1057.168659360977
 20
841.41031608886419
 11
1133.6686593609768
 21
841.41031608886419
  0
TEXT
  8
_0-5_寸法線
 62
    7
 10
1057.6149898553167
 20
841.41031608886419
 40
15
 41
1
 50
0
  1
36.5
  0
LINE
  8
_0-5_寸法線
  6
CONTINUOUS
 62
    7
 10
1156.6686593609768
 20
800.11031608886378
 11
1156.6686593609768
 21
846.41031608886419
  0
LINE
  8
_0-5_寸法線
  6
CONTINUOUS
 62
    7
 10
1156.6686593609768
 20
841.41031608886419
 11
1166.3279176238675
 21
843.99850653988949
  0
LINE
  8
_0-5_寸法線
  6
CONTINUOUS
 62
    7
 10
1156.6686593609768
 20
841.41031608886419
 11
1166.3279176238675
 21
838.82212563783901
  0
LINE
  8
_0-5_寸法線
  6
CONTINUOUS
 62
    7
 10
1133.6686593609768
 20
841.41031608886419
 11
1182.4125574294892
 21
841.41031608886419
  0
TEXT
  8
_0-5_寸法線
 62
    7
 10
1167.4125574294892
 20
841.41031608886419
 40
15
 41
1
 50
0
  1
23
  0
LINE
  8
_0-5_寸法線
  6
CONTINUOUS
 62
    7
 10
1097.168659360977
 20
801.41031608886419
 11
1097.168659360977
 21
881.41031608886419
  0
LINE
  8
_0-5_寸法線
  6
CONTINUOUS
 62
    7
 10
1097.168659360977
 20
876.41031608886419
 11
1106.8279176238675
 21
878.99850653988949
  0
LINE
  8
_0-5_寸法線
  6
CONTINUOUS
 62
    7
 10
1097.168659360977
 20
876.41031608886419
 11
1106.8279176238675
 21
873.82212563783912
  0
LINE
  8
_0-5_寸法線
  6
CONTINUOUS
 62
    7
 10
1156.6686593609768
 20
800.11031608886378
 11
1156.6686593609768
 21
881.41031608886419
  0
LINE
  8
_0-5_寸法線
  6
CONTINUOUS
 62
    7
 10
1156.6686593609768
 20
876.41031608886419
 11
1147.0094010980861
 21
873.82212563783912
  0
LINE
  8
_0-5_寸法線
  6
CONTINUOUS
 62
    7
 10
1156.6686593609768
 20
876.41031608886419
 11
1147.0094010980861
 21
878.99850653988949
  0
LINE
  8
_0-5_寸法線
  6
CONTINUOUS
 62
    7
 10
1097.168659360977
 20
876.41031608886419
 11
1156.6686593609768
 21
876.41031608886419
  0
TEXT
  8
_0-5_寸法線
 62
    7
 10
1111.9186593609768
 20
876.41031608886408
 40
15
 41
1
 50
0
  1
59.5
  0
LINE
  8
_0-0_計極細
  6
CENTER2
 62
    2
 10
1085.7419243719821
 20
719.41031608886419
 11
1150.479670441475
 21
719.41031608886419
  0
TEXT
  8
_0-7_枠細線
 62
    5
 10
960.50000000000011
 20
149.53034845114914
 40
20
 41
0.6
 50
0
  1
フリースタイルユニット
  0
TEXT
  8
_0-7_枠細線
 62
    5
 10
1194
 20
117.5
 40
20
 41
0.6999999999999997
 50
0
  1
１：５
  0
TEXT
  8
_0-7_枠細線
 62
    5
 10
1310
 20
67.5
 40
15
 41
0.6666666666666666
 50
0
  1
２０２０年０７月０１日
  0
TEXT
  8
_0-7_枠細線
 62
    5
 10
1375
 20
95
 40
20
 41
1
 50
0
  1
石井
  0
LINE
  8
_0-5_寸法線
  6
CONTINUOUS
 62
    7
 10
987.68273557557791
 20
801.41031608886419
 11
987.68273557557848
 21
881.41031608886419
  0
LINE
  8
_0-5_寸法線
  6
CONTINUOUS
 62
    7
 10
987.68273557557848
 20
876.41031608886419
 11
997.34199383846908
 21
878.99850653988949
  0
LINE
  8
_0-5_寸法線
  6
CONTINUOUS
 62
    7
 10
987.68273557557848
 20
876.41031608886419
 11
997.34199383846908
 21
873.82212563783901
  0
LINE
  8
_0-5_寸法線
  6
CONTINUOUS
 62
    7
 10
985.18273557557791
 20
801.41031608886419
 11
985.1827355755795
 21
881.41031608886419
  0
LINE
  8
_0-5_寸法線
  6
CONTINUOUS
 62
    7
 10
1027.6827355755786
 20
876.41031608886419
 11
985.18273557557927
 21
876.41031608886419
  0
TEXT
  8
_0-5_寸法線
 62
    7
 10
1004.0116855050908
 20
876.41031608886374
 40
15
 41
1
 50
0
  1
2.5
  0
LINE
  8
_0-5_寸法線
  6
CONTINUOUS
 62
    7
 10
985.18273557557927
 20
876.41031608886419
 11
975.52347731268867
 21
873.82212563783912
  0
LINE
  8
_0-5_寸法線
  6
CONTINUOUS
 62
    7
 10
985.18273557557927
 20
876.41031608886419
 11
975.52347731268867
 21
878.99850653988949
  0
LINE
  8
_0-5_寸法線
  6
CONTINUOUS
 62
    7
 10
396.18273557557785
 20
801.41031608886419
 11
396.18273557557939
 21
881.41031608886419
  0
LINE
  8
_0-5_寸法線
  6
CONTINUOUS
 62
    7
 10
396.18273557557927
 20
876.41031608886419
 11
405.84199383846993
 21
878.99850653988949
  0
LINE
  8
_0-5_寸法線
  6
CONTINUOUS
 62
    7
 10
396.18273557557927
 20
876.41031608886419
 11
405.84199383846993
 21
873.82212563783912
  0
LINE
  8
_0-5_寸法線
  6
CONTINUOUS
 62
    7
 10
985.18273557557927
 20
876.41031608886419
 11
396.18273557557927
 21
876.41031608886419
  0
TEXT
  8
_0-5_寸法線
 62
    7
 10
679.43273557557882
 20
876.41031608886374
 40
15
 41
1
 50
0
  1
589
  0
LINE
  8
_0-5_寸法線
  6
CONTINUOUS
 62
    7
 10
393.68273557557785
 20
801.41031608886419
 11
393.6827355755787
 21
881.41031608886419
  0
LINE
  8
_0-5_寸法線
  6
CONTINUOUS
 62
    7
 10
393.68273557557865
 20
876.41031608886419
 11
384.02347731268787
 21
873.82212563783912
  0
LINE
  8
_0-5_寸法線
  6
CONTINUOUS
 62
    7
 10
393.68273557557865
 20
876.41031608886419
 11
384.02347731268799
 21
878.99850653988949
  0
LINE
  8
_0-5_寸法線
  6
CONTINUOUS
 62
    7
 10
396.18273557557927
 20
876.41031608886419
 11
353.68273557557865
 21
876.41031608886419
  0
TEXT
  8
_0-5_寸法線
 62
    7
 10
356.40195429152465
 20
876.41031608886419
 40
15
 41
1
 50
0
  1
2.5
  0
LINE
  8
_0-5_寸法線
  6
CONTINUOUS
 62
    7
 10
402.18273557557734
 20
801.41031608886419
 11
402.18273557557751
 21
846.41031608886419
  0
LINE
  8
_0-5_寸法線
  6
CONTINUOUS
 62
    7
 10
402.18273557557751
 20
841.41031608886419
 11
411.84199383846817
 21
843.99850653988949
  0
LINE
  8
_0-5_寸法線
  6
CONTINUOUS
 62
    7
 10
402.18273557557751
 20
841.41031608886419
 11
411.84199383846817
 21
838.82212563783912
  0
LINE
  8
_0-5_寸法線
  6
CONTINUOUS
 62
    7
 10
979.18273557557825
 20
801.41031608886419
 11
979.18273557557836
 21
846.41031608886419
  0
LINE
  8
_0-5_寸法線
  6
CONTINUOUS
 62
    7
 10
979.18273557557836
 20
841.41031608886419
 11
969.52347731268776
 21
838.82212563783912
  0
LINE
  8
_0-5_寸法線
  6
CONTINUOUS
 62
    7
 10
979.18273557557836
 20
841.41031608886419
 11
969.52347731268776
 21
843.99850653988949
  0
LINE
  8
_0-5_寸法線
  6
CONTINUOUS
 62
    7
 10
402.18273557557751
 20
841.41031608886419
 11
979.18273557557836
 21
841.41031608886419
  0
TEXT
  8
_0-5_寸法線
 62
    7
 10
679.43273557557791
 20
841.41031608886419
 40
15
 41
1
 50
0
  1
577
  0
ARC
  8
_0-1_計細線
  6
DASHED2
 62
    3
 10
779.18273557557768
 20
719.41031608886419
 40
12.5
 50
53.13010235415598
 51
216.86989764584365
  0
ARC
  8
_0-1_計細線
  6
DASHED2
 62
    3
 10
779.18273557557768
 20
719.41031608886419
 40
12.5
 50
216.86989764584365
 51
53.130102354155625
  0
ARC
  8
_0-1_計細線
  6
DASHED2
 62
    3
 10
602.18273557557768
 20
719.41031608886419
 40
12.5
 50
53.13010235415598
 51
216.86989764584365
  0
ARC
  8
_0-1_計細線
  6
DASHED2
 62
    3
 10
602.18273557557768
 20
719.41031608886419
 40
12.5
 50
216.86989764584365
 51
53.130102354155625
  0
LINE
  8
_0-5_寸法線
  6
CONTINUOUS
 62
    7
 10
787.6827354990387
 20
359.41031608886414
 11
937.68273549903847
 21
359.41031608886362
  0
LINE
  8
_0-5_寸法線
  6
CONTINUOUS
 62
    7
 10
932.68273549903847
 20
359.41031608886362
 11
930.0945450480134
 21
369.06957435175428
  0
LINE
  8
_0-5_寸法線
  6
CONTINUOUS
 62
    7
 10
932.68273549903847
 20
359.41031608886362
 11
935.27092595006366
 21
369.06957435175428
  0
LINE
  8
_0-5_寸法線
  6
CONTINUOUS
 62
    7
 10
797.68273549903768
 20
512.41031608886419
 11
937.68273549903847
 21
512.41031608886351
  0
LINE
  8
_0-5_寸法線
  6
CONTINUOUS
 62
    7
 10
932.68273549903847
 20
512.41031608886351
 11
935.27092595006366
 21
502.75105782597285
  0
LINE
  8
_0-5_寸法線
  6
CONTINUOUS
 62
    7
 10
932.68273549903847
 20
512.41031608886351
 11
930.0945450480134
 21
502.75105782597285
  0
LINE
  8
_0-5_寸法線
  6
CONTINUOUS
 62
    7
 10
932.68273549903847
 20
359.41031608886362
 11
932.68273549903847
 21
512.41031608886351
  0
TEXT
  8
_0-5_寸法線
 62
    7
 10
932.68273549903847
 20
424.66031608886334
 40
15
 41
1
 50
90
  1
153
  0
LINE
  8
_0-5_寸法線
  6
CONTINUOUS
 62
    7
 10
787.68273557557779
 20
359.41031608886396
 11
867.68273549903847
 21
359.41031608886374
  0
LINE
  8
_0-5_寸法線
  6
CONTINUOUS
 62
    7
 10
862.68273549903847
 20
359.41031608886374
 11
860.0945450480134
 21
369.06957435175445
  0
LINE
  8
_0-5_寸法線
  6
CONTINUOUS
 62
    7
 10
862.68273549903847
 20
359.41031608886374
 11
865.27092595006366
 21
369.06957435175445
  0
LINE
  8
_0-5_寸法線
  6
CONTINUOUS
 62
    7
 10
787.68273557557779
 20
415.98094808886259
 11
867.68273549903847
 21
415.98094808886231
  0
LINE
  8
_0-5_寸法線
  6
CONTINUOUS
 62
    7
 10
862.68273549903847
 20
415.98094808886231
 11
865.27092595006366
 21
406.32168982597165
  0
LINE
  8
_0-5_寸法線
  6
CONTINUOUS
 62
    7
 10
862.68273549903847
 20
415.98094808886231
 11
860.0945450480134
 21
406.32168982597165
  0
LINE
  8
_0-5_寸法線
  6
CONTINUOUS
 62
    7
 10
862.68273549903847
 20
359.41031608886374
 11
862.68273549903847
 21
415.98094808886231
  0
TEXT
  8
_0-5_寸法線
 62
    7
 10
862.68273549903847
 20
368.94563208886268
 40
15
 41
1
 50
90
  1
VU-50
  0
LINE
  8
_0-5_寸法線
  6
CONTINUOUS
 62
    7
 10
690.68273557557768
 20
349.41031608886408
 11
690.68273557557791
 21
304.41031608886408
  0
LINE
  8
_0-5_寸法線
  6
CONTINUOUS
 62
    7
 10
690.68273557557791
 20
309.41031608886408
 11
700.34199383846851
 21
311.99850653988921
  0
LINE
  8
_0-5_寸法線
  6
CONTINUOUS
 62
    7
 10
690.68273557557791
 20
309.41031608886408
 11
700.34199383846851
 21
306.82212563783884
  0
LINE
  8
_0-5_寸法線
  6
CONTINUOUS
 62
    7
 10
741.68273557557768
 20
349.41031608886408
 11
741.68273557557779
 21
304.41031608886408
  0
LINE
  8
_0-5_寸法線
  6
CONTINUOUS
 62
    7
 10
741.68273557557779
 20
309.41031608886408
 11
732.02347731268719
 21
306.82212563783884
  0
LINE
  8
_0-5_寸法線
  6
CONTINUOUS
 62
    7
 10
741.68273557557779
 20
309.41031608886408
 11
732.02347731268719
 21
311.99850653988926
  0
LINE
  8
_0-5_寸法線
  6
CONTINUOUS
 62
    7
 10
690.68273557557791
 20
309.41031608886408
 11
741.68273557557779
 21
309.41031608886408
  0
TEXT
  8
_0-5_寸法線
 62
    7
 10
708.68273557557757
 20
309.41031608886391
 40
15
 41
1
 50
0
  1
51
  0
LINE
  8
_0-5_寸法線
  6
CONTINUOUS
 62
    7
 10
741.68273557557779
 20
309.41031608886408
 11
751.34199383846851
 21
311.99850653988915
  0
LINE
  8
_0-5_寸法線
  6
CONTINUOUS
 62
    7
 10
741.68273557557779
 20
309.41031608886408
 11
751.34199383846851
 21
306.82212563783878
  0
LINE
  8
_0-5_寸法線
  6
CONTINUOUS
 62
    7
 10
777.68273557557779
 20
350.98094808886259
 11
777.68273557557791
 21
304.41031608886396
  0
LINE
  8
_0-5_寸法線
  6
CONTINUOUS
 62
    7
 10
777.68273557557791
 20
309.41031608886396
 11
768.02347731268708
 21
306.82212563783878
  0
LINE
  8
_0-5_寸法線
  6
CONTINUOUS
 62
    7
 10
777.68273557557791
 20
309.41031608886396
 11
768.02347731268708
 21
311.99850653988921
  0
LINE
  8
_0-5_寸法線
  6
CONTINUOUS
 62
    7
 10
741.68273557557779
 20
309.41031608886408
 11
777.68273557557791
 21
309.41031608886396
  0
TEXT
  8
_0-5_寸法線
 62
    7
 10
752.18273557557814
 20
309.41031608886379
 40
15
 41
1
 50
0
  1
36
  0
LINE
  8
_0-5_寸法線
  6
CONTINUOUS
 62
    7
 10
690.68273557557757
 20
349.41031608886408
 11
690.6827355755762
 21
269.41031608886408
  0
LINE
  8
_0-5_寸法線
  6
CONTINUOUS
 62
    7
 10
690.68273557557632
 20
274.41031608886408
 11
700.34199383846715
 21
276.99850653988921
  0
LINE
  8
_0-5_寸法線
  6
CONTINUOUS
 62
    7
 10
690.68273557557632
 20
274.41031608886408
 11
700.34199383846715
 21
271.82212563783884
  0
LINE
  8
_0-5_寸法線
  6
CONTINUOUS
 62
    7
 10
777.68273557557768
 20
350.98094808886259
 11
777.6827355755762
 21
269.41031608886408
  0
LINE
  8
_0-5_寸法線
  6
CONTINUOUS
 62
    7
 10
777.68273557557632
 20
274.41031608886408
 11
768.02347731268571
 21
271.82212563783884
  0
LINE
  8
_0-5_寸法線
  6
CONTINUOUS
 62
    7
 10
777.68273557557632
 20
274.41031608886408
 11
768.02347731268571
 21
276.99850653988926
  0
LINE
  8
_0-5_寸法線
  6
CONTINUOUS
 62
    7
 10
690.68273557557632
 20
274.41031608886408
 11
777.68273557557632
 21
274.41031608886408
  0
TEXT
  8
_0-5_寸法線
 62
    7
 10
726.68273557557643
 20
274.41031608886408
 40
15
 41
1
 50
0
  1
87
  0
LINE
  8
_0-5_寸法線
  6
CONTINUOUS
 62
    7
 10
787.68273557557779
 20
359.41031608886396
 11
902.68273557557779
 21
359.41031608886362
  0
LINE
  8
_0-5_寸法線
  6
CONTINUOUS
 62
    7
 10
897.68273557557779
 20
359.41031608886362
 11
895.0945451245525
 21
369.06957435175428
  0
LINE
  8
_0-5_寸法線
  6
CONTINUOUS
 62
    7
 10
897.68273557557779
 20
359.41031608886362
 11
900.27092602660287
 21
369.06957435175428
  0
LINE
  8
_0-5_寸法線
  6
CONTINUOUS
 62
    7
 10
760.18260941555229
 20
475.91031608886459
 11
902.68273557557779
 21
475.91031608886425
  0
LINE
  8
_0-5_寸法線
  6
CONTINUOUS
 62
    7
 10
897.68273557557779
 20
475.91031608886425
 11
900.27092602660287
 21
466.25105782597353
  0
LINE
  8
_0-5_寸法線
  6
CONTINUOUS
 62
    7
 10
897.68273557557779
 20
475.91031608886425
 11
895.0945451245525
 21
466.25105782597359
  0
LINE
  8
_0-5_寸法線
  6
CONTINUOUS
 62
    7
 10
897.68273557557779
 20
359.41031608886362
 11
897.68273557557779
 21
475.91031608886425
  0
TEXT
  8
_0-5_寸法線
 62
    7
 10
897.68273557557779
 20
398.91031608886402
 40
15
 41
1
 50
90
  1
116.5
  0
LINE
  8
_0-5_寸法線
  6
CONTINUOUS
 62
    7
 10
760.18260941555229
 20
512.41031608886419
 11
902.68273557557779
 21
512.41031608886374
  0
LINE
  8
_0-5_寸法線
  6
CONTINUOUS
 62
    7
 10
897.68273557557779
 20
512.41031608886374
 11
895.0945451245525
 21
522.06957435175445
  0
LINE
  8
_0-5_寸法線
  6
CONTINUOUS
 62
    7
 10
897.68273557557779
 20
512.41031608886374
 11
900.27092602660287
 21
522.06957435175445
  0
LINE
  8
_0-5_寸法線
  6
CONTINUOUS
 62
    7
 10
897.68273557557779
 20
475.91031608886425
 11
897.68273557557779
 21
552.76307793481965
  0
TEXT
  8
_0-5_寸法線
 62
    7
 10
897.68273557557779
 20
522.76307793481953
 40
15
 41
1
 50
90
  1
36.5
  0
LINE
  8
_0-5_寸法線
  6
CONTINUOUS
 62
    7
 10
652.88073967585785
 20
434.55510149459229
 11
649.43365965063526
 21
419.95655227558734
  0
LINE
  8
_0-5_寸法線
  6
CONTINUOUS
 62
    7
 10
652.88073967585785
 20
434.55510149459229
 11
642.59620619563464
 21
423.63592702514785
  0
LINE
  8
_0-5_寸法線
  6
CONTINUOUS
 62
    7
 10
652.88073967585785
 20
434.55510149459229
 11
623.16760808185927
 21
379.33861279619686
  0
LINE
  8
_0-5_寸法線
  6
CONTINUOUS
 62
    7
 10
623.16760808185927
 20
379.33861279619686
 11
491.16760808185927
 21
379.33861279619725
  0
TEXT
  8
_0-5_寸法線
 62
    7
 10
491.16760808185927
 20
379.33861279619686
 40
15
 41
0.7999999999999997
 50
0
  1
横引き排水トラップ一式
  0
CIRCLE
  8
_1-1_寸法4
  6
CONTINUOUS
 62
    7
 10
320.16003191558946
 20
287.76937855088408
 40
25
  0
TEXT
  8
_1-1_寸法4
 62
    7
 10
331.76562470356424
 20
307.13156936330864
 40
15
 41
0.8000000000000001
 50
0
  1
Ｃ部
  0
LINE
  8
_1-1_寸法4
  6
CONTINUOUS
 62
    7
 10
236.02733368525136
 20
295.25777425729638
 11
227.12910243202245
 21
299.82083031262368
  0
LINE
  8
_1-1_寸法4
  6
CONTINUOUS
 62
    7
 10
236.02733368525136
 20
295.25777425729638
 11
230.60276739887016
 21
303.65861234671672
  0
LINE
  8
_1-1_寸法4
  6
CONTINUOUS
 62
    7
 10
236.02733368525136
 20
295.25777425729638
 11
216.65249499573193
 21
312.79438727914902
  0
LINE
  8
_1-1_寸法4
  6
CONTINUOUS
 62
    7
 10
216.65249499573193
 20
312.79438727914902
 11
144.6524949957319
 21
312.79438727914902
  0
TEXT
  8
_1-1_寸法4
 62
    7
 10
144.6524949957319
 20
312.79438727914925
 40
15
 41
0.8000000000000001
 50
-0.0000000000001696
  1
ストレーナー
  0
LINE
  8
_1-1_寸法4
  6
CONTINUOUS
 62
    7
 10
245.61446815521947
 20
230.02838132834717
 11
239.59970400991614
 21
222.03947575396631
  0
LINE
  8
_1-1_寸法4
  6
CONTINUOUS
 62
    7
 10
245.61446815521947
 20
230.02838132834717
 11
236.4110768204246
 21
226.11716822514992
  0
LINE
  8
_1-1_寸法4
  6
CONTINUOUS
 62
    7
 10
245.61446815521947
 20
230.02838132834717
 11
189.13029935637596
 21
185.85953885662775
  0
LINE
  8
_1-1_寸法4
  6
CONTINUOUS
 62
    7
 10
189.13029935637596
 20
185.85953885662775
 11
93.13029935637573
 21
185.85953885662775
  0
TEXT
  8
_1-1_寸法4
 62
    7
 10
93.13029935637573
 20
185.85953885662789
 40
15
 41
0.8000000000000001
 50
-0.0000000000001696
  1
防臭インナー１号
  0
LINE
  8
_1-1_寸法4
  6
CONTINUOUS
 62
    7
 10
208.37556476095926
 20
174.86524290957334
 11
202.30802636778591
 21
166.91634500814274
  0
LINE
  8
_1-1_寸法4
  6
CONTINUOUS
 62
    7
 10
208.37556476095926
 20
174.86524290957334
 11
199.14647342331847
 21
171.01506459143224
  0
LINE
  8
_1-1_寸法4
  6
CONTINUOUS
 62
    7
 10
208.37556476095926
 20
174.86524290957334
 11
189.13029935637596
 21
160.02038117397603
  0
LINE
  8
_1-1_寸法4
  6
CONTINUOUS
 62
    7
 10
189.13029935637596
 20
160.02038117397603
 11
117.130299356376
 21
160.02038117397603
  0
TEXT
  8
_1-1_寸法4
 62
    7
 10
117.130299356376
 20
160.02038117397618
 40
15
 41
0.8000000000000001
 50
-0.000000000000113
  1
トラップ本体
  0
LINE
  8
_1-1_寸法4
  6
CONTINUOUS
 62
    7
 10
222.76851515260603
 20
249.87688894523259
 11
216.75784221424308
 21
241.88490478433548
  0
LINE
  8
_1-1_寸法4
  6
CONTINUOUS
 62
    7
 10
222.76851515260603
 20
249.87688894523259
 11
213.5671276136955
 21
245.96096410443431
  0
LINE
  8
_1-1_寸法4
  6
CONTINUOUS
 62
    7
 10
222.76851515260603
 20
249.87688894523259
 11
189.13029935637596
 21
223.54509692538562
  0
LINE
  8
_1-1_寸法4
  6
CONTINUOUS
 62
    7
 10
189.13029935637596
 20
223.54509692538562
 11
93.13029935637573
 21
223.54509692538562
  0
TEXT
  8
_1-1_寸法4
 62
    7
 10
93.13029935637573
 20
223.54509692538585
 40
15
 41
0.8000000000000001
 50
-0.0000000000001908
  1
防臭インナー２号
  0
ARC
  8
_0-e_極細4
  6
CONTINUOUS
 62
    6
 10
210.0350319155902
 20
292.34230819247892
 40
0.625
 50
179.99999999999983
 51
269.99999999999977
  0
LINE
  8
_0-e_極細4
  6
CONTINUOUS
 62
    6
 10
210.78503191558994
 20
291.71730819247892
 11
210.78503191558994
 21
292.96730819247892
  0
ARC
  8
_0-e_極細4
  6
CONTINUOUS
 62
    6
 10
319.53503191558951
 20
292.34230819247892
 40
0.625
 50
269.99999999999977
 51
359.99999999999966
  0
LINE
  8
_0-e_極細4
  6
CONTINUOUS
 62
    6
 10
318.78503191558991
 20
291.71730819247892
 11
318.78503191558991
 21
292.96730819247892
  0
LINE
  8
_0-e_極細4
  6
CONTINUOUS
 62
    6
 10
231.03503191559042
 20
200.4682610424743
 11
231.03503191559042
 21
274.1860894424791
  0
ARC
  8
_0-e_極細4
  6
CONTINUOUS
 62
    6
 10
232.28503191559014
 20
200.4682610424743
 40
1.25
 50
179.99999999999983
 51
270.00045836621376
  0
LINE
  8
_0-e_極細4
  6
CONTINUOUS
 62
    6
 10
232.28503191559014
 20
199.21826104247415
 11
264.78503191559042
 21
199.21826104247415
  0
LINE
  8
_0-e_極細4
  6
CONTINUOUS
 62
    6
 10
215.72253191559042
 20
192.70845729247418
 11
215.72253191559042
 21
226.45845729247418
  0
LINE
  8
_0-e_極細4
  6
CONTINUOUS
 62
    6
 10
230.72253191559042
 20
177.70845729247418
 11
233.53503191559042
 21
177.70845729247418
  0
ARC
  8
_0-e_極細4
  6
CONTINUOUS
 62
    6
 10
230.72253191559042
 20
192.70845729247418
 40
15
 50
179.99999999999983
 51
269.99999999999977
  0
LINE
  8
_0-e_極細4
  6
CONTINUOUS
 62
    6
 10
204.78503191559014
 20
238.86041604247413
 11
204.78503191559014
 21
272.70847819247882
  0
LINE
  8
_0-e_極細4
  6
CONTINUOUS
 62
    6
 10
264.78503191559042
 20
177.70845729247418
 11
263.62123941558991
 21
177.70845729247418
  0
LINE
  8
_0-e_極細4
  6
CONTINUOUS
 62
    6
 10
263.62123941558991
 20
177.70845729247418
 11
230.72253191559042
 21
177.70845729247418
  0
LINE
  8
_0-e_極細4
  6
CONTINUOUS
 62
    6
 10
215.72253191559042
 20
192.70845729247418
 11
215.72253191559042
 21
264.95847819247894
  0
LINE
  8
_0-e_極細4
  6
CONTINUOUS
 62
    6
 10
218.22253191559042
 20
192.70845729247418
 11
218.22253191559042
 21
264.95847819247894
  0
LINE
  8
_0-e_極細4
  6
CONTINUOUS
 62
    6
 10
264.78503191559042
 20
180.20845729247426
 11
230.72253191559042
 21
180.20845729247426
  0
ARC
  8
_0-e_極細4
  6
CONTINUOUS
 62
    6
 10
230.72253191559042
 20
192.70845729247418
 40
12.5
 50
179.99999999999983
 51
269.99999999999977
  0
LINE
  8
_0-e_極細4
  6
CONTINUOUS
 62
    6
 10
214.47253191558971
 20
282.96828194247888
 11
264.78503191559042
 21
282.96828194247888
  0
LINE
  8
_0-e_極細4
  6
CONTINUOUS
 62
    6
 10
214.47253191558971
 20
277.46828194247888
 11
214.47253191558971
 21
282.96828194247888
  0
LINE
  8
_0-e_極細4
  6
CONTINUOUS
 62
    6
 10
210.41003191559014
 20
282.96828194247882
 11
214.47253191558971
 21
282.96828194247882
  0
LINE
  8
_0-e_極細4
  6
CONTINUOUS
 62
    6
 10
211.66003191559014
 20
277.46828194247888
 11
214.47253191558971
 21
277.46828194247888
  0
LINE
  8
_0-e_極細4
  6
CONTINUOUS
 62
    6
 10
211.66003191559014
 20
276.21828194247888
 11
211.66003191559014
 21
277.46828194247888
  0
ARC
  8
_0-e_極細4
  6
CONTINUOUS
 62
    6
 10
214.16003191559014
 20
276.21828194247888
 40
2.5
 50
179.99999999999983
 51
269.99999999999977
  0
LINE
  8
_0-e_極細4
  6
CONTINUOUS
 62
    6
 10
214.16003191559014
 20
273.718281942479
 11
217.91003191559042
 21
273.718281942479
  0
ARC
  8
_0-e_極細4
  6
CONTINUOUS
 62
    6
 10
202.31128191559009
 20
297.02980819247892
 40
1.3125000000000142
 50
4.150990000002416
 51
89.999999999999901
  0
LINE
  8
_0-e_極細4
  6
CONTINUOUS
 62
    6
 10
202.31128191559009
 20
279.19105819247881
 11
202.31128191559009
 21
298.34230819247909
  0
LINE
  8
_0-e_極細4
  6
CONTINUOUS
 62
    6
 10
202.31128191559009
 20
298.33347750966533
 11
193.66003191558988
 21
299.56567444247872
  0
LINE
  8
_0-e_極細4
  6
CONTINUOUS
 62
    6
 10
198.53503191559014
 20
269.95847819247888
 11
198.53503191559014
 21
279.95847819247888
  0
ARC
  8
_0-e_極細4
  6
CONTINUOUS
 62
    6
 10
195.41003191559014
 20
264.54581944247894
 40
6.25
 50
0
 51
59.999999999999588
  0
LINE
  8
_0-e_極細4
  6
CONTINUOUS
 62
    6
 10
193.66003191558988
 20
279.95847819247888
 11
193.66003191558988
 21
280.65252944247896
  0
LINE
  8
_0-e_極細4
  6
CONTINUOUS
 62
    6
 10
198.53503191559014
 20
279.95847819247888
 11
193.66003191558988
 21
279.95847819247888
  0
LINE
  8
_0-e_極細4
  6
CONTINUOUS
 62
    6
 10
193.66003191558988
 20
280.65252944247896
 11
193.66003191558988
 21
300.43170069247896
  0
LINE
  8
_0-e_極細4
  6
CONTINUOUS
 62
    6
 10
204.16003191559014
 20
273.70847819247888
 11
204.16003191559014
 21
277.34230819247887
  0
LINE
  8
_0-e_極細4
  6
CONTINUOUS
 62
    6
 10
202.31128191559009
 20
272.70847819247882
 11
204.16003191559014
 21
273.70847819247888
  0
LINE
  8
_0-e_極細4
  6
CONTINUOUS
 62
    6
 10
193.66003191558988
 20
297.45847819247894
 11
202.31128191559009
 21
296.45847819247894
  0
ARC
  8
_0-e_極細4
  6
CONTINUOUS
 62
    6
 10
216.97253191559042
 20
264.95847819247894
 40
1.25
 50
89.999999999999915
 51
179.99999999999983
  0
ARC
  8
_0-e_極細4
  6
CONTINUOUS
 62
    6
 10
216.97253191559042
 20
264.95847819247894
 40
1.25
 50
0
 51
89.999999999999915
  0
LINE
  8
_0-e_極細4
  6
CONTINUOUS
 62
    6
 10
264.78503191559014
 20
299.21730819247892
 11
202.31128191559009
 21
299.21730819247892
  0
LINE
  8
_0-e_極細4
  6
CONTINUOUS
 62
    6
 10
214.47253191558971
 20
282.34230819247887
 11
209.4100319155902
 21
282.34230819247887
  0
LINE
  8
_0-e_極細4
  6
CONTINUOUS
 62
    6
 10
205.73350191559001
 20
296.09230819247892
 11
207.2225319155902
 21
296.09230819247892
  0
LINE
  8
_0-e_極細4
  6
CONTINUOUS
 62
    6
 10
209.4100319155902
 20
280.71730819247892
 11
209.4100319155902
 21
293.90480819247892
  0
LINE
  8
_0-e_極細4
  6
CONTINUOUS
 62
    6
 10
206.66003191558971
 20
296.09230819247892
 11
206.66003191558971
 21
299.21730819247892
  0
ARC
  8
_0-e_極細4
  6
CONTINUOUS
 62
    6
 10
207.2225319155902
 20
293.90480819247892
 40
2.1874999999999996
 50
0
 51
89.999999999999915
  0
ARC
  8
_0-e_極細4
  6
CONTINUOUS
 62
    6
 10
202.31128191559009
 20
297.02980819247892
 40
2.1874999999999996
 50
4.1509899999971784
 51
89.999999999999915
  0
ARC
  8
_0-e_極細4
  6
CONTINUOUS
 62
    6
 10
205.73350191559001
 20
297.34230819247892
 40
1.25
 50
183.35088799999644
 51
269.99999999999977
  0
ARC
  8
_0-e_極細4
  6
CONTINUOUS
 62
    6
 10
205.73350191559001
 20
297.34230819247892
 40
2.1249999999999858
 50
183.35088800000048
 51
269.99999999999977
  0
LINE
  8
_0-e_極細4
  6
CONTINUOUS
 62
    6
 10
205.73350191559001
 20
295.21730819247909
 11
207.2225319155902
 21
295.21730819247909
  0
ARC
  8
_0-e_極細4
  6
CONTINUOUS
 62
    6
 10
207.2225319155902
 20
293.90480819247892
 40
1.3125000000000142
 50
0
 51
89.999999999999915
  0
LINE
  8
_0-e_極細4
  6
CONTINUOUS
 62
    6
 10
208.53503191559014
 20
279.84230819247887
 11
208.53503191558971
 21
293.90480819247892
  0
LINE
  8
_0-e_極細4
  6
CONTINUOUS
 62
    6
 10
202.31128191559009
 20
279.19105819247881
 11
204.16003191559014
 21
277.34230819247887
  0
LINE
  8
_0-e_極細4
  6
CONTINUOUS
 62
    6
 10
211.03503191559014
 20
274.84230819247887
 11
211.03503191559014
 21
282.34230819247887
  0
LINE
  8
_0-e_極細4
  6
CONTINUOUS
 62
    6
 10
211.03503191559014
 20
279.84230819247887
 11
208.53503191559014
 21
279.84230819247887
  0
LINE
  8
_0-e_極細4
  6
CONTINUOUS
 62
    6
 10
211.03503191559014
 20
280.71730819247892
 11
209.4100319155902
 21
280.71730819247892
  0
LINE
  8
_0-e_極細4
  6
CONTINUOUS
 62
    6
 10
212.07276191558989
 20
274.84230819247887
 11
211.03503191559014
 21
274.84230819247887
  0
LINE
  8
_0-e_極細4
  6
CONTINUOUS
 62
    6
 10
211.03503191559014
 20
277.34230819247887
 11
204.16003191559014
 21
277.34230819247887
  0
LINE
  8
_0-e_極細4
  6
CONTINUOUS
 62
    6
 10
227.5521406655902
 20
275.21730819247909
 11
221.3021406655902
 21
275.21730819247909
  0
LINE
  8
_0-e_極細4
  6
CONTINUOUS
 62
    6
 10
227.5521406655902
 20
275.21730819247909
 11
227.5521406655902
 21
277.34230819247887
  0
LINE
  8
_0-e_極細4
  6
CONTINUOUS
 62
    6
 10
221.3021406655902
 20
275.21730819247909
 11
221.3021406655902
 21
277.34230819247887
  0
LINE
  8
_0-e_極細4
  6
CONTINUOUS
 62
    6
 10
206.72253191558994
 20
296.34230819247892
 11
206.72253191558994
 21
297.96730819247892
  0
LINE
  8
_0-e_極細4
  6
CONTINUOUS
 62
    6
 10
264.78503191559014
 20
298.59230819247892
 11
207.34753191558994
 21
298.59230819247892
  0
LINE
  8
_0-e_極細4
  6
CONTINUOUS
 62
    6
 10
209.41003191558991
 20
296.09230819247892
 11
206.97253191558971
 21
296.09230819247892
  0
LINE
  8
_0-e_極細4
  6
CONTINUOUS
 62
    6
 10
209.4100319155902
 20
292.34230819247892
 11
209.41003191558991
 21
296.09230819247892
  0
ARC
  8
_0-e_極細4
  6
CONTINUOUS
 62
    6
 10
207.34753191558994
 20
297.96730819247892
 40
0.625
 50
155.9454510000046
 51
179.99999999999983
  0
ARC
  8
_0-e_極細4
  6
CONTINUOUS
 62
    6
 10
206.97253191558971
 20
296.34230819247892
 40
0.2499999999999857
 50
179.99999999999983
 51
269.99999999999977
  0
ARC
  8
_0-e_極細4
  6
CONTINUOUS
 62
    6
 10
207.34753191558994
 20
297.96730819247892
 40
0.625
 50
89.999999999999915
 51
155.9454510000046
  0
LINE
  8
_0-e_極細4
  6
CONTINUOUS
 62
    6
 10
264.53503191558991
 20
292.96730819247892
 11
210.78503191558994
 21
292.96730819247892
  0
LINE
  8
_0-e_極細4
  6
CONTINUOUS
 62
    6
 10
264.53503191558991
 20
291.71730819247892
 11
210.0350319155902
 21
291.71730819247892
  0
LINE
  8
_0-e_極細4
  6
CONTINUOUS
 62
    6
 10
264.78503191559042
 20
290.34994569247903
 11
209.59753191558988
 21
290.3499456924788
  0
LINE
  8
_0-e_極細4
  6
CONTINUOUS
 62
    6
 10
215.09753191559014
 20
290.3499456924788
 11
215.09753191559014
 21
289.7249456924788
  0
LINE
  8
_0-e_極細4
  6
CONTINUOUS
 62
    6
 10
210.59753191558997
 20
288.4749456924788
 11
209.59753191558988
 21
290.3499456924788
  0
LINE
  8
_0-e_極細4
  6
CONTINUOUS
 62
    6
 10
215.72253191559042
 20
286.22494569247908
 11
215.09753191559014
 21
286.84994569247908
  0
LINE
  8
_0-e_極細4
  6
CONTINUOUS
 62
    6
 10
215.09753191559014
 20
285.5999456924788
 11
215.72253191559042
 21
286.22494569247908
  0
LINE
  8
_0-e_極細4
  6
CONTINUOUS
 62
    6
 10
215.09753191559014
 20
288.4749456924788
 11
215.72253191559042
 21
289.0999456924788
  0
LINE
  8
_0-e_極細4
  6
CONTINUOUS
 62
    6
 10
215.72253191559042
 20
289.0999456924788
 11
215.09753191559014
 21
289.7249456924788
  0
LINE
  8
_0-e_極細4
  6
CONTINUOUS
 62
    6
 10
264.78503191559042
 20
289.09994569247903
 11
215.72253191559042
 21
289.0999456924788
  0
LINE
  8
_0-e_極細4
  6
CONTINUOUS
 62
    6
 10
264.78503191559042
 20
286.22494569247908
 11
215.72253191559042
 21
286.22494569247908
  0
LINE
  8
_0-e_極細4
  6
CONTINUOUS
 62
    6
 10
264.78503191559042
 20
284.97494569247908
 11
210.59753191558997
 21
284.97494569247908
  0
LINE
  8
_0-e_極細4
  6
CONTINUOUS
 62
    6
 10
210.59753191558997
 20
288.4749456924788
 11
210.59753191558997
 21
284.97494569247908
  0
LINE
  8
_0-e_極細4
  6
CONTINUOUS
 62
    6
 10
215.09753191559014
 20
285.5999456924788
 11
215.09753191559014
 21
284.97494569247908
  0
LINE
  8
_0-e_極細4
  6
CONTINUOUS
 62
    6
 10
215.09753191559014
 20
288.4749456924788
 11
215.09753191559014
 21
286.84994569247908
  0
LINE
  8
_0-e_極細4
  6
CONTINUOUS
 62
    6
 10
210.41003191559014
 20
282.96828194247882
 11
210.41003191559014
 21
284.84328194247882
  0
LINE
  8
_0-e_極細4
  6
CONTINUOUS
 62
    6
 10
210.41003191559014
 20
284.84328194247882
 11
264.78503191559042
 21
284.84328194247888
  0
LINE
  8
_0-e_極細4
  6
CONTINUOUS
 62
    6
 10
210.41003191559014
 20
290.59328194247888
 11
264.78503191559042
 21
290.59328194247888
  0
LINE
  8
_0-e_極細4
  6
CONTINUOUS
 62
    6
 10
210.41003191559014
 20
290.59328194247888
 11
210.41003191559014
 21
291.71730819247892
  0
LINE
  8
_0-e_極細4
  6
CONTINUOUS
 62
    6
 10
231.03503191559042
 20
273.70847819247888
 11
204.16003191559014
 21
273.70847819247888
  0
LINE
  8
_0-e_極細4
  6
CONTINUOUS
 62
    6
 10
231.03503191559042
 20
272.33889819247895
 11
231.03503191559042
 21
274.1860894424791
  0
LINE
  8
_0-e_極細4
  6
CONTINUOUS
 62
    6
 10
202.31128191559009
 20
299.21730819247892
 11
193.66003191558988
 21
300.44950446081663
  0
LINE
  8
_0-e_極細4
  6
CONTINUOUS
 62
    6
 10
216.97253191559042
 20
266.20847819247888
 11
231.03503191559042
 21
266.20847819247888
  0
LINE
  8
_0-e_極細4
  6
CONTINUOUS
 62
    6
 10
231.03503191559042
 20
272.70847819247882
 11
202.31128191559009
 21
272.70847819247882
  0
LINE
  8
_0-e_極細4
  6
CONTINUOUS
 62
    6
 10
193.66003191558988
 20
299.58347819247894
 11
193.66003191558988
 21
300.44950446081663
  0
LINE
  8
_0-e_極細4
  6
CONTINUOUS
 62
    6
 10
323.69128192031974
 20
237.62022011600862
 11
313.84753191558946
 21
237.62022011600862
  0
LINE
  8
_0-e_極細4
  6
CONTINUOUS
 62
    6
 10
298.53503191559014
 20
200.4682610424743
 11
298.53503191559014
 21
274.1860894424791
  0
ARC
  8
_0-e_極細4
  6
CONTINUOUS
 62
    6
 10
297.28503191559014
 20
200.4682610424743
 40
1.25
 50
269.99954163374383
 51
359.99999999999966
  0
LINE
  8
_0-e_極細4
  6
CONTINUOUS
 62
    6
 10
297.28503191559014
 20
199.21826104247415
 11
264.78503191559014
 21
199.21826104247415
  0
LINE
  8
_0-e_極細4
  6
CONTINUOUS
 62
    6
 10
313.84753191558946
 20
192.70845729247418
 11
313.84753191558946
 21
226.45845729247418
  0
LINE
  8
_0-e_極細4
  6
CONTINUOUS
 62
    6
 10
298.84753191558946
 20
177.70845729247418
 11
296.03503191558946
 21
177.70845729247418
  0
ARC
  8
_0-e_極細4
  6
CONTINUOUS
 62
    6
 10
298.84753191558946
 20
192.70845729247418
 40
15
 50
269.99999999999977
 51
359.99999999999966
  0
LINE
  8
_0-e_極細4
  6
CONTINUOUS
 62
    6
 10
264.78503191559014
 20
177.70845729247418
 11
265.94882441558991
 21
177.70845729247418
  0
LINE
  8
_0-e_極細4
  6
CONTINUOUS
 62
    6
 10
265.94882441558991
 20
177.70845729247418
 11
298.84753191558946
 21
177.70845729247418
  0
LINE
  8
_0-e_極細4
  6
CONTINUOUS
 62
    6
 10
313.84753191558946
 20
192.70845729247418
 11
313.84753191558946
 21
264.95847819247894
  0
LINE
  8
_0-e_極細4
  6
CONTINUOUS
 62
    6
 10
311.34753191559014
 20
192.70845729247418
 11
311.34753191559014
 21
264.95847819247894
  0
LINE
  8
_0-e_極細4
  6
CONTINUOUS
 62
    6
 10
264.78503191559014
 20
180.20845729247426
 11
298.84753191558946
 21
180.20845729247426
  0
ARC
  8
_0-e_極細4
  6
CONTINUOUS
 62
    6
 10
298.84753191558946
 20
192.70845729247418
 40
12.5
 50
269.99999999999977
 51
359.99999999999966
  0
LINE
  8
_0-e_極細4
  6
CONTINUOUS
 62
    6
 10
315.09753191559014
 20
282.96828194247888
 11
264.78503191559014
 21
282.96828194247888
  0
LINE
  8
_0-e_極細4
  6
CONTINUOUS
 62
    6
 10
315.09753191559014
 20
277.46828194247888
 11
315.09753191559014
 21
282.96828194247888
  0
LINE
  8
_0-e_極細4
  6
CONTINUOUS
 62
    6
 10
319.16003191559014
 20
282.96828194247882
 11
315.09753191559014
 21
282.96828194247882
  0
LINE
  8
_0-e_極細4
  6
CONTINUOUS
 62
    6
 10
317.91003191559014
 20
277.46828194247888
 11
315.09753191559014
 21
277.46828194247888
  0
LINE
  8
_0-e_極細4
  6
CONTINUOUS
 62
    6
 10
317.91003191559014
 20
276.21828194247888
 11
317.91003191559014
 21
277.46828194247888
  0
ARC
  8
_0-e_極細4
  6
CONTINUOUS
 62
    6
 10
315.41003191559014
 20
276.21828194247888
 40
2.5
 50
269.99999999999977
 51
359.99999999999966
  0
LINE
  8
_0-e_極細4
  6
CONTINUOUS
 62
    6
 10
315.41003191559014
 20
273.718281942479
 11
311.66003191559014
 21
273.718281942479
  0
ARC
  8
_0-e_極細4
  6
CONTINUOUS
 62
    6
 10
327.25878191559002
 20
297.02980819247892
 40
1.3125000000000142
 50
89.999999999999915
 51
175.84900999999832
  0
LINE
  8
_0-e_極細4
  6
CONTINUOUS
 62
    6
 10
327.25878191559002
 20
279.19105819247881
 11
327.25878191559002
 21
298.34230819247909
  0
LINE
  8
_0-e_極細4
  6
CONTINUOUS
 62
    6
 10
327.25878191559002
 20
298.33347750966533
 11
335.91003191558991
 21
299.56567444247872
  0
LINE
  8
_0-e_極細4
  6
CONTINUOUS
 62
    6
 10
331.03503191558951
 20
269.95847819247888
 11
331.03503191558951
 21
279.95847819247888
  0
ARC
  8
_0-e_極細4
  6
CONTINUOUS
 62
    6
 10
334.16003191558951
 20
264.54581944247894
 40
6.25
 50
120.00000000000043
 51
179.99999999999983
  0
LINE
  8
_0-e_極細4
  6
CONTINUOUS
 62
    6
 10
335.91003191558991
 20
279.95847819247888
 11
335.91003191558991
 21
280.65252944247896
  0
LINE
  8
_0-e_極細4
  6
CONTINUOUS
 62
    6
 10
331.03503191558951
 20
279.95847819247888
 11
335.91003191558991
 21
279.95847819247888
  0
LINE
  8
_0-e_極細4
  6
CONTINUOUS
 62
    6
 10
335.91003191558991
 20
280.65252944247896
 11
335.91003191558991
 21
300.43170069247896
  0
LINE
  8
_0-e_極細4
  6
CONTINUOUS
 62
    6
 10
325.41003191559014
 20
273.70847819247888
 11
325.41003191559014
 21
277.34230819247887
  0
LINE
  8
_0-e_極細4
  6
CONTINUOUS
 62
    6
 10
327.25878191558957
 20
272.70847819247882
 11
325.41003191559014
 21
273.70847819247888
  0
LINE
  8
_0-e_極細4
  6
CONTINUOUS
 62
    6
 10
335.91003191558991
 20
297.45847819247894
 11
327.25878191559002
 21
296.45847819247894
  0
ARC
  8
_0-e_極細4
  6
CONTINUOUS
 62
    6
 10
312.59753191559014
 20
264.95847819247894
 40
1.25
 50
0
 51
89.999999999999915
  0
ARC
  8
_0-e_極細4
  6
CONTINUOUS
 62
    6
 10
312.59753191559014
 20
264.95847819247894
 40
1.25
 50
89.999999999999915
 51
179.99999999999983
  0
LINE
  8
_0-e_極細4
  6
CONTINUOUS
 62
    6
 10
264.78503191559014
 20
299.21730819247892
 11
327.25878191559002
 21
299.21730819247892
  0
LINE
  8
_0-e_極細4
  6
CONTINUOUS
 62
    6
 10
315.09753191559014
 20
282.34230819247887
 11
320.16003191558946
 21
282.34230819247887
  0
LINE
  8
_0-e_極細4
  6
CONTINUOUS
 62
    6
 10
323.83656191558964
 20
296.09230819247892
 11
322.34753191558946
 21
296.09230819247892
  0
LINE
  8
_0-e_極細4
  6
CONTINUOUS
 62
    6
 10
320.16003191558946
 20
280.71730819247892
 11
320.16003191558946
 21
293.90480819247892
  0
LINE
  8
_0-e_極細4
  6
CONTINUOUS
 62
    6
 10
322.91003191559014
 20
296.09230819247892
 11
322.91003191559014
 21
299.21730819247892
  0
ARC
  8
_0-e_極細4
  6
CONTINUOUS
 62
    6
 10
322.34753191558946
 20
293.90480819247892
 40
2.1874999999999996
 50
89.999999999999915
 51
179.99999999999983
  0
ARC
  8
_0-e_極細4
  6
CONTINUOUS
 62
    6
 10
327.25878191559002
 20
297.02980819247892
 40
2.1874999999999996
 50
89.999999999999915
 51
175.84901000000326
  0
ARC
  8
_0-e_極細4
  6
CONTINUOUS
 62
    6
 10
323.83656191558964
 20
297.34230819247892
 40
1.25
 50
269.99999999999977
 51
356.64911200000347
  0
ARC
  8
_0-e_極細4
  6
CONTINUOUS
 62
    6
 10
323.83656191558964
 20
297.34230819247892
 40
2.1249999999999858
 50
269.99999999999977
 51
356.64911199999921
  0
LINE
  8
_0-e_極細4
  6
CONTINUOUS
 62
    6
 10
323.83656191558964
 20
295.21730819247909
 11
322.34753191558946
 21
295.21730819247909
  0
ARC
  8
_0-e_極細4
  6
CONTINUOUS
 62
    6
 10
322.34753191558946
 20
293.90480819247892
 40
1.3125000000000142
 50
89.999999999999915
 51
179.99999999999983
  0
LINE
  8
_0-e_極細4
  6
CONTINUOUS
 62
    6
 10
321.03503191559014
 20
279.84230819247887
 11
321.03503191559014
 21
293.90480819247892
  0
LINE
  8
_0-e_極細4
  6
CONTINUOUS
 62
    6
 10
327.25878191559002
 20
279.19105819247881
 11
325.41003191559014
 21
277.34230819247887
  0
LINE
  8
_0-e_極細4
  6
CONTINUOUS
 62
    6
 10
318.53503191558946
 20
274.84230819247887
 11
318.53503191558946
 21
282.34230819247887
  0
LINE
  8
_0-e_極細4
  6
CONTINUOUS
 62
    6
 10
318.53503191558946
 20
279.84230819247887
 11
321.03503191559014
 21
279.84230819247887
  0
LINE
  8
_0-e_極細4
  6
CONTINUOUS
 62
    6
 10
318.53503191558946
 20
280.71730819247892
 11
320.16003191558946
 21
280.71730819247892
  0
LINE
  8
_0-e_極細4
  6
CONTINUOUS
 62
    6
 10
317.49730191558996
 20
274.84230819247887
 11
318.53503191558946
 21
274.84230819247887
  0
LINE
  8
_0-e_極細4
  6
CONTINUOUS
 62
    6
 10
318.53503191558946
 20
277.34230819247887
 11
325.41003191559014
 21
277.34230819247887
  0
LINE
  8
_0-e_極細4
  6
CONTINUOUS
 62
    6
 10
302.01792316558965
 20
275.21730819247909
 11
308.26792316558965
 21
275.21730819247909
  0
LINE
  8
_0-e_極細4
  6
CONTINUOUS
 62
    6
 10
302.01792316558965
 20
275.21730819247909
 11
302.01792316558965
 21
277.34230819247887
  0
LINE
  8
_0-e_極細4
  6
CONTINUOUS
 62
    6
 10
308.26792316558965
 20
275.21730819247909
 11
308.26792316558965
 21
277.34230819247887
  0
LINE
  8
_0-e_極細4
  6
CONTINUOUS
 62
    6
 10
322.84753191558991
 20
296.34230819247892
 11
322.84753191558991
 21
297.96730819247892
  0
LINE
  8
_0-e_極細4
  6
CONTINUOUS
 62
    6
 10
264.78503191559014
 20
298.59230819247892
 11
322.22253191558991
 21
298.59230819247892
  0
LINE
  8
_0-e_極細4
  6
CONTINUOUS
 62
    6
 10
320.16003191558946
 20
296.09230819247892
 11
322.59753191559014
 21
296.09230819247892
  0
LINE
  8
_0-e_極細4
  6
CONTINUOUS
 62
    6
 10
320.16003191558946
 20
292.34230819247892
 11
320.16003191558946
 21
296.09230819247892
  0
ARC
  8
_0-e_極細4
  6
CONTINUOUS
 62
    6
 10
322.22253191558991
 20
297.96730819247892
 40
0.625
 50
0
 51
24.054549000003899
  0
ARC
  8
_0-e_極細4
  6
CONTINUOUS
 62
    6
 10
322.59753191559014
 20
296.34230819247892
 40
0.2499999999999857
 50
269.99999999999977
 51
359.99999999999966
  0
ARC
  8
_0-e_極細4
  6
CONTINUOUS
 62
    6
 10
322.22253191558991
 20
297.96730819247892
 40
0.625
 50
24.054549000003899
 51
89.999999999999915
  0
LINE
  8
_0-e_極細4
  6
CONTINUOUS
 62
    6
 10
265.03503191558991
 20
292.96730819247892
 11
318.78503191558991
 21
292.96730819247892
  0
LINE
  8
_0-e_極細4
  6
CONTINUOUS
 62
    6
 10
265.03503191558991
 20
291.71730819247892
 11
319.53503191558951
 21
291.71730819247892
  0
LINE
  8
_0-e_極細4
  6
CONTINUOUS
 62
    6
 10
264.78503191559014
 20
290.34994569247903
 11
319.97253191558997
 21
290.3499456924788
  0
LINE
  8
_0-e_極細4
  6
CONTINUOUS
 62
    6
 10
314.47253191559014
 20
290.3499456924788
 11
314.47253191559014
 21
289.7249456924788
  0
LINE
  8
_0-e_極細4
  6
CONTINUOUS
 62
    6
 10
318.97253191558991
 20
288.4749456924788
 11
319.97253191558997
 21
290.3499456924788
  0
LINE
  8
_0-e_極細4
  6
CONTINUOUS
 62
    6
 10
313.84753191558946
 20
286.22494569247908
 11
314.47253191559014
 21
286.84994569247908
  0
LINE
  8
_0-e_極細4
  6
CONTINUOUS
 62
    6
 10
314.47253191559014
 20
285.5999456924788
 11
313.84753191558946
 21
286.22494569247908
  0
LINE
  8
_0-e_極細4
  6
CONTINUOUS
 62
    6
 10
314.47253191559014
 20
288.4749456924788
 11
313.84753191558946
 21
289.0999456924788
  0
LINE
  8
_0-e_極細4
  6
CONTINUOUS
 62
    6
 10
313.84753191558946
 20
289.0999456924788
 11
314.47253191559014
 21
289.7249456924788
  0
LINE
  8
_0-e_極細4
  6
CONTINUOUS
 62
    6
 10
264.78503191559014
 20
289.09994569247903
 11
313.84753191558946
 21
289.0999456924788
  0
LINE
  8
_0-e_極細4
  6
CONTINUOUS
 62
    6
 10
264.78503191559014
 20
286.22494569247908
 11
313.84753191558946
 21
286.22494569247908
  0
LINE
  8
_0-e_極細4
  6
CONTINUOUS
 62
    6
 10
264.78503191559014
 20
284.97494569247908
 11
318.97253191558991
 21
284.97494569247908
  0
LINE
  8
_0-e_極細4
  6
CONTINUOUS
 62
    6
 10
318.97253191558991
 20
288.4749456924788
 11
318.97253191558991
 21
284.97494569247908
  0
LINE
  8
_0-e_極細4
  6
CONTINUOUS
 62
    6
 10
314.47253191559014
 20
285.5999456924788
 11
314.47253191559014
 21
284.97494569247908
  0
LINE
  8
_0-e_極細4
  6
CONTINUOUS
 62
    6
 10
314.47253191559014
 20
288.4749456924788
 11
314.47253191559014
 21
286.84994569247908
  0
LINE
  8
_0-e_極細4
  6
CONTINUOUS
 62
    6
 10
319.16003191559014
 20
282.96828194247882
 11
319.16003191559014
 21
284.84328194247882
  0
LINE
  8
_0-e_極細4
  6
CONTINUOUS
 62
    6
 10
319.16003191559014
 20
284.84328194247882
 11
264.78503191559014
 21
284.84328194247888
  0
LINE
  8
_0-e_極細4
  6
CONTINUOUS
 62
    6
 10
319.16003191559014
 20
290.59328194247888
 11
264.78503191559014
 21
290.59328194247888
  0
LINE
  8
_0-e_極細4
  6
CONTINUOUS
 62
    6
 10
319.16003191559014
 20
290.59328194247888
 11
319.16003191559014
 21
291.71730819247892
  0
LINE
  8
_0-e_極細4
  6
CONTINUOUS
 62
    6
 10
298.53503191559014
 20
273.70847819247888
 11
325.41003191559014
 21
273.70847819247888
  0
LINE
  8
_0-e_極細4
  6
CONTINUOUS
 62
    6
 10
298.53503191559014
 20
272.33889819247895
 11
298.53503191559014
 21
274.1860894424791
  0
LINE
  8
_0-e_極細4
  6
CONTINUOUS
 62
    6
 10
327.25878191559002
 20
299.21730819247892
 11
335.91003191558991
 21
300.44950446081663
  0
LINE
  8
_0-e_極細4
  6
CONTINUOUS
 62
    6
 10
312.59753191559014
 20
266.20847819247888
 11
298.53503191559014
 21
266.20847819247888
  0
LINE
  8
_0-e_極細4
  6
CONTINUOUS
 62
    6
 10
298.53503191559014
 20
272.70847819247882
 11
327.25878191558957
 21
272.70847819247882
  0
LINE
  8
_0-e_極細4
  6
CONTINUOUS
 62
    6
 10
335.91003191558991
 20
299.58347819247894
 11
335.91003191558991
 21
300.44950446081663
  0
LINE
  8
_0-e_極細4
  6
CONTINUOUS
 62
    6
 10
193.66003191558988
 20
300.44950446081663
 11
335.91003191558991
 21
300.44950446081663
  0
LINE
  8
_0-e_極細4
  6
CONTINUOUS
 62
    6
 10
327.25878191559002
 20
296.75914201485847
 11
329.85989980895113
 21
296.75914201485847
  0
LINE
  8
_0-e_極細4
  6
CONTINUOUS
 62
    6
 10
327.25878191559002
 20
297.50914201485858
 11
335.91003191558991
 21
297.50914201485858
  0
LINE
  8
_0-e_極細4
  6
CONTINUOUS
 62
    6
 10
327.25878191559002
 20
298.25914201485836
 11
335.91003191558991
 21
298.25914201485836
  0
LINE
  8
_0-e_極細4
  6
CONTINUOUS
 62
    6
 10
332.00261984838329
 20
299.00914201485864
 11
335.91003191558991
 21
299.00914201485864
  0
LINE
  8
_0-e_極細4
  6
CONTINUOUS
 62
    6
 10
199.71016402222844
 20
296.75914201485847
 11
202.31128191559009
 21
296.75914201485847
  0
LINE
  8
_0-e_極細4
  6
CONTINUOUS
 62
    6
 10
193.66003191558988
 20
297.50914201485858
 11
202.31128191559009
 21
297.50914201485858
  0
LINE
  8
_0-e_極細4
  6
CONTINUOUS
 62
    6
 10
193.66003191558988
 20
298.25914201485836
 11
202.31128191559009
 21
298.25914201485836
  0
LINE
  8
_0-e_極細4
  6
CONTINUOUS
 62
    6
 10
193.66003191558988
 20
299.00914201485864
 11
197.56744398279665
 21
299.00914201485864
  0
ARC
  8
_0-e_極細4
  6
CONTINUOUS
 62
    6
 10
306.03503191559014
 20
274.1860894424791
 40
7.5
 50
155.11305268293245
 51
179.99999999999983
  0
ARC
  8
_0-e_極細4
  6
CONTINUOUS
 62
    6
 10
306.03503191559014
 20
274.1860894424791
 40
7.5
 50
55.166292356157925
 51
155.11305268293245
  0
ARC
  8
_0-e_極細4
  6
CONTINUOUS
 62
    6
 10
307.91003191559014
 20
277.46828194247888
 40
3.75
 50
358.07490068720398
 51
50.029499419969213
  0
LINE
  8
_0-e_極細4
  6
CONTINUOUS
 62
    6
 10
299.2314826064316
 20
277.34230819247887
 11
311.66003191559014
 21
277.34230819247887
  0
LINE
  8
_0-e_極細4
  6
CONTINUOUS
 62
    6
 10
311.66003191559014
 20
273.718281942479
 11
311.66003191559014
 21
277.34230819247887
  0
LINE
  8
_0-e_極細4
  6
CONTINUOUS
 62
    6
 10
310.92356287850851
 20
277.34230819247887
 11
310.92356287850851
 21
279.7001267255074
  0
LINE
  8
_0-e_極細4
  6
CONTINUOUS
 62
    6
 10
310.17356287850805
 20
277.34230819247887
 11
310.17356287850805
 21
280.44089251443597
  0
LINE
  8
_0-e_極細4
  6
CONTINUOUS
 62
    6
 10
309.42356287850856
 20
277.34230819247887
 11
309.42356287850856
 21
280.8769681525842
  0
LINE
  8
_0-e_極細4
  6
CONTINUOUS
 62
    6
 10
308.67356287850851
 20
277.34230819247887
 11
308.67356287850851
 21
281.20664172543502
  0
LINE
  8
_0-e_極細4
  6
CONTINUOUS
 62
    6
 10
307.92356287850851
 20
277.34230819247887
 11
307.92356287850851
 21
281.44442608403091
  0
LINE
  8
_0-e_極細4
  6
CONTINUOUS
 62
    6
 10
307.17356287850805
 20
277.34230819247887
 11
307.17356287850805
 21
281.59916891368886
  0
LINE
  8
_0-e_極細4
  6
CONTINUOUS
 62
    6
 10
306.42356287850805
 20
277.34230819247887
 11
306.42356287850805
 21
281.67601892751793
  0
LINE
  8
_0-e_極細4
  6
CONTINUOUS
 62
    6
 10
305.67356287850856
 20
277.34230819247887
 11
305.67356287850856
 21
281.67737372057383
  0
LINE
  8
_0-e_極細4
  6
CONTINUOUS
 62
    6
 10
304.92356287850811
 20
277.34230819247887
 11
304.92356287850811
 21
281.60327466192763
  0
LINE
  8
_0-e_極細4
  6
CONTINUOUS
 62
    6
 10
304.17356287850805
 20
277.34230819247887
 11
304.17356287850805
 21
281.45141345617492
  0
LINE
  8
_0-e_極細4
  6
CONTINUOUS
 62
    6
 10
303.42356287850805
 20
277.34230819247887
 11
303.42356287850805
 21
281.21675295799196
  0
LINE
  8
_0-e_極細4
  6
CONTINUOUS
 62
    6
 10
302.67356287850805
 20
277.34230819247887
 11
302.67356287850805
 21
280.89060478012578
  0
LINE
  8
_0-e_極細4
  6
CONTINUOUS
 62
    6
 10
301.92356287850828
 20
277.34230819247887
 11
301.92356287850828
 21
280.45871428038527
  0
LINE
  8
_0-e_極細4
  6
CONTINUOUS
 62
    6
 10
301.17356287850811
 20
277.34230819247887
 11
301.17356287850811
 21
279.8971417799645
  0
LINE
  8
_0-e_極細4
  6
CONTINUOUS
 62
    6
 10
300.42356287850805
 20
277.34230819247887
 11
300.42356287850805
 21
279.16217377113287
  0
LINE
  8
_0-e_極細4
  6
CONTINUOUS
 62
    6
 10
299.67356287850805
 20
277.34230819247887
 11
299.67356287850805
 21
278.15870969745566
  0
ARC
  8
_0-e_極細4
  6
CONTINUOUS
 62
    6
 10
221.66003191559042
 20
277.46828194247888
 40
3.75
 50
129.97050058004376
 51
181.9250993127952
  0
LINE
  8
_0-e_極細4
  6
CONTINUOUS
 62
    6
 10
217.91003191559042
 20
273.718281942479
 11
217.91003191559042
 21
277.34230819247887
  0
ARC
  8
_0-e_極細4
  6
CONTINUOUS
 62
    6
 10
223.53503191559042
 20
274.1860894424791
 40
7.5
 50
24.886947317067573
 51
124.83370764384919
  0
LINE
  8
_0-e_極細4
  6
CONTINUOUS
 62
    6
 10
230.33858122474896
 20
277.34230819247887
 11
217.91003191559042
 21
277.34230819247887
  0
ARC
  8
_0-e_極細4
  6
CONTINUOUS
 62
    6
 10
223.53503191559042
 20
274.1860894424791
 40
7.5
 50
0
 51
24.886947317067573
  0
LINE
  8
_0-e_極細4
  6
CONTINUOUS
 62
    6
 10
229.92356287850853
 20
277.34230819247887
 11
229.92356287850853
 21
278.11504250097067
  0
LINE
  8
_0-e_極細4
  6
CONTINUOUS
 62
    6
 10
229.17356287850851
 20
277.34230819247887
 11
229.17356287850851
 21
279.13148817061102
  0
LINE
  8
_0-e_極細4
  6
CONTINUOUS
 62
    6
 10
228.42356287850848
 20
277.34230819247887
 11
228.42356287850848
 21
279.87399459504496
  0
LINE
  8
_0-e_極細4
  6
CONTINUOUS
 62
    6
 10
227.67356287850873
 20
277.34230819247887
 11
227.67356287850873
 21
280.44089251443626
  0
LINE
  8
_0-e_極細4
  6
CONTINUOUS
 62
    6
 10
226.92356287850856
 20
277.34230819247887
 11
226.92356287850856
 21
280.87696815258471
  0
LINE
  8
_0-e_極細4
  6
CONTINUOUS
 62
    6
 10
226.17356287850853
 20
277.34230819247887
 11
226.17356287850853
 21
281.20664172543508
  0
LINE
  8
_0-e_極細4
  6
CONTINUOUS
 62
    6
 10
225.42356287850851
 20
277.34230819247887
 11
225.42356287850851
 21
281.44442608403102
  0
LINE
  8
_0-e_極細4
  6
CONTINUOUS
 62
    6
 10
224.67356287850805
 20
277.34230819247887
 11
224.67356287850805
 21
281.59916891368925
  0
LINE
  8
_0-e_極細4
  6
CONTINUOUS
 62
    6
 10
223.92356287850873
 20
277.34230819247887
 11
223.92356287850873
 21
281.67601892751793
  0
LINE
  8
_0-e_極細4
  6
CONTINUOUS
 62
    6
 10
223.17356287850828
 20
277.34230819247887
 11
223.17356287850828
 21
281.67737372057377
  0
LINE
  8
_0-e_極細4
  6
CONTINUOUS
 62
    6
 10
222.42356287850853
 20
277.34230819247887
 11
222.42356287850853
 21
281.60327466192763
  0
LINE
  8
_0-e_極細4
  6
CONTINUOUS
 62
    6
 10
221.67356287850808
 20
277.34230819247887
 11
221.67356287850808
 21
281.45141345617492
  0
LINE
  8
_0-e_極細4
  6
CONTINUOUS
 62
    6
 10
220.92356287850805
 20
277.34230819247887
 11
220.92356287850805
 21
281.21675295799196
  0
LINE
  8
_0-e_極細4
  6
CONTINUOUS
 62
    6
 10
220.17356287850802
 20
277.34230819247887
 11
220.17356287850802
 21
280.89060478012573
  0
LINE
  8
_0-e_極細4
  6
CONTINUOUS
 62
    6
 10
219.42356287850828
 20
277.34230819247887
 11
219.42356287850828
 21
280.45871428038527
  0
LINE
  8
_0-e_極細4
  6
CONTINUOUS
 62
    6
 10
218.67356287850811
 20
277.34230819247887
 11
218.67356287850811
 21
279.73621110595622
  0
LINE
  8
_0-e_極細4
  6
CONTINUOUS
 62
    6
 10
217.92356287850808
 20
277.34230819247887
 11
217.92356287850808
 21
277.78655719273831
  0
LINE
  8
_0-e_極細4
  6
CONTINUOUS
 62
    6
 10
307.92356287850851
 20
275.21730819247909
 11
307.92356287850851
 21
277.34230819247887
  0
LINE
  8
_0-e_極細4
  6
CONTINUOUS
 62
    6
 10
307.17356287850851
 20
275.21730819247909
 11
307.17356287850851
 21
277.34230819247887
  0
LINE
  8
_0-e_極細4
  6
CONTINUOUS
 62
    6
 10
306.42356287850805
 20
275.21730819247909
 11
306.42356287850805
 21
277.34230819247887
  0
LINE
  8
_0-e_極細4
  6
CONTINUOUS
 62
    6
 10
305.67356287850856
 20
275.21730819247909
 11
305.67356287850856
 21
277.34230819247887
  0
LINE
  8
_0-e_極細4
  6
CONTINUOUS
 62
    6
 10
304.92356287850851
 20
275.21730819247909
 11
304.92356287850851
 21
277.34230819247887
  0
LINE
  8
_0-e_極細4
  6
CONTINUOUS
 62
    6
 10
304.17356287850851
 20
275.21730819247909
 11
304.17356287850851
 21
277.34230819247887
  0
LINE
  8
_0-e_極細4
  6
CONTINUOUS
 62
    6
 10
303.42356287850805
 20
275.21730819247909
 11
303.42356287850805
 21
277.34230819247887
  0
LINE
  8
_0-e_極細4
  6
CONTINUOUS
 62
    6
 10
302.67356287850805
 20
275.21730819247909
 11
302.67356287850805
 21
277.34230819247887
  0
LINE
  8
_0-e_極細4
  6
CONTINUOUS
 62
    6
 10
226.92356287850856
 20
275.21730819247909
 11
226.92356287850856
 21
277.34230819247887
  0
LINE
  8
_0-e_極細4
  6
CONTINUOUS
 62
    6
 10
226.17356287850853
 20
275.21730819247909
 11
226.17356287850853
 21
277.34230819247887
  0
LINE
  8
_0-e_極細4
  6
CONTINUOUS
 62
    6
 10
225.42356287850851
 20
275.21730819247909
 11
225.42356287850851
 21
277.34230819247887
  0
LINE
  8
_0-e_極細4
  6
CONTINUOUS
 62
    6
 10
224.67356287850848
 20
275.21730819247909
 11
224.67356287850848
 21
277.34230819247887
  0
LINE
  8
_0-e_極細4
  6
CONTINUOUS
 62
    6
 10
223.92356287850873
 20
275.21730819247909
 11
223.92356287850873
 21
277.34230819247887
  0
LINE
  8
_0-e_極細4
  6
CONTINUOUS
 62
    6
 10
223.17356287850856
 20
275.21730819247909
 11
223.17356287850856
 21
277.34230819247887
  0
LINE
  8
_0-e_極細4
  6
CONTINUOUS
 62
    6
 10
222.42356287850853
 20
275.21730819247909
 11
222.42356287850853
 21
277.34230819247887
  0
LINE
  8
_0-e_極細4
  6
CONTINUOUS
 62
    6
 10
221.67356287850851
 20
275.21730819247909
 11
221.67356287850851
 21
277.34230819247887
  0
LINE
  8
_0-e_極細4
  6
CONTINUOUS
 62
    6
 10
214.17356287850851
 20
277.46828194247888
 11
214.17356287850851
 21
282.34230819247887
  0
LINE
  8
_0-e_極細4
  6
CONTINUOUS
 62
    6
 10
213.42356287850848
 20
277.46828194247888
 11
213.42356287850848
 21
282.34230819247887
  0
LINE
  8
_0-e_極細4
  6
CONTINUOUS
 62
    6
 10
212.67356287850831
 20
277.46828194247888
 11
212.67356287850831
 21
282.34230819247887
  0
LINE
  8
_0-e_極細4
  6
CONTINUOUS
 62
    6
 10
211.92356287850856
 20
274.84230819247887
 11
211.92356287850856
 21
275.1010504328197
  0
LINE
  8
_0-e_極細4
  6
CONTINUOUS
 62
    6
 10
211.92356287850856
 20
277.46828194247888
 11
211.92356287850856
 21
282.34230819247887
  0
LINE
  8
_0-e_極細4
  6
CONTINUOUS
 62
    6
 10
211.17356287850853
 20
274.84230819247887
 11
211.17356287850853
 21
282.34230819247887
  0
LINE
  8
_0-e_極細4
  6
CONTINUOUS
 62
    6
 10
318.42356287850851
 20
274.84230819247887
 11
318.42356287850851
 21
282.34230819247887
  0
LINE
  8
_0-e_極細4
  6
CONTINUOUS
 62
    6
 10
317.67356287850805
 20
274.84230819247887
 11
317.67356287850805
 21
275.1569490164336
  0
LINE
  8
_0-e_極細4
  6
CONTINUOUS
 62
    6
 10
317.67356287850805
 20
277.46828194247888
 11
317.67356287850805
 21
282.34230819247887
  0
LINE
  8
_0-e_極細4
  6
CONTINUOUS
 62
    6
 10
316.92356287850856
 20
277.46828194247888
 11
316.92356287850856
 21
282.34230819247887
  0
LINE
  8
_0-e_極細4
  6
CONTINUOUS
 62
    6
 10
316.17356287850851
 20
277.46828194247888
 11
316.17356287850851
 21
282.34230819247887
  0
LINE
  8
_0-e_極細4
  6
CONTINUOUS
 62
    6
 10
315.42356287850851
 20
277.46828194247888
 11
315.42356287850851
 21
282.34230819247887
  0
LINE
  8
_0-e_極細4
  6
CONTINUOUS
 62
    6
 10
326.67356287850851
 20
278.6058391553978
 11
326.67356287850851
 21
298.2046166571393
  0
LINE
  8
_0-e_極細4
  6
CONTINUOUS
 62
    6
 10
325.92356287850856
 20
277.85583915539763
 11
325.92356287850856
 21
296.94224322178451
  0
LINE
  8
_0-e_極細4
  6
CONTINUOUS
 62
    6
 10
325.17356287850811
 20
277.34230819247887
 11
325.17356287850811
 21
295.69062619368043
  0
LINE
  8
_0-e_極細4
  6
CONTINUOUS
 62
    6
 10
324.42356287850851
 20
277.34230819247887
 11
324.42356287850851
 21
295.29999213722868
  0
LINE
  8
_0-e_極細4
  6
CONTINUOUS
 62
    6
 10
323.67356287850851
 20
277.34230819247887
 11
323.67356287850851
 21
295.21730819247909
  0
LINE
  8
_0-e_極細4
  6
CONTINUOUS
 62
    6
 10
322.92356287850851
 20
277.34230819247887
 11
322.92356287850851
 21
295.21730819247909
  0
LINE
  8
_0-e_極細4
  6
CONTINUOUS
 62
    6
 10
322.17356287850856
 20
277.34230819247887
 11
322.17356287850856
 21
295.20572749210379
  0
LINE
  8
_0-e_極細4
  6
CONTINUOUS
 62
    6
 10
321.42356287850811
 20
277.34230819247887
 11
321.42356287850811
 21
294.83697634711342
  0
LINE
  8
_0-e_極細4
  6
CONTINUOUS
 62
    6
 10
320.67356287850851
 20
277.34230819247887
 11
320.67356287850851
 21
279.84230819247887
  0
LINE
  8
_0-e_極細4
  6
CONTINUOUS
 62
    6
 10
319.92356287850811
 20
277.34230819247887
 11
319.92356287850811
 21
279.84230819247887
  0
LINE
  8
_0-e_極細4
  6
CONTINUOUS
 62
    6
 10
319.17356287850805
 20
277.34230819247887
 11
319.17356287850805
 21
279.84230819247887
  0
LINE
  8
_0-e_極細4
  6
CONTINUOUS
 62
    6
 10
210.42356287850851
 20
277.34230819247887
 11
210.42356287850851
 21
279.84230819247887
  0
LINE
  8
_0-e_極細4
  6
CONTINUOUS
 62
    6
 10
209.67356287850848
 20
277.34230819247887
 11
209.67356287850848
 21
279.84230819247887
  0
LINE
  8
_0-e_極細4
  6
CONTINUOUS
 62
    6
 10
208.92356287850831
 20
277.34230819247887
 11
208.92356287850831
 21
279.84230819247887
  0
LINE
  8
_0-e_極細4
  6
CONTINUOUS
 62
    6
 10
208.17356287850856
 20
277.34230819247887
 11
208.17356287850856
 21
294.80935026312596
  0
LINE
  8
_0-e_極細4
  6
CONTINUOUS
 62
    6
 10
207.42356287850853
 20
277.34230819247887
 11
207.42356287850853
 21
295.20182122323371
  0
LINE
  8
_0-e_極細4
  6
CONTINUOUS
 62
    6
 10
206.67356287850851
 20
277.34230819247887
 11
206.67356287850851
 21
295.21730819247909
  0
LINE
  8
_0-e_極細4
  6
CONTINUOUS
 62
    6
 10
205.92356287850833
 20
277.34230819247887
 11
205.92356287850833
 21
295.21730819247909
  0
LINE
  8
_0-e_極細4
  6
CONTINUOUS
 62
    6
 10
205.17356287850831
 20
277.34230819247887
 11
205.17356287850831
 21
295.29240739615932
  0
LINE
  8
_0-e_極細4
  6
CONTINUOUS
 62
    6
 10
204.42356287850856
 20
277.34230819247887
 11
204.42356287850856
 21
295.66908235024181
  0
LINE
  8
_0-e_極細4
  6
CONTINUOUS
 62
    6
 10
203.67356287850853
 20
277.82877722956061
 11
203.67356287850853
 21
296.82050730755515
  0
LINE
  8
_0-e_極細4
  6
CONTINUOUS
 62
    6
 10
202.92356287850808
 20
278.57877722956056
 11
202.92356287850808
 21
298.19074241647616
  0
LINE
  8
_0-e_極細4
  6
CONTINUOUS
 62
    6
 10
314.47253191559014
 20
285.50914201485847
 11
318.97253191558991
 21
285.50914201485847
  0
LINE
  8
_0-e_極細4
  6
CONTINUOUS
 62
    6
 10
313.88172823796907
 20
286.25914201485858
 11
318.97253191558991
 21
286.25914201485858
  0
LINE
  8
_0-e_極細4
  6
CONTINUOUS
 62
    6
 10
314.47253191559014
 20
287.00914201485836
 11
318.97253191558991
 21
287.00914201485836
  0
LINE
  8
_0-e_極細4
  6
CONTINUOUS
 62
    6
 10
314.47253191559014
 20
287.75914201485864
 11
318.97253191558991
 21
287.75914201485864
  0
LINE
  8
_0-e_極細4
  6
CONTINUOUS
 62
    6
 10
314.4383355932095
 20
288.50914201485853
 11
318.99076995419222
 21
288.50914201485853
  0
LINE
  8
_0-e_極細4
  6
CONTINUOUS
 62
    6
 10
314.00672823796953
 20
289.25914201485847
 11
319.39076995419225
 21
289.25914201485847
  0
LINE
  8
_0-e_極細4
  6
CONTINUOUS
 62
    6
 10
314.47253191559014
 20
290.00914201485836
 11
319.7907699541928
 21
290.00914201485836
  0
LINE
  8
_0-e_極細4
  6
CONTINUOUS
 62
    6
 10
210.59753191558997
 20
285.50914201485847
 11
215.09753191559014
 21
285.50914201485847
  0
LINE
  8
_0-e_極細4
  6
CONTINUOUS
 62
    6
 10
210.59753191558997
 20
286.25914201485858
 11
215.68833559321035
 21
286.25914201485858
  0
LINE
  8
_0-e_極細4
  6
CONTINUOUS
 62
    6
 10
210.59753191558997
 20
287.00914201485836
 11
215.09753191559014
 21
287.00914201485836
  0
LINE
  8
_0-e_極細4
  6
CONTINUOUS
 62
    6
 10
210.59753191558997
 20
287.75914201485864
 11
215.09753191559014
 21
287.75914201485864
  0
LINE
  8
_0-e_極細4
  6
CONTINUOUS
 62
    6
 10
210.57929387698749
 20
288.50914201485853
 11
215.1317282379695
 21
288.50914201485853
  0
LINE
  8
_0-e_極細4
  6
CONTINUOUS
 62
    6
 10
210.17929387698757
 20
289.25914201485847
 11
215.56333559321033
 21
289.25914201485847
  0
LINE
  8
_0-e_極細4
  6
CONTINUOUS
 62
    6
 10
209.77929387698751
 20
290.00914201485836
 11
215.09753191559014
 21
290.00914201485836
  0
LINE
  8
_0-e_極細4
  6
CONTINUOUS
 62
    6
 10
328.07329191558972
 20
157.52579819247723
 11
372.76717191558953
 21
158.6278381924779
  0
LINE
  8
_0-e_極細4
  6
CONTINUOUS
 62
    6
 10
372.76717191558953
 20
158.6278381924779
 11
372.76717191558953
 21
225.97477819247771
  0
LINE
  8
_0-e_極細4
  6
CONTINUOUS
 62
    6
 10
327.91003191558951
 20
227.08084377831696
 11
372.76717191558953
 21
225.97477819247771
  0
LINE
  8
_0-e_極細4
  6
CONTINUOUS
 62
    6
 10
327.91003191558951
 20
227.08084377831696
 11
327.91003191558951
 21
264.54581944247894
  0
LINE
  8
_0-e_極細4
  6
CONTINUOUS
 62
    6
 10
201.66003191559014
 20
167.52579819247728
 11
201.66003191559014
 21
264.54581944247894
  0
LINE
  8
_0-e_極細4
  6
CONTINUOUS
 62
    6
 10
211.66003191559014
 20
157.52579819247723
 11
328.07329191558972
 21
157.52579819247723
  0
ARC
  8
_0-e_極細4
  6
CONTINUOUS
 62
    6
 10
211.66003191559014
 20
167.52579819247728
 40
10
 50
179.99999999999983
 51
269.99999999999977
  0
LINE
  8
_0-e_極細4
  6
CONTINUOUS
 62
    6
 10
212.28503191559014
 20
159.97477819247871
 11
328.07329191558972
 21
159.97477819247871
  0
LINE
  8
_0-e_極細4
  6
CONTINUOUS
 62
    6
 10
204.78503191559014
 20
167.47477819247877
 11
204.78503191559014
 21
238.86041604247413
  0
ARC
  8
_0-e_極細4
  6
CONTINUOUS
 62
    6
 10
212.28503191559014
 20
167.47477819247877
 40
7.5
 50
179.99999999999983
 51
269.99999999999977
  0
LINE
  8
_0-e_極細4
  6
CENTER2
 62
    6
 10
264.78503191559014
 20
314.27874567450021
 11
264.78503191559014
 21
133.16954357366868
  0
LINE
  8
_0-e_極細4
  6
CONTINUOUS
 62
    6
 10
324.78503191559014
 20
238.86041604247413
 11
324.78503191559014
 21
272.70847819247882
  0
ARC
  8
_0-e_極細4
  6
CONTINUOUS
 62
    6
 10
323.53503191559014
 20
238.86041604247413
 40
1.25
 50
277.18075599996143
 51
359.99999999999966
  0
LINE
  8
_0-e_極細4
  6
CONTINUOUS
 62
    6
 10
262.60964776573758
 20
157.52579819247723
 11
264.78503191559014
 21
159.70118234232942
  0
LINE
  8
_0-e_極細4
  6
CONTINUOUS
 62
    6
 10
259.95799733628826
 20
157.52579819247723
 11
262.40697733628934
 21
159.97477819247862
  0
LINE
  8
_0-e_極細4
  6
CONTINUOUS
 62
    6
 10
257.30634690683826
 20
157.52579819247723
 11
259.75532690683974
 21
159.97477819247871
  0
LINE
  8
_0-e_極細4
  6
CONTINUOUS
 62
    6
 10
254.65469647738871
 20
157.52579819247723
 11
257.1036764773902
 21
159.97477819247871
  0
LINE
  8
_0-e_極細4
  6
CONTINUOUS
 62
    6
 10
252.00304604793914
 20
157.52579819247723
 11
254.45202604794062
 21
159.97477819247871
  0
LINE
  8
_0-e_極細4
  6
CONTINUOUS
 62
    6
 10
249.35139561848985
 20
157.52579819247714
 11
251.80037561849161
 21
159.97477819247871
  0
LINE
  8
_0-e_極細4
  6
CONTINUOUS
 62
    6
 10
246.69974518904013
 20
157.52579819247723
 11
249.14872518904161
 21
159.97477819247871
  0
LINE
  8
_0-e_極細4
  6
CONTINUOUS
 62
    6
 10
244.04809475959055
 20
157.52579819247723
 11
246.49707475959204
 21
159.97477819247871
  0
LINE
  8
_0-e_極細4
  6
CONTINUOUS
 62
    6
 10
241.39644433014098
 20
157.52579819247723
 11
243.84542433014246
 21
159.97477819247871
  0
LINE
  8
_0-e_極細4
  6
CONTINUOUS
 62
    6
 10
238.74479390069141
 20
157.52579819247723
 11
241.19377390069289
 21
159.97477819247871
  0
LINE
  8
_0-e_極細4
  6
CONTINUOUS
 62
    6
 10
236.09314347124212
 20
157.52579819247714
 11
238.54212347124388
 21
159.97477819247871
  0
LINE
  8
_0-e_極細4
  6
CONTINUOUS
 62
    6
 10
233.4414930417924
 20
157.52579819247723
 11
235.89047304179388
 21
159.97477819247871
  0
LINE
  8
_0-e_極細4
  6
CONTINUOUS
 62
    6
 10
230.78984261234282
 20
157.52579819247714
 11
233.23882261234431
 21
159.97477819247871
  0
LINE
  8
_0-e_極細4
  6
CONTINUOUS
 62
    6
 10
228.13819218289325
 20
157.52579819247714
 11
230.58717218289473
 21
159.97477819247871
  0
LINE
  8
_0-e_極細4
  6
CONTINUOUS
 62
    6
 10
225.48654175344367
 20
157.52579819247723
 11
227.93552175344516
 21
159.97477819247871
  0
LINE
  8
_0-e_極細4
  6
CONTINUOUS
 62
    6
 10
222.83489132399438
 20
157.52579819247723
 11
225.28387132399615
 21
159.97477819247871
  0
LINE
  8
_0-e_極細4
  6
CONTINUOUS
 62
    6
 10
220.18324089454467
 20
157.52579819247714
 11
222.63222089454615
 21
159.97477819247871
  0
LINE
  8
_0-e_極細4
  6
CONTINUOUS
 62
    6
 10
217.53159046509509
 20
157.52579819247714
 11
219.98057046509658
 21
159.97477819247871
  0
LINE
  8
_0-e_極細4
  6
CONTINUOUS
 62
    6
 10
214.87994003564552
 20
157.52579819247714
 11
217.328920035647
 21
159.97477819247871
  0
LINE
  8
_0-e_極細4
  6
CONTINUOUS
 62
    6
 10
212.22828960619594
 20
157.52579819247723
 11
214.67726960619743
 21
159.97477819247871
  0
LINE
  8
_0-e_極細4
  6
CONTINUOUS
 62
    6
 10
209.75899835087503
 20
157.70815736660538
 11
212.02995794703853
 21
159.97911696276915
  0
LINE
  8
_0-e_極細4
  6
CONTINUOUS
 62
    6
 10
207.72973215523905
 20
158.33054160041925
 11
209.79824373002174
 21
160.39905317520166
  0
LINE
  8
_0-e_極細4
  6
CONTINUOUS
 62
    6
 10
206.01739325265243
 20
159.26985312728206
 11
208.0395855174794
 21
161.29204539210903
  0
LINE
  8
_0-e_極細4
  6
CONTINUOUS
 62
    6
 10
204.56981808102469
 20
160.47392838510419
 11
206.6365909772054
 21
162.54070128128447
  0
LINE
  8
_0-e_極細4
  6
CONTINUOUS
 62
    6
 10
203.37306216817879
 20
161.92882290170758
 11
205.57286107197328
 21
164.12862180550235
  0
LINE
  8
_0-e_極細4
  6
CONTINUOUS
 62
    6
 10
202.4419422962545
 20
163.649353459233
 11
204.90905769219501
 21
166.11646885517345
  0
LINE
  8
_0-e_極細4
  6
CONTINUOUS
 62
    6
 10
201.83013409177704
 20
165.68919568420489
 11
204.78503191559014
 21
168.64409350801807
  0
LINE
  8
_0-e_極細4
  6
CONTINUOUS
 62
    6
 10
201.66003191559014
 20
168.17074393746765
 11
204.78503191559014
 21
171.29574393746765
  0
LINE
  8
_0-e_極細4
  6
CONTINUOUS
 62
    6
 10
201.66003191559014
 20
170.82239436691722
 11
204.78503191559014
 21
173.94739436691722
  0
LINE
  8
_0-e_極細4
  6
CONTINUOUS
 62
    6
 10
201.66003191559014
 20
173.4740447963668
 11
204.78503191559014
 21
176.5990447963668
  0
LINE
  8
_0-e_極細4
  6
CONTINUOUS
 62
    6
 10
201.66003191559014
 20
176.12569522581637
 11
204.78503191559014
 21
179.25069522581629
  0
LINE
  8
_0-e_極細4
  6
CONTINUOUS
 62
    6
 10
201.66003191559014
 20
178.7773456552658
 11
204.78503191559014
 21
181.9023456552658
  0
LINE
  8
_0-e_極細4
  6
CONTINUOUS
 62
    6
 10
201.66003191559014
 20
181.42899608471552
 11
204.78503191559014
 21
184.55399608471552
  0
LINE
  8
_0-e_極細4
  6
CONTINUOUS
 62
    6
 10
201.66003191559014
 20
184.0806465141651
 11
204.78503191559014
 21
187.20564651416495
  0
LINE
  8
_0-e_極細4
  6
CONTINUOUS
 62
    6
 10
201.66003191559014
 20
186.73229694361459
 11
204.78503191559014
 21
189.85729694361459
  0
LINE
  8
_0-e_極細4
  6
CONTINUOUS
 62
    6
 10
201.66003191559014
 20
189.3839473730641
 11
204.78503191559014
 21
192.50894737306402
  0
LINE
  8
_0-e_極細4
  6
CONTINUOUS
 62
    6
 10
201.66003191559014
 20
192.03559780251354
 11
204.78503191559014
 21
195.16059780251354
  0
LINE
  8
_0-e_極細4
  6
CONTINUOUS
 62
    6
 10
201.66003191559014
 20
194.68724823196325
 11
204.78503191559014
 21
197.81224823196325
  0
LINE
  8
_0-e_極細4
  6
CONTINUOUS
 62
    6
 10
201.66003191559014
 20
197.33889866141283
 11
204.78503191559014
 21
200.46389866141283
  0
LINE
  8
_0-e_極細4
  6
CONTINUOUS
 62
    6
 10
201.66003191559014
 20
199.99054909086232
 11
204.78503191559014
 21
203.11554909086232
  0
LINE
  8
_0-e_極細4
  6
CONTINUOUS
 62
    6
 10
201.66003191559014
 20
202.64219952031183
 11
204.78503191559014
 21
205.76719952031186
  0
LINE
  8
_0-e_極細4
  6
CONTINUOUS
 62
    6
 10
201.66003191559014
 20
205.2938499497613
 11
204.78503191559014
 21
208.4188499497613
  0
LINE
  8
_0-e_極細4
  6
CONTINUOUS
 62
    6
 10
201.66003191559014
 20
207.94550037921098
 11
204.78503191559014
 21
211.07050037921098
  0
LINE
  8
_0-e_極細4
  6
CONTINUOUS
 62
    6
 10
201.66003191559014
 20
210.59715080866053
 11
204.78503191559014
 21
213.72215080866053
  0
LINE
  8
_0-e_極細4
  6
CONTINUOUS
 62
    6
 10
201.66003191559014
 20
213.24880123811005
 11
204.78503191559014
 21
216.37380123811005
  0
LINE
  8
_0-e_極細4
  6
CONTINUOUS
 62
    6
 10
201.66003191559014
 20
215.90045166755971
 11
204.78503191559014
 21
219.02545166755959
  0
LINE
  8
_0-e_極細4
  6
CONTINUOUS
 62
    6
 10
201.66003191559014
 20
218.55210209700914
 11
204.78503191559014
 21
221.67710209700914
  0
LINE
  8
_0-e_極細4
  6
CONTINUOUS
 62
    6
 10
201.66003191559014
 20
221.20375252645871
 11
204.78503191559014
 21
224.32875252645871
  0
LINE
  8
_0-e_極細4
  6
CONTINUOUS
 62
    6
 10
201.66003191559014
 20
223.85540295590835
 11
204.78503191559014
 21
226.98040295590826
  0
LINE
  8
_0-e_極細4
  6
CONTINUOUS
 62
    6
 10
201.66003191559014
 20
226.50705338535789
 11
204.78503191559014
 21
229.63205338535778
  0
LINE
  8
_0-e_極細4
  6
CONTINUOUS
 62
    6
 10
201.66003191559014
 20
229.15870381480758
 11
204.78503191559014
 21
232.28370381480732
  0
LINE
  8
_0-e_極細4
  6
CONTINUOUS
 62
    6
 10
201.66003191559014
 20
231.81035424425701
 11
204.78503191559014
 21
234.93535424425687
  0
LINE
  8
_0-e_極細4
  6
CONTINUOUS
 62
    6
 10
201.66003191559014
 20
234.46200467370656
 11
204.78503191559014
 21
237.58700467370645
  0
LINE
  8
_0-e_極細4
  6
CONTINUOUS
 62
    6
 10
201.66003191559014
 20
237.11365510315608
 11
204.78503191559014
 21
240.23865510315599
  0
LINE
  8
_0-e_極細4
  6
CONTINUOUS
 62
    6
 10
201.66003191559014
 20
239.76530553260562
 11
204.78503191559014
 21
242.89030553260551
  0
LINE
  8
_0-e_極細4
  6
CONTINUOUS
 62
    6
 10
201.66003191559014
 20
242.41695596205531
 11
204.78503191559014
 21
245.54195596205531
  0
LINE
  8
_0-e_極細4
  6
CONTINUOUS
 62
    6
 10
201.66003191559014
 20
245.06860639150474
 11
204.78503191559014
 21
248.19360639150474
  0
LINE
  8
_0-e_極細4
  6
CONTINUOUS
 62
    6
 10
201.66003191559014
 20
247.72025682095429
 11
204.78503191559014
 21
250.84525682095418
  0
LINE
  8
_0-e_極細4
  6
CONTINUOUS
 62
    6
 10
201.66003191559014
 20
250.37190725040392
 11
204.78503191559014
 21
253.49690725040381
  0
LINE
  8
_0-e_極細4
  6
CONTINUOUS
 62
    6
 10
201.66003191559014
 20
253.02355767985347
 11
204.78503191559014
 21
256.14855767985324
  0
LINE
  8
_0-e_極細4
  6
CONTINUOUS
 62
    6
 10
201.66003191559014
 20
255.67520810930304
 11
204.78503191559014
 21
258.80020810930279
  0
LINE
  8
_0-e_極細4
  6
CONTINUOUS
 62
    6
 10
201.66003191559014
 20
258.32685853875256
 11
204.78503191559014
 21
261.4518585387525
  0
LINE
  8
_0-e_極細4
  6
CONTINUOUS
 62
    6
 10
201.66003191559014
 20
260.97850896820199
 11
204.78503191559014
 21
264.10350896820199
  0
LINE
  8
_0-e_極細4
  6
CONTINUOUS
 62
    6
 10
201.66003191559014
 20
263.63015939765165
 11
204.78503191559014
 21
266.75515939765154
  0
LINE
  8
_0-e_極細4
  6
CONTINUOUS
 62
    6
 10
201.46666556016172
 20
266.08844347167252
 11
204.78503191559014
 21
269.40680982710097
  0
LINE
  8
_0-e_極細4
  6
CONTINUOUS
 62
    6
 10
200.66141457850918
 20
267.9348429194697
 11
204.78503191559014
 21
272.0584602565508
  0
LINE
  8
_0-e_極細4
  6
CONTINUOUS
 62
    6
 10
199.41714785407143
 20
269.34222662448167
 11
202.78339942206884
 21
272.70847819247894
  0
LINE
  8
_0-e_極細4
  6
CONTINUOUS
 62
    6
 10
203.3396497978903
 20
273.26472856830043
 11
204.16003191559014
 21
274.08511068600023
  0
LINE
  8
_0-e_極細4
  6
CONTINUOUS
 62
    6
 10
198.53503191559014
 20
271.11176111544972
 11
204.16003191559014
 21
276.73676111544972
  0
LINE
  8
_0-e_極細4
  6
CONTINUOUS
 62
    6
 10
198.53503191559014
 20
273.76341154489938
 11
203.1369802393798
 21
278.36535986868904
  0
LINE
  8
_0-e_極細4
  6
CONTINUOUS
 62
    6
 10
198.53503191559014
 20
276.41506197434882
 11
202.31128191559009
 21
280.19131197434882
  0
LINE
  8
_0-e_極細4
  6
CONTINUOUS
 62
    6
 10
198.53503191559014
 20
279.06671240379853
 11
202.31128191559009
 21
282.84296240379825
  0
LINE
  8
_0-e_極細4
  6
CONTINUOUS
 62
    6
 10
196.77514727482105
 20
279.95847819247894
 11
202.31128191559009
 21
285.49461283324791
  0
LINE
  8
_0-e_極細4
  6
CONTINUOUS
 62
    6
 10
194.12349684537148
 20
279.95847819247888
 11
202.31128191559009
 21
288.14626326269763
  0
LINE
  8
_0-e_極細4
  6
CONTINUOUS
 62
    6
 10
193.66003191558988
 20
282.14666369214689
 11
202.31128191559009
 21
290.79791369214712
  0
LINE
  8
_0-e_極細4
  6
CONTINUOUS
 62
    6
 10
193.66003191558988
 20
284.79831412159672
 11
202.31128191559009
 21
293.44956412159655
  0
LINE
  8
_0-e_極細4
  6
CONTINUOUS
 62
    6
 10
193.66003191558988
 20
287.44996455104615
 11
202.31128191559009
 21
296.1012145510461
  0
LINE
  8
_0-e_極細4
  6
CONTINUOUS
 62
    6
 10
193.66003191558988
 20
290.10161498049564
 11
200.25462462251099
 21
296.69620768741646
  0
LINE
  8
_0-e_極細4
  6
CONTINUOUS
 62
    6
 10
193.66003191558988
 20
292.7532654099453
 11
197.8777210320149
 21
296.97095452637018
  0
LINE
  8
_0-e_極細4
  6
CONTINUOUS
 62
    6
 10
193.66003191558988
 20
295.40491583939462
 11
195.50081744151896
 21
297.24570136532344
  0
LINE
  8
_0-e_極細4
  6
CONTINUOUS
 62
    6
 10
328.01292191559008
 20
159.9740381924783
 11
372.76717191558953
 21
161.0775667666349
  0
LINE
  8
_0-e_極細4
  6
CONTINUOUS
 62
    6
 10
313.84753191558946
 20
224.97787099915359
 11
372.76717191558953
 21
223.52505961883693
  0
LINE
  8
_0-e_極細4
  6
CONTINUOUS
 62
    6
 10
372.4208150742885
 20
158.61929789359593
 11
372.76717191558953
 21
158.9656547348973
  0
LINE
  8
_0-e_極細4
  6
CONTINUOUS
 62
    6
 10
369.70212859315404
 20
158.55226184191125
 11
372.21378845715515
 21
161.06392170591226
  0
LINE
  8
_0-e_極細4
  6
CONTINUOUS
 62
    6
 10
366.98344211201982
 20
158.48522579022656
 11
369.49510197602092
 21
160.99688565422758
  0
LINE
  8
_0-e_極細4
  6
CONTINUOUS
 62
    6
 10
364.26475563088513
 20
158.4181897385418
 11
366.77641549488624
 21
160.92984960254299
  0
LINE
  8
_0-e_極細4
  6
CONTINUOUS
 62
    6
 10
361.54606914975091
 20
158.35115368685712
 11
364.05772901375315
 21
160.86281355085831
  0
LINE
  8
_0-e_極細4
  6
CONTINUOUS
 62
    6
 10
358.82738266861736
 20
158.28411763517244
 11
361.33904253261846
 21
160.79577749917391
  0
LINE
  8
_0-e_極細4
  6
CONTINUOUS
 62
    6
 10
356.10869618748291
 20
158.21708158348764
 11
358.62035605148446
 21
160.72874144748937
  0
LINE
  8
_0-e_極細4
  6
CONTINUOUS
 62
    6
 10
353.39000970634822
 20
158.15004553180287
 11
355.90166957034978
 21
160.66170539580469
  0
LINE
  8
_0-e_極細4
  6
CONTINUOUS
 62
    6
 10
350.671323225214
 20
158.08300948011819
 11
353.18298308921555
 21
160.59466934412006
  0
LINE
  8
_0-e_極細4
  6
CONTINUOUS
 62
    6
 10
347.95263674407977
 20
158.01597342843351
 11
350.46429660808201
 21
160.52763329243547
  0
LINE
  8
_0-e_極細4
  6
CONTINUOUS
 62
    6
 10
345.23395026294509
 20
157.94893737674883
 11
347.74561012694755
 21
160.46059724075093
  0
LINE
  8
_0-e_極細4
  6
CONTINUOUS
 62
    6
 10
342.51526378181154
 20
157.88190132506401
 11
345.02692364581333
 21
160.39356118906639
  0
LINE
  8
_0-e_極細4
  6
CONTINUOUS
 62
    6
 10
339.79657730067709
 20
157.81486527337933
 11
342.3082371646791
 21
160.32652513738171
  0
LINE
  8
_0-e_極細4
  6
CONTINUOUS
 62
    6
 10
337.07789081954286
 20
157.7478292216945
 11
339.58955068354555
 21
160.25948908569717
  0
LINE
  8
_0-e_極細4
  6
CONTINUOUS
 62
    6
 10
334.35920433840818
 20
157.68079317000982
 11
336.8708642024111
 21
160.19245303401254
  0
LINE
  8
_0-e_極細4
  6
CONTINUOUS
 62
    6
 10
331.64051785727395
 20
157.61375711832505
 11
334.15217772127687
 21
160.12541698232795
  0
LINE
  8
_0-e_極細4
  6
CONTINUOUS
 62
    6
 10
328.92183137613978
 20
157.54672106664026
 11
331.43349124014316
 21
160.05838093064327
  0
LINE
  8
_0-e_極細4
  6
CONTINUOUS
 62
    6
 10
326.24925807252691
 20
157.52579819247714
 11
328.71480475900847
 21
159.99134487895859
  0
LINE
  8
_0-e_極細4
  6
CONTINUOUS
 62
    6
 10
323.59760764307737
 20
157.52579819247723
 11
326.04658764307885
 21
159.97477819247862
  0
LINE
  8
_0-e_極細4
  6
CONTINUOUS
 62
    6
 10
320.94595721362788
 20
157.52579819247723
 11
323.39493721362936
 21
159.97477819247862
  0
LINE
  8
_0-e_極細4
  6
CONTINUOUS
 62
    6
 10
318.2943067841785
 20
157.52579819247714
 11
320.74328678417999
 21
159.97477819247862
  0
LINE
  8
_0-e_極細4
  6
CONTINUOUS
 62
    6
 10
315.64265635472879
 20
157.52579819247723
 11
318.09163635473027
 21
159.97477819247862
  0
LINE
  8
_0-e_極細4
  6
CONTINUOUS
 62
    6
 10
312.99100592527918
 20
157.52579819247723
 11
315.43998592528067
 21
159.97477819247862
  0
LINE
  8
_0-e_極細4
  6
CONTINUOUS
 62
    6
 10
310.33935549582964
 20
157.52579819247723
 11
312.78833549583112
 21
159.97477819247871
  0
LINE
  8
_0-e_極細4
  6
CONTINUOUS
 62
    6
 10
307.68770506638009
 20
157.52579819247723
 11
310.13668506638157
 21
159.97477819247862
  0
LINE
  8
_0-e_極細4
  6
CONTINUOUS
 62
    6
 10
305.03605463693077
 20
157.52579819247723
 11
307.48503463693226
 21
159.97477819247862
  0
LINE
  8
_0-e_極細4
  6
CONTINUOUS
 62
    6
 10
302.38440420748105
 20
157.52579819247723
 11
304.83338420748254
 21
159.97477819247871
  0
LINE
  8
_0-e_極細4
  6
CONTINUOUS
 62
    6
 10
299.73275377803145
 20
157.52579819247723
 11
302.18173377803254
 21
159.97477819247862
  0
LINE
  8
_0-e_極細4
  6
CONTINUOUS
 62
    6
 10
297.08110334858191
 20
157.52579819247723
 11
299.53008334858293
 21
159.97477819247862
  0
LINE
  8
_0-e_極細4
  6
CONTINUOUS
 62
    6
 10
294.42945291913236
 20
157.52579819247714
 11
296.87843291913384
 21
159.97477819247871
  0
LINE
  8
_0-e_極細4
  6
CONTINUOUS
 62
    6
 10
291.77780248968304
 20
157.52579819247723
 11
294.22678248968452
 21
159.97477819247862
  0
LINE
  8
_0-e_極細4
  6
CONTINUOUS
 62
    6
 10
289.12615206023304
 20
157.52579819247714
 11
291.57513206023481
 21
159.97477819247862
  0
LINE
  8
_0-e_極細4
  6
CONTINUOUS
 62
    6
 10
286.47450163078372
 20
157.52579819247714
 11
288.9234816307852
 21
159.97477819247862
  0
LINE
  8
_0-e_極細4
  6
CONTINUOUS
 62
    6
 10
283.82285120133417
 20
157.52579819247723
 11
286.27183120133566
 21
159.97477819247862
  0
LINE
  8
_0-e_極細4
  6
CONTINUOUS
 62
    6
 10
281.17120077188463
 20
157.52579819247723
 11
283.62018077188611
 21
159.97477819247871
  0
LINE
  8
_0-e_極細4
  6
CONTINUOUS
 62
    6
 10
278.51955034243463
 20
157.52579819247714
 11
280.96853034243611
 21
159.97477819247862
  0
LINE
  8
_0-e_極細4
  6
CONTINUOUS
 62
    6
 10
275.86789991298531
 20
157.52579819247723
 11
278.31687991298708
 21
159.97477819247862
  0
LINE
  8
_0-e_極細4
  6
CONTINUOUS
 62
    6
 10
273.21624948353599
 20
157.52579819247723
 11
275.66522948353747
 21
159.97477819247871
  0
LINE
  8
_0-e_極細4
  6
CONTINUOUS
 62
    6
 10
270.56459905408599
 20
157.52579819247723
 11
273.01357905408747
 21
159.97477819247871
  0
LINE
  8
_0-e_極細4
  6
CONTINUOUS
 62
    6
 10
267.91294862463644
 20
157.52579819247723
 11
270.36192862463793
 21
159.97477819247862
  0
LINE
  8
_0-e_極細4
  6
CONTINUOUS
 62
    6
 10
265.2612981951869
 20
157.52579819247723
 11
267.71027819518838
 21
159.97477819247871
  0
LINE
  8
_0-e_極細4
  6
CONTINUOUS
 62
    6
 10
264.78503191559014
 20
159.70118234232942
 11
265.05862776573935
 21
159.97477819247871
  0
LINE
  8
_0-e_極細4
  6
CONTINUOUS
 62
    6
 10
371.07699169238538
 20
223.56673524793209
 11
372.76717191558953
 21
225.25691547113624
  0
LINE
  8
_0-e_極細4
  6
CONTINUOUS
 62
    6
 10
368.4891509614398
 20
223.63054494643606
 11
370.87991916967565
 21
226.0213131546719
  0
LINE
  8
_0-e_極細4
  6
CONTINUOUS
 62
    6
 10
365.90131023049423
 20
223.69435464494003
 11
368.29207846037741
 21
226.0851228748231
  0
LINE
  8
_0-e_極細4
  6
CONTINUOUS
 62
    6
 10
363.31346949954934
 20
223.75816434344401
 11
365.7042377510794
 21
226.14893259497438
  0
LINE
  8
_0-e_極細4
  6
CONTINUOUS
 62
    6
 10
360.72562876860354
 20
223.82197404194798
 11
363.11639704178162
 21
226.21274231512572
  0
LINE
  8
_0-e_極細4
  6
CONTINUOUS
 62
    6
 10
358.13778803765797
 20
223.88578374045207
 11
360.52855633248271
 21
226.27655203527712
  0
LINE
  8
_0-e_極細4
  6
CONTINUOUS
 62
    6
 10
355.54994730671194
 20
223.94959343895604
 11
357.94071562318447
 21
226.34036175542846
  0
LINE
  8
_0-e_極細4
  6
CONTINUOUS
 62
    6
 10
352.96210657576637
 20
224.01340313746002
 11
355.35287491388624
 21
226.40417147557974
  0
LINE
  8
_0-e_極細4
  6
CONTINUOUS
 62
    6
 10
350.37426584482148
 20
224.07721283596408
 11
352.76503420458823
 21
226.46798119573106
  0
LINE
  8
_0-e_極細4
  6
CONTINUOUS
 62
    6
 10
347.78642511387568
 20
224.14102253446805
 11
350.17719349529045
 21
226.5317909158824
  0
LINE
  8
_0-e_極細4
  6
CONTINUOUS
 62
    6
 10
345.19858438293011
 20
224.20483223297202
 11
347.58935278599154
 21
226.59560063603368
  0
LINE
  8
_0-e_極細4
  6
CONTINUOUS
 62
    6
 10
342.61074365198408
 20
224.26864193147611
 11
345.0015120766933
 21
226.65941035618502
  0
LINE
  8
_0-e_極細4
  6
CONTINUOUS
 62
    6
 10
340.02290292103964
 20
224.3324516299802
 11
342.41367136739507
 21
226.7232200763363
  0
LINE
  8
_0-e_極細4
  6
CONTINUOUS
 62
    6
 10
337.43506219009362
 20
224.39626132848417
 11
339.82583065809706
 21
226.78702979648762
  0
LINE
  8
_0-e_極細4
  6
CONTINUOUS
 62
    6
 10
334.84722145914782
 20
224.46007102698815
 11
337.23798994879928
 21
226.85083951663896
  0
LINE
  8
_0-e_極細4
  6
CONTINUOUS
 62
    6
 10
332.25938072820225
 20
224.52388072549212
 11
334.65014923950037
 21
226.91464923679024
  0
LINE
  8
_0-e_極細4
  6
CONTINUOUS
 62
    6
 10
329.67153999725667
 20
224.58769042399624
 11
332.06230853020213
 21
226.97845895694158
  0
LINE
  8
_0-e_極細4
  6
CONTINUOUS
 62
    6
 10
327.08369926631116
 20
224.65150012250007
 11
329.4744678209039
 21
227.04226867709286
  0
LINE
  8
_0-e_極細4
  6
CONTINUOUS
 62
    6
 10
324.49585853536576
 20
224.71530982100418
 11
327.91003191558951
 21
228.1294832012282
  0
LINE
  8
_0-e_極細4
  6
CONTINUOUS
 62
    6
 10
321.90801780441996
 20
224.77911951950816
 11
327.91003191558951
 21
230.78113363067774
  0
LINE
  8
_0-e_極細4
  6
CONTINUOUS
 62
    6
 10
319.32017707347438
 20
224.84292921801224
 11
327.91003191558951
 21
233.43278406012729
  0
LINE
  8
_0-e_極細4
  6
CONTINUOUS
 62
    6
 10
316.73233634252927
 20
224.90673891651622
 11
327.91003191558951
 21
236.08443448957686
  0
LINE
  8
_0-e_極細4
  6
CONTINUOUS
 62
    6
 10
314.14449561158324
 20
224.97054861502019
 11
327.91003191558951
 21
238.73608491902641
  0
LINE
  8
_0-e_極細4
  6
CONTINUOUS
 62
    6
 10
313.84753191558946
 20
227.32523534847593
 11
327.91003191558951
 21
241.38773534847593
  0
LINE
  8
_0-e_極細4
  6
CONTINUOUS
 62
    6
 10
313.84753191558946
 20
229.97688577792547
 11
321.49086625367312
 21
237.62022011600862
  0
LINE
  8
_0-e_極細4
  6
CONTINUOUS
 62
    6
 10
324.78503191559014
 20
240.91438577792573
 11
327.91003191558951
 21
244.03938577792573
  0
LINE
  8
_0-e_極細4
  6
CONTINUOUS
 62
    6
 10
313.84753191558946
 20
232.62853620737502
 11
318.83921582422306
 21
237.62022011600862
  0
LINE
  8
_0-e_極細4
  6
CONTINUOUS
 62
    6
 10
324.78503191559014
 20
243.56603620737528
 11
327.91003191558951
 21
246.69103620737502
  0
LINE
  8
_0-e_極細4
  6
CONTINUOUS
 62
    6
 10
313.84753191558946
 20
235.2801866368246
 11
316.18756539477374
 21
237.62022011600862
  0
LINE
  8
_0-e_極細4
  6
CONTINUOUS
 62
    6
 10
324.78503191559014
 20
246.21768663682479
 11
327.91003191558951
 21
249.3426866368246
  0
LINE
  8
_0-e_極細4
  6
CONTINUOUS
 62
    6
 10
324.78503191559014
 20
248.8693370662746
 11
327.91003191558951
 21
251.99433706627414
  0
LINE
  8
_0-e_極細4
  6
CONTINUOUS
 62
    6
 10
324.78503191559014
 20
251.52098749572389
 11
327.91003191558951
 21
254.64598749572366
  0
LINE
  8
_0-e_極細4
  6
CONTINUOUS
 62
    6
 10
324.78503191559014
 20
254.17263792517346
 11
327.91003191558951
 21
257.29763792517349
  0
LINE
  8
_0-e_極細4
  6
CONTINUOUS
 62
    6
 10
324.78503191559014
 20
256.82428835462309
 11
327.91003191558951
 21
259.94928835462292
  0
LINE
  8
_0-e_極細4
  6
CONTINUOUS
 62
    6
 10
324.78503191559014
 20
259.47593878407253
 11
327.91003191558951
 21
262.60093878407235
  0
LINE
  8
_0-e_極細4
  6
CONTINUOUS
 62
    6
 10
324.78503191559014
 20
262.12758921352236
 11
326.15666754170331
 21
263.49922483963547
  0
LINE
  8
_0-e_極細4
  6
CONTINUOUS
 62
    6
 10
326.15666754170331
 20
263.49922483963547
 11
327.95546130855649
 21
265.29801860648877
  0
LINE
  8
_0-e_極細4
  6
CONTINUOUS
 62
    6
 10
324.78503191559014
 20
264.77923964297179
 11
331.03503191558951
 21
271.02923964297179
  0
LINE
  8
_0-e_極細4
  6
CONTINUOUS
 62
    6
 10
324.78503191559014
 20
267.43089007242128
 11
331.03503191558951
 21
273.68089007242122
  0
LINE
  8
_0-e_極細4
  6
CONTINUOUS
 62
    6
 10
324.78503191559014
 20
270.08254050187094
 11
331.03503191558951
 21
276.33254050187071
  0
LINE
  8
_0-e_極細4
  6
CONTINUOUS
 62
    6
 10
334.66096960619774
 20
279.95847819247894
 11
335.91003191559037
 21
281.20754050187094
  0
LINE
  8
_0-e_極細4
  6
CONTINUOUS
 62
    6
 10
325.63670846638155
 20
273.58586748211161
 11
331.03503191558951
 21
278.98419093132026
  0
LINE
  8
_0-e_極細4
  6
CONTINUOUS
 62
    6
 10
332.00931917674836
 20
279.95847819247888
 11
335.91003191559037
 21
283.85919093132048
  0
LINE
  8
_0-e_極細4
  6
CONTINUOUS
 62
    6
 10
325.41003191559014
 20
276.01084136077009
 11
335.91003191559037
 21
286.5108413607702
  0
LINE
  8
_0-e_極細4
  6
CONTINUOUS
 62
    6
 10
327.25878191559002
 20
280.51124179021946
 11
335.91003191559037
 21
289.16249179021969
  0
LINE
  8
_0-e_極細4
  6
CONTINUOUS
 62
    6
 10
327.25878191559002
 20
283.16289221966929
 11
335.91003191559037
 21
291.81414221966912
  0
LINE
  8
_0-e_極細4
  6
CONTINUOUS
 62
    6
 10
327.25878191559002
 20
285.81454264911872
 11
335.91003191559037
 21
294.46579264911867
  0
LINE
  8
_0-e_極細4
  6
CONTINUOUS
 62
    6
 10
327.25878191559002
 20
288.46619307856815
 11
335.91003191559037
 21
297.11744307856821
  0
LINE
  8
_0-e_極細4
  6
CONTINUOUS
 62
    6
 10
327.25878191559002
 20
291.11784350801787
 11
333.29742472741043
 21
297.15648631983862
  0
LINE
  8
_0-e_極細4
  6
CONTINUOUS
 62
    6
 10
327.25878191559002
 20
293.76949393746719
 11
330.29920995495229
 21
296.80992197682934
  0
LINE
  8
_0-e_極細4
  6
CONTINUOUS
 62
    6
 10
327.25878191559002
 20
296.42114436691674
 11
327.30099518249347
 21
296.46335763382007
  0
TEXT
  8
_0-7_枠細線
 62
    5
 10
205.35719220628556
 20
86.784799291575894
 40
25
 41
0.8
 50
0
  1
排水部詳細図
  0
TEXT
  8
_0-7_枠細線
 62
    5
 10
343.88293569746878
 20
87.394024704978932
 40
20
 41
0.6
 50
0
  1
Ｓ＝１：４
  0
LINE
  8
_0-a_極細1
  6
CONTINUOUS
 62
    7
 10
451.62810272669367
 20
274.47041351269138
 11
463.62810152669454
 21
274.47041351269138
  0
LINE
  8
_0-a_極細1
  6
CONTINUOUS
 62
    7
 10
451.62810272669367
 20
275.13708011269136
 11
463.62810152669454
 21
275.13708011269136
  0
LINE
  8
_0-a_極細1
  6
CONTINUOUS
 62
    7
 10
451.52068029373913
 20
275.80374671269135
 11
463.62810152669454
 21
275.80374671269135
  0
LINE
  8
_0-a_極細1
  6
CONTINUOUS
 62
    7
 10
450.85401369373903
 20
276.47041331269145
 11
463.62810152669454
 21
276.47041331269145
  0
LINE
  8
_0-a_極細1
  6
CONTINUOUS
 62
    7
 10
450.18734709373945
 20
277.13707991269143
 11
463.62810152669454
 21
277.13707991269143
  0
LINE
  8
_0-a_極細1
  6
CONTINUOUS
 62
    7
 10
450.40219195964801
 20
277.80374651269153
 11
463.62810152669454
 21
277.80374651269153
  0
LINE
  8
_0-a_極細1
  6
CONTINUOUS
 62
    7
 10
451.06885855964811
 20
278.47041311269163
 11
463.62810152669454
 21
278.47041311269163
  0
LINE
  8
_0-a_極細1
  6
CONTINUOUS
 62
    7
 10
451.62810272669367
 20
279.13707971269139
 11
463.62810152669454
 21
279.13707971269139
  0
LINE
  8
_0-a_極細1
  6
CONTINUOUS
 62
    7
 10
451.62810272669367
 20
279.80374631269149
 11
463.62810152669454
 21
279.80374631269149
  0
LINE
  8
_0-a_極細1
  6
CONTINUOUS
 62
    7
 10
451.62810272669367
 20
280.47041291269159
 11
463.62810152669454
 21
280.47041291269159
  0
LINE
  8
_0-a_極細1
  6
CONTINUOUS
 62
    7
 10
451.62810272669367
 20
281.13707951269157
 11
463.62810152669454
 21
281.13707951269157
  0
LINE
  8
_0-a_極細1
  6
CONTINUOUS
 62
    7
 10
451.62810272669367
 20
281.80374611269167
 11
463.62810152669454
 21
281.80374611269167
  0
LINE
  8
_0-a_極細1
  6
CONTINUOUS
 62
    7
 10
451.62810272669367
 20
282.47041271269177
 11
463.62810152669454
 21
282.47041271269177
  0
LINE
  8
_0-a_極細1
  6
CONTINUOUS
 62
    7
 10
451.62810272669367
 20
283.13707931269164
 11
463.62810152669454
 21
283.13707931269164
  0
LINE
  8
_0-a_極細1
  6
CONTINUOUS
 62
    7
 10
451.18734699373908
 20
283.80374591269162
 11
463.86317125093734
 21
283.80374591269162
  0
LINE
  8
_0-a_極細1
  6
CONTINUOUS
 62
    7
 10
450.52068039373899
 20
284.47041251269172
 11
464.21872677093688
 21
284.47041251269172
  0
LINE
  8
_0-a_極細1
  6
CONTINUOUS
 62
    7
 10
450.06885865964887
 20
285.13707911269171
 11
464.57428229093694
 21
285.13707911269171
  0
LINE
  8
_0-a_極細1
  6
CONTINUOUS
 62
    7
 10
450.73552525964857
 20
285.80374571269181
 11
464.92983781093699
 21
285.80374571269181
  0
LINE
  8
_0-a_極細1
  6
CONTINUOUS
 62
    7
 10
451.40219185964867
 20
286.47041231269191
 11
465.28539333093704
 21
286.47041231269191
  0
LINE
  8
_0-a_極細1
  6
CONTINUOUS
 62
    7
 10
451.62810272669367
 20
287.13707891269178
 11
465.64094885093709
 21
287.13707891269178
  0
LINE
  8
_0-a_極細1
  6
CONTINUOUS
 62
    7
 10
451.62810272669367
 20
287.80374551269188
 11
465.99650437093669
 21
287.80374551269188
  0
LINE
  8
_0-a_極細1
  6
CONTINUOUS
 62
    7
 10
485.32165665457484
 20
258.20284999298758
 11
485.32165665457484
 21
309.65266283857136
  0
LINE
  8
_0-a_極細1
  6
CONTINUOUS
 62
    7
 10
484.65499005457474
 20
257.5361833929876
 11
484.65499005457474
 21
309.50845768010561
  0
LINE
  8
_0-a_極細1
  6
CONTINUOUS
 62
    7
 10
483.98832345457464
 20
256.8695167929875
 11
483.98832345457464
 21
309.21483016194611
  0
LINE
  8
_0-a_極細1
  6
CONTINUOUS
 62
    7
 10
483.32165685457454
 20
256.20285019298763
 11
483.32165685457454
 21
308.72056928320126
  0
LINE
  8
_0-a_極細1
  6
CONTINUOUS
 62
    7
 10
482.65499025457484
 20
255.53618359298778
 11
482.65499025457484
 21
307.85716678339134
  0
LINE
  8
_0-a_極細1
  6
CONTINUOUS
 62
    7
 10
481.98832365457474
 20
254.86951699298777
 11
481.98832365457474
 21
305.25867507644671
  0
LINE
  8
_0-a_極細1
  6
CONTINUOUS
 62
    7
 10
481.32165705457464
 20
254.20285039298759
 11
481.32165705457464
 21
303.87780751057699
  0
LINE
  8
_0-a_極細1
  6
CONTINUOUS
 62
    7
 10
480.65499045457454
 20
253.67595981510681
 11
480.65499045457454
 21
303.05216712912238
  0
LINE
  8
_0-a_極細1
  6
CONTINUOUS
 62
    7
 10
479.9883238545749
 20
253.67595981510681
 11
479.9883238545749
 21
302.46808195783478
  0
LINE
  8
_0-a_極細1
  6
CONTINUOUS
 62
    7
 10
479.32165725457435
 20
253.67595981510681
 11
479.32165725457435
 21
302.03963909093238
  0
LINE
  8
_0-a_極細1
  6
CONTINUOUS
 62
    7
 10
478.6549906545747
 20
253.67595981510681
 11
478.6549906545747
 21
301.72881647874487
  0
LINE
  8
_0-a_極細1
  6
CONTINUOUS
 62
    7
 10
477.9883240545746
 20
253.67595981510681
 11
477.9883240545746
 21
301.51561346040694
  0
LINE
  8
_0-a_極細1
  6
CONTINUOUS
 62
    7
 10
477.32165745457451
 20
253.67595981510681
 11
477.32165745457451
 21
301.38890975080221
  0
LINE
  8
_0-a_極細1
  6
CONTINUOUS
 62
    7
 10
476.65499085457441
 20
253.67595981510681
 11
476.65499085457441
 21
301.34289985231794
  0
LINE
  8
_0-a_極細1
  6
CONTINUOUS
 62
    7
 10
475.98832425457431
 20
253.67595981510681
 11
475.98832425457431
 21
301.34262171510716
  0
LINE
  8
_0-a_極細1
  6
CONTINUOUS
 62
    7
 10
475.32165765457421
 20
253.67595981510681
 11
475.32165765457421
 21
301.34262171510716
  0
LINE
  8
_0-a_極細1
  6
CONTINUOUS
 62
    7
 10
474.65499105457462
 20
253.67595981510681
 11
474.65499105457462
 21
301.34262171510716
  0
LINE
  8
_0-a_極細1
  6
CONTINUOUS
 62
    7
 10
473.98832445457492
 20
253.67595981510681
 11
473.98832445457492
 21
301.34262171510716
  0
LINE
  8
_0-a_極細1
  6
CONTINUOUS
 62
    7
 10
473.32165785457482
 20
253.67595981510681
 11
473.32165785457482
 21
301.34262171510716
  0
LINE
  8
_0-a_極細1
  6
CONTINUOUS
 62
    7
 10
472.65499125457472
 20
253.67595981510681
 11
472.65499125457472
 21
301.34262171510716
  0
LINE
  8
_0-a_極細1
  6
CONTINUOUS
 62
    7
 10
471.98832465457463
 20
253.67595981510681
 11
471.98832465457463
 21
301.28365159934481
  0
LINE
  8
_0-a_極細1
  6
CONTINUOUS
 62
    7
 10
471.32165805457453
 20
253.67595981510681
 11
471.32165805457453
 21
301.08965230145407
  0
LINE
  8
_0-a_極細1
  6
CONTINUOUS
 62
    7
 10
470.65499145457443
 20
253.67595981510681
 11
470.65499145457443
 21
300.7334416279466
  0
LINE
  8
_0-a_極細1
  6
CONTINUOUS
 62
    7
 10
469.98832485457433
 20
253.67595981510681
 11
469.98832485457433
 21
300.14079121095529
  0
LINE
  8
_0-a_極細1
  6
CONTINUOUS
 62
    7
 10
469.32165825457423
 20
253.67595981510681
 11
469.32165825457423
 21
298.99041838408152
  0
LINE
  8
_0-a_極細1
  6
CONTINUOUS
 62
    7
 10
468.65499165457413
 20
253.67595981510681
 11
468.65499165457413
 21
260.34262581510666
  0
LINE
  8
_0-a_極細1
  6
CONTINUOUS
 62
    7
 10
467.98832505457403
 20
253.67595981510681
 11
467.98832505457403
 21
260.34262581510666
  0
LINE
  8
_0-a_極細1
  6
CONTINUOUS
 62
    7
 10
467.32165845457394
 20
253.67595981510681
 11
467.32165845457394
 21
260.34262581510666
  0
LINE
  8
_0-a_極細1
  6
CONTINUOUS
 62
    7
 10
466.65499185457435
 20
253.67595981510681
 11
466.65499185457435
 21
260.34262581510666
  0
LINE
  8
_0-a_極細1
  6
CONTINUOUS
 62
    7
 10
465.98832525457425
 20
253.67595981510681
 11
465.98832525457425
 21
260.34262581510666
  0
LINE
  8
_0-a_極細1
  6
CONTINUOUS
 62
    7
 10
465.32165865457415
 20
253.67595981510681
 11
465.32165865457415
 21
260.34262581510666
  0
LINE
  8
_0-a_極細1
  6
CONTINUOUS
 62
    7
 10
464.65499205457405
 20
253.67595981510681
 11
464.65499205457405
 21
260.34262581510666
  0
LINE
  8
_0-a_極細1
  6
CONTINUOUS
 62
    7
 10
463.98832545457435
 20
253.67595981510681
 11
463.98832545457435
 21
260.34262581510666
  0
LINE
  8
_0-a_極細1
  6
CONTINUOUS
 62
    7
 10
463.32165885457385
 20
253.67595981510681
 11
463.32165885457385
 21
260.34262581510666
  0
LINE
  8
_0-a_極細1
  6
CONTINUOUS
 62
    7
 10
462.65499225457415
 20
253.67595981510681
 11
462.65499225457415
 21
260.34262581510666
  0
LINE
  8
_0-a_極細1
  6
CONTINUOUS
 62
    7
 10
461.98832565457502
 20
247.00929381510676
 11
461.98832565457502
 21
267.00929181510674
  0
LINE
  8
_0-a_極細1
  6
CONTINUOUS
 62
    7
 10
461.32165905457532
 20
247.00929381510676
 11
461.32165905457532
 21
267.00929181510674
  0
LINE
  8
_0-a_極細1
  6
CONTINUOUS
 62
    7
 10
460.65499245457522
 20
247.00929381510676
 11
460.65499245457522
 21
249.32056459737157
  0
LINE
  8
_0-a_極細1
  6
CONTINUOUS
 62
    7
 10
460.65499245457522
 20
254.01188978151401
 11
460.65499245457522
 21
267.00929181510674
  0
LINE
  8
_0-a_極細1
  6
CONTINUOUS
 62
    7
 10
459.98832585457512
 20
247.00929381510676
 11
459.98832585457512
 21
247.50015820410252
  0
LINE
  8
_0-a_極細1
  6
CONTINUOUS
 62
    7
 10
459.98832585457512
 20
254.01188978151401
 11
459.98832585457512
 21
267.00929181510674
  0
LINE
  8
_0-a_極細1
  6
CONTINUOUS
 62
    7
 10
459.32165925457502
 20
254.01188978151401
 11
459.32165925457502
 21
267.00929181510674
  0
LINE
  8
_0-a_極細1
  6
CONTINUOUS
 62
    7
 10
458.65499265457493
 20
254.01188978151401
 11
458.65499265457493
 21
267.00929181510674
  0
LINE
  8
_0-a_極細1
  6
CONTINUOUS
 62
    7
 10
457.98832605457483
 20
254.01188978151401
 11
457.98832605457483
 21
267.00929181510674
  0
LINE
  8
_0-a_極細1
  6
CONTINUOUS
 62
    7
 10
457.32165945457473
 20
254.01188978151401
 11
457.32165945457473
 21
267.00929181510674
  0
LINE
  8
_0-a_極細1
  6
CONTINUOUS
 62
    7
 10
456.65499285457463
 20
254.01188978151401
 11
456.65499285457463
 21
267.00929181510674
  0
LINE
  8
_0-a_極細1
  6
CONTINUOUS
 62
    7
 10
455.98832625457453
 20
254.01188978151401
 11
455.98832625457453
 21
267.00929181510674
  0
LINE
  8
_0-a_極細1
  6
CONTINUOUS
 62
    7
 10
455.32165965457443
 20
254.01188978151401
 11
455.32165965457443
 21
267.00929181510674
  0
LINE
  8
_0-a_極細1
  6
CONTINUOUS
 62
    7
 10
454.65499305457485
 20
254.01188978151401
 11
454.65499305457485
 21
267.00929181510674
  0
LINE
  8
_0-a_極細1
  6
CONTINUOUS
 62
    7
 10
453.98832645457475
 20
254.01188978151401
 11
453.98832645457475
 21
267.00929181510674
  0
LINE
  8
_0-a_極細1
  6
CONTINUOUS
 62
    7
 10
453.32165985457465
 20
254.01188978151401
 11
453.32165985457465
 21
267.00929181510674
  0
LINE
  8
_0-a_極細1
  6
CONTINUOUS
 62
    7
 10
444.12810347669392
 20
244.01189078151424
 11
444.12810347669392
 21
253.67595981510681
  0
ARC
  8
_0-a_極細1
  6
CONTINUOUS
 62
    7
 10
434.12810447669426
 20
254.01188978151401
 40
9.999998999999999
 50
358.07490068720404
 51
50.029499419963059
  0
LINE
  8
_0-a_極細1
  6
CONTINUOUS
 62
    7
 10
485.7247659836944
 20
305.13707711269137
 11
489.91775920542523
 21
305.13707711269137
  0
LINE
  8
_0-a_極細1
  6
CONTINUOUS
 62
    7
 10
485.7247659836944
 20
305.80374371269136
 11
495.68525862867546
 21
305.80374371269136
  0
LINE
  8
_0-a_極細1
  6
CONTINUOUS
 62
    7
 10
485.7247659836944
 20
306.47041031269134
 11
501.45275805192523
 21
306.47041031269134
  0
LINE
  8
_0-a_極細1
  6
CONTINUOUS
 62
    7
 10
485.7247659836944
 20
307.13707691269144
 11
507.22025747517546
 21
307.13707691269144
  0
LINE
  8
_0-a_極細1
  6
CONTINUOUS
 62
    7
 10
485.7247659836944
 20
307.80374351269143
 11
508.79476367669395
 21
307.80374351269143
  0
LINE
  8
_0-a_極細1
  6
CONTINUOUS
 62
    7
 10
485.7247659836944
 20
308.47041011269152
 11
508.79476367669395
 21
308.47041011269152
  0
LINE
  8
_0-a_極細1
  6
CONTINUOUS
 62
    7
 10
485.7247659836944
 20
309.13707671269162
 11
508.79476367669395
 21
309.13707671269162
  0
LINE
  8
_0-a_極細1
  6
CONTINUOUS
 62
    7
 10
486.78730657907272
 20
309.80374331269172
 11
508.79476367669395
 21
309.80374331269172
  0
LINE
  8
_0-a_極細1
  6
CONTINUOUS
 62
    7
 10
491.46797025357273
 20
310.47040991269148
 11
508.79476367669395
 21
310.47040991269148
  0
LINE
  8
_0-a_極細1
  6
CONTINUOUS
 62
    7
 10
496.1486339280728
 20
311.13707651269158
 11
508.79476367669395
 21
311.13707651269158
  0
LINE
  8
_0-a_極細1
  6
CONTINUOUS
 62
    7
 10
500.8292976025723
 20
311.80374311269168
 11
508.79476367669395
 21
311.80374311269168
  0
LINE
  8
_0-a_極細1
  6
CONTINUOUS
 62
    7
 10
505.50996127707236
 20
312.47040971269166
 11
508.79476367669395
 21
312.47040971269166
  0
LINE
  8
_0-a_極細1
  6
CONTINUOUS
 62
    7
 10
508.79476367669395
 20
312.98574055079484
 11
508.79476367669395
 21
315.29514370208881
  0
LINE
  8
_0-a_極細1
  6
CONTINUOUS
 62
    7
 10
485.7247659836944
 20
312.00928731510703
 11
508.79476367669395
 21
315.29514370208881
  0
LINE
  8
_0-a_極細1
  6
CONTINUOUS
 62
    7
 10
464.12810147669376
 20
289.01188628151408
 11
464.12810147669376
 21
292.0092893151068
  0
LINE
  8
_0-a_極細1
  6
CONTINUOUS
 62
    7
 10
464.12810147669376
 20
268.6785549815138
 11
464.12810147669376
 21
273.67855448151363
  0
LINE
  8
_0-a_極細1
  6
CONTINUOUS
 62
    7
 10
451.62810272669418
 20
283.36299017973693
 11
451.62810272669418
 21
279.02965727973697
  0
LINE
  8
_0-a_極細1
  6
CONTINUOUS
 62
    7
 10
451.62810272669418
 20
275.69632427973681
 11
451.62810272669418
 21
274.02965777973691
  0
LINE
  8
_0-a_極細1
  6
CONTINUOUS
 62
    7
 10
463.62810152669454
 20
283.36299017973693
 11
463.62810152669454
 21
274.02965777973691
  0
LINE
  8
_0-a_極細1
  6
CONTINUOUS
 62
    7
 10
449.96143622669393
 20
285.02965667973695
 11
451.62810272669418
 21
286.69632317973685
  0
LINE
  8
_0-a_極細1
  6
CONTINUOUS
 62
    7
 10
451.62810272669418
 20
283.36299017973693
 11
449.96143622669393
 21
285.02965667973695
  0
LINE
  8
_0-a_極細1
  6
CONTINUOUS
 62
    7
 10
451.62810272669418
 20
275.69632427973681
 11
449.96143622669393
 21
277.36299077973706
  0
LINE
  8
_0-a_極細1
  6
CONTINUOUS
 62
    7
 10
449.96143622669393
 20
277.36299077973706
 11
451.62810272669418
 21
279.02965727973697
  0
LINE
  8
_0-a_極細1
  6
CONTINUOUS
 62
    7
 10
463.62810152669454
 20
283.36299017973693
 11
466.29476792669408
 21
288.36298967973653
  0
LINE
  8
_0-a_極細1
  6
CONTINUOUS
 62
    7
 10
451.62810272669418
 20
288.36298967973653
 11
451.62810272669418
 21
286.69632317973685
  0
ARC
  8
_0-a_極細1
  6
CONTINUOUS
 62
    7
 10
472.29476732669445
 20
308.67595431510699
 40
1.6666665000000003
 50
24.05454899999916
 51
89.999999999999915
  0
ARC
  8
_0-a_極細1
  6
CONTINUOUS
 62
    7
 10
473.2947672266946
 20
304.34262141510692
 40
0.6666665999999621
 50
269.99999999999977
 51
359.99999999999966
  0
ARC
  8
_0-a_極細1
  6
CONTINUOUS
 62
    7
 10
472.29476732669445
 20
308.67595431510699
 40
1.6666665000000003
 50
0
 51
24.05454899999916
  0
LINE
  8
_0-a_極細1
  6
CONTINUOUS
 62
    7
 10
466.79476787669415
 20
293.67595581510682
 11
466.794767876695
 21
303.67595481510716
  0
LINE
  8
_0-a_極細1
  6
CONTINUOUS
 62
    7
 10
466.794767876695
 20
303.67595481510716
 11
473.2947672266946
 21
303.67595481510716
  0
LINE
  8
_0-a_極細1
  6
CONTINUOUS
 62
    7
 10
473.9614338266947
 20
304.34262141510692
 11
473.9614338266947
 21
308.67595431510699
  0
LINE
  8
_0-a_極細1
  6
CONTINUOUS
 62
    7
 10
462.46143497669391
 20
253.67595981510681
 11
480.79476647669344
 21
253.67595981510681
  0
LINE
  8
_0-a_極細1
  6
CONTINUOUS
 62
    7
 10
459.6941552534222
 20
247.00929381510676
 11
462.46143497669391
 21
247.00929381510676
  0
LINE
  8
_0-a_極細1
  6
CONTINUOUS
 62
    7
 10
462.46143497669391
 20
262.675958915107
 11
466.79476787669415
 21
262.675958915107
  0
LINE
  8
_0-a_極細1
  6
CONTINUOUS
 62
    7
 10
462.46143497669391
 20
260.34262581510666
 11
469.12810097669399
 21
260.34262581510666
  0
LINE
  8
_0-a_極細1
  6
CONTINUOUS
 62
    7
 10
462.46143497669391
 20
247.00929381510676
 11
462.46143497669391
 21
267.00929181510674
  0
LINE
  8
_0-a_極細1
  6
CONTINUOUS
 62
    7
 10
485.7247659836944
 20
258.60595932210686
 11
480.79476647669344
 21
253.67595981510681
  0
LINE
  8
_0-a_極細1
  6
CONTINUOUS
 62
    7
 10
469.12810097669399
 20
260.34262581510666
 11
469.1281009766945
 21
297.84262206510675
  0
ARC
  8
_0-a_極細1
  6
CONTINUOUS
 62
    7
 10
472.6281006266945
 20
297.84262206510675
 40
3.4999996500000385
 50
89.999999999999915
 51
179.99999999999983
  0
LINE
  8
_0-a_極細1
  6
CONTINUOUS
 62
    7
 10
476.59884689628689
 20
301.34262171510716
 11
472.6281006266945
 21
301.34262171510716
  0
ARC
  8
_0-a_極細1
  6
CONTINUOUS
 62
    7
 10
476.59884689628689
 20
307.00928781510675
 40
5.6666660999999614
 50
269.99999999999977
 51
356.64911199999869
  0
ARC
  8
_0-a_極細1
  6
CONTINUOUS
 62
    7
 10
476.59884689628689
 20
307.00928781510675
 40
3.3333330000000005
 50
269.99999999999977
 51
356.64911200000182
  0
ARC
  8
_0-a_極細1
  6
CONTINUOUS
 62
    7
 10
485.7247659836944
 20
306.17595456510685
 40
5.8333327500000012
 50
89.999999999999915
 51
175.84900999999849
  0
ARC
  8
_0-a_極細1
  6
CONTINUOUS
 62
    7
 10
472.6281006266945
 20
297.84262206510675
 40
5.8333327500000012
 50
89.999999999999915
 51
179.99999999999983
  0
LINE
  8
_0-a_極細1
  6
CONTINUOUS
 62
    7
 10
474.12810047669473
 20
303.67595481510716
 11
474.12810047669473
 21
312.00928731510703
  0
LINE
  8
_0-a_極細1
  6
CONTINUOUS
 62
    7
 10
466.79476787669415
 20
262.675958915107
 11
466.79476787669415
 21
297.84262206510675
  0
LINE
  8
_0-a_極細1
  6
CONTINUOUS
 62
    7
 10
476.59884689628689
 20
303.67595481510716
 11
472.6281006266945
 21
303.67595481510716
  0
LINE
  8
_0-a_極細1
  6
CONTINUOUS
 62
    7
 10
453.29476922669443
 20
267.00929181510674
 11
466.79476787669415
 21
267.00929181510674
  0
LINE
  8
_0-a_極細1
  6
CONTINUOUS
 62
    7
 10
508.79476367669395
 20
307.31907445079503
 11
485.7247659836944
 21
304.65240805079497
  0
LINE
  8
_0-a_極細1
  6
CONTINUOUS
 62
    7
 10
485.72476598369303
 20
241.31908105079492
 11
480.79476647669344
 21
243.98574745079486
  0
LINE
  8
_0-a_極細1
  6
CONTINUOUS
 62
    7
 10
480.79476647669344
 20
243.98574745079486
 11
480.79476647669344
 21
253.67595981510681
  0
LINE
  8
_0-a_極細1
  6
CONTINUOUS
 62
    7
 10
508.79476367669395
 20
262.50321559904819
 11
508.79476367669395
 21
315.24766699126906
  0
LINE
  8
_0-a_極細1
  6
CONTINUOUS
 62
    7
 10
495.7947649766939
 20
260.65241245079483
 11
508.79476367669395
 21
260.65241245079483
  0
LINE
  8
_0-a_極細1
  6
CONTINUOUS
 62
    7
 10
508.79476367669395
 20
260.65241245079483
 11
508.79476367669395
 21
262.50321559904819
  0
LINE
  8
_0-a_極細1
  6
CONTINUOUS
 62
    7
 10
495.7947649766939
 20
233.98574845079477
 11
495.7947649766939
 21
260.65241245079483
  0
LINE
  8
_0-a_極細1
  6
CONTINUOUS
 62
    7
 10
485.7247659836944
 20
309.6524057299589
 11
508.79476367669395
 21
312.93826388887578
  0
LINE
  8
_0-a_極細1
  6
CONTINUOUS
 62
    7
 10
485.7247659836944
 20
258.60595932210686
 11
485.7247659836944
 21
309.67595421510714
  0
ARC
  8
_0-a_極細1
  6
CONTINUOUS
 62
    7
 10
485.7247659836944
 20
306.17595456510685
 40
3.4999996500000385
 50
89.999999999999915
 51
175.84900999999951
  0
LINE
  8
_0-a_極細1
  6
CONTINUOUS
 62
    7
 10
454.12810247669404
 20
244.01189078151424
 11
444.12810347669392
 21
244.01189078151424
  0
ARC
  8
_0-a_極細1
  6
CONTINUOUS
 62
    7
 10
454.12810247669404
 20
250.67855678151409
 40
6.6666660000000011
 50
269.99999999999977
 51
359.99999999999966
  0
LINE
  8
_0-a_極細1
  6
CONTINUOUS
 62
    7
 10
460.79476847669412
 20
250.67855678151409
 11
460.79476847669412
 21
254.01188978151401
  0
LINE
  8
_0-a_極細1
  6
CONTINUOUS
 62
    7
 10
460.79476847669412
 20
254.01188978151401
 11
453.29476922669443
 21
254.01188978151401
  0
LINE
  8
_0-a_極細1
  6
CONTINUOUS
 62
    7
 10
464.12810147669376
 20
268.6785549815138
 11
453.29476922669443
 21
268.6785549815138
  0
LINE
  8
_0-a_極細1
  6
CONTINUOUS
 62
    7
 10
453.29476922669443
 20
254.01188978151401
 11
453.29476922669443
 21
268.67855498151403
  0
LINE
  8
_0-a_極細1
  6
CONTINUOUS
 62
    7
 10
463.12810157669446
 20
292.0092893151068
 11
463.12810157669446
 21
295.34262231510672
  0
ARC
  8
_0-a_極細1
  6
CONTINUOUS
 62
    7
 10
465.12810137669391
 20
293.67595581510682
 40
1.6666665000000003
 50
269.99999999999977
 51
359.99999999999966
  0
CIRCLE
  8
_0-a_極細1
  6
CONTINUOUS
 62
    7
 10
467.54536732201768
 20
283.3964231824109
 40
62.050673138549151
  0
ARC
  8
_0-a_極細1
  6
CONTINUOUS
 62
    7
 10
504.12809747669371
 20
219.55199322750414
 40
16.666665000000002
 50
120.00000000000014
 51
161.13978923390172
  0
LINE
  8
_0-a_極細1
  6
CONTINUOUS
 62
    7
 10
479.1280999766937
 20
222.43638429464966
 11
479.1280999766937
 21
241.31908105079492
  0
LINE
  8
_0-a_極細1
  6
CONTINUOUS
 62
    7
 10
494.47553741338652
 20
233.13896516559453
 11
495.7947649766939
 21
234.45819272890233
  0
LINE
  8
_0-a_極細1
  6
CONTINUOUS
 62
    7
 10
479.1280999766937
 20
222.50557246540805
 11
495.7947649766939
 21
239.17223746540799
  0
LINE
  8
_0-a_極細1
  6
CONTINUOUS
 62
    7
 10
479.1280999766937
 20
224.86259483366098
 11
495.7947649766939
 21
241.52925983366094
  0
LINE
  8
_0-a_極細1
  6
CONTINUOUS
 62
    7
 10
479.1280999766937
 20
227.21961720191393
 11
495.7947649766939
 21
243.88628220191393
  0
LINE
  8
_0-a_極細1
  6
CONTINUOUS
 62
    7
 10
479.1280999766937
 20
229.57663957016692
 11
495.7947649766939
 21
246.24330457016674
  0
LINE
  8
_0-a_極細1
  6
CONTINUOUS
 62
    7
 10
479.1280999766937
 20
231.93366193841973
 11
495.7947649766939
 21
248.60032693841958
  0
LINE
  8
_0-a_極細1
  6
CONTINUOUS
 62
    7
 10
507.84685048906886
 20
260.65241245079483
 11
508.79476367669395
 21
261.60032563841969
  0
LINE
  8
_0-a_極細1
  6
CONTINUOUS
 62
    7
 10
479.1280999766937
 20
234.29068430667235
 11
495.7947649766939
 21
250.95734930667254
  0
LINE
  8
_0-a_極細1
  6
CONTINUOUS
 62
    7
 10
505.48982812081618
 20
260.65241245079483
 11
508.7947636766944
 21
263.95734800667276
  0
LINE
  8
_0-a_極細1
  6
CONTINUOUS
 62
    7
 10
479.1280999766937
 20
236.64770667492544
 11
483.79947435256327
 21
241.31908105079492
  0
LINE
  8
_0-a_極細1
  6
CONTINUOUS
 62
    7
 10
484.47531169565451
 20
241.99491839388577
 11
495.7947649766939
 21
253.31437167492564
  0
LINE
  8
_0-a_極細1
  6
CONTINUOUS
 62
    7
 10
503.1328057525634
 20
260.65241245079505
 11
508.79476367669395
 21
266.3143703749256
  0
LINE
  8
_0-a_極細1
  6
CONTINUOUS
 62
    7
 10
479.1280999766937
 20
239.00472904317814
 11
481.44245198431099
 21
241.31908105079529
  0
LINE
  8
_0-a_極細1
  6
CONTINUOUS
 62
    7
 10
482.94567760936843
 20
242.82230667585259
 11
495.7947649766939
 21
255.67139404317834
  0
LINE
  8
_0-a_極細1
  6
CONTINUOUS
 62
    7
 10
500.77578338431067
 20
260.65241245079483
 11
508.79476367669395
 21
268.67139274317856
  0
LINE
  8
_0-a_極細1
  6
CONTINUOUS
 62
    7
 10
481.41604352308241
 20
243.64969495781941
 11
495.7947649766939
 21
258.02841641143141
  0
LINE
  8
_0-a_極細1
  6
CONTINUOUS
 62
    7
 10
498.41876101605749
 20
260.65241245079483
 11
508.79476367669395
 21
271.02841511143129
  0
LINE
  8
_0-a_極細1
  6
CONTINUOUS
 62
    7
 10
480.79476647669395
 20
245.3854402796841
 11
495.7947649766939
 21
260.38543877968425
  0
LINE
  8
_0-a_極細1
  6
CONTINUOUS
 62
    7
 10
496.06173864780482
 20
260.65241245079483
 11
508.79476367669395
 21
273.38543747968424
  0
LINE
  8
_0-a_極細1
  6
CONTINUOUS
 62
    7
 10
480.79476647669395
 20
247.74246264793692
 11
508.79476367669395
 21
275.7424598479372
  0
LINE
  8
_0-a_極細1
  6
CONTINUOUS
 62
    7
 10
480.79476647669395
 20
250.09948501618965
 11
508.7947636766944
 21
278.09948221619015
  0
LINE
  8
_0-a_極細1
  6
CONTINUOUS
 62
    7
 10
480.79476647669395
 20
252.4565073844426
 11
508.7947636766944
 21
280.45650458444311
  0
LINE
  8
_0-a_極細1
  6
CONTINUOUS
 62
    7
 10
485.7247659836944
 20
259.74352925969617
 11
508.79476367669395
 21
282.81352695269595
  0
LINE
  8
_0-a_極細1
  6
CONTINUOUS
 62
    7
 10
485.7247659836944
 20
262.1005516279489
 11
508.79476367669395
 21
285.17054932094868
  0
LINE
  8
_0-a_極細1
  6
CONTINUOUS
 62
    7
 10
485.7247659836944
 20
264.45757399620186
 11
508.79476367669395
 21
287.52757168920164
  0
LINE
  8
_0-a_極細1
  6
CONTINUOUS
 62
    7
 10
485.7247659836944
 20
266.81459636445493
 11
508.79476367669395
 21
289.88459405745448
  0
LINE
  8
_0-a_極細1
  6
CONTINUOUS
 62
    7
 10
485.7247659836944
 20
269.17161873270777
 11
508.7947636766944
 21
292.24161642570743
  0
LINE
  8
_0-a_極細1
  6
CONTINUOUS
 62
    7
 10
485.7247659836944
 20
271.52864110096061
 11
508.7947636766944
 21
294.59863879396039
  0
LINE
  8
_0-a_極細1
  6
CONTINUOUS
 62
    7
 10
485.7247659836944
 20
273.88566346921357
 11
508.7947636766944
 21
296.95566116221335
  0
LINE
  8
_0-a_極細1
  6
CONTINUOUS
 62
    7
 10
485.7247659836944
 20
276.24268583746652
 11
508.79476367669395
 21
299.3126835304663
  0
LINE
  8
_0-a_極細1
  6
CONTINUOUS
 62
    7
 10
485.7247659836944
 20
278.59970820571937
 11
508.79476367669395
 21
301.66970589871903
  0
LINE
  8
_0-a_極細1
  6
CONTINUOUS
 62
    7
 10
485.7247659836944
 20
280.95673057397221
 11
508.79476367669395
 21
304.02672826697199
  0
LINE
  8
_0-a_極細1
  6
CONTINUOUS
 62
    7
 10
485.7247659836944
 20
283.31375294222505
 11
508.7947636766944
 21
306.38375063522483
  0
LINE
  8
_0-a_極細1
  6
CONTINUOUS
 62
    7
 10
485.7247659836944
 20
285.67077531047778
 11
507.18725253748204
 21
307.13326186426571
  0
LINE
  8
_0-a_極細1
  6
CONTINUOUS
 62
    7
 10
485.7247659836944
 20
288.02779767873085
 11
504.52217300624943
 21
306.82520470128532
  0
LINE
  8
_0-a_極細1
  6
CONTINUOUS
 62
    7
 10
485.7247659836944
 20
290.38482004698369
 11
501.85709347501557
 21
306.51714753830515
  0
LINE
  8
_0-a_極細1
  6
CONTINUOUS
 62
    7
 10
485.7247659836944
 20
292.74184241523665
 11
499.19201394378297
 21
306.20909037532476
  0
LINE
  8
_0-a_極細1
  6
CONTINUOUS
 62
    7
 10
485.7247659836944
 20
295.09886478348972
 11
496.52693441254911
 21
305.90103321234437
  0
LINE
  8
_0-a_極細1
  6
CONTINUOUS
 62
    7
 10
485.7247659836944
 20
297.45588715174222
 11
493.86185488131611
 21
305.5929760493641
  0
LINE
  8
_0-a_極細1
  6
CONTINUOUS
 62
    7
 10
485.7247659836944
 20
299.81290951999517
 11
491.19677535008304
 21
305.28491888638382
  0
LINE
  8
_0-a_極細1
  6
CONTINUOUS
 62
    7
 10
485.7247659836944
 20
302.16993188824824
 11
488.53169581885004
 21
304.97686172340343
  0
LINE
  8
_0-a_極細1
  6
CONTINUOUS
 62
    7
 10
485.7247659836944
 20
304.52695425650109
 11
485.86661628761658
 21
304.66880456042327
  0
LINE
  8
_0-a_極細1
  6
CONTINUOUS
 62
    7
 10
482.0425958919418
 20
223.06304601240313
 11
495.7947649766939
 21
236.81521509715515
  0
LINE
  8
_0-a_極細1
  6
CONTINUOUS
 62
    7
 10
485.26669864808582
 20
223.9301264002944
 11
490.54112553860341
 21
229.20455329081142
  0
LINE
  8
_0-a_極細1
  6
CONTINUOUS
 62
    7
 10
421.94072593447891
 20
241.31908105079492
 11
485.72476598369303
 21
241.31908105079492
  0
LINE
  8
_0-a_極細1
  6
CONTINUOUS
 62
    7
 10
419.61745608728421
 20
243.98574745079486
 11
480.79476647669344
 21
243.98574745079486
  0
LINE
  8
_0-a_極細1
  6
CONTINUOUS
 62
    7
 10
413.07537471893562
 20
253.67595981510681
 11
444.12810347669392
 21
253.67595981510681
  0
LINE
  8
_0-a_極細1
  6
CONTINUOUS
 62
    7
 10
414.32171030603882
 20
315.29514370208881
 11
508.79476367669395
 21
315.29514370208881
  0
LINE
  8
_0-a_極細1
  6
CONTINUOUS
 62
    7
 10
412.48549043266257
 20
312.00928731510726
 11
485.7247659836944
 21
312.00928731510703
  0
LINE
  8
_0-a_極細1
  6
CONTINUOUS
 62
    7
 10
411.65092690003303
 20
310.34262081510701
 11
472.29476732669445
 21
310.34262081510678
  0
LINE
  8
_0-a_極細1
  6
CONTINUOUS
 62
    7
 10
406.65551296820064
 20
295.34262231510706
 11
463.12810157669446
 21
295.34262231510672
  0
LINE
  8
_0-a_極細1
  6
CONTINUOUS
 62
    7
 10
406.0953504471027
 20
292.00928931510691
 11
465.12810137669391
 21
292.0092893151068
  0
LINE
  8
_0-a_極細1
  6
CONTINUOUS
 62
    7
 10
464.12810147669376
 20
289.01188628151408
 11
405.74931072347999
 21
289.01188628151408
  0
LINE
  8
_0-a_極細1
  6
CONTINUOUS
 62
    7
 10
405.69377676708746
 20
288.36298967973698
 11
466.29476792669408
 21
288.36298967973653
  0
LINE
  8
_0-a_極細1
  6
CONTINUOUS
 62
    7
 10
405.51619204706918
 20
285.02965667973706
 11
449.96143622669393
 21
285.02965667973695
  0
LINE
  8
_0-a_極細1
  6
CONTINUOUS
 62
    7
 10
405.78871804123628
 20
277.36299077973706
 11
449.96143622669393
 21
277.36299077973706
  0
LINE
  8
_0-a_極細1
  6
CONTINUOUS
 62
    7
 10
406.20574111808361
 20
274.02965777973691
 11
463.62810152669454
 21
274.02965777973691
  0
LINE
  8
_0-a_極細1
  6
CONTINUOUS
 62
    7
 10
464.12810147669376
 20
273.67855448151363
 11
406.26038494575192
 21
273.67855448151363
  0
LINE
  8
_0-a_極細1
  6
CONTINUOUS
 62
    7
 10
453.29476922669443
 20
268.67855498151403
 11
407.26543374069985
 21
268.67855498151403
  0
LINE
  8
_0-a_極細1
  6
CONTINUOUS
 62
    7
 10
434.65499505457501
 20
248.00929371510711
 11
434.65499505457501
 21
253.67595981510681
  0
LINE
  8
_0-a_極細1
  6
CONTINUOUS
 62
    7
 10
433.98832845457491
 20
248.00929371510711
 11
433.98832845457491
 21
253.67595981510681
  0
LINE
  8
_0-a_極細1
  6
CONTINUOUS
 62
    7
 10
433.32166185457481
 20
248.00929371510711
 11
433.32166185457481
 21
253.67595981510681
  0
LINE
  8
_0-a_極細1
  6
CONTINUOUS
 62
    7
 10
432.65499525457471
 20
248.00929371510711
 11
432.65499525457471
 21
253.67595981510681
  0
LINE
  8
_0-a_極細1
  6
CONTINUOUS
 62
    7
 10
431.98832865457462
 20
248.00929371510711
 11
431.98832865457462
 21
253.67595981510681
  0
LINE
  8
_0-a_極細1
  6
CONTINUOUS
 62
    7
 10
431.32166205457452
 20
248.00929371510711
 11
431.32166205457452
 21
253.67595981510681
  0
LINE
  8
_0-a_極細1
  6
CONTINUOUS
 62
    7
 10
430.65499545457493
 20
248.00929371510711
 11
430.65499545457493
 21
253.67595981510681
  0
LINE
  8
_0-a_極細1
  6
CONTINUOUS
 62
    7
 10
429.98832885457483
 20
248.00929371510711
 11
429.98832885457483
 21
253.67595981510681
  0
LINE
  8
_0-a_極細1
  6
CONTINUOUS
 62
    7
 10
429.32166225457473
 20
248.00929371510711
 11
429.32166225457473
 21
253.67595981510681
  0
LINE
  8
_0-a_極細1
  6
CONTINUOUS
 62
    7
 10
428.65499565457463
 20
248.00929371510711
 11
428.65499565457463
 21
253.67595981510681
  0
LINE
  8
_0-a_極細1
  6
CONTINUOUS
 62
    7
 10
427.98832905457493
 20
248.00929371510711
 11
427.98832905457493
 21
253.67595981510681
  0
LINE
  8
_0-a_極細1
  6
CONTINUOUS
 62
    7
 10
427.32166245457444
 20
248.00929371510711
 11
427.32166245457444
 21
253.67595981510681
  0
LINE
  8
_0-a_極細1
  6
CONTINUOUS
 62
    7
 10
426.65499585457474
 20
248.00929371510711
 11
426.65499585457474
 21
253.67595981510681
  0
LINE
  8
_0-a_極細1
  6
CONTINUOUS
 62
    7
 10
425.98832925457464
 20
248.00929371510711
 11
425.98832925457464
 21
253.67595981510681
  0
LINE
  8
_0-a_極細1
  6
CONTINUOUS
 62
    7
 10
425.32166265457454
 20
248.00929371510711
 11
425.32166265457454
 21
253.67595981510681
  0
LINE
  8
_0-a_極細1
  6
CONTINUOUS
 62
    7
 10
424.65499605457444
 20
248.00929371510711
 11
424.65499605457444
 21
253.67595981510681
  0
LINE
  8
_0-a_極細1
  6
CONTINUOUS
 62
    7
 10
423.98832945457434
 20
248.00929371510711
 11
423.98832945457434
 21
253.67595981510681
  0
LINE
  8
_0-a_極細1
  6
CONTINUOUS
 62
    7
 10
423.32166285457424
 20
248.00929371510711
 11
423.32166285457424
 21
253.67595981510681
  0
LINE
  8
_0-a_極細1
  6
CONTINUOUS
 62
    7
 10
422.65499625457466
 20
248.00929371510711
 11
422.65499625457466
 21
253.67595981510681
  0
LINE
  8
_0-a_極細1
  6
CONTINUOUS
 62
    7
 10
421.98832965457456
 20
248.00929371510711
 11
421.98832965457456
 21
253.67595981510681
  0
LINE
  8
_0-a_極細1
  6
CONTINUOUS
 62
    7
 10
421.32166305457446
 20
248.00929371510711
 11
421.32166305457446
 21
253.67595981510681
  0
LINE
  8
_0-a_極細1
  6
CONTINUOUS
 62
    7
 10
420.65499645457436
 20
248.00929371510711
 11
420.65499645457436
 21
253.67595981510681
  0
LINE
  8
_0-a_極細1
  6
CONTINUOUS
 62
    7
 10
419.98832985457426
 20
248.00929371510711
 11
419.98832985457426
 21
253.67595981510681
  0
LINE
  8
_0-a_極細1
  6
CONTINUOUS
 62
    7
 10
419.32166325457416
 20
248.00929371510711
 11
419.32166325457416
 21
253.67595981510681
  0
LINE
  8
_0-a_極細1
  6
CONTINUOUS
 62
    7
 10
418.65499665457446
 20
248.00929371510711
 11
418.65499665457446
 21
253.67595981510681
  0
LINE
  8
_0-a_極細1
  6
CONTINUOUS
 62
    7
 10
435.08248104792301
 20
248.00929371510711
 11
435.08248104792301
 21
253.67595981510681
  0
LINE
  8
_0-a_極細1
  6
CONTINUOUS
 62
    7
 10
418.41581604792282
 20
248.00929371510711
 11
418.41581604792282
 21
253.67595981510681
  0
LINE
  8
_0-a_極細1
  6
CONTINUOUS
 62
    7
 10
418.41581604792282
 20
248.00929371510711
 11
435.08248104792301
 21
248.00929371510711
  0
ARC
  8
_0-a_極細1
  6
CONTINUOUS
 62
    7
 10
429.12810497669398
 20
245.25937732343209
 40
19.999997999999998
 50
55.166292356154557
 51
148.68484545273043
  0
LINE
  8
_0-a_極細1
  6
CONTINUOUS
 62
    7
 10
444.08489118970328
 20
253.67595981510681
 11
444.08489118970328
 21
254.94053306698493
  0
LINE
  8
_0-a_極細1
  6
CONTINUOUS
 62
    7
 10
443.08489118970328
 20
253.67595981510681
 11
443.08489118970328
 21
258.45890583474204
  0
LINE
  8
_0-a_極細1
  6
CONTINUOUS
 62
    7
 10
442.08489118970334
 20
253.67595981510681
 11
442.08489118970334
 21
260.06907767720327
  0
LINE
  8
_0-a_極細1
  6
CONTINUOUS
 62
    7
 10
441.08489118970334
 20
253.67595981510681
 11
441.08489118970334
 21
261.19541945916581
  0
LINE
  8
_0-a_極細1
  6
CONTINUOUS
 62
    7
 10
440.08489118970328
 20
253.67595981510681
 11
440.08489118970328
 21
261.99104657316366
  0
LINE
  8
_0-a_極細1
  6
CONTINUOUS
 62
    7
 10
439.08489118970328
 20
253.67595981510681
 11
439.08489118970328
 21
262.6047608103554
  0
LINE
  8
_0-a_極細1
  6
CONTINUOUS
 62
    7
 10
438.08489118970328
 20
253.67595981510681
 11
438.08489118970328
 21
263.14165628150818
  0
LINE
  8
_0-a_極細1
  6
CONTINUOUS
 62
    7
 10
437.08489118970334
 20
253.67595981510681
 11
437.08489118970334
 21
263.60847738748089
  0
LINE
  8
_0-a_極細1
  6
CONTINUOUS
 62
    7
 10
436.08489118970334
 20
253.67595981510681
 11
436.08489118970334
 21
264.01045850789956
  0
LINE
  8
_0-a_極細1
  6
CONTINUOUS
 62
    7
 10
435.08489118970328
 20
253.67595981510681
 11
435.08489118970328
 21
264.3516956219654
  0
LINE
  8
_0-a_極細1
  6
CONTINUOUS
 62
    7
 10
434.08489118970328
 20
253.67595981510681
 11
434.08489118970328
 21
264.63539834010442
  0
LINE
  8
_0-a_極細1
  6
CONTINUOUS
 62
    7
 10
433.08489118970328
 20
253.67595981510681
 11
433.08489118970328
 21
264.86406459113789
  0
LINE
  8
_0-a_極細1
  6
CONTINUOUS
 62
    7
 10
432.08489118970334
 20
253.67595981510681
 11
432.08489118970334
 21
265.03960318894133
  0
LINE
  8
_0-a_極細1
  6
CONTINUOUS
 62
    7
 10
431.08489118970334
 20
253.67595981510681
 11
431.08489118970334
 21
265.16341982028644
  0
LINE
  8
_0-a_極細1
  6
CONTINUOUS
 62
    7
 10
430.08489118970328
 20
253.67595981510681
 11
430.08489118970328
 21
265.23647621547843
  0
LINE
  8
_0-a_極細1
  6
CONTINUOUS
 62
    7
 10
429.08489118970328
 20
253.67595981510681
 11
429.08489118970328
 21
265.25932863758817
  0
LINE
  8
_0-a_極細1
  6
CONTINUOUS
 62
    7
 10
428.08489118970328
 20
253.67595981510681
 11
428.08489118970328
 21
265.23214941432207
  0
LINE
  8
_0-a_極細1
  6
CONTINUOUS
 62
    7
 10
427.08489118970283
 20
253.67595981510681
 11
427.08489118970283
 21
265.15473350070761
  0
LINE
  8
_0-a_極細1
  6
CONTINUOUS
 62
    7
 10
426.08489118970283
 20
253.67595981510681
 11
426.08489118970283
 21
265.0264906647036
  0
LINE
  8
_0-a_極細1
  6
CONTINUOUS
 62
    7
 10
425.08489118970289
 20
253.67595981510681
 11
425.08489118970289
 21
264.84642258995177
  0
LINE
  8
_0-a_極細1
  6
CONTINUOUS
 62
    7
 10
424.08489118970289
 20
253.67595981510681
 11
424.08489118970289
 21
264.61308277481032
  0
LINE
  8
_0-a_極細1
  6
CONTINUOUS
 62
    7
 10
423.08489118970283
 20
253.67595981510681
 11
423.08489118970283
 21
264.32451532777725
  0
LINE
  8
_0-a_極細1
  6
CONTINUOUS
 62
    7
 10
422.08489118970283
 20
253.67595981510681
 11
422.08489118970283
 21
263.97816626798578
  0
LINE
  8
_0-a_極細1
  6
CONTINUOUS
 62
    7
 10
421.08489118970283
 20
253.67595981510681
 11
421.08489118970283
 21
263.57075717249768
  0
LINE
  8
_0-a_極細1
  6
CONTINUOUS
 62
    7
 10
420.08489118970289
 20
253.67595981510681
 11
420.08489118970289
 21
263.09810497993203
  0
LINE
  8
_0-a_極細1
  6
CONTINUOUS
 62
    7
 10
419.08489118970289
 20
253.67595981510681
 11
419.08489118970289
 21
262.55486161352337
  0
LINE
  8
_0-a_極細1
  6
CONTINUOUS
 62
    7
 10
418.08489118970283
 20
253.67595981510681
 11
418.08489118970283
 21
261.9341291733042
  0
LINE
  8
_0-a_極細1
  6
CONTINUOUS
 62
    7
 10
417.08489118970283
 20
253.67595981510681
 11
417.08489118970283
 21
261.22687310958577
  0
LINE
  8
_0-a_極細1
  6
CONTINUOUS
 62
    7
 10
416.08489118970283
 20
253.67595981510681
 11
416.08489118970283
 21
260.42098984014183
  0
LINE
  8
_0-a_極細1
  6
CONTINUOUS
 62
    7
 10
415.08489118970289
 20
253.67595981510681
 11
415.08489118970289
 21
259.49974482335529
  0
LINE
  8
_0-a_極細1
  6
CONTINUOUS
 62
    7
 10
414.08489118970289
 20
253.67595981510681
 11
414.08489118970289
 21
258.4389690833799
  0
LINE
  8
_0-a_極細1
  6
CONTINUOUS
 62
    7
 10
413.08489118970283
 20
253.67595981510681
 11
413.08489118970283
 21
257.20153840863372
  0
LINE
  8
_0-a_極細1
  6
CONTINUOUS
 62
    7
 10
412.08489118970283
 20
255.56799124448048
 11
412.08489118970283
 21
255.72497734497495
  0
LINE
  8
_0-d_寸法1
  6
CONTINUOUS
 62
    7
 10
502.15008494558788
 20
308.98914485565729
 11
506.23200050751058
 21
318.11810784963058
  0
LINE
  8
_0-d_寸法1
  6
CONTINUOUS
 62
    7
 10
502.15008494558788
 20
308.98914485565729
 11
510.24960901530267
 21
314.85410093768485
  0
LINE
  8
_0-d_寸法1
  6
CONTINUOUS
 62
    7
 10
502.15008494558788
 20
308.98914485565729
 11
522.60802270789418
 21
334.17045942484799
  0
LINE
  8
_0-d_寸法1
  6
CONTINUOUS
 62
    7
 10
522.60802270789418
 20
334.17045942484799
 11
570.60802270789418
 21
334.17045942484799
  0
TEXT
  8
_0-d_寸法1
 62
    7
 10
522.60802270789418
 20
334.17045942484799
 40
15
 41
0.8000000000000001
 50
0
  1
パッキン
  0
LINE
  8
_0-d_寸法1
  6
CONTINUOUS
 62
    7
 10
459.11320263826792
 20
278.54291983293228
 11
466.18423506473897
 21
271.47181663584939
  0
LINE
  8
_0-d_寸法1
  6
CONTINUOUS
 62
    7
 10
459.11320263826792
 20
278.54291983293228
 11
461.70134475203389
 21
268.88364861824164
  0
LINE
  8
_0-d_寸法1
  6
CONTINUOUS
 62
    7
 10
459.11320263826792
 20
278.54291983293228
 11
496.51851779920071
 21
213.75426475418945
  0
LINE
  8
_0-d_寸法1
  6
CONTINUOUS
 62
    7
 10
496.51851779920071
 20
213.75426475418945
 11
616.51851779920071
 21
213.75426475418945
  0
TEXT
  8
_0-d_寸法1
 62
    7
 10
496.51851779920071
 20
213.75426475418945
 40
15
 41
0.8000000000000001
 50
0
  1
防臭インナーパッキン
  0
LINE
  8
_0-d_寸法1
  6
CONTINUOUS
 62
    7
 10
501.46308758943815
 20
265.40320760103975
 11
508.53448348154132
 21
258.33246788463475
  0
LINE
  8
_0-d_寸法1
  6
CONTINUOUS
 62
    7
 10
501.46308758943815
 20
265.40320760103975
 11
504.05172621401391
 21
255.74406943703391
  0
LINE
  8
_0-d_寸法1
  6
CONTINUOUS
 62
    7
 10
501.46308758943815
 20
265.40320760103975
 11
520.13615060805569
 21
233.06397905943371
  0
LINE
  8
_0-d_寸法1
  6
CONTINUOUS
 62
    7
 10
520.13615060805569
 20
233.06397905943371
 11
604.13615060805569
 21
233.06397905943371
  0
TEXT
  8
_0-d_寸法1
 62
    7
 10
520.13615060805569
 20
233.06397905943371
 40
15
 41
0.8000000000000001
 50
0
  1
ロックフランジ
  0
TEXT
  8
_0-7_枠細線
 62
    5
 10
415.88791459526965
 20
169.39193039558256
 40
25
 41
0.8
 50
0
  1
Ｃ部拡大図
  0
ARC
  8
_0-0_計極細
  6
CONTINUOUS
 62
    2
 10
576.06170044480882
 20
748.41675118329476
 40
54.312365187078854
 50
327.72737804884275
 51
41.725734002915807
  0
ARC
  8
_0-0_計極細
  6
CONTINUOUS
 62
    2
 10
714.00474764622129
 20
748.41675118329476
 40
54.312365187078854
 50
327.72737804884275
 51
41.717250014225037
  0
ARC
  8
_0-0_計極細
  6
CONTINUOUS
 62
    2
 10
805.84881141127323
 20
690.41675118347098
 40
54.312365187078854
 50
147.72737804884292
 51
222.99973043384148
  0
ARC
  8
_0-0_計極細
  6
CONTINUOUS
 62
    2
 10
667.90576420986076
 20
690.41675118347098
 40
54.312365187078854
 50
147.72737804884292
 51
222.98978477068863
  0
TEXT
  8
_0-7_枠細線
 62
    5
 10
961.4307702470602
 20
110
 40
20
 41
0.6
 50
0
  1
ＨＴＡＹ－１５Ｌ６００
  0
LINE
  8
_0-0_計極細
  6
CONTINUOUS
 62
    2
 10
691.18273557557768
 20
475.91031608886425
 11
690.68273557557768
 21
475.91031608886425
  0
LINE
  8
_0-0_計極細
  6
CENTER1
 62
    2
 10
666.34191641691257
 20
387.69563208886331
 11
784.53235053935418
 21
387.69563208886331
  0
ARC
  8
_0-1_計細線
  6
CONTINUOUS
 62
    3
 10
635.28477557557744
 20
447.75959608886438
 40
4.8979599999999994
 50
0
 51
59.999999999998458
  0
LINE
  8
_0-0_計極細
  6
CONTINUOUS
 62
    2
 10
716.65212757557856
 20
453.41033280886779
 11
739.63112757557838
 21
453.41033280886779
  0
LINE
  8
_0-0_計極細
  6
CONTINUOUS
 62
    2
 10
727.90212757557856
 20
448.21033280886775
 11
716.65212757557856
 21
448.21033280886775
  0
LINE
  8
_0-0_計極細
  6
CONTINUOUS
 62
    2
 10
716.65212757557856
 20
453.11466880886775
 11
716.65212757557856
 21
454.59242180886775
  0
LINE
  8
_0-0_計極細
  6
CONTINUOUS
 62
    2
 10
716.65212757557856
 20
454.21033280886775
 11
738.15212757557856
 21
454.21033280886775
  0
LINE
  8
_0-0_計極細
  6
CONTINUOUS
 62
    2
 10
733.15212757557856
 20
467.71817580886784
 11
733.15212757557856
 21
468.61739680886774
  0
LINE
  8
_0-0_計極細
  6
CONTINUOUS
 62
    2
 10
733.15212757557856
 20
461.6181758088677
 11
733.15212757557856
 21
463.1181758088677
  0
LINE
  8
_0-0_計極細
  6
CONTINUOUS
 62
    2
 10
729.40212757557856
 20
466.02350680886775
 11
729.40212757557856
 21
464.7235068088678
  0
LINE
  8
_0-0_計極細
  6
CONTINUOUS
 62
    2
 10
729.40212757557856
 20
463.72350680886774
 11
729.40212757557856
 21
463.2235068088678
  0
LINE
  8
_0-0_計極細
  6
CONTINUOUS
 62
    2
 10
733.00212757557847
 20
466.02350680886775
 11
733.00212757557847
 21
463.2235068088678
  0
LINE
  8
_0-0_計極細
  6
CONTINUOUS
 62
    2
 10
728.90212757557856
 20
466.52350680886769
 11
729.40212757557856
 21
467.02350680886775
  0
LINE
  8
_0-0_計極細
  6
CONTINUOUS
 62
    2
 10
729.40212757557856
 20
466.02350680886775
 11
728.90212757557856
 21
466.52350680886769
  0
LINE
  8
_0-0_計極細
  6
CONTINUOUS
 62
    2
 10
729.40212757557856
 20
463.72350680886774
 11
728.90212757557856
 21
464.2235068088678
  0
LINE
  8
_0-0_計極細
  6
CONTINUOUS
 62
    2
 10
728.90212757557856
 20
464.2235068088678
 11
729.40212757557856
 21
464.7235068088678
  0
LINE
  8
_0-0_計極細
  6
CONTINUOUS
 62
    2
 10
733.00212757557847
 20
466.02350680886775
 11
733.80212757557865
 21
467.52350680886769
  0
LINE
  8
_0-0_計極細
  6
CONTINUOUS
 62
    2
 10
729.40212757557856
 20
467.52350680886769
 11
729.40212757557856
 21
467.02350680886775
  0
ARC
  8
_0-0_計極細
  6
CONTINUOUS
 62
    2
 10
735.60212757557838
 20
473.61739680886774
 40
0.5
 50
24.05454900000543
 51
89.999999999999901
  0
ARC
  8
_0-0_計極細
  6
CONTINUOUS
 62
    2
 10
735.90212757557867
 20
472.31739680886778
 40
0.1999999999999886
 50
269.99999999999977
 51
359.99999999999966
  0
ARC
  8
_0-0_計極細
  6
CONTINUOUS
 62
    2
 10
735.60212757557838
 20
473.61739680886774
 40
0.5
 50
0
 51
24.05454900000543
  0
ARC
  8
_0-0_計極細
  6
CONTINUOUS
 62
    2
 10
733.45212757557829
 20
469.11739680886768
 40
0.5
 50
269.99999999999977
 51
359.99999999999966
  0
LINE
  8
_0-0_計極細
  6
CONTINUOUS
 62
    2
 10
732.85212757557838
 20
468.61739680886774
 11
732.85212757557838
 21
469.61739680886774
  0
LINE
  8
_0-0_計極細
  6
CONTINUOUS
 62
    2
 10
733.95212757557829
 20
469.11739680886768
 11
733.95212757557874
 21
472.11739680886774
  0
LINE
  8
_0-0_計極細
  6
CONTINUOUS
 62
    2
 10
733.95212757557874
 20
472.11739680886774
 11
735.90212757557867
 21
472.11739680886774
  0
LINE
  8
_0-0_計極細
  6
CONTINUOUS
 62
    2
 10
736.10212757557849
 20
472.31739680886778
 11
736.10212757557849
 21
473.61739680886774
  0
LINE
  8
_0-0_計極細
  6
CONTINUOUS
 62
    2
 10
720.93844057557862
 20
455.41739680886781
 11
720.93844057557862
 21
457.11739680886774
  0
LINE
  8
_0-0_計極細
  6
CONTINUOUS
 62
    2
 10
724.43844057557862
 20
455.41739680886781
 11
724.43844057557862
 21
457.11739680886774
  0
LINE
  8
_0-0_計極細
  6
CONTINUOUS
 62
    2
 10
719.43844057557862
 20
455.41739680886781
 11
719.43844057557862
 21
457.11739680886774
  0
LINE
  8
_0-0_計極細
  6
CONTINUOUS
 62
    2
 10
719.43844057557862
 20
455.41739680886781
 11
724.43844057557862
 21
455.41739680886781
  0
LINE
  8
_0-0_計極細
  6
CONTINUOUS
 62
    2
 10
732.65212757557856
 20
457.11739680886774
 11
738.15212757557856
 21
457.11739680886774
  0
LINE
  8
_0-0_計極細
  6
CONTINUOUS
 62
    2
 10
731.82194357557864
 20
455.11739680886768
 11
732.65212757557856
 21
455.11739680886768
  0
LINE
  8
_0-0_計極細
  6
CONTINUOUS
 62
    2
 10
732.65212757557856
 20
459.81739680886778
 11
733.95212757557829
 21
459.81739680886778
  0
LINE
  8
_0-0_計極細
  6
CONTINUOUS
 62
    2
 10
732.65212757557856
 20
459.11739680886768
 11
734.65212757557867
 21
459.11739680886768
  0
LINE
  8
_0-0_計極細
  6
CONTINUOUS
 62
    2
 10
732.65212757557856
 20
455.11739680886768
 11
732.65212757557856
 21
461.11739680886774
  0
LINE
  8
_0-0_計極細
  6
CONTINUOUS
 62
    2
 10
739.63112757557838
 20
458.59639680886772
 11
738.15212757557856
 21
457.11739680886774
  0
LINE
  8
_0-0_計極細
  6
CONTINUOUS
 62
    2
 10
734.65212757557867
 20
459.11739680886768
 11
734.65212757557867
 21
470.36739680886768
  0
ARC
  8
_0-0_計極細
  6
CONTINUOUS
 62
    2
 10
735.70212757557829
 20
470.36739680886768
 40
1.0500000000000114
 50
89.999999999999915
 51
179.99999999999983
  0
LINE
  8
_0-0_計極細
  6
CONTINUOUS
 62
    2
 10
736.89335157557844
 20
471.41739680886781
 11
735.70212757557829
 21
471.41739680886781
  0
ARC
  8
_0-0_計極細
  6
CONTINUOUS
 62
    2
 10
736.89335157557844
 20
473.11739680886774
 40
1.6999999999999886
 50
269.99999999999977
 51
356.64911199999864
  0
ARC
  8
_0-0_計極細
  6
CONTINUOUS
 62
    2
 10
736.89335157557844
 20
473.11739680886774
 40
1
 50
269.99999999999977
 51
356.64911200000284
  0
ARC
  8
_0-0_計極細
  6
CONTINUOUS
 62
    2
 10
739.63112757557838
 20
472.86739680886768
 40
1.7500000000000002
 50
89.999999999999915
 51
175.84900999999849
  0
ARC
  8
_0-0_計極細
  6
CONTINUOUS
 62
    2
 10
735.70212757557829
 20
470.36739680886768
 40
1.7500000000000002
 50
89.999999999999915
 51
179.99999999999983
  0
LINE
  8
_0-0_計極細
  6
CONTINUOUS
 62
    2
 10
736.15212757557856
 20
472.11739680886774
 11
736.15212757557856
 21
474.61739680886774
  0
LINE
  8
_0-0_計極細
  6
CONTINUOUS
 62
    2
 10
733.95212757557829
 20
459.81739680886778
 11
733.95212757557829
 21
470.36739680886768
  0
LINE
  8
_0-0_計極細
  6
CONTINUOUS
 62
    2
 10
736.89335157557844
 20
472.11739680886774
 11
735.70212757557829
 21
472.11739680886774
  0
LINE
  8
_0-0_計極細
  6
CONTINUOUS
 62
    2
 10
729.90212757557856
 20
461.11739680886774
 11
733.95212757557829
 21
461.11739680886774
  0
ARC
  8
_0-0_計極細
  6
CONTINUOUS
 62
    2
 10
727.90212757557856
 20
447.21033280886775
 40
1
 50
89.999999999999915
 51
179.99999999999983
  0
ARC
  8
_0-0_計極細
  6
CONTINUOUS
 62
    2
 10
727.90212757557856
 20
447.21033280886775
 40
1
 50
0
 51
89.999999999999915
  0
LINE
  8
_0-0_計極細
  6
CONTINUOUS
 62
    2
 10
739.63112757557838
 20
453.41033280886779
 11
738.15212757557856
 21
454.21033280886775
  0
LINE
  8
_0-0_計極細
  6
CONTINUOUS
 62
    2
 10
738.15212757557856
 20
454.21033280886775
 11
738.15212757557856
 21
457.11739680886774
  0
LINE
  8
_0-0_計極細
  6
CONTINUOUS
 62
    2
 10
739.63112757557838
 20
458.59639680886772
 11
739.63112757557838
 21
473.91739680886781
  0
ARC
  8
_0-0_計極細
  6
CONTINUOUS
 62
    2
 10
739.63112757557838
 20
472.86739680886768
 40
1.0500000000000114
 50
89.999999999999915
 51
175.84900999999832
  0
LINE
  8
_0-0_計極細
  6
CONTINUOUS
 62
    2
 10
730.15212757557856
 20
454.21817580886784
 11
727.15212757557867
 21
454.21817580886784
  0
ARC
  8
_0-0_計極細
  6
CONTINUOUS
 62
    2
 10
730.15212757557856
 20
456.21817580886784
 40
2
 50
269.99999999999977
 51
359.99999999999966
  0
LINE
  8
_0-0_計極細
  6
CONTINUOUS
 62
    2
 10
732.15212757557867
 20
456.21817580886784
 11
732.15212757557867
 21
457.21817580886778
  0
LINE
  8
_0-0_計極細
  6
CONTINUOUS
 62
    2
 10
732.15212757557867
 20
457.21817580886778
 11
729.90212757557856
 21
457.21817580886778
  0
LINE
  8
_0-0_計極細
  6
CONTINUOUS
 62
    2
 10
733.15212757557856
 20
461.6181758088677
 11
729.90212757557856
 21
461.6181758088677
  0
LINE
  8
_0-0_計極細
  6
CONTINUOUS
 62
    2
 10
729.90212757557856
 20
457.21817580886778
 11
729.90212757557856
 21
461.61817580886776
  0
LINE
  8
_0-1_計細線
  6
CONTINUOUS
 62
    3
 10
648.18273557557768
 20
359.41031608886408
 11
741.18273557557768
 21
359.41031608886408
  0
LINE
  8
_0-1_計細線
  6
CONTINUOUS
 62
    3
 10
640.18273557557779
 20
367.41031608886402
 11
640.18273557557779
 21
447.75959608886438
  0
ARC
  8
_0-1_計細線
  6
CONTINUOUS
 62
    3
 10
648.18273557557768
 20
367.41031608886402
 40
8
 50
179.99999999999983
 51
269.99999999999977
  0
ARC
  8
_0-0_計極細
  6
CONTINUOUS
 62
    2
 10
716.90212757557856
 20
389.91031608886379
 40
10
 50
269.99999999999977
 51
359.99999999999966
  0
LINE
  8
_0-0_計極細
  6
CONTINUOUS
 62
    2
 10
726.90212757557856
 20
389.91031608886379
 11
726.90212757557856
 21
447.21033280886775
  0
LINE
  8
_0-0_計極細
  6
CONTINUOUS
 62
    2
 10
728.90212757557856
 20
389.91031608886379
 11
728.90212757557856
 21
447.21033280886775
  0
ARC
  8
_0-0_計極細
  6
CONTINUOUS
 62
    2
 10
716.90212757557856
 20
389.91031608886379
 40
12.000000000000002
 50
269.99999999999977
 51
359.99999999999966
  0
LINE
  8
_0-0_計極細
  6
CONTINUOUS
 62
    2
 10
728.90212757557856
 20
389.91031608886379
 11
728.90212757557856
 21
416.91031608886385
  0
ARC
  8
_0-0_計極細
  6
CONTINUOUS
 62
    2
 10
715.65212757557856
 20
396.11815908886371
 40
1
 50
269.99954163376469
 51
359.99999999999966
  0
LINE
  8
_0-0_計極細
  6
CONTINUOUS
 62
    2
 10
716.65212757557856
 20
396.11815908886371
 11
716.65212757557856
 21
454.59242180886775
  0
LINE
  8
_0-0_計極細
  6
CONTINUOUS
 62
    2
 10
728.97601157557847
 20
415.19674736432637
 11
728.97601157557847
 21
421.77800680886742
  0
ARC
  8
_0-0_計極細
  6
CONTINUOUS
 62
    2
 10
731.97601157557858
 20
421.77800680886742
 40
3.0000000000000004
 50
89.999999999999915
 51
179.99999999999983
  0
ARC
  8
_0-1_計細線
  6
CONTINUOUS
 62
    3
 10
746.08069588173964
 20
447.75959608886438
 40
4.8979599999999994
 50
120.00000000000155
 51
179.99999999999983
  0
LINE
  8
_0-1_計細線
  6
CONTINUOUS
 62
    3
 10
743.63171188173897
 20
452.00135608886342
 11
743.63171188173897
 21
469.21033280886797
  0
LINE
  8
_0-1_計細線
  6
CONTINUOUS
 62
    3
 10
741.18273588173929
 20
416.85553513349385
 11
741.18273588173929
 21
447.75959608886438
  0
LINE
  8
_0-1_計細線
  6
CONTINUOUS
 62
    3
 10
633.68273557557768
 20
469.21033280886797
 11
633.68273557557768
 21
475.91031608886402
  0
LINE
  8
_0-1_計細線
  6
CONTINUOUS
 62
    3
 10
633.68273557557768
 20
475.91031608886402
 11
689.65212757557867
 21
475.91031608886402
  0
LINE
  8
_0-1_計細線
  6
CONTINUOUS
 62
    3
 10
689.65212757557867
 20
475.91031608886402
 11
747.68273557557779
 21
475.91031608886402
  0
LINE
  8
_0-1_計細線
  6
CONTINUOUS
 62
    3
 10
747.68273557557779
 20
469.21033280886797
 11
747.68273557557779
 21
475.91031608886402
  0
LINE
  8
_0-1_計細線
  6
CONTINUOUS
 62
    3
 10
743.63171188173897
 20
469.21033280886797
 11
747.68273557557779
 21
469.21033280886797
  0
LINE
  8
_0-0_計極細
  6
CONTINUOUS
 62
    2
 10
739.63112757557838
 20
474.61739680886774
 11
747.68273557557779
 21
475.76418615511449
  0
LINE
  8
_0-0_計極細
  6
CONTINUOUS
 62
    2
 10
739.63112757557838
 20
473.91033226261686
 11
747.68273557557779
 21
475.05712222728278
  0
LINE
  8
_0-0_計極細
  6
CONTINUOUS
 62
    2
 10
747.68273557557779
 20
473.34102005059572
 11
739.63112757557838
 21
472.41033280886774
  0
LINE
  8
_0-0_計極細
  6
CONTINUOUS
 62
    2
 10
690.68273557557768
 20
474.91031608886402
 11
741.68771419547875
 21
474.91031608886402
  0
LINE
  8
_0-0_計極細
  6
CONTINUOUS
 62
    2
 10
690.68273557557768
 20
474.6173968088678
 11
739.63112757557838
 21
474.61739680886774
  0
LINE
  8
_0-0_計極細
  6
CONTINUOUS
 62
    2
 10
690.68273557557768
 20
474.11739680886785
 11
735.60212757557838
 21
474.11739680886768
  0
LINE
  8
_0-0_計極細
  6
CONTINUOUS
 62
    2
 10
690.68273557557768
 20
469.6173968088678
 11
732.85212757557838
 21
469.61739680886774
  0
LINE
  8
_0-0_計極細
  6
CONTINUOUS
 62
    2
 10
690.68273557557768
 20
468.61739680886785
 11
733.45212757557829
 21
468.61739680886774
  0
LINE
  8
_0-0_計極細
  6
CONTINUOUS
 62
    2
 10
690.68273557557768
 20
467.52350680886786
 11
733.80212757557865
 21
467.52350680886769
  0
LINE
  8
_0-0_計極細
  6
CONTINUOUS
 62
    2
 10
733.15212757557856
 20
467.71817580886784
 11
690.68273557557768
 21
467.71817580886784
  0
LINE
  8
_0-0_計極細
  6
CONTINUOUS
 62
    2
 10
690.68273557557768
 20
463.2235068088678
 11
733.00212757557847
 21
463.2235068088678
  0
LINE
  8
_0-0_計極細
  6
CONTINUOUS
 62
    2
 10
733.15212757557856
 20
463.1181758088677
 11
690.68273557557768
 21
463.11817580886782
  0
LINE
  8
_0-0_計極細
  6
CONTINUOUS
 62
    2
 10
729.90212757557856
 20
461.61817580886776
 11
690.68273557557768
 21
461.61817580886776
  0
LINE
  8
_0-0_計極細
  6
CONTINUOUS
 62
    2
 10
715.65212757557856
 20
395.11815908886376
 11
690.68273557557768
 21
395.11815908886376
  0
LINE
  8
_0-0_計極細
  6
CONTINUOUS
 62
    2
 10
690.68273557557768
 20
379.91031608886379
 11
716.90212757557856
 21
379.91031608886379
  0
LINE
  8
_0-0_計極細
  6
CONTINUOUS
 62
    2
 10
690.68273557557768
 20
377.91031608886379
 11
716.90212757557856
 21
377.91031608886379
  0
LINE
  8
_0-1_計細線
  6
CONTINUOUS
 62
    3
 10
741.18273557557768
 20
359.41031608886408
 11
777.68273557557779
 21
360.98094808886259
  0
LINE
  8
_0-1_計細線
  6
CONTINUOUS
 62
    3
 10
777.68273557557779
 20
360.98094808886259
 11
777.68273557557779
 21
415.98094808886259
  0
LINE
  8
_0-0_計極細
  6
CONTINUOUS
 62
    2
 10
739.51051384041148
 20
361.37031608886412
 11
777.68273557557791
 21
362.94286879286261
  0
LINE
  8
_0-0_計極細
  6
CONTINUOUS
 62
    2
 10
728.97601157557847
 20
415.19674736432637
 11
777.68273557557745
 21
414.0211732451686
  0
LINE
  8
_0-1_計細線
  6
CONTINUOUS
 62
    3
 10
741.18273588173929
 20
416.85553513349385
 11
777.68273557557779
 21
415.98094808886259
  0
LINE
  8
_0-0_計極細
  6
CONTINUOUS
 62
    2
 10
729.40212757557856
 20
463.24157250424918
 11
733.00212757557847
 21
463.24157250424918
  0
LINE
  8
_0-0_計極細
  6
CONTINUOUS
 62
    2
 10
729.40212757557856
 20
464.74157250424923
 11
733.00212757557847
 21
464.74157250424923
  0
LINE
  8
_0-0_計極細
  6
CONTINUOUS
 62
    2
 10
729.18406188019719
 20
466.24157250424923
 11
733.11842927978205
 21
466.24157250424923
  0
ARC
  8
_0-0_計極細
  6
CONTINUOUS
 62
    2
 10
722.65212757557856
 20
454.59242180886775
 40
6.0000000000000009
 50
155.11305268293034
 51
179.99999999999983
  0
ARC
  8
_0-0_計極細
  6
CONTINUOUS
 62
    2
 10
722.65212757557856
 20
454.59242180886775
 40
6.0000000000000009
 50
55.166292356155942
 51
155.11305268293034
  0
LINE
  8
_0-0_計極細
  6
CONTINUOUS
 62
    2
 10
727.15212757557867
 20
454.21817580886784
 11
727.15212757557867
 21
457.11739680886774
  0
LINE
  8
_0-0_計極細
  6
CONTINUOUS
 62
    2
 10
717.20928812825196
 20
457.11739680886774
 11
727.15043436327721
 21
457.11739680886774
  0
ARC
  8
_0-0_計極細
  6
CONTINUOUS
 62
    2
 10
724.15212757557856
 20
457.21817580886778
 40
3.0000000000000004
 50
358.0749006872033
 51
50.029499419963869
  0
LINE
  8
_0-0_計極細
  6
CONTINUOUS
 62
    2
 10
664.7133435755768
 20
453.41033280886779
 11
641.73434357557699
 21
453.41033280886779
  0
LINE
  8
_0-0_計極細
  6
CONTINUOUS
 62
    2
 10
653.4633435755768
 20
448.21033280886775
 11
664.7133435755768
 21
448.21033280886775
  0
LINE
  8
_0-0_計極細
  6
CONTINUOUS
 62
    2
 10
664.7133435755768
 20
453.11466880886775
 11
664.7133435755768
 21
454.59242180886775
  0
LINE
  8
_0-0_計極細
  6
CONTINUOUS
 62
    2
 10
664.7133435755768
 20
454.21033280886775
 11
643.21334357557691
 21
454.21033280886775
  0
LINE
  8
_0-0_計極細
  6
CONTINUOUS
 62
    2
 10
648.21334357557691
 20
467.71817580886784
 11
648.21334357557691
 21
468.61739680886774
  0
LINE
  8
_0-0_計極細
  6
CONTINUOUS
 62
    2
 10
648.21334357557691
 20
461.6181758088677
 11
648.21334357557691
 21
463.1181758088677
  0
LINE
  8
_0-0_計極細
  6
CONTINUOUS
 62
    2
 10
651.96334357557691
 20
466.02350680886775
 11
651.96334357557691
 21
464.7235068088678
  0
LINE
  8
_0-0_計極細
  6
CONTINUOUS
 62
    2
 10
651.96334357557691
 20
463.72350680886774
 11
651.96334357557691
 21
463.2235068088678
  0
LINE
  8
_0-0_計極細
  6
CONTINUOUS
 62
    2
 10
648.36334357557689
 20
466.02350680886775
 11
648.36334357557689
 21
463.2235068088678
  0
LINE
  8
_0-0_計極細
  6
CONTINUOUS
 62
    2
 10
652.4633435755768
 20
466.52350680886769
 11
651.96334357557691
 21
467.02350680886775
  0
LINE
  8
_0-0_計極細
  6
CONTINUOUS
 62
    2
 10
651.96334357557691
 20
466.02350680886775
 11
652.4633435755768
 21
466.52350680886769
  0
LINE
  8
_0-0_計極細
  6
CONTINUOUS
 62
    2
 10
651.96334357557691
 20
463.72350680886774
 11
652.4633435755768
 21
464.2235068088678
  0
LINE
  8
_0-0_計極細
  6
CONTINUOUS
 62
    2
 10
652.4633435755768
 20
464.2235068088678
 11
651.96334357557691
 21
464.7235068088678
  0
LINE
  8
_0-0_計極細
  6
CONTINUOUS
 62
    2
 10
648.36334357557689
 20
466.02350680886775
 11
647.56334357557671
 21
467.52350680886769
  0
LINE
  8
_0-0_計極細
  6
CONTINUOUS
 62
    2
 10
651.96334357557691
 20
467.52350680886769
 11
651.96334357557691
 21
467.02350680886775
  0
ARC
  8
_0-0_計極細
  6
CONTINUOUS
 62
    2
 10
645.76334357557698
 20
473.61739680886774
 40
0.5
 50
89.999999999999915
 51
155.94545099999456
  0
ARC
  8
_0-0_計極細
  6
CONTINUOUS
 62
    2
 10
645.4633435755768
 20
472.31739680886778
 40
0.1999999999999886
 50
179.99999999999983
 51
269.99999999999977
  0
ARC
  8
_0-0_計極細
  6
CONTINUOUS
 62
    2
 10
645.76334357557698
 20
473.61739680886774
 40
0.5
 50
155.94545099999456
 51
179.99999999999983
  0
ARC
  8
_0-0_計極細
  6
CONTINUOUS
 62
    2
 10
647.91334357557719
 20
469.11739680886768
 40
0.5
 50
179.99999999999983
 51
269.99999999999977
  0
LINE
  8
_0-0_計極細
  6
CONTINUOUS
 62
    2
 10
648.51334357557698
 20
468.61739680886774
 11
648.51334357557698
 21
469.61739680886774
  0
LINE
  8
_0-0_計極細
  6
CONTINUOUS
 62
    2
 10
647.41334357557707
 20
469.11739680886768
 11
647.41334357557662
 21
472.11739680886774
  0
LINE
  8
_0-0_計極細
  6
CONTINUOUS
 62
    2
 10
647.41334357557662
 20
472.11739680886774
 11
645.4633435755768
 21
472.11739680886774
  0
LINE
  8
_0-0_計極細
  6
CONTINUOUS
 62
    2
 10
645.26334357557698
 20
472.31739680886778
 11
645.26334357557698
 21
473.61739680886774
  0
LINE
  8
_0-0_計極細
  6
CONTINUOUS
 62
    2
 10
660.42703057557674
 20
455.41739680886781
 11
660.42703057557674
 21
457.11739680886774
  0
LINE
  8
_0-0_計極細
  6
CONTINUOUS
 62
    2
 10
656.92703057557674
 20
455.41739680886781
 11
656.92703057557674
 21
457.11739680886774
  0
LINE
  8
_0-0_計極細
  6
CONTINUOUS
 62
    2
 10
661.92703057557674
 20
455.41739680886781
 11
661.92703057557674
 21
457.11739680886774
  0
LINE
  8
_0-0_計極細
  6
CONTINUOUS
 62
    2
 10
661.92703057557674
 20
455.41739680886781
 11
656.92703057557674
 21
455.41739680886781
  0
LINE
  8
_0-0_計極細
  6
CONTINUOUS
 62
    2
 10
648.7133435755768
 20
457.11739680886774
 11
643.21334357557691
 21
457.11739680886774
  0
LINE
  8
_0-0_計極細
  6
CONTINUOUS
 62
    2
 10
649.54352757557672
 20
455.11739680886768
 11
648.7133435755768
 21
455.11739680886768
  0
LINE
  8
_0-0_計極細
  6
CONTINUOUS
 62
    2
 10
648.7133435755768
 20
459.81739680886778
 11
647.41334357557707
 21
459.81739680886778
  0
LINE
  8
_0-0_計極細
  6
CONTINUOUS
 62
    2
 10
648.7133435755768
 20
459.11739680886768
 11
646.7133435755768
 21
459.11739680886768
  0
LINE
  8
_0-0_計極細
  6
CONTINUOUS
 62
    2
 10
648.7133435755768
 20
455.11739680886768
 11
648.7133435755768
 21
461.11739680886774
  0
LINE
  8
_0-0_計極細
  6
CONTINUOUS
 62
    2
 10
641.73434357557699
 20
458.59639680886772
 11
643.21334357557691
 21
457.11739680886774
  0
LINE
  8
_0-0_計極細
  6
CONTINUOUS
 62
    2
 10
646.7133435755768
 20
459.11739680886768
 11
646.7133435755768
 21
470.36739680886768
  0
ARC
  8
_0-0_計極細
  6
CONTINUOUS
 62
    2
 10
645.66334357557707
 20
470.36739680886768
 40
1.0500000000000114
 50
0
 51
89.999999999999915
  0
LINE
  8
_0-0_計極細
  6
CONTINUOUS
 62
    2
 10
644.47211957557693
 20
471.41739680886781
 11
645.66334357557707
 21
471.41739680886781
  0
ARC
  8
_0-0_計極細
  6
CONTINUOUS
 62
    2
 10
644.47211957557693
 20
473.11739680886774
 40
1.6999999999999886
 50
183.35088800000065
 51
269.99999999999977
  0
ARC
  8
_0-0_計極細
  6
CONTINUOUS
 62
    2
 10
644.47211957557693
 20
473.11739680886774
 40
1
 50
183.35088799999644
 51
269.99999999999977
  0
ARC
  8
_0-0_計極細
  6
CONTINUOUS
 62
    2
 10
641.73434357557699
 20
472.86739680886768
 40
1.7500000000000002
 50
4.1509900000015376
 51
89.999999999999915
  0
ARC
  8
_0-0_計極細
  6
CONTINUOUS
 62
    2
 10
645.66334357557707
 20
470.36739680886768
 40
1.7500000000000002
 50
0
 51
89.999999999999915
  0
LINE
  8
_0-0_計極細
  6
CONTINUOUS
 62
    2
 10
645.2133435755768
 20
472.11739680886774
 11
645.2133435755768
 21
474.61739680886774
  0
LINE
  8
_0-0_計極細
  6
CONTINUOUS
 62
    2
 10
647.41334357557707
 20
459.81739680886778
 11
647.41334357557707
 21
470.36739680886768
  0
LINE
  8
_0-0_計極細
  6
CONTINUOUS
 62
    2
 10
644.47211957557693
 20
472.11739680886774
 11
645.66334357557707
 21
472.11739680886774
  0
LINE
  8
_0-0_計極細
  6
CONTINUOUS
 62
    2
 10
651.4633435755768
 20
461.11739680886774
 11
647.41334357557707
 21
461.11739680886774
  0
ARC
  8
_0-0_計極細
  6
CONTINUOUS
 62
    2
 10
653.4633435755768
 20
447.21033280886775
 40
1
 50
0
 51
89.999999999999915
  0
ARC
  8
_0-0_計極細
  6
CONTINUOUS
 62
    2
 10
653.4633435755768
 20
447.21033280886775
 40
1
 50
89.999999999999915
 51
179.99999999999983
  0
LINE
  8
_0-0_計極細
  6
CONTINUOUS
 62
    2
 10
641.73434357557699
 20
453.41033280886779
 11
643.21334357557691
 21
454.21033280886775
  0
LINE
  8
_0-0_計極細
  6
CONTINUOUS
 62
    2
 10
643.21334357557691
 20
454.21033280886775
 11
643.21334357557691
 21
457.11739680886774
  0
LINE
  8
_0-0_計極細
  6
CONTINUOUS
 62
    2
 10
641.73434357557699
 20
458.59639680886772
 11
641.73434357557699
 21
473.91739680886781
  0
ARC
  8
_0-0_計極細
  6
CONTINUOUS
 62
    2
 10
641.73434357557699
 20
472.86739680886768
 40
1.0500000000000114
 50
4.1509900000016975
 51
89.999999999999915
  0
LINE
  8
_0-0_計極細
  6
CONTINUOUS
 62
    2
 10
651.2133435755768
 20
454.21817580886784
 11
654.2133435755768
 21
454.21817580886784
  0
ARC
  8
_0-0_計極細
  6
CONTINUOUS
 62
    2
 10
651.2133435755768
 20
456.21817580886784
 40
2
 50
179.99999999999983
 51
269.99999999999977
  0
LINE
  8
_0-0_計極細
  6
CONTINUOUS
 62
    2
 10
649.2133435755768
 20
456.21817580886784
 11
649.2133435755768
 21
457.21817580886778
  0
LINE
  8
_0-0_計極細
  6
CONTINUOUS
 62
    2
 10
649.2133435755768
 20
457.21817580886778
 11
651.4633435755768
 21
457.21817580886778
  0
LINE
  8
_0-0_計極細
  6
CONTINUOUS
 62
    2
 10
648.21334357557691
 20
461.6181758088677
 11
651.4633435755768
 21
461.6181758088677
  0
LINE
  8
_0-0_計極細
  6
CONTINUOUS
 62
    2
 10
651.4633435755768
 20
457.21817580886778
 11
651.4633435755768
 21
461.61817580886776
  0
ARC
  8
_0-0_計極細
  6
CONTINUOUS
 62
    2
 10
664.46334357557691
 20
389.91031608886379
 40
10
 50
179.99999999999983
 51
269.99999999999977
  0
LINE
  8
_0-0_計極細
  6
CONTINUOUS
 62
    2
 10
654.46334357557691
 20
389.91031608886379
 11
654.46334357557691
 21
447.21033280886775
  0
LINE
  8
_0-0_計極細
  6
CONTINUOUS
 62
    2
 10
652.4633435755768
 20
389.91031608886379
 11
652.4633435755768
 21
447.21033280886775
  0
ARC
  8
_0-0_計極細
  6
CONTINUOUS
 62
    2
 10
664.46334357557691
 20
389.91031608886379
 40
12.000000000000002
 50
179.99999999999983
 51
269.99999999999977
  0
LINE
  8
_0-0_計極細
  6
CONTINUOUS
 62
    2
 10
652.4633435755768
 20
389.91031608886379
 11
652.4633435755768
 21
416.91031608886385
  0
ARC
  8
_0-0_計極細
  6
CONTINUOUS
 62
    2
 10
665.71334357557691
 20
396.11815908886371
 40
1
 50
179.99999999999983
 51
270.00045836623457
  0
LINE
  8
_0-0_計極細
  6
CONTINUOUS
 62
    2
 10
664.7133435755768
 20
396.11815908886371
 11
664.7133435755768
 21
454.59242180886775
  0
LINE
  8
_0-0_計極細
  6
CONTINUOUS
 62
    2
 10
641.73434357557699
 20
474.61739680886774
 11
633.68273557557768
 21
475.76418615511449
  0
LINE
  8
_0-0_計極細
  6
CONTINUOUS
 62
    2
 10
641.73434357557699
 20
473.91033226261686
 11
633.68273557557768
 21
475.05712222728278
  0
LINE
  8
_0-0_計極細
  6
CONTINUOUS
 62
    2
 10
633.68273557557768
 20
473.34102005059572
 11
641.73434357557699
 21
472.41033280886774
  0
LINE
  8
_0-0_計極細
  6
CONTINUOUS
 62
    2
 10
690.68273557557768
 20
474.91031608886402
 11
639.67775695567661
 21
474.91031608886402
  0
LINE
  8
_0-0_計極細
  6
CONTINUOUS
 62
    2
 10
690.68273557557768
 20
474.6173968088678
 11
641.73434357557699
 21
474.61739680886774
  0
LINE
  8
_0-0_計極細
  6
CONTINUOUS
 62
    2
 10
690.68273557557768
 20
474.11739680886785
 11
645.76334357557698
 21
474.11739680886768
  0
LINE
  8
_0-0_計極細
  6
CONTINUOUS
 62
    2
 10
690.68273557557768
 20
469.6173968088678
 11
648.51334357557698
 21
469.61739680886774
  0
LINE
  8
_0-0_計極細
  6
CONTINUOUS
 62
    2
 10
690.68273557557768
 20
468.61739680886785
 11
647.91334357557719
 21
468.61739680886774
  0
LINE
  8
_0-0_計極細
  6
CONTINUOUS
 62
    2
 10
690.68273557557768
 20
467.52350680886786
 11
647.56334357557671
 21
467.52350680886769
  0
LINE
  8
_0-0_計極細
  6
CONTINUOUS
 62
    2
 10
648.21334357557691
 20
467.71817580886784
 11
690.68273557557768
 21
467.71817580886784
  0
LINE
  8
_0-0_計極細
  6
CONTINUOUS
 62
    2
 10
690.68273557557768
 20
463.2235068088678
 11
648.36334357557689
 21
463.2235068088678
  0
LINE
  8
_0-0_計極細
  6
CONTINUOUS
 62
    2
 10
648.21334357557691
 20
463.1181758088677
 11
690.68273557557768
 21
463.11817580886782
  0
LINE
  8
_0-0_計極細
  6
CONTINUOUS
 62
    2
 10
651.4633435755768
 20
461.61817580886776
 11
690.68273557557768
 21
461.61817580886776
  0
LINE
  8
_0-0_計極細
  6
CONTINUOUS
 62
    2
 10
665.71334357557691
 20
395.11815908886376
 11
690.68273557557768
 21
395.11815908886376
  0
LINE
  8
_0-0_計極細
  6
CONTINUOUS
 62
    2
 10
690.68273557557768
 20
379.91031608886379
 11
664.46334357557691
 21
379.91031608886379
  0
LINE
  8
_0-0_計極細
  6
CONTINUOUS
 62
    2
 10
690.68273557557768
 20
377.91031608886379
 11
664.46334357557691
 21
377.91031608886379
  0
LINE
  8
_0-0_計極細
  6
CONTINUOUS
 62
    2
 10
648.36334357557689
 20
463.24157250424918
 11
651.96334357557691
 21
463.24157250424918
  0
LINE
  8
_0-0_計極細
  6
CONTINUOUS
 62
    2
 10
648.36334357557689
 20
464.74157250424923
 11
651.96334357557691
 21
464.74157250424923
  0
LINE
  8
_0-0_計極細
  6
CONTINUOUS
 62
    2
 10
648.24704187137331
 20
466.24157250424923
 11
652.18140927095828
 21
466.24157250424923
  0
ARC
  8
_0-0_計極細
  6
CONTINUOUS
 62
    2
 10
658.7133435755768
 20
454.59242180886775
 40
6.0000000000000009
 50
0
 51
24.886947317069655
  0
ARC
  8
_0-0_計極細
  6
CONTINUOUS
 62
    2
 10
658.7133435755768
 20
454.59242180886775
 40
6.0000000000000009
 50
24.886947317069655
 51
124.83370764384406
  0
LINE
  8
_0-0_計極細
  6
CONTINUOUS
 62
    2
 10
654.2133435755768
 20
454.21817580886784
 11
654.2133435755768
 21
457.11739680886774
  0
LINE
  8
_0-0_計極細
  6
CONTINUOUS
 62
    2
 10
664.15618302290341
 20
457.11739680886774
 11
654.21503678787826
 21
457.11739680886774
  0
ARC
  8
_0-0_計極細
  6
CONTINUOUS
 62
    2
 10
657.2133435755768
 20
457.21817580886778
 40
3.0000000000000004
 50
129.97050058003578
 51
181.92509931279602
  0
LINE
  8
_0-1_計細線
  6
CONTINUOUS
 62
    3
 10
637.73375957557801
 20
469.21033280886797
 11
633.68273557557768
 21
469.21033280886797
  0
LINE
  8
_0-1_計細線
  6
CONTINUOUS
 62
    3
 10
637.73375957557801
 20
452.00135608886342
 11
637.73375957557801
 21
469.21033280886797
  0
LINE
  8
_0-0_計極細
  6
CONTINUOUS
 62
    2
 10
739.22273588173925
 20
424.77800680886736
 11
731.97601157557858
 21
424.77800680886736
  0
LINE
  8
_0-0_計極細
  6
CONTINUOUS
 62
    2
 10
739.22273588173925
 20
424.77800680886736
 11
739.22273588173925
 21
453.41033280886779
  0
LINE
  8
_0-0_計極細
  6
CONTINUOUS
 62
    2
 10
642.14273557557772
 20
367.37031608886406
 11
642.14273557557772
 21
453.41033280886779
  0
LINE
  8
_0-0_計極細
  6
CONTINUOUS
 62
    2
 10
648.14273557557772
 20
361.37031608886412
 11
739.51051384041148
 21
361.37031608886412
  0
ARC
  8
_0-0_計極細
  6
CONTINUOUS
 62
    2
 10
648.14273557557772
 20
367.37031608886406
 40
6.0000000000000009
 50
179.99999999999983
 51
269.99999999999977
  0
LINE
  8
_0-0_計極細
  6
CONTINUOUS
 62
    2
 10
633.68273557557768
 20
473.29226262571603
 11
633.72644107196311
 21
473.33596812210152
  0
LINE
  8
_1-5_寸法3
  6
CONTINUOUS
 62
    7
 10
1040.040873835057
 20
313.16744246628792
 11
995.04087383505748
 21
313.16744246628804
  0
LINE
  8
_1-5_寸法3
  6
CONTINUOUS
 62
    7
 10
1000.0408738350575
 20
313.16744246628804
 11
1002.6290642860827
 21
303.50818420339738
  0
LINE
  8
_1-5_寸法3
  6
CONTINUOUS
 62
    7
 10
1000.0408738350575
 20
313.16744246628804
 11
997.45268338403218
 21
303.50818420339738
  0
LINE
  8
_1-5_寸法3
  6
CONTINUOUS
 62
    7
 10
1042.5408738350575
 20
252.3341091329545
 11
995.04087383505748
 21
252.33410913295461
  0
LINE
  8
_1-5_寸法3
  6
CONTINUOUS
 62
    7
 10
1000.0408738350575
 20
252.33410913295461
 11
997.45268338403218
 21
261.99336739584527
  0
LINE
  8
_1-5_寸法3
  6
CONTINUOUS
 62
    7
 10
1000.0408738350575
 20
252.33410913295461
 11
1002.6290642860827
 21
261.99336739584527
  0
LINE
  8
_1-5_寸法3
  6
CONTINUOUS
 62
    7
 10
1000.0408738350575
 20
313.16744246628804
 11
1000.0408738350575
 21
252.33410913295461
  0
TEXT
  8
_1-5_寸法3
 62
    7
 10
1000.0408738350575
 20
267.75077579962118
 40
15
 41
1
 50
90
  1
36.5
  0
LINE
  8
_1-5_寸法3
  6
CONTINUOUS
 62
    7
 10
1300.0408738350575
 20
313.16744246628775
 11
1345.0408738350575
 21
313.16744246628735
  0
LINE
  8
_1-5_寸法3
  6
CONTINUOUS
 62
    7
 10
1340.0408738350575
 20
313.16744246628741
 11
1342.6290642860827
 21
303.50818420339681
  0
LINE
  8
_1-5_寸法3
  6
CONTINUOUS
 62
    7
 10
1340.0408738350575
 20
313.16744246628741
 11
1337.4526833840323
 21
303.50818420339681
  0
LINE
  8
_1-5_寸法3
  6
CONTINUOUS
 62
    7
 10
1300.0408738350575
 20
296.50077579962107
 11
1345.0408738350575
 21
296.50077579962067
  0
LINE
  8
_1-5_寸法3
  6
CONTINUOUS
 62
    7
 10
1340.0408738350575
 20
296.50077579962073
 11
1337.4526833840323
 21
306.16003406251139
  0
LINE
  8
_1-5_寸法3
  6
CONTINUOUS
 62
    7
 10
1340.0408738350575
 20
296.50077579962073
 11
1342.6290642860827
 21
306.16003406251139
  0
LINE
  8
_1-5_寸法3
  6
CONTINUOUS
 62
    7
 10
1340.0408738350575
 20
313.16744246628741
 11
1340.0408738350575
 21
296.50077579962073
  0
TEXT
  8
_1-5_寸法3
 62
    7
 10
1340.0408738350575
 20
297.33410913295404
 40
15
 41
1
 50
90
  1
10
  0
TEXT
  8
_0-7_枠細線
 62
    5
 10
1121.9863295234609
 20
206.08585173847672
 40
25
 41
0.8
 50
0
  1
断面詳細図
  0
LINE
  8
_1-2_極細3
  6
CENTER1
 62
    2
 10
1170.0408738350575
 20
326.24754095382252
 11
1170.0408738350575
 21
243.84949882074523
  0
LINE
  8
_1-2_極細3
  6
CONTINUOUS
 62
    2
 10
1289.2075403741569
 20
296.50077579961811
 11
1287.5408737074904
 21
296.50077579961811
  0
LINE
  8
_1-2_極細3
  6
CONTINUOUS
 62
    2
 10
1285.8742070408234
 20
311.08410913295137
 11
1285.8742070408234
 21
254.00077579961811
  0
ARC
  8
_1-2_極細3
  6
CONTINUOUS
 62
    2
 10
1287.9575403741574
 20
311.08410913295137
 40
2.0833333333333339
 50
359.99999999998244
 51
179.99999999999946
  0
LINE
  8
_1-2_極細3
  6
CONTINUOUS
 62
    2
 10
1287.5408737074904
 20
311.08410913295148
 11
1287.5408737074904
 21
252.33410913295131
  0
ARC
  8
_1-2_極細3
  6
CONTINUOUS
 62
    2
 10
1287.9575403741569
 20
311.08410913295137
 40
0.4166666666666667
 50
89.999999999999915
 51
179.99999999998437
  0
LINE
  8
_1-2_極細3
  6
CONTINUOUS
 62
    2
 10
1287.9575403741569
 20
311.50077579961811
 11
1287.9391034365985
 21
311.50077579961811
  0
LINE
  8
_1-2_極細3
  6
CONTINUOUS
 62
    2
 10
1287.5408737074904
 20
304.94473075830228
 11
1288.3521150618835
 21
311.02904091624686
  0
ARC
  8
_1-2_極細3
  6
CONTINUOUS
 62
    2
 10
1287.9391034365985
 20
311.08410913295137
 40
0.4166666666666667
 50
352.4053566314289
 51
89.999999999999545
  0
LINE
  8
_1-2_極細3
  6
CONTINUOUS
 62
    2
 10
1287.5408737074904
 20
252.33410913295131
 11
1052.5408739626246
 21
252.33410913295131
  0
LINE
  8
_1-2_極細3
  6
CONTINUOUS
 62
    2
 10
1285.8742070408234
 20
254.00077579961811
 11
1054.2075406292915
 21
254.00077579961811
  0
LINE
  8
_1-2_極細3
  6
CONTINUOUS
 62
    2
 10
1289.2075403741569
 20
304.61286588224954
 11
1289.2075403741569
 21
296.50077579961811
  0
LINE
  8
_1-2_極細3
  6
CONTINUOUS
 62
    2
 10
1289.2367807052151
 20
305.05341161588649
 11
1290.0408737074908
 21
311.08410913295137
  0
ARC
  8
_1-2_極細3
  6
CONTINUOUS
 62
    2
 10
1292.5408737074904
 20
304.61286588224971
 40
3.3333333333333339
 50
172.40535663140824
 51
180.00000000000256
  0
LINE
  8
_1-2_極細3
  6
CONTINUOUS
 62
    2
 10
1050.8742072959581
 20
296.50077579961811
 11
1052.5408739626246
 21
296.50077579961811
  0
LINE
  8
_1-2_極細3
  6
CONTINUOUS
 62
    2
 10
1054.2075406292915
 20
311.08410913295137
 11
1054.2075406292915
 21
254.00077579961811
  0
ARC
  8
_1-2_極細3
  6
CONTINUOUS
 62
    2
 10
1052.1242072959576
 20
311.08410913295137
 40
2.0833333333333339
 50
0
 51
180.00000000001685
  0
LINE
  8
_1-2_極細3
  6
CONTINUOUS
 62
    2
 10
1052.5408739626246
 20
311.08410913295148
 11
1052.5408739626246
 21
252.33410913295131
  0
ARC
  8
_1-2_極細3
  6
CONTINUOUS
 62
    2
 10
1052.1242072959581
 20
311.08410913295137
 40
0.4166666666666667
 50
0.000000000015633
 51
89.999999999999915
  0
LINE
  8
_1-2_極細3
  6
CONTINUOUS
 62
    2
 10
1052.1242072959581
 20
311.50077579961811
 11
1052.1426442335164
 21
311.50077579961811
  0
LINE
  8
_1-2_極細3
  6
CONTINUOUS
 62
    2
 10
1052.5408739626246
 20
304.94473075830228
 11
1051.7296326082314
 21
311.02904091624686
  0
ARC
  8
_1-2_極細3
  6
CONTINUOUS
 62
    2
 10
1052.1426442335164
 20
311.08410913295137
 40
0.4166666666666667
 50
89.999999999999915
 51
187.59464336857042
  0
LINE
  8
_1-2_極細3
  6
CONTINUOUS
 62
    2
 10
1050.8742072959581
 20
304.61286588224954
 11
1050.8742072959581
 21
296.50077579961811
  0
LINE
  8
_1-2_極細3
  6
CONTINUOUS
 62
    2
 10
1050.8449669648999
 20
305.05341161588649
 11
1050.0408739626246
 21
311.08410913295137
  0
ARC
  8
_1-2_極細3
  6
CONTINUOUS
 62
    2
 10
1047.5408739626246
 20
304.61286588224971
 40
3.3333333333333339
 50
359.9999999999967
 51
7.5946433685914272
  0
TEXT
  8
_0-7_枠細線
 62
    5
 10
1236.9352992726294
 20
207.83959385422185
 40
20
 41
0.6
 50
0
  1
Ｓ＝１：３
  0
LINE
  8
_1-3_細線3
  6
CONTINUOUS
 62
    4
 10
1067.540873962625
 20
287.33410913295432
 11
1067.540873962625
 21
312.33410913295432
  0
LINE
  8
_1-3_細線3
  6
CONTINUOUS
 62
    4
 10
1272.5408739626255
 20
287.33410913295518
 11
1067.540873962625
 21
287.33410913295432
  0
LINE
  8
_1-3_細線3
  6
CONTINUOUS
 62
    4
 10
1272.5408739626255
 20
312.33410913295518
 11
1272.5408739626255
 21
287.33410913295518
  0
LINE
  8
_1-3_細線3
  6
CONTINUOUS
 62
    4
 10
1275.8742072959585
 20
312.33410913295518
 11
1064.2075406292915
 21
312.33410913295432
  0
LINE
  8
_1-3_細線3
  6
CONTINUOUS
 62
    4
 10
1275.8742072959585
 20
284.0007757996209
 11
1275.8742072959585
 21
312.33410913295518
  0
LINE
  8
_1-3_細線3
  6
CONTINUOUS
 62
    4
 10
1064.2075406292915
 20
284.0007757996209
 11
1275.8742072959585
 21
284.0007757996209
  0
LINE
  8
_1-3_細線3
  6
CONTINUOUS
 62
    4
 10
1064.2075406292915
 20
312.33410913295432
 11
1064.2075406292915
 21
284.0007757996209
  0
LINE
  8
_1-5_寸法3
  6
CONTINUOUS
 62
    7
 10
1162.3835136421162
 20
290.42865189648631
 11
1131.2320673883573
 21
316.56781895865458
  0
LINE
  8
_1-5_寸法3
  6
CONTINUOUS
 62
    7
 10
1135.0622896039522
 20
313.35388091022185
 11
1132.474099152927
 21
323.01313917311256
  0
LINE
  8
_1-5_寸法3
  6
CONTINUOUS
 62
    7
 10
1135.0622896039522
 20
313.35388091022185
 11
1137.6504800549774
 21
323.01313917311256
  0
LINE
  8
_1-5_寸法3
  6
CONTINUOUS
 62
    7
 10
1162.3835136421162
 20
318.76198522982014
 11
1131.2320673883573
 21
344.90115229198841
  0
LINE
  8
_1-5_寸法3
  6
CONTINUOUS
 62
    7
 10
1135.0622896039522
 20
341.68721424355567
 11
1137.6504800549774
 21
332.02795598066501
  0
LINE
  8
_1-5_寸法3
  6
CONTINUOUS
 62
    7
 10
1135.0622896039522
 20
341.68721424355567
 11
1132.474099152927
 21
332.02795598066501
  0
LINE
  8
_1-5_寸法3
  6
CONTINUOUS
 62
    7
 10
1135.0622896039522
 20
313.35388091022185
 11
1135.0622896039522
 21
341.68721424355567
  0
TEXT
  8
_1-5_寸法3
 62
    7
 10
1135.0622896039522
 20
320.02054757688876
 40
15
 41
1
 50
90
  1
17
  0
LINE
  8
_1-5_寸法3
  6
CONTINUOUS
 62
    7
 10
1224.5853441686259
 20
284.0007757996209
 11
1227.173534619651
 21
274.34151753673018
  0
LINE
  8
_1-5_寸法3
  6
CONTINUOUS
 62
    7
 10
1224.5853441686259
 20
284.0007757996209
 11
1221.9971537176007
 21
274.34151753673024
  0
LINE
  8
_1-5_寸法3
  6
CONTINUOUS
 62
    7
 10
1224.5853441686259
 20
287.33410913295472
 11
1221.9971537176007
 21
296.99336739584538
  0
LINE
  8
_1-5_寸法3
  6
CONTINUOUS
 62
    7
 10
1224.5853441686259
 20
287.33410913295472
 11
1227.173534619651
 21
296.99336739584538
  0
LINE
  8
_1-5_寸法3
  6
CONTINUOUS
 62
    7
 10
1224.5853441686259
 20
259.0007757996209
 11
1224.5853441686259
 21
312.33410913295472
  0
TEXT
  8
_1-5_寸法3
 62
    7
 10
1224.5853441686259
 20
263.90334546371173
 40
15
 41
1
 50
90
  1
2
  0
ARC
  8
_1-3_細線3
  6
CONTINUOUS
 62
    4
 10
1277.3081941593287
 20
257.33410913295461
 40
3.333333333333333
 50
269.99999999999977
 51
348.69006752597693
  0
LINE
  8
_1-3_細線3
  6
CONTINUOUS
 62
    4
 10
1277.3081941593287
 20
254.00077579962118
 11
1249.4402201774519
 21
254.00077579962118
  0
LINE
  8
_1-3_細線3
  6
CONTINUOUS
 62
    4
 10
1283.374207168391
 20
270.66744246628804
 11
1280.5767964116317
 21
256.68038868249386
  0
ARC
  8
_1-3_細線3
  6
CONTINUOUS
 62
    4
 10
1249.4402201774519
 20
257.33410913295461
 40
3.333333333333333
 50
191.3099324740254
 51
269.99999999999977
  0
LINE
  8
_1-3_細線3
  6
CONTINUOUS
 62
    4
 10
1246.1716179251498
 20
256.68038868249386
 11
1243.374207168391
 21
270.66744246628804
  0
LINE
  8
_1-3_細線3
  6
CONTINUOUS
 62
    4
 10
1242.5408738350579
 20
284.00077579962192
 11
1284.207540501724
 21
284.00077579962147
  0
LINE
  8
_1-3_細線3
  6
CONTINUOUS
 62
    4
 10
1242.5408738350579
 20
270.66744246628804
 11
1242.5408738350579
 21
284.00077579962175
  0
LINE
  8
_1-3_細線3
  6
CONTINUOUS
 62
    4
 10
1242.5408738350579
 20
270.66744246628804
 11
1284.207540501724
 21
270.66744246628804
  0
LINE
  8
_1-3_細線3
  6
CONTINUOUS
 62
    4
 10
1284.207540501724
 20
284.00077579962147
 11
1284.207540501724
 21
270.66744246628804
  0
ARC
  8
_1-3_細線3
  6
CONTINUOUS
 62
    4
 10
1090.6415274926626
 20
257.33410913295415
 40
3.333333333333333
 50
269.99999999999977
 51
348.69006752597676
  0
LINE
  8
_1-3_細線3
  6
CONTINUOUS
 62
    4
 10
1090.6415274926626
 20
254.0007757996209
 11
1062.7735535107854
 21
254.0007757996209
  0
LINE
  8
_1-3_細線3
  6
CONTINUOUS
 62
    4
 10
1096.707540501724
 20
270.66744246628775
 11
1093.9101297449647
 21
256.68038868249357
  0
ARC
  8
_1-3_細線3
  6
CONTINUOUS
 62
    4
 10
1062.7735535107854
 20
257.33410913295415
 40
3.333333333333333
 50
191.309932474021
 51
269.99999999999977
  0
LINE
  8
_1-3_細線3
  6
CONTINUOUS
 62
    4
 10
1059.5049512584828
 20
256.68038868249357
 11
1056.707540501724
 21
270.66744246628775
  0
LINE
  8
_1-3_細線3
  6
CONTINUOUS
 62
    4
 10
1097.5408738350579
 20
284.00077579962118
 11
1055.874207168391
 21
284.00077579962118
  0
LINE
  8
_1-3_細線3
  6
CONTINUOUS
 62
    4
 10
1097.5408738350579
 20
270.66744246628775
 11
1097.5408738350579
 21
284.00077579962158
  0
LINE
  8
_1-3_細線3
  6
CONTINUOUS
 62
    4
 10
1055.874207168391
 20
270.66744246628775
 11
1097.5408738350579
 21
270.66744246628775
  0
LINE
  8
_1-3_細線3
  6
CONTINUOUS
 62
    4
 10
1055.874207168391
 20
284.00077579962118
 11
1055.874207168391
 21
270.66744246628775
  0
LINE
  8
_1-5_寸法3
  6
CONTINUOUS
 62
    7
 10
1050.0408739626241
 20
323.16744246628468
 11
1050.0408739626241
 21
368.16744246628468
  0
LINE
  8
_1-5_寸法3
  6
CONTINUOUS
 62
    7
 10
1050.0408739626241
 20
363.16744246628468
 11
1040.3816156997334
 21
360.57925201525956
  0
LINE
  8
_1-5_寸法3
  6
CONTINUOUS
 62
    7
 10
1050.0408739626241
 20
363.16744246628468
 11
1040.3816156997334
 21
365.75563291730992
  0
LINE
  8
_1-5_寸法3
  6
CONTINUOUS
 62
    7
 10
1054.207540629292
 20
323.16744246628468
 11
1054.207540629292
 21
368.16744246628468
  0
CIRCLE
  8
_1-5_寸法3
  6
CONTINUOUS
 62
    1
 10
1054.207540629292
 20
363.16744246628468
 40
1.5000000000000002
  0
LINE
  8
_1-5_寸法3
  6
CONTINUOUS
 62
    7
 10
1019.2603000891809
 20
363.16744246628468
 11
1054.207540629292
 21
363.16744246628468
  0
TEXT
  8
_1-5_寸法3
 62
    7
 10
1019.2603000891809
 20
363.16744246628474
 40
15
 41
1
 50
0
  1
2.5
  0
LINE
  8
_1-5_寸法3
  6
CONTINUOUS
 62
    7
 10
1064.2075406292915
 20
323.16744246628468
 11
1064.207540629292
 21
368.16744246628468
  0
LINE
  8
_1-5_寸法3
  6
CONTINUOUS
 62
    7
 10
1054.207540629292
 20
363.16744246628468
 11
1064.207540629292
 21
363.16744246628468
  0
TEXT
  8
_1-5_寸法3
 62
    7
 10
1055.457540629292
 20
363.16744246628468
 40
15
 41
1
 50
0
  1
6
  0
LINE
  8
_1-5_寸法3
  6
CONTINUOUS
 62
    7
 10
1064.207540629292
 20
363.16744246628468
 11
1073.8667988921827
 21
365.75563291730987
  0
LINE
  8
_1-5_寸法3
  6
CONTINUOUS
 62
    7
 10
1064.207540629292
 20
363.16744246628468
 11
1073.8667988921827
 21
360.57925201525956
  0
LINE
  8
_1-5_寸法3
  6
CONTINUOUS
 62
    7
 10
1275.8742072959585
 20
323.16744246628468
 11
1275.8742072959585
 21
368.16744246628468
  0
LINE
  8
_1-5_寸法3
  6
CONTINUOUS
 62
    7
 10
1275.8742072959585
 20
363.16744246628468
 11
1266.2149490330678
 21
360.57925201525956
  0
LINE
  8
_1-5_寸法3
  6
CONTINUOUS
 62
    7
 10
1275.8742072959585
 20
363.16744246628468
 11
1266.2149490330678
 21
365.75563291730992
  0
LINE
  8
_1-5_寸法3
  6
CONTINUOUS
 62
    7
 10
1064.207540629292
 20
363.16744246628468
 11
1275.8742072959585
 21
363.16744246628468
  0
TEXT
  8
_1-5_寸法3
 62
    7
 10
1158.7908739626255
 20
363.16744246628468
 40
15
 41
1
 50
0
  1
127
  0
LINE
  8
_1-5_寸法3
  6
CONTINUOUS
 62
    7
 10
1285.8742070408234
 20
323.16744246628468
 11
1285.8742070408234
 21
368.16744246628468
  0
CIRCLE
  8
_1-5_寸法3
  6
CONTINUOUS
 62
    1
 10
1285.8742070408234
 20
363.16744246628468
 40
1.5000000000000002
  0
LINE
  8
_1-5_寸法3
  6
CONTINUOUS
 62
    7
 10
1275.8742072959585
 20
363.16744246628468
 11
1285.8742070408234
 21
363.16744246628468
  0
TEXT
  8
_1-5_寸法3
 62
    7
 10
1277.124207168391
 20
363.16744246628468
 40
15
 41
1
 50
0
  1
6
  0
LINE
  8
_1-5_寸法3
  6
CONTINUOUS
 62
    7
 10
1290.0408737074904
 20
323.16744246628468
 11
1290.0408737074904
 21
368.16744246628468
  0
LINE
  8
_1-5_寸法3
  6
CONTINUOUS
 62
    7
 10
1290.0408737074904
 20
363.16744246628468
 11
1299.7001319703813
 21
365.75563291730981
  0
LINE
  8
_1-5_寸法3
  6
CONTINUOUS
 62
    7
 10
1290.0408737074904
 20
363.16744246628468
 11
1299.7001319703813
 21
360.5792520152595
  0
LINE
  8
_1-5_寸法3
  6
CONTINUOUS
 62
    7
 10
1285.8742070408234
 20
363.16744246628468
 11
1325.6678567406084
 21
363.16744246628468
  0
TEXT
  8
_1-5_寸法3
 62
    7
 10
1303.1678567406084
 20
363.16744246628468
 40
15
 41
1
 50
0
  1
2.5
  0
LINE
  8
_1-5_寸法3
  6
CONTINUOUS
 62
    7
 10
1050.0408738350575
 20
323.16744246628787
 11
1050.0408738350575
 21
403.16744246628474
  0
LINE
  8
_1-5_寸法3
  6
CONTINUOUS
 62
    7
 10
1050.0408738350575
 20
398.16744246628474
 11
1059.7001320979482
 21
400.75563291730987
  0
LINE
  8
_1-5_寸法3
  6
CONTINUOUS
 62
    7
 10
1050.0408738350575
 20
398.16744246628474
 11
1059.7001320979482
 21
395.57925201525956
  0
LINE
  8
_1-5_寸法3
  6
CONTINUOUS
 62
    7
 10
1290.0408738350575
 20
323.16744246628787
 11
1290.0408738350575
 21
403.16744246628474
  0
LINE
  8
_1-5_寸法3
  6
CONTINUOUS
 62
    7
 10
1290.0408738350575
 20
398.16744246628474
 11
1280.3816155721668
 21
395.57925201525956
  0
LINE
  8
_1-5_寸法3
  6
CONTINUOUS
 62
    7
 10
1290.0408738350575
 20
398.16744246628474
 11
1280.3816155721668
 21
400.75563291730992
  0
LINE
  8
_1-5_寸法3
  6
CONTINUOUS
 62
    7
 10
1050.0408738350575
 20
398.16744246628474
 11
1290.0408738350575
 21
398.16744246628474
  0
TEXT
  8
_1-5_寸法3
 62
    7
 10
1158.7908738350575
 20
398.16744246628468
 40
15
 41
1
 50
0
  1
144
  0
LINE
  8
_1-3_細線3
  6
CONTINUOUS
 62
    4
 10
1136.7137088506533
 20
279.00077579962147
 11
1136.7137088506533
 21
284.00077579962101
  0
LINE
  8
_1-3_細線3
  6
CONTINUOUS
 62
    4
 10
1203.3803755173203
 20
279.00077579962158
 11
1136.7137088506533
 21
279.00077579962147
  0
LINE
  8
_1-3_細線3
  6
CONTINUOUS
 62
    4
 10
1203.3803755173203
 20
284.00077579962101
 11
1203.3803755173203
 21
279.00077579962158
  0
ARC
  8
_1-3_細線3
  6
CONTINUOUS
 62
    4
 10
1183.9748608259956
 20
257.33410913295387
 40
3.333333333333333
 50
269.99999999999977
 51
348.69006752597676
  0
LINE
  8
_1-3_細線3
  6
CONTINUOUS
 62
    4
 10
1183.9748608259956
 20
254.00077579962061
 11
1156.1068868441189
 21
254.00077579962061
  0
LINE
  8
_1-3_細線3
  6
CONTINUOUS
 62
    4
 10
1190.040873835057
 20
270.66744246628747
 11
1187.2434630782977
 21
256.68038868249329
  0
ARC
  8
_1-3_細線3
  6
CONTINUOUS
 62
    4
 10
1156.1068868441189
 20
257.33410913295387
 40
3.333333333333333
 50
191.30993247401946
 51
269.99999999999977
  0
LINE
  8
_1-3_細線3
  6
CONTINUOUS
 62
    4
 10
1152.8382845918159
 20
256.68038868249329
 11
1150.040873835057
 21
270.66744246628747
  0
LINE
  8
_1-3_細線3
  6
CONTINUOUS
 62
    4
 10
1149.207540501724
 20
270.66744246628747
 11
1190.874207168391
 21
270.66744246628747
  0
LINE
  8
_1-3_細線3
  6
CONTINUOUS
 62
    4
 10
1149.207540501724
 20
279.00077579962135
 11
1149.207540501724
 21
270.66744246628747
  0
LINE
  8
_1-3_細線3
  6
CONTINUOUS
 62
    4
 10
1190.874207168391
 20
270.66744246628747
 11
1190.874207168391
 21
279.00077579962158
  0
LINE
  8
_0-5_寸法線
  6
CONTINUOUS
 62
    7
 10
787.6827354990387
 20
359.41031608886414
 11
832.6827354990387
 21
359.41031608886396
  0
LINE
  8
_0-5_寸法線
  6
CONTINUOUS
 62
    7
 10
827.6827354990387
 20
359.41031608886396
 11
825.0945450480134
 21
369.06957435175462
  0
LINE
  8
_0-5_寸法線
  6
CONTINUOUS
 62
    7
 10
827.6827354990387
 20
359.41031608886396
 11
830.27092595006377
 21
369.06957435175462
  0
LINE
  8
_0-5_寸法線
  6
CONTINUOUS
 62
    7
 10
787.68273557557779
 20
387.69563208886325
 11
832.6827354990387
 21
387.69563208886319
  0
LINE
  8
_0-5_寸法線
  6
CONTINUOUS
 62
    7
 10
827.6827354990387
 20
387.69563208886319
 11
830.27092595006377
 21
378.03637382597253
  0
LINE
  8
_0-5_寸法線
  6
CONTINUOUS
 62
    7
 10
827.6827354990387
 20
387.69563208886319
 11
825.0945450480134
 21
378.03637382597253
  0
LINE
  8
_0-5_寸法線
  6
CONTINUOUS
 62
    7
 10
827.6827354990387
 20
359.41031608886396
 11
827.6827354990387
 21
387.69563208886319
  0
TEXT
  8
_0-5_寸法線
 62
    7
 10
827.6827354990387
 20
366.05297408886361
 40
15
 41
1
 50
90
  1
28
  0
LINE
  8
_0-5_寸法線
  6
CONTINUOUS
 62
    7
 10
827.6827354990387
 20
387.69563208886319
 11
825.0945450480134
 21
397.35489035175385
  0
LINE
  8
_0-5_寸法線
  6
CONTINUOUS
 62
    7
 10
827.6827354990387
 20
387.69563208886319
 11
830.27092595006377
 21
397.35489035175385
  0
LINE
  8
_0-5_寸法線
  6
CONTINUOUS
 62
    7
 10
770.18273549903756
 20
475.91031608886408
 11
832.6827354990387
 21
475.91031608886396
  0
LINE
  8
_0-5_寸法線
  6
CONTINUOUS
 62
    7
 10
827.6827354990387
 20
475.91031608886396
 11
830.27092595006377
 21
466.25105782597325
  0
LINE
  8
_0-5_寸法線
  6
CONTINUOUS
 62
    7
 10
827.6827354990387
 20
475.91031608886396
 11
825.0945450480134
 21
466.25105782597331
  0
LINE
  8
_0-5_寸法線
  6
CONTINUOUS
 62
    7
 10
827.6827354990387
 20
387.69563208886319
 11
827.6827354990387
 21
475.91031608886396
  0
TEXT
  8
_0-5_寸法線
 62
    7
 10
827.6827354990387
 20
416.80297408886389
 40
15
 41
1
 50
90
  1
88.5
  0
ENDSEC
  0
EOF
