  0
SECTION
  2
HEADER
  9
$ACADVER
  1
AC1009
  9
$INSBASE
 10
0
 20
0
 30
0
  9
$EXTMIN
 10
0
 20
0
  9
$EXTMAX
 10
1485
 20
1050
  9
$LIMMIN
 10
0
 20
0
  9
$LIMMAX
 10
1485
 20
1050
  9
$LTSCALE
 40
5
  0
ENDSEC
  0
SECTION
  2
TABLES
  0
TABLE
  2
LTYPE
 70
     9
  0
LTYPE
  2
CONTINUOUS
 70
    64
  3
実線
 72
    65
 73
     0
 40
0.0
  0
LTYPE
  2
DASHED1
 70
    64
  3
--  --  --  --  --  --  --  --  
 72
    65
 73
     2
 40
2.5
 49
1.25
 49
-1.25
  0
LTYPE
  2
DASHED2
 70
    64
  3
----    ----    ----    ----    
 72
    65
 73
     2
 40
5.0
 49
2.5
 49
-2.5
  0
LTYPE
  2
DASHED3
 70
    64
  3
------  ------  ------  ------  
 72
    65
 73
     2
 40
5.0
 49
3.75
 49
-1.25
  0
LTYPE
  2
CENTER1
 70
    64
  3
----- - ----- - ----- - ----- - 
 72
    65
 73
     4
 40
10.0
 49
6.25
 49
-1.25
 49
1.25
 49
-1.25
  0
LTYPE
  2
CENTER2
 70
    64
  3
----------  --  ----------  --  
 72
    65
 73
     4
 40
20.0
 49
12.5
 49
-2.5
 49
2.5
 49
-2.5
  0
LTYPE
  2
PHANTOM1
 70
    64
  3
--- - - --- - - --- - - --- - - 
 72
    65
 73
     6
 40
10.0
 49
3.25
 49
-1.25
 49
1.25
 49
-1.25
 49
1.25
 49
-1.25
  0
LTYPE
  2
PHANTOM2
 70
    64
  3
--------  -  -  --------  -  -  
 72
    65
 73
     6
 40
20.0
 49
10.0
 49
-2.5
 49
1.25
 49
-2.5
 49
1.25
 49
-2.5
  0
LTYPE
  2
DOT
 70
    64
  3
-   -   -   -   -   -   -   -   
 72
    65
 73
     2
 40
2.5
 49
0.625
 49
-1.875
  0
LTYPE
  2
DUMMY
 70
    64
  3
ダミー
 72
    65
 73
     0
 40
0.0
  0
LTYPE
  2
RAND1
 70
    64
  3
ランダム線1
 72
    65
 73
     4
 40
10.0
 49
1.0
 49
-2.0
 49
3.0
 49
-4.0
  0
LTYPE
  2
RAND2
 70
    64
  3
ランダム線2
 72
    65
 73
     4
 40
14.0
 49
2.0
 49
-3.0
 49
4.0
 49
-5.0
  0
LTYPE
  2
RAND3
 70
    64
  3
ランダム線3
 72
    65
 73
     4
 40
18.0
 49
3.0
 49
-4.0
 49
5.0
 49
-6.0
  0
LTYPE
  2
RAND4
 70
    64
  3
ランダム線4
 72
    65
 73
     4
 40
22.0
 49
4.0
 49
-5.0
 49
6.0
 49
-7.0
  0
LTYPE
  2
RAND5
 70
    64
  3
ランダム線5
 72
    65
 73
     4
 40
26.0
 49
5.0
 49
-6.0
 49
7.0
 49
-8.0
  0
LTYPE
  2
LONG1
 70
    64
  3
----------  --  ----------  --  
 72
    65
 73
     4
 40
40.0
 49
32.5
 49
-2.5
 49
2.5
 49
-2.5
  0
LTYPE
  2
LONG2
 70
    64
  3
--------  -  -  --------  -  -  
 72
    65
 73
     6
 40
40.0
 49
30.0
 49
-2.5
 49
1.25
 49
-2.5
 49
1.25
 49
-2.5
  0
LTYPE
  2
LONG3
 70
    64
  3
+++++++++++++++..+++++++++++++++
 72
    65
 73
     2
 40
40.0
 49
37.5
 49
-2.5
  0
LTYPE
  2
LONG4
 70
    64
  3
+++++++++++++++..+++++++++++++++
 72
    65
 73
     2
 40
80.0
 49
75.0
 49
-5.0
  0
LTYPE
  2
LONG5
 70
    64
  3
----------  --  ----------  --  
 72
    65
 73
     4
 40
60.0
 49
37.5
 49
-7.5
 49
7.5
 49
-7.5
  0
LTYPE
  2
dashed
 70
   64
  3
-------   -------------   ------
 72
   65
 73
    2
 40
7.5
 49
6
 49
-1.5
  0
LTYPE
  2
dashed_spaced
 70
   64
  3
----        --------        ----
 72
   65
 73
    2
 40
12
 49
6
 49
-6
  0
LTYPE
  2
long_dashed_dotted
 70
   64
  3
------------- --- --------------
 72
   65
 73
    4
 40
15.25
 49
12
 49
-1.5
 49
0.25
 49
-1.5
  0
LTYPE
  2
long_dashed_double-dotted
 70
   64
  3
----------- --- --- ------------
 72
   65
 73
    6
 40
17
 49
12
 49
-1.5
 49
0.25
 49
-1.5
 49
0.25
 49
-1.5
  0
LTYPE
  2
long_dashed_triplicate-dotted
 70
   64
  3
--------- --- --- --- ----------
 72
   65
 73
    8
 40
18.75
 49
12
 49
-1.5
 49
0.25
 49
-1.5
 49
0.25
 49
-1.5
 49
0.25
 49
-1.5
  0
LTYPE
  2
dotted
 70
   64
  3
   -       -       -       -    
 72
   65
 73
    2
 40
1.75
 49
0.25
 49
-1.5
  0
LTYPE
  2
chain
 70
   64
  3
-------------- -- --------------
 72
   65
 73
    4
 40
18.5
 49
12
 49
-1.5
 49
3.5
 49
-1.5
  0
LTYPE
  2
chain_double_dash
 70
   64
  3
------------ -- -- -------------
 72
   65
 73
    6
 40
23.5
 49
12
 49
-1.5
 49
3.5
 49
-1.5
 49
3.5
 49
-1.5
  0
LTYPE
  2
dashed_dotted
 70
   64
  3
-----------     -     ----------
 72
   65
 73
    4
 40
9.25
 49
6
 49
-1.5
 49
0.25
 49
-1.5
  0
LTYPE
  2
double-dashed_dotted
 70
   64
  3
------   -----------   -   -----
 72
   65
 73
    6
 40
16.75
 49
6
 49
-1.5
 49
6
 49
-1.5
 49
0.25
 49
-1.5
  0
LTYPE
  2
dashed_double-dotted
 70
   64
  3
---------    -    -    ---------
 72
   65
 73
    6
 40
11
 49
6
 49
-1.5
 49
0.25
 49
-1.5
 49
0.25
 49
-1.5
  0
LTYPE
  2
double-dashed_double-dotted
 70
   64
  3
-----   ---------   -   -   ----
 72
   65
 73
    8
 40
18.5
 49
6
 49
-1.5
 49
6
 49
-1.5
 49
0.25
 49
-1.5
 49
0.25
 49
-1.5
  0
LTYPE
  2
dashed_triplicate-dotted
 70
   64
  3
-------    -    -    -    ------
 72
   65
 73
    8
 40
12.75
 49
6
 49
-1.5
 49
0.25
 49
-1.5
 49
0.25
 49
-1.5
 49
0.25
 49
-1.5
  0
LTYPE
  2
double-dashed_triplicate-dotted
 70
   64
  3
-----  ---------  -  -  -  -----
 72
   65
 73
   10
 40
20.25
 49
6
 49
-1.5
 49
6
 49
-1.5
 49
0.25
 49
-1.5
 49
0.25
 49
-1.5
 49
0.25
 49
-1.5
  0
LTYPE
  2
undefined
 70
   64
  3
--------------------------------
 72
   65
 73
    0
 40
0
  0
ENDTAB
  0
TABLE
  2
STYLE
  5
3
100
AcDbSymbolTable
 70
     1
  0
STYLE
  5
10
100
AcDbSymbolTableRecord
100
AcDbTextStyleTableRecord
  2
STANDARD
 70
     0
 40
0.0
 41
1.0
 50
0.0
 71
     0
 42
0.2
  3
txt
  4
bigfont.shx
  0
STYLE
  5
26
100
AcDbSymbolTableRecord
100
AcDbTextStyleTableRecord
  2
TATEGAKI
 70
    68
 40
0.0
 41
1.0
 50
0.0
 71
     0
 42
1.0
  3
txt
  4
bigfont.shx
  0
ENDTAB
  0
TABLE
  2
LAYER
 70
   13
  0
LAYER
  2
_0-0_計極細
 70
   64
 62
    7
  6
CONTINUOUS
  0
LAYER
  2
_0-1_計細線
 70
   64
 62
    7
  6
CONTINUOUS
  0
LAYER
  2
_0-5_寸法線
 70
   64
 62
    7
  6
CONTINUOUS
  0
LAYER
  2
_0-7_枠細線
 70
   64
 62
    7
  6
CONTINUOUS
  0
LAYER
  2
_0-8_枠中線
 70
   64
 62
    7
  6
CONTINUOUS
  0
LAYER
  2
_0-a_極細1
 70
   64
 62
    7
  6
CONTINUOUS
  0
LAYER
  2
_0-d_寸法1
 70
   64
 62
    7
  6
CONTINUOUS
  0
LAYER
  2
_0-e_極細4
 70
   64
 62
    7
  6
CONTINUOUS
  0
LAYER
  2
_1-1_寸法4
 70
   64
 62
    7
  6
CONTINUOUS
  0
LAYER
  2
_1-2_極細3
 70
   64
 62
    7
  6
CONTINUOUS
  0
LAYER
  2
_1-3_細線3
 70
   64
 62
    7
  6
CONTINUOUS
  0
LAYER
  2
_1-5_寸法3
 70
   64
 62
    7
  6
CONTINUOUS
  0
LAYER
  2
ADD_LINE
 70
   64
 62
    7
  6
CONTINUOUS
  0
ENDTAB
  0
ENDSEC
  0
SECTION
  2
BLOCKS
  0
ENDSEC
  0
SECTION
  2
ENTITIES
  0
LINE
  8
_0-8_枠中線
  6
CONTINUOUS
 62
    5
 10
60
 20
60
 11
60
 21
960
  0
LINE
  8
_0-8_枠中線
  6
CONTINUOUS
 62
    5
 10
60
 20
960
 11
1425
 21
960
  0
LINE
  8
_0-8_枠中線
  6
CONTINUOUS
 62
    5
 10
1425
 20
960
 11
1425
 21
60
  0
LINE
  8
_0-8_枠中線
  6
CONTINUOUS
 62
    5
 10
1425
 20
60
 11
60
 21
60
  0
TEXT
  8
_0-7_枠細線
 62
    5
 10
937.5
 20
97.5
 40
17.5
 41
1
 50
0
  1
備考
  7
TATEGAKI
  0
TEXT
  8
_0-7_枠細線
 62
    5
 10
937.5
 20
137.5
 40
17.5
 41
1
 50
0
  1
品番
  7
TATEGAKI
  0
TEXT
  8
_0-7_枠細線
 62
    5
 10
937.5
 20
177.5
 40
17.5
 41
1
 50
0
  1
品名
  7
TATEGAKI
  0
LINE
  8
_0-7_枠細線
  6
CONTINUOUS
 62
    5
 10
950
 20
180
 11
950
 21
60
  0
LINE
  8
_0-8_枠中線
  6
CONTINUOUS
 62
    5
 10
1425
 20
180
 11
925
 21
180
  0
LINE
  8
_0-8_枠中線
  6
CONTINUOUS
 62
    5
 10
925
 20
180
 11
925
 21
60
  0
TEXT
  8
_0-7_枠細線
 62
    5
 10
894.89374448775823
 20
945
 40
12.5
 41
1
 50
0
  1
記号
  0
TEXT
  8
_0-7_枠細線
 62
    5
 10
996.76874448775823
 20
945
 40
12.5
 41
1
 50
0
  1
訂　 正　 記　 事
  0
TEXT
  8
_0-7_枠細線
 62
    5
 10
1181.1437444877581
 20
945
 40
12.5
 41
1
 50
0
  1
訂 正 年 月 日
  0
TEXT
  8
_0-7_枠細線
 62
    5
 10
1306.1437444877581
 20
945
 40
12.5
 41
1
 50
0
  1
備　　　　　考
  0
LINE
  8
_0-7_枠細線
  6
CONTINUOUS
 62
    5
 10
889.89374448775823
 20
942.5
 11
889.89374448775823
 21
959.99999999999909
  0
LINE
  8
_0-7_枠細線
  6
CONTINUOUS
 62
    5
 10
924.89374448775823
 20
942.5
 11
924.89374448775823
 21
959.99999999999909
  0
LINE
  8
_0-7_枠細線
  6
CONTINUOUS
 62
    5
 10
1174.8937444877581
 20
942.5
 11
1174.8937444877581
 21
959.99999999999909
  0
LINE
  8
_0-7_枠細線
  6
CONTINUOUS
 62
    5
 10
1274.8937444877581
 20
942.5
 11
1274.8937444877581
 21
959.99999999999909
  0
LINE
  8
_0-7_枠細線
  6
CONTINUOUS
 62
    5
 10
1425
 20
942.5
 11
890
 21
942.5
  0
LINE
  8
_0-7_枠細線
  6
CONTINUOUS
 62
    5
 10
1185
 20
180
 11
1185
 21
100
  0
LINE
  8
_0-7_枠細線
  6
CONTINUOUS
 62
    5
 10
1185
 20
140
 11
925
 21
140
  0
LINE
  8
_0-7_枠細線
  6
CONTINUOUS
 62
    5
 10
1245
 20
180
 11
1245
 21
60
  0
TEXT
  8
_0-7_枠細線
 62
    5
 10
1192.5
 20
160
 40
15
 41
1
 50
0
  1
縮　尺
  0
LINE
  8
_0-7_枠細線
  6
CONTINUOUS
 62
    5
 10
1185
 20
155
 11
1245
 21
155
  0
LINE
  8
_0-7_枠細線
  6
CONTINUOUS
 62
    5
 10
1245
 20
100
 11
925
 21
100
  0
LINE
  8
_0-7_枠細線
  6
CONTINUOUS
 62
    5
 10
1425
 20
90
 11
1245
 21
90
  0
LINE
  8
_0-7_枠細線
  6
CONTINUOUS
 62
    5
 10
1245
 20
120
 11
1425
 21
120
  0
LINE
  8
_0-7_枠細線
  6
CONTINUOUS
 62
    5
 10
1425
 20
140
 11
1245
 21
140
  0
TEXT
  8
_0-7_枠細線
 62
    5
 10
1255
 20
147.5
 40
25
 41
0.8
 50
0
  1
株式会社シマブン
  0
TEXT
  8
_0-7_枠細線
 62
    5
 10
1252.5
 20
60
 40
15
 41
1
 50
0
  1
年月日
  0
TEXT
  8
_0-7_枠細線
 62
    5
 10
1252.5
 20
75
 40
15
 41
1
 50
0
  1
作　成
  0
TEXT
  8
_0-7_枠細線
 62
    5
 10
1256.25
 20
122.5
 40
15
 41
1
 50
0
  1
承 認
  0
LINE
  8
_0-7_枠細線
  6
CONTINUOUS
 62
    5
 10
1305
 20
140
 11
1305
 21
60
  0
TEXT
  8
_0-7_枠細線
 62
    5
 10
1316.25
 20
122.5
 40
15
 41
1
 50
0
  1
検 図
  0
LINE
  8
_0-7_枠細線
  6
CONTINUOUS
 62
    5
 10
1365
 20
140
 11
1365
 21
90
  0
TEXT
  8
_0-7_枠細線
 62
    5
 10
1376.25
 20
122.5
 40
15
 41
1
 50
0
  1
設 計
  0
TEXT
  8
_0-7_枠細線
 62
    5
 10
1255
 20
95
 40
20
 41
1
 50
0
  1
大野
  0
TEXT
  8
_0-7_枠細線
 62
    5
 10
1194
 20
117.5
 40
20
 41
0.6999999999999998
 50
0
  1
１：５
  0
TEXT
  8
_0-7_枠細線
 62
    5
 10
1315
 20
95
 40
20
 41
1
 50
0
  1
中村
  0
TEXT
  8
_0-7_枠細線
 62
    5
 10
960.50000000000011
 20
149.53034845114914
 40
20
 41
0.6
 50
0
  1
フリースタイルユニット
  0
TEXT
  8
_0-7_枠細線
 62
    5
 10
1375
 20
95
 40
20
 41
1
 50
0
  1
石井
  0
TEXT
  8
_0-7_枠細線
 62
    5
 10
1310
 20
67.5
 40
15
 41
0.6666666666666666
 50
0
  1
２０２０年０７月０１日
  0
LINE
  8
_0-5_寸法線
  6
CONTINUOUS
 62
    7
 10
432.15882911398649
 20
530.76475899176194
 11
432.15882911398649
 21
485.76475899176194
  0
LINE
  8
_0-5_寸法線
  6
CONTINUOUS
 62
    7
 10
432.15882911398649
 20
490.76475899176194
 11
441.8180873768772
 21
493.35294944278712
  0
LINE
  8
_0-5_寸法線
  6
CONTINUOUS
 62
    7
 10
432.15882911398649
 20
490.76475899176194
 11
441.8180873768772
 21
488.17656854073675
  0
LINE
  8
_0-5_寸法線
  6
CONTINUOUS
 62
    7
 10
504.15882911398654
 20
530.76475899176194
 11
504.15882911398654
 21
485.76475899176194
  0
LINE
  8
_0-5_寸法線
  6
CONTINUOUS
 62
    7
 10
504.15882911398654
 20
490.76475899176194
 11
494.49957085109583
 21
488.17656854073675
  0
LINE
  8
_0-5_寸法線
  6
CONTINUOUS
 62
    7
 10
504.15882911398654
 20
490.76475899176194
 11
494.49957085109588
 21
493.35294944278724
  0
LINE
  8
_0-5_寸法線
  6
CONTINUOUS
 62
    7
 10
432.15882911398649
 20
490.76475899176194
 11
504.15882911398654
 21
490.76475899176194
  0
TEXT
  8
_0-5_寸法線
 62
    7
 10
460.65882911398654
 20
490.76475899176194
 40
15
 41
1
 50
0
  1
72
  0
LINE
  8
_0-5_寸法線
  6
CONTINUOUS
 62
    7
 10
504.15882911398654
 20
490.76475899176194
 11
513.8180873768772
 21
493.35294944278706
  0
LINE
  8
_0-5_寸法線
  6
CONTINUOUS
 62
    7
 10
504.15882911398654
 20
490.76475899176194
 11
513.8180873768772
 21
488.17656854073675
  0
LINE
  8
_0-5_寸法線
  6
CONTINUOUS
 62
    7
 10
576.15882911398649
 20
530.76475899176194
 11
576.15882911398649
 21
485.76475899176194
  0
LINE
  8
_0-5_寸法線
  6
CONTINUOUS
 62
    7
 10
576.15882911398649
 20
490.76475899176194
 11
566.49957085109577
 21
488.17656854073675
  0
LINE
  8
_0-5_寸法線
  6
CONTINUOUS
 62
    7
 10
576.15882911398649
 20
490.76475899176194
 11
566.49957085109577
 21
493.35294944278724
  0
LINE
  8
_0-5_寸法線
  6
CONTINUOUS
 62
    7
 10
504.15882911398654
 20
490.76475899176194
 11
576.15882911398649
 21
490.76475899176194
  0
TEXT
  8
_0-5_寸法線
 62
    7
 10
532.65882911398637
 20
490.76475899176194
 40
15
 41
1
 50
0
  1
72
  0
LINE
  8
_0-0_計極細
  6
CENTER2
 62
    2
 10
421.41609387866595
 20
612.76475899176194
 11
591.66963161451508
 21
612.76475899176194
  0
LINE
  8
_0-0_計極細
  6
CENTER2
 62
    2
 10
658.13515097378558
 20
612.76475899176194
 11
711.94182820643573
 21
612.76475899176194
  0
ARC
  8
_0-1_計細線
  6
CONTINUOUS
 62
    3
 10
542.77567514956331
 20
627.39397197053552
 40
0.501740082747087
 50
330.00000000003996
 51
20.189990999990084
  0
ARC
  8
_0-1_計細線
  6
CONTINUOUS
 62
    3
 10
542.77567514956331
 20
598.99436219452639
 40
0.501740082747087
 50
339.81000900000919
 51
29.999999999959307
  0
LINE
  8
_0-1_計細線
  6
CONTINUOUS
 62
    3
 10
505.46448162336196
 20
615.45200648625018
 11
504.16091352794666
 21
617.7098458899693
  0
LINE
  8
_0-1_計細線
  6
CONTINUOUS
 62
    3
 10
505.46448162336196
 20
615.45200648625018
 11
508.07161179328864
 21
615.45200648625018
  0
LINE
  8
_0-1_計細線
  6
CONTINUOUS
 62
    3
 10
505.46448162336196
 20
615.45200648625018
 11
545.74425831395251
 21
615.45200648625018
  0
LINE
  8
_0-1_計細線
  6
CONTINUOUS
 62
    3
 10
505.46448162336196
 20
610.93632767881093
 11
545.74425831395251
 21
610.93632767881093
  0
ARC
  8
_0-1_計細線
  6
CONTINUOUS
 62
    3
 10
504.16091352794666
 20
613.19416708253004
 40
46.4111412917104
 50
269.99999999999977
 51
89.999999999999545
  0
ARC
  8
_0-1_計細線
  6
CONTINUOUS
 62
    3
 10
504.16091352794666
 20
613.19416708253004
 40
57.198598227560836
 50
269.99999999999977
 51
89.999999999999545
  0
ARC
  8
_0-1_計細線
  6
CONTINUOUS
 62
    3
 10
504.16091352794666
 20
613.19416708253004
 40
41.644595453350377
 50
269.99999999999977
 51
356.8920785890931
  0
ARC
  8
_0-1_計細線
  6
CONTINUOUS
 62
    3
 10
504.16091352794666
 20
613.19416708253004
 40
41.644595453350377
 50
3.1079214109077964
 51
89.999999999999915
  0
ARC
  8
_0-0_計極細
  6
CONTINUOUS
 62
    2
 10
504.16091352794666
 20
613.19416708253004
 40
50.153133796808191
 50
269.99999999999977
 51
89.999999999999545
  0
ARC
  8
_0-0_計極細
  6
CONTINUOUS
 62
    2
 10
504.45059733389536
 20
607.17326200594391
 40
1.0034861863992508
 50
29.999999999951111
 51
106.77865499997519
  0
ARC
  8
_0-0_計極細
  6
CONTINUOUS
 62
    2
 10
504.16091352794666
 20
613.19416708253004
 40
37.630656728658437
 50
317.45760300000074
 51
327.38710799999916
  0
ARC
  8
_0-0_計極細
  6
CONTINUOUS
 62
    2
 10
504.16091352794666
 20
613.19416708253004
 40
37.630656728658437
 50
32.612892000001082
 51
42.54239699999939
  0
LINE
  8
_0-0_計極細
  6
CONTINUOUS
 62
    2
 10
539.33513129893413
 20
593.91522902730469
 11
530.37704207793354
 21
609.43110140966621
  0
LINE
  8
_0-0_計極細
  6
CONTINUOUS
 62
    2
 10
537.92830468145507
 20
589.32753417424385
 11
525.59730443654985
 21
610.68545462698444
  0
LINE
  8
_0-0_計極細
  6
CONTINUOUS
 62
    2
 10
533.30636894122358
 20
585.29114951542635
 11
519.36916582813478
 21
609.43110140966621
  0
LINE
  8
_0-0_計極細
  6
CONTINUOUS
 62
    2
 10
539.33513129893413
 20
632.47310513775676
 11
530.37704207793354
 21
616.95723275539626
  0
LINE
  8
_0-0_計極細
  6
CONTINUOUS
 62
    2
 10
537.92830468145507
 20
637.06079999081715
 11
525.59730443654985
 21
615.70287953807622
  0
LINE
  8
_0-0_計極細
  6
CONTINUOUS
 62
    2
 10
533.30636894122358
 20
641.09717862873072
 11
519.36916582813478
 21
616.95723275539626
  0
LINE
  8
_0-0_計極細
  6
CONTINUOUS
 62
    2
 10
531.14325041616917
 20
582.01339889626047
 11
514.58942818675109
 21
610.68545462698444
  0
LINE
  8
_0-0_計極細
  6
CONTINUOUS
 62
    2
 10
525.95539776598048
 20
578.95721156300453
 11
508.36128957833517
 21
609.43110140966621
  0
LINE
  8
_0-0_計極細
  6
CONTINUOUS
 62
    2
 10
522.91374489758141
 20
577.20111826293771
 11
505.319642730841
 21
607.67500208869262
  0
ARC
  8
_0-0_計極細
  6
CONTINUOUS
 62
    2
 10
504.16091352794666
 20
613.19416708253004
 40
37.630656728658437
 50
272.61289199999942
 51
282.54239699999982
  0
ARC
  8
_0-0_計極細
  6
CONTINUOUS
 62
    2
 10
508.38085149892845
 20
572.26830513088646
 40
0.501740082747087
 50
210.00000000000426
 51
275.88706199997517
  0
ARC
  8
_0-0_計極細
  6
CONTINUOUS
 62
    2
 10
504.16091352794666
 20
613.19416708253004
 40
37.630656728658437
 50
288.07291800000053
 51
297.3252259999997
  0
ARC
  8
_0-0_計極細
  6
CONTINUOUS
 62
    2
 10
504.16091352794666
 20
613.19416708253004
 40
27.094072844634091
 50
283.31934900000118
 51
296.2837799999993
  0
ARC
  8
_0-0_計極細
  6
CONTINUOUS
 62
    2
 10
518.10760558743618
 20
574.4872675505286
 40
0.501740082747087
 50
210.00000000010814
 51
289.81487200010849
  0
ARC
  8
_0-0_計極細
  6
CONTINUOUS
 62
    2
 10
512.88386232208609
 20
573.50021241408206
 40
1.0034861863992508
 50
282.39403400005705
 51
30.000000000002665
  0
ARC
  8
_0-0_計極細
  6
CONTINUOUS
 62
    2
 10
504.16091352794666
 20
613.19416708253004
 40
37.630656728658437
 50
302.67477399999865
 51
311.92708199999919
  0
ARC
  8
_0-0_計極細
  6
CONTINUOUS
 62
    2
 10
526.8244371420185
 20
579.45895766665728
 40
1.0034861863992508
 50
210.00000000002515
 51
303.89345000001418
  0
ARC
  8
_0-0_計極細
  6
CONTINUOUS
 62
    2
 10
530.70872771769677
 20
581.76252584443466
 40
0.501740082747087
 50
310.18512800003361
 51
29.999999999907399
  0
ARC
  8
_0-0_計極細
  6
CONTINUOUS
 62
    2
 10
522.04470552154248
 20
576.69937215928496
 40
1.0034861863992508
 50
296.10655000002453
 51
29.999999999999204
  0
ARC
  8
_0-0_計極細
  6
CONTINUOUS
 62
    2
 10
504.16091352794666
 20
613.19416708253004
 40
37.630656728658437
 50
77.457603000000148
 51
87.387108000000282
  0
ARC
  8
_0-0_計極細
  6
CONTINUOUS
 62
    2
 10
504.16091352794666
 20
613.19416708253004
 40
37.630656728658437
 50
77.457603000000148
 51
87.387108000000282
  0
ARC
  8
_0-0_計極細
  6
CONTINUOUS
 62
    2
 10
509.23033497527996
 20
609.93284149241265
 40
1.0034861863992508
 50
89.999999999999915
 51
209.9999999999992
  0
ARC
  8
_0-0_計極細
  6
CONTINUOUS
 62
    2
 10
509.23033497527996
 20
616.45549267265073
 40
1.0034861863992508
 50
150.00000000000043
 51
269.99999999999977
  0
ARC
  8
_0-0_計極細
  6
CONTINUOUS
 62
    2
 10
508.38085149892845
 20
654.12002903417272
 40
0.501740082747087
 50
84.112938000024442
 51
150.00000000004033
  0
LINE
  8
_0-0_計極細
  6
CONTINUOUS
 62
    2
 10
522.91374489758141
 20
649.18721590212431
 11
505.319642730841
 21
618.71333207636928
  0
LINE
  8
_0-0_計極細
  6
CONTINUOUS
 62
    2
 10
505.66613979709359
 20
619.31348987349895
 11
505.66613979709359
 21
631.3553000266686
  0
LINE
  8
_0-0_計極細
  6
CONTINUOUS
 62
    2
 10
506.16788590074498
 20
620.18253527044158
 11
506.16788590074498
 21
632.22434542361373
  0
LINE
  8
_0-0_計極細
  6
CONTINUOUS
 62
    2
 10
505.66613979709359
 20
595.03303413839251
 11
505.66613979709359
 21
607.07484429156443
  0
LINE
  8
_0-0_計極細
  6
CONTINUOUS
 62
    2
 10
506.16788590074498
 20
594.16398874144966
 11
506.16788590074498
 21
606.20579889461953
  0
ARC
  8
_0-0_計極細
  6
CONTINUOUS
 62
    2
 10
504.45059733389536
 20
619.21507215911663
 40
1.0034861863992508
 50
253.22134500003193
 51
330.00000000002603
  0
ARC
  8
_0-0_計極細
  6
CONTINUOUS
 62
    2
 10
504.16091352794666
 20
613.19416708253004
 40
27.094072844634091
 50
84.624317999999832
 51
89.999999999999915
  0
ARC
  8
_0-0_計極細
  6
CONTINUOUS
 62
    2
 10
504.16091352794666
 20
613.19416708253004
 40
27.094072844634091
 50
20.290983000001571
 51
35.37568200000068
  0
LINE
  8
_0-0_計極細
  6
CONTINUOUS
 62
    2
 10
531.14325041616917
 20
644.37493526880291
 11
514.58942818675109
 21
615.70287953807622
  0
LINE
  8
_0-0_計極細
  6
CONTINUOUS
 62
    2
 10
525.95539776598048
 20
647.43112260205692
 11
508.36128957833517
 21
616.95723275539626
  0
ARC
  8
_0-0_計極細
  6
CONTINUOUS
 62
    2
 10
504.16091352794666
 20
613.19416708253004
 40
27.094072844634091
 50
303.71622000000156
 51
316.68065099999922
  0
ARC
  8
_0-0_計極細
  6
CONTINUOUS
 62
    2
 10
520.23820520417189
 20
609.93284149241265
 40
1.0034861863992508
 50
89.999999999999915
 51
210.00000000002515
  0
ARC
  8
_0-0_計極細
  6
CONTINUOUS
 62
    2
 10
514.15490548827961
 20
610.43458759606449
 40
0.501740082747087
 50
30.0000000001085
 51
89.999999999999915
  0
ARC
  8
_0-0_計極細
  6
CONTINUOUS
 62
    2
 10
520.23820520417189
 20
616.45549267265073
 40
1.0034861863992508
 50
149.99999999997448
 51
269.99999999999977
  0
ARC
  8
_0-0_計極細
  6
CONTINUOUS
 62
    2
 10
514.15490548827961
 20
615.95374656899742
 40
0.501740082747087
 50
269.99999999999977
 51
329.99999999989114
  0
ARC
  8
_0-0_計極細
  6
CONTINUOUS
 62
    2
 10
504.16091352794666
 20
613.19416708253004
 40
27.094072844634091
 50
324.62431799999973
 51
339.7090169999999
  0
ARC
  8
_0-0_計極細
  6
CONTINUOUS
 62
    2
 10
504.16091352794666
 20
613.19416708253004
 40
27.094072844634091
 50
350.22103899999934
 51
355.21980800000068
  0
ARC
  8
_0-0_計極細
  6
CONTINUOUS
 62
    2
 10
504.16091352794666
 20
613.19416708253004
 40
27.094072844634091
 50
4.7801919999998796
 51
9.778961000001221
  0
ARC
  8
_0-0_計極細
  6
CONTINUOUS
 62
    2
 10
531.24608145397156
 20
609.93284149241265
 40
1.0034861863992508
 50
89.999999999999915
 51
210.00000000002515
  0
ARC
  8
_0-0_計極細
  6
CONTINUOUS
 62
    2
 10
525.16278173807837
 20
610.43458759606449
 40
0.501740082747087
 50
30.000000000056566
 51
89.999999999999915
  0
ARC
  8
_0-0_計極細
  6
CONTINUOUS
 62
    2
 10
531.24608145397156
 20
616.45549267265073
 40
1.0034861863992508
 50
149.99999999997448
 51
269.99999999999977
  0
ARC
  8
_0-0_計極細
  6
CONTINUOUS
 62
    2
 10
525.16278173807837
 20
615.95374656899742
 40
0.501740082747087
 50
269.99999999999977
 51
329.9999999999431
  0
ARC
  8
_0-0_計極細
  6
CONTINUOUS
 62
    2
 10
504.16091352794666
 20
613.19416708253004
 40
27.094072844634091
 50
43.319349000001104
 51
56.28377999999919
  0
ARC
  8
_0-0_計極細
  6
CONTINUOUS
 62
    2
 10
504.16091352794666
 20
613.19416708253004
 40
37.630656728658437
 50
62.674774000000312
 51
71.927081999999317
  0
ARC
  8
_0-0_計極細
  6
CONTINUOUS
 62
    2
 10
504.16091352794666
 20
613.19416708253004
 40
27.094072844634091
 50
63.716220000000746
 51
76.680650999998889
  0
ARC
  8
_0-0_計極細
  6
CONTINUOUS
 62
    2
 10
518.10760558743618
 20
651.90106661453285
 40
0.501740082747087
 50
70.185127999891137
 51
149.99999999993648
  0
ARC
  8
_0-0_計極細
  6
CONTINUOUS
 62
    2
 10
512.88386232208609
 20
652.88812175097985
 40
1.0034861863992508
 50
329.99999999999665
 51
77.605965999942228
  0
ARC
  8
_0-0_計極細
  6
CONTINUOUS
 62
    2
 10
504.16091352794666
 20
613.19416708253004
 40
37.630656728658437
 50
48.072918000001373
 51
57.325226000001372
  0
ARC
  8
_0-0_計極細
  6
CONTINUOUS
 62
    2
 10
526.8244371420185
 20
646.92937649840519
 40
1.0034861863992508
 50
56.106549999971008
 51
149.99999999999699
  0
ARC
  8
_0-0_計極細
  6
CONTINUOUS
 62
    2
 10
530.70872771769677
 20
644.6258022997232
 40
0.501740082747087
 50
330.00000000009186
 51
49.814871999965682
  0
ARC
  8
_0-0_計極細
  6
CONTINUOUS
 62
    2
 10
522.04470552154248
 20
649.68896200577558
 40
1.0034861863992508
 50
330.00000000000011
 51
63.893449999974756
  0
ARC
  8
_0-0_計極細
  6
CONTINUOUS
 62
    2
 10
534.17541433816655
 20
585.7928956190791
 40
1.0034861863992508
 50
210.00000000002515
 51
317.6059660000256
  0
ARC
  8
_0-0_計極細
  6
CONTINUOUS
 62
    2
 10
537.49378800388672
 20
589.07666112241816
 40
0.501740082747087
 50
324.11293799996702
 51
29.999999999959307
  0
ARC
  8
_0-0_計極細
  6
CONTINUOUS
 62
    2
 10
504.16091352794666
 20
613.19416708253004
 40
37.630656728658437
 50
14.493223999999607
 51
26.404005000000534
  0
LINE
  8
_0-0_計極細
  6
CONTINUOUS
 62
    2
 10
543.2101978480348
 20
627.14310493961523
 11
536.60518068634951
 21
615.70287953807622
  0
ARC
  8
_0-0_計極細
  6
CONTINUOUS
 62
    2
 10
544.244450859376
 20
606.48521103650842
 40
1.0034861863992508
 50
209.99999999997672
 51
350.4982300000064
  0
ARC
  8
_0-0_計極細
  6
CONTINUOUS
 62
    2
 10
544.244450859376
 20
619.90312312855372
 40
1.0034861863992508
 50
9.5017699999932326
 51
150.00000000000043
  0
ARC
  8
_0-0_計極細
  6
CONTINUOUS
 62
    2
 10
504.16091352794666
 20
613.19416708253004
 40
37.630656728658437
 50
3.6803540000001762
 51
6.228477000000372
  0
ARC
  8
_0-0_計極細
  6
CONTINUOUS
 62
    2
 10
504.16091352794666
 20
613.19416708253004
 40
37.630656728658437
 50
353.77152300000063
 51
356.31964600000015
  0
ARC
  8
_0-0_計極細
  6
CONTINUOUS
 62
    2
 10
504.16091352794666
 20
613.19416708253004
 40
37.630656728658437
 50
333.59599499999973
 51
345.50677600000074
  0
ARC
  8
_0-0_計極細
  6
CONTINUOUS
 62
    2
 10
540.20417669587891
 20
594.41696911005158
 40
1.0034861863992508
 50
209.99999999997672
 51
332.48216400001218
  0
ARC
  8
_0-0_計極細
  6
CONTINUOUS
 62
    2
 10
542.25395770377031
 20
609.93284149241265
 40
1.0034861863992508
 50
89.999999999999915
 51
210.00000000002515
  0
ARC
  8
_0-0_計極細
  6
CONTINUOUS
 62
    2
 10
536.17065798787712
 20
610.43458759606449
 40
0.501740082747087
 50
30.000000000004636
 51
89.999999999999915
  0
LINE
  8
_0-0_計極細
  6
CONTINUOUS
 62
    2
 10
543.37540546243122
 20
605.98347095376187
 11
541.38491832773229
 21
609.43110140966621
  0
LINE
  8
_0-0_計極細
  6
CONTINUOUS
 62
    2
 10
543.2101978480348
 20
599.24522922544759
 11
536.60518068634951
 21
610.68545462698444
  0
ARC
  8
_0-0_計極細
  6
CONTINUOUS
 62
    2
 10
542.25395770377031
 20
616.45549267265073
 40
1.0034861863992508
 50
149.99999999997448
 51
269.99999999999977
  0
ARC
  8
_0-0_計極細
  6
CONTINUOUS
 62
    2
 10
536.17065798787712
 20
615.95374656899742
 40
0.501740082747087
 50
269.99999999999977
 51
329.999999999995
  0
LINE
  8
_0-0_計極細
  6
CONTINUOUS
 62
    2
 10
543.37540546243122
 20
620.40486321130004
 11
541.38491832773229
 21
616.95723275539626
  0
ARC
  8
_0-0_計極細
  6
CONTINUOUS
 62
    2
 10
534.17541433816655
 20
640.59543854598292
 40
1.0034861863992508
 50
42.394033999974049
 51
149.99999999997448
  0
ARC
  8
_0-0_計極細
  6
CONTINUOUS
 62
    2
 10
537.49378800388672
 20
637.31167304264329
 40
0.501740082747087
 50
330.00000000003996
 51
35.887062000032259
  0
ARC
  8
_0-0_計極細
  6
CONTINUOUS
 62
    2
 10
540.20417669587891
 20
631.97136505501032
 40
1.0034861863992508
 50
27.517836000010465
 51
150.00000000000043
  0
LINE
  8
_0-0_計極細
  6
CONTINUOUS
 62
    2
 10
505.66613979709359
 20
586.14193839081258
 11
505.66613979709359
 21
588.00865004090588
  0
LINE
  8
_0-0_計極細
  6
CONTINUOUS
 62
    2
 10
506.16788590074498
 20
586.17452894274095
 11
506.16788590074498
 21
587.13960000934753
  0
LINE
  8
_0-0_計極細
  6
CONTINUOUS
 62
    2
 10
505.66613979709359
 20
638.37968159675358
 11
505.66613979709359
 21
640.24639577424807
  0
LINE
  8
_0-0_計極細
  6
CONTINUOUS
 62
    2
 10
506.16788590074498
 20
639.24873141155615
 11
506.16788590074498
 21
640.21380522231971
  0
ARC
  8
_0-1_計細線
  6
CONTINUOUS
 62
    3
 10
504.16091352794666
 20
613.19416708253004
 40
58.202084413960065
 50
269.9979480438883
 51
89.999999999999545
  0
LINE
  8
_0-0_計極細
  6
CONTINUOUS
 62
    2
 10
507.94632880045697
 20
654.37090208599989
 11
504.15882911398654
 21
647.81075972838028
  0
LINE
  8
_0-0_計極細
  6
CONTINUOUS
 62
    2
 10
513.75290771902996
 20
652.3863756473263
 11
504.15882911398654
 21
635.76894269819149
  0
LINE
  8
_0-0_計極細
  6
CONTINUOUS
 62
    2
 10
517.67308890987056
 20
652.15193364545496
 11
504.15882911398654
 21
628.74455348533138
  0
LINE
  8
_0-0_計極細
  6
CONTINUOUS
 62
    2
 10
513.75290771902996
 20
574.00195249682849
 11
504.15882911398654
 21
590.61938959062957
  0
LINE
  8
_0-0_計極細
  6
CONTINUOUS
 62
    2
 10
507.94632880045697
 20
572.01743207906077
 11
504.15882911398654
 21
578.57757443668015
  0
LINE
  8
_0-0_計極細
  6
CONTINUOUS
 62
    2
 10
517.67308890987056
 20
574.23639449870257
 11
504.15882911398654
 21
597.64377957419049
  0
ARC
  8
_0-0_計極細
  6
CONTINUOUS
 62
    2
 10
504.16091352794666
 20
613.19416708253004
 40
27.094072844634091
 50
269.99559209412416
 51
275.37568199999987
  0
LINE
  8
_0-1_計細線
  6
CONTINUOUS
 62
    3
 10
505.46448162336196
 20
615.45200648625018
 11
504.15882911398654
 21
617.7134627513185
  0
ARC
  8
_0-0_計極細
  6
CONTINUOUS
 62
    2
 10
504.45059733389536
 20
619.21507215911663
 40
1.0034861863992508
 50
253.09686206869779
 51
330.00000000002603
  0
LINE
  8
_0-1_計細線
  6
CONTINUOUS
 62
    3
 10
505.46448162336196
 20
610.93632767881093
 11
504.15882911398654
 21
608.67487141374249
  0
ARC
  8
_0-0_計極細
  6
CONTINUOUS
 62
    2
 10
504.45059733389536
 20
607.17326200594391
 40
1.0034861863992508
 50
29.999999999951111
 51
106.90313793131428
  0
LINE
  8
_0-5_寸法線
  6
CONTINUOUS
 62
    7
 10
665.65253255791151
 20
694.76475899176194
 11
665.65253255791151
 21
739.76475899176194
  0
LINE
  8
_0-5_寸法線
  6
CONTINUOUS
 62
    7
 10
665.65253255791151
 20
734.76475899176194
 11
675.31179082080212
 21
737.35294944278724
  0
LINE
  8
_0-5_寸法線
  6
CONTINUOUS
 62
    7
 10
665.65253255791151
 20
734.76475899176194
 11
675.31179082080212
 21
732.17656854073675
  0
LINE
  8
_0-5_寸法線
  6
CONTINUOUS
 62
    7
 10
702.1525325579114
 20
693.26475891522182
 11
702.1525325579114
 21
739.76475899176194
  0
LINE
  8
_0-5_寸法線
  6
CONTINUOUS
 62
    7
 10
702.1525325579114
 20
734.76475899176194
 11
692.49327429502068
 21
732.17656854073675
  0
LINE
  8
_0-5_寸法線
  6
CONTINUOUS
 62
    7
 10
702.1525325579114
 20
734.76475899176194
 11
692.49327429502068
 21
737.35294944278724
  0
LINE
  8
_0-5_寸法線
  6
CONTINUOUS
 62
    7
 10
665.65253255791151
 20
734.76475899176194
 11
702.1525325579114
 21
734.76475899176194
  0
TEXT
  8
_0-5_寸法線
 62
    7
 10
668.90253255791151
 20
734.76475899176194
 40
15
 41
1
 50
0
  1
36.5
  0
LINE
  8
_0-5_寸法線
  6
CONTINUOUS
 62
    7
 10
422.15882911398649
 20
684.76475899176194
 11
377.15882911398649
 21
684.76475899176194
  0
LINE
  8
_0-5_寸法線
  6
CONTINUOUS
 62
    7
 10
382.15882911398649
 20
684.76475899176194
 11
379.5706386629613
 21
694.42401725465277
  0
LINE
  8
_0-5_寸法線
  6
CONTINUOUS
 62
    7
 10
382.15882911398649
 20
684.76475899176194
 11
384.74701956501178
 21
694.42401725465277
  0
LINE
  8
_0-5_寸法線
  6
CONTINUOUS
 62
    7
 10
422.15882911398649
 20
682.26475899176194
 11
377.15882911398649
 21
682.26475899176194
  0
LINE
  8
_0-5_寸法線
  6
CONTINUOUS
 62
    7
 10
382.15882911398649
 20
722.41317058132972
 11
382.15882911398649
 21
682.26475899176194
  0
TEXT
  8
_0-5_寸法線
 62
    7
 10
382.1588291139866
 20
696.4877727971932
 40
15
 41
1
 50
89.999999999999815
  1
2.5
  0
LINE
  8
_0-5_寸法線
  6
CONTINUOUS
 62
    7
 10
382.15882911398649
 20
682.26475899176194
 11
384.74701956501173
 21
672.60550072887122
  0
LINE
  8
_0-5_寸法線
  6
CONTINUOUS
 62
    7
 10
382.15882911398649
 20
682.26475899176194
 11
379.57063866296124
 21
672.60550072887122
  0
LINE
  8
_0-5_寸法線
  6
CONTINUOUS
 62
    7
 10
422.15882911398649
 20
543.26475899176194
 11
377.15882911398649
 21
543.26475899176194
  0
LINE
  8
_0-5_寸法線
  6
CONTINUOUS
 62
    7
 10
382.15882911398649
 20
543.26475899176194
 11
379.57063866296124
 21
552.92401725465265
  0
LINE
  8
_0-5_寸法線
  6
CONTINUOUS
 62
    7
 10
382.15882911398649
 20
543.26475899176194
 11
384.74701956501173
 21
552.92401725465265
  0
LINE
  8
_0-5_寸法線
  6
CONTINUOUS
 62
    7
 10
382.15882911398649
 20
682.26475899176194
 11
382.15882911398649
 21
543.26475899176194
  0
TEXT
  8
_0-5_寸法線
 62
    7
 10
382.15882911398649
 20
601.51475899176194
 40
15
 41
1
 50
90
  1
139
  0
LINE
  8
_0-5_寸法線
  6
CONTINUOUS
 62
    7
 10
422.15882911398649
 20
540.76475899176194
 11
377.15882911398649
 21
540.76475899176194
  0
LINE
  8
_0-5_寸法線
  6
CONTINUOUS
 62
    7
 10
382.15882911398649
 20
540.76475899176194
 11
384.74701956501173
 21
531.10550072887122
  0
LINE
  8
_0-5_寸法線
  6
CONTINUOUS
 62
    7
 10
382.15882911398649
 20
540.76475899176194
 11
379.57063866296124
 21
531.10550072887122
  0
LINE
  8
_0-5_寸法線
  6
CONTINUOUS
 62
    7
 10
382.15882911398649
 20
543.26475899176194
 11
382.15882911398649
 21
503.11634740219415
  0
TEXT
  8
_0-5_寸法線
 62
    7
 10
382.15882911398643
 20
507.39136894222338
 40
15
 41
1
 50
89.999999999999815
  1
2.5
  0
LINE
  8
_0-5_寸法線
  6
CONTINUOUS
 62
    7
 10
422.15882911398649
 20
684.76475899176194
 11
342.15882911398649
 21
684.76475899176194
  0
LINE
  8
_0-5_寸法線
  6
CONTINUOUS
 62
    7
 10
347.15882911398649
 20
684.76475899176194
 11
349.74701956501173
 21
675.10550072887122
  0
LINE
  8
_0-5_寸法線
  6
CONTINUOUS
 62
    7
 10
347.15882911398649
 20
684.76475899176194
 11
344.5706386629613
 21
675.10550072887122
  0
LINE
  8
_0-5_寸法線
  6
CONTINUOUS
 62
    7
 10
422.15882911398649
 20
540.76475899176194
 11
342.15882911398649
 21
540.76475899176194
  0
LINE
  8
_0-5_寸法線
  6
CONTINUOUS
 62
    7
 10
347.15882911398649
 20
540.76475899176194
 11
344.5706386629613
 21
550.42401725465265
  0
LINE
  8
_0-5_寸法線
  6
CONTINUOUS
 62
    7
 10
347.15882911398649
 20
540.76475899176194
 11
349.74701956501173
 21
550.42401725465265
  0
LINE
  8
_0-5_寸法線
  6
CONTINUOUS
 62
    7
 10
347.15882911398649
 20
684.76475899176194
 11
347.15882911398649
 21
540.76475899176194
  0
TEXT
  8
_0-5_寸法線
 62
    7
 10
347.15882911398649
 20
601.51475899176194
 40
15
 41
1
 50
90
  1
144
  0
LINE
  8
_0-5_寸法線
  6
CONTINUOUS
 62
    7
 10
454.00272936363308
 20
595.62948138873094
 11
451.4272658695121
 21
585.96682193129118
  0
LINE
  8
_0-5_寸法線
  6
CONTINUOUS
 62
    7
 10
454.00272936363308
 20
595.62948138873094
 11
446.94098282248501
 21
588.54910457753056
  0
LINE
  8
_0-5_寸法線
  6
CONTINUOUS
 62
    7
 10
454.00272936363308
 20
595.62948138873094
 11
388.88961205018683
 21
482.50635957717896
  0
LINE
  8
_0-5_寸法線
  6
CONTINUOUS
 62
    7
 10
388.88961205018683
 20
482.50635957717896
 11
352.88961205018677
 21
482.50635957717896
  0
TEXT
  8
_0-5_寸法線
 62
    7
 10
352.88961205018677
 20
482.50635957717896
 40
15
 41
0.8000000000000001
 50
0
  1
上フタ
  0
LINE
  8
_0-5_寸法線
  6
CONTINUOUS
 62
    7
 10
574.83774777018107
 20
549.91306095172877
 11
581.51184844436762
 21
542.46615688421025
  0
LINE
  8
_0-5_寸法線
  6
CONTINUOUS
 62
    7
 10
574.83774777018107
 20
549.91306095172877
 11
576.89423646768216
 21
540.12680251261884
  0
LINE
  8
_0-5_寸法線
  6
CONTINUOUS
 62
    7
 10
574.83774777018107
 20
549.91306095172877
 11
608.98703582887674
 21
482.5063595771789
  0
LINE
  8
_0-5_寸法線
  6
CONTINUOUS
 62
    7
 10
608.98703582887674
 20
482.5063595771789
 11
680.98703582887674
 21
482.5063595771789
  0
TEXT
  8
_0-5_寸法線
 62
    7
 10
608.98703582887674
 20
482.5063595771789
 40
15
 41
0.8000000000000001
 50
0
  1
排水ユニット
  0
LINE
  8
_0-5_寸法線
  6
CONTINUOUS
 62
    7
 10
440.65882911398614
 20
694.76475899176194
 11
440.65882911398626
 21
739.76475899176194
  0
LINE
  8
_0-5_寸法線
  6
CONTINUOUS
 62
    7
 10
440.65882911398626
 20
734.76475899176194
 11
450.31808737687692
 21
737.35294944278724
  0
LINE
  8
_0-5_寸法線
  6
CONTINUOUS
 62
    7
 10
440.65882911398626
 20
734.76475899176194
 11
450.31808737687692
 21
732.17656854073675
  0
LINE
  8
_0-5_寸法線
  6
CONTINUOUS
 62
    7
 10
567.65882911398705
 20
694.76475899176194
 11
567.65882911398717
 21
739.76475899176194
  0
LINE
  8
_0-5_寸法線
  6
CONTINUOUS
 62
    7
 10
567.65882911398717
 20
734.76475899176194
 11
557.99957085109645
 21
732.17656854073675
  0
LINE
  8
_0-5_寸法線
  6
CONTINUOUS
 62
    7
 10
567.65882911398717
 20
734.76475899176194
 11
557.99957085109645
 21
737.35294944278724
  0
LINE
  8
_0-5_寸法線
  6
CONTINUOUS
 62
    7
 10
440.65882911398626
 20
734.76475899176194
 11
567.65882911398717
 21
734.76475899176194
  0
TEXT
  8
_0-5_寸法線
 62
    7
 10
492.90882911398677
 20
734.76475899176194
 40
15
 41
1
 50
0
  1
127
  0
LINE
  8
_0-5_寸法線
  6
CONTINUOUS
 62
    7
 10
432.15882911398649
 20
694.76475899176194
 11
432.15882911398666
 21
774.76475899176194
  0
LINE
  8
_0-5_寸法線
  6
CONTINUOUS
 62
    7
 10
432.15882911398666
 20
769.76475899176194
 11
422.49957085109594
 21
767.17656854073675
  0
LINE
  8
_0-5_寸法線
  6
CONTINUOUS
 62
    7
 10
432.15882911398666
 20
769.76475899176194
 11
422.499570851096
 21
772.35294944278724
  0
LINE
  8
_0-5_寸法線
  6
CONTINUOUS
 62
    7
 10
434.65882911398649
 20
694.76475899176182
 11
434.65882911398666
 21
774.76475899176194
  0
LINE
  8
_0-5_寸法線
  6
CONTINUOUS
 62
    7
 10
398.53268033468225
 20
769.76475899176194
 11
434.65882911398666
 21
769.76475899176194
  0
TEXT
  8
_0-5_寸法線
 62
    7
 10
398.53268033468225
 20
769.76475899176194
 40
15
 41
1
 50
0
  1
2.5
  0
LINE
  8
_0-5_寸法線
  6
CONTINUOUS
 62
    7
 10
434.65882911398666
 20
769.76475899176194
 11
444.31808737687732
 21
772.35294944278724
  0
LINE
  8
_0-5_寸法線
  6
CONTINUOUS
 62
    7
 10
434.65882911398666
 20
769.76475899176194
 11
444.31808737687732
 21
767.17656854073664
  0
LINE
  8
_0-5_寸法線
  6
CONTINUOUS
 62
    7
 10
573.65882911398671
 20
694.76475899176182
 11
573.65882911398683
 21
774.76475899176194
  0
LINE
  8
_0-5_寸法線
  6
CONTINUOUS
 62
    7
 10
573.65882911398683
 20
769.76475899176194
 11
563.99957085109611
 21
767.17656854073675
  0
LINE
  8
_0-5_寸法線
  6
CONTINUOUS
 62
    7
 10
573.65882911398683
 20
769.76475899176194
 11
563.99957085109611
 21
772.35294944278724
  0
LINE
  8
_0-5_寸法線
  6
CONTINUOUS
 62
    7
 10
434.65882911398666
 20
769.76475899176194
 11
573.65882911398683
 21
769.76475899176194
  0
TEXT
  8
_0-5_寸法線
 62
    7
 10
492.90882911398694
 20
769.76475899176194
 40
15
 41
1
 50
0
  1
139
  0
LINE
  8
_0-5_寸法線
  6
CONTINUOUS
 62
    7
 10
576.15882911398649
 20
694.76475899176182
 11
576.1588291139866
 21
774.76475899176194
  0
LINE
  8
_0-5_寸法線
  6
CONTINUOUS
 62
    7
 10
576.1588291139866
 20
769.76475899176194
 11
585.81808737687743
 21
772.35294944278724
  0
LINE
  8
_0-5_寸法線
  6
CONTINUOUS
 62
    7
 10
576.1588291139866
 20
769.76475899176194
 11
585.81808737687743
 21
767.17656854073664
  0
LINE
  8
_0-5_寸法線
  6
CONTINUOUS
 62
    7
 10
573.65882911398683
 20
769.76475899176194
 11
612.19195941162002
 21
769.76475899176194
  0
TEXT
  8
_0-5_寸法線
 62
    7
 10
589.69195941162002
 20
769.76475899176194
 40
15
 41
1
 50
0
  1
2.5
  0
LINE
  8
_0-5_寸法線
  6
CONTINUOUS
 62
    7
 10
432.15882911398649
 20
694.76475899176194
 11
432.15882911398649
 21
809.76475899176194
  0
LINE
  8
_0-5_寸法線
  6
CONTINUOUS
 62
    7
 10
432.15882911398649
 20
804.76475899176194
 11
441.8180873768772
 21
807.35294944278724
  0
LINE
  8
_0-5_寸法線
  6
CONTINUOUS
 62
    7
 10
432.15882911398649
 20
804.76475899176194
 11
441.8180873768772
 21
802.17656854073675
  0
LINE
  8
_0-5_寸法線
  6
CONTINUOUS
 62
    7
 10
576.15882911398649
 20
694.76475899176194
 11
576.1588291139866
 21
809.76475899176194
  0
LINE
  8
_0-5_寸法線
  6
CONTINUOUS
 62
    7
 10
576.1588291139866
 20
804.76475899176194
 11
566.49957085109588
 21
802.17656854073675
  0
LINE
  8
_0-5_寸法線
  6
CONTINUOUS
 62
    7
 10
576.1588291139866
 20
804.76475899176194
 11
566.49957085109588
 21
807.35294944278724
  0
LINE
  8
_0-5_寸法線
  6
CONTINUOUS
 62
    7
 10
432.15882911398649
 20
804.76475899176194
 11
576.1588291139866
 21
804.76475899176194
  0
TEXT
  8
_0-5_寸法線
 62
    7
 10
492.90882911398654
 20
804.76475899176194
 40
15
 41
1
 50
0
  1
144
  0
CIRCLE
  8
_0-1_計細線
  6
DASHED2
 62
    3
 10
560.15882911398739
 20
668.76475899176194
 40
12.5
  0
CIRCLE
  8
_0-1_計細線
  6
DASHED2
 62
    3
 10
560.15882911398717
 20
556.76475899176194
 40
12.5
  0
ARC
  8
_0-1_計細線
  6
CONTINUOUS
 62
    3
 10
448.15882911398558
 20
668.76475899176194
 40
12.5
 50
36.869897645840268
 51
233.13010235415564
  0
ARC
  8
_0-1_計細線
  6
CONTINUOUS
 62
    3
 10
448.1588291139858
 20
556.76475899176194
 40
12.5
 50
126.86989764584402
 51
323.11949922673142
  0
ARC
  8
_0-1_計細線
  6
DASHED2
 62
    3
 10
448.15882911398558
 20
668.76475899176194
 40
12.5
 50
233.13010235415842
 51
36.86989764583992
  0
ARC
  8
_0-1_計細線
  6
DASHED2
 62
    3
 10
448.1588291139858
 20
556.76475899176194
 40
12.5
 50
323.11949922673136
 51
126.86989764584294
  0
LINE
  8
_0-0_計極細
  6
CENTER1
 62
    2
 10
504.15882911398654
 20
694.76475899176194
 11
504.15882911398654
 21
253.264742271758
  0
LINE
  8
_0-1_計細線
  6
CONTINUOUS
 62
    3
 10
567.65882911398637
 20
440.26475899176199
 11
567.6588291139866
 21
423.26475899176211
  0
LINE
  8
_0-1_計細線
  6
CONTINUOUS
 62
    3
 10
565.65882911398614
 20
440.26475899176199
 11
565.65882911398614
 21
425.26475899176199
  0
LINE
  8
_0-1_計細線
  6
CONTINUOUS
 62
    3
 10
567.6588291139866
 20
423.26475899176211
 11
440.65882911398637
 21
423.26475899176211
  0
LINE
  8
_0-1_計細線
  6
CONTINUOUS
 62
    3
 10
565.65882911398614
 20
425.26475899176199
 11
442.65882911398683
 21
425.26475899176199
  0
LINE
  8
_0-1_計細線
  6
CONTINUOUS
 62
    3
 10
442.65882911398683
 20
440.26475899176199
 11
442.65882911398683
 21
425.26475899176199
  0
LINE
  8
_0-1_計細線
  6
CONTINUOUS
 62
    3
 10
440.6588291139866
 20
440.26475899176199
 11
440.65882911398637
 21
423.26475899176211
  0
LINE
  8
_0-1_計細線
  6
CONTINUOUS
 62
    3
 10
567.65882911398649
 20
440.26475899176199
 11
440.6588291139866
 21
440.26475899176199
  0
LINE
  8
_0-5_寸法線
  6
CONTINUOUS
 62
    7
 10
436.96356459176144
 20
632.64002090523832
 11
430.18668397057843
 21
639.99351592775884
  0
LINE
  8
_0-5_寸法線
  6
CONTINUOUS
 62
    7
 10
436.96356459176144
 20
632.64002090523832
 11
434.77136132666283
 21
642.396774711935
  0
LINE
  8
_0-5_寸法線
  6
CONTINUOUS
 62
    7
 10
436.96356459176144
 20
632.64002090523832
 11
381.78657584789028
 21
737.90071631456067
  0
LINE
  8
_0-5_寸法線
  6
CONTINUOUS
 62
    7
 10
381.78657584789028
 20
737.90071631456067
 11
333.78657584789028
 21
737.9007163145609
  0
TEXT
  8
_0-5_寸法線
 62
    7
 10
333.78657584789033
 20
737.90071631456067
 40
15
 41
0.8000000000000001
 50
0
  1
取っ手部
  0
LINE
  8
_0-1_計細線
  6
CONTINUOUS
 62
    3
 10
432.15882911398649
 20
540.76475899176194
 11
432.15882911398649
 21
684.76475899176194
  0
LINE
  8
_0-1_計細線
  6
CONTINUOUS
 62
    3
 10
432.15882911398649
 20
684.76475899176194
 11
576.15882911398649
 21
684.76475899176194
  0
LINE
  8
_0-1_計細線
  6
CONTINUOUS
 62
    3
 10
576.15882911398649
 20
684.76475899176194
 11
576.15882911398649
 21
540.76475899176194
  0
LINE
  8
_0-1_計細線
  6
CONTINUOUS
 62
    3
 10
576.15882911398649
 20
540.76475899176194
 11
432.15882911398649
 21
540.76475899176194
  0
LINE
  8
_0-1_計細線
  6
CONTINUOUS
 62
    3
 10
434.65882911398649
 20
682.26475899176194
 11
434.65882911398649
 21
543.26475899176194
  0
LINE
  8
_0-1_計細線
  6
CONTINUOUS
 62
    3
 10
434.65882911398649
 20
543.26475899176194
 11
573.65882911398671
 21
543.26475899176194
  0
LINE
  8
_0-1_計細線
  6
CONTINUOUS
 62
    3
 10
573.65882911398671
 20
543.26475899176194
 11
573.65882911398671
 21
682.26475899176194
  0
LINE
  8
_0-1_計細線
  6
CONTINUOUS
 62
    3
 10
573.65882911398671
 20
682.26475899176194
 11
434.65882911398649
 21
682.26475899176194
  0
LINE
  8
_0-1_計細線
  6
CONTINUOUS
 62
    3
 10
442.65882911398603
 20
674.26475899176216
 11
442.65882911398603
 21
551.26475899176194
  0
LINE
  8
_0-1_計細線
  6
CONTINUOUS
 62
    3
 10
504.15882911398654
 20
674.26475899176182
 11
442.65882911398603
 21
674.26475899176216
  0
LINE
  8
_0-1_計細線
  6
CONTINUOUS
 62
    3
 10
442.65882911398603
 20
551.26475899176194
 11
504.15882911398654
 21
551.26475899176194
  0
ARC
  8
_0-1_計細線
  6
CONTINUOUS
 62
    3
 10
442.65882911398603
 20
674.26475899176125
 40
2
 50
89.999999999999915
 51
179.99999999999983
  0
LINE
  8
_0-1_計細線
  6
CONTINUOUS
 62
    3
 10
440.65882911398603
 20
551.26475899176194
 11
440.65882911398603
 21
674.26475899176125
  0
ARC
  8
_0-1_計細線
  6
CONTINUOUS
 62
    3
 10
442.65882911398603
 20
551.26475899176171
 40
2
 50
179.99999999999349
 51
269.99999999999977
  0
LINE
  8
_0-1_計細線
  6
CONTINUOUS
 62
    3
 10
442.65882911398603
 20
676.26475899176125
 11
504.15882911398654
 21
676.26475899176125
  0
LINE
  8
_0-1_計細線
  6
CONTINUOUS
 62
    3
 10
504.15882911398654
 20
549.26475899176194
 11
442.65882911398603
 21
549.26475899176171
  0
LINE
  8
_0-1_計細線
  6
DASHED2
 62
    3
 10
565.65882911398694
 20
551.26475899176194
 11
504.15882911398654
 21
551.26475899176194
  0
LINE
  8
_0-1_計細線
  6
DASHED2
 62
    3
 10
504.15882911398654
 20
674.26475899176182
 11
565.65882911398694
 21
674.26475899176216
  0
LINE
  8
_0-1_計細線
  6
DASHED2
 62
    3
 10
565.65882911398694
 20
674.26475899176216
 11
565.65882911398694
 21
551.26475899176194
  0
LINE
  8
_0-1_計細線
  6
DASHED2
 62
    3
 10
504.15882911398654
 20
549.26475899176194
 11
565.65882911398694
 21
549.26475899176171
  0
LINE
  8
_0-1_計細線
  6
DASHED2
 62
    3
 10
565.65882911398694
 20
676.26475899176125
 11
504.15882911398654
 21
676.26475899176125
  0
ARC
  8
_0-1_計細線
  6
DASHED2
 62
    3
 10
565.65882911398694
 20
551.26475899176171
 40
2
 50
269.99999999999977
 51
0.0000000000061575
  0
LINE
  8
_0-1_計細線
  6
DASHED2
 62
    3
 10
567.65882911398694
 20
551.26475899176194
 11
567.65882911398694
 21
674.26475899176125
  0
ARC
  8
_0-1_計細線
  6
DASHED2
 62
    3
 10
565.65882911398694
 20
674.26475899176125
 40
2
 50
0
 51
89.999999999999915
  0
LINE
  8
_0-1_計細線
  6
CONTINUOUS
 62
    3
 10
440.65882911398603
 20
632.76475899176194
 11
437.65882911398717
 21
632.76475899176216
  0
ARC
  8
_0-1_計細線
  6
CONTINUOUS
 62
    3
 10
437.65882911398717
 20
630.76475899176216
 40
2
 50
89.999999999999915
 51
180.00000000000617
  0
LINE
  8
_0-1_計細線
  6
CONTINUOUS
 62
    3
 10
435.65882911398717
 20
630.76475899176194
 11
435.65882911398717
 21
594.76475899176194
  0
LINE
  8
_0-1_計細線
  6
CONTINUOUS
 62
    3
 10
437.65882911398717
 20
592.76475899176216
 11
440.65882911398603
 21
592.76475899176194
  0
ARC
  8
_0-1_計細線
  6
CONTINUOUS
 62
    3
 10
437.65882911398717
 20
594.76475899176216
 40
2
 50
180.00000000000617
 51
269.99999999999977
  0
LINE
  8
_0-1_計細線
  6
CONTINUOUS
 62
    3
 10
437.65882911398717
 20
597.76475899176194
 11
440.65882911398603
 21
597.76475899176194
  0
LINE
  8
_0-1_計細線
  6
CONTINUOUS
 62
    3
 10
437.65882911398717
 20
627.76475899176194
 11
437.65882911398717
 21
597.76475899176194
  0
LINE
  8
_0-1_計細線
  6
CONTINUOUS
 62
    3
 10
440.65882911398603
 20
627.76475899176194
 11
437.65882911398717
 21
627.76475899176194
  0
LINE
  8
_0-1_計細線
  6
DASHED2
 62
    3
 10
440.65882911398603
 20
632.76475899176194
 11
448.15882911398717
 21
632.76475899176194
  0
LINE
  8
_0-1_計細線
  6
DASHED2
 62
    3
 10
448.15882911398717
 20
592.76475899176194
 11
440.65882911398603
 21
592.76475899176194
  0
LINE
  8
_0-1_計細線
  6
DASHED2
 62
    3
 10
448.15882911398717
 20
632.76475899176194
 11
448.15882911398717
 21
592.76475899176194
  0
LINE
  8
_0-1_計細線
  6
CONTINUOUS
 62
    3
 10
703.65251583790723
 20
554.26488515178789
 11
702.15253255791094
 21
554.26488515178789
  0
ARC
  8
_0-1_計細線
  6
CONTINUOUS
 62
    3
 10
703.65251583790723
 20
556.26488515178789
 40
2
 50
269.99999999999977
 51
359.99999999999966
  0
LINE
  8
_0-1_計細線
  6
CONTINUOUS
 62
    3
 10
705.65251583790723
 20
556.26488515178789
 11
705.65251583790723
 21
561.76475899176194
  0
LINE
  8
_0-1_計細線
  6
CONTINUOUS
 62
    3
 10
703.65251583790769
 20
671.26463283173553
 11
702.1525325579114
 21
671.26463283173553
  0
ARC
  8
_0-1_計細線
  6
CONTINUOUS
 62
    3
 10
703.65251583790769
 20
669.26463283173564
 40
2
 50
0
 51
89.999999999999915
  0
LINE
  8
_0-1_計細線
  6
CONTINUOUS
 62
    3
 10
705.65251583790769
 20
657.76475899176194
 11
705.65251583790769
 21
669.26463283173564
  0
LINE
  8
_0-1_計細線
  6
CONTINUOUS
 62
    3
 10
705.65251583790723
 20
557.02598299176179
 11
705.65251583790769
 21
657.76475899176194
  0
ARC
  8
_0-1_計細線
  6
CONTINUOUS
 62
    3
 10
666.90253255791151
 20
683.51475891522205
 40
1.25
 50
89.999999999989583
 51
179.99999999999477
  0
LINE
  8
_0-1_計細線
  6
CONTINUOUS
 62
    3
 10
670.78527850833257
 20
684.26475891522159
 11
675.65253255791151
 21
684.26475891522159
  0
LINE
  8
_0-1_計細線
  6
CONTINUOUS
 62
    3
 10
670.52095106815034
 20
684.28230311385664
 11
666.90253255791151
 21
684.76475891522205
  0
ARC
  8
_0-1_計細線
  6
CONTINUOUS
 62
    3
 10
670.78527850833257
 20
686.26475891522182
 40
2
 50
262.40535663140565
 51
269.99999999999977
  0
LINE
  8
_0-1_計細線
  6
CONTINUOUS
 62
    3
 10
665.65253255791265
 20
683.51475891522205
 11
665.65253255791185
 21
542.01475906830183
  0
LINE
  8
_0-1_計細線
  6
CONTINUOUS
 62
    3
 10
675.65253255791185
 20
541.26475906830228
 11
675.65253255791151
 21
684.26475891522159
  0
ARC
  8
_0-1_計細線
  6
CONTINUOUS
 62
    3
 10
666.90253255791151
 20
542.01475906830194
 40
1.25
 50
180.00000000000486
 51
270.00000000001006
  0
LINE
  8
_0-1_計細線
  6
CONTINUOUS
 62
    3
 10
670.78527850833257
 20
541.26475906830228
 11
675.65253255791151
 21
541.26475906830228
  0
LINE
  8
_0-1_計細線
  6
CONTINUOUS
 62
    3
 10
670.52095106815034
 20
541.24721486966735
 11
666.90253255791151
 21
540.76475906830194
  0
ARC
  8
_0-1_計細線
  6
CONTINUOUS
 62
    3
 10
670.78527850833257
 20
539.26475906830217
 40
2
 50
89.999999999999915
 51
97.594643368594035
  0
LINE
  8
_0-1_計細線
  6
CONTINUOUS
 62
    3
 10
702.1525325579114
 20
683.26475891522182
 11
702.1525325579114
 21
542.26475906830251
  0
LINE
  8
_0-1_計細線
  6
CONTINUOUS
 62
    3
 10
702.1525325579114
 20
683.26475891522182
 11
675.65253255791151
 21
683.26475891522182
  0
LINE
  8
_0-1_計細線
  6
CONTINUOUS
 62
    3
 10
702.1525325579114
 20
542.26475906830217
 11
675.65253255791151
 21
542.26475906830217
  0
LINE
  8
_0-1_計細線
  6
CONTINUOUS
 62
    3
 10
435.65882911398654
 20
423.26475899176194
 11
435.65882911398654
 21
415.26475899176199
  0
LINE
  8
_0-1_計細線
  6
CONTINUOUS
 62
    3
 10
460.65882911398631
 20
415.26475899176205
 11
460.65882911398631
 21
423.26475899176211
  0
LINE
  8
_0-1_計細線
  6
CONTINUOUS
 62
    3
 10
435.65882911398654
 20
415.26475899176199
 11
460.65882911398631
 21
415.26475899176199
  0
LINE
  8
_0-1_計細線
  6
CONTINUOUS
 62
    3
 10
437.83727556804138
 20
406.8725267214856
 11
436.15882911398609
 21
415.26475899176199
  0
ARC
  8
_0-1_計細線
  6
CONTINUOUS
 62
    3
 10
439.7984369194233
 20
407.26475899176194
 40
2
 50
191.30993247402051
 51
269.99999999999977
  0
LINE
  8
_0-1_計細線
  6
CONTINUOUS
 62
    3
 10
460.15882911398626
 20
415.26475899176199
 11
458.48038265993097
 21
406.8725267214856
  0
LINE
  8
_0-1_計細線
  6
CONTINUOUS
 62
    3
 10
456.51922130854905
 20
405.26475899176199
 11
439.7984369194233
 21
405.26475899176199
  0
ARC
  8
_0-1_計細線
  6
CONTINUOUS
 62
    3
 10
456.51922130854905
 20
407.26475899176194
 40
2
 50
269.99999999999977
 51
348.6900675259788
  0
LINE
  8
_0-1_計細線
  6
CONTINUOUS
 62
    3
 10
460.65882911398631
 20
423.26475899176211
 11
435.65882911398654
 21
423.26475899176211
  0
LINE
  8
_0-1_計細線
  6
CONTINUOUS
 62
    3
 10
572.65882911398649
 20
423.26475899176194
 11
572.65882911398649
 21
415.26475899176199
  0
LINE
  8
_0-1_計細線
  6
CONTINUOUS
 62
    3
 10
547.65882911398671
 20
415.26475899176205
 11
547.65882911398671
 21
423.26475899176211
  0
LINE
  8
_0-1_計細線
  6
CONTINUOUS
 62
    3
 10
572.65882911398649
 20
415.26475899176199
 11
547.65882911398671
 21
415.26475899176199
  0
LINE
  8
_0-1_計細線
  6
CONTINUOUS
 62
    3
 10
570.48038265993159
 20
406.8725267214856
 11
572.15882911398694
 21
415.26475899176199
  0
ARC
  8
_0-1_計細線
  6
CONTINUOUS
 62
    3
 10
568.51922130854973
 20
407.26475899176194
 40
2
 50
269.99999999999977
 51
348.6900675259788
  0
LINE
  8
_0-1_計細線
  6
CONTINUOUS
 62
    3
 10
548.15882911398671
 20
415.26475899176199
 11
549.83727556804206
 21
406.8725267214856
  0
LINE
  8
_0-1_計細線
  6
CONTINUOUS
 62
    3
 10
551.79843691942392
 20
405.26475899176199
 11
568.51922130854973
 21
405.26475899176199
  0
ARC
  8
_0-1_計細線
  6
CONTINUOUS
 62
    3
 10
551.79843691942392
 20
407.26475899176194
 40
2
 50
191.30993247402051
 51
269.99999999999977
  0
LINE
  8
_0-1_計細線
  6
CONTINUOUS
 62
    3
 10
547.65882911398671
 20
423.26475899176211
 11
572.65882911398649
 21
423.26475899176211
  0
LINE
  8
_0-1_計細線
  6
DASHED2
 62
    3
 10
437.65882911398717
 20
420.26475899176205
 11
437.65882911398717
 21
423.26475899176194
  0
LINE
  8
_0-1_計細線
  6
DASHED2
 62
    3
 10
440.65882911398654
 20
423.26475899176211
 11
440.65882911398654
 21
420.26475899176205
  0
LINE
  8
_0-1_計細線
  6
CONTINUOUS
 62
    3
 10
435.65882930291815
 20
420.26475899176205
 11
448.15882977975525
 21
420.26475899176205
  0
LINE
  8
_0-1_計細線
  6
CONTINUOUS
 62
    3
 10
448.15882977975525
 20
420.26475899176205
 11
448.15882911398717
 21
423.26475899176211
  0
LINE
  8
_0-1_計細線
  6
CONTINUOUS
 62
    3
 10
435.65882930291815
 20
420.26475899176205
 11
435.65882911398654
 21
423.26475899176194
  0
LINE
  8
_0-1_計細線
  6
CONTINUOUS
 62
    3
 10
435.65882911398654
 20
423.26475899176194
 11
448.15882911398717
 21
423.26475899176194
  0
LINE
  8
_0-1_計細線
  6
CONTINUOUS
 62
    3
 10
575.65882903744614
 20
430.76475899176211
 11
574.65882903744625
 21
430.76475899176211
  0
LINE
  8
_0-1_計細線
  6
CONTINUOUS
 62
    3
 10
573.65882903744614
 20
439.51475899176194
 11
573.65882903744614
 21
405.26475899176205
  0
ARC
  8
_0-1_計細線
  6
CONTINUOUS
 62
    3
 10
574.90882903744637
 20
439.51475899176194
 40
1.25
 50
359.99999999998403
 51
179.99999999999946
  0
ARC
  8
_0-1_計細線
  6
CONTINUOUS
 62
    3
 10
574.90882903744614
 20
439.51475899176194
 40
0.25
 50
89.999999999999915
 51
179.99999999997394
  0
LINE
  8
_0-1_計細線
  6
CONTINUOUS
 62
    3
 10
574.90882903744614
 20
439.76475899176205
 11
574.89776687491121
 21
439.76475899176205
  0
LINE
  8
_0-1_計細線
  6
CONTINUOUS
 62
    3
 10
574.65882903744625
 20
435.83113196697252
 11
575.1455738500822
 21
439.48171806173923
  0
ARC
  8
_0-1_計細線
  6
CONTINUOUS
 62
    3
 10
574.89776687491121
 20
439.51475899176194
 40
0.25
 50
352.4053566314289
 51
89.999999999999545
  0
LINE
  8
_0-1_計細線
  6
CONTINUOUS
 62
    3
 10
575.65882903744614
 20
435.63201304134088
 11
575.65882903744614
 21
430.76475899176211
  0
LINE
  8
_0-1_計細線
  6
CONTINUOUS
 62
    3
 10
575.67637323608108
 20
435.89634048152305
 11
576.15882903744659
 21
439.51475899176194
  0
ARC
  8
_0-1_計細線
  6
CONTINUOUS
 62
    3
 10
577.65882903744625
 20
435.63201304134105
 40
2
 50
172.40535663140921
 51
180.0000000000029
  0
LINE
  8
_0-1_計細線
  6
CONTINUOUS
 62
    3
 10
574.65882903744625
 20
439.51475899176211
 11
574.65882903744625
 21
405.26475899176199
  0
LINE
  8
_0-1_計細線
  6
CONTINUOUS
 62
    3
 10
573.65882911398626
 20
405.26475899176199
 11
563.65870295396053
 21
405.26475899176199
  0
ARC
  8
_0-1_計細線
  6
CONTINUOUS
 62
    3
 10
563.66731175357472
 20
403.76475899176199
 40
1.5000000000000002
 50
89.999999999999915
 51
179.99999999999983
  0
LINE
  8
_0-1_計細線
  6
CONTINUOUS
 62
    3
 10
563.16731175357472
 20
402.76477571176571
 11
563.16731175357472
 21
403.76475899176199
  0
ARC
  8
_0-1_計細線
  6
CONTINUOUS
 62
    3
 10
563.66731175357472
 20
403.76475899176199
 40
0.5
 50
89.999999999999915
 51
179.99999999999983
  0
LINE
  8
_0-1_計細線
  6
CONTINUOUS
 62
    3
 10
563.16731175357472
 20
402.76477571176571
 11
563.16731175357472
 21
401.76475899176177
  0
ARC
  8
_0-1_計細線
  6
CONTINUOUS
 62
    3
 10
561.66731175357472
 20
401.76475899176177
 40
1.5000000000000002
 50
269.99999999999977
 51
359.99999999999966
  0
LINE
  8
_0-1_計細線
  6
CONTINUOUS
 62
    3
 10
562.16731175357336
 20
403.264742271758
 11
562.16731175357336
 21
401.76475899176177
  0
ARC
  8
_0-1_計細線
  6
CONTINUOUS
 62
    3
 10
561.66731175357336
 20
401.76475899176177
 40
0.5
 50
269.99999999999977
 51
359.99999999999966
  0
LINE
  8
_0-1_計細線
  6
CONTINUOUS
 62
    3
 10
562.16731175357472
 20
403.76475899176199
 11
562.16731175357472
 21
403.264742271758
  0
LINE
  8
_0-1_計細線
  6
CONTINUOUS
 62
    3
 10
561.55895527401253
 20
401.26475899176171
 11
561.66731175357472
 21
401.26475899176171
  0
LINE
  8
_0-1_計細線
  6
CONTINUOUS
 62
    3
 10
561.66731175357472
 20
400.26475899176177
 11
561.55895527401253
 21
400.26475899176177
  0
LINE
  8
_0-1_計細線
  6
CONTINUOUS
 62
    3
 10
573.65882903744625
 20
404.26475899176194
 11
563.65870295396053
 21
404.26475899176194
  0
ARC
  8
_0-1_計細線
  6
CONTINUOUS
 62
    3
 10
573.65882903744625
 20
405.26475899176199
 40
1
 50
269.99999999999977
 51
359.99999999999966
  0
LINE
  8
_0-1_計細線
  6
CONTINUOUS
 62
    3
 10
432.65882919052683
 20
430.76475899176211
 11
433.65882919052672
 21
430.76475899176211
  0
LINE
  8
_0-1_計細線
  6
CONTINUOUS
 62
    3
 10
434.65882919052689
 20
439.51475899176194
 11
434.65882919052689
 21
405.26475899176205
  0
ARC
  8
_0-1_計細線
  6
CONTINUOUS
 62
    3
 10
433.4088291905266
 20
439.51475899176194
 40
1.25
 50
0
 51
180.00000000001526
  0
ARC
  8
_0-1_計細線
  6
CONTINUOUS
 62
    3
 10
433.40882919052689
 20
439.51475899176194
 40
0.25
 50
0.0000000000260551
 51
89.999999999999915
  0
LINE
  8
_0-1_計細線
  6
CONTINUOUS
 62
    3
 10
433.40882919052689
 20
439.76475899176205
 11
433.41989135306176
 21
439.76475899176205
  0
LINE
  8
_0-1_計細線
  6
CONTINUOUS
 62
    3
 10
433.65882919052672
 20
435.83113196697252
 11
433.17208437789077
 21
439.48171806173923
  0
ARC
  8
_0-1_計細線
  6
CONTINUOUS
 62
    3
 10
433.41989135306176
 20
439.51475899176194
 40
0.25
 50
89.999999999999915
 51
187.59464336857042
  0
LINE
  8
_0-1_計細線
  6
CONTINUOUS
 62
    3
 10
432.65882919052683
 20
435.63201304134088
 11
432.65882919052683
 21
430.76475899176211
  0
LINE
  8
_0-1_計細線
  6
CONTINUOUS
 62
    3
 10
432.64128499189189
 20
435.89634048152305
 11
432.15882919052638
 21
439.51475899176194
  0
ARC
  8
_0-1_計細線
  6
CONTINUOUS
 62
    3
 10
430.65882919052677
 20
435.63201304134105
 40
2
 50
359.99999999999636
 51
7.5946433685904609
  0
LINE
  8
_0-1_計細線
  6
CONTINUOUS
 62
    3
 10
433.65882919052672
 20
439.51475899176211
 11
433.65882919052672
 21
405.26475899176199
  0
LINE
  8
_0-1_計細線
  6
CONTINUOUS
 62
    3
 10
434.65882911398671
 20
405.26475899176199
 11
444.65895527401244
 21
405.26475899176199
  0
ARC
  8
_0-1_計細線
  6
CONTINUOUS
 62
    3
 10
444.6503464743983
 20
403.76475899176199
 40
1.5000000000000002
 50
0
 51
89.999999999999915
  0
LINE
  8
_0-1_計細線
  6
CONTINUOUS
 62
    3
 10
445.15034647439825
 20
402.76477571176571
 11
445.15034647439825
 21
403.76475899176199
  0
ARC
  8
_0-1_計細線
  6
CONTINUOUS
 62
    3
 10
444.6503464743983
 20
403.76475899176199
 40
0.5
 50
0
 51
89.999999999999915
  0
LINE
  8
_0-1_計細線
  6
CONTINUOUS
 62
    3
 10
445.15034647439825
 20
402.76477571176571
 11
445.15034647439825
 21
401.76475899176177
  0
ARC
  8
_0-1_計細線
  6
CONTINUOUS
 62
    3
 10
446.65034647439825
 20
401.76475899176177
 40
1.5000000000000002
 50
179.99999999999983
 51
269.99999999999977
  0
LINE
  8
_0-1_計細線
  6
CONTINUOUS
 62
    3
 10
446.15034647439961
 20
403.264742271758
 11
446.15034647439961
 21
401.76475899176177
  0
ARC
  8
_0-1_計細線
  6
CONTINUOUS
 62
    3
 10
446.65034647439967
 20
401.76475899176177
 40
0.5
 50
179.99999999999983
 51
269.99999999999977
  0
LINE
  8
_0-1_計細線
  6
CONTINUOUS
 62
    3
 10
446.15034647439825
 20
403.76475899176199
 11
446.15034647439825
 21
403.264742271758
  0
LINE
  8
_0-1_計細線
  6
CONTINUOUS
 62
    3
 10
446.75870295396044
 20
401.26475899176171
 11
446.65034647439825
 21
401.26475899176171
  0
LINE
  8
_0-1_計細線
  6
CONTINUOUS
 62
    3
 10
446.65034647439825
 20
400.26475899176177
 11
446.75870295396044
 21
400.26475899176177
  0
LINE
  8
_0-1_計細線
  6
CONTINUOUS
 62
    3
 10
434.65882919052672
 20
404.26475899176194
 11
444.65895527401244
 21
404.26475899176194
  0
ARC
  8
_0-1_計細線
  6
CONTINUOUS
 62
    3
 10
434.65882919052672
 20
405.26475899176199
 40
1
 50
179.99999999999983
 51
269.99999999999977
  0
LINE
  8
_0-1_計細線
  6
CONTINUOUS
 62
    3
 10
574.90882903744637
 20
440.76475899176194
 11
433.4088291905266
 21
440.76475899176245
  0
LINE
  8
_0-1_計細線
  6
CONTINUOUS
 62
    3
 10
561.55895527401253
 20
400.26475899176177
 11
561.15882911398649
 21
400.26475899176177
  0
LINE
  8
_0-1_計細線
  6
CONTINUOUS
 62
    3
 10
561.15882911398649
 20
401.26475899176171
 11
561.55895527401253
 21
401.26475899176171
  0
LINE
  8
_0-1_計細線
  6
CONTINUOUS
 62
    3
 10
446.75870295396044
 20
400.26475899176177
 11
447.15882911398649
 21
400.26475899176177
  0
LINE
  8
_0-1_計細線
  6
CONTINUOUS
 62
    3
 10
447.15882911398649
 20
401.26475899176171
 11
446.75870295396044
 21
401.26475899176171
  0
LINE
  8
_0-5_寸法線
  6
CONTINUOUS
 62
    7
 10
471.16923631957661
 20
350.17041315031156
 11
466.38408416856947
 21
335.95414363641618
  0
LINE
  8
_0-5_寸法線
  6
CONTINUOUS
 62
    7
 10
471.16923631957661
 20
350.17041315031156
 11
459.91703823888292
 21
340.25133867973545
  0
LINE
  8
_0-5_寸法線
  6
CONTINUOUS
 62
    7
 10
471.16923631957661
 20
350.17041315031156
 11
430.40744122995056
 21
288.82611800808775
  0
LINE
  8
_0-5_寸法線
  6
CONTINUOUS
 62
    7
 10
430.40744122995056
 20
288.82611800808775
 11
298.40744122995062
 21
288.8261180080882
  0
TEXT
  8
_0-5_寸法線
 62
    7
 10
298.40744122995062
 20
288.82611800808775
 40
15
 41
0.7999999999999997
 50
0
  1
横引き排水トラップ一式
  0
LINE
  8
_0-5_寸法線
  6
CONTINUOUS
 62
    7
 10
601.15882903744739
 20
287.76475899176194
 11
751.15882903744728
 21
287.76475899176143
  0
LINE
  8
_0-5_寸法線
  6
CONTINUOUS
 62
    7
 10
746.15882903744728
 20
287.76475899176143
 11
743.57063858642209
 21
297.42401725465209
  0
LINE
  8
_0-5_寸法線
  6
CONTINUOUS
 62
    7
 10
746.15882903744728
 20
287.76475899176143
 11
748.74701948847246
 21
297.42401725465209
  0
LINE
  8
_0-5_寸法線
  6
CONTINUOUS
 62
    7
 10
611.15882903744648
 20
440.76475899176194
 11
751.15882903744728
 21
440.76475899176137
  0
LINE
  8
_0-5_寸法線
  6
CONTINUOUS
 62
    7
 10
746.15882903744728
 20
440.76475899176137
 11
748.74701948847246
 21
431.10550072887071
  0
LINE
  8
_0-5_寸法線
  6
CONTINUOUS
 62
    7
 10
746.15882903744728
 20
440.76475899176137
 11
743.57063858642209
 21
431.10550072887071
  0
LINE
  8
_0-5_寸法線
  6
CONTINUOUS
 62
    7
 10
746.15882903744728
 20
287.76475899176143
 11
746.15882903744728
 21
440.76475899176137
  0
TEXT
  8
_0-5_寸法線
 62
    7
 10
746.15882903744728
 20
353.01475899176114
 40
15
 41
1
 50
90
  1
153
  0
LINE
  8
_0-5_寸法線
  6
CONTINUOUS
 62
    7
 10
601.15882903744739
 20
287.76475899176194
 11
716.1588290374475
 21
287.76475899176148
  0
LINE
  8
_0-5_寸法線
  6
CONTINUOUS
 62
    7
 10
711.1588290374475
 20
287.76475899176148
 11
708.57063858642221
 21
297.42401725465214
  0
LINE
  8
_0-5_寸法線
  6
CONTINUOUS
 62
    7
 10
711.1588290374475
 20
287.76475899176148
 11
713.74701948847257
 21
297.42401725465214
  0
LINE
  8
_0-5_寸法線
  6
CONTINUOUS
 62
    7
 10
584.65882903744625
 20
404.26475899176182
 11
716.1588290374475
 21
404.26475899176148
  0
LINE
  8
_0-5_寸法線
  6
CONTINUOUS
 62
    7
 10
711.1588290374475
 20
404.26475899176148
 11
713.74701948847257
 21
394.60550072887077
  0
LINE
  8
_0-5_寸法線
  6
CONTINUOUS
 62
    7
 10
711.1588290374475
 20
404.26475899176148
 11
708.57063858642209
 21
394.60550072887082
  0
LINE
  8
_0-5_寸法線
  6
CONTINUOUS
 62
    7
 10
711.1588290374475
 20
287.76475899176148
 11
711.1588290374475
 21
404.26475899176148
  0
TEXT
  8
_0-5_寸法線
 62
    7
 10
711.1588290374475
 20
327.2647589917616
 40
15
 41
1
 50
90
  1
116.5
  0
LINE
  8
_0-5_寸法線
  6
CONTINUOUS
 62
    7
 10
711.1588290374475
 20
404.26475899176148
 11
708.57063858642221
 21
413.92401725465214
  0
LINE
  8
_0-5_寸法線
  6
CONTINUOUS
 62
    7
 10
711.1588290374475
 20
404.26475899176148
 11
713.74701948847257
 21
413.92401725465214
  0
LINE
  8
_0-5_寸法線
  6
CONTINUOUS
 62
    7
 10
584.90882903744637
 20
440.76475899176188
 11
716.1588290374475
 21
440.76475899176154
  0
LINE
  8
_0-5_寸法線
  6
CONTINUOUS
 62
    7
 10
711.1588290374475
 20
440.76475899176154
 11
713.74701948847257
 21
431.10550072887088
  0
LINE
  8
_0-5_寸法線
  6
CONTINUOUS
 62
    7
 10
711.1588290374475
 20
440.76475899176154
 11
708.57063858642221
 21
431.10550072887088
  0
LINE
  8
_0-5_寸法線
  6
CONTINUOUS
 62
    7
 10
711.1588290374475
 20
404.26475899176148
 11
711.1588290374475
 21
440.76475899176154
  0
TEXT
  8
_0-5_寸法線
 62
    7
 10
711.1588290374475
 20
407.51475899176171
 40
15
 41
1
 50
90
  1
36.5
  0
LINE
  8
_0-5_寸法線
  6
CONTINUOUS
 62
    7
 10
601.15882911398649
 20
287.76475899176177
 11
681.15882903744728
 21
287.76475899176154
  0
LINE
  8
_0-5_寸法線
  6
CONTINUOUS
 62
    7
 10
676.15882903744728
 20
287.76475899176154
 11
673.57063858642209
 21
297.4240172546522
  0
LINE
  8
_0-5_寸法線
  6
CONTINUOUS
 62
    7
 10
676.15882903744728
 20
287.76475899176154
 11
678.74701948847246
 21
297.4240172546522
  0
LINE
  8
_0-5_寸法線
  6
CONTINUOUS
 62
    7
 10
601.15882911398649
 20
344.33539099176039
 11
681.15882903744728
 21
344.33539099176011
  0
LINE
  8
_0-5_寸法線
  6
CONTINUOUS
 62
    7
 10
676.15882903744728
 20
344.33539099176011
 11
678.74701948847246
 21
334.67613272886945
  0
LINE
  8
_0-5_寸法線
  6
CONTINUOUS
 62
    7
 10
676.15882903744728
 20
344.33539099176011
 11
673.57063858642209
 21
334.67613272886945
  0
LINE
  8
_0-5_寸法線
  6
CONTINUOUS
 62
    7
 10
676.15882903744728
 20
287.76475899176154
 11
676.15882903744728
 21
344.33539099176011
  0
TEXT
  8
_0-5_寸法線
 62
    7
 10
676.15882903744728
 20
297.30007499176048
 40
15
 41
1
 50
90
  1
VU-50
  0
LINE
  8
_0-5_寸法線
  6
CONTINUOUS
 62
    7
 10
504.15882911398654
 20
277.76475899176182
 11
504.1588291139866
 21
232.76475899176182
  0
LINE
  8
_0-5_寸法線
  6
CONTINUOUS
 62
    7
 10
504.1588291139866
 20
237.76475899176182
 11
513.81808737687732
 21
240.35294944278704
  0
LINE
  8
_0-5_寸法線
  6
CONTINUOUS
 62
    7
 10
504.1588291139866
 20
237.76475899176182
 11
513.81808737687732
 21
235.17656854073664
  0
LINE
  8
_0-5_寸法線
  6
CONTINUOUS
 62
    7
 10
555.15882911398649
 20
277.76475899176182
 11
555.1588291139866
 21
232.76475899176182
  0
LINE
  8
_0-5_寸法線
  6
CONTINUOUS
 62
    7
 10
555.1588291139866
 20
237.76475899176182
 11
545.49957085109588
 21
235.17656854073664
  0
LINE
  8
_0-5_寸法線
  6
CONTINUOUS
 62
    7
 10
555.1588291139866
 20
237.76475899176182
 11
545.49957085109588
 21
240.35294944278706
  0
LINE
  8
_0-5_寸法線
  6
CONTINUOUS
 62
    7
 10
504.1588291139866
 20
237.76475899176182
 11
555.1588291139866
 21
237.76475899176182
  0
TEXT
  8
_0-5_寸法線
 62
    7
 10
522.15882911398637
 20
237.76475899176174
 40
15
 41
1
 50
0
  1
51
  0
LINE
  8
_0-5_寸法線
  6
CONTINUOUS
 62
    7
 10
555.1588291139866
 20
237.76475899176182
 11
564.81808737687732
 21
240.35294944278701
  0
LINE
  8
_0-5_寸法線
  6
CONTINUOUS
 62
    7
 10
555.1588291139866
 20
237.76475899176182
 11
564.81808737687732
 21
235.17656854073658
  0
LINE
  8
_0-5_寸法線
  6
CONTINUOUS
 62
    7
 10
591.15882911398649
 20
279.33539099176039
 11
591.1588291139866
 21
232.76475899176177
  0
LINE
  8
_0-5_寸法線
  6
CONTINUOUS
 62
    7
 10
591.1588291139866
 20
237.76475899176177
 11
581.49957085109588
 21
235.17656854073661
  0
LINE
  8
_0-5_寸法線
  6
CONTINUOUS
 62
    7
 10
591.1588291139866
 20
237.76475899176177
 11
581.49957085109588
 21
240.35294944278704
  0
LINE
  8
_0-5_寸法線
  6
CONTINUOUS
 62
    7
 10
555.1588291139866
 20
237.76475899176182
 11
591.1588291139866
 21
237.76475899176177
  0
TEXT
  8
_0-5_寸法線
 62
    7
 10
565.65882911398694
 20
237.76475899176162
 40
15
 41
1
 50
0
  1
36
  0
LINE
  8
_0-5_寸法線
  6
CONTINUOUS
 62
    7
 10
504.15882911398631
 20
277.76475899176182
 11
504.15882911398506
 21
197.76475899176182
  0
LINE
  8
_0-5_寸法線
  6
CONTINUOUS
 62
    7
 10
504.15882911398512
 20
202.76475899176182
 11
513.81808737687584
 21
205.35294944278704
  0
LINE
  8
_0-5_寸法線
  6
CONTINUOUS
 62
    7
 10
504.15882911398512
 20
202.76475899176182
 11
513.81808737687584
 21
200.17656854073664
  0
LINE
  8
_0-5_寸法線
  6
CONTINUOUS
 62
    7
 10
591.15882911398649
 20
279.33539099176039
 11
591.15882911398501
 21
197.76475899176182
  0
LINE
  8
_0-5_寸法線
  6
CONTINUOUS
 62
    7
 10
591.15882911398512
 20
202.76475899176182
 11
581.4995708510944
 21
200.17656854073664
  0
LINE
  8
_0-5_寸法線
  6
CONTINUOUS
 62
    7
 10
591.15882911398512
 20
202.76475899176182
 11
581.4995708510944
 21
205.35294944278706
  0
LINE
  8
_0-5_寸法線
  6
CONTINUOUS
 62
    7
 10
504.15882911398512
 20
202.76475899176182
 11
591.15882911398512
 21
202.76475899176182
  0
TEXT
  8
_0-5_寸法線
 62
    7
 10
540.15882911398512
 20
202.76475899176182
 40
15
 41
1
 50
0
  1
87
  0
TEXT
  8
_0-7_枠細線
 62
    5
 10
953.07083783519852
 20
532.0533288199058
 40
25
 41
0.8
 50
0
  1
排水部詳細図
  0
TEXT
  8
_0-7_枠細線
 62
    5
 10
1091.596581326382
 20
532.66255423330881
 40
20
 41
0.6
 50
0
  1
Ｓ＝１：４
  0
TEXT
  8
_0-7_枠細線
 62
    5
 10
1164.8871655672481
 20
701.51379244672808
 40
25
 41
0.8
 50
0
  1
Ｃ部拡大図
  0
LINE
  8
_0-a_極細1
  6
CONTINUOUS
 62
    7
 10
1199.1476337885122
 20
795.30941124886806
 11
1211.147632588513
 21
795.30941124886806
  0
LINE
  8
_0-a_極細1
  6
CONTINUOUS
 62
    7
 10
1199.1476337885122
 20
795.97607784886804
 11
1211.147632588513
 21
795.97607784886804
  0
LINE
  8
_0-a_極細1
  6
CONTINUOUS
 62
    7
 10
1199.0402113555576
 20
796.64274444886814
 11
1211.147632588513
 21
796.64274444886814
  0
LINE
  8
_0-a_極細1
  6
CONTINUOUS
 62
    7
 10
1198.3735447555575
 20
797.30941104886824
 11
1211.147632588513
 21
797.30941104886824
  0
LINE
  8
_0-a_極細1
  6
CONTINUOUS
 62
    7
 10
1197.7068781555579
 20
797.97607764886823
 11
1211.147632588513
 21
797.97607764886823
  0
LINE
  8
_0-a_極細1
  6
CONTINUOUS
 62
    7
 10
1197.9217230214665
 20
798.64274424886833
 11
1211.147632588513
 21
798.64274424886833
  0
LINE
  8
_0-a_極細1
  6
CONTINUOUS
 62
    7
 10
1198.5883896214666
 20
799.30941084886842
 11
1211.147632588513
 21
799.30941084886842
  0
LINE
  8
_0-a_極細1
  6
CONTINUOUS
 62
    7
 10
1199.1476337885122
 20
799.97607744886807
 11
1211.147632588513
 21
799.97607744886807
  0
LINE
  8
_0-a_極細1
  6
CONTINUOUS
 62
    7
 10
1199.1476337885122
 20
800.64274404886817
 11
1211.147632588513
 21
800.64274404886817
  0
LINE
  8
_0-a_極細1
  6
CONTINUOUS
 62
    7
 10
1199.1476337885122
 20
801.30941064886827
 11
1211.147632588513
 21
801.30941064886827
  0
LINE
  8
_0-a_極細1
  6
CONTINUOUS
 62
    7
 10
1199.1476337885122
 20
801.97607724886836
 11
1211.147632588513
 21
801.97607724886836
  0
LINE
  8
_0-a_極細1
  6
CONTINUOUS
 62
    7
 10
1199.1476337885122
 20
802.64274384886846
 11
1211.147632588513
 21
802.64274384886846
  0
LINE
  8
_0-a_極細1
  6
CONTINUOUS
 62
    7
 10
1199.1476337885122
 20
803.30941044886856
 11
1211.147632588513
 21
803.30941044886856
  0
LINE
  8
_0-a_極細1
  6
CONTINUOUS
 62
    7
 10
1199.1476337885122
 20
803.97607704886832
 11
1211.147632588513
 21
803.97607704886832
  0
LINE
  8
_0-a_極細1
  6
CONTINUOUS
 62
    7
 10
1198.7068780555576
 20
804.6427436488683
 11
1211.3827023127558
 21
804.6427436488683
  0
LINE
  8
_0-a_極細1
  6
CONTINUOUS
 62
    7
 10
1198.0402114555575
 20
805.3094102488684
 11
1211.7382578327554
 21
805.3094102488684
  0
LINE
  8
_0-a_極細1
  6
CONTINUOUS
 62
    7
 10
1197.5883897214676
 20
805.97607684886839
 11
1212.0938133527554
 21
805.97607684886839
  0
LINE
  8
_0-a_極細1
  6
CONTINUOUS
 62
    7
 10
1198.255056321467
 20
806.64274344886849
 11
1212.4493688727555
 21
806.64274344886849
  0
LINE
  8
_0-a_極細1
  6
CONTINUOUS
 62
    7
 10
1198.9217229214671
 20
807.30941004886859
 11
1212.8049243927555
 21
807.30941004886859
  0
LINE
  8
_0-a_極細1
  6
CONTINUOUS
 62
    7
 10
1199.1476337885122
 20
807.97607664886857
 11
1213.1604799127556
 21
807.97607664886857
  0
LINE
  8
_0-a_極細1
  6
CONTINUOUS
 62
    7
 10
1199.1476337885122
 20
808.64274324886867
 11
1213.5160354327554
 21
808.64274324886867
  0
LINE
  8
_0-a_極細1
  6
CONTINUOUS
 62
    7
 10
1232.8411877163933
 20
779.04184772916437
 11
1232.8411877163933
 21
830.49166057474804
  0
LINE
  8
_0-a_極細1
  6
CONTINUOUS
 62
    7
 10
1232.1745211163932
 20
778.37518112916428
 11
1232.1745211163932
 21
830.3474554162824
  0
LINE
  8
_0-a_極細1
  6
CONTINUOUS
 62
    7
 10
1231.5078545163931
 20
777.70851452916418
 11
1231.5078545163931
 21
830.0538278981229
  0
LINE
  8
_0-a_極細1
  6
CONTINUOUS
 62
    7
 10
1230.841187916393
 20
777.04184792916431
 11
1230.841187916393
 21
829.55956701937794
  0
LINE
  8
_0-a_極細1
  6
CONTINUOUS
 62
    7
 10
1230.1745213163936
 20
776.37518132916455
 11
1230.1745213163936
 21
828.69616451956801
  0
LINE
  8
_0-a_極細1
  6
CONTINUOUS
 62
    7
 10
1229.5078547163935
 20
775.70851472916445
 11
1229.5078547163935
 21
826.0976728126235
  0
LINE
  8
_0-a_極細1
  6
CONTINUOUS
 62
    7
 10
1228.8411881163934
 20
775.04184812916435
 11
1228.8411881163934
 21
824.71680524675378
  0
LINE
  8
_0-a_極細1
  6
CONTINUOUS
 62
    7
 10
1228.1745215163933
 20
774.51495755128349
 11
1228.1745215163933
 21
823.89116486529917
  0
LINE
  8
_0-a_極細1
  6
CONTINUOUS
 62
    7
 10
1227.5078549163934
 20
774.51495755128349
 11
1227.5078549163934
 21
823.30707969401146
  0
LINE
  8
_0-a_極細1
  6
CONTINUOUS
 62
    7
 10
1226.8411883163931
 20
774.51495755128349
 11
1226.8411883163931
 21
822.87863682710906
  0
LINE
  8
_0-a_極細1
  6
CONTINUOUS
 62
    7
 10
1226.1745217163932
 20
774.51495755128349
 11
1226.1745217163932
 21
822.56781421492167
  0
LINE
  8
_0-a_極細1
  6
CONTINUOUS
 62
    7
 10
1225.5078551163931
 20
774.51495755128349
 11
1225.5078551163931
 21
822.35461119658362
  0
LINE
  8
_0-a_極細1
  6
CONTINUOUS
 62
    7
 10
1224.841188516393
 20
774.51495755128349
 11
1224.841188516393
 21
822.22790748697889
  0
LINE
  8
_0-a_極細1
  6
CONTINUOUS
 62
    7
 10
1224.1745219163929
 20
774.51495755128349
 11
1224.1745219163929
 21
822.18189758849462
  0
LINE
  8
_0-a_極細1
  6
CONTINUOUS
 62
    7
 10
1223.5078553163928
 20
774.51495755128349
 11
1223.5078553163928
 21
822.18161945128384
  0
LINE
  8
_0-a_極細1
  6
CONTINUOUS
 62
    7
 10
1222.8411887163927
 20
774.51495755128349
 11
1222.8411887163927
 21
822.18161945128384
  0
LINE
  8
_0-a_極細1
  6
CONTINUOUS
 62
    7
 10
1222.1745221163931
 20
774.51495755128349
 11
1222.1745221163931
 21
822.18161945128384
  0
LINE
  8
_0-a_極細1
  6
CONTINUOUS
 62
    7
 10
1221.5078555163934
 20
774.51495755128349
 11
1221.5078555163934
 21
822.18161945128384
  0
LINE
  8
_0-a_極細1
  6
CONTINUOUS
 62
    7
 10
1220.8411889163933
 20
774.51495755128349
 11
1220.8411889163933
 21
822.18161945128384
  0
LINE
  8
_0-a_極細1
  6
CONTINUOUS
 62
    7
 10
1220.1745223163932
 20
774.51495755128349
 11
1220.1745223163932
 21
822.18161945128384
  0
LINE
  8
_0-a_極細1
  6
CONTINUOUS
 62
    7
 10
1219.5078557163931
 20
774.51495755128349
 11
1219.5078557163931
 21
822.12264933552149
  0
LINE
  8
_0-a_極細1
  6
CONTINUOUS
 62
    7
 10
1218.841189116393
 20
774.51495755128349
 11
1218.841189116393
 21
821.92865003763075
  0
LINE
  8
_0-a_極細1
  6
CONTINUOUS
 62
    7
 10
1218.1745225163929
 20
774.51495755128349
 11
1218.1745225163929
 21
821.57243936412328
  0
LINE
  8
_0-a_極細1
  6
CONTINUOUS
 62
    7
 10
1217.5078559163928
 20
774.51495755128349
 11
1217.5078559163928
 21
820.97978894713208
  0
LINE
  8
_0-a_極細1
  6
CONTINUOUS
 62
    7
 10
1216.8411893163927
 20
774.51495755128349
 11
1216.8411893163927
 21
819.8294161202582
  0
LINE
  8
_0-a_極細1
  6
CONTINUOUS
 62
    7
 10
1216.1745227163926
 20
774.51495755128349
 11
1216.1745227163926
 21
781.18162355128334
  0
LINE
  8
_0-a_極細1
  6
CONTINUOUS
 62
    7
 10
1215.5078561163925
 20
774.51495755128349
 11
1215.5078561163925
 21
781.18162355128334
  0
LINE
  8
_0-a_極細1
  6
CONTINUOUS
 62
    7
 10
1214.8411895163924
 20
774.51495755128349
 11
1214.8411895163924
 21
781.18162355128334
  0
LINE
  8
_0-a_極細1
  6
CONTINUOUS
 62
    7
 10
1214.1745229163928
 20
774.51495755128349
 11
1214.1745229163928
 21
781.18162355128334
  0
LINE
  8
_0-a_極細1
  6
CONTINUOUS
 62
    7
 10
1213.5078563163927
 20
774.51495755128349
 11
1213.5078563163927
 21
781.18162355128334
  0
LINE
  8
_0-a_極細1
  6
CONTINUOUS
 62
    7
 10
1212.8411897163926
 20
774.51495755128349
 11
1212.8411897163926
 21
781.18162355128334
  0
LINE
  8
_0-a_極細1
  6
CONTINUOUS
 62
    7
 10
1212.1745231163925
 20
774.51495755128349
 11
1212.1745231163925
 21
781.18162355128334
  0
LINE
  8
_0-a_極細1
  6
CONTINUOUS
 62
    7
 10
1211.5078565163931
 20
774.51495755128349
 11
1211.5078565163931
 21
781.18162355128334
  0
LINE
  8
_0-a_極細1
  6
CONTINUOUS
 62
    7
 10
1210.8411899163923
 20
774.51495755128349
 11
1210.8411899163923
 21
781.18162355128334
  0
LINE
  8
_0-a_極細1
  6
CONTINUOUS
 62
    7
 10
1210.1745233163929
 20
774.51495755128349
 11
1210.1745233163929
 21
781.18162355128334
  0
LINE
  8
_0-a_極細1
  6
CONTINUOUS
 62
    7
 10
1209.5078567163935
 20
767.84829155128352
 11
1209.5078567163935
 21
787.84828955128341
  0
LINE
  8
_0-a_極細1
  6
CONTINUOUS
 62
    7
 10
1208.8411901163938
 20
767.84829155128352
 11
1208.8411901163938
 21
787.84828955128341
  0
LINE
  8
_0-a_極細1
  6
CONTINUOUS
 62
    7
 10
1208.1745235163937
 20
767.84829155128352
 11
1208.1745235163937
 21
770.15956233354825
  0
LINE
  8
_0-a_極細1
  6
CONTINUOUS
 62
    7
 10
1208.1745235163937
 20
774.85088751769069
 11
1208.1745235163937
 21
787.84828955128341
  0
LINE
  8
_0-a_極細1
  6
CONTINUOUS
 62
    7
 10
1207.5078569163936
 20
767.84829155128352
 11
1207.5078569163936
 21
768.33915594027928
  0
LINE
  8
_0-a_極細1
  6
CONTINUOUS
 62
    7
 10
1207.5078569163936
 20
774.85088751769069
 11
1207.5078569163936
 21
787.84828955128341
  0
LINE
  8
_0-a_極細1
  6
CONTINUOUS
 62
    7
 10
1206.8411903163935
 20
774.85088751769069
 11
1206.8411903163935
 21
787.84828955128341
  0
LINE
  8
_0-a_極細1
  6
CONTINUOUS
 62
    7
 10
1206.1745237163934
 20
774.85088751769069
 11
1206.1745237163934
 21
787.84828955128341
  0
LINE
  8
_0-a_極細1
  6
CONTINUOUS
 62
    7
 10
1205.5078571163933
 20
774.85088751769069
 11
1205.5078571163933
 21
787.84828955128341
  0
LINE
  8
_0-a_極細1
  6
CONTINUOUS
 62
    7
 10
1204.8411905163932
 20
774.85088751769069
 11
1204.8411905163932
 21
787.84828955128341
  0
LINE
  8
_0-a_極細1
  6
CONTINUOUS
 62
    7
 10
1204.1745239163931
 20
774.85088751769069
 11
1204.1745239163931
 21
787.84828955128341
  0
LINE
  8
_0-a_極細1
  6
CONTINUOUS
 62
    7
 10
1203.507857316393
 20
774.85088751769069
 11
1203.507857316393
 21
787.84828955128341
  0
LINE
  8
_0-a_極細1
  6
CONTINUOUS
 62
    7
 10
1202.8411907163929
 20
774.85088751769069
 11
1202.8411907163929
 21
787.84828955128341
  0
LINE
  8
_0-a_極細1
  6
CONTINUOUS
 62
    7
 10
1202.1745241163933
 20
774.85088751769069
 11
1202.1745241163933
 21
787.84828955128341
  0
LINE
  8
_0-a_極細1
  6
CONTINUOUS
 62
    7
 10
1201.5078575163932
 20
774.85088751769069
 11
1201.5078575163932
 21
787.84828955128341
  0
LINE
  8
_0-a_極細1
  6
CONTINUOUS
 62
    7
 10
1200.8411909163931
 20
774.85088751769069
 11
1200.8411909163931
 21
787.84828955128341
  0
LINE
  8
_0-a_極細1
  6
CONTINUOUS
 62
    7
 10
1191.6476345385124
 20
764.85088851769092
 11
1191.6476345385124
 21
774.51495755128349
  0
ARC
  8
_0-a_極細1
  6
CONTINUOUS
 62
    7
 10
1181.647635538513
 20
774.85088751769069
 40
9.999998999999999
 50
358.07490068720404
 51
50.029499419963059
  0
LINE
  8
_0-a_極細1
  6
CONTINUOUS
 62
    7
 10
1233.2442970455129
 20
825.97607484886805
 11
1237.4372902672437
 21
825.97607484886805
  0
LINE
  8
_0-a_極細1
  6
CONTINUOUS
 62
    7
 10
1233.2442970455129
 20
826.64274144886804
 11
1243.204789690494
 21
826.64274144886804
  0
LINE
  8
_0-a_極細1
  6
CONTINUOUS
 62
    7
 10
1233.2442970455129
 20
827.30940804886814
 11
1248.972289113744
 21
827.30940804886814
  0
LINE
  8
_0-a_極細1
  6
CONTINUOUS
 62
    7
 10
1233.2442970455129
 20
827.97607464886823
 11
1254.7397885369942
 21
827.97607464886823
  0
LINE
  8
_0-a_極細1
  6
CONTINUOUS
 62
    7
 10
1233.2442970455129
 20
828.64274124886822
 11
1256.3142947385127
 21
828.64274124886822
  0
LINE
  8
_0-a_極細1
  6
CONTINUOUS
 62
    7
 10
1233.2442970455129
 20
829.30940784886832
 11
1256.3142947385127
 21
829.30940784886832
  0
LINE
  8
_0-a_極細1
  6
CONTINUOUS
 62
    7
 10
1233.2442970455129
 20
829.97607444886842
 11
1256.3142947385127
 21
829.97607444886842
  0
LINE
  8
_0-a_極細1
  6
CONTINUOUS
 62
    7
 10
1234.3068376408912
 20
830.64274104886852
 11
1256.3142947385127
 21
830.64274104886852
  0
LINE
  8
_0-a_極細1
  6
CONTINUOUS
 62
    7
 10
1238.9875013153912
 20
831.30940764886816
 11
1256.3142947385127
 21
831.30940764886816
  0
LINE
  8
_0-a_極細1
  6
CONTINUOUS
 62
    7
 10
1243.6681649898912
 20
831.97607424886826
 11
1256.3142947385127
 21
831.97607424886826
  0
LINE
  8
_0-a_極細1
  6
CONTINUOUS
 62
    7
 10
1248.3488286643908
 20
832.64274084886836
 11
1256.3142947385127
 21
832.64274084886836
  0
LINE
  8
_0-a_極細1
  6
CONTINUOUS
 62
    7
 10
1253.0294923388908
 20
833.30940744886846
 11
1256.3142947385127
 21
833.30940744886846
  0
LINE
  8
_0-a_極細1
  6
CONTINUOUS
 62
    7
 10
1256.3142947385127
 20
833.82473828697152
 11
1256.3142947385127
 21
836.1341414382656
  0
LINE
  8
_0-a_極細1
  6
CONTINUOUS
 62
    7
 10
1233.2442970455129
 20
832.84828505128371
 11
1256.3142947385127
 21
836.1341414382656
  0
LINE
  8
_0-a_極細1
  6
CONTINUOUS
 62
    7
 10
1211.6476325385122
 20
809.85088401769076
 11
1211.6476325385122
 21
812.84828705128348
  0
LINE
  8
_0-a_極細1
  6
CONTINUOUS
 62
    7
 10
1211.6476325385122
 20
789.51755271769059
 11
1211.6476325385122
 21
794.51755221769031
  0
LINE
  8
_0-a_極細1
  6
CONTINUOUS
 62
    7
 10
1199.1476337885126
 20
804.20198791591361
 11
1199.1476337885126
 21
799.86865501591365
  0
LINE
  8
_0-a_極細1
  6
CONTINUOUS
 62
    7
 10
1199.1476337885126
 20
796.53532201591361
 11
1199.1476337885126
 21
794.86865551591359
  0
LINE
  8
_0-a_極細1
  6
CONTINUOUS
 62
    7
 10
1211.147632588513
 20
804.20198791591361
 11
1211.147632588513
 21
794.86865551591359
  0
LINE
  8
_0-a_極細1
  6
CONTINUOUS
 62
    7
 10
1197.4809672885124
 20
805.86865441591374
 11
1199.1476337885126
 21
807.53532091591353
  0
LINE
  8
_0-a_極細1
  6
CONTINUOUS
 62
    7
 10
1199.1476337885126
 20
804.20198791591361
 11
1197.4809672885124
 21
805.86865441591374
  0
LINE
  8
_0-a_極細1
  6
CONTINUOUS
 62
    7
 10
1199.1476337885126
 20
796.53532201591361
 11
1197.4809672885124
 21
798.20198851591385
  0
LINE
  8
_0-a_極細1
  6
CONTINUOUS
 62
    7
 10
1197.4809672885124
 20
798.20198851591385
 11
1199.1476337885126
 21
799.86865501591365
  0
LINE
  8
_0-a_極細1
  6
CONTINUOUS
 62
    7
 10
1211.147632588513
 20
804.20198791591361
 11
1213.8142989885125
 21
809.20198741591321
  0
LINE
  8
_0-a_極細1
  6
CONTINUOUS
 62
    7
 10
1199.1476337885126
 20
809.20198741591321
 11
1199.1476337885126
 21
807.53532091591353
  0
ARC
  8
_0-a_極細1
  6
CONTINUOUS
 62
    7
 10
1219.814298388513
 20
829.51495205128367
 40
1.6666665000000003
 50
24.05454899999916
 51
89.999999999999915
  0
ARC
  8
_0-a_極細1
  6
CONTINUOUS
 62
    7
 10
1220.8142982885131
 20
825.1816191512836
 40
0.6666665999999621
 50
269.99999999999977
 51
359.99999999999966
  0
ARC
  8
_0-a_極細1
  6
CONTINUOUS
 62
    7
 10
1219.814298388513
 20
829.51495205128367
 40
1.6666665000000003
 50
0
 51
24.05454899999916
  0
LINE
  8
_0-a_極細1
  6
CONTINUOUS
 62
    7
 10
1214.3142989385126
 20
814.51495355128361
 11
1214.3142989385135
 21
824.51495255128395
  0
LINE
  8
_0-a_極細1
  6
CONTINUOUS
 62
    7
 10
1214.3142989385135
 20
824.51495255128395
 11
1220.8142982885131
 21
824.51495255128395
  0
LINE
  8
_0-a_極細1
  6
CONTINUOUS
 62
    7
 10
1221.4809648885132
 20
825.1816191512836
 11
1221.4809648885132
 21
829.51495205128367
  0
LINE
  8
_0-a_極細1
  6
CONTINUOUS
 62
    7
 10
1209.9809660385126
 20
774.51495755128349
 11
1228.3142975385119
 21
774.51495755128349
  0
LINE
  8
_0-a_極細1
  6
CONTINUOUS
 62
    7
 10
1207.2136863152407
 20
767.84829155128352
 11
1209.9809660385126
 21
767.84829155128352
  0
LINE
  8
_0-a_極細1
  6
CONTINUOUS
 62
    7
 10
1209.9809660385126
 20
783.51495665128368
 11
1214.3142989385126
 21
783.51495665128368
  0
LINE
  8
_0-a_極細1
  6
CONTINUOUS
 62
    7
 10
1209.9809660385126
 20
781.18162355128334
 11
1216.6476320385125
 21
781.18162355128334
  0
LINE
  8
_0-a_極細1
  6
CONTINUOUS
 62
    7
 10
1209.9809660385126
 20
767.84829155128352
 11
1209.9809660385126
 21
787.84828955128341
  0
LINE
  8
_0-a_極細1
  6
CONTINUOUS
 62
    7
 10
1233.2442970455129
 20
779.44495705828353
 11
1228.3142975385119
 21
774.51495755128349
  0
LINE
  8
_0-a_極細1
  6
CONTINUOUS
 62
    7
 10
1216.6476320385125
 20
781.18162355128334
 11
1216.6476320385129
 21
818.68161980128343
  0
ARC
  8
_0-a_極細1
  6
CONTINUOUS
 62
    7
 10
1220.147631688513
 20
818.68161980128343
 40
3.4999996500000385
 50
89.999999999999915
 51
179.99999999999983
  0
LINE
  8
_0-a_極細1
  6
CONTINUOUS
 62
    7
 10
1224.1183779581054
 20
822.18161945128384
 11
1220.147631688513
 21
822.18161945128384
  0
ARC
  8
_0-a_極細1
  6
CONTINUOUS
 62
    7
 10
1224.1183779581054
 20
827.84828555128342
 40
5.6666660999999614
 50
269.99999999999977
 51
356.64911199999869
  0
ARC
  8
_0-a_極細1
  6
CONTINUOUS
 62
    7
 10
1224.1183779581054
 20
827.84828555128342
 40
3.3333330000000005
 50
269.99999999999977
 51
356.64911200000182
  0
ARC
  8
_0-a_極細1
  6
CONTINUOUS
 62
    7
 10
1233.2442970455129
 20
827.01495230128353
 40
5.8333327500000012
 50
89.999999999999915
 51
175.84900999999849
  0
ARC
  8
_0-a_極細1
  6
CONTINUOUS
 62
    7
 10
1220.147631688513
 20
818.68161980128343
 40
5.8333327500000012
 50
89.999999999999915
 51
179.99999999999983
  0
LINE
  8
_0-a_極細1
  6
CONTINUOUS
 62
    7
 10
1221.6476315385132
 20
824.51495255128395
 11
1221.6476315385132
 21
832.84828505128371
  0
LINE
  8
_0-a_極細1
  6
CONTINUOUS
 62
    7
 10
1214.3142989385126
 20
783.51495665128368
 11
1214.3142989385126
 21
818.68161980128343
  0
LINE
  8
_0-a_極細1
  6
CONTINUOUS
 62
    7
 10
1224.1183779581054
 20
824.51495255128395
 11
1220.147631688513
 21
824.51495255128395
  0
LINE
  8
_0-a_極細1
  6
CONTINUOUS
 62
    7
 10
1200.8143002885129
 20
787.84828955128341
 11
1214.3142989385126
 21
787.84828955128341
  0
LINE
  8
_0-a_極細1
  6
CONTINUOUS
 62
    7
 10
1256.3142947385127
 20
828.15807218697171
 11
1233.2442970455129
 21
825.49140578697177
  0
LINE
  8
_0-a_極細1
  6
CONTINUOUS
 62
    7
 10
1233.2442970455118
 20
762.1580787869716
 11
1228.3142975385119
 21
764.82474518697154
  0
LINE
  8
_0-a_極細1
  6
CONTINUOUS
 62
    7
 10
1228.3142975385119
 20
764.82474518697154
 11
1228.3142975385119
 21
774.51495755128349
  0
LINE
  8
_0-a_極細1
  6
CONTINUOUS
 62
    7
 10
1256.3142947385127
 20
783.34221333522487
 11
1256.3142947385127
 21
836.08666472744574
  0
LINE
  8
_0-a_極細1
  6
CONTINUOUS
 62
    7
 10
1243.3142960385123
 20
781.49141018697151
 11
1256.3142947385127
 21
781.49141018697151
  0
LINE
  8
_0-a_極細1
  6
CONTINUOUS
 62
    7
 10
1256.3142947385127
 20
781.49141018697151
 11
1256.3142947385127
 21
783.34221333522487
  0
LINE
  8
_0-a_極細1
  6
CONTINUOUS
 62
    7
 10
1243.3142960385123
 20
754.82474618697142
 11
1243.3142960385123
 21
781.49141018697151
  0
LINE
  8
_0-a_極細1
  6
CONTINUOUS
 62
    7
 10
1233.2442970455129
 20
830.49140346613569
 11
1256.3142947385127
 21
833.77726162505257
  0
LINE
  8
_0-a_極細1
  6
CONTINUOUS
 62
    7
 10
1233.2442970455129
 20
779.44495705828353
 11
1233.2442970455129
 21
830.51495195128382
  0
ARC
  8
_0-a_極細1
  6
CONTINUOUS
 62
    7
 10
1233.2442970455129
 20
827.01495230128353
 40
3.4999996500000385
 50
89.999999999999915
 51
175.84900999999951
  0
LINE
  8
_0-a_極細1
  6
CONTINUOUS
 62
    7
 10
1201.6476335385125
 20
764.85088851769092
 11
1191.6476345385124
 21
764.85088851769092
  0
ARC
  8
_0-a_極細1
  6
CONTINUOUS
 62
    7
 10
1201.6476335385125
 20
771.51755451769077
 40
6.6666660000000011
 50
269.99999999999977
 51
359.99999999999966
  0
LINE
  8
_0-a_極細1
  6
CONTINUOUS
 62
    7
 10
1208.3142995385126
 20
771.51755451769077
 11
1208.3142995385126
 21
774.85088751769069
  0
LINE
  8
_0-a_極細1
  6
CONTINUOUS
 62
    7
 10
1208.3142995385126
 20
774.85088751769069
 11
1200.8143002885129
 21
774.85088751769069
  0
LINE
  8
_0-a_極細1
  6
CONTINUOUS
 62
    7
 10
1211.6476325385122
 20
789.51755271769059
 11
1200.8143002885129
 21
789.51755271769059
  0
LINE
  8
_0-a_極細1
  6
CONTINUOUS
 62
    7
 10
1200.8143002885129
 20
774.85088751769069
 11
1200.8143002885129
 21
789.51755271769071
  0
LINE
  8
_0-a_極細1
  6
CONTINUOUS
 62
    7
 10
1210.647632638513
 20
812.84828705128348
 11
1210.647632638513
 21
816.1816200512834
  0
ARC
  8
_0-a_極細1
  6
CONTINUOUS
 62
    7
 10
1212.6476324385123
 20
814.51495355128361
 40
1.6666665000000003
 50
269.99999999999977
 51
359.99999999999966
  0
CIRCLE
  8
_0-a_極細1
  6
CONTINUOUS
 62
    7
 10
1215.0648983838364
 20
804.23542091858758
 40
62.050673138549151
  0
ARC
  8
_0-a_極細1
  6
CONTINUOUS
 62
    7
 10
1251.6476285385122
 20
740.39099096368079
 40
16.666665000000002
 50
120.00000000000014
 51
161.13978923390172
  0
LINE
  8
_0-a_極細1
  6
CONTINUOUS
 62
    7
 10
1226.6476310385121
 20
743.27538203082645
 11
1226.6476310385121
 21
762.1580787869716
  0
LINE
  8
_0-a_極細1
  6
CONTINUOUS
 62
    7
 10
1241.995068475205
 20
753.97796290177121
 11
1243.3142960385123
 21
755.2971904650791
  0
LINE
  8
_0-a_極細1
  6
CONTINUOUS
 62
    7
 10
1226.6476310385121
 20
743.3445702015847
 11
1243.3142960385123
 21
760.01123520158467
  0
LINE
  8
_0-a_極細1
  6
CONTINUOUS
 62
    7
 10
1226.6476310385121
 20
745.70159256983766
 11
1243.3142960385123
 21
762.36825756983762
  0
LINE
  8
_0-a_極細1
  6
CONTINUOUS
 62
    7
 10
1226.6476310385121
 20
748.05861493809061
 11
1243.3142960385123
 21
764.72527993809069
  0
LINE
  8
_0-a_極細1
  6
CONTINUOUS
 62
    7
 10
1226.6476310385121
 20
750.41563730634368
 11
1243.3142960385123
 21
767.08230230634342
  0
LINE
  8
_0-a_極細1
  6
CONTINUOUS
 62
    7
 10
1226.6476310385121
 20
752.77265967459641
 11
1243.3142960385123
 21
769.43932467459626
  0
LINE
  8
_0-a_極細1
  6
CONTINUOUS
 62
    7
 10
1255.3663815508874
 20
781.49141018697151
 11
1256.3142947385127
 21
782.43932337459637
  0
LINE
  8
_0-a_極細1
  6
CONTINUOUS
 62
    7
 10
1226.6476310385121
 20
755.12968204284903
 11
1243.3142960385123
 21
771.79634704284922
  0
LINE
  8
_0-a_極細1
  6
CONTINUOUS
 62
    7
 10
1253.0093591826346
 20
781.49141018697151
 11
1256.3142947385129
 21
784.79634574284944
  0
LINE
  8
_0-a_極細1
  6
CONTINUOUS
 62
    7
 10
1226.6476310385121
 20
757.4867044111021
 11
1231.3190054143818
 21
762.1580787869716
  0
LINE
  8
_0-a_極細1
  6
CONTINUOUS
 62
    7
 10
1231.994842757473
 20
762.83391613006245
 11
1243.3142960385123
 21
774.1533694111024
  0
LINE
  8
_0-a_極細1
  6
CONTINUOUS
 62
    7
 10
1250.6523368143821
 20
781.49141018697173
 11
1256.3142947385127
 21
787.15336811110228
  0
LINE
  8
_0-a_極細1
  6
CONTINUOUS
 62
    7
 10
1226.6476310385121
 20
759.84372677935482
 11
1228.9619830461295
 21
762.15807878697194
  0
LINE
  8
_0-a_極細1
  6
CONTINUOUS
 62
    7
 10
1230.4652086711869
 20
763.66130441202927
 11
1243.3142960385123
 21
776.51039177935502
  0
LINE
  8
_0-a_極細1
  6
CONTINUOUS
 62
    7
 10
1248.2953144461292
 20
781.49141018697151
 11
1256.3142947385127
 21
789.51039047935524
  0
LINE
  8
_0-a_極細1
  6
CONTINUOUS
 62
    7
 10
1228.9355745849009
 20
764.48869269399609
 11
1243.3142960385123
 21
778.8674141476082
  0
LINE
  8
_0-a_極細1
  6
CONTINUOUS
 62
    7
 10
1245.938292077876
 20
781.49141018697151
 11
1256.3142947385127
 21
791.86741284760797
  0
LINE
  8
_0-a_極細1
  6
CONTINUOUS
 62
    7
 10
1228.3142975385124
 20
766.22443801586076
 11
1243.3142960385123
 21
781.22443651586093
  0
LINE
  8
_0-a_極細1
  6
CONTINUOUS
 62
    7
 10
1243.5812697096233
 20
781.49141018697151
 11
1256.3142947385127
 21
794.22443521586104
  0
LINE
  8
_0-a_極細1
  6
CONTINUOUS
 62
    7
 10
1228.3142975385124
 20
768.5814603841136
 11
1256.3142947385127
 21
796.58145758411388
  0
LINE
  8
_0-a_極細1
  6
CONTINUOUS
 62
    7
 10
1228.3142975385124
 20
770.93848275236633
 11
1256.3142947385129
 21
798.93847995236683
  0
LINE
  8
_0-a_極細1
  6
CONTINUOUS
 62
    7
 10
1228.3142975385124
 20
773.29550512061928
 11
1256.3142947385129
 21
801.2955023206199
  0
LINE
  8
_0-a_極細1
  6
CONTINUOUS
 62
    7
 10
1233.2442970455129
 20
780.58252699587285
 11
1256.3142947385127
 21
803.65252468887263
  0
LINE
  8
_0-a_極細1
  6
CONTINUOUS
 62
    7
 10
1233.2442970455129
 20
782.93954936412558
 11
1256.3142947385127
 21
806.00954705712536
  0
LINE
  8
_0-a_極細1
  6
CONTINUOUS
 62
    7
 10
1233.2442970455129
 20
785.29657173237865
 11
1256.3142947385127
 21
808.36656942537843
  0
LINE
  8
_0-a_極細1
  6
CONTINUOUS
 62
    7
 10
1233.2442970455129
 20
787.65359410063172
 11
1256.3142947385127
 21
810.72359179363116
  0
LINE
  8
_0-a_極細1
  6
CONTINUOUS
 62
    7
 10
1233.2442970455129
 20
790.01061646888445
 11
1256.3142947385129
 21
813.08061416188423
  0
LINE
  8
_0-a_極細1
  6
CONTINUOUS
 62
    7
 10
1233.2442970455129
 20
792.36763883713729
 11
1256.3142947385129
 21
815.43763653013707
  0
LINE
  8
_0-a_極細1
  6
CONTINUOUS
 62
    7
 10
1233.2442970455129
 20
794.72466120539025
 11
1256.3142947385129
 21
817.79465889839003
  0
LINE
  8
_0-a_極細1
  6
CONTINUOUS
 62
    7
 10
1233.2442970455129
 20
797.08168357364332
 11
1256.3142947385127
 21
820.1516812666431
  0
LINE
  8
_0-a_極細1
  6
CONTINUOUS
 62
    7
 10
1233.2442970455129
 20
799.43870594189605
 11
1256.3142947385127
 21
822.50870363489582
  0
LINE
  8
_0-a_極細1
  6
CONTINUOUS
 62
    7
 10
1233.2442970455129
 20
801.79572831014889
 11
1256.3142947385127
 21
824.86572600314867
  0
LINE
  8
_0-a_極細1
  6
CONTINUOUS
 62
    7
 10
1233.2442970455129
 20
804.15275067840184
 11
1256.3142947385129
 21
827.22274837140162
  0
LINE
  8
_0-a_極細1
  6
CONTINUOUS
 62
    7
 10
1233.2442970455129
 20
806.50977304665446
 11
1254.7067835993005
 21
827.97225960044238
  0
LINE
  8
_0-a_極細1
  6
CONTINUOUS
 62
    7
 10
1233.2442970455129
 20
808.86679541490764
 11
1252.0417040680679
 21
827.66420243746211
  0
LINE
  8
_0-a_極細1
  6
CONTINUOUS
 62
    7
 10
1233.2442970455129
 20
811.22381778316037
 11
1249.376624536834
 21
827.35614527448195
  0
LINE
  8
_0-a_極細1
  6
CONTINUOUS
 62
    7
 10
1233.2442970455129
 20
813.58084015141344
 11
1246.7115450056015
 21
827.04808811150144
  0
LINE
  8
_0-a_極細1
  6
CONTINUOUS
 62
    7
 10
1233.2442970455129
 20
815.93786251966651
 11
1244.0464654743676
 21
826.74003094852105
  0
LINE
  8
_0-a_極細1
  6
CONTINUOUS
 62
    7
 10
1233.2442970455129
 20
818.2948848879189
 11
1241.3813859431345
 21
826.43197378554078
  0
LINE
  8
_0-a_極細1
  6
CONTINUOUS
 62
    7
 10
1233.2442970455129
 20
820.65190725617185
 11
1238.7163064119018
 21
826.12391662256061
  0
LINE
  8
_0-a_極細1
  6
CONTINUOUS
 62
    7
 10
1233.2442970455129
 20
823.00892962442504
 11
1236.0512268806685
 21
825.81585945958011
  0
LINE
  8
_0-a_極細1
  6
CONTINUOUS
 62
    7
 10
1233.2442970455129
 20
825.36595199267776
 11
1233.3861473494353
 21
825.50780229660006
  0
LINE
  8
_0-a_極細1
  6
CONTINUOUS
 62
    7
 10
1229.5621269537603
 20
743.9020437485799
 11
1243.3142960385123
 21
757.65421283333183
  0
LINE
  8
_0-a_極細1
  6
CONTINUOUS
 62
    7
 10
1232.7862297099043
 20
744.76912413647119
 11
1238.0606566004219
 21
750.0435510269881
  0
LINE
  8
_0-a_極細1
  6
CONTINUOUS
 62
    7
 10
1169.4602569962974
 20
762.1580787869716
 11
1233.2442970455118
 21
762.1580787869716
  0
LINE
  8
_0-a_極細1
  6
CONTINUOUS
 62
    7
 10
1167.1369871491027
 20
764.82474518697154
 11
1228.3142975385119
 21
764.82474518697154
  0
LINE
  8
_0-a_極細1
  6
CONTINUOUS
 62
    7
 10
1160.5949057807541
 20
774.51495755128349
 11
1191.6476345385124
 21
774.51495755128349
  0
LINE
  8
_0-a_極細1
  6
CONTINUOUS
 62
    7
 10
1161.8412413678573
 20
836.1341414382656
 11
1256.3142947385127
 21
836.1341414382656
  0
LINE
  8
_0-a_極細1
  6
CONTINUOUS
 62
    7
 10
1160.0050214944811
 20
832.84828505128405
 11
1233.2442970455129
 21
832.84828505128371
  0
LINE
  8
_0-a_極細1
  6
CONTINUOUS
 62
    7
 10
1159.1704579618518
 20
831.1816185512838
 11
1219.814298388513
 21
831.18161855128346
  0
LINE
  8
_0-a_極細1
  6
CONTINUOUS
 62
    7
 10
1154.1750440300191
 20
816.18162005128386
 11
1210.647632638513
 21
816.1816200512834
  0
LINE
  8
_0-a_極細1
  6
CONTINUOUS
 62
    7
 10
1153.6148815089211
 20
812.84828705128359
 11
1212.6476324385123
 21
812.84828705128348
  0
LINE
  8
_0-a_極細1
  6
CONTINUOUS
 62
    7
 10
1211.6476325385122
 20
809.85088401769076
 11
1153.2688417852985
 21
809.85088401769076
  0
LINE
  8
_0-a_極細1
  6
CONTINUOUS
 62
    7
 10
1153.213307828906
 20
809.20198741591378
 11
1213.8142989885125
 21
809.20198741591321
  0
LINE
  8
_0-a_極細1
  6
CONTINUOUS
 62
    7
 10
1153.0357231088876
 20
805.86865441591385
 11
1197.4809672885124
 21
805.86865441591374
  0
LINE
  8
_0-a_極細1
  6
CONTINUOUS
 62
    7
 10
1153.3082491030548
 20
798.20198851591385
 11
1197.4809672885124
 21
798.20198851591385
  0
LINE
  8
_0-a_極細1
  6
CONTINUOUS
 62
    7
 10
1153.725272179902
 20
794.86865551591359
 11
1211.147632588513
 21
794.86865551591359
  0
LINE
  8
_0-a_極細1
  6
CONTINUOUS
 62
    7
 10
1211.6476325385122
 20
794.51755221769031
 11
1153.7799160075704
 21
794.51755221769031
  0
LINE
  8
_0-a_極細1
  6
CONTINUOUS
 62
    7
 10
1200.8143002885129
 20
789.51755271769071
 11
1154.7849648025183
 21
789.51755271769071
  0
LINE
  8
_0-a_極細1
  6
CONTINUOUS
 62
    7
 10
1182.1745261163935
 20
768.84829145128379
 11
1182.1745261163935
 21
774.51495755128349
  0
LINE
  8
_0-a_極細1
  6
CONTINUOUS
 62
    7
 10
1181.5078595163934
 20
768.84829145128379
 11
1181.5078595163934
 21
774.51495755128349
  0
LINE
  8
_0-a_極細1
  6
CONTINUOUS
 62
    7
 10
1180.8411929163933
 20
768.84829145128379
 11
1180.8411929163933
 21
774.51495755128349
  0
LINE
  8
_0-a_極細1
  6
CONTINUOUS
 62
    7
 10
1180.1745263163932
 20
768.84829145128379
 11
1180.1745263163932
 21
774.51495755128349
  0
LINE
  8
_0-a_極細1
  6
CONTINUOUS
 62
    7
 10
1179.5078597163931
 20
768.84829145128379
 11
1179.5078597163931
 21
774.51495755128349
  0
LINE
  8
_0-a_極細1
  6
CONTINUOUS
 62
    7
 10
1178.841193116393
 20
768.84829145128379
 11
1178.841193116393
 21
774.51495755128349
  0
LINE
  8
_0-a_極細1
  6
CONTINUOUS
 62
    7
 10
1178.1745265163934
 20
768.84829145128379
 11
1178.1745265163934
 21
774.51495755128349
  0
LINE
  8
_0-a_極細1
  6
CONTINUOUS
 62
    7
 10
1177.5078599163933
 20
768.84829145128379
 11
1177.5078599163933
 21
774.51495755128349
  0
LINE
  8
_0-a_極細1
  6
CONTINUOUS
 62
    7
 10
1176.8411933163932
 20
768.84829145128379
 11
1176.8411933163932
 21
774.51495755128349
  0
LINE
  8
_0-a_極細1
  6
CONTINUOUS
 62
    7
 10
1176.1745267163931
 20
768.84829145128379
 11
1176.1745267163931
 21
774.51495755128349
  0
LINE
  8
_0-a_極細1
  6
CONTINUOUS
 62
    7
 10
1175.5078601163934
 20
768.84829145128379
 11
1175.5078601163934
 21
774.51495755128349
  0
LINE
  8
_0-a_極細1
  6
CONTINUOUS
 62
    7
 10
1174.8411935163929
 20
768.84829145128379
 11
1174.8411935163929
 21
774.51495755128349
  0
LINE
  8
_0-a_極細1
  6
CONTINUOUS
 62
    7
 10
1174.1745269163932
 20
768.84829145128379
 11
1174.1745269163932
 21
774.51495755128349
  0
LINE
  8
_0-a_極細1
  6
CONTINUOUS
 62
    7
 10
1173.5078603163931
 20
768.84829145128379
 11
1173.5078603163931
 21
774.51495755128349
  0
LINE
  8
_0-a_極細1
  6
CONTINUOUS
 62
    7
 10
1172.841193716393
 20
768.84829145128379
 11
1172.841193716393
 21
774.51495755128349
  0
LINE
  8
_0-a_極細1
  6
CONTINUOUS
 62
    7
 10
1172.1745271163929
 20
768.84829145128379
 11
1172.1745271163929
 21
774.51495755128349
  0
LINE
  8
_0-a_極細1
  6
CONTINUOUS
 62
    7
 10
1171.5078605163928
 20
768.84829145128379
 11
1171.5078605163928
 21
774.51495755128349
  0
LINE
  8
_0-a_極細1
  6
CONTINUOUS
 62
    7
 10
1170.8411939163927
 20
768.84829145128379
 11
1170.8411939163927
 21
774.51495755128349
  0
LINE
  8
_0-a_極細1
  6
CONTINUOUS
 62
    7
 10
1170.1745273163931
 20
768.84829145128379
 11
1170.1745273163931
 21
774.51495755128349
  0
LINE
  8
_0-a_極細1
  6
CONTINUOUS
 62
    7
 10
1169.507860716393
 20
768.84829145128379
 11
1169.507860716393
 21
774.51495755128349
  0
LINE
  8
_0-a_極細1
  6
CONTINUOUS
 62
    7
 10
1168.8411941163929
 20
768.84829145128379
 11
1168.8411941163929
 21
774.51495755128349
  0
LINE
  8
_0-a_極細1
  6
CONTINUOUS
 62
    7
 10
1168.1745275163928
 20
768.84829145128379
 11
1168.1745275163928
 21
774.51495755128349
  0
LINE
  8
_0-a_極細1
  6
CONTINUOUS
 62
    7
 10
1167.5078609163927
 20
768.84829145128379
 11
1167.5078609163927
 21
774.51495755128349
  0
LINE
  8
_0-a_極細1
  6
CONTINUOUS
 62
    7
 10
1166.8411943163926
 20
768.84829145128379
 11
1166.8411943163926
 21
774.51495755128349
  0
LINE
  8
_0-a_極細1
  6
CONTINUOUS
 62
    7
 10
1166.1745277163932
 20
768.84829145128379
 11
1166.1745277163932
 21
774.51495755128349
  0
LINE
  8
_0-a_極細1
  6
CONTINUOUS
 62
    7
 10
1182.6020121097415
 20
768.84829145128379
 11
1182.6020121097415
 21
774.51495755128349
  0
LINE
  8
_0-a_極細1
  6
CONTINUOUS
 62
    7
 10
1165.9353471097413
 20
768.84829145128379
 11
1165.9353471097413
 21
774.51495755128349
  0
LINE
  8
_0-a_極細1
  6
CONTINUOUS
 62
    7
 10
1165.9353471097413
 20
768.84829145128379
 11
1182.6020121097415
 21
768.84829145128379
  0
ARC
  8
_0-a_極細1
  6
CONTINUOUS
 62
    7
 10
1176.6476360385125
 20
766.09837505960877
 40
19.999997999999998
 50
55.166292356154557
 51
148.68484545273043
  0
LINE
  8
_0-a_極細1
  6
CONTINUOUS
 62
    7
 10
1191.6044222515218
 20
774.51495755128349
 11
1191.6044222515218
 21
775.77953080316161
  0
LINE
  8
_0-a_極細1
  6
CONTINUOUS
 62
    7
 10
1190.6044222515218
 20
774.51495755128349
 11
1190.6044222515218
 21
779.29790357091872
  0
LINE
  8
_0-a_極細1
  6
CONTINUOUS
 62
    7
 10
1189.6044222515218
 20
774.51495755128349
 11
1189.6044222515218
 21
780.90807541337995
  0
LINE
  8
_0-a_極細1
  6
CONTINUOUS
 62
    7
 10
1188.6044222515218
 20
774.51495755128349
 11
1188.6044222515218
 21
782.03441719534248
  0
LINE
  8
_0-a_極細1
  6
CONTINUOUS
 62
    7
 10
1187.604422251522
 20
774.51495755128349
 11
1187.604422251522
 21
782.83004430934045
  0
LINE
  8
_0-a_極細1
  6
CONTINUOUS
 62
    7
 10
1186.6044222515218
 20
774.51495755128349
 11
1186.6044222515218
 21
783.44375854653208
  0
LINE
  8
_0-a_極細1
  6
CONTINUOUS
 62
    7
 10
1185.6044222515218
 20
774.51495755128349
 11
1185.6044222515218
 21
783.98065401768486
  0
LINE
  8
_0-a_極細1
  6
CONTINUOUS
 62
    7
 10
1184.6044222515218
 20
774.51495755128349
 11
1184.6044222515218
 21
784.44747512365768
  0
LINE
  8
_0-a_極細1
  6
CONTINUOUS
 62
    7
 10
1183.6044222515218
 20
774.51495755128349
 11
1183.6044222515218
 21
784.84945624407624
  0
LINE
  8
_0-a_極細1
  6
CONTINUOUS
 62
    7
 10
1182.604422251522
 20
774.51495755128349
 11
1182.604422251522
 21
785.19069335814208
  0
LINE
  8
_0-a_極細1
  6
CONTINUOUS
 62
    7
 10
1181.6044222515218
 20
774.51495755128349
 11
1181.6044222515218
 21
785.47439607628121
  0
LINE
  8
_0-a_極細1
  6
CONTINUOUS
 62
    7
 10
1180.6044222515218
 20
774.51495755128349
 11
1180.6044222515218
 21
785.70306232731468
  0
LINE
  8
_0-a_極細1
  6
CONTINUOUS
 62
    7
 10
1179.6044222515218
 20
774.51495755128349
 11
1179.6044222515218
 21
785.87860092511801
  0
LINE
  8
_0-a_極細1
  6
CONTINUOUS
 62
    7
 10
1178.6044222515218
 20
774.51495755128349
 11
1178.6044222515218
 21
786.00241755646323
  0
LINE
  8
_0-a_極細1
  6
CONTINUOUS
 62
    7
 10
1177.604422251522
 20
774.51495755128349
 11
1177.604422251522
 21
786.07547395165511
  0
LINE
  8
_0-a_極細1
  6
CONTINUOUS
 62
    7
 10
1176.6044222515218
 20
774.51495755128349
 11
1176.6044222515218
 21
786.09832637376485
  0
LINE
  8
_0-a_極細1
  6
CONTINUOUS
 62
    7
 10
1175.6044222515218
 20
774.51495755128349
 11
1175.6044222515218
 21
786.07114715049875
  0
LINE
  8
_0-a_極細1
  6
CONTINUOUS
 62
    7
 10
1174.6044222515213
 20
774.51495755128349
 11
1174.6044222515213
 21
785.9937312368844
  0
LINE
  8
_0-a_極細1
  6
CONTINUOUS
 62
    7
 10
1173.6044222515213
 20
774.51495755128349
 11
1173.6044222515213
 21
785.86548840088028
  0
LINE
  8
_0-a_極細1
  6
CONTINUOUS
 62
    7
 10
1172.6044222515213
 20
774.51495755128349
 11
1172.6044222515213
 21
785.68542032612856
  0
LINE
  8
_0-a_極細1
  6
CONTINUOUS
 62
    7
 10
1171.6044222515213
 20
774.51495755128349
 11
1171.6044222515213
 21
785.45208051098712
  0
LINE
  8
_0-a_極細1
  6
CONTINUOUS
 62
    7
 10
1170.6044222515216
 20
774.51495755128349
 11
1170.6044222515216
 21
785.16351306395393
  0
LINE
  8
_0-a_極細1
  6
CONTINUOUS
 62
    7
 10
1169.6044222515213
 20
774.51495755128349
 11
1169.6044222515213
 21
784.81716400416246
  0
LINE
  8
_0-a_極細1
  6
CONTINUOUS
 62
    7
 10
1168.6044222515213
 20
774.51495755128349
 11
1168.6044222515213
 21
784.40975490867447
  0
LINE
  8
_0-a_極細1
  6
CONTINUOUS
 62
    7
 10
1167.6044222515213
 20
774.51495755128349
 11
1167.6044222515213
 21
783.93710271610871
  0
LINE
  8
_0-a_極細1
  6
CONTINUOUS
 62
    7
 10
1166.6044222515213
 20
774.51495755128349
 11
1166.6044222515213
 21
783.39385934970005
  0
LINE
  8
_0-a_極細1
  6
CONTINUOUS
 62
    7
 10
1165.6044222515216
 20
774.51495755128349
 11
1165.6044222515216
 21
782.77312690948088
  0
LINE
  8
_0-a_極細1
  6
CONTINUOUS
 62
    7
 10
1164.6044222515213
 20
774.51495755128349
 11
1164.6044222515213
 21
782.06587084576256
  0
LINE
  8
_0-a_極細1
  6
CONTINUOUS
 62
    7
 10
1163.6044222515213
 20
774.51495755128349
 11
1163.6044222515213
 21
781.25998757631862
  0
LINE
  8
_0-a_極細1
  6
CONTINUOUS
 62
    7
 10
1162.6044222515213
 20
774.51495755128349
 11
1162.6044222515213
 21
780.33874255953208
  0
LINE
  8
_0-a_極細1
  6
CONTINUOUS
 62
    7
 10
1161.6044222515213
 20
774.51495755128349
 11
1161.6044222515213
 21
779.2779668195567
  0
LINE
  8
_0-a_極細1
  6
CONTINUOUS
 62
    7
 10
1160.6044222515216
 20
774.51495755128349
 11
1160.6044222515216
 21
778.04053614481052
  0
LINE
  8
_0-a_極細1
  6
CONTINUOUS
 62
    7
 10
1159.6044222515213
 20
776.40698898065716
 11
1159.6044222515213
 21
776.56397508115163
  0
LINE
  8
_0-d_寸法1
  6
CONTINUOUS
 62
    7
 10
1249.6696160074064
 20
829.82814259183397
 11
1253.751531569329
 21
838.95710558580731
  0
LINE
  8
_0-d_寸法1
  6
CONTINUOUS
 62
    7
 10
1249.6696160074064
 20
829.82814259183397
 11
1257.7691400771212
 21
835.69309867386153
  0
LINE
  8
_0-d_寸法1
  6
CONTINUOUS
 62
    7
 10
1249.6696160074064
 20
829.82814259183397
 11
1270.1275537697127
 21
855.00945716102478
  0
LINE
  8
_0-d_寸法1
  6
CONTINUOUS
 62
    7
 10
1270.1275537697127
 20
855.00945716102478
 11
1318.1275537697124
 21
855.00945716102478
  0
TEXT
  8
_0-d_寸法1
 62
    7
 10
1270.1275537697127
 20
855.00945716102478
 40
15
 41
0.8000000000000001
 50
0
  1
パッキン
  0
LINE
  8
_0-d_寸法1
  6
CONTINUOUS
 62
    7
 10
1206.6327337000866
 20
799.38191756910896
 11
1213.7037661265574
 21
792.31081437202624
  0
LINE
  8
_0-d_寸法1
  6
CONTINUOUS
 62
    7
 10
1206.6327337000866
 20
799.38191756910896
 11
1209.2208758138527
 21
789.72264635441832
  0
LINE
  8
_0-d_寸法1
  6
CONTINUOUS
 62
    7
 10
1206.6327337000866
 20
799.38191756910896
 11
1244.0380488610192
 21
734.5932624903661
  0
LINE
  8
_0-d_寸法1
  6
CONTINUOUS
 62
    7
 10
1244.0380488610192
 20
734.5932624903661
 11
1364.038048861019
 21
734.5932624903661
  0
TEXT
  8
_0-d_寸法1
 62
    7
 10
1244.0380488610192
 20
734.5932624903661
 40
15
 41
0.8000000000000001
 50
0
  1
防臭インナーパッキン
  0
LINE
  8
_0-d_寸法1
  6
CONTINUOUS
 62
    7
 10
1248.9826186512569
 20
786.24220533721655
 11
1256.0540145433597
 21
779.17146562081143
  0
LINE
  8
_0-d_寸法1
  6
CONTINUOUS
 62
    7
 10
1248.9826186512569
 20
786.24220533721655
 11
1251.5712572758323
 21
776.58306717321068
  0
LINE
  8
_0-d_寸法1
  6
CONTINUOUS
 62
    7
 10
1248.9826186512569
 20
786.24220533721655
 11
1267.6556816698742
 21
753.90297679561047
  0
LINE
  8
_0-d_寸法1
  6
CONTINUOUS
 62
    7
 10
1267.6556816698742
 20
753.90297679561047
 11
1351.6556816698744
 21
753.90297679561047
  0
TEXT
  8
_0-d_寸法1
 62
    7
 10
1267.6556816698742
 20
753.90297679561047
 40
15
 41
0.8000000000000001
 50
0
  1
ロックフランジ
  0
LINE
  8
_1-5_寸法3
  6
CONTINUOUS
 62
    7
 10
882.46953019659441
 20
346.87731166961566
 11
837.46953019659475
 21
346.87731166961578
  0
LINE
  8
_1-5_寸法3
  6
CONTINUOUS
 62
    7
 10
842.46953019659475
 20
346.87731166961578
 11
845.05772064761982
 21
337.21805340672512
  0
LINE
  8
_1-5_寸法3
  6
CONTINUOUS
 62
    7
 10
842.46953019659475
 20
346.87731166961578
 11
839.88133974556945
 21
337.21805340672512
  0
LINE
  8
_1-5_寸法3
  6
CONTINUOUS
 62
    7
 10
884.96953019659475
 20
286.04397833628229
 11
837.46953019659475
 21
286.04397833628235
  0
LINE
  8
_1-5_寸法3
  6
CONTINUOUS
 62
    7
 10
842.46953019659475
 20
286.04397833628235
 11
839.88133974556945
 21
295.70323659917301
  0
LINE
  8
_1-5_寸法3
  6
CONTINUOUS
 62
    7
 10
842.46953019659475
 20
286.04397833628235
 11
845.05772064761982
 21
295.70323659917301
  0
LINE
  8
_1-5_寸法3
  6
CONTINUOUS
 62
    7
 10
842.46953019659475
 20
346.87731166961578
 11
842.46953019659475
 21
286.04397833628235
  0
TEXT
  8
_1-5_寸法3
 62
    7
 10
842.46953019659475
 20
301.46064500294892
 40
15
 41
1
 50
90
  1
36.5
  0
LINE
  8
_1-5_寸法3
  6
CONTINUOUS
 62
    7
 10
1142.4695301965946
 20
346.87731166961549
 11
1187.4695301965946
 21
346.8773116696151
  0
LINE
  8
_1-5_寸法3
  6
CONTINUOUS
 62
    7
 10
1182.4695301965946
 20
346.87731166961521
 11
1185.0577206476198
 21
337.21805340672455
  0
LINE
  8
_1-5_寸法3
  6
CONTINUOUS
 62
    7
 10
1182.4695301965946
 20
346.87731166961521
 11
1179.8813397455694
 21
337.21805340672455
  0
LINE
  8
_1-5_寸法3
  6
CONTINUOUS
 62
    7
 10
1142.4695301965946
 20
330.21064500294881
 11
1187.4695301965946
 21
330.21064500294841
  0
LINE
  8
_1-5_寸法3
  6
CONTINUOUS
 62
    7
 10
1182.4695301965946
 20
330.21064500294847
 11
1179.8813397455694
 21
339.86990326583913
  0
LINE
  8
_1-5_寸法3
  6
CONTINUOUS
 62
    7
 10
1182.4695301965946
 20
330.21064500294847
 11
1185.0577206476198
 21
339.86990326583913
  0
LINE
  8
_1-5_寸法3
  6
CONTINUOUS
 62
    7
 10
1182.4695301965946
 20
346.87731166961521
 11
1182.4695301965946
 21
330.21064500294847
  0
TEXT
  8
_1-5_寸法3
 62
    7
 10
1182.4695301965946
 20
331.04397833628178
 40
15
 41
1
 50
90
  1
10
  0
TEXT
  8
_0-7_枠細線
 62
    5
 10
964.41498588499815
 20
239.79572094180452
 40
25
 41
0.8
 50
0
  1
断面詳細図
  0
LINE
  8
_1-2_極細3
  6
CENTER1
 62
    2
 10
1012.4695301965947
 20
359.95741015715026
 11
1012.4695301965947
 21
277.55936802407297
  0
LINE
  8
_1-2_極細3
  6
CONTINUOUS
 62
    2
 10
1131.6361967356941
 20
330.21064500294585
 11
1129.9695300690275
 21
330.21064500294585
  0
LINE
  8
_1-2_極細3
  6
CONTINUOUS
 62
    2
 10
1128.3028634023606
 20
344.79397833627911
 11
1128.3028634023606
 21
287.71064500294585
  0
ARC
  8
_1-2_極細3
  6
CONTINUOUS
 62
    2
 10
1130.3861967356945
 20
344.79397833627911
 40
2.0833333333333339
 50
359.99999999998244
 51
179.99999999999946
  0
LINE
  8
_1-2_極細3
  6
CONTINUOUS
 62
    2
 10
1129.9695300690275
 20
344.79397833627922
 11
1129.9695300690275
 21
286.04397833627905
  0
ARC
  8
_1-2_極細3
  6
CONTINUOUS
 62
    2
 10
1130.3861967356941
 20
344.79397833627911
 40
0.4166666666666667
 50
89.999999999999915
 51
179.99999999998437
  0
LINE
  8
_1-2_極細3
  6
CONTINUOUS
 62
    2
 10
1130.3861967356941
 20
345.21064500294585
 11
1130.3677597981357
 21
345.21064500294585
  0
LINE
  8
_1-2_極細3
  6
CONTINUOUS
 62
    2
 10
1129.9695300690275
 20
338.65459996163003
 11
1130.7807714234207
 21
344.7389101195746
  0
ARC
  8
_1-2_極細3
  6
CONTINUOUS
 62
    2
 10
1130.3677597981357
 20
344.79397833627911
 40
0.4166666666666667
 50
352.4053566314289
 51
89.999999999999545
  0
LINE
  8
_1-2_極細3
  6
CONTINUOUS
 62
    2
 10
1129.9695300690275
 20
286.04397833627905
 11
894.96953032416218
 21
286.04397833627905
  0
LINE
  8
_1-2_極細3
  6
CONTINUOUS
 62
    2
 10
1128.3028634023606
 20
287.71064500294585
 11
896.63619699082915
 21
287.71064500294585
  0
LINE
  8
_1-2_極細3
  6
CONTINUOUS
 62
    2
 10
1131.6361967356941
 20
338.32273508557728
 11
1131.6361967356941
 21
330.21064500294585
  0
LINE
  8
_1-2_極細3
  6
CONTINUOUS
 62
    2
 10
1131.6654370667522
 20
338.76328081921423
 11
1132.469530069028
 21
344.79397833627911
  0
ARC
  8
_1-2_極細3
  6
CONTINUOUS
 62
    2
 10
1134.9695300690275
 20
338.32273508557751
 40
3.3333333333333339
 50
172.40535663140824
 51
180.00000000000256
  0
LINE
  8
_1-2_極細3
  6
CONTINUOUS
 62
    2
 10
893.30286365749555
 20
330.21064500294585
 11
894.96953032416218
 21
330.21064500294585
  0
LINE
  8
_1-2_極細3
  6
CONTINUOUS
 62
    2
 10
896.63619699082915
 20
344.79397833627911
 11
896.63619699082915
 21
287.71064500294585
  0
ARC
  8
_1-2_極細3
  6
CONTINUOUS
 62
    2
 10
894.55286365749521
 20
344.79397833627911
 40
2.0833333333333339
 50
0
 51
180.00000000001685
  0
LINE
  8
_1-2_極細3
  6
CONTINUOUS
 62
    2
 10
894.96953032416218
 20
344.79397833627922
 11
894.96953032416218
 21
286.04397833627905
  0
ARC
  8
_1-2_極細3
  6
CONTINUOUS
 62
    2
 10
894.55286365749555
 20
344.79397833627911
 40
0.4166666666666667
 50
0.000000000015633
 51
89.999999999999915
  0
LINE
  8
_1-2_極細3
  6
CONTINUOUS
 62
    2
 10
894.55286365749555
 20
345.21064500294585
 11
894.57130059505403
 21
345.21064500294585
  0
LINE
  8
_1-2_極細3
  6
CONTINUOUS
 62
    2
 10
894.96953032416218
 20
338.65459996163003
 11
894.15828896976905
 21
344.7389101195746
  0
ARC
  8
_1-2_極細3
  6
CONTINUOUS
 62
    2
 10
894.57130059505403
 20
344.79397833627911
 40
0.4166666666666667
 50
89.999999999999915
 51
187.59464336857042
  0
LINE
  8
_1-2_極細3
  6
CONTINUOUS
 62
    2
 10
893.30286365749555
 20
338.32273508557728
 11
893.30286365749555
 21
330.21064500294585
  0
LINE
  8
_1-2_極細3
  6
CONTINUOUS
 62
    2
 10
893.27362332643747
 20
338.76328081921423
 11
892.46953032416218
 21
344.79397833627911
  0
ARC
  8
_1-2_極細3
  6
CONTINUOUS
 62
    2
 10
889.96953032416218
 20
338.32273508557751
 40
3.3333333333333339
 50
359.9999999999967
 51
7.5946433685914272
  0
TEXT
  8
_0-7_枠細線
 62
    5
 10
1079.3639556341666
 20
241.54946305754959
 40
20
 41
0.6
 50
0
  1
Ｓ＝１：３
  0
LINE
  8
_1-3_細線3
  6
CONTINUOUS
 62
    4
 10
909.96953032416229
 20
321.04397833628207
 11
909.96953032416229
 21
346.04397833628207
  0
LINE
  8
_1-3_細線3
  6
CONTINUOUS
 62
    4
 10
1114.9695303241629
 20
321.04397833628292
 11
909.96953032416229
 21
321.04397833628207
  0
LINE
  8
_1-3_細線3
  6
CONTINUOUS
 62
    4
 10
1114.9695303241629
 20
346.04397833628292
 11
1114.9695303241629
 21
321.04397833628292
  0
LINE
  8
_1-3_細線3
  6
CONTINUOUS
 62
    4
 10
1118.3028636574959
 20
346.04397833628292
 11
906.63619699082915
 21
346.04397833628207
  0
LINE
  8
_1-3_細線3
  6
CONTINUOUS
 62
    4
 10
1118.3028636574959
 20
317.71064500294864
 11
1118.3028636574959
 21
346.04397833628292
  0
LINE
  8
_1-3_細線3
  6
CONTINUOUS
 62
    4
 10
906.63619699082915
 20
317.71064500294864
 11
1118.3028636574959
 21
317.71064500294864
  0
LINE
  8
_1-3_細線3
  6
CONTINUOUS
 62
    4
 10
906.63619699082915
 20
346.04397833628207
 11
906.63619699082915
 21
317.71064500294864
  0
LINE
  8
_1-5_寸法3
  6
CONTINUOUS
 62
    7
 10
1004.8121700036536
 20
324.13852109981406
 11
973.6607237498946
 21
350.27768816198227
  0
LINE
  8
_1-5_寸法3
  6
CONTINUOUS
 62
    7
 10
977.49094596548946
 20
347.06375011354959
 11
974.90275551446416
 21
356.72300837644025
  0
LINE
  8
_1-5_寸法3
  6
CONTINUOUS
 62
    7
 10
977.49094596548946
 20
347.06375011354959
 11
980.07913641651453
 21
356.72300837644025
  0
LINE
  8
_1-5_寸法3
  6
CONTINUOUS
 62
    7
 10
1004.8121700036536
 20
352.47185443314788
 11
973.6607237498946
 21
378.61102149531609
  0
LINE
  8
_1-5_寸法3
  6
CONTINUOUS
 62
    7
 10
977.49094596548946
 20
375.39708344688341
 11
980.07913641651453
 21
365.73782518399275
  0
LINE
  8
_1-5_寸法3
  6
CONTINUOUS
 62
    7
 10
977.49094596548946
 20
375.39708344688341
 11
974.90275551446416
 21
365.73782518399275
  0
LINE
  8
_1-5_寸法3
  6
CONTINUOUS
 62
    7
 10
977.49094596548946
 20
347.06375011354959
 11
977.49094596548946
 21
375.39708344688341
  0
TEXT
  8
_1-5_寸法3
 62
    7
 10
977.49094596548946
 20
353.73041678021644
 40
15
 41
1
 50
90
  1
17
  0
LINE
  8
_1-5_寸法3
  6
CONTINUOUS
 62
    7
 10
1067.0140005301632
 20
317.71064500294864
 11
1069.6021909811884
 21
308.05138674005792
  0
LINE
  8
_1-5_寸法3
  6
CONTINUOUS
 62
    7
 10
1067.0140005301632
 20
317.71064500294864
 11
1064.425810079138
 21
308.05138674005798
  0
LINE
  8
_1-5_寸法3
  6
CONTINUOUS
 62
    7
 10
1067.0140005301632
 20
321.04397833628246
 11
1064.425810079138
 21
330.70323659917312
  0
LINE
  8
_1-5_寸法3
  6
CONTINUOUS
 62
    7
 10
1067.0140005301632
 20
321.04397833628246
 11
1069.6021909811884
 21
330.70323659917312
  0
LINE
  8
_1-5_寸法3
  6
CONTINUOUS
 62
    7
 10
1067.0140005301632
 20
292.71064500294864
 11
1067.0140005301632
 21
346.04397833628246
  0
TEXT
  8
_1-5_寸法3
 62
    7
 10
1067.0140005301632
 20
297.61321466703947
 40
15
 41
1
 50
90
  1
2
  0
ARC
  8
_1-3_細線3
  6
CONTINUOUS
 62
    4
 10
1119.7368505208658
 20
291.04397833628235
 40
3.333333333333333
 50
269.99999999999977
 51
348.69006752597693
  0
LINE
  8
_1-3_細線3
  6
CONTINUOUS
 62
    4
 10
1119.7368505208658
 20
287.71064500294892
 11
1091.8688765389891
 21
287.71064500294892
  0
LINE
  8
_1-3_細線3
  6
CONTINUOUS
 62
    4
 10
1125.8028635299281
 20
304.37731166961578
 11
1123.0054527731688
 21
290.3902578858216
  0
ARC
  8
_1-3_細線3
  6
CONTINUOUS
 62
    4
 10
1091.8688765389891
 20
291.04397833628235
 40
3.333333333333333
 50
191.3099324740254
 51
269.99999999999977
  0
LINE
  8
_1-3_細線3
  6
CONTINUOUS
 62
    4
 10
1088.600274286687
 20
290.3902578858216
 11
1085.8028635299281
 21
304.37731166961578
  0
LINE
  8
_1-3_細線3
  6
CONTINUOUS
 62
    4
 10
1084.9695301965951
 20
317.71064500294972
 11
1126.6361968632611
 21
317.71064500294921
  0
LINE
  8
_1-3_細線3
  6
CONTINUOUS
 62
    4
 10
1084.9695301965951
 20
304.37731166961578
 11
1084.9695301965951
 21
317.71064500294949
  0
LINE
  8
_1-3_細線3
  6
CONTINUOUS
 62
    4
 10
1084.9695301965951
 20
304.37731166961578
 11
1126.6361968632611
 21
304.37731166961578
  0
LINE
  8
_1-3_細線3
  6
CONTINUOUS
 62
    4
 10
1126.6361968632611
 20
317.71064500294921
 11
1126.6361968632611
 21
304.37731166961578
  0
ARC
  8
_1-3_細線3
  6
CONTINUOUS
 62
    4
 10
933.07018385419974
 20
291.0439783362819
 40
3.333333333333333
 50
269.99999999999977
 51
348.69006752597676
  0
LINE
  8
_1-3_細線3
  6
CONTINUOUS
 62
    4
 10
933.07018385419974
 20
287.71064500294864
 11
905.2022098723229
 21
287.71064500294864
  0
LINE
  8
_1-3_細線3
  6
CONTINUOUS
 62
    4
 10
939.13619686326115
 20
304.37731166961549
 11
936.33878610650186
 21
290.39025788582131
  0
ARC
  8
_1-3_細線3
  6
CONTINUOUS
 62
    4
 10
905.2022098723229
 20
291.0439783362819
 40
3.333333333333333
 50
191.30993247401983
 51
269.99999999999977
  0
LINE
  8
_1-3_細線3
  6
CONTINUOUS
 62
    4
 10
901.93360762001998
 20
290.39025788582131
 11
899.13619686326126
 21
304.37731166961549
  0
LINE
  8
_1-3_細線3
  6
CONTINUOUS
 62
    4
 10
939.96953019659509
 20
317.71064500294892
 11
898.30286352992812
 21
317.71064500294892
  0
LINE
  8
_1-3_細線3
  6
CONTINUOUS
 62
    4
 10
939.96953019659509
 20
304.37731166961549
 11
939.96953019659509
 21
317.71064500294932
  0
LINE
  8
_1-3_細線3
  6
CONTINUOUS
 62
    4
 10
898.30286352992812
 20
304.37731166961549
 11
939.96953019659509
 21
304.37731166961549
  0
LINE
  8
_1-3_細線3
  6
CONTINUOUS
 62
    4
 10
898.30286352992812
 20
317.71064500294892
 11
898.30286352992812
 21
304.37731166961549
  0
LINE
  8
_1-5_寸法3
  6
CONTINUOUS
 62
    7
 10
892.46953032416161
 20
356.87731166961242
 11
892.46953032416172
 21
401.87731166961242
  0
LINE
  8
_1-5_寸法3
  6
CONTINUOUS
 62
    7
 10
892.46953032416172
 20
396.87731166961242
 11
882.81027206127089
 21
394.2891212185873
  0
LINE
  8
_1-5_寸法3
  6
CONTINUOUS
 62
    7
 10
892.46953032416172
 20
396.87731166961242
 11
882.81027206127089
 21
399.46550212063767
  0
LINE
  8
_1-5_寸法3
  6
CONTINUOUS
 62
    7
 10
896.63619699082915
 20
356.87731166961242
 11
896.63619699082926
 21
401.87731166961242
  0
CIRCLE
  8
_1-5_寸法3
  6
CONTINUOUS
 62
    1
 10
896.63619699082926
 20
396.87731166961242
 40
1.5000000000000002
  0
LINE
  8
_1-5_寸法3
  6
CONTINUOUS
 62
    7
 10
861.68895645071825
 20
396.87731166961242
 11
896.63619699082926
 21
396.87731166961242
  0
TEXT
  8
_1-5_寸法3
 62
    7
 10
861.68895645071848
 20
396.87731166961248
 40
15
 41
1
 50
0
  1
2.5
  0
LINE
  8
_1-5_寸法3
  6
CONTINUOUS
 62
    7
 10
906.63619699082915
 20
356.87731166961237
 11
906.63619699082915
 21
401.87731166961242
  0
LINE
  8
_1-5_寸法3
  6
CONTINUOUS
 62
    7
 10
896.63619699082926
 20
396.87731166961242
 11
906.63619699082915
 21
396.87731166961242
  0
TEXT
  8
_1-5_寸法3
 62
    7
 10
897.88619699082915
 20
396.87731166961242
 40
15
 41
1
 50
0
  1
6
  0
LINE
  8
_1-5_寸法3
  6
CONTINUOUS
 62
    7
 10
906.63619699082915
 20
396.87731166961242
 11
916.29545525371998
 21
399.46550212063761
  0
LINE
  8
_1-5_寸法3
  6
CONTINUOUS
 62
    7
 10
906.63619699082915
 20
396.87731166961242
 11
916.29545525371998
 21
394.2891212185873
  0
LINE
  8
_1-5_寸法3
  6
CONTINUOUS
 62
    7
 10
1118.3028636574959
 20
356.87731166961237
 11
1118.3028636574959
 21
401.87731166961242
  0
LINE
  8
_1-5_寸法3
  6
CONTINUOUS
 62
    7
 10
1118.3028636574959
 20
396.87731166961242
 11
1108.6436053946052
 21
394.2891212185873
  0
LINE
  8
_1-5_寸法3
  6
CONTINUOUS
 62
    7
 10
1118.3028636574959
 20
396.87731166961242
 11
1108.6436053946052
 21
399.46550212063767
  0
LINE
  8
_1-5_寸法3
  6
CONTINUOUS
 62
    7
 10
906.63619699082915
 20
396.87731166961242
 11
1118.3028636574959
 21
396.87731166961242
  0
TEXT
  8
_1-5_寸法3
 62
    7
 10
1001.2195303241627
 20
396.87731166961242
 40
15
 41
1
 50
0
  1
127
  0
LINE
  8
_1-5_寸法3
  6
CONTINUOUS
 62
    7
 10
1128.3028634023606
 20
356.87731166961237
 11
1128.3028634023606
 21
401.87731166961242
  0
CIRCLE
  8
_1-5_寸法3
  6
CONTINUOUS
 62
    1
 10
1128.3028634023606
 20
396.87731166961242
 40
1.5000000000000002
  0
LINE
  8
_1-5_寸法3
  6
CONTINUOUS
 62
    7
 10
1118.3028636574959
 20
396.87731166961242
 11
1128.3028634023606
 21
396.87731166961242
  0
TEXT
  8
_1-5_寸法3
 62
    7
 10
1119.5528635299281
 20
396.87731166961242
 40
15
 41
1
 50
0
  1
6
  0
LINE
  8
_1-5_寸法3
  6
CONTINUOUS
 62
    7
 10
1132.4695300690278
 20
356.87731166961237
 11
1132.4695300690278
 21
401.87731166961242
  0
LINE
  8
_1-5_寸法3
  6
CONTINUOUS
 62
    7
 10
1132.4695300690278
 20
396.87731166961242
 11
1142.1287883319185
 21
399.46550212063755
  0
LINE
  8
_1-5_寸法3
  6
CONTINUOUS
 62
    7
 10
1132.4695300690278
 20
396.87731166961242
 11
1142.1287883319185
 21
394.28912121858724
  0
LINE
  8
_1-5_寸法3
  6
CONTINUOUS
 62
    7
 10
1128.3028634023606
 20
396.87731166961242
 11
1168.0965131021458
 21
396.87731166961242
  0
TEXT
  8
_1-5_寸法3
 62
    7
 10
1145.5965131021458
 20
396.87731166961242
 40
15
 41
1
 50
0
  1
2.5
  0
LINE
  8
_1-5_寸法3
  6
CONTINUOUS
 62
    7
 10
892.46953019659475
 20
356.87731166961561
 11
892.46953019659475
 21
436.87731166961242
  0
LINE
  8
_1-5_寸法3
  6
CONTINUOUS
 62
    7
 10
892.46953019659475
 20
431.87731166961242
 11
902.12878845948535
 21
434.46550212063761
  0
LINE
  8
_1-5_寸法3
  6
CONTINUOUS
 62
    7
 10
892.46953019659475
 20
431.87731166961242
 11
902.12878845948535
 21
429.2891212185873
  0
LINE
  8
_1-5_寸法3
  6
CONTINUOUS
 62
    7
 10
1132.4695301965946
 20
356.87731166961561
 11
1132.4695301965946
 21
436.87731166961242
  0
LINE
  8
_1-5_寸法3
  6
CONTINUOUS
 62
    7
 10
1132.4695301965946
 20
431.87731166961242
 11
1122.8102719337039
 21
429.2891212185873
  0
LINE
  8
_1-5_寸法3
  6
CONTINUOUS
 62
    7
 10
1132.4695301965946
 20
431.87731166961242
 11
1122.8102719337039
 21
434.46550212063767
  0
LINE
  8
_1-5_寸法3
  6
CONTINUOUS
 62
    7
 10
892.46953019659475
 20
431.87731166961242
 11
1132.4695301965946
 21
431.87731166961242
  0
TEXT
  8
_1-5_寸法3
 62
    7
 10
1001.2195301965947
 20
431.87731166961242
 40
15
 41
1
 50
0
  1
144
  0
LINE
  8
_1-3_細線3
  6
CONTINUOUS
 62
    4
 10
979.14236521219084
 20
312.71064500294921
 11
979.14236521219084
 21
317.71064500294875
  0
LINE
  8
_1-3_細線3
  6
CONTINUOUS
 62
    4
 10
1045.8090318788577
 20
312.71064500294932
 11
979.14236521219084
 21
312.71064500294921
  0
LINE
  8
_1-3_細線3
  6
CONTINUOUS
 62
    4
 10
1045.8090318788577
 20
317.71064500294875
 11
1045.8090318788577
 21
312.71064500294932
  0
TEXT
  8
_0-7_枠細線
 62
    5
 10
961.4307702470602
 20
110
 40
20
 41
0.6
 50
0
  1
ＨＴＡＹ－１５Ｌ１５０
  0
CIRCLE
  8
_1-1_寸法4
  6
CONTINUOUS
 62
    7
 10
1067.844530196594
 20
729.16155819930759
 40
25
  0
TEXT
  8
_1-1_寸法4
 62
    7
 10
1079.4501229845687
 20
748.52374901173221
 40
15
 41
0.8000000000000001
 50
0
  1
Ｃ部
  0
LINE
  8
_1-1_寸法4
  6
CONTINUOUS
 62
    7
 10
983.71183196625589
 20
736.64995390572005
 11
974.81360071302686
 21
741.21300996104719
  0
LINE
  8
_1-1_寸法4
  6
CONTINUOUS
 62
    7
 10
983.71183196625589
 20
736.64995390572005
 11
978.28726567987474
 21
745.05079199514034
  0
LINE
  8
_1-1_寸法4
  6
CONTINUOUS
 62
    7
 10
983.71183196625589
 20
736.64995390572005
 11
964.33699327673651
 21
754.1865669275727
  0
LINE
  8
_1-1_寸法4
  6
CONTINUOUS
 62
    7
 10
964.33699327673651
 20
754.1865669275727
 11
892.33699327673651
 21
754.1865669275727
  0
TEXT
  8
_1-1_寸法4
 62
    7
 10
892.33699327673651
 20
754.18656692757281
 40
15
 41
0.8000000000000001
 50
-0.000000000000113
  1
ストレーナー
  0
LINE
  8
_1-1_寸法4
  6
CONTINUOUS
 62
    7
 10
993.29896643622408
 20
671.42056097677073
 11
987.28420229092069
 21
663.43165540238988
  0
LINE
  8
_1-1_寸法4
  6
CONTINUOUS
 62
    7
 10
993.29896643622408
 20
671.42056097677073
 11
984.09557510142918
 21
667.50934787357346
  0
LINE
  8
_1-1_寸法4
  6
CONTINUOUS
 62
    7
 10
993.29896643622408
 20
671.42056097677073
 11
936.81479763738048
 21
627.25171850505126
  0
LINE
  8
_1-1_寸法4
  6
CONTINUOUS
 62
    7
 10
936.81479763738048
 20
627.25171850505126
 11
840.81479763738025
 21
627.25171850505126
  0
TEXT
  8
_1-1_寸法4
 62
    7
 10
840.81479763738025
 20
627.25171850505149
 40
15
 41
0.8000000000000001
 50
-0.0000000000001696
  1
防臭インナー１号
  0
LINE
  8
_1-1_寸法4
  6
CONTINUOUS
 62
    7
 10
956.06006304196387
 20
616.25742255799685
 11
949.99252464879055
 21
608.30852465656631
  0
LINE
  8
_1-1_寸法4
  6
CONTINUOUS
 62
    7
 10
956.06006304196387
 20
616.25742255799685
 11
946.83097170432291
 21
612.4072442398558
  0
LINE
  8
_1-1_寸法4
  6
CONTINUOUS
 62
    7
 10
956.06006304196387
 20
616.25742255799685
 11
936.81479763738048
 21
601.41256082239954
  0
LINE
  8
_1-1_寸法4
  6
CONTINUOUS
 62
    7
 10
936.81479763738048
 20
601.41256082239954
 11
864.81479763738071
 21
601.41256082239954
  0
TEXT
  8
_1-1_寸法4
 62
    7
 10
864.81479763738048
 20
601.41256082239977
 40
15
 41
0.8000000000000001
 50
-0.0000000000001696
  1
トラップ本体
  0
LINE
  8
_1-1_寸法4
  6
CONTINUOUS
 62
    7
 10
970.45301343361064
 20
691.26906859365613
 11
964.44234049524766
 21
683.27708443275912
  0
LINE
  8
_1-1_寸法4
  6
CONTINUOUS
 62
    7
 10
970.45301343361064
 20
691.26906859365613
 11
961.25162589469994
 21
687.35314375285782
  0
LINE
  8
_1-1_寸法4
  6
CONTINUOUS
 62
    7
 10
970.45301343361064
 20
691.26906859365613
 11
936.81479763738048
 21
664.93727657380919
  0
LINE
  8
_1-1_寸法4
  6
CONTINUOUS
 62
    7
 10
936.81479763738048
 20
664.93727657380919
 11
840.81479763738025
 21
664.93727657380919
  0
TEXT
  8
_1-1_寸法4
 62
    7
 10
840.81479763738025
 20
664.93727657380941
 40
15
 41
0.8000000000000001
 50
-0.0000000000001696
  1
防臭インナー２号
  0
ARC
  8
_0-e_極細4
  6
CONTINUOUS
 62
    6
 10
957.71953019659463
 20
733.7344878409026
 40
0.625
 50
179.99999999999983
 51
269.99999999999977
  0
LINE
  8
_0-e_極細4
  6
CONTINUOUS
 62
    6
 10
958.46953019659452
 20
733.1094878409026
 11
958.46953019659452
 21
734.3594878409026
  0
ARC
  8
_0-e_極細4
  6
CONTINUOUS
 62
    6
 10
1067.219530196594
 20
733.7344878409026
 40
0.625
 50
269.99999999999977
 51
359.99999999999966
  0
LINE
  8
_0-e_極細4
  6
CONTINUOUS
 62
    6
 10
1066.4695301965944
 20
733.1094878409026
 11
1066.4695301965944
 21
734.3594878409026
  0
LINE
  8
_0-e_極細4
  6
CONTINUOUS
 62
    6
 10
978.71953019659486
 20
641.86044069089792
 11
978.71953019659486
 21
715.57826909090272
  0
ARC
  8
_0-e_極細4
  6
CONTINUOUS
 62
    6
 10
979.96953019659475
 20
641.86044069089792
 40
1.25
 50
179.99999999999983
 51
270.00045836621376
  0
LINE
  8
_0-e_極細4
  6
CONTINUOUS
 62
    6
 10
979.96953019659475
 20
640.6104406908978
 11
1012.4695301965949
 21
640.6104406908978
  0
LINE
  8
_0-e_極細4
  6
CONTINUOUS
 62
    6
 10
963.40703019659486
 20
634.10063694089774
 11
963.40703019659486
 21
667.85063694089774
  0
LINE
  8
_0-e_極細4
  6
CONTINUOUS
 62
    6
 10
978.40703019659486
 20
619.10063694089774
 11
981.21953019659486
 21
619.10063694089774
  0
ARC
  8
_0-e_極細4
  6
CONTINUOUS
 62
    6
 10
978.40703019659486
 20
634.10063694089774
 40
15
 50
179.99999999999983
 51
269.99999999999977
  0
LINE
  8
_0-e_極細4
  6
CONTINUOUS
 62
    6
 10
952.46953019659475
 20
680.25259569089769
 11
952.46953019659475
 21
714.10065784090239
  0
LINE
  8
_0-e_極細4
  6
CONTINUOUS
 62
    6
 10
1012.4695301965949
 20
619.10063694089774
 11
1011.3057376965945
 21
619.10063694089774
  0
LINE
  8
_0-e_極細4
  6
CONTINUOUS
 62
    6
 10
1011.3057376965945
 20
619.10063694089774
 11
978.40703019659486
 21
619.10063694089774
  0
LINE
  8
_0-e_極細4
  6
CONTINUOUS
 62
    6
 10
963.40703019659486
 20
634.10063694089774
 11
963.40703019659486
 21
706.35065784090261
  0
LINE
  8
_0-e_極細4
  6
CONTINUOUS
 62
    6
 10
965.90703019659486
 20
634.10063694089774
 11
965.90703019659486
 21
706.35065784090261
  0
LINE
  8
_0-e_極細4
  6
CONTINUOUS
 62
    6
 10
1012.4695301965949
 20
621.60063694089786
 11
978.40703019659486
 21
621.60063694089786
  0
ARC
  8
_0-e_極細4
  6
CONTINUOUS
 62
    6
 10
978.40703019659486
 20
634.10063694089774
 40
12.5
 50
179.99999999999983
 51
269.99999999999977
  0
LINE
  8
_0-e_極細4
  6
CONTINUOUS
 62
    6
 10
962.15703019659429
 20
724.36046159090256
 11
1012.4695301965949
 21
724.36046159090256
  0
LINE
  8
_0-e_極細4
  6
CONTINUOUS
 62
    6
 10
962.15703019659429
 20
718.86046159090245
 11
962.15703019659429
 21
724.36046159090256
  0
LINE
  8
_0-e_極細4
  6
CONTINUOUS
 62
    6
 10
958.09453019659475
 20
724.36046159090233
 11
962.15703019659429
 21
724.36046159090233
  0
LINE
  8
_0-e_極細4
  6
CONTINUOUS
 62
    6
 10
959.34453019659475
 20
718.86046159090245
 11
962.15703019659429
 21
718.86046159090245
  0
LINE
  8
_0-e_極細4
  6
CONTINUOUS
 62
    6
 10
959.34453019659475
 20
717.61046159090245
 11
959.34453019659475
 21
718.86046159090245
  0
ARC
  8
_0-e_極細4
  6
CONTINUOUS
 62
    6
 10
961.84453019659475
 20
717.61046159090245
 40
2.5
 50
179.99999999999983
 51
269.99999999999977
  0
LINE
  8
_0-e_極細4
  6
CONTINUOUS
 62
    6
 10
961.84453019659475
 20
715.11046159090256
 11
965.59453019659486
 21
715.11046159090256
  0
ARC
  8
_0-e_極細4
  6
CONTINUOUS
 62
    6
 10
949.99578019659452
 20
738.4219878409026
 40
1.3125000000000142
 50
4.150990000002416
 51
89.999999999999901
  0
LINE
  8
_0-e_極細4
  6
CONTINUOUS
 62
    6
 10
949.99578019659452
 20
720.58323784090237
 11
949.99578019659452
 21
739.7344878409026
  0
LINE
  8
_0-e_極細4
  6
CONTINUOUS
 62
    6
 10
949.99578019659452
 20
739.72565715808901
 11
941.34453019659441
 21
740.95785409090229
  0
LINE
  8
_0-e_極細4
  6
CONTINUOUS
 62
    6
 10
946.21953019659475
 20
711.35065784090239
 11
946.21953019659475
 21
721.35065784090239
  0
ARC
  8
_0-e_極細4
  6
CONTINUOUS
 62
    6
 10
943.09453019659475
 20
705.93799909090251
 40
6.25
 50
0
 51
59.999999999999588
  0
LINE
  8
_0-e_極細4
  6
CONTINUOUS
 62
    6
 10
941.34453019659441
 20
721.35065784090239
 11
941.34453019659441
 21
722.04470909090264
  0
LINE
  8
_0-e_極細4
  6
CONTINUOUS
 62
    6
 10
946.21953019659475
 20
721.35065784090239
 11
941.34453019659441
 21
721.35065784090239
  0
LINE
  8
_0-e_極細4
  6
CONTINUOUS
 62
    6
 10
941.34453019659441
 20
722.04470909090264
 11
941.34453019659441
 21
741.82388034090252
  0
LINE
  8
_0-e_極細4
  6
CONTINUOUS
 62
    6
 10
951.84453019659475
 20
715.10065784090239
 11
951.84453019659475
 21
718.73448784090237
  0
LINE
  8
_0-e_極細4
  6
CONTINUOUS
 62
    6
 10
949.99578019659452
 20
714.10065784090239
 11
951.84453019659475
 21
715.10065784090239
  0
LINE
  8
_0-e_極細4
  6
CONTINUOUS
 62
    6
 10
941.34453019659441
 20
738.85065784090261
 11
949.99578019659452
 21
737.8506578409025
  0
ARC
  8
_0-e_極細4
  6
CONTINUOUS
 62
    6
 10
964.65703019659486
 20
706.35065784090261
 40
1.25
 50
89.999999999999915
 51
179.99999999999983
  0
ARC
  8
_0-e_極細4
  6
CONTINUOUS
 62
    6
 10
964.65703019659486
 20
706.35065784090261
 40
1.25
 50
0
 51
89.999999999999915
  0
LINE
  8
_0-e_極細4
  6
CONTINUOUS
 62
    6
 10
1012.4695301965947
 20
740.6094878409026
 11
949.99578019659452
 21
740.6094878409026
  0
LINE
  8
_0-e_極細4
  6
CONTINUOUS
 62
    6
 10
962.15703019659429
 20
723.73448784090237
 11
957.09453019659463
 21
723.73448784090237
  0
LINE
  8
_0-e_極細4
  6
CONTINUOUS
 62
    6
 10
953.41800019659445
 20
737.4844878409026
 11
954.90703019659463
 21
737.4844878409026
  0
LINE
  8
_0-e_極細4
  6
CONTINUOUS
 62
    6
 10
957.09453019659463
 20
722.10948784090249
 11
957.09453019659463
 21
735.2969878409026
  0
LINE
  8
_0-e_極細4
  6
CONTINUOUS
 62
    6
 10
954.34453019659429
 20
737.4844878409026
 11
954.34453019659429
 21
740.6094878409026
  0
ARC
  8
_0-e_極細4
  6
CONTINUOUS
 62
    6
 10
954.90703019659463
 20
735.2969878409026
 40
2.1874999999999996
 50
0
 51
89.999999999999915
  0
ARC
  8
_0-e_極細4
  6
CONTINUOUS
 62
    6
 10
949.99578019659452
 20
738.4219878409026
 40
2.1874999999999996
 50
4.1509899999971784
 51
89.999999999999915
  0
ARC
  8
_0-e_極細4
  6
CONTINUOUS
 62
    6
 10
953.41800019659445
 20
738.7344878409026
 40
1.25
 50
183.35088799999644
 51
269.99999999999977
  0
ARC
  8
_0-e_極細4
  6
CONTINUOUS
 62
    6
 10
953.41800019659445
 20
738.7344878409026
 40
2.1249999999999858
 50
183.35088800000048
 51
269.99999999999977
  0
LINE
  8
_0-e_極細4
  6
CONTINUOUS
 62
    6
 10
953.41800019659445
 20
736.6094878409026
 11
954.90703019659463
 21
736.6094878409026
  0
ARC
  8
_0-e_極細4
  6
CONTINUOUS
 62
    6
 10
954.90703019659463
 20
735.2969878409026
 40
1.3125000000000142
 50
0
 51
89.999999999999915
  0
LINE
  8
_0-e_極細4
  6
CONTINUOUS
 62
    6
 10
956.21953019659475
 20
721.23448784090237
 11
956.21953019659429
 21
735.2969878409026
  0
LINE
  8
_0-e_極細4
  6
CONTINUOUS
 62
    6
 10
949.99578019659452
 20
720.58323784090237
 11
951.84453019659475
 21
718.73448784090237
  0
LINE
  8
_0-e_極細4
  6
CONTINUOUS
 62
    6
 10
958.71953019659475
 20
716.23448784090237
 11
958.71953019659475
 21
723.73448784090237
  0
LINE
  8
_0-e_極細4
  6
CONTINUOUS
 62
    6
 10
958.71953019659475
 20
721.23448784090237
 11
956.21953019659475
 21
721.23448784090237
  0
LINE
  8
_0-e_極細4
  6
CONTINUOUS
 62
    6
 10
958.71953019659475
 20
722.10948784090249
 11
957.09453019659463
 21
722.10948784090249
  0
LINE
  8
_0-e_極細4
  6
CONTINUOUS
 62
    6
 10
959.75726019659442
 20
716.23448784090237
 11
958.71953019659475
 21
716.23448784090237
  0
LINE
  8
_0-e_極細4
  6
CONTINUOUS
 62
    6
 10
958.71953019659475
 20
718.73448784090237
 11
951.84453019659475
 21
718.73448784090237
  0
LINE
  8
_0-e_極細4
  6
CONTINUOUS
 62
    6
 10
975.23663894659478
 20
716.6094878409026
 11
968.98663894659478
 21
716.6094878409026
  0
LINE
  8
_0-e_極細4
  6
CONTINUOUS
 62
    6
 10
975.23663894659478
 20
716.6094878409026
 11
975.23663894659478
 21
718.73448784090237
  0
LINE
  8
_0-e_極細4
  6
CONTINUOUS
 62
    6
 10
968.98663894659478
 20
716.6094878409026
 11
968.98663894659478
 21
718.73448784090237
  0
LINE
  8
_0-e_極細4
  6
CONTINUOUS
 62
    6
 10
954.40703019659452
 20
737.73448784090249
 11
954.40703019659452
 21
739.3594878409026
  0
LINE
  8
_0-e_極細4
  6
CONTINUOUS
 62
    6
 10
1012.4695301965947
 20
739.9844878409026
 11
955.03203019659452
 21
739.9844878409026
  0
LINE
  8
_0-e_極細4
  6
CONTINUOUS
 62
    6
 10
957.09453019659452
 20
737.4844878409026
 11
954.65703019659429
 21
737.4844878409026
  0
LINE
  8
_0-e_極細4
  6
CONTINUOUS
 62
    6
 10
957.09453019659463
 20
733.7344878409026
 11
957.09453019659452
 21
737.4844878409026
  0
ARC
  8
_0-e_極細4
  6
CONTINUOUS
 62
    6
 10
955.03203019659452
 20
739.3594878409026
 40
0.625
 50
155.9454510000046
 51
179.99999999999983
  0
ARC
  8
_0-e_極細4
  6
CONTINUOUS
 62
    6
 10
954.65703019659429
 20
737.73448784090249
 40
0.2499999999999857
 50
179.99999999999983
 51
269.99999999999977
  0
ARC
  8
_0-e_極細4
  6
CONTINUOUS
 62
    6
 10
955.03203019659452
 20
739.3594878409026
 40
0.625
 50
89.999999999999915
 51
155.9454510000046
  0
LINE
  8
_0-e_極細4
  6
CONTINUOUS
 62
    6
 10
1012.2195301965945
 20
734.3594878409026
 11
958.46953019659452
 21
734.3594878409026
  0
LINE
  8
_0-e_極細4
  6
CONTINUOUS
 62
    6
 10
1012.2195301965945
 20
733.1094878409026
 11
957.71953019659463
 21
733.1094878409026
  0
LINE
  8
_0-e_極細4
  6
CONTINUOUS
 62
    6
 10
1012.4695301965949
 20
731.74212534090259
 11
957.28203019659441
 21
731.74212534090248
  0
LINE
  8
_0-e_極細4
  6
CONTINUOUS
 62
    6
 10
962.78203019659475
 20
731.74212534090248
 11
962.78203019659475
 21
731.11712534090248
  0
LINE
  8
_0-e_極細4
  6
CONTINUOUS
 62
    6
 10
958.28203019659441
 20
729.86712534090248
 11
957.28203019659441
 21
731.74212534090248
  0
LINE
  8
_0-e_極細4
  6
CONTINUOUS
 62
    6
 10
963.40703019659486
 20
727.6171253409027
 11
962.78203019659475
 21
728.2421253409027
  0
LINE
  8
_0-e_極細4
  6
CONTINUOUS
 62
    6
 10
962.78203019659475
 20
726.99212534090236
 11
963.40703019659486
 21
727.6171253409027
  0
LINE
  8
_0-e_極細4
  6
CONTINUOUS
 62
    6
 10
962.78203019659475
 20
729.86712534090248
 11
963.40703019659486
 21
730.49212534090248
  0
LINE
  8
_0-e_極細4
  6
CONTINUOUS
 62
    6
 10
963.40703019659486
 20
730.49212534090248
 11
962.78203019659475
 21
731.11712534090248
  0
LINE
  8
_0-e_極細4
  6
CONTINUOUS
 62
    6
 10
1012.4695301965949
 20
730.49212534090259
 11
963.40703019659486
 21
730.49212534090248
  0
LINE
  8
_0-e_極細4
  6
CONTINUOUS
 62
    6
 10
1012.4695301965949
 20
727.6171253409027
 11
963.40703019659486
 21
727.6171253409027
  0
LINE
  8
_0-e_極細4
  6
CONTINUOUS
 62
    6
 10
1012.4695301965949
 20
726.3671253409027
 11
958.28203019659441
 21
726.3671253409027
  0
LINE
  8
_0-e_極細4
  6
CONTINUOUS
 62
    6
 10
958.28203019659441
 20
729.86712534090248
 11
958.28203019659441
 21
726.3671253409027
  0
LINE
  8
_0-e_極細4
  6
CONTINUOUS
 62
    6
 10
962.78203019659475
 20
726.99212534090236
 11
962.78203019659475
 21
726.3671253409027
  0
LINE
  8
_0-e_極細4
  6
CONTINUOUS
 62
    6
 10
962.78203019659475
 20
729.86712534090248
 11
962.78203019659475
 21
728.2421253409027
  0
LINE
  8
_0-e_極細4
  6
CONTINUOUS
 62
    6
 10
958.09453019659475
 20
724.36046159090233
 11
958.09453019659475
 21
726.23546159090233
  0
LINE
  8
_0-e_極細4
  6
CONTINUOUS
 62
    6
 10
958.09453019659475
 20
726.23546159090233
 11
1012.4695301965949
 21
726.23546159090256
  0
LINE
  8
_0-e_極細4
  6
CONTINUOUS
 62
    6
 10
958.09453019659475
 20
731.98546159090245
 11
1012.4695301965949
 21
731.98546159090245
  0
LINE
  8
_0-e_極細4
  6
CONTINUOUS
 62
    6
 10
958.09453019659475
 20
731.98546159090245
 11
958.09453019659475
 21
733.1094878409026
  0
LINE
  8
_0-e_極細4
  6
CONTINUOUS
 62
    6
 10
978.71953019659486
 20
715.10065784090239
 11
951.84453019659475
 21
715.10065784090239
  0
LINE
  8
_0-e_極細4
  6
CONTINUOUS
 62
    6
 10
978.71953019659486
 20
713.73107784090257
 11
978.71953019659486
 21
715.57826909090272
  0
LINE
  8
_0-e_極細4
  6
CONTINUOUS
 62
    6
 10
949.99578019659452
 20
740.6094878409026
 11
941.34453019659441
 21
741.84168410924019
  0
LINE
  8
_0-e_極細4
  6
CONTINUOUS
 62
    6
 10
964.65703019659486
 20
707.60065784090239
 11
978.71953019659486
 21
707.60065784090239
  0
LINE
  8
_0-e_極細4
  6
CONTINUOUS
 62
    6
 10
978.71953019659486
 20
714.10065784090239
 11
949.99578019659452
 21
714.10065784090239
  0
LINE
  8
_0-e_極細4
  6
CONTINUOUS
 62
    6
 10
941.34453019659441
 20
740.9756578409025
 11
941.34453019659441
 21
741.84168410924019
  0
LINE
  8
_0-e_極細4
  6
CONTINUOUS
 62
    6
 10
1071.3757802013242
 20
679.01239976443219
 11
1061.532030196594
 21
679.01239976443219
  0
LINE
  8
_0-e_極細4
  6
CONTINUOUS
 62
    6
 10
1046.2195301965946
 20
641.86044069089792
 11
1046.2195301965946
 21
715.57826909090272
  0
ARC
  8
_0-e_極細4
  6
CONTINUOUS
 62
    6
 10
1044.9695301965946
 20
641.86044069089792
 40
1.25
 50
269.99954163374383
 51
359.99999999999966
  0
LINE
  8
_0-e_極細4
  6
CONTINUOUS
 62
    6
 10
1044.9695301965946
 20
640.6104406908978
 11
1012.4695301965947
 21
640.6104406908978
  0
LINE
  8
_0-e_極細4
  6
CONTINUOUS
 62
    6
 10
1061.532030196594
 20
634.10063694089774
 11
1061.532030196594
 21
667.85063694089774
  0
LINE
  8
_0-e_極細4
  6
CONTINUOUS
 62
    6
 10
1046.532030196594
 20
619.10063694089774
 11
1043.719530196594
 21
619.10063694089774
  0
ARC
  8
_0-e_極細4
  6
CONTINUOUS
 62
    6
 10
1046.532030196594
 20
634.10063694089774
 40
15
 50
269.99999999999977
 51
359.99999999999966
  0
LINE
  8
_0-e_極細4
  6
CONTINUOUS
 62
    6
 10
1012.4695301965947
 20
619.10063694089774
 11
1013.6333226965945
 21
619.10063694089774
  0
LINE
  8
_0-e_極細4
  6
CONTINUOUS
 62
    6
 10
1013.6333226965945
 20
619.10063694089774
 11
1046.532030196594
 21
619.10063694089774
  0
LINE
  8
_0-e_極細4
  6
CONTINUOUS
 62
    6
 10
1061.532030196594
 20
634.10063694089774
 11
1061.532030196594
 21
706.35065784090261
  0
LINE
  8
_0-e_極細4
  6
CONTINUOUS
 62
    6
 10
1059.0320301965946
 20
634.10063694089774
 11
1059.0320301965946
 21
706.35065784090261
  0
LINE
  8
_0-e_極細4
  6
CONTINUOUS
 62
    6
 10
1012.4695301965947
 20
621.60063694089786
 11
1046.532030196594
 21
621.60063694089786
  0
ARC
  8
_0-e_極細4
  6
CONTINUOUS
 62
    6
 10
1046.532030196594
 20
634.10063694089774
 40
12.5
 50
269.99999999999977
 51
359.99999999999966
  0
LINE
  8
_0-e_極細4
  6
CONTINUOUS
 62
    6
 10
1062.7820301965946
 20
724.36046159090256
 11
1012.4695301965947
 21
724.36046159090256
  0
LINE
  8
_0-e_極細4
  6
CONTINUOUS
 62
    6
 10
1062.7820301965946
 20
718.86046159090245
 11
1062.7820301965946
 21
724.36046159090256
  0
LINE
  8
_0-e_極細4
  6
CONTINUOUS
 62
    6
 10
1066.8445301965946
 20
724.36046159090233
 11
1062.7820301965946
 21
724.36046159090233
  0
LINE
  8
_0-e_極細4
  6
CONTINUOUS
 62
    6
 10
1065.5945301965946
 20
718.86046159090245
 11
1062.7820301965946
 21
718.86046159090245
  0
LINE
  8
_0-e_極細4
  6
CONTINUOUS
 62
    6
 10
1065.5945301965946
 20
717.61046159090245
 11
1065.5945301965946
 21
718.86046159090245
  0
ARC
  8
_0-e_極細4
  6
CONTINUOUS
 62
    6
 10
1063.0945301965946
 20
717.61046159090245
 40
2.5
 50
269.99999999999977
 51
359.99999999999966
  0
LINE
  8
_0-e_極細4
  6
CONTINUOUS
 62
    6
 10
1063.0945301965946
 20
715.11046159090256
 11
1059.3445301965946
 21
715.11046159090256
  0
ARC
  8
_0-e_極細4
  6
CONTINUOUS
 62
    6
 10
1074.9432801965945
 20
738.4219878409026
 40
1.3125000000000142
 50
89.999999999999915
 51
175.84900999999832
  0
LINE
  8
_0-e_極細4
  6
CONTINUOUS
 62
    6
 10
1074.9432801965945
 20
720.58323784090237
 11
1074.9432801965945
 21
739.7344878409026
  0
LINE
  8
_0-e_極細4
  6
CONTINUOUS
 62
    6
 10
1074.9432801965945
 20
739.72565715808901
 11
1083.5945301965944
 21
740.95785409090229
  0
LINE
  8
_0-e_極細4
  6
CONTINUOUS
 62
    6
 10
1078.719530196594
 20
711.35065784090239
 11
1078.719530196594
 21
721.35065784090239
  0
ARC
  8
_0-e_極細4
  6
CONTINUOUS
 62
    6
 10
1081.844530196594
 20
705.93799909090251
 40
6.25
 50
120.00000000000043
 51
179.99999999999983
  0
LINE
  8
_0-e_極細4
  6
CONTINUOUS
 62
    6
 10
1083.5945301965944
 20
721.35065784090239
 11
1083.5945301965944
 21
722.04470909090264
  0
LINE
  8
_0-e_極細4
  6
CONTINUOUS
 62
    6
 10
1078.719530196594
 20
721.35065784090239
 11
1083.5945301965944
 21
721.35065784090239
  0
LINE
  8
_0-e_極細4
  6
CONTINUOUS
 62
    6
 10
1083.5945301965944
 20
722.04470909090264
 11
1083.5945301965944
 21
741.82388034090252
  0
LINE
  8
_0-e_極細4
  6
CONTINUOUS
 62
    6
 10
1073.0945301965946
 20
715.10065784090239
 11
1073.0945301965946
 21
718.73448784090237
  0
LINE
  8
_0-e_極細4
  6
CONTINUOUS
 62
    6
 10
1074.9432801965941
 20
714.10065784090239
 11
1073.0945301965946
 21
715.10065784090239
  0
LINE
  8
_0-e_極細4
  6
CONTINUOUS
 62
    6
 10
1083.5945301965944
 20
738.85065784090261
 11
1074.9432801965945
 21
737.8506578409025
  0
ARC
  8
_0-e_極細4
  6
CONTINUOUS
 62
    6
 10
1060.2820301965946
 20
706.35065784090261
 40
1.25
 50
0
 51
89.999999999999915
  0
ARC
  8
_0-e_極細4
  6
CONTINUOUS
 62
    6
 10
1060.2820301965946
 20
706.35065784090261
 40
1.25
 50
89.999999999999915
 51
179.99999999999983
  0
LINE
  8
_0-e_極細4
  6
CONTINUOUS
 62
    6
 10
1012.4695301965947
 20
740.6094878409026
 11
1074.9432801965945
 21
740.6094878409026
  0
LINE
  8
_0-e_極細4
  6
CONTINUOUS
 62
    6
 10
1062.7820301965946
 20
723.73448784090237
 11
1067.844530196594
 21
723.73448784090237
  0
LINE
  8
_0-e_極細4
  6
CONTINUOUS
 62
    6
 10
1071.5210601965941
 20
737.4844878409026
 11
1070.032030196594
 21
737.4844878409026
  0
LINE
  8
_0-e_極細4
  6
CONTINUOUS
 62
    6
 10
1067.844530196594
 20
722.10948784090249
 11
1067.844530196594
 21
735.2969878409026
  0
LINE
  8
_0-e_極細4
  6
CONTINUOUS
 62
    6
 10
1070.5945301965946
 20
737.4844878409026
 11
1070.5945301965946
 21
740.6094878409026
  0
ARC
  8
_0-e_極細4
  6
CONTINUOUS
 62
    6
 10
1070.032030196594
 20
735.2969878409026
 40
2.1874999999999996
 50
89.999999999999915
 51
179.99999999999983
  0
ARC
  8
_0-e_極細4
  6
CONTINUOUS
 62
    6
 10
1074.9432801965945
 20
738.4219878409026
 40
2.1874999999999996
 50
89.999999999999915
 51
175.84901000000326
  0
ARC
  8
_0-e_極細4
  6
CONTINUOUS
 62
    6
 10
1071.5210601965941
 20
738.7344878409026
 40
1.25
 50
269.99999999999977
 51
356.64911200000347
  0
ARC
  8
_0-e_極細4
  6
CONTINUOUS
 62
    6
 10
1071.5210601965941
 20
738.7344878409026
 40
2.1249999999999858
 50
269.99999999999977
 51
356.64911199999921
  0
LINE
  8
_0-e_極細4
  6
CONTINUOUS
 62
    6
 10
1071.5210601965941
 20
736.6094878409026
 11
1070.032030196594
 21
736.6094878409026
  0
ARC
  8
_0-e_極細4
  6
CONTINUOUS
 62
    6
 10
1070.032030196594
 20
735.2969878409026
 40
1.3125000000000142
 50
89.999999999999915
 51
179.99999999999983
  0
LINE
  8
_0-e_極細4
  6
CONTINUOUS
 62
    6
 10
1068.7195301965946
 20
721.23448784090237
 11
1068.7195301965946
 21
735.2969878409026
  0
LINE
  8
_0-e_極細4
  6
CONTINUOUS
 62
    6
 10
1074.9432801965945
 20
720.58323784090237
 11
1073.0945301965946
 21
718.73448784090237
  0
LINE
  8
_0-e_極細4
  6
CONTINUOUS
 62
    6
 10
1066.219530196594
 20
716.23448784090237
 11
1066.219530196594
 21
723.73448784090237
  0
LINE
  8
_0-e_極細4
  6
CONTINUOUS
 62
    6
 10
1066.219530196594
 20
721.23448784090237
 11
1068.7195301965946
 21
721.23448784090237
  0
LINE
  8
_0-e_極細4
  6
CONTINUOUS
 62
    6
 10
1066.219530196594
 20
722.10948784090249
 11
1067.844530196594
 21
722.10948784090249
  0
LINE
  8
_0-e_極細4
  6
CONTINUOUS
 62
    6
 10
1065.1818001965944
 20
716.23448784090237
 11
1066.219530196594
 21
716.23448784090237
  0
LINE
  8
_0-e_極細4
  6
CONTINUOUS
 62
    6
 10
1066.219530196594
 20
718.73448784090237
 11
1073.0945301965946
 21
718.73448784090237
  0
LINE
  8
_0-e_極細4
  6
CONTINUOUS
 62
    6
 10
1049.7024214465941
 20
716.6094878409026
 11
1055.9524214465941
 21
716.6094878409026
  0
LINE
  8
_0-e_極細4
  6
CONTINUOUS
 62
    6
 10
1049.7024214465941
 20
716.6094878409026
 11
1049.7024214465941
 21
718.73448784090237
  0
LINE
  8
_0-e_極細4
  6
CONTINUOUS
 62
    6
 10
1055.9524214465941
 20
716.6094878409026
 11
1055.9524214465941
 21
718.73448784090237
  0
LINE
  8
_0-e_極細4
  6
CONTINUOUS
 62
    6
 10
1070.5320301965944
 20
737.73448784090249
 11
1070.5320301965944
 21
739.3594878409026
  0
LINE
  8
_0-e_極細4
  6
CONTINUOUS
 62
    6
 10
1012.4695301965947
 20
739.9844878409026
 11
1069.9070301965944
 21
739.9844878409026
  0
LINE
  8
_0-e_極細4
  6
CONTINUOUS
 62
    6
 10
1067.844530196594
 20
737.4844878409026
 11
1070.2820301965946
 21
737.4844878409026
  0
LINE
  8
_0-e_極細4
  6
CONTINUOUS
 62
    6
 10
1067.844530196594
 20
733.7344878409026
 11
1067.844530196594
 21
737.4844878409026
  0
ARC
  8
_0-e_極細4
  6
CONTINUOUS
 62
    6
 10
1069.9070301965944
 20
739.3594878409026
 40
0.625
 50
0
 51
24.054549000003899
  0
ARC
  8
_0-e_極細4
  6
CONTINUOUS
 62
    6
 10
1070.2820301965946
 20
737.73448784090249
 40
0.2499999999999857
 50
269.99999999999977
 51
359.99999999999966
  0
ARC
  8
_0-e_極細4
  6
CONTINUOUS
 62
    6
 10
1069.9070301965944
 20
739.3594878409026
 40
0.625
 50
24.054549000003899
 51
89.999999999999915
  0
LINE
  8
_0-e_極細4
  6
CONTINUOUS
 62
    6
 10
1012.7195301965945
 20
734.3594878409026
 11
1066.4695301965944
 21
734.3594878409026
  0
LINE
  8
_0-e_極細4
  6
CONTINUOUS
 62
    6
 10
1012.7195301965945
 20
733.1094878409026
 11
1067.219530196594
 21
733.1094878409026
  0
LINE
  8
_0-e_極細4
  6
CONTINUOUS
 62
    6
 10
1012.4695301965947
 20
731.74212534090259
 11
1067.6570301965944
 21
731.74212534090248
  0
LINE
  8
_0-e_極細4
  6
CONTINUOUS
 62
    6
 10
1062.1570301965946
 20
731.74212534090248
 11
1062.1570301965946
 21
731.11712534090248
  0
LINE
  8
_0-e_極細4
  6
CONTINUOUS
 62
    6
 10
1066.6570301965944
 20
729.86712534090248
 11
1067.6570301965944
 21
731.74212534090248
  0
LINE
  8
_0-e_極細4
  6
CONTINUOUS
 62
    6
 10
1061.532030196594
 20
727.6171253409027
 11
1062.1570301965946
 21
728.2421253409027
  0
LINE
  8
_0-e_極細4
  6
CONTINUOUS
 62
    6
 10
1062.1570301965946
 20
726.99212534090236
 11
1061.532030196594
 21
727.6171253409027
  0
LINE
  8
_0-e_極細4
  6
CONTINUOUS
 62
    6
 10
1062.1570301965946
 20
729.86712534090248
 11
1061.532030196594
 21
730.49212534090248
  0
LINE
  8
_0-e_極細4
  6
CONTINUOUS
 62
    6
 10
1061.532030196594
 20
730.49212534090248
 11
1062.1570301965946
 21
731.11712534090248
  0
LINE
  8
_0-e_極細4
  6
CONTINUOUS
 62
    6
 10
1012.4695301965947
 20
730.49212534090259
 11
1061.532030196594
 21
730.49212534090248
  0
LINE
  8
_0-e_極細4
  6
CONTINUOUS
 62
    6
 10
1012.4695301965947
 20
727.6171253409027
 11
1061.532030196594
 21
727.6171253409027
  0
LINE
  8
_0-e_極細4
  6
CONTINUOUS
 62
    6
 10
1012.4695301965947
 20
726.3671253409027
 11
1066.6570301965944
 21
726.3671253409027
  0
LINE
  8
_0-e_極細4
  6
CONTINUOUS
 62
    6
 10
1066.6570301965944
 20
729.86712534090248
 11
1066.6570301965944
 21
726.3671253409027
  0
LINE
  8
_0-e_極細4
  6
CONTINUOUS
 62
    6
 10
1062.1570301965946
 20
726.99212534090236
 11
1062.1570301965946
 21
726.3671253409027
  0
LINE
  8
_0-e_極細4
  6
CONTINUOUS
 62
    6
 10
1062.1570301965946
 20
729.86712534090248
 11
1062.1570301965946
 21
728.2421253409027
  0
LINE
  8
_0-e_極細4
  6
CONTINUOUS
 62
    6
 10
1066.8445301965946
 20
724.36046159090233
 11
1066.8445301965946
 21
726.23546159090233
  0
LINE
  8
_0-e_極細4
  6
CONTINUOUS
 62
    6
 10
1066.8445301965946
 20
726.23546159090233
 11
1012.4695301965947
 21
726.23546159090256
  0
LINE
  8
_0-e_極細4
  6
CONTINUOUS
 62
    6
 10
1066.8445301965946
 20
731.98546159090245
 11
1012.4695301965947
 21
731.98546159090245
  0
LINE
  8
_0-e_極細4
  6
CONTINUOUS
 62
    6
 10
1066.8445301965946
 20
731.98546159090245
 11
1066.8445301965946
 21
733.1094878409026
  0
LINE
  8
_0-e_極細4
  6
CONTINUOUS
 62
    6
 10
1046.2195301965946
 20
715.10065784090239
 11
1073.0945301965946
 21
715.10065784090239
  0
LINE
  8
_0-e_極細4
  6
CONTINUOUS
 62
    6
 10
1046.2195301965946
 20
713.73107784090257
 11
1046.2195301965946
 21
715.57826909090272
  0
LINE
  8
_0-e_極細4
  6
CONTINUOUS
 62
    6
 10
1074.9432801965945
 20
740.6094878409026
 11
1083.5945301965944
 21
741.84168410924019
  0
LINE
  8
_0-e_極細4
  6
CONTINUOUS
 62
    6
 10
1060.2820301965946
 20
707.60065784090239
 11
1046.2195301965946
 21
707.60065784090239
  0
LINE
  8
_0-e_極細4
  6
CONTINUOUS
 62
    6
 10
1046.2195301965946
 20
714.10065784090239
 11
1074.9432801965941
 21
714.10065784090239
  0
LINE
  8
_0-e_極細4
  6
CONTINUOUS
 62
    6
 10
1083.5945301965944
 20
740.9756578409025
 11
1083.5945301965944
 21
741.84168410924019
  0
LINE
  8
_0-e_極細4
  6
CONTINUOUS
 62
    6
 10
941.34453019659441
 20
741.84168410924019
 11
1083.5945301965944
 21
741.84168410924019
  0
LINE
  8
_0-e_極細4
  6
CONTINUOUS
 62
    6
 10
1074.9432801965945
 20
738.15132166328215
 11
1077.5443980899556
 21
738.15132166328215
  0
LINE
  8
_0-e_極細4
  6
CONTINUOUS
 62
    6
 10
1074.9432801965945
 20
738.90132166328215
 11
1083.5945301965944
 21
738.90132166328215
  0
LINE
  8
_0-e_極細4
  6
CONTINUOUS
 62
    6
 10
1074.9432801965945
 20
739.65132166328192
 11
1083.5945301965944
 21
739.65132166328192
  0
LINE
  8
_0-e_極細4
  6
CONTINUOUS
 62
    6
 10
1079.6871181293877
 20
740.40132166328226
 11
1083.5945301965944
 21
740.40132166328226
  0
LINE
  8
_0-e_極細4
  6
CONTINUOUS
 62
    6
 10
947.39466230323296
 20
738.15132166328215
 11
949.99578019659452
 21
738.15132166328215
  0
LINE
  8
_0-e_極細4
  6
CONTINUOUS
 62
    6
 10
941.34453019659441
 20
738.90132166328215
 11
949.99578019659452
 21
738.90132166328215
  0
LINE
  8
_0-e_極細4
  6
CONTINUOUS
 62
    6
 10
941.34453019659441
 20
739.65132166328192
 11
949.99578019659452
 21
739.65132166328192
  0
LINE
  8
_0-e_極細4
  6
CONTINUOUS
 62
    6
 10
941.34453019659441
 20
740.40132166328226
 11
945.25194226380108
 21
740.40132166328226
  0
ARC
  8
_0-e_極細4
  6
CONTINUOUS
 62
    6
 10
1053.7195301965946
 20
715.57826909090272
 40
7.5
 50
155.11305268293245
 51
179.99999999999983
  0
ARC
  8
_0-e_極細4
  6
CONTINUOUS
 62
    6
 10
1053.7195301965946
 20
715.57826909090272
 40
7.5
 50
55.166292356157925
 51
155.11305268293245
  0
ARC
  8
_0-e_極細4
  6
CONTINUOUS
 62
    6
 10
1055.5945301965946
 20
718.86046159090245
 40
3.75
 50
358.07490068720398
 51
50.029499419969213
  0
LINE
  8
_0-e_極細4
  6
CONTINUOUS
 62
    6
 10
1046.915980887436
 20
718.73448784090237
 11
1059.3445301965946
 21
718.73448784090237
  0
LINE
  8
_0-e_極細4
  6
CONTINUOUS
 62
    6
 10
1059.3445301965946
 20
715.11046159090256
 11
1059.3445301965946
 21
718.73448784090237
  0
LINE
  8
_0-e_極細4
  6
CONTINUOUS
 62
    6
 10
1058.608061159513
 20
718.73448784090237
 11
1058.608061159513
 21
721.09230637393102
  0
LINE
  8
_0-e_極細4
  6
CONTINUOUS
 62
    6
 10
1057.8580611595125
 20
718.73448784090237
 11
1057.8580611595125
 21
721.83307216285948
  0
LINE
  8
_0-e_極細4
  6
CONTINUOUS
 62
    6
 10
1057.108061159513
 20
718.73448784090237
 11
1057.108061159513
 21
722.26914780100788
  0
LINE
  8
_0-e_極細4
  6
CONTINUOUS
 62
    6
 10
1056.358061159513
 20
718.73448784090237
 11
1056.358061159513
 21
722.59882137385853
  0
LINE
  8
_0-e_極細4
  6
CONTINUOUS
 62
    6
 10
1055.608061159513
 20
718.73448784090237
 11
1055.608061159513
 21
722.83660573245459
  0
LINE
  8
_0-e_極細4
  6
CONTINUOUS
 62
    6
 10
1054.8580611595125
 20
718.73448784090237
 11
1054.8580611595125
 21
722.99134856211242
  0
LINE
  8
_0-e_極細4
  6
CONTINUOUS
 62
    6
 10
1054.1080611595125
 20
718.73448784090237
 11
1054.1080611595125
 21
723.06819857594155
  0
LINE
  8
_0-e_極細4
  6
CONTINUOUS
 62
    6
 10
1053.358061159513
 20
718.73448784090237
 11
1053.358061159513
 21
723.0695533689975
  0
LINE
  8
_0-e_極細4
  6
CONTINUOUS
 62
    6
 10
1052.6080611595125
 20
718.73448784090237
 11
1052.6080611595125
 21
722.99545431035131
  0
LINE
  8
_0-e_極細4
  6
CONTINUOUS
 62
    6
 10
1051.8580611595125
 20
718.73448784090237
 11
1051.8580611595125
 21
722.84359310459854
  0
LINE
  8
_0-e_極細4
  6
CONTINUOUS
 62
    6
 10
1051.1080611595125
 20
718.73448784090237
 11
1051.1080611595125
 21
722.60893260641546
  0
LINE
  8
_0-e_極細4
  6
CONTINUOUS
 62
    6
 10
1050.3580611595125
 20
718.73448784090237
 11
1050.3580611595125
 21
722.28278442854946
  0
LINE
  8
_0-e_極細4
  6
CONTINUOUS
 62
    6
 10
1049.6080611595128
 20
718.73448784090237
 11
1049.6080611595128
 21
721.85089392880877
  0
LINE
  8
_0-e_極細4
  6
CONTINUOUS
 62
    6
 10
1048.8580611595125
 20
718.73448784090237
 11
1048.8580611595125
 21
721.28932142838812
  0
LINE
  8
_0-e_極細4
  6
CONTINUOUS
 62
    6
 10
1048.1080611595125
 20
718.73448784090237
 11
1048.1080611595125
 21
720.55435341955649
  0
LINE
  8
_0-e_極細4
  6
CONTINUOUS
 62
    6
 10
1047.3580611595125
 20
718.73448784090237
 11
1047.3580611595125
 21
719.55088934587923
  0
ARC
  8
_0-e_極細4
  6
CONTINUOUS
 62
    6
 10
969.34453019659486
 20
718.86046159090245
 40
3.75
 50
129.97050058004376
 51
181.9250993127952
  0
LINE
  8
_0-e_極細4
  6
CONTINUOUS
 62
    6
 10
965.59453019659486
 20
715.11046159090256
 11
965.59453019659486
 21
718.73448784090237
  0
ARC
  8
_0-e_極細4
  6
CONTINUOUS
 62
    6
 10
971.21953019659486
 20
715.57826909090272
 40
7.5
 50
24.886947317067573
 51
124.83370764384919
  0
LINE
  8
_0-e_極細4
  6
CONTINUOUS
 62
    6
 10
978.02307950575357
 20
718.73448784090237
 11
965.59453019659486
 21
718.73448784090237
  0
ARC
  8
_0-e_極細4
  6
CONTINUOUS
 62
    6
 10
971.21953019659486
 20
715.57826909090272
 40
7.5
 50
0
 51
24.886947317067573
  0
LINE
  8
_0-e_極細4
  6
CONTINUOUS
 62
    6
 10
977.60806115951311
 20
718.73448784090237
 11
977.60806115951311
 21
719.50722214939435
  0
LINE
  8
_0-e_極細4
  6
CONTINUOUS
 62
    6
 10
976.85806115951311
 20
718.73448784090237
 11
976.85806115951311
 21
720.52366781903459
  0
LINE
  8
_0-e_極細4
  6
CONTINUOUS
 62
    6
 10
976.108061159513
 20
718.73448784090237
 11
976.108061159513
 21
721.26617424346864
  0
LINE
  8
_0-e_極細4
  6
CONTINUOUS
 62
    6
 10
975.35806115951334
 20
718.73448784090237
 11
975.35806115951334
 21
721.83307216285982
  0
LINE
  8
_0-e_極細4
  6
CONTINUOUS
 62
    6
 10
974.608061159513
 20
718.73448784090237
 11
974.608061159513
 21
722.26914780100833
  0
LINE
  8
_0-e_極細4
  6
CONTINUOUS
 62
    6
 10
973.85806115951311
 20
718.73448784090237
 11
973.85806115951311
 21
722.59882137385875
  0
LINE
  8
_0-e_極細4
  6
CONTINUOUS
 62
    6
 10
973.10806115951311
 20
718.73448784090237
 11
973.10806115951311
 21
722.83660573245459
  0
LINE
  8
_0-e_極細4
  6
CONTINUOUS
 62
    6
 10
972.35806115951266
 20
718.73448784090237
 11
972.35806115951266
 21
722.99134856211276
  0
LINE
  8
_0-e_極細4
  6
CONTINUOUS
 62
    6
 10
971.60806115951334
 20
718.73448784090237
 11
971.60806115951334
 21
723.06819857594155
  0
LINE
  8
_0-e_極細4
  6
CONTINUOUS
 62
    6
 10
970.85806115951289
 20
718.73448784090237
 11
970.85806115951289
 21
723.06955336899728
  0
LINE
  8
_0-e_極細4
  6
CONTINUOUS
 62
    6
 10
970.10806115951311
 20
718.73448784090237
 11
970.10806115951311
 21
722.99545431035131
  0
LINE
  8
_0-e_極細4
  6
CONTINUOUS
 62
    6
 10
969.35806115951266
 20
718.73448784090237
 11
969.35806115951266
 21
722.84359310459854
  0
LINE
  8
_0-e_極細4
  6
CONTINUOUS
 62
    6
 10
968.60806115951266
 20
718.73448784090237
 11
968.60806115951266
 21
722.60893260641546
  0
LINE
  8
_0-e_極細4
  6
CONTINUOUS
 62
    6
 10
967.85806115951254
 20
718.73448784090237
 11
967.85806115951254
 21
722.28278442854935
  0
LINE
  8
_0-e_極細4
  6
CONTINUOUS
 62
    6
 10
967.10806115951289
 20
718.73448784090237
 11
967.10806115951289
 21
721.85089392880877
  0
LINE
  8
_0-e_極細4
  6
CONTINUOUS
 62
    6
 10
966.35806115951254
 20
718.73448784090237
 11
966.35806115951254
 21
721.12839075437978
  0
LINE
  8
_0-e_極細4
  6
CONTINUOUS
 62
    6
 10
965.60806115951266
 20
718.73448784090237
 11
965.60806115951266
 21
719.17873684116194
  0
LINE
  8
_0-e_極細4
  6
CONTINUOUS
 62
    6
 10
1055.608061159513
 20
716.6094878409026
 11
1055.608061159513
 21
718.73448784090237
  0
LINE
  8
_0-e_極細4
  6
CONTINUOUS
 62
    6
 10
1054.858061159513
 20
716.6094878409026
 11
1054.858061159513
 21
718.73448784090237
  0
LINE
  8
_0-e_極細4
  6
CONTINUOUS
 62
    6
 10
1054.1080611595125
 20
716.6094878409026
 11
1054.1080611595125
 21
718.73448784090237
  0
LINE
  8
_0-e_極細4
  6
CONTINUOUS
 62
    6
 10
1053.358061159513
 20
716.6094878409026
 11
1053.358061159513
 21
718.73448784090237
  0
LINE
  8
_0-e_極細4
  6
CONTINUOUS
 62
    6
 10
1052.608061159513
 20
716.6094878409026
 11
1052.608061159513
 21
718.73448784090237
  0
LINE
  8
_0-e_極細4
  6
CONTINUOUS
 62
    6
 10
1051.858061159513
 20
716.6094878409026
 11
1051.858061159513
 21
718.73448784090237
  0
LINE
  8
_0-e_極細4
  6
CONTINUOUS
 62
    6
 10
1051.1080611595125
 20
716.6094878409026
 11
1051.1080611595125
 21
718.73448784090237
  0
LINE
  8
_0-e_極細4
  6
CONTINUOUS
 62
    6
 10
1050.3580611595125
 20
716.6094878409026
 11
1050.3580611595125
 21
718.73448784090237
  0
LINE
  8
_0-e_極細4
  6
CONTINUOUS
 62
    6
 10
974.608061159513
 20
716.6094878409026
 11
974.608061159513
 21
718.73448784090237
  0
LINE
  8
_0-e_極細4
  6
CONTINUOUS
 62
    6
 10
973.85806115951311
 20
716.6094878409026
 11
973.85806115951311
 21
718.73448784090237
  0
LINE
  8
_0-e_極細4
  6
CONTINUOUS
 62
    6
 10
973.10806115951311
 20
716.6094878409026
 11
973.10806115951311
 21
718.73448784090237
  0
LINE
  8
_0-e_極細4
  6
CONTINUOUS
 62
    6
 10
972.358061159513
 20
716.6094878409026
 11
972.358061159513
 21
718.73448784090237
  0
LINE
  8
_0-e_極細4
  6
CONTINUOUS
 62
    6
 10
971.60806115951334
 20
716.6094878409026
 11
971.60806115951334
 21
718.73448784090237
  0
LINE
  8
_0-e_極細4
  6
CONTINUOUS
 62
    6
 10
970.858061159513
 20
716.6094878409026
 11
970.858061159513
 21
718.73448784090237
  0
LINE
  8
_0-e_極細4
  6
CONTINUOUS
 62
    6
 10
970.10806115951311
 20
716.6094878409026
 11
970.10806115951311
 21
718.73448784090237
  0
LINE
  8
_0-e_極細4
  6
CONTINUOUS
 62
    6
 10
969.35806115951311
 20
716.6094878409026
 11
969.35806115951311
 21
718.73448784090237
  0
LINE
  8
_0-e_極細4
  6
CONTINUOUS
 62
    6
 10
961.85806115951311
 20
718.86046159090245
 11
961.85806115951311
 21
723.73448784090237
  0
LINE
  8
_0-e_極細4
  6
CONTINUOUS
 62
    6
 10
961.108061159513
 20
718.86046159090245
 11
961.108061159513
 21
723.73448784090237
  0
LINE
  8
_0-e_極細4
  6
CONTINUOUS
 62
    6
 10
960.35806115951289
 20
718.86046159090245
 11
960.35806115951289
 21
723.73448784090237
  0
LINE
  8
_0-e_極細4
  6
CONTINUOUS
 62
    6
 10
959.608061159513
 20
716.23448784090237
 11
959.608061159513
 21
716.49323008124327
  0
LINE
  8
_0-e_極細4
  6
CONTINUOUS
 62
    6
 10
959.608061159513
 20
718.86046159090245
 11
959.608061159513
 21
723.73448784090237
  0
LINE
  8
_0-e_極細4
  6
CONTINUOUS
 62
    6
 10
958.85806115951311
 20
716.23448784090237
 11
958.85806115951311
 21
723.73448784090237
  0
LINE
  8
_0-e_極細4
  6
CONTINUOUS
 62
    6
 10
1066.108061159513
 20
716.23448784090237
 11
1066.108061159513
 21
723.73448784090237
  0
LINE
  8
_0-e_極細4
  6
CONTINUOUS
 62
    6
 10
1065.3580611595125
 20
716.23448784090237
 11
1065.3580611595125
 21
716.54912866485711
  0
LINE
  8
_0-e_極細4
  6
CONTINUOUS
 62
    6
 10
1065.3580611595125
 20
718.86046159090245
 11
1065.3580611595125
 21
723.73448784090237
  0
LINE
  8
_0-e_極細4
  6
CONTINUOUS
 62
    6
 10
1064.608061159513
 20
718.86046159090245
 11
1064.608061159513
 21
723.73448784090237
  0
LINE
  8
_0-e_極細4
  6
CONTINUOUS
 62
    6
 10
1063.858061159513
 20
718.86046159090245
 11
1063.858061159513
 21
723.73448784090237
  0
LINE
  8
_0-e_極細4
  6
CONTINUOUS
 62
    6
 10
1063.108061159513
 20
718.86046159090245
 11
1063.108061159513
 21
723.73448784090237
  0
LINE
  8
_0-e_極細4
  6
CONTINUOUS
 62
    6
 10
1074.358061159513
 20
719.99801880382142
 11
1074.358061159513
 21
739.59679630556298
  0
LINE
  8
_0-e_極細4
  6
CONTINUOUS
 62
    6
 10
1073.608061159513
 20
719.2480188038212
 11
1073.608061159513
 21
738.33442287020819
  0
LINE
  8
_0-e_極細4
  6
CONTINUOUS
 62
    6
 10
1072.8580611595125
 20
718.73448784090237
 11
1072.8580611595125
 21
737.08280584210399
  0
LINE
  8
_0-e_極細4
  6
CONTINUOUS
 62
    6
 10
1072.108061159513
 20
718.73448784090237
 11
1072.108061159513
 21
736.69217178565236
  0
LINE
  8
_0-e_極細4
  6
CONTINUOUS
 62
    6
 10
1071.358061159513
 20
718.73448784090237
 11
1071.358061159513
 21
736.6094878409026
  0
LINE
  8
_0-e_極細4
  6
CONTINUOUS
 62
    6
 10
1070.608061159513
 20
718.73448784090237
 11
1070.608061159513
 21
736.6094878409026
  0
LINE
  8
_0-e_極細4
  6
CONTINUOUS
 62
    6
 10
1069.858061159513
 20
718.73448784090237
 11
1069.858061159513
 21
736.59790714052735
  0
LINE
  8
_0-e_極細4
  6
CONTINUOUS
 62
    6
 10
1069.1080611595125
 20
718.73448784090237
 11
1069.1080611595125
 21
736.2291559955371
  0
LINE
  8
_0-e_極細4
  6
CONTINUOUS
 62
    6
 10
1068.358061159513
 20
718.73448784090237
 11
1068.358061159513
 21
721.23448784090237
  0
LINE
  8
_0-e_極細4
  6
CONTINUOUS
 62
    6
 10
1067.6080611595125
 20
718.73448784090237
 11
1067.6080611595125
 21
721.23448784090237
  0
LINE
  8
_0-e_極細4
  6
CONTINUOUS
 62
    6
 10
1066.8580611595125
 20
718.73448784090237
 11
1066.8580611595125
 21
721.23448784090237
  0
LINE
  8
_0-e_極細4
  6
CONTINUOUS
 62
    6
 10
958.10806115951311
 20
718.73448784090237
 11
958.10806115951311
 21
721.23448784090237
  0
LINE
  8
_0-e_極細4
  6
CONTINUOUS
 62
    6
 10
957.358061159513
 20
718.73448784090237
 11
957.358061159513
 21
721.23448784090237
  0
LINE
  8
_0-e_極細4
  6
CONTINUOUS
 62
    6
 10
956.60806115951289
 20
718.73448784090237
 11
956.60806115951289
 21
721.23448784090237
  0
LINE
  8
_0-e_極細4
  6
CONTINUOUS
 62
    6
 10
955.858061159513
 20
718.73448784090237
 11
955.858061159513
 21
736.20152991154953
  0
LINE
  8
_0-e_極細4
  6
CONTINUOUS
 62
    6
 10
955.10806115951311
 20
718.73448784090237
 11
955.10806115951311
 21
736.59400087165739
  0
LINE
  8
_0-e_極細4
  6
CONTINUOUS
 62
    6
 10
954.35806115951311
 20
718.73448784090237
 11
954.35806115951311
 21
736.6094878409026
  0
LINE
  8
_0-e_極細4
  6
CONTINUOUS
 62
    6
 10
953.60806115951277
 20
718.73448784090237
 11
953.60806115951277
 21
736.6094878409026
  0
LINE
  8
_0-e_極細4
  6
CONTINUOUS
 62
    6
 10
952.85806115951289
 20
718.73448784090237
 11
952.85806115951289
 21
736.68458704458294
  0
LINE
  8
_0-e_極細4
  6
CONTINUOUS
 62
    6
 10
952.108061159513
 20
718.73448784090237
 11
952.108061159513
 21
737.06126199866549
  0
LINE
  8
_0-e_極細4
  6
CONTINUOUS
 62
    6
 10
951.35806115951311
 20
719.22095687798424
 11
951.35806115951311
 21
738.21268695597882
  0
LINE
  8
_0-e_極細4
  6
CONTINUOUS
 62
    6
 10
950.60806115951266
 20
719.97095687798424
 11
950.60806115951266
 21
739.58292206489978
  0
LINE
  8
_0-e_極細4
  6
CONTINUOUS
 62
    6
 10
1062.1570301965946
 20
726.90132166328215
 11
1066.6570301965944
 21
726.90132166328215
  0
LINE
  8
_0-e_極細4
  6
CONTINUOUS
 62
    6
 10
1061.5662265189735
 20
727.65132166328215
 11
1066.6570301965944
 21
727.65132166328215
  0
LINE
  8
_0-e_極細4
  6
CONTINUOUS
 62
    6
 10
1062.1570301965946
 20
728.40132166328192
 11
1066.6570301965944
 21
728.40132166328192
  0
LINE
  8
_0-e_極細4
  6
CONTINUOUS
 62
    6
 10
1062.1570301965946
 20
729.15132166328226
 11
1066.6570301965944
 21
729.15132166328226
  0
LINE
  8
_0-e_極細4
  6
CONTINUOUS
 62
    6
 10
1062.1228338742139
 20
729.90132166328203
 11
1066.6752682351967
 21
729.90132166328203
  0
LINE
  8
_0-e_極細4
  6
CONTINUOUS
 62
    6
 10
1061.691226518974
 20
730.65132166328215
 11
1067.0752682351967
 21
730.65132166328215
  0
LINE
  8
_0-e_極細4
  6
CONTINUOUS
 62
    6
 10
1062.1570301965946
 20
731.40132166328203
 11
1067.4752682351973
 21
731.40132166328203
  0
LINE
  8
_0-e_極細4
  6
CONTINUOUS
 62
    6
 10
958.28203019659441
 20
726.90132166328215
 11
962.78203019659475
 21
726.90132166328215
  0
LINE
  8
_0-e_極細4
  6
CONTINUOUS
 62
    6
 10
958.28203019659441
 20
727.65132166328215
 11
963.37283387421496
 21
727.65132166328215
  0
LINE
  8
_0-e_極細4
  6
CONTINUOUS
 62
    6
 10
958.28203019659441
 20
728.40132166328192
 11
962.78203019659475
 21
728.40132166328192
  0
LINE
  8
_0-e_極細4
  6
CONTINUOUS
 62
    6
 10
958.28203019659441
 20
729.15132166328226
 11
962.78203019659475
 21
729.15132166328226
  0
LINE
  8
_0-e_極細4
  6
CONTINUOUS
 62
    6
 10
958.26379215799193
 20
729.90132166328203
 11
962.81622651897408
 21
729.90132166328203
  0
LINE
  8
_0-e_極細4
  6
CONTINUOUS
 62
    6
 10
957.86379215799218
 20
730.65132166328215
 11
963.24783387421485
 21
730.65132166328215
  0
LINE
  8
_0-e_極細4
  6
CONTINUOUS
 62
    6
 10
957.46379215799209
 20
731.40132166328203
 11
962.78203019659475
 21
731.40132166328203
  0
LINE
  8
_0-e_極細4
  6
CONTINUOUS
 62
    6
 10
1075.7577901965942
 20
598.91797784090079
 11
1120.451670196594
 21
600.02001784090146
  0
LINE
  8
_0-e_極細4
  6
CONTINUOUS
 62
    6
 10
1120.451670196594
 20
600.02001784090146
 11
1120.451670196594
 21
667.36695784090125
  0
LINE
  8
_0-e_極細4
  6
CONTINUOUS
 62
    6
 10
1075.594530196594
 20
668.47302342674061
 11
1120.451670196594
 21
667.36695784090125
  0
LINE
  8
_0-e_極細4
  6
CONTINUOUS
 62
    6
 10
1075.594530196594
 20
668.47302342674061
 11
1075.594530196594
 21
705.93799909090251
  0
LINE
  8
_0-e_極細4
  6
CONTINUOUS
 62
    6
 10
949.34453019659475
 20
608.91797784090079
 11
949.34453019659475
 21
705.93799909090251
  0
LINE
  8
_0-e_極細4
  6
CONTINUOUS
 62
    6
 10
959.34453019659475
 20
598.91797784090079
 11
1075.7577901965942
 21
598.91797784090079
  0
ARC
  8
_0-e_極細4
  6
CONTINUOUS
 62
    6
 10
959.34453019659475
 20
608.91797784090079
 40
10
 50
179.99999999999983
 51
269.99999999999977
  0
LINE
  8
_0-e_極細4
  6
CONTINUOUS
 62
    6
 10
959.96953019659475
 20
601.36695784090227
 11
1075.7577901965942
 21
601.36695784090227
  0
LINE
  8
_0-e_極細4
  6
CONTINUOUS
 62
    6
 10
952.46953019659475
 20
608.86695784090227
 11
952.46953019659475
 21
680.25259569089769
  0
ARC
  8
_0-e_極細4
  6
CONTINUOUS
 62
    6
 10
959.96953019659475
 20
608.86695784090227
 40
7.5
 50
179.99999999999983
 51
269.99999999999977
  0
LINE
  8
_0-e_極細4
  6
CENTER2
 62
    6
 10
1012.4695301965947
 20
755.67092532292372
 11
1012.4695301965947
 21
574.56172322209227
  0
LINE
  8
_0-e_極細4
  6
CONTINUOUS
 62
    6
 10
1072.4695301965946
 20
680.25259569089769
 11
1072.4695301965946
 21
714.10065784090239
  0
ARC
  8
_0-e_極細4
  6
CONTINUOUS
 62
    6
 10
1071.2195301965946
 20
680.25259569089769
 40
1.25
 50
277.18075599996143
 51
359.99999999999966
  0
LINE
  8
_0-e_極細4
  6
CONTINUOUS
 62
    6
 10
1010.2941460467422
 20
598.91797784090079
 11
1012.4695301965947
 21
601.09336199075301
  0
LINE
  8
_0-e_極細4
  6
CONTINUOUS
 62
    6
 10
1007.6424956172929
 20
598.91797784090079
 11
1010.0914756172938
 21
601.36695784090216
  0
LINE
  8
_0-e_極細4
  6
CONTINUOUS
 62
    6
 10
1004.9908451878429
 20
598.91797784090079
 11
1007.4398251878443
 21
601.36695784090227
  0
LINE
  8
_0-e_極細4
  6
CONTINUOUS
 62
    6
 10
1002.3391947583933
 20
598.91797784090079
 11
1004.7881747583948
 21
601.36695784090227
  0
LINE
  8
_0-e_極細4
  6
CONTINUOUS
 62
    6
 10
999.68754432894366
 20
598.91797784090079
 11
1002.1365243289451
 21
601.36695784090227
  0
LINE
  8
_0-e_極細4
  6
CONTINUOUS
 62
    6
 10
997.03589389949445
 20
598.91797784090068
 11
999.48487389949605
 21
601.36695784090227
  0
LINE
  8
_0-e_極細4
  6
CONTINUOUS
 62
    6
 10
994.38424347004457
 20
598.91797784090079
 11
996.83322347004605
 21
601.36695784090227
  0
LINE
  8
_0-e_極細4
  6
CONTINUOUS
 62
    6
 10
991.73259304059513
 20
598.91797784090079
 11
994.18157304059662
 21
601.36695784090227
  0
LINE
  8
_0-e_極細4
  6
CONTINUOUS
 62
    6
 10
989.08094261114559
 20
598.91797784090079
 11
991.52992261114707
 21
601.36695784090227
  0
LINE
  8
_0-e_極細4
  6
CONTINUOUS
 62
    6
 10
986.42929218169593
 20
598.91797784090079
 11
988.87827218169741
 21
601.36695784090227
  0
LINE
  8
_0-e_極細4
  6
CONTINUOUS
 62
    6
 10
983.77764175224672
 20
598.91797784090068
 11
986.22662175224832
 21
601.36695784090227
  0
LINE
  8
_0-e_極細4
  6
CONTINUOUS
 62
    6
 10
981.12599132279684
 20
598.91797784090079
 11
983.57497132279832
 21
601.36695784090227
  0
LINE
  8
_0-e_極細4
  6
CONTINUOUS
 62
    6
 10
978.4743408933474
 20
598.91797784090068
 11
980.92332089334889
 21
601.36695784090227
  0
LINE
  8
_0-e_極細4
  6
CONTINUOUS
 62
    6
 10
975.82269046389786
 20
598.91797784090068
 11
978.27167046389934
 21
601.36695784090227
  0
LINE
  8
_0-e_極細4
  6
CONTINUOUS
 62
    6
 10
973.1710400344482
 20
598.91797784090079
 11
975.62002003444968
 21
601.36695784090227
  0
LINE
  8
_0-e_極細4
  6
CONTINUOUS
 62
    6
 10
970.51938960499899
 20
598.91797784090079
 11
972.96836960500059
 21
601.36695784090227
  0
LINE
  8
_0-e_極細4
  6
CONTINUOUS
 62
    6
 10
967.8677391755491
 20
598.91797784090068
 11
970.31671917555059
 21
601.36695784090227
  0
LINE
  8
_0-e_極細4
  6
CONTINUOUS
 62
    6
 10
965.21608874609967
 20
598.91797784090068
 11
967.66506874610116
 21
601.36695784090227
  0
LINE
  8
_0-e_極細4
  6
CONTINUOUS
 62
    6
 10
962.56443831665013
 20
598.91797784090068
 11
965.01341831665161
 21
601.36695784090227
  0
LINE
  8
_0-e_極細4
  6
CONTINUOUS
 62
    6
 10
959.91278788720047
 20
598.91797784090079
 11
962.36176788720195
 21
601.36695784090227
  0
LINE
  8
_0-e_極細4
  6
CONTINUOUS
 62
    6
 10
957.44349663187961
 20
599.10033701502903
 11
959.7144562280431
 21
601.37129661119275
  0
LINE
  8
_0-e_極細4
  6
CONTINUOUS
 62
    6
 10
955.41423043624366
 20
599.72272124884284
 11
957.48274201102618
 21
601.79123282362525
  0
LINE
  8
_0-e_極細4
  6
CONTINUOUS
 62
    6
 10
953.70189153365686
 20
600.66203277570571
 11
955.724083798484
 21
602.68422504053262
  0
LINE
  8
_0-e_極細4
  6
CONTINUOUS
 62
    6
 10
952.25431636202927
 20
601.86610803352778
 11
954.32108925821001
 21
603.93288092970806
  0
LINE
  8
_0-e_極細4
  6
CONTINUOUS
 62
    6
 10
951.05756044918337
 20
603.32100255013108
 11
953.2573593529778
 21
605.52080145392586
  0
LINE
  8
_0-e_極細4
  6
CONTINUOUS
 62
    6
 10
950.12644057725902
 20
605.04153310765651
 11
952.5935559731995
 21
607.50864850359699
  0
LINE
  8
_0-e_極細4
  6
CONTINUOUS
 62
    6
 10
949.51463237278165
 20
607.08137533262845
 11
952.46953019659475
 21
610.03627315644167
  0
LINE
  8
_0-e_極細4
  6
CONTINUOUS
 62
    6
 10
949.34453019659475
 20
609.56292358589121
 11
952.46953019659475
 21
612.68792358589121
  0
LINE
  8
_0-e_極細4
  6
CONTINUOUS
 62
    6
 10
949.34453019659475
 20
612.21457401534076
 11
952.46953019659475
 21
615.33957401534076
  0
LINE
  8
_0-e_極細4
  6
CONTINUOUS
 62
    6
 10
949.34453019659475
 20
614.8662244447903
 11
952.46953019659475
 21
617.9912244447903
  0
LINE
  8
_0-e_極細4
  6
CONTINUOUS
 62
    6
 10
949.34453019659475
 20
617.51787487423996
 11
952.46953019659475
 21
620.64287487423985
  0
LINE
  8
_0-e_極細4
  6
CONTINUOUS
 62
    6
 10
949.34453019659475
 20
620.1695253036894
 11
952.46953019659475
 21
623.2945253036894
  0
LINE
  8
_0-e_極細4
  6
CONTINUOUS
 62
    6
 10
949.34453019659475
 20
622.82117573313917
 11
952.46953019659475
 21
625.94617573313917
  0
LINE
  8
_0-e_極細4
  6
CONTINUOUS
 62
    6
 10
949.34453019659475
 20
625.4728261625886
 11
952.46953019659475
 21
628.59782616258849
  0
LINE
  8
_0-e_極細4
  6
CONTINUOUS
 62
    6
 10
949.34453019659475
 20
628.12447659203815
 11
952.46953019659475
 21
631.24947659203815
  0
LINE
  8
_0-e_極細4
  6
CONTINUOUS
 62
    6
 10
949.34453019659475
 20
630.7761270214877
 11
952.46953019659475
 21
633.90112702148758
  0
LINE
  8
_0-e_極細4
  6
CONTINUOUS
 62
    6
 10
949.34453019659475
 20
633.42777745093713
 11
952.46953019659475
 21
636.55277745093713
  0
LINE
  8
_0-e_極細4
  6
CONTINUOUS
 62
    6
 10
949.34453019659475
 20
636.0794278803869
 11
952.46953019659475
 21
639.2044278803869
  0
LINE
  8
_0-e_極細4
  6
CONTINUOUS
 62
    6
 10
949.34453019659475
 20
638.73107830983633
 11
952.46953019659475
 21
641.85607830983645
  0
LINE
  8
_0-e_極細4
  6
CONTINUOUS
 62
    6
 10
949.34453019659475
 20
641.38272873928588
 11
952.46953019659475
 21
644.50772873928588
  0
LINE
  8
_0-e_極細4
  6
CONTINUOUS
 62
    6
 10
949.34453019659475
 20
644.03437916873543
 11
952.46953019659475
 21
647.15937916873543
  0
LINE
  8
_0-e_極細4
  6
CONTINUOUS
 62
    6
 10
949.34453019659475
 20
646.68602959818486
 11
952.46953019659475
 21
649.81102959818486
  0
LINE
  8
_0-e_極細4
  6
CONTINUOUS
 62
    6
 10
949.34453019659475
 20
649.33768002763463
 11
952.46953019659475
 21
652.46268002763463
  0
LINE
  8
_0-e_極細4
  6
CONTINUOUS
 62
    6
 10
949.34453019659475
 20
651.98933045708418
 11
952.46953019659475
 21
655.11433045708418
  0
LINE
  8
_0-e_極細4
  6
CONTINUOUS
 62
    6
 10
949.34453019659475
 20
654.64098088653361
 11
952.46953019659475
 21
657.76598088653361
  0
LINE
  8
_0-e_極細4
  6
CONTINUOUS
 62
    6
 10
949.34453019659475
 20
657.29263131598327
 11
952.46953019659475
 21
660.41763131598316
  0
LINE
  8
_0-e_極細4
  6
CONTINUOUS
 62
    6
 10
949.34453019659475
 20
659.9442817454327
 11
952.46953019659475
 21
663.0692817454327
  0
LINE
  8
_0-e_極細4
  6
CONTINUOUS
 62
    6
 10
949.34453019659475
 20
662.59593217488236
 11
952.46953019659475
 21
665.72093217488236
  0
LINE
  8
_0-e_極細4
  6
CONTINUOUS
 62
    6
 10
949.34453019659475
 20
665.24758260433191
 11
952.46953019659475
 21
668.37258260433191
  0
LINE
  8
_0-e_極細4
  6
CONTINUOUS
 62
    6
 10
949.34453019659475
 20
667.89923303378146
 11
952.46953019659475
 21
671.02423303378134
  0
LINE
  8
_0-e_極細4
  6
CONTINUOUS
 62
    6
 10
949.34453019659475
 20
670.55088346323123
 11
952.46953019659475
 21
673.67588346323089
  0
LINE
  8
_0-e_極細4
  6
CONTINUOUS
 62
    6
 10
949.34453019659475
 20
673.20253389268055
 11
952.46953019659475
 21
676.32753389268044
  0
LINE
  8
_0-e_極細4
  6
CONTINUOUS
 62
    6
 10
949.34453019659475
 20
675.85418432213021
 11
952.46953019659475
 21
678.9791843221301
  0
LINE
  8
_0-e_極細4
  6
CONTINUOUS
 62
    6
 10
949.34453019659475
 20
678.50583475157964
 11
952.46953019659475
 21
681.63083475157964
  0
LINE
  8
_0-e_極細4
  6
CONTINUOUS
 62
    6
 10
949.34453019659475
 20
681.15748518102919
 11
952.46953019659475
 21
684.28248518102907
  0
LINE
  8
_0-e_極細4
  6
CONTINUOUS
 62
    6
 10
949.34453019659475
 20
683.80913561047896
 11
952.46953019659475
 21
686.93413561047896
  0
LINE
  8
_0-e_極細4
  6
CONTINUOUS
 62
    6
 10
949.34453019659475
 20
686.46078603992828
 11
952.46953019659475
 21
689.58578603992828
  0
LINE
  8
_0-e_極細4
  6
CONTINUOUS
 62
    6
 10
949.34453019659475
 20
689.11243646937794
 11
952.46953019659475
 21
692.23743646937783
  0
LINE
  8
_0-e_極細4
  6
CONTINUOUS
 62
    6
 10
949.34453019659475
 20
691.76408689882749
 11
952.46953019659475
 21
694.88908689882737
  0
LINE
  8
_0-e_極細4
  6
CONTINUOUS
 62
    6
 10
949.34453019659475
 20
694.41573732827703
 11
952.46953019659475
 21
697.5407373282768
  0
LINE
  8
_0-e_極細4
  6
CONTINUOUS
 62
    6
 10
949.34453019659475
 20
697.06738775772669
 11
952.46953019659475
 21
700.19238775772635
  0
LINE
  8
_0-e_極細4
  6
CONTINUOUS
 62
    6
 10
949.34453019659475
 20
699.71903818717624
 11
952.46953019659475
 21
702.84403818717601
  0
LINE
  8
_0-e_極細4
  6
CONTINUOUS
 62
    6
 10
949.34453019659475
 20
702.37068861662567
 11
952.46953019659475
 21
705.49568861662567
  0
LINE
  8
_0-e_極細4
  6
CONTINUOUS
 62
    6
 10
949.34453019659475
 20
705.02233904607522
 11
952.46953019659475
 21
708.1473390460751
  0
LINE
  8
_0-e_極細4
  6
CONTINUOUS
 62
    6
 10
949.15116384116629
 20
707.48062312009608
 11
952.46953019659475
 21
710.79898947552454
  0
LINE
  8
_0-e_極細4
  6
CONTINUOUS
 62
    6
 10
948.34591285951376
 20
709.32702256789321
 11
952.46953019659475
 21
713.45063990497442
  0
LINE
  8
_0-e_極細4
  6
CONTINUOUS
 62
    6
 10
947.10164613507595
 20
710.73440627290529
 11
950.46789770307328
 21
714.1006578409025
  0
LINE
  8
_0-e_極細4
  6
CONTINUOUS
 62
    6
 10
951.02414807889488
 20
714.65690821672399
 11
951.84453019659475
 21
715.47729033442374
  0
LINE
  8
_0-e_極細4
  6
CONTINUOUS
 62
    6
 10
946.21953019659475
 20
712.5039407638734
 11
951.84453019659475
 21
718.1289407638734
  0
LINE
  8
_0-e_極細4
  6
CONTINUOUS
 62
    6
 10
946.21953019659475
 20
715.15559119332295
 11
950.82147852038429
 21
719.75753951711272
  0
LINE
  8
_0-e_極細4
  6
CONTINUOUS
 62
    6
 10
946.21953019659475
 20
717.80724162277238
 11
949.99578019659452
 21
721.5834916227725
  0
LINE
  8
_0-e_極細4
  6
CONTINUOUS
 62
    6
 10
946.21953019659475
 20
720.45889205222215
 11
949.99578019659452
 21
724.23514205222193
  0
LINE
  8
_0-e_極細4
  6
CONTINUOUS
 62
    6
 10
944.45964555582566
 20
721.35065784090261
 11
949.99578019659452
 21
726.88679248167148
  0
LINE
  8
_0-e_極細4
  6
CONTINUOUS
 62
    6
 10
941.807995126376
 20
721.35065784090239
 11
949.99578019659452
 21
729.53844291112114
  0
LINE
  8
_0-e_極細4
  6
CONTINUOUS
 62
    6
 10
941.34453019659441
 20
723.53884334057045
 11
949.99578019659452
 21
732.1900933405708
  0
LINE
  8
_0-e_極細4
  6
CONTINUOUS
 62
    6
 10
941.34453019659441
 20
726.19049377002034
 11
949.99578019659452
 21
734.84174377002023
  0
LINE
  8
_0-e_極細4
  6
CONTINUOUS
 62
    6
 10
941.34453019659441
 20
728.84214419946966
 11
949.99578019659452
 21
737.49339419946966
  0
LINE
  8
_0-e_極細4
  6
CONTINUOUS
 62
    6
 10
941.34453019659441
 20
731.49379462891932
 11
947.93912290351557
 21
738.08838733584014
  0
LINE
  8
_0-e_極細4
  6
CONTINUOUS
 62
    6
 10
941.34453019659441
 20
734.14544505836886
 11
945.56221931301934
 21
738.36313417479369
  0
LINE
  8
_0-e_極細4
  6
CONTINUOUS
 62
    6
 10
941.34453019659441
 20
736.79709548781818
 11
943.18531572252357
 21
738.63788101374712
  0
LINE
  8
_0-e_極細4
  6
CONTINUOUS
 62
    6
 10
1075.6974201965945
 20
601.36621784090187
 11
1120.451670196594
 21
602.46974641505847
  0
LINE
  8
_0-e_極細4
  6
CONTINUOUS
 62
    6
 10
1061.532030196594
 20
666.37005064757716
 11
1120.451670196594
 21
664.91723926726058
  0
LINE
  8
_0-e_極細4
  6
CONTINUOUS
 62
    6
 10
1120.105313355293
 20
600.01147754201952
 11
1120.451670196594
 21
600.35783438332089
  0
LINE
  8
_0-e_極細4
  6
CONTINUOUS
 62
    6
 10
1117.3866268741585
 20
599.94444149033484
 11
1119.8982867381596
 21
602.45610135433583
  0
LINE
  8
_0-e_極細4
  6
CONTINUOUS
 62
    6
 10
1114.6679403930243
 20
599.87740543865016
 11
1117.1796002570254
 21
602.38906530265115
  0
LINE
  8
_0-e_極細4
  6
CONTINUOUS
 62
    6
 10
1111.9492539118896
 20
599.81036938696536
 11
1114.4609137758907
 21
602.32202925096658
  0
LINE
  8
_0-e_極細4
  6
CONTINUOUS
 62
    6
 10
1109.2305674307554
 20
599.74333333528068
 11
1111.7422272947576
 21
602.2549931992819
  0
LINE
  8
_0-e_極細4
  6
CONTINUOUS
 62
    6
 10
1106.5118809496219
 20
599.676297283596
 11
1109.023540813623
 21
602.18795714759744
  0
LINE
  8
_0-e_極細4
  6
CONTINUOUS
 62
    6
 10
1103.7931944684874
 20
599.6092612319112
 11
1106.304854332489
 21
602.12092109591288
  0
LINE
  8
_0-e_極細4
  6
CONTINUOUS
 62
    6
 10
1101.0745079873527
 20
599.54222518022652
 11
1103.5861678513543
 21
602.0538850442282
  0
LINE
  8
_0-e_極細4
  6
CONTINUOUS
 62
    6
 10
1098.3558215062185
 20
599.47518912854184
 11
1100.86748137022
 21
601.98684899254363
  0
LINE
  8
_0-e_極細4
  6
CONTINUOUS
 62
    6
 10
1095.6371350250843
 20
599.40815307685716
 11
1098.1487948890865
 21
601.91981294085906
  0
LINE
  8
_0-e_極細4
  6
CONTINUOUS
 62
    6
 10
1092.9184485439496
 20
599.34111702517248
 11
1095.430108407952
 21
601.85277688917449
  0
LINE
  8
_0-e_極細4
  6
CONTINUOUS
 62
    6
 10
1090.199762062816
 20
599.27408097348757
 11
1092.7114219268178
 21
601.78574083749004
  0
LINE
  8
_0-e_極細4
  6
CONTINUOUS
 62
    6
 10
1087.4810755816816
 20
599.20704492180289
 11
1089.9927354456836
 21
601.71870478580536
  0
LINE
  8
_0-e_極細4
  6
CONTINUOUS
 62
    6
 10
1084.7623891005474
 20
599.14000887011809
 11
1087.27404896455
 21
601.65166873412068
  0
LINE
  8
_0-e_極細4
  6
CONTINUOUS
 62
    6
 10
1082.0437026194127
 20
599.07297281843341
 11
1084.5553624834156
 21
601.58463268243611
  0
LINE
  8
_0-e_極細4
  6
CONTINUOUS
 62
    6
 10
1079.3250161382784
 20
599.00593676674862
 11
1081.8366760022814
 21
601.51759663075154
  0
LINE
  8
_0-e_極細4
  6
CONTINUOUS
 62
    6
 10
1076.6063296571442
 20
598.93890071506382
 11
1079.1179895211476
 21
601.45056057906686
  0
LINE
  8
_0-e_極細4
  6
CONTINUOUS
 62
    6
 10
1073.9337563535314
 20
598.91797784090068
 11
1076.3993030400129
 21
601.38352452738218
  0
LINE
  8
_0-e_極細4
  6
CONTINUOUS
 62
    6
 10
1071.2821059240819
 20
598.91797784090079
 11
1073.7310859240833
 21
601.36695784090216
  0
LINE
  8
_0-e_極細4
  6
CONTINUOUS
 62
    6
 10
1068.6304554946323
 20
598.91797784090079
 11
1071.0794354946338
 21
601.36695784090216
  0
LINE
  8
_0-e_極細4
  6
CONTINUOUS
 62
    6
 10
1065.978805065183
 20
598.91797784090068
 11
1068.4277850651845
 21
601.36695784090216
  0
LINE
  8
_0-e_極細4
  6
CONTINUOUS
 62
    6
 10
1063.3271546357332
 20
598.91797784090079
 11
1065.7761346357347
 21
601.36695784090216
  0
LINE
  8
_0-e_極細4
  6
CONTINUOUS
 62
    6
 10
1060.6755042062837
 20
598.91797784090079
 11
1063.1244842062852
 21
601.36695784090216
  0
LINE
  8
_0-e_極細4
  6
CONTINUOUS
 62
    6
 10
1058.0238537768341
 20
598.91797784090079
 11
1060.4728337768356
 21
601.36695784090227
  0
LINE
  8
_0-e_極細4
  6
CONTINUOUS
 62
    6
 10
1055.3722033473846
 20
598.91797784090079
 11
1057.8211833473861
 21
601.36695784090216
  0
LINE
  8
_0-e_極細4
  6
CONTINUOUS
 62
    6
 10
1052.7205529179353
 20
598.91797784090079
 11
1055.1695329179367
 21
601.36695784090216
  0
LINE
  8
_0-e_極細4
  6
CONTINUOUS
 62
    6
 10
1050.0689024884855
 20
598.91797784090079
 11
1052.517882488487
 21
601.36695784090227
  0
LINE
  8
_0-e_極細4
  6
CONTINUOUS
 62
    6
 10
1047.4172520590359
 20
598.91797784090079
 11
1049.866232059037
 21
601.36695784090216
  0
LINE
  8
_0-e_極細4
  6
CONTINUOUS
 62
    6
 10
1044.7656016295864
 20
598.91797784090079
 11
1047.2145816295874
 21
601.36695784090216
  0
LINE
  8
_0-e_極細4
  6
CONTINUOUS
 62
    6
 10
1042.1139512001369
 20
598.91797784090068
 11
1044.5629312001383
 21
601.36695784090227
  0
LINE
  8
_0-e_極細4
  6
CONTINUOUS
 62
    6
 10
1039.4623007706875
 20
598.91797784090079
 11
1041.911280770689
 21
601.36695784090216
  0
LINE
  8
_0-e_極細4
  6
CONTINUOUS
 62
    6
 10
1036.8106503412375
 20
598.91797784090068
 11
1039.2596303412392
 21
601.36695784090216
  0
LINE
  8
_0-e_極細4
  6
CONTINUOUS
 62
    6
 10
1034.1589999117882
 20
598.91797784090068
 11
1036.6079799117897
 21
601.36695784090216
  0
LINE
  8
_0-e_極細4
  6
CONTINUOUS
 62
    6
 10
1031.5073494823387
 20
598.91797784090079
 11
1033.9563294823402
 21
601.36695784090216
  0
LINE
  8
_0-e_極細4
  6
CONTINUOUS
 62
    6
 10
1028.8556990528891
 20
598.91797784090079
 11
1031.3046790528906
 21
601.36695784090227
  0
LINE
  8
_0-e_極細4
  6
CONTINUOUS
 62
    6
 10
1026.2040486234391
 20
598.91797784090068
 11
1028.6530286234406
 21
601.36695784090216
  0
LINE
  8
_0-e_極細4
  6
CONTINUOUS
 62
    6
 10
1023.5523981939899
 20
598.91797784090079
 11
1026.0013781939915
 21
601.36695784090216
  0
LINE
  8
_0-e_極細4
  6
CONTINUOUS
 62
    6
 10
1020.9007477645406
 20
598.91797784090079
 11
1023.3497277645421
 21
601.36695784090227
  0
LINE
  8
_0-e_極細4
  6
CONTINUOUS
 62
    6
 10
1018.2490973350906
 20
598.91797784090079
 11
1020.6980773350921
 21
601.36695784090227
  0
LINE
  8
_0-e_極細4
  6
CONTINUOUS
 62
    6
 10
1015.597446905641
 20
598.91797784090079
 11
1018.0464269056425
 21
601.36695784090216
  0
LINE
  8
_0-e_極細4
  6
CONTINUOUS
 62
    6
 10
1012.9457964761914
 20
598.91797784090079
 11
1015.3947764761929
 21
601.36695784090227
  0
LINE
  8
_0-e_極細4
  6
CONTINUOUS
 62
    6
 10
1012.4695301965947
 20
601.09336199075301
 11
1012.7431260467438
 21
601.36695784090227
  0
LINE
  8
_0-e_極細4
  6
CONTINUOUS
 62
    6
 10
1118.7614899733899
 20
664.95891489635574
 11
1120.451670196594
 21
666.64909511955989
  0
LINE
  8
_0-e_極細4
  6
CONTINUOUS
 62
    6
 10
1116.1736492424443
 20
665.02272459485971
 11
1118.5644174506801
 21
667.41349280309555
  0
LINE
  8
_0-e_極細4
  6
CONTINUOUS
 62
    6
 10
1113.5858085114987
 20
665.08653429336368
 11
1115.9765767413819
 21
667.47730252324675
  0
LINE
  8
_0-e_極細4
  6
CONTINUOUS
 62
    6
 10
1110.9979677805538
 20
665.15034399186766
 11
1113.3887360320839
 21
667.54111224339795
  0
LINE
  8
_0-e_極細4
  6
CONTINUOUS
 62
    6
 10
1108.410127049608
 20
665.21415369037163
 11
1110.8008953227861
 21
667.60492196354926
  0
LINE
  8
_0-e_極細4
  6
CONTINUOUS
 62
    6
 10
1105.8222863186625
 20
665.27796338887572
 11
1108.2130546134872
 21
667.66873168370068
  0
LINE
  8
_0-e_極細4
  6
CONTINUOUS
 62
    6
 10
1103.2344455877164
 20
665.34177308737969
 11
1105.625213904189
 21
667.73254140385211
  0
LINE
  8
_0-e_極細4
  6
CONTINUOUS
 62
    6
 10
1100.6466048567709
 20
665.40558278588367
 11
1103.0373731948907
 21
667.79635112400331
  0
LINE
  8
_0-e_極細4
  6
CONTINUOUS
 62
    6
 10
1098.058764125826
 20
665.46939248438764
 11
1100.4495324855927
 21
667.86016084415462
  0
LINE
  8
_0-e_極細4
  6
CONTINUOUS
 62
    6
 10
1095.4709233948802
 20
665.53320218289161
 11
1097.8616917762949
 21
667.92397056430605
  0
LINE
  8
_0-e_極細4
  6
CONTINUOUS
 62
    6
 10
1092.8830826639346
 20
665.59701188139559
 11
1095.273851066996
 21
667.98778028445724
  0
LINE
  8
_0-e_極細4
  6
CONTINUOUS
 62
    6
 10
1090.2952419329886
 20
665.66082157989968
 11
1092.6860103576978
 21
668.05159000460867
  0
LINE
  8
_0-e_極細4
  6
CONTINUOUS
 62
    6
 10
1087.7074012020441
 20
665.72463127840376
 11
1090.0981696483996
 21
668.11539972475987
  0
LINE
  8
_0-e_極細4
  6
CONTINUOUS
 62
    6
 10
1085.1195604710981
 20
665.78844097690774
 11
1087.5103289391016
 21
668.17920944491118
  0
LINE
  8
_0-e_極細4
  6
CONTINUOUS
 62
    6
 10
1082.5317197401523
 20
665.85225067541171
 11
1084.9224882298038
 21
668.24301916506261
  0
LINE
  8
_0-e_極細4
  6
CONTINUOUS
 62
    6
 10
1079.9438790092067
 20
665.91606037391568
 11
1082.3346475205049
 21
668.3068288852138
  0
LINE
  8
_0-e_極細4
  6
CONTINUOUS
 62
    6
 10
1077.3560382782612
 20
665.97987007241977
 11
1079.7468068112066
 21
668.37063860536523
  0
LINE
  8
_0-e_極細4
  6
CONTINUOUS
 62
    6
 10
1074.7681975473156
 20
666.04367977092363
 11
1077.1589661019084
 21
668.43444832551643
  0
LINE
  8
_0-e_極細4
  6
CONTINUOUS
 62
    6
 10
1072.1803568163702
 20
666.10748946942772
 11
1075.594530196594
 21
669.52166284965176
  0
LINE
  8
_0-e_極細4
  6
CONTINUOUS
 62
    6
 10
1069.5925160854244
 20
666.17129916793169
 11
1075.594530196594
 21
672.17331327910131
  0
LINE
  8
_0-e_極細4
  6
CONTINUOUS
 62
    6
 10
1067.0046753544789
 20
666.23510886643589
 11
1075.594530196594
 21
674.82496370855085
  0
LINE
  8
_0-e_極細4
  6
CONTINUOUS
 62
    6
 10
1064.4168346235338
 20
666.29891856493987
 11
1075.594530196594
 21
677.47661413800051
  0
LINE
  8
_0-e_極細4
  6
CONTINUOUS
 62
    6
 10
1061.8289938925877
 20
666.36272826344384
 11
1075.594530196594
 21
680.12826456745006
  0
LINE
  8
_0-e_極細4
  6
CONTINUOUS
 62
    6
 10
1061.532030196594
 20
668.71741499689949
 11
1075.594530196594
 21
682.77991499689949
  0
LINE
  8
_0-e_極細4
  6
CONTINUOUS
 62
    6
 10
1061.532030196594
 20
671.36906542634904
 11
1069.1753645346776
 21
679.01239976443219
  0
LINE
  8
_0-e_極細4
  6
CONTINUOUS
 62
    6
 10
1072.4695301965946
 20
682.30656542634938
 11
1075.594530196594
 21
685.43156542634938
  0
LINE
  8
_0-e_極細4
  6
CONTINUOUS
 62
    6
 10
1061.532030196594
 20
674.02071585579858
 11
1066.5237141052276
 21
679.01239976443219
  0
LINE
  8
_0-e_極細4
  6
CONTINUOUS
 62
    6
 10
1072.4695301965946
 20
684.95821585579893
 11
1075.594530196594
 21
688.08321585579858
  0
LINE
  8
_0-e_極細4
  6
CONTINUOUS
 62
    6
 10
1061.532030196594
 20
676.67236628524824
 11
1063.8720636757782
 21
679.01239976443219
  0
LINE
  8
_0-e_極細4
  6
CONTINUOUS
 62
    6
 10
1072.4695301965946
 20
687.60986628524836
 11
1075.594530196594
 21
690.73486628524824
  0
LINE
  8
_0-e_極細4
  6
CONTINUOUS
 62
    6
 10
1072.4695301965946
 20
690.26151671469825
 11
1075.594530196594
 21
693.38651671469779
  0
LINE
  8
_0-e_極細4
  6
CONTINUOUS
 62
    6
 10
1072.4695301965946
 20
692.91316714414745
 11
1075.594530196594
 21
696.03816714414722
  0
LINE
  8
_0-e_極細4
  6
CONTINUOUS
 62
    6
 10
1072.4695301965946
 20
695.56481757359711
 11
1075.594530196594
 21
698.68981757359711
  0
LINE
  8
_0-e_極細4
  6
CONTINUOUS
 62
    6
 10
1072.4695301965946
 20
698.21646800304666
 11
1075.594530196594
 21
701.34146800304643
  0
LINE
  8
_0-e_極細4
  6
CONTINUOUS
 62
    6
 10
1072.4695301965946
 20
700.86811843249609
 11
1075.594530196594
 21
703.99311843249598
  0
LINE
  8
_0-e_極細4
  6
CONTINUOUS
 62
    6
 10
1072.4695301965946
 20
703.51976886194598
 11
1073.8411658227078
 21
704.89140448805915
  0
LINE
  8
_0-e_極細4
  6
CONTINUOUS
 62
    6
 10
1073.8411658227078
 20
704.89140448805915
 11
1075.6399595895609
 21
706.69019825491227
  0
LINE
  8
_0-e_極細4
  6
CONTINUOUS
 62
    6
 10
1072.4695301965946
 20
706.1714192913953
 11
1078.719530196594
 21
712.4214192913953
  0
LINE
  8
_0-e_極細4
  6
CONTINUOUS
 62
    6
 10
1072.4695301965946
 20
708.82306972084496
 11
1078.719530196594
 21
715.07306972084484
  0
LINE
  8
_0-e_極細4
  6
CONTINUOUS
 62
    6
 10
1072.4695301965946
 20
711.4747201502945
 11
1078.719530196594
 21
717.72472015029439
  0
LINE
  8
_0-e_極細4
  6
CONTINUOUS
 62
    6
 10
1082.3454678872022
 20
721.35065784090261
 11
1083.5945301965949
 21
722.5997201502945
  0
LINE
  8
_0-e_極細4
  6
CONTINUOUS
 62
    6
 10
1073.321206747386
 20
714.97804713053529
 11
1078.719530196594
 21
720.37637057974382
  0
LINE
  8
_0-e_極細4
  6
CONTINUOUS
 62
    6
 10
1079.6938174577529
 20
721.35065784090239
 11
1083.5945301965949
 21
725.25137057974405
  0
LINE
  8
_0-e_極細4
  6
CONTINUOUS
 62
    6
 10
1073.0945301965946
 20
717.40302100919371
 11
1083.5945301965949
 21
727.90302100919371
  0
LINE
  8
_0-e_極細4
  6
CONTINUOUS
 62
    6
 10
1074.9432801965945
 20
721.90342143864302
 11
1083.5945301965949
 21
730.55467143864337
  0
LINE
  8
_0-e_極細4
  6
CONTINUOUS
 62
    6
 10
1074.9432801965945
 20
724.55507186809291
 11
1083.5945301965949
 21
733.2063218680928
  0
LINE
  8
_0-e_極細4
  6
CONTINUOUS
 62
    6
 10
1074.9432801965945
 20
727.20672229754223
 11
1083.5945301965949
 21
735.85797229754223
  0
LINE
  8
_0-e_極細4
  6
CONTINUOUS
 62
    6
 10
1074.9432801965945
 20
729.85837272699177
 11
1083.5945301965949
 21
738.50962272699178
  0
LINE
  8
_0-e_極細4
  6
CONTINUOUS
 62
    6
 10
1074.9432801965945
 20
732.51002315644143
 11
1080.9819230084149
 21
738.5486659682623
  0
LINE
  8
_0-e_極細4
  6
CONTINUOUS
 62
    6
 10
1074.9432801965945
 20
735.16167358589075
 11
1077.9837082359568
 21
738.20210162525302
  0
LINE
  8
_0-e_極細4
  6
CONTINUOUS
 62
    6
 10
1074.9432801965945
 20
737.8133240153403
 11
1074.985493463498
 21
737.85553728224374
  0
LINE
  8
_0-0_計極細
  6
CENTER1
 62
    2
 10
479.81800995532137
 20
316.05007499176111
 11
598.00844407776287
 21
316.05007499176111
  0
ARC
  8
_0-1_計細線
  6
CONTINUOUS
 62
    3
 10
448.7608691139863
 20
376.11403899176219
 40
4.8979599999999994
 50
0
 51
59.999999999998458
  0
LINE
  8
_0-0_計極細
  6
CONTINUOUS
 62
    2
 10
530.12822111398737
 20
381.76477571176554
 11
553.10722111398718
 21
381.76477571176554
  0
LINE
  8
_0-0_計極細
  6
CONTINUOUS
 62
    2
 10
541.37822111398737
 20
376.56477571176549
 11
530.12822111398737
 21
376.56477571176549
  0
LINE
  8
_0-0_計極細
  6
CONTINUOUS
 62
    2
 10
530.12822111398737
 20
381.46911171176555
 11
530.12822111398737
 21
382.94686471176556
  0
LINE
  8
_0-0_計極細
  6
CONTINUOUS
 62
    2
 10
530.12822111398737
 20
382.56477571176555
 11
551.62822111398737
 21
382.56477571176555
  0
LINE
  8
_0-0_計極細
  6
CONTINUOUS
 62
    2
 10
546.62822111398737
 20
396.07261871176559
 11
546.62822111398737
 21
396.97183971176548
  0
LINE
  8
_0-0_計極細
  6
CONTINUOUS
 62
    2
 10
546.62822111398737
 20
389.97261871176545
 11
546.62822111398737
 21
391.47261871176545
  0
LINE
  8
_0-0_計極細
  6
CONTINUOUS
 62
    2
 10
542.87822111398737
 20
394.3779497117655
 11
542.87822111398737
 21
393.07794971176554
  0
LINE
  8
_0-0_計極細
  6
CONTINUOUS
 62
    2
 10
542.87822111398737
 20
392.07794971176554
 11
542.87822111398737
 21
391.57794971176554
  0
LINE
  8
_0-0_計極細
  6
CONTINUOUS
 62
    2
 10
546.47822111398727
 20
394.3779497117655
 11
546.47822111398727
 21
391.57794971176554
  0
LINE
  8
_0-0_計極細
  6
CONTINUOUS
 62
    2
 10
542.37822111398737
 20
394.87794971176555
 11
542.87822111398737
 21
395.3779497117655
  0
LINE
  8
_0-0_計極細
  6
CONTINUOUS
 62
    2
 10
542.87822111398737
 20
394.3779497117655
 11
542.37822111398737
 21
394.87794971176555
  0
LINE
  8
_0-0_計極細
  6
CONTINUOUS
 62
    2
 10
542.87822111398737
 20
392.07794971176554
 11
542.37822111398737
 21
392.5779497117656
  0
LINE
  8
_0-0_計極細
  6
CONTINUOUS
 62
    2
 10
542.37822111398737
 20
392.5779497117656
 11
542.87822111398737
 21
393.07794971176554
  0
LINE
  8
_0-0_計極細
  6
CONTINUOUS
 62
    2
 10
546.47822111398727
 20
394.3779497117655
 11
547.27822111398746
 21
395.8779497117655
  0
LINE
  8
_0-0_計極細
  6
CONTINUOUS
 62
    2
 10
542.87822111398737
 20
395.8779497117655
 11
542.87822111398737
 21
395.3779497117655
  0
ARC
  8
_0-0_計極細
  6
CONTINUOUS
 62
    2
 10
549.07822111398718
 20
401.97183971176548
 40
0.5
 50
24.05454900000543
 51
89.999999999999901
  0
ARC
  8
_0-0_計極細
  6
CONTINUOUS
 62
    2
 10
549.37822111398737
 20
400.67183971176553
 40
0.1999999999999886
 50
269.99999999999977
 51
359.99999999999966
  0
ARC
  8
_0-0_計極細
  6
CONTINUOUS
 62
    2
 10
549.07822111398718
 20
401.97183971176548
 40
0.5
 50
0
 51
24.05454900000543
  0
ARC
  8
_0-0_計極細
  6
CONTINUOUS
 62
    2
 10
546.92822111398709
 20
397.47183971176554
 40
0.5
 50
269.99999999999977
 51
359.99999999999966
  0
LINE
  8
_0-0_計極細
  6
CONTINUOUS
 62
    2
 10
546.32822111398718
 20
396.97183971176548
 11
546.32822111398718
 21
397.97183971176548
  0
LINE
  8
_0-0_計極細
  6
CONTINUOUS
 62
    2
 10
547.42822111398709
 20
397.47183971176554
 11
547.42822111398755
 21
400.47183971176548
  0
LINE
  8
_0-0_計極細
  6
CONTINUOUS
 62
    2
 10
547.42822111398755
 20
400.47183971176548
 11
549.37822111398737
 21
400.47183971176548
  0
LINE
  8
_0-0_計極細
  6
CONTINUOUS
 62
    2
 10
549.57822111398718
 20
400.67183971176553
 11
549.57822111398718
 21
401.97183971176548
  0
LINE
  8
_0-0_計極細
  6
CONTINUOUS
 62
    2
 10
534.41453411398743
 20
383.77183971176555
 11
534.41453411398743
 21
385.47183971176548
  0
LINE
  8
_0-0_計極細
  6
CONTINUOUS
 62
    2
 10
537.91453411398743
 20
383.77183971176555
 11
537.91453411398743
 21
385.47183971176548
  0
LINE
  8
_0-0_計極細
  6
CONTINUOUS
 62
    2
 10
532.91453411398743
 20
383.77183971176555
 11
532.91453411398743
 21
385.47183971176548
  0
LINE
  8
_0-0_計極細
  6
CONTINUOUS
 62
    2
 10
532.91453411398743
 20
383.77183971176555
 11
537.91453411398743
 21
383.77183971176555
  0
LINE
  8
_0-0_計極細
  6
CONTINUOUS
 62
    2
 10
546.12822111398737
 20
385.47183971176548
 11
551.62822111398737
 21
385.47183971176548
  0
LINE
  8
_0-0_計極細
  6
CONTINUOUS
 62
    2
 10
545.29803711398745
 20
383.47183971176548
 11
546.12822111398737
 21
383.47183971176548
  0
LINE
  8
_0-0_計極細
  6
CONTINUOUS
 62
    2
 10
546.12822111398737
 20
388.17183971176553
 11
547.42822111398709
 21
388.17183971176553
  0
LINE
  8
_0-0_計極細
  6
CONTINUOUS
 62
    2
 10
546.12822111398737
 20
387.47183971176554
 11
548.12822111398737
 21
387.47183971176554
  0
LINE
  8
_0-0_計極細
  6
CONTINUOUS
 62
    2
 10
546.12822111398737
 20
383.47183971176548
 11
546.12822111398737
 21
389.47183971176548
  0
LINE
  8
_0-0_計極細
  6
CONTINUOUS
 62
    2
 10
553.10722111398718
 20
386.95083971176558
 11
551.62822111398737
 21
385.47183971176548
  0
LINE
  8
_0-0_計極細
  6
CONTINUOUS
 62
    2
 10
548.12822111398737
 20
387.47183971176554
 11
548.12822111398737
 21
398.72183971176554
  0
ARC
  8
_0-0_計極細
  6
CONTINUOUS
 62
    2
 10
549.17822111398709
 20
398.72183971176554
 40
1.0500000000000114
 50
89.999999999999915
 51
179.99999999999983
  0
LINE
  8
_0-0_計極細
  6
CONTINUOUS
 62
    2
 10
550.36944511398724
 20
399.77183971176555
 11
549.17822111398709
 21
399.77183971176555
  0
ARC
  8
_0-0_計極細
  6
CONTINUOUS
 62
    2
 10
550.36944511398724
 20
401.47183971176554
 40
1.6999999999999886
 50
269.99999999999977
 51
356.64911199999864
  0
ARC
  8
_0-0_計極細
  6
CONTINUOUS
 62
    2
 10
550.36944511398724
 20
401.47183971176554
 40
1
 50
269.99999999999977
 51
356.64911200000284
  0
ARC
  8
_0-0_計極細
  6
CONTINUOUS
 62
    2
 10
553.10722111398718
 20
401.22183971176554
 40
1.7500000000000002
 50
89.999999999999915
 51
175.84900999999849
  0
ARC
  8
_0-0_計極細
  6
CONTINUOUS
 62
    2
 10
549.17822111398709
 20
398.72183971176554
 40
1.7500000000000002
 50
89.999999999999915
 51
179.99999999999983
  0
LINE
  8
_0-0_計極細
  6
CONTINUOUS
 62
    2
 10
549.62822111398737
 20
400.47183971176548
 11
549.62822111398737
 21
402.97183971176548
  0
LINE
  8
_0-0_計極細
  6
CONTINUOUS
 62
    2
 10
547.42822111398709
 20
388.17183971176553
 11
547.42822111398709
 21
398.72183971176554
  0
LINE
  8
_0-0_計極細
  6
CONTINUOUS
 62
    2
 10
550.36944511398724
 20
400.47183971176548
 11
549.17822111398709
 21
400.47183971176548
  0
LINE
  8
_0-0_計極細
  6
CONTINUOUS
 62
    2
 10
543.37822111398737
 20
389.47183971176548
 11
547.42822111398709
 21
389.47183971176548
  0
ARC
  8
_0-0_計極細
  6
CONTINUOUS
 62
    2
 10
541.37822111398737
 20
375.56477571176549
 40
1
 50
89.999999999999915
 51
179.99999999999983
  0
ARC
  8
_0-0_計極細
  6
CONTINUOUS
 62
    2
 10
541.37822111398737
 20
375.56477571176549
 40
1
 50
0
 51
89.999999999999915
  0
LINE
  8
_0-0_計極細
  6
CONTINUOUS
 62
    2
 10
553.10722111398718
 20
381.76477571176554
 11
551.62822111398737
 21
382.56477571176555
  0
LINE
  8
_0-0_計極細
  6
CONTINUOUS
 62
    2
 10
551.62822111398737
 20
382.56477571176555
 11
551.62822111398737
 21
385.47183971176548
  0
LINE
  8
_0-0_計極細
  6
CONTINUOUS
 62
    2
 10
553.10722111398718
 20
386.95083971176558
 11
553.10722111398718
 21
402.27183971176555
  0
ARC
  8
_0-0_計極細
  6
CONTINUOUS
 62
    2
 10
553.10722111398718
 20
401.22183971176554
 40
1.0500000000000114
 50
89.999999999999915
 51
175.84900999999832
  0
LINE
  8
_0-0_計極細
  6
CONTINUOUS
 62
    2
 10
543.62822111398737
 20
382.57261871176559
 11
540.62822111398737
 21
382.57261871176559
  0
ARC
  8
_0-0_計極細
  6
CONTINUOUS
 62
    2
 10
543.62822111398737
 20
384.57261871176564
 40
2
 50
269.99999999999977
 51
359.99999999999966
  0
LINE
  8
_0-0_計極細
  6
CONTINUOUS
 62
    2
 10
545.62822111398737
 20
384.57261871176564
 11
545.62822111398737
 21
385.57261871176564
  0
LINE
  8
_0-0_計極細
  6
CONTINUOUS
 62
    2
 10
545.62822111398737
 20
385.57261871176564
 11
543.37822111398737
 21
385.57261871176564
  0
LINE
  8
_0-0_計極細
  6
CONTINUOUS
 62
    2
 10
546.62822111398737
 20
389.97261871176545
 11
543.37822111398737
 21
389.97261871176545
  0
LINE
  8
_0-0_計極細
  6
CONTINUOUS
 62
    2
 10
543.37822111398737
 20
385.57261871176564
 11
543.37822111398737
 21
389.97261871176562
  0
LINE
  8
_0-1_計細線
  6
CONTINUOUS
 62
    3
 10
461.65882911398654
 20
287.76475899176182
 11
554.65882911398649
 21
287.76475899176182
  0
LINE
  8
_0-1_計細線
  6
CONTINUOUS
 62
    3
 10
453.65882911398649
 20
295.76475899176182
 11
453.65882911398649
 21
376.11403899176219
  0
ARC
  8
_0-1_計細線
  6
CONTINUOUS
 62
    3
 10
461.65882911398654
 20
295.76475899176182
 40
8
 50
179.99999999999983
 51
269.99999999999977
  0
ARC
  8
_0-0_計極細
  6
CONTINUOUS
 62
    2
 10
530.37822111398737
 20
318.2647589917616
 40
10
 50
269.99999999999977
 51
359.99999999999966
  0
LINE
  8
_0-0_計極細
  6
CONTINUOUS
 62
    2
 10
540.37822111398737
 20
318.2647589917616
 11
540.37822111398737
 21
375.56477571176549
  0
LINE
  8
_0-0_計極細
  6
CONTINUOUS
 62
    2
 10
542.37822111398737
 20
318.2647589917616
 11
542.37822111398737
 21
375.56477571176549
  0
ARC
  8
_0-0_計極細
  6
CONTINUOUS
 62
    2
 10
530.37822111398737
 20
318.2647589917616
 40
12.000000000000002
 50
269.99999999999977
 51
359.99999999999966
  0
LINE
  8
_0-0_計極細
  6
CONTINUOUS
 62
    2
 10
542.37822111398737
 20
318.2647589917616
 11
542.37822111398737
 21
345.2647589917616
  0
ARC
  8
_0-0_計極細
  6
CONTINUOUS
 62
    2
 10
529.12822111398737
 20
324.47260199176151
 40
1
 50
269.99954163376469
 51
359.99999999999966
  0
LINE
  8
_0-0_計極細
  6
CONTINUOUS
 62
    2
 10
530.12822111398737
 20
324.47260199176151
 11
530.12822111398737
 21
382.94686471176556
  0
LINE
  8
_0-0_計極細
  6
CONTINUOUS
 62
    2
 10
542.45210511398727
 20
343.55119026722411
 11
542.45210511398727
 21
350.13244971176516
  0
ARC
  8
_0-0_計極細
  6
CONTINUOUS
 62
    2
 10
545.45210511398727
 20
350.13244971176516
 40
3.0000000000000004
 50
89.999999999999915
 51
179.99999999999983
  0
ARC
  8
_0-1_計細線
  6
CONTINUOUS
 62
    3
 10
559.55678942014833
 20
376.11403899176219
 40
4.8979599999999994
 50
120.00000000000155
 51
179.99999999999983
  0
LINE
  8
_0-1_計細線
  6
CONTINUOUS
 62
    3
 10
557.10780542014777
 20
380.35579899176122
 11
557.10780542014777
 21
397.56477571176572
  0
LINE
  8
_0-1_計細線
  6
CONTINUOUS
 62
    3
 10
554.65882942014809
 20
345.20997803639159
 11
554.65882942014809
 21
376.11403899176219
  0
LINE
  8
_0-1_計細線
  6
CONTINUOUS
 62
    3
 10
447.15882911398649
 20
397.56477571176572
 11
447.15882911398649
 21
404.26475899176182
  0
LINE
  8
_0-1_計細線
  6
CONTINUOUS
 62
    3
 10
447.15882911398649
 20
404.26475899176182
 11
503.12822111398737
 21
404.26475899176182
  0
LINE
  8
_0-1_計細線
  6
CONTINUOUS
 62
    3
 10
503.12822111398737
 20
404.26475899176182
 11
561.15882911398649
 21
404.26475899176182
  0
LINE
  8
_0-1_計細線
  6
CONTINUOUS
 62
    3
 10
561.15882911398649
 20
397.56477571176572
 11
561.15882911398649
 21
404.26475899176182
  0
LINE
  8
_0-1_計細線
  6
CONTINUOUS
 62
    3
 10
557.10780542014777
 20
397.56477571176572
 11
561.15882911398649
 21
397.56477571176572
  0
LINE
  8
_0-0_計極細
  6
CONTINUOUS
 62
    2
 10
553.10722111398718
 20
402.97183971176548
 11
561.15882911398649
 21
404.11862905801229
  0
LINE
  8
_0-0_計極細
  6
CONTINUOUS
 62
    2
 10
553.10722111398718
 20
402.26477516551461
 11
561.15882911398649
 21
403.41156513018058
  0
LINE
  8
_0-0_計極細
  6
CONTINUOUS
 62
    2
 10
561.15882911398649
 20
401.69546295349346
 11
553.10722111398718
 21
400.76477571176554
  0
LINE
  8
_0-0_計極細
  6
CONTINUOUS
 62
    2
 10
504.15882911398654
 20
403.26475899176188
 11
555.16380773388755
 21
403.26475899176188
  0
LINE
  8
_0-0_計極細
  6
CONTINUOUS
 62
    2
 10
504.15882911398654
 20
402.97183971176565
 11
553.10722111398718
 21
402.97183971176548
  0
LINE
  8
_0-0_計極細
  6
CONTINUOUS
 62
    2
 10
504.15882911398654
 20
402.4718397117656
 11
549.07822111398718
 21
402.47183971176554
  0
LINE
  8
_0-0_計極細
  6
CONTINUOUS
 62
    2
 10
504.15882911398654
 20
397.97183971176565
 11
546.32822111398718
 21
397.97183971176548
  0
LINE
  8
_0-0_計極細
  6
CONTINUOUS
 62
    2
 10
504.15882911398654
 20
396.97183971176565
 11
546.92822111398709
 21
396.97183971176548
  0
LINE
  8
_0-0_計極細
  6
CONTINUOUS
 62
    2
 10
504.15882911398654
 20
395.87794971176561
 11
547.27822111398746
 21
395.8779497117655
  0
LINE
  8
_0-0_計極細
  6
CONTINUOUS
 62
    2
 10
546.62822111398737
 20
396.07261871176559
 11
504.15882911398654
 21
396.07261871176559
  0
LINE
  8
_0-0_計極細
  6
CONTINUOUS
 62
    2
 10
504.15882911398654
 20
391.57794971176554
 11
546.47822111398727
 21
391.57794971176554
  0
LINE
  8
_0-0_計極細
  6
CONTINUOUS
 62
    2
 10
546.62822111398737
 20
391.47261871176545
 11
504.15882911398654
 21
391.47261871176562
  0
LINE
  8
_0-0_計極細
  6
CONTINUOUS
 62
    2
 10
543.37822111398737
 20
389.97261871176562
 11
504.15882911398654
 21
389.97261871176562
  0
LINE
  8
_0-0_計極細
  6
CONTINUOUS
 62
    2
 10
529.12822111398737
 20
323.47260199176156
 11
504.15882911398654
 21
323.47260199176156
  0
LINE
  8
_0-0_計極細
  6
CONTINUOUS
 62
    2
 10
504.15882911398654
 20
308.2647589917616
 11
530.37822111398737
 21
308.2647589917616
  0
LINE
  8
_0-0_計極細
  6
CONTINUOUS
 62
    2
 10
504.15882911398654
 20
306.2647589917616
 11
530.37822111398737
 21
306.2647589917616
  0
LINE
  8
_0-1_計細線
  6
CONTINUOUS
 62
    3
 10
554.65882911398649
 20
287.76475899176182
 11
591.15882911398649
 21
289.33539099176039
  0
LINE
  8
_0-1_計細線
  6
CONTINUOUS
 62
    3
 10
591.15882911398649
 20
289.33539099176039
 11
591.15882911398649
 21
344.33539099176039
  0
LINE
  8
_0-0_計極細
  6
CONTINUOUS
 62
    2
 10
552.98660737882028
 20
289.72475899176186
 11
591.15882911398671
 21
291.29731169576041
  0
LINE
  8
_0-0_計極細
  6
CONTINUOUS
 62
    2
 10
542.45210511398727
 20
343.55119026722411
 11
591.15882911398626
 21
342.37561614806634
  0
LINE
  8
_0-1_計細線
  6
CONTINUOUS
 62
    3
 10
554.65882942014809
 20
345.20997803639159
 11
591.15882911398649
 21
344.33539099176039
  0
LINE
  8
_0-0_計極細
  6
CONTINUOUS
 62
    2
 10
542.87822111398737
 20
391.59601540714704
 11
546.47822111398727
 21
391.59601540714704
  0
LINE
  8
_0-0_計極細
  6
CONTINUOUS
 62
    2
 10
542.87822111398737
 20
393.09601540714704
 11
546.47822111398727
 21
393.09601540714704
  0
LINE
  8
_0-0_計極細
  6
CONTINUOUS
 62
    2
 10
542.66015541860588
 20
394.59601540714698
 11
546.59452281819085
 21
394.59601540714698
  0
ARC
  8
_0-0_計極細
  6
CONTINUOUS
 62
    2
 10
536.12822111398737
 20
382.94686471176556
 40
6.0000000000000009
 50
155.11305268293034
 51
179.99999999999983
  0
ARC
  8
_0-0_計極細
  6
CONTINUOUS
 62
    2
 10
536.12822111398737
 20
382.94686471176556
 40
6.0000000000000009
 50
55.166292356155942
 51
155.11305268293034
  0
LINE
  8
_0-0_計極細
  6
CONTINUOUS
 62
    2
 10
540.62822111398737
 20
382.57261871176559
 11
540.62822111398737
 21
385.47183971176548
  0
LINE
  8
_0-0_計極細
  6
CONTINUOUS
 62
    2
 10
530.68538166666076
 20
385.47183971176548
 11
540.6265279016859
 21
385.47183971176548
  0
ARC
  8
_0-0_計極細
  6
CONTINUOUS
 62
    2
 10
537.62822111398737
 20
385.57261871176564
 40
3.0000000000000004
 50
358.0749006872033
 51
50.029499419963869
  0
LINE
  8
_0-0_計極細
  6
CONTINUOUS
 62
    2
 10
478.1894371139856
 20
381.76477571176554
 11
455.21043711398585
 21
381.76477571176554
  0
LINE
  8
_0-0_計極細
  6
CONTINUOUS
 62
    2
 10
466.9394371139856
 20
376.56477571176549
 11
478.1894371139856
 21
376.56477571176549
  0
LINE
  8
_0-0_計極細
  6
CONTINUOUS
 62
    2
 10
478.1894371139856
 20
381.46911171176555
 11
478.1894371139856
 21
382.94686471176556
  0
LINE
  8
_0-0_計極細
  6
CONTINUOUS
 62
    2
 10
478.1894371139856
 20
382.56477571176555
 11
456.6894371139856
 21
382.56477571176555
  0
LINE
  8
_0-0_計極細
  6
CONTINUOUS
 62
    2
 10
461.6894371139856
 20
396.07261871176559
 11
461.6894371139856
 21
396.97183971176548
  0
LINE
  8
_0-0_計極細
  6
CONTINUOUS
 62
    2
 10
461.6894371139856
 20
389.97261871176545
 11
461.6894371139856
 21
391.47261871176545
  0
LINE
  8
_0-0_計極細
  6
CONTINUOUS
 62
    2
 10
465.4394371139856
 20
394.3779497117655
 11
465.4394371139856
 21
393.07794971176554
  0
LINE
  8
_0-0_計極細
  6
CONTINUOUS
 62
    2
 10
465.4394371139856
 20
392.07794971176554
 11
465.4394371139856
 21
391.57794971176554
  0
LINE
  8
_0-0_計極細
  6
CONTINUOUS
 62
    2
 10
461.8394371139857
 20
394.3779497117655
 11
461.8394371139857
 21
391.57794971176554
  0
LINE
  8
_0-0_計極細
  6
CONTINUOUS
 62
    2
 10
465.93943711398566
 20
394.87794971176555
 11
465.4394371139856
 21
395.3779497117655
  0
LINE
  8
_0-0_計極細
  6
CONTINUOUS
 62
    2
 10
465.4394371139856
 20
394.3779497117655
 11
465.93943711398566
 21
394.87794971176555
  0
LINE
  8
_0-0_計極細
  6
CONTINUOUS
 62
    2
 10
465.4394371139856
 20
392.07794971176554
 11
465.93943711398566
 21
392.5779497117656
  0
LINE
  8
_0-0_計極細
  6
CONTINUOUS
 62
    2
 10
465.93943711398566
 20
392.5779497117656
 11
465.4394371139856
 21
393.07794971176554
  0
LINE
  8
_0-0_計極細
  6
CONTINUOUS
 62
    2
 10
461.8394371139857
 20
394.3779497117655
 11
461.03943711398557
 21
395.8779497117655
  0
LINE
  8
_0-0_計極細
  6
CONTINUOUS
 62
    2
 10
465.4394371139856
 20
395.8779497117655
 11
465.4394371139856
 21
395.3779497117655
  0
ARC
  8
_0-0_計極細
  6
CONTINUOUS
 62
    2
 10
459.23943711398579
 20
401.97183971176548
 40
0.5
 50
89.999999999999915
 51
155.94545099999456
  0
ARC
  8
_0-0_計極細
  6
CONTINUOUS
 62
    2
 10
458.9394371139856
 20
400.67183971176553
 40
0.1999999999999886
 50
179.99999999999983
 51
269.99999999999977
  0
ARC
  8
_0-0_計極細
  6
CONTINUOUS
 62
    2
 10
459.23943711398579
 20
401.97183971176548
 40
0.5
 50
155.94545099999456
 51
179.99999999999983
  0
ARC
  8
_0-0_計極細
  6
CONTINUOUS
 62
    2
 10
461.38943711398588
 20
397.47183971176554
 40
0.5
 50
179.99999999999983
 51
269.99999999999977
  0
LINE
  8
_0-0_計極細
  6
CONTINUOUS
 62
    2
 10
461.98943711398584
 20
396.97183971176548
 11
461.98943711398584
 21
397.97183971176548
  0
LINE
  8
_0-0_計極細
  6
CONTINUOUS
 62
    2
 10
460.88943711398593
 20
397.47183971176554
 11
460.88943711398542
 21
400.47183971176548
  0
LINE
  8
_0-0_計極細
  6
CONTINUOUS
 62
    2
 10
460.88943711398542
 20
400.47183971176548
 11
458.9394371139856
 21
400.47183971176548
  0
LINE
  8
_0-0_計極細
  6
CONTINUOUS
 62
    2
 10
458.73943711398579
 20
400.67183971176553
 11
458.73943711398579
 21
401.97183971176548
  0
LINE
  8
_0-0_計極細
  6
CONTINUOUS
 62
    2
 10
473.90312411398554
 20
383.77183971176555
 11
473.90312411398554
 21
385.47183971176548
  0
LINE
  8
_0-0_計極細
  6
CONTINUOUS
 62
    2
 10
470.4031241139856
 20
383.77183971176555
 11
470.4031241139856
 21
385.47183971176548
  0
LINE
  8
_0-0_計極細
  6
CONTINUOUS
 62
    2
 10
475.4031241139856
 20
383.77183971176555
 11
475.4031241139856
 21
385.47183971176548
  0
LINE
  8
_0-0_計極細
  6
CONTINUOUS
 62
    2
 10
475.4031241139856
 20
383.77183971176555
 11
470.4031241139856
 21
383.77183971176555
  0
LINE
  8
_0-0_計極細
  6
CONTINUOUS
 62
    2
 10
462.18943711398566
 20
385.47183971176548
 11
456.6894371139856
 21
385.47183971176548
  0
LINE
  8
_0-0_計極細
  6
CONTINUOUS
 62
    2
 10
463.01962111398552
 20
383.47183971176548
 11
462.18943711398566
 21
383.47183971176548
  0
LINE
  8
_0-0_計極細
  6
CONTINUOUS
 62
    2
 10
462.18943711398566
 20
388.17183971176553
 11
460.88943711398593
 21
388.17183971176553
  0
LINE
  8
_0-0_計極細
  6
CONTINUOUS
 62
    2
 10
462.18943711398566
 20
387.47183971176554
 11
460.1894371139856
 21
387.47183971176554
  0
LINE
  8
_0-0_計極細
  6
CONTINUOUS
 62
    2
 10
462.18943711398566
 20
383.47183971176548
 11
462.18943711398566
 21
389.47183971176548
  0
LINE
  8
_0-0_計極細
  6
CONTINUOUS
 62
    2
 10
455.21043711398585
 20
386.95083971176558
 11
456.6894371139856
 21
385.47183971176548
  0
LINE
  8
_0-0_計極細
  6
CONTINUOUS
 62
    2
 10
460.1894371139856
 20
387.47183971176554
 11
460.1894371139856
 21
398.72183971176554
  0
ARC
  8
_0-0_計極細
  6
CONTINUOUS
 62
    2
 10
459.13943711398588
 20
398.72183971176554
 40
1.0500000000000114
 50
0
 51
89.999999999999915
  0
LINE
  8
_0-0_計極細
  6
CONTINUOUS
 62
    2
 10
457.94821311398579
 20
399.77183971176555
 11
459.13943711398588
 21
399.77183971176555
  0
ARC
  8
_0-0_計極細
  6
CONTINUOUS
 62
    2
 10
457.94821311398579
 20
401.47183971176554
 40
1.6999999999999886
 50
183.35088800000065
 51
269.99999999999977
  0
ARC
  8
_0-0_計極細
  6
CONTINUOUS
 62
    2
 10
457.94821311398579
 20
401.47183971176554
 40
1
 50
183.35088799999644
 51
269.99999999999977
  0
ARC
  8
_0-0_計極細
  6
CONTINUOUS
 62
    2
 10
455.21043711398585
 20
401.22183971176554
 40
1.7500000000000002
 50
4.1509900000015376
 51
89.999999999999915
  0
ARC
  8
_0-0_計極細
  6
CONTINUOUS
 62
    2
 10
459.13943711398588
 20
398.72183971176554
 40
1.7500000000000002
 50
0
 51
89.999999999999915
  0
LINE
  8
_0-0_計極細
  6
CONTINUOUS
 62
    2
 10
458.68943711398566
 20
400.47183971176548
 11
458.68943711398566
 21
402.97183971176548
  0
LINE
  8
_0-0_計極細
  6
CONTINUOUS
 62
    2
 10
460.88943711398593
 20
388.17183971176553
 11
460.88943711398593
 21
398.72183971176554
  0
LINE
  8
_0-0_計極細
  6
CONTINUOUS
 62
    2
 10
457.94821311398579
 20
400.47183971176548
 11
459.13943711398588
 21
400.47183971176548
  0
LINE
  8
_0-0_計極細
  6
CONTINUOUS
 62
    2
 10
464.93943711398566
 20
389.47183971176548
 11
460.88943711398593
 21
389.47183971176548
  0
ARC
  8
_0-0_計極細
  6
CONTINUOUS
 62
    2
 10
466.9394371139856
 20
375.56477571176549
 40
1
 50
0
 51
89.999999999999915
  0
ARC
  8
_0-0_計極細
  6
CONTINUOUS
 62
    2
 10
466.9394371139856
 20
375.56477571176549
 40
1
 50
89.999999999999915
 51
179.99999999999983
  0
LINE
  8
_0-0_計極細
  6
CONTINUOUS
 62
    2
 10
455.21043711398585
 20
381.76477571176554
 11
456.6894371139856
 21
382.56477571176555
  0
LINE
  8
_0-0_計極細
  6
CONTINUOUS
 62
    2
 10
456.6894371139856
 20
382.56477571176555
 11
456.6894371139856
 21
385.47183971176548
  0
LINE
  8
_0-0_計極細
  6
CONTINUOUS
 62
    2
 10
455.21043711398585
 20
386.95083971176558
 11
455.21043711398585
 21
402.27183971176555
  0
ARC
  8
_0-0_計極細
  6
CONTINUOUS
 62
    2
 10
455.21043711398585
 20
401.22183971176554
 40
1.0500000000000114
 50
4.1509900000016975
 51
89.999999999999915
  0
LINE
  8
_0-0_計極細
  6
CONTINUOUS
 62
    2
 10
464.68943711398566
 20
382.57261871176559
 11
467.6894371139856
 21
382.57261871176559
  0
ARC
  8
_0-0_計極細
  6
CONTINUOUS
 62
    2
 10
464.68943711398566
 20
384.57261871176564
 40
2
 50
179.99999999999983
 51
269.99999999999977
  0
LINE
  8
_0-0_計極細
  6
CONTINUOUS
 62
    2
 10
462.6894371139856
 20
384.57261871176564
 11
462.6894371139856
 21
385.57261871176564
  0
LINE
  8
_0-0_計極細
  6
CONTINUOUS
 62
    2
 10
462.6894371139856
 20
385.57261871176564
 11
464.93943711398566
 21
385.57261871176564
  0
LINE
  8
_0-0_計極細
  6
CONTINUOUS
 62
    2
 10
461.6894371139856
 20
389.97261871176545
 11
464.93943711398566
 21
389.97261871176545
  0
LINE
  8
_0-0_計極細
  6
CONTINUOUS
 62
    2
 10
464.93943711398566
 20
385.57261871176564
 11
464.93943711398566
 21
389.97261871176562
  0
ARC
  8
_0-0_計極細
  6
CONTINUOUS
 62
    2
 10
477.9394371139856
 20
318.2647589917616
 40
10
 50
179.99999999999983
 51
269.99999999999977
  0
LINE
  8
_0-0_計極細
  6
CONTINUOUS
 62
    2
 10
467.9394371139856
 20
318.2647589917616
 11
467.9394371139856
 21
375.56477571176549
  0
LINE
  8
_0-0_計極細
  6
CONTINUOUS
 62
    2
 10
465.93943711398566
 20
318.2647589917616
 11
465.93943711398566
 21
375.56477571176549
  0
ARC
  8
_0-0_計極細
  6
CONTINUOUS
 62
    2
 10
477.9394371139856
 20
318.2647589917616
 40
12.000000000000002
 50
179.99999999999983
 51
269.99999999999977
  0
LINE
  8
_0-0_計極細
  6
CONTINUOUS
 62
    2
 10
465.93943711398566
 20
318.2647589917616
 11
465.93943711398566
 21
345.2647589917616
  0
ARC
  8
_0-0_計極細
  6
CONTINUOUS
 62
    2
 10
479.1894371139856
 20
324.47260199176151
 40
1
 50
179.99999999999983
 51
270.00045836623457
  0
LINE
  8
_0-0_計極細
  6
CONTINUOUS
 62
    2
 10
478.1894371139856
 20
324.47260199176151
 11
478.1894371139856
 21
382.94686471176556
  0
LINE
  8
_0-0_計極細
  6
CONTINUOUS
 62
    2
 10
455.21043711398585
 20
402.97183971176548
 11
447.15882911398649
 21
404.11862905801229
  0
LINE
  8
_0-0_計極細
  6
CONTINUOUS
 62
    2
 10
455.21043711398585
 20
402.26477516551461
 11
447.15882911398649
 21
403.41156513018058
  0
LINE
  8
_0-0_計極細
  6
CONTINUOUS
 62
    2
 10
447.15882911398649
 20
401.69546295349346
 11
455.21043711398585
 21
400.76477571176554
  0
LINE
  8
_0-0_計極細
  6
CONTINUOUS
 62
    2
 10
504.15882911398654
 20
403.26475899176188
 11
453.15385049408548
 21
403.26475899176188
  0
LINE
  8
_0-0_計極細
  6
CONTINUOUS
 62
    2
 10
504.15882911398654
 20
402.97183971176565
 11
455.21043711398585
 21
402.97183971176548
  0
LINE
  8
_0-0_計極細
  6
CONTINUOUS
 62
    2
 10
504.15882911398654
 20
402.4718397117656
 11
459.23943711398579
 21
402.47183971176554
  0
LINE
  8
_0-0_計極細
  6
CONTINUOUS
 62
    2
 10
504.15882911398654
 20
397.97183971176565
 11
461.98943711398584
 21
397.97183971176548
  0
LINE
  8
_0-0_計極細
  6
CONTINUOUS
 62
    2
 10
504.15882911398654
 20
396.97183971176565
 11
461.38943711398588
 21
396.97183971176548
  0
LINE
  8
_0-0_計極細
  6
CONTINUOUS
 62
    2
 10
504.15882911398654
 20
395.87794971176561
 11
461.03943711398557
 21
395.8779497117655
  0
LINE
  8
_0-0_計極細
  6
CONTINUOUS
 62
    2
 10
461.6894371139856
 20
396.07261871176559
 11
504.15882911398654
 21
396.07261871176559
  0
LINE
  8
_0-0_計極細
  6
CONTINUOUS
 62
    2
 10
504.15882911398654
 20
391.57794971176554
 11
461.8394371139857
 21
391.57794971176554
  0
LINE
  8
_0-0_計極細
  6
CONTINUOUS
 62
    2
 10
461.6894371139856
 20
391.47261871176545
 11
504.15882911398654
 21
391.47261871176562
  0
LINE
  8
_0-0_計極細
  6
CONTINUOUS
 62
    2
 10
464.93943711398566
 20
389.97261871176562
 11
504.15882911398654
 21
389.97261871176562
  0
LINE
  8
_0-0_計極細
  6
CONTINUOUS
 62
    2
 10
479.1894371139856
 20
323.47260199176156
 11
504.15882911398654
 21
323.47260199176156
  0
LINE
  8
_0-0_計極細
  6
CONTINUOUS
 62
    2
 10
504.15882911398654
 20
308.2647589917616
 11
477.9394371139856
 21
308.2647589917616
  0
LINE
  8
_0-0_計極細
  6
CONTINUOUS
 62
    2
 10
504.15882911398654
 20
306.2647589917616
 11
477.9394371139856
 21
306.2647589917616
  0
LINE
  8
_0-0_計極細
  6
CONTINUOUS
 62
    2
 10
461.8394371139857
 20
391.59601540714704
 11
465.4394371139856
 21
391.59601540714704
  0
LINE
  8
_0-0_計極細
  6
CONTINUOUS
 62
    2
 10
461.8394371139857
 20
393.09601540714704
 11
465.4394371139856
 21
393.09601540714704
  0
LINE
  8
_0-0_計極細
  6
CONTINUOUS
 62
    2
 10
461.72313540978217
 20
394.59601540714698
 11
465.65750280936709
 21
394.59601540714698
  0
ARC
  8
_0-0_計極細
  6
CONTINUOUS
 62
    2
 10
472.18943711398566
 20
382.94686471176556
 40
6.0000000000000009
 50
0
 51
24.886947317069655
  0
ARC
  8
_0-0_計極細
  6
CONTINUOUS
 62
    2
 10
472.18943711398566
 20
382.94686471176556
 40
6.0000000000000009
 50
24.886947317069655
 51
124.83370764384406
  0
LINE
  8
_0-0_計極細
  6
CONTINUOUS
 62
    2
 10
467.6894371139856
 20
382.57261871176559
 11
467.6894371139856
 21
385.47183971176548
  0
LINE
  8
_0-0_計極細
  6
CONTINUOUS
 62
    2
 10
477.63227656131221
 20
385.47183971176548
 11
467.69113032628707
 21
385.47183971176548
  0
ARC
  8
_0-0_計極細
  6
CONTINUOUS
 62
    2
 10
470.6894371139856
 20
385.57261871176564
 40
3.0000000000000004
 50
129.97050058003578
 51
181.92509931279602
  0
LINE
  8
_0-1_計細線
  6
CONTINUOUS
 62
    3
 10
451.20985311398681
 20
397.56477571176572
 11
447.15882911398649
 21
397.56477571176572
  0
LINE
  8
_0-1_計細線
  6
CONTINUOUS
 62
    3
 10
451.20985311398681
 20
380.35579899176122
 11
451.20985311398681
 21
397.56477571176572
  0
LINE
  8
_0-0_計極細
  6
CONTINUOUS
 62
    2
 10
552.69882942014806
 20
353.13244971176516
 11
545.45210511398727
 21
353.13244971176516
  0
LINE
  8
_0-0_計極細
  6
CONTINUOUS
 62
    2
 10
552.69882942014806
 20
353.13244971176516
 11
552.69882942014806
 21
381.76477571176554
  0
LINE
  8
_0-0_計極細
  6
CONTINUOUS
 62
    2
 10
455.61882911398652
 20
295.72475899176186
 11
455.61882911398652
 21
381.76477571176554
  0
LINE
  8
_0-0_計極細
  6
CONTINUOUS
 62
    2
 10
461.61882911398658
 20
289.72475899176186
 11
552.98660737882028
 21
289.72475899176186
  0
ARC
  8
_0-0_計極細
  6
CONTINUOUS
 62
    2
 10
461.61882911398658
 20
295.72475899176186
 40
6.0000000000000009
 50
179.99999999999983
 51
269.99999999999977
  0
LINE
  8
_0-0_計極細
  6
CONTINUOUS
 62
    2
 10
447.15882911398649
 20
401.64670552861378
 11
447.20253461037197
 21
401.69041102499932
  0
LINE
  8
_0-5_寸法線
  6
CONTINUOUS
 62
    7
 10
601.15882903744739
 20
287.76475899176194
 11
646.1588290374475
 21
287.76475899176177
  0
LINE
  8
_0-5_寸法線
  6
CONTINUOUS
 62
    7
 10
641.1588290374475
 20
287.76475899176177
 11
638.57063858642221
 21
297.42401725465243
  0
LINE
  8
_0-5_寸法線
  6
CONTINUOUS
 62
    7
 10
641.1588290374475
 20
287.76475899176177
 11
643.74701948847257
 21
297.42401725465243
  0
LINE
  8
_0-5_寸法線
  6
CONTINUOUS
 62
    7
 10
601.15882911398649
 20
316.05007499176105
 11
646.1588290374475
 21
316.05007499176099
  0
LINE
  8
_0-5_寸法線
  6
CONTINUOUS
 62
    7
 10
641.1588290374475
 20
316.05007499176099
 11
643.74701948847257
 21
306.39081672887028
  0
LINE
  8
_0-5_寸法線
  6
CONTINUOUS
 62
    7
 10
641.1588290374475
 20
316.05007499176099
 11
638.57063858642221
 21
306.39081672887028
  0
LINE
  8
_0-5_寸法線
  6
CONTINUOUS
 62
    7
 10
641.1588290374475
 20
287.76475899176177
 11
641.1588290374475
 21
316.05007499176099
  0
TEXT
  8
_0-5_寸法線
 62
    7
 10
641.1588290374475
 20
294.40741699176135
 40
15
 41
1
 50
90
  1
28
  0
LINE
  8
_0-5_寸法線
  6
CONTINUOUS
 62
    7
 10
641.1588290374475
 20
316.05007499176099
 11
638.57063858642221
 21
325.7093332546516
  0
LINE
  8
_0-5_寸法線
  6
CONTINUOUS
 62
    7
 10
641.1588290374475
 20
316.05007499176099
 11
643.74701948847257
 21
325.7093332546516
  0
LINE
  8
_0-5_寸法線
  6
CONTINUOUS
 62
    7
 10
583.65882903744625
 20
404.26475899176188
 11
646.1588290374475
 21
404.26475899176177
  0
LINE
  8
_0-5_寸法線
  6
CONTINUOUS
 62
    7
 10
641.1588290374475
 20
404.26475899176177
 11
643.74701948847257
 21
394.60550072887099
  0
LINE
  8
_0-5_寸法線
  6
CONTINUOUS
 62
    7
 10
641.1588290374475
 20
404.26475899176177
 11
638.57063858642209
 21
394.60550072887111
  0
LINE
  8
_0-5_寸法線
  6
CONTINUOUS
 62
    7
 10
641.1588290374475
 20
316.05007499176099
 11
641.1588290374475
 21
404.26475899176177
  0
TEXT
  8
_0-5_寸法線
 62
    7
 10
641.1588290374475
 20
345.15741699176169
 40
15
 41
1
 50
90
  1
88.5
  0
ENDSEC
  0
EOF
