  0
SECTION
  2
HEADER
  9
$ACADVER
  1
AC1009
  9
$INSBASE
 10
0
 20
0
 30
0
  9
$EXTMIN
 10
0
 20
0
  9
$EXTMAX
 10
1485
 20
1050
  9
$LIMMIN
 10
0
 20
0
  9
$LIMMAX
 10
1485
 20
1050
  9
$LTSCALE
 40
5
  0
ENDSEC
  0
SECTION
  2
TABLES
  0
TABLE
  2
LTYPE
 70
     9
  0
LTYPE
  2
CONTINUOUS
 70
    64
  3
実線
 72
    65
 73
     0
 40
0.0
  0
LTYPE
  2
DASHED1
 70
    64
  3
--  --  --  --  --  --  --  --  
 72
    65
 73
     2
 40
2.5
 49
1.25
 49
-1.25
  0
LTYPE
  2
DASHED2
 70
    64
  3
----    ----    ----    ----    
 72
    65
 73
     2
 40
5.0
 49
2.5
 49
-2.5
  0
LTYPE
  2
DASHED3
 70
    64
  3
------  ------  ------  ------  
 72
    65
 73
     2
 40
5.0
 49
3.75
 49
-1.25
  0
LTYPE
  2
CENTER1
 70
    64
  3
----- - ----- - ----- - ----- - 
 72
    65
 73
     4
 40
10.0
 49
6.25
 49
-1.25
 49
1.25
 49
-1.25
  0
LTYPE
  2
CENTER2
 70
    64
  3
----------  --  ----------  --  
 72
    65
 73
     4
 40
20.0
 49
12.5
 49
-2.5
 49
2.5
 49
-2.5
  0
LTYPE
  2
PHANTOM1
 70
    64
  3
--- - - --- - - --- - - --- - - 
 72
    65
 73
     6
 40
10.0
 49
3.25
 49
-1.25
 49
1.25
 49
-1.25
 49
1.25
 49
-1.25
  0
LTYPE
  2
PHANTOM2
 70
    64
  3
--------  -  -  --------  -  -  
 72
    65
 73
     6
 40
20.0
 49
10.0
 49
-2.5
 49
1.25
 49
-2.5
 49
1.25
 49
-2.5
  0
LTYPE
  2
DOT
 70
    64
  3
-   -   -   -   -   -   -   -   
 72
    65
 73
     2
 40
2.5
 49
0.625
 49
-1.875
  0
LTYPE
  2
DUMMY
 70
    64
  3
ダミー
 72
    65
 73
     0
 40
0.0
  0
LTYPE
  2
RAND1
 70
    64
  3
ランダム線1
 72
    65
 73
     4
 40
10.0
 49
1.0
 49
-2.0
 49
3.0
 49
-4.0
  0
LTYPE
  2
RAND2
 70
    64
  3
ランダム線2
 72
    65
 73
     4
 40
14.0
 49
2.0
 49
-3.0
 49
4.0
 49
-5.0
  0
LTYPE
  2
RAND3
 70
    64
  3
ランダム線3
 72
    65
 73
     4
 40
18.0
 49
3.0
 49
-4.0
 49
5.0
 49
-6.0
  0
LTYPE
  2
RAND4
 70
    64
  3
ランダム線4
 72
    65
 73
     4
 40
22.0
 49
4.0
 49
-5.0
 49
6.0
 49
-7.0
  0
LTYPE
  2
RAND5
 70
    64
  3
ランダム線5
 72
    65
 73
     4
 40
26.0
 49
5.0
 49
-6.0
 49
7.0
 49
-8.0
  0
LTYPE
  2
LONG1
 70
    64
  3
----------  --  ----------  --  
 72
    65
 73
     4
 40
40.0
 49
32.5
 49
-2.5
 49
2.5
 49
-2.5
  0
LTYPE
  2
LONG2
 70
    64
  3
--------  -  -  --------  -  -  
 72
    65
 73
     6
 40
40.0
 49
30.0
 49
-2.5
 49
1.25
 49
-2.5
 49
1.25
 49
-2.5
  0
LTYPE
  2
LONG3
 70
    64
  3
+++++++++++++++..+++++++++++++++
 72
    65
 73
     2
 40
40.0
 49
37.5
 49
-2.5
  0
LTYPE
  2
LONG4
 70
    64
  3
+++++++++++++++..+++++++++++++++
 72
    65
 73
     2
 40
80.0
 49
75.0
 49
-5.0
  0
LTYPE
  2
LONG5
 70
    64
  3
----------  --  ----------  --  
 72
    65
 73
     4
 40
60.0
 49
37.5
 49
-7.5
 49
7.5
 49
-7.5
  0
LTYPE
  2
dashed
 70
   64
  3
-------   -------------   ------
 72
   65
 73
    2
 40
7.5
 49
6
 49
-1.5
  0
LTYPE
  2
dashed_spaced
 70
   64
  3
----        --------        ----
 72
   65
 73
    2
 40
12
 49
6
 49
-6
  0
LTYPE
  2
long_dashed_dotted
 70
   64
  3
------------- --- --------------
 72
   65
 73
    4
 40
15.25
 49
12
 49
-1.5
 49
0.25
 49
-1.5
  0
LTYPE
  2
long_dashed_double-dotted
 70
   64
  3
----------- --- --- ------------
 72
   65
 73
    6
 40
17
 49
12
 49
-1.5
 49
0.25
 49
-1.5
 49
0.25
 49
-1.5
  0
LTYPE
  2
long_dashed_triplicate-dotted
 70
   64
  3
--------- --- --- --- ----------
 72
   65
 73
    8
 40
18.75
 49
12
 49
-1.5
 49
0.25
 49
-1.5
 49
0.25
 49
-1.5
 49
0.25
 49
-1.5
  0
LTYPE
  2
dotted
 70
   64
  3
   -       -       -       -    
 72
   65
 73
    2
 40
1.75
 49
0.25
 49
-1.5
  0
LTYPE
  2
chain
 70
   64
  3
-------------- -- --------------
 72
   65
 73
    4
 40
18.5
 49
12
 49
-1.5
 49
3.5
 49
-1.5
  0
LTYPE
  2
chain_double_dash
 70
   64
  3
------------ -- -- -------------
 72
   65
 73
    6
 40
23.5
 49
12
 49
-1.5
 49
3.5
 49
-1.5
 49
3.5
 49
-1.5
  0
LTYPE
  2
dashed_dotted
 70
   64
  3
-----------     -     ----------
 72
   65
 73
    4
 40
9.25
 49
6
 49
-1.5
 49
0.25
 49
-1.5
  0
LTYPE
  2
double-dashed_dotted
 70
   64
  3
------   -----------   -   -----
 72
   65
 73
    6
 40
16.75
 49
6
 49
-1.5
 49
6
 49
-1.5
 49
0.25
 49
-1.5
  0
LTYPE
  2
dashed_double-dotted
 70
   64
  3
---------    -    -    ---------
 72
   65
 73
    6
 40
11
 49
6
 49
-1.5
 49
0.25
 49
-1.5
 49
0.25
 49
-1.5
  0
LTYPE
  2
double-dashed_double-dotted
 70
   64
  3
-----   ---------   -   -   ----
 72
   65
 73
    8
 40
18.5
 49
6
 49
-1.5
 49
6
 49
-1.5
 49
0.25
 49
-1.5
 49
0.25
 49
-1.5
  0
LTYPE
  2
dashed_triplicate-dotted
 70
   64
  3
-------    -    -    -    ------
 72
   65
 73
    8
 40
12.75
 49
6
 49
-1.5
 49
0.25
 49
-1.5
 49
0.25
 49
-1.5
 49
0.25
 49
-1.5
  0
LTYPE
  2
double-dashed_triplicate-dotted
 70
   64
  3
-----  ---------  -  -  -  -----
 72
   65
 73
   10
 40
20.25
 49
6
 49
-1.5
 49
6
 49
-1.5
 49
0.25
 49
-1.5
 49
0.25
 49
-1.5
 49
0.25
 49
-1.5
  0
LTYPE
  2
undefined
 70
   64
  3
--------------------------------
 72
   65
 73
    0
 40
0
  0
ENDTAB
  0
TABLE
  2
STYLE
  5
3
100
AcDbSymbolTable
 70
     1
  0
STYLE
  5
10
100
AcDbSymbolTableRecord
100
AcDbTextStyleTableRecord
  2
STANDARD
 70
     0
 40
0.0
 41
1.0
 50
0.0
 71
     0
 42
0.2
  3
txt
  4
bigfont.shx
  0
STYLE
  5
26
100
AcDbSymbolTableRecord
100
AcDbTextStyleTableRecord
  2
TATEGAKI
 70
    68
 40
0.0
 41
1.0
 50
0.0
 71
     0
 42
1.0
  3
txt
  4
bigfont.shx
  0
ENDTAB
  0
TABLE
  2
LAYER
 70
   13
  0
LAYER
  2
_0-0_計極細
 70
   64
 62
    7
  6
CONTINUOUS
  0
LAYER
  2
_0-1_計細線
 70
   64
 62
    7
  6
CONTINUOUS
  0
LAYER
  2
_0-5_寸法線
 70
   64
 62
    7
  6
CONTINUOUS
  0
LAYER
  2
_0-7_枠細線
 70
   64
 62
    7
  6
CONTINUOUS
  0
LAYER
  2
_0-8_枠中線
 70
   64
 62
    7
  6
CONTINUOUS
  0
LAYER
  2
_0-a_極細1
 70
   64
 62
    7
  6
CONTINUOUS
  0
LAYER
  2
_0-d_寸法1
 70
   64
 62
    7
  6
CONTINUOUS
  0
LAYER
  2
_0-e_極細4
 70
   64
 62
    7
  6
CONTINUOUS
  0
LAYER
  2
_1-1_寸法4
 70
   64
 62
    7
  6
CONTINUOUS
  0
LAYER
  2
_1-2_極細3
 70
   64
 62
    7
  6
CONTINUOUS
  0
LAYER
  2
_1-3_細線3
 70
   64
 62
    7
  6
CONTINUOUS
  0
LAYER
  2
_1-5_寸法3
 70
   64
 62
    7
  6
CONTINUOUS
  0
LAYER
  2
ADD_LINE
 70
   64
 62
    7
  6
CONTINUOUS
  0
ENDTAB
  0
ENDSEC
  0
SECTION
  2
BLOCKS
  0
ENDSEC
  0
SECTION
  2
ENTITIES
  0
LINE
  8
_0-8_枠中線
  6
CONTINUOUS
 62
    5
 10
60
 20
60
 11
60
 21
960
  0
LINE
  8
_0-8_枠中線
  6
CONTINUOUS
 62
    5
 10
60
 20
960
 11
1425
 21
960
  0
LINE
  8
_0-8_枠中線
  6
CONTINUOUS
 62
    5
 10
1425
 20
960
 11
1425
 21
60
  0
LINE
  8
_0-8_枠中線
  6
CONTINUOUS
 62
    5
 10
1425
 20
60
 11
60
 21
60
  0
TEXT
  8
_0-7_枠細線
 62
    5
 10
937.5
 20
97.5
 40
17.5
 41
1
 50
0
  1
備考
  7
TATEGAKI
  0
TEXT
  8
_0-7_枠細線
 62
    5
 10
937.5
 20
137.5
 40
17.5
 41
1
 50
0
  1
品番
  7
TATEGAKI
  0
TEXT
  8
_0-7_枠細線
 62
    5
 10
937.5
 20
177.5
 40
17.5
 41
1
 50
0
  1
品名
  7
TATEGAKI
  0
LINE
  8
_0-7_枠細線
  6
CONTINUOUS
 62
    5
 10
950
 20
180
 11
950
 21
60
  0
LINE
  8
_0-8_枠中線
  6
CONTINUOUS
 62
    5
 10
1425
 20
180
 11
925
 21
180
  0
LINE
  8
_0-8_枠中線
  6
CONTINUOUS
 62
    5
 10
925
 20
180
 11
925
 21
60
  0
TEXT
  8
_0-7_枠細線
 62
    5
 10
894.89374448775823
 20
945
 40
12.5
 41
1
 50
0
  1
記号
  0
TEXT
  8
_0-7_枠細線
 62
    5
 10
996.76874448775823
 20
945
 40
12.5
 41
1
 50
0
  1
訂　 正　 記　 事
  0
TEXT
  8
_0-7_枠細線
 62
    5
 10
1181.1437444877581
 20
945
 40
12.5
 41
1
 50
0
  1
訂 正 年 月 日
  0
TEXT
  8
_0-7_枠細線
 62
    5
 10
1306.1437444877581
 20
945
 40
12.5
 41
1
 50
0
  1
備　　　　　考
  0
LINE
  8
_0-7_枠細線
  6
CONTINUOUS
 62
    5
 10
889.89374448775823
 20
942.5
 11
889.89374448775823
 21
959.99999999999909
  0
LINE
  8
_0-7_枠細線
  6
CONTINUOUS
 62
    5
 10
924.89374448775823
 20
942.5
 11
924.89374448775823
 21
959.99999999999909
  0
LINE
  8
_0-7_枠細線
  6
CONTINUOUS
 62
    5
 10
1174.8937444877581
 20
942.5
 11
1174.8937444877581
 21
959.99999999999909
  0
LINE
  8
_0-7_枠細線
  6
CONTINUOUS
 62
    5
 10
1274.8937444877581
 20
942.5
 11
1274.8937444877581
 21
959.99999999999909
  0
LINE
  8
_0-7_枠細線
  6
CONTINUOUS
 62
    5
 10
1425
 20
942.5
 11
890
 21
942.5
  0
LINE
  8
_0-7_枠細線
  6
CONTINUOUS
 62
    5
 10
1185
 20
180
 11
1185
 21
100
  0
LINE
  8
_0-7_枠細線
  6
CONTINUOUS
 62
    5
 10
1185
 20
140
 11
925
 21
140
  0
LINE
  8
_0-7_枠細線
  6
CONTINUOUS
 62
    5
 10
1245
 20
180
 11
1245
 21
60
  0
TEXT
  8
_0-7_枠細線
 62
    5
 10
1192.5
 20
160
 40
15
 41
1
 50
0
  1
縮　尺
  0
LINE
  8
_0-7_枠細線
  6
CONTINUOUS
 62
    5
 10
1185
 20
155
 11
1245
 21
155
  0
LINE
  8
_0-7_枠細線
  6
CONTINUOUS
 62
    5
 10
1245
 20
100
 11
925
 21
100
  0
LINE
  8
_0-7_枠細線
  6
CONTINUOUS
 62
    5
 10
1425
 20
90
 11
1245
 21
90
  0
LINE
  8
_0-7_枠細線
  6
CONTINUOUS
 62
    5
 10
1245
 20
120
 11
1425
 21
120
  0
LINE
  8
_0-7_枠細線
  6
CONTINUOUS
 62
    5
 10
1425
 20
140
 11
1245
 21
140
  0
TEXT
  8
_0-7_枠細線
 62
    5
 10
1255
 20
147.5
 40
25
 41
0.8
 50
0
  1
株式会社シマブン
  0
TEXT
  8
_0-7_枠細線
 62
    5
 10
1252.5
 20
60
 40
15
 41
1
 50
0
  1
年月日
  0
TEXT
  8
_0-7_枠細線
 62
    5
 10
1252.5
 20
75
 40
15
 41
1
 50
0
  1
作　成
  0
TEXT
  8
_0-7_枠細線
 62
    5
 10
1256.25
 20
122.5
 40
15
 41
1
 50
0
  1
承 認
  0
LINE
  8
_0-7_枠細線
  6
CONTINUOUS
 62
    5
 10
1305
 20
140
 11
1305
 21
60
  0
TEXT
  8
_0-7_枠細線
 62
    5
 10
1316.25
 20
122.5
 40
15
 41
1
 50
0
  1
検 図
  0
LINE
  8
_0-7_枠細線
  6
CONTINUOUS
 62
    5
 10
1365
 20
140
 11
1365
 21
90
  0
TEXT
  8
_0-7_枠細線
 62
    5
 10
1376.25
 20
122.5
 40
15
 41
1
 50
0
  1
設 計
  0
TEXT
  8
_0-7_枠細線
 62
    5
 10
1255
 20
95
 40
20
 41
1
 50
0
  1
大野
  0
TEXT
  8
_0-7_枠細線
 62
    5
 10
1194
 20
117.5
 40
20
 41
0.6999999999999998
 50
0
  1
１：５
  0
TEXT
  8
_0-7_枠細線
 62
    5
 10
1315
 20
95
 40
20
 41
1
 50
0
  1
中村
  0
TEXT
  8
_0-7_枠細線
 62
    5
 10
1375
 20
95
 40
20
 41
1
 50
0
  1
石井
  0
TEXT
  8
_0-7_枠細線
 62
    5
 10
1310
 20
67.5
 40
15
 41
0.6666666666666666
 50
0
  1
２０２０年０７月０１日
  0
TEXT
  8
_0-7_枠細線
 62
    5
 10
1181.1178433318134
 20
701.51379244672808
 40
25
 41
0.8
 50
0
  1
Ｃ部拡大図
  0
LINE
  8
_0-a_極細1
  6
CONTINUOUS
 62
    7
 10
1215.3783115530775
 20
795.30941124886806
 11
1227.3783103530784
 21
795.30941124886806
  0
LINE
  8
_0-a_極細1
  6
CONTINUOUS
 62
    7
 10
1215.3783115530775
 20
795.97607784886804
 11
1227.3783103530784
 21
795.97607784886804
  0
LINE
  8
_0-a_極細1
  6
CONTINUOUS
 62
    7
 10
1215.270889120123
 20
796.64274444886814
 11
1227.3783103530784
 21
796.64274444886814
  0
LINE
  8
_0-a_極細1
  6
CONTINUOUS
 62
    7
 10
1214.6042225201229
 20
797.30941104886824
 11
1227.3783103530784
 21
797.30941104886824
  0
LINE
  8
_0-a_極細1
  6
CONTINUOUS
 62
    7
 10
1213.9375559201233
 20
797.97607764886823
 11
1227.3783103530784
 21
797.97607764886823
  0
LINE
  8
_0-a_極細1
  6
CONTINUOUS
 62
    7
 10
1214.1524007860319
 20
798.64274424886833
 11
1227.3783103530784
 21
798.64274424886833
  0
LINE
  8
_0-a_極細1
  6
CONTINUOUS
 62
    7
 10
1214.819067386032
 20
799.30941084886842
 11
1227.3783103530784
 21
799.30941084886842
  0
LINE
  8
_0-a_極細1
  6
CONTINUOUS
 62
    7
 10
1215.3783115530775
 20
799.97607744886807
 11
1227.3783103530784
 21
799.97607744886807
  0
LINE
  8
_0-a_極細1
  6
CONTINUOUS
 62
    7
 10
1215.3783115530775
 20
800.64274404886817
 11
1227.3783103530784
 21
800.64274404886817
  0
LINE
  8
_0-a_極細1
  6
CONTINUOUS
 62
    7
 10
1215.3783115530775
 20
801.30941064886827
 11
1227.3783103530784
 21
801.30941064886827
  0
LINE
  8
_0-a_極細1
  6
CONTINUOUS
 62
    7
 10
1215.3783115530775
 20
801.97607724886836
 11
1227.3783103530784
 21
801.97607724886836
  0
LINE
  8
_0-a_極細1
  6
CONTINUOUS
 62
    7
 10
1215.3783115530775
 20
802.64274384886846
 11
1227.3783103530784
 21
802.64274384886846
  0
LINE
  8
_0-a_極細1
  6
CONTINUOUS
 62
    7
 10
1215.3783115530775
 20
803.30941044886856
 11
1227.3783103530784
 21
803.30941044886856
  0
LINE
  8
_0-a_極細1
  6
CONTINUOUS
 62
    7
 10
1215.3783115530775
 20
803.97607704886832
 11
1227.3783103530784
 21
803.97607704886832
  0
LINE
  8
_0-a_極細1
  6
CONTINUOUS
 62
    7
 10
1214.937555820123
 20
804.6427436488683
 11
1227.6133800773212
 21
804.6427436488683
  0
LINE
  8
_0-a_極細1
  6
CONTINUOUS
 62
    7
 10
1214.2708892201229
 20
805.3094102488684
 11
1227.9689355973208
 21
805.3094102488684
  0
LINE
  8
_0-a_極細1
  6
CONTINUOUS
 62
    7
 10
1213.819067486033
 20
805.97607684886839
 11
1228.3244911173208
 21
805.97607684886839
  0
LINE
  8
_0-a_極細1
  6
CONTINUOUS
 62
    7
 10
1214.4857340860324
 20
806.64274344886849
 11
1228.6800466373209
 21
806.64274344886849
  0
LINE
  8
_0-a_極細1
  6
CONTINUOUS
 62
    7
 10
1215.1524006860325
 20
807.30941004886859
 11
1229.0356021573209
 21
807.30941004886859
  0
LINE
  8
_0-a_極細1
  6
CONTINUOUS
 62
    7
 10
1215.3783115530775
 20
807.97607664886857
 11
1229.391157677321
 21
807.97607664886857
  0
LINE
  8
_0-a_極細1
  6
CONTINUOUS
 62
    7
 10
1215.3783115530775
 20
808.64274324886867
 11
1229.7467131973208
 21
808.64274324886867
  0
LINE
  8
_0-a_極細1
  6
CONTINUOUS
 62
    7
 10
1249.0718654809586
 20
779.04184772916437
 11
1249.0718654809586
 21
830.49166057474804
  0
LINE
  8
_0-a_極細1
  6
CONTINUOUS
 62
    7
 10
1248.4051988809586
 20
778.37518112916428
 11
1248.4051988809586
 21
830.3474554162824
  0
LINE
  8
_0-a_極細1
  6
CONTINUOUS
 62
    7
 10
1247.7385322809585
 20
777.70851452916418
 11
1247.7385322809585
 21
830.0538278981229
  0
LINE
  8
_0-a_極細1
  6
CONTINUOUS
 62
    7
 10
1247.0718656809584
 20
777.04184792916431
 11
1247.0718656809584
 21
829.55956701937794
  0
LINE
  8
_0-a_極細1
  6
CONTINUOUS
 62
    7
 10
1246.4051990809589
 20
776.37518132916455
 11
1246.4051990809589
 21
828.69616451956801
  0
LINE
  8
_0-a_極細1
  6
CONTINUOUS
 62
    7
 10
1245.7385324809588
 20
775.70851472916445
 11
1245.7385324809588
 21
826.0976728126235
  0
LINE
  8
_0-a_極細1
  6
CONTINUOUS
 62
    7
 10
1245.0718658809587
 20
775.04184812916435
 11
1245.0718658809587
 21
824.71680524675378
  0
LINE
  8
_0-a_極細1
  6
CONTINUOUS
 62
    7
 10
1244.4051992809586
 20
774.51495755128349
 11
1244.4051992809586
 21
823.89116486529917
  0
LINE
  8
_0-a_極細1
  6
CONTINUOUS
 62
    7
 10
1243.7385326809588
 20
774.51495755128349
 11
1243.7385326809588
 21
823.30707969401146
  0
LINE
  8
_0-a_極細1
  6
CONTINUOUS
 62
    7
 10
1243.0718660809584
 20
774.51495755128349
 11
1243.0718660809584
 21
822.87863682710906
  0
LINE
  8
_0-a_極細1
  6
CONTINUOUS
 62
    7
 10
1242.4051994809586
 20
774.51495755128349
 11
1242.4051994809586
 21
822.56781421492167
  0
LINE
  8
_0-a_極細1
  6
CONTINUOUS
 62
    7
 10
1241.7385328809585
 20
774.51495755128349
 11
1241.7385328809585
 21
822.35461119658362
  0
LINE
  8
_0-a_極細1
  6
CONTINUOUS
 62
    7
 10
1241.0718662809584
 20
774.51495755128349
 11
1241.0718662809584
 21
822.22790748697889
  0
LINE
  8
_0-a_極細1
  6
CONTINUOUS
 62
    7
 10
1240.4051996809583
 20
774.51495755128349
 11
1240.4051996809583
 21
822.18189758849462
  0
LINE
  8
_0-a_極細1
  6
CONTINUOUS
 62
    7
 10
1239.7385330809582
 20
774.51495755128349
 11
1239.7385330809582
 21
822.18161945128384
  0
LINE
  8
_0-a_極細1
  6
CONTINUOUS
 62
    7
 10
1239.0718664809581
 20
774.51495755128349
 11
1239.0718664809581
 21
822.18161945128384
  0
LINE
  8
_0-a_極細1
  6
CONTINUOUS
 62
    7
 10
1238.4051998809584
 20
774.51495755128349
 11
1238.4051998809584
 21
822.18161945128384
  0
LINE
  8
_0-a_極細1
  6
CONTINUOUS
 62
    7
 10
1237.7385332809588
 20
774.51495755128349
 11
1237.7385332809588
 21
822.18161945128384
  0
LINE
  8
_0-a_極細1
  6
CONTINUOUS
 62
    7
 10
1237.0718666809587
 20
774.51495755128349
 11
1237.0718666809587
 21
822.18161945128384
  0
LINE
  8
_0-a_極細1
  6
CONTINUOUS
 62
    7
 10
1236.4052000809586
 20
774.51495755128349
 11
1236.4052000809586
 21
822.18161945128384
  0
LINE
  8
_0-a_極細1
  6
CONTINUOUS
 62
    7
 10
1235.7385334809585
 20
774.51495755128349
 11
1235.7385334809585
 21
822.12264933552149
  0
LINE
  8
_0-a_極細1
  6
CONTINUOUS
 62
    7
 10
1235.0718668809584
 20
774.51495755128349
 11
1235.0718668809584
 21
821.92865003763075
  0
LINE
  8
_0-a_極細1
  6
CONTINUOUS
 62
    7
 10
1234.4052002809583
 20
774.51495755128349
 11
1234.4052002809583
 21
821.57243936412328
  0
LINE
  8
_0-a_極細1
  6
CONTINUOUS
 62
    7
 10
1233.7385336809582
 20
774.51495755128349
 11
1233.7385336809582
 21
820.97978894713208
  0
LINE
  8
_0-a_極細1
  6
CONTINUOUS
 62
    7
 10
1233.0718670809581
 20
774.51495755128349
 11
1233.0718670809581
 21
819.8294161202582
  0
LINE
  8
_0-a_極細1
  6
CONTINUOUS
 62
    7
 10
1232.405200480958
 20
774.51495755128349
 11
1232.405200480958
 21
781.18162355128334
  0
LINE
  8
_0-a_極細1
  6
CONTINUOUS
 62
    7
 10
1231.7385338809579
 20
774.51495755128349
 11
1231.7385338809579
 21
781.18162355128334
  0
LINE
  8
_0-a_極細1
  6
CONTINUOUS
 62
    7
 10
1231.0718672809578
 20
774.51495755128349
 11
1231.0718672809578
 21
781.18162355128334
  0
LINE
  8
_0-a_極細1
  6
CONTINUOUS
 62
    7
 10
1230.4052006809582
 20
774.51495755128349
 11
1230.4052006809582
 21
781.18162355128334
  0
LINE
  8
_0-a_極細1
  6
CONTINUOUS
 62
    7
 10
1229.7385340809581
 20
774.51495755128349
 11
1229.7385340809581
 21
781.18162355128334
  0
LINE
  8
_0-a_極細1
  6
CONTINUOUS
 62
    7
 10
1229.071867480958
 20
774.51495755128349
 11
1229.071867480958
 21
781.18162355128334
  0
LINE
  8
_0-a_極細1
  6
CONTINUOUS
 62
    7
 10
1228.4052008809579
 20
774.51495755128349
 11
1228.4052008809579
 21
781.18162355128334
  0
LINE
  8
_0-a_極細1
  6
CONTINUOUS
 62
    7
 10
1227.7385342809584
 20
774.51495755128349
 11
1227.7385342809584
 21
781.18162355128334
  0
LINE
  8
_0-a_極細1
  6
CONTINUOUS
 62
    7
 10
1227.0718676809577
 20
774.51495755128349
 11
1227.0718676809577
 21
781.18162355128334
  0
LINE
  8
_0-a_極細1
  6
CONTINUOUS
 62
    7
 10
1226.4052010809582
 20
774.51495755128349
 11
1226.4052010809582
 21
781.18162355128334
  0
LINE
  8
_0-a_極細1
  6
CONTINUOUS
 62
    7
 10
1225.7385344809588
 20
767.84829155128352
 11
1225.7385344809588
 21
787.84828955128341
  0
LINE
  8
_0-a_極細1
  6
CONTINUOUS
 62
    7
 10
1225.0718678809592
 20
767.84829155128352
 11
1225.0718678809592
 21
787.84828955128341
  0
LINE
  8
_0-a_極細1
  6
CONTINUOUS
 62
    7
 10
1224.4052012809591
 20
767.84829155128352
 11
1224.4052012809591
 21
770.15956233354825
  0
LINE
  8
_0-a_極細1
  6
CONTINUOUS
 62
    7
 10
1224.4052012809591
 20
774.85088751769069
 11
1224.4052012809591
 21
787.84828955128341
  0
LINE
  8
_0-a_極細1
  6
CONTINUOUS
 62
    7
 10
1223.738534680959
 20
767.84829155128352
 11
1223.738534680959
 21
768.33915594027928
  0
LINE
  8
_0-a_極細1
  6
CONTINUOUS
 62
    7
 10
1223.738534680959
 20
774.85088751769069
 11
1223.738534680959
 21
787.84828955128341
  0
LINE
  8
_0-a_極細1
  6
CONTINUOUS
 62
    7
 10
1223.0718680809589
 20
774.85088751769069
 11
1223.0718680809589
 21
787.84828955128341
  0
LINE
  8
_0-a_極細1
  6
CONTINUOUS
 62
    7
 10
1222.4052014809588
 20
774.85088751769069
 11
1222.4052014809588
 21
787.84828955128341
  0
LINE
  8
_0-a_極細1
  6
CONTINUOUS
 62
    7
 10
1221.7385348809587
 20
774.85088751769069
 11
1221.7385348809587
 21
787.84828955128341
  0
LINE
  8
_0-a_極細1
  6
CONTINUOUS
 62
    7
 10
1221.0718682809586
 20
774.85088751769069
 11
1221.0718682809586
 21
787.84828955128341
  0
LINE
  8
_0-a_極細1
  6
CONTINUOUS
 62
    7
 10
1220.4052016809585
 20
774.85088751769069
 11
1220.4052016809585
 21
787.84828955128341
  0
LINE
  8
_0-a_極細1
  6
CONTINUOUS
 62
    7
 10
1219.7385350809584
 20
774.85088751769069
 11
1219.7385350809584
 21
787.84828955128341
  0
LINE
  8
_0-a_極細1
  6
CONTINUOUS
 62
    7
 10
1219.0718684809583
 20
774.85088751769069
 11
1219.0718684809583
 21
787.84828955128341
  0
LINE
  8
_0-a_極細1
  6
CONTINUOUS
 62
    7
 10
1218.4052018809587
 20
774.85088751769069
 11
1218.4052018809587
 21
787.84828955128341
  0
LINE
  8
_0-a_極細1
  6
CONTINUOUS
 62
    7
 10
1217.7385352809586
 20
774.85088751769069
 11
1217.7385352809586
 21
787.84828955128341
  0
LINE
  8
_0-a_極細1
  6
CONTINUOUS
 62
    7
 10
1217.0718686809585
 20
774.85088751769069
 11
1217.0718686809585
 21
787.84828955128341
  0
LINE
  8
_0-a_極細1
  6
CONTINUOUS
 62
    7
 10
1207.8783123030778
 20
764.85088851769092
 11
1207.8783123030778
 21
774.51495755128349
  0
ARC
  8
_0-a_極細1
  6
CONTINUOUS
 62
    7
 10
1197.8783133030784
 20
774.85088751769069
 40
9.999998999999999
 50
358.07490068720404
 51
50.029499419963059
  0
LINE
  8
_0-a_極細1
  6
CONTINUOUS
 62
    7
 10
1249.4749748100783
 20
825.97607484886805
 11
1253.6679680318091
 21
825.97607484886805
  0
LINE
  8
_0-a_極細1
  6
CONTINUOUS
 62
    7
 10
1249.4749748100783
 20
826.64274144886804
 11
1259.4354674550593
 21
826.64274144886804
  0
LINE
  8
_0-a_極細1
  6
CONTINUOUS
 62
    7
 10
1249.4749748100783
 20
827.30940804886814
 11
1265.2029668783093
 21
827.30940804886814
  0
LINE
  8
_0-a_極細1
  6
CONTINUOUS
 62
    7
 10
1249.4749748100783
 20
827.97607464886823
 11
1270.9704663015596
 21
827.97607464886823
  0
LINE
  8
_0-a_極細1
  6
CONTINUOUS
 62
    7
 10
1249.4749748100783
 20
828.64274124886822
 11
1272.544972503078
 21
828.64274124886822
  0
LINE
  8
_0-a_極細1
  6
CONTINUOUS
 62
    7
 10
1249.4749748100783
 20
829.30940784886832
 11
1272.544972503078
 21
829.30940784886832
  0
LINE
  8
_0-a_極細1
  6
CONTINUOUS
 62
    7
 10
1249.4749748100783
 20
829.97607444886842
 11
1272.544972503078
 21
829.97607444886842
  0
LINE
  8
_0-a_極細1
  6
CONTINUOUS
 62
    7
 10
1250.5375154054566
 20
830.64274104886852
 11
1272.544972503078
 21
830.64274104886852
  0
LINE
  8
_0-a_極細1
  6
CONTINUOUS
 62
    7
 10
1255.2181790799566
 20
831.30940764886816
 11
1272.544972503078
 21
831.30940764886816
  0
LINE
  8
_0-a_極細1
  6
CONTINUOUS
 62
    7
 10
1259.8988427544566
 20
831.97607424886826
 11
1272.544972503078
 21
831.97607424886826
  0
LINE
  8
_0-a_極細1
  6
CONTINUOUS
 62
    7
 10
1264.5795064289562
 20
832.64274084886836
 11
1272.544972503078
 21
832.64274084886836
  0
LINE
  8
_0-a_極細1
  6
CONTINUOUS
 62
    7
 10
1269.2601701034562
 20
833.30940744886846
 11
1272.544972503078
 21
833.30940744886846
  0
LINE
  8
_0-a_極細1
  6
CONTINUOUS
 62
    7
 10
1272.544972503078
 20
833.82473828697152
 11
1272.544972503078
 21
836.1341414382656
  0
LINE
  8
_0-a_極細1
  6
CONTINUOUS
 62
    7
 10
1249.4749748100783
 20
832.84828505128371
 11
1272.544972503078
 21
836.1341414382656
  0
LINE
  8
_0-a_極細1
  6
CONTINUOUS
 62
    7
 10
1227.8783103030776
 20
809.85088401769076
 11
1227.8783103030776
 21
812.84828705128348
  0
LINE
  8
_0-a_極細1
  6
CONTINUOUS
 62
    7
 10
1227.8783103030776
 20
789.51755271769059
 11
1227.8783103030776
 21
794.51755221769031
  0
LINE
  8
_0-a_極細1
  6
CONTINUOUS
 62
    7
 10
1215.378311553078
 20
804.20198791591361
 11
1215.378311553078
 21
799.86865501591365
  0
LINE
  8
_0-a_極細1
  6
CONTINUOUS
 62
    7
 10
1215.378311553078
 20
796.53532201591361
 11
1215.378311553078
 21
794.86865551591359
  0
LINE
  8
_0-a_極細1
  6
CONTINUOUS
 62
    7
 10
1227.3783103530784
 20
804.20198791591361
 11
1227.3783103530784
 21
794.86865551591359
  0
LINE
  8
_0-a_極細1
  6
CONTINUOUS
 62
    7
 10
1213.7116450530777
 20
805.86865441591374
 11
1215.378311553078
 21
807.53532091591353
  0
LINE
  8
_0-a_極細1
  6
CONTINUOUS
 62
    7
 10
1215.378311553078
 20
804.20198791591361
 11
1213.7116450530777
 21
805.86865441591374
  0
LINE
  8
_0-a_極細1
  6
CONTINUOUS
 62
    7
 10
1215.378311553078
 20
796.53532201591361
 11
1213.7116450530777
 21
798.20198851591385
  0
LINE
  8
_0-a_極細1
  6
CONTINUOUS
 62
    7
 10
1213.7116450530777
 20
798.20198851591385
 11
1215.378311553078
 21
799.86865501591365
  0
LINE
  8
_0-a_極細1
  6
CONTINUOUS
 62
    7
 10
1227.3783103530784
 20
804.20198791591361
 11
1230.0449767530779
 21
809.20198741591321
  0
LINE
  8
_0-a_極細1
  6
CONTINUOUS
 62
    7
 10
1215.378311553078
 20
809.20198741591321
 11
1215.378311553078
 21
807.53532091591353
  0
ARC
  8
_0-a_極細1
  6
CONTINUOUS
 62
    7
 10
1236.0449761530783
 20
829.51495205128367
 40
1.6666665000000003
 50
24.05454899999916
 51
89.999999999999915
  0
ARC
  8
_0-a_極細1
  6
CONTINUOUS
 62
    7
 10
1237.0449760530785
 20
825.1816191512836
 40
0.6666665999999621
 50
269.99999999999977
 51
359.99999999999966
  0
ARC
  8
_0-a_極細1
  6
CONTINUOUS
 62
    7
 10
1236.0449761530783
 20
829.51495205128367
 40
1.6666665000000003
 50
0
 51
24.05454899999916
  0
LINE
  8
_0-a_極細1
  6
CONTINUOUS
 62
    7
 10
1230.544976703078
 20
814.51495355128361
 11
1230.5449767030789
 21
824.51495255128395
  0
LINE
  8
_0-a_極細1
  6
CONTINUOUS
 62
    7
 10
1230.5449767030789
 20
824.51495255128395
 11
1237.0449760530785
 21
824.51495255128395
  0
LINE
  8
_0-a_極細1
  6
CONTINUOUS
 62
    7
 10
1237.7116426530786
 20
825.1816191512836
 11
1237.7116426530786
 21
829.51495205128367
  0
LINE
  8
_0-a_極細1
  6
CONTINUOUS
 62
    7
 10
1226.211643803078
 20
774.51495755128349
 11
1244.5449753030773
 21
774.51495755128349
  0
LINE
  8
_0-a_極細1
  6
CONTINUOUS
 62
    7
 10
1223.4443640798061
 20
767.84829155128352
 11
1226.211643803078
 21
767.84829155128352
  0
LINE
  8
_0-a_極細1
  6
CONTINUOUS
 62
    7
 10
1226.211643803078
 20
783.51495665128368
 11
1230.544976703078
 21
783.51495665128368
  0
LINE
  8
_0-a_極細1
  6
CONTINUOUS
 62
    7
 10
1226.211643803078
 20
781.18162355128334
 11
1232.8783098030779
 21
781.18162355128334
  0
LINE
  8
_0-a_極細1
  6
CONTINUOUS
 62
    7
 10
1226.211643803078
 20
767.84829155128352
 11
1226.211643803078
 21
787.84828955128341
  0
LINE
  8
_0-a_極細1
  6
CONTINUOUS
 62
    7
 10
1249.4749748100783
 20
779.44495705828353
 11
1244.5449753030773
 21
774.51495755128349
  0
LINE
  8
_0-a_極細1
  6
CONTINUOUS
 62
    7
 10
1232.8783098030779
 20
781.18162355128334
 11
1232.8783098030783
 21
818.68161980128343
  0
ARC
  8
_0-a_極細1
  6
CONTINUOUS
 62
    7
 10
1236.3783094530784
 20
818.68161980128343
 40
3.4999996500000385
 50
89.999999999999915
 51
179.99999999999983
  0
LINE
  8
_0-a_極細1
  6
CONTINUOUS
 62
    7
 10
1240.3490557226708
 20
822.18161945128384
 11
1236.3783094530784
 21
822.18161945128384
  0
ARC
  8
_0-a_極細1
  6
CONTINUOUS
 62
    7
 10
1240.3490557226708
 20
827.84828555128342
 40
5.6666660999999614
 50
269.99999999999977
 51
356.64911199999869
  0
ARC
  8
_0-a_極細1
  6
CONTINUOUS
 62
    7
 10
1240.3490557226708
 20
827.84828555128342
 40
3.3333330000000005
 50
269.99999999999977
 51
356.64911200000182
  0
ARC
  8
_0-a_極細1
  6
CONTINUOUS
 62
    7
 10
1249.4749748100783
 20
827.01495230128353
 40
5.8333327500000012
 50
89.999999999999915
 51
175.84900999999849
  0
ARC
  8
_0-a_極細1
  6
CONTINUOUS
 62
    7
 10
1236.3783094530784
 20
818.68161980128343
 40
5.8333327500000012
 50
89.999999999999915
 51
179.99999999999983
  0
LINE
  8
_0-a_極細1
  6
CONTINUOUS
 62
    7
 10
1237.8783093030786
 20
824.51495255128395
 11
1237.8783093030786
 21
832.84828505128371
  0
LINE
  8
_0-a_極細1
  6
CONTINUOUS
 62
    7
 10
1230.544976703078
 20
783.51495665128368
 11
1230.544976703078
 21
818.68161980128343
  0
LINE
  8
_0-a_極細1
  6
CONTINUOUS
 62
    7
 10
1240.3490557226708
 20
824.51495255128395
 11
1236.3783094530784
 21
824.51495255128395
  0
LINE
  8
_0-a_極細1
  6
CONTINUOUS
 62
    7
 10
1217.0449780530782
 20
787.84828955128341
 11
1230.544976703078
 21
787.84828955128341
  0
LINE
  8
_0-a_極細1
  6
CONTINUOUS
 62
    7
 10
1272.544972503078
 20
828.15807218697171
 11
1249.4749748100783
 21
825.49140578697177
  0
LINE
  8
_0-a_極細1
  6
CONTINUOUS
 62
    7
 10
1249.4749748100771
 20
762.1580787869716
 11
1244.5449753030773
 21
764.82474518697154
  0
LINE
  8
_0-a_極細1
  6
CONTINUOUS
 62
    7
 10
1244.5449753030773
 20
764.82474518697154
 11
1244.5449753030773
 21
774.51495755128349
  0
LINE
  8
_0-a_極細1
  6
CONTINUOUS
 62
    7
 10
1272.544972503078
 20
783.34221333522487
 11
1272.544972503078
 21
836.08666472744574
  0
LINE
  8
_0-a_極細1
  6
CONTINUOUS
 62
    7
 10
1259.5449738030777
 20
781.49141018697151
 11
1272.544972503078
 21
781.49141018697151
  0
LINE
  8
_0-a_極細1
  6
CONTINUOUS
 62
    7
 10
1272.544972503078
 20
781.49141018697151
 11
1272.544972503078
 21
783.34221333522487
  0
LINE
  8
_0-a_極細1
  6
CONTINUOUS
 62
    7
 10
1259.5449738030777
 20
754.82474618697142
 11
1259.5449738030777
 21
781.49141018697151
  0
LINE
  8
_0-a_極細1
  6
CONTINUOUS
 62
    7
 10
1249.4749748100783
 20
830.49140346613569
 11
1272.544972503078
 21
833.77726162505257
  0
LINE
  8
_0-a_極細1
  6
CONTINUOUS
 62
    7
 10
1249.4749748100783
 20
779.44495705828353
 11
1249.4749748100783
 21
830.51495195128382
  0
ARC
  8
_0-a_極細1
  6
CONTINUOUS
 62
    7
 10
1249.4749748100783
 20
827.01495230128353
 40
3.4999996500000385
 50
89.999999999999915
 51
175.84900999999951
  0
LINE
  8
_0-a_極細1
  6
CONTINUOUS
 62
    7
 10
1217.8783113030779
 20
764.85088851769092
 11
1207.8783123030778
 21
764.85088851769092
  0
ARC
  8
_0-a_極細1
  6
CONTINUOUS
 62
    7
 10
1217.8783113030779
 20
771.51755451769077
 40
6.6666660000000011
 50
269.99999999999977
 51
359.99999999999966
  0
LINE
  8
_0-a_極細1
  6
CONTINUOUS
 62
    7
 10
1224.544977303078
 20
771.51755451769077
 11
1224.544977303078
 21
774.85088751769069
  0
LINE
  8
_0-a_極細1
  6
CONTINUOUS
 62
    7
 10
1224.544977303078
 20
774.85088751769069
 11
1217.0449780530782
 21
774.85088751769069
  0
LINE
  8
_0-a_極細1
  6
CONTINUOUS
 62
    7
 10
1227.8783103030776
 20
789.51755271769059
 11
1217.0449780530782
 21
789.51755271769059
  0
LINE
  8
_0-a_極細1
  6
CONTINUOUS
 62
    7
 10
1217.0449780530782
 20
774.85088751769069
 11
1217.0449780530782
 21
789.51755271769071
  0
LINE
  8
_0-a_極細1
  6
CONTINUOUS
 62
    7
 10
1226.8783104030783
 20
812.84828705128348
 11
1226.8783104030783
 21
816.1816200512834
  0
ARC
  8
_0-a_極細1
  6
CONTINUOUS
 62
    7
 10
1228.8783102030777
 20
814.51495355128361
 40
1.6666665000000003
 50
269.99999999999977
 51
359.99999999999966
  0
CIRCLE
  8
_0-a_極細1
  6
CONTINUOUS
 62
    7
 10
1231.2955761484018
 20
804.23542091858758
 40
62.050673138549151
  0
ARC
  8
_0-a_極細1
  6
CONTINUOUS
 62
    7
 10
1267.8783063030776
 20
740.39099096368079
 40
16.666665000000002
 50
120.00000000000014
 51
161.13978923390172
  0
LINE
  8
_0-a_極細1
  6
CONTINUOUS
 62
    7
 10
1242.8783088030775
 20
743.27538203082645
 11
1242.8783088030775
 21
762.1580787869716
  0
LINE
  8
_0-a_極細1
  6
CONTINUOUS
 62
    7
 10
1258.2257462397704
 20
753.97796290177121
 11
1259.5449738030777
 21
755.2971904650791
  0
LINE
  8
_0-a_極細1
  6
CONTINUOUS
 62
    7
 10
1242.8783088030775
 20
743.3445702015847
 11
1259.5449738030777
 21
760.01123520158467
  0
LINE
  8
_0-a_極細1
  6
CONTINUOUS
 62
    7
 10
1242.8783088030775
 20
745.70159256983766
 11
1259.5449738030777
 21
762.36825756983762
  0
LINE
  8
_0-a_極細1
  6
CONTINUOUS
 62
    7
 10
1242.8783088030775
 20
748.05861493809061
 11
1259.5449738030777
 21
764.72527993809069
  0
LINE
  8
_0-a_極細1
  6
CONTINUOUS
 62
    7
 10
1242.8783088030775
 20
750.41563730634368
 11
1259.5449738030777
 21
767.08230230634342
  0
LINE
  8
_0-a_極細1
  6
CONTINUOUS
 62
    7
 10
1242.8783088030775
 20
752.77265967459641
 11
1259.5449738030777
 21
769.43932467459626
  0
LINE
  8
_0-a_極細1
  6
CONTINUOUS
 62
    7
 10
1271.5970593154527
 20
781.49141018697151
 11
1272.544972503078
 21
782.43932337459637
  0
LINE
  8
_0-a_極細1
  6
CONTINUOUS
 62
    7
 10
1242.8783088030775
 20
755.12968204284903
 11
1259.5449738030777
 21
771.79634704284922
  0
LINE
  8
_0-a_極細1
  6
CONTINUOUS
 62
    7
 10
1269.2400369472
 20
781.49141018697151
 11
1272.5449725030783
 21
784.79634574284944
  0
LINE
  8
_0-a_極細1
  6
CONTINUOUS
 62
    7
 10
1242.8783088030775
 20
757.4867044111021
 11
1247.5496831789471
 21
762.1580787869716
  0
LINE
  8
_0-a_極細1
  6
CONTINUOUS
 62
    7
 10
1248.2255205220383
 20
762.83391613006245
 11
1259.5449738030777
 21
774.1533694111024
  0
LINE
  8
_0-a_極細1
  6
CONTINUOUS
 62
    7
 10
1266.8830145789475
 20
781.49141018697173
 11
1272.544972503078
 21
787.15336811110228
  0
LINE
  8
_0-a_極細1
  6
CONTINUOUS
 62
    7
 10
1242.8783088030775
 20
759.84372677935482
 11
1245.1926608106949
 21
762.15807878697194
  0
LINE
  8
_0-a_極細1
  6
CONTINUOUS
 62
    7
 10
1246.6958864357523
 20
763.66130441202927
 11
1259.5449738030777
 21
776.51039177935502
  0
LINE
  8
_0-a_極細1
  6
CONTINUOUS
 62
    7
 10
1264.5259922106945
 20
781.49141018697151
 11
1272.544972503078
 21
789.51039047935524
  0
LINE
  8
_0-a_極細1
  6
CONTINUOUS
 62
    7
 10
1245.1662523494663
 20
764.48869269399609
 11
1259.5449738030777
 21
778.8674141476082
  0
LINE
  8
_0-a_極細1
  6
CONTINUOUS
 62
    7
 10
1262.1689698424414
 20
781.49141018697151
 11
1272.544972503078
 21
791.86741284760797
  0
LINE
  8
_0-a_極細1
  6
CONTINUOUS
 62
    7
 10
1244.5449753030778
 20
766.22443801586076
 11
1259.5449738030777
 21
781.22443651586093
  0
LINE
  8
_0-a_極細1
  6
CONTINUOUS
 62
    7
 10
1259.8119474741886
 20
781.49141018697151
 11
1272.544972503078
 21
794.22443521586104
  0
LINE
  8
_0-a_極細1
  6
CONTINUOUS
 62
    7
 10
1244.5449753030778
 20
768.5814603841136
 11
1272.544972503078
 21
796.58145758411388
  0
LINE
  8
_0-a_極細1
  6
CONTINUOUS
 62
    7
 10
1244.5449753030778
 20
770.93848275236633
 11
1272.5449725030783
 21
798.93847995236683
  0
LINE
  8
_0-a_極細1
  6
CONTINUOUS
 62
    7
 10
1244.5449753030778
 20
773.29550512061928
 11
1272.5449725030783
 21
801.2955023206199
  0
LINE
  8
_0-a_極細1
  6
CONTINUOUS
 62
    7
 10
1249.4749748100783
 20
780.58252699587285
 11
1272.544972503078
 21
803.65252468887263
  0
LINE
  8
_0-a_極細1
  6
CONTINUOUS
 62
    7
 10
1249.4749748100783
 20
782.93954936412558
 11
1272.544972503078
 21
806.00954705712536
  0
LINE
  8
_0-a_極細1
  6
CONTINUOUS
 62
    7
 10
1249.4749748100783
 20
785.29657173237865
 11
1272.544972503078
 21
808.36656942537843
  0
LINE
  8
_0-a_極細1
  6
CONTINUOUS
 62
    7
 10
1249.4749748100783
 20
787.65359410063172
 11
1272.544972503078
 21
810.72359179363116
  0
LINE
  8
_0-a_極細1
  6
CONTINUOUS
 62
    7
 10
1249.4749748100783
 20
790.01061646888445
 11
1272.5449725030783
 21
813.08061416188423
  0
LINE
  8
_0-a_極細1
  6
CONTINUOUS
 62
    7
 10
1249.4749748100783
 20
792.36763883713729
 11
1272.5449725030783
 21
815.43763653013707
  0
LINE
  8
_0-a_極細1
  6
CONTINUOUS
 62
    7
 10
1249.4749748100783
 20
794.72466120539025
 11
1272.5449725030783
 21
817.79465889839003
  0
LINE
  8
_0-a_極細1
  6
CONTINUOUS
 62
    7
 10
1249.4749748100783
 20
797.08168357364332
 11
1272.544972503078
 21
820.1516812666431
  0
LINE
  8
_0-a_極細1
  6
CONTINUOUS
 62
    7
 10
1249.4749748100783
 20
799.43870594189605
 11
1272.544972503078
 21
822.50870363489582
  0
LINE
  8
_0-a_極細1
  6
CONTINUOUS
 62
    7
 10
1249.4749748100783
 20
801.79572831014889
 11
1272.544972503078
 21
824.86572600314867
  0
LINE
  8
_0-a_極細1
  6
CONTINUOUS
 62
    7
 10
1249.4749748100783
 20
804.15275067840184
 11
1272.5449725030783
 21
827.22274837140162
  0
LINE
  8
_0-a_極細1
  6
CONTINUOUS
 62
    7
 10
1249.4749748100783
 20
806.50977304665446
 11
1270.9374613638659
 21
827.97225960044238
  0
LINE
  8
_0-a_極細1
  6
CONTINUOUS
 62
    7
 10
1249.4749748100783
 20
808.86679541490764
 11
1268.2723818326333
 21
827.66420243746211
  0
LINE
  8
_0-a_極細1
  6
CONTINUOUS
 62
    7
 10
1249.4749748100783
 20
811.22381778316037
 11
1265.6073023013994
 21
827.35614527448195
  0
LINE
  8
_0-a_極細1
  6
CONTINUOUS
 62
    7
 10
1249.4749748100783
 20
813.58084015141344
 11
1262.9422227701668
 21
827.04808811150144
  0
LINE
  8
_0-a_極細1
  6
CONTINUOUS
 62
    7
 10
1249.4749748100783
 20
815.93786251966651
 11
1260.2771432389329
 21
826.74003094852105
  0
LINE
  8
_0-a_極細1
  6
CONTINUOUS
 62
    7
 10
1249.4749748100783
 20
818.2948848879189
 11
1257.6120637076999
 21
826.43197378554078
  0
LINE
  8
_0-a_極細1
  6
CONTINUOUS
 62
    7
 10
1249.4749748100783
 20
820.65190725617185
 11
1254.9469841764671
 21
826.12391662256061
  0
LINE
  8
_0-a_極細1
  6
CONTINUOUS
 62
    7
 10
1249.4749748100783
 20
823.00892962442504
 11
1252.2819046452339
 21
825.81585945958011
  0
LINE
  8
_0-a_極細1
  6
CONTINUOUS
 62
    7
 10
1249.4749748100783
 20
825.36595199267776
 11
1249.6168251140007
 21
825.50780229660006
  0
LINE
  8
_0-a_極細1
  6
CONTINUOUS
 62
    7
 10
1245.7928047183257
 20
743.9020437485799
 11
1259.5449738030777
 21
757.65421283333183
  0
LINE
  8
_0-a_極細1
  6
CONTINUOUS
 62
    7
 10
1249.0169074744697
 20
744.76912413647119
 11
1254.2913343649873
 21
750.0435510269881
  0
LINE
  8
_0-a_極細1
  6
CONTINUOUS
 62
    7
 10
1185.6909347608628
 20
762.1580787869716
 11
1249.4749748100771
 21
762.1580787869716
  0
LINE
  8
_0-a_極細1
  6
CONTINUOUS
 62
    7
 10
1183.367664913668
 20
764.82474518697154
 11
1244.5449753030773
 21
764.82474518697154
  0
LINE
  8
_0-a_極細1
  6
CONTINUOUS
 62
    7
 10
1176.8255835453194
 20
774.51495755128349
 11
1207.8783123030778
 21
774.51495755128349
  0
LINE
  8
_0-a_極細1
  6
CONTINUOUS
 62
    7
 10
1178.0719191324226
 20
836.1341414382656
 11
1272.544972503078
 21
836.1341414382656
  0
LINE
  8
_0-a_極細1
  6
CONTINUOUS
 62
    7
 10
1176.2356992590464
 20
832.84828505128405
 11
1249.4749748100783
 21
832.84828505128371
  0
LINE
  8
_0-a_極細1
  6
CONTINUOUS
 62
    7
 10
1175.4011357264171
 20
831.1816185512838
 11
1236.0449761530783
 21
831.18161855128346
  0
LINE
  8
_0-a_極細1
  6
CONTINUOUS
 62
    7
 10
1170.4057217945845
 20
816.18162005128386
 11
1226.8783104030783
 21
816.1816200512834
  0
LINE
  8
_0-a_極細1
  6
CONTINUOUS
 62
    7
 10
1169.8455592734865
 20
812.84828705128359
 11
1228.8783102030777
 21
812.84828705128348
  0
LINE
  8
_0-a_極細1
  6
CONTINUOUS
 62
    7
 10
1227.8783103030776
 20
809.85088401769076
 11
1169.4995195498639
 21
809.85088401769076
  0
LINE
  8
_0-a_極細1
  6
CONTINUOUS
 62
    7
 10
1169.4439855934713
 20
809.20198741591378
 11
1230.0449767530779
 21
809.20198741591321
  0
LINE
  8
_0-a_極細1
  6
CONTINUOUS
 62
    7
 10
1169.266400873453
 20
805.86865441591385
 11
1213.7116450530777
 21
805.86865441591374
  0
LINE
  8
_0-a_極細1
  6
CONTINUOUS
 62
    7
 10
1169.5389268676201
 20
798.20198851591385
 11
1213.7116450530777
 21
798.20198851591385
  0
LINE
  8
_0-a_極細1
  6
CONTINUOUS
 62
    7
 10
1169.9559499444674
 20
794.86865551591359
 11
1227.3783103530784
 21
794.86865551591359
  0
LINE
  8
_0-a_極細1
  6
CONTINUOUS
 62
    7
 10
1227.8783103030776
 20
794.51755221769031
 11
1170.0105937721357
 21
794.51755221769031
  0
LINE
  8
_0-a_極細1
  6
CONTINUOUS
 62
    7
 10
1217.0449780530782
 20
789.51755271769071
 11
1171.0156425670837
 21
789.51755271769071
  0
LINE
  8
_0-a_極細1
  6
CONTINUOUS
 62
    7
 10
1198.4052038809589
 20
768.84829145128379
 11
1198.4052038809589
 21
774.51495755128349
  0
LINE
  8
_0-a_極細1
  6
CONTINUOUS
 62
    7
 10
1197.7385372809588
 20
768.84829145128379
 11
1197.7385372809588
 21
774.51495755128349
  0
LINE
  8
_0-a_極細1
  6
CONTINUOUS
 62
    7
 10
1197.0718706809587
 20
768.84829145128379
 11
1197.0718706809587
 21
774.51495755128349
  0
LINE
  8
_0-a_極細1
  6
CONTINUOUS
 62
    7
 10
1196.4052040809586
 20
768.84829145128379
 11
1196.4052040809586
 21
774.51495755128349
  0
LINE
  8
_0-a_極細1
  6
CONTINUOUS
 62
    7
 10
1195.7385374809585
 20
768.84829145128379
 11
1195.7385374809585
 21
774.51495755128349
  0
LINE
  8
_0-a_極細1
  6
CONTINUOUS
 62
    7
 10
1195.0718708809584
 20
768.84829145128379
 11
1195.0718708809584
 21
774.51495755128349
  0
LINE
  8
_0-a_極細1
  6
CONTINUOUS
 62
    7
 10
1194.4052042809587
 20
768.84829145128379
 11
1194.4052042809587
 21
774.51495755128349
  0
LINE
  8
_0-a_極細1
  6
CONTINUOUS
 62
    7
 10
1193.7385376809586
 20
768.84829145128379
 11
1193.7385376809586
 21
774.51495755128349
  0
LINE
  8
_0-a_極細1
  6
CONTINUOUS
 62
    7
 10
1193.0718710809585
 20
768.84829145128379
 11
1193.0718710809585
 21
774.51495755128349
  0
LINE
  8
_0-a_極細1
  6
CONTINUOUS
 62
    7
 10
1192.4052044809584
 20
768.84829145128379
 11
1192.4052044809584
 21
774.51495755128349
  0
LINE
  8
_0-a_極細1
  6
CONTINUOUS
 62
    7
 10
1191.7385378809588
 20
768.84829145128379
 11
1191.7385378809588
 21
774.51495755128349
  0
LINE
  8
_0-a_極細1
  6
CONTINUOUS
 62
    7
 10
1191.0718712809582
 20
768.84829145128379
 11
1191.0718712809582
 21
774.51495755128349
  0
LINE
  8
_0-a_極細1
  6
CONTINUOUS
 62
    7
 10
1190.4052046809586
 20
768.84829145128379
 11
1190.4052046809586
 21
774.51495755128349
  0
LINE
  8
_0-a_極細1
  6
CONTINUOUS
 62
    7
 10
1189.7385380809585
 20
768.84829145128379
 11
1189.7385380809585
 21
774.51495755128349
  0
LINE
  8
_0-a_極細1
  6
CONTINUOUS
 62
    7
 10
1189.0718714809584
 20
768.84829145128379
 11
1189.0718714809584
 21
774.51495755128349
  0
LINE
  8
_0-a_極細1
  6
CONTINUOUS
 62
    7
 10
1188.4052048809583
 20
768.84829145128379
 11
1188.4052048809583
 21
774.51495755128349
  0
LINE
  8
_0-a_極細1
  6
CONTINUOUS
 62
    7
 10
1187.7385382809582
 20
768.84829145128379
 11
1187.7385382809582
 21
774.51495755128349
  0
LINE
  8
_0-a_極細1
  6
CONTINUOUS
 62
    7
 10
1187.0718716809581
 20
768.84829145128379
 11
1187.0718716809581
 21
774.51495755128349
  0
LINE
  8
_0-a_極細1
  6
CONTINUOUS
 62
    7
 10
1186.4052050809585
 20
768.84829145128379
 11
1186.4052050809585
 21
774.51495755128349
  0
LINE
  8
_0-a_極細1
  6
CONTINUOUS
 62
    7
 10
1185.7385384809584
 20
768.84829145128379
 11
1185.7385384809584
 21
774.51495755128349
  0
LINE
  8
_0-a_極細1
  6
CONTINUOUS
 62
    7
 10
1185.0718718809583
 20
768.84829145128379
 11
1185.0718718809583
 21
774.51495755128349
  0
LINE
  8
_0-a_極細1
  6
CONTINUOUS
 62
    7
 10
1184.4052052809582
 20
768.84829145128379
 11
1184.4052052809582
 21
774.51495755128349
  0
LINE
  8
_0-a_極細1
  6
CONTINUOUS
 62
    7
 10
1183.7385386809581
 20
768.84829145128379
 11
1183.7385386809581
 21
774.51495755128349
  0
LINE
  8
_0-a_極細1
  6
CONTINUOUS
 62
    7
 10
1183.071872080958
 20
768.84829145128379
 11
1183.071872080958
 21
774.51495755128349
  0
LINE
  8
_0-a_極細1
  6
CONTINUOUS
 62
    7
 10
1182.4052054809586
 20
768.84829145128379
 11
1182.4052054809586
 21
774.51495755128349
  0
LINE
  8
_0-a_極細1
  6
CONTINUOUS
 62
    7
 10
1198.8326898743069
 20
768.84829145128379
 11
1198.8326898743069
 21
774.51495755128349
  0
LINE
  8
_0-a_極細1
  6
CONTINUOUS
 62
    7
 10
1182.1660248743067
 20
768.84829145128379
 11
1182.1660248743067
 21
774.51495755128349
  0
LINE
  8
_0-a_極細1
  6
CONTINUOUS
 62
    7
 10
1182.1660248743067
 20
768.84829145128379
 11
1198.8326898743069
 21
768.84829145128379
  0
ARC
  8
_0-a_極細1
  6
CONTINUOUS
 62
    7
 10
1192.8783138030778
 20
766.09837505960877
 40
19.999997999999998
 50
55.166292356154557
 51
148.68484545273043
  0
LINE
  8
_0-a_極細1
  6
CONTINUOUS
 62
    7
 10
1207.8351000160872
 20
774.51495755128349
 11
1207.8351000160872
 21
775.77953080316161
  0
LINE
  8
_0-a_極細1
  6
CONTINUOUS
 62
    7
 10
1206.8351000160872
 20
774.51495755128349
 11
1206.8351000160872
 21
779.29790357091872
  0
LINE
  8
_0-a_極細1
  6
CONTINUOUS
 62
    7
 10
1205.8351000160872
 20
774.51495755128349
 11
1205.8351000160872
 21
780.90807541337995
  0
LINE
  8
_0-a_極細1
  6
CONTINUOUS
 62
    7
 10
1204.8351000160872
 20
774.51495755128349
 11
1204.8351000160872
 21
782.03441719534248
  0
LINE
  8
_0-a_極細1
  6
CONTINUOUS
 62
    7
 10
1203.8351000160874
 20
774.51495755128349
 11
1203.8351000160874
 21
782.83004430934045
  0
LINE
  8
_0-a_極細1
  6
CONTINUOUS
 62
    7
 10
1202.8351000160872
 20
774.51495755128349
 11
1202.8351000160872
 21
783.44375854653208
  0
LINE
  8
_0-a_極細1
  6
CONTINUOUS
 62
    7
 10
1201.8351000160872
 20
774.51495755128349
 11
1201.8351000160872
 21
783.98065401768486
  0
LINE
  8
_0-a_極細1
  6
CONTINUOUS
 62
    7
 10
1200.8351000160872
 20
774.51495755128349
 11
1200.8351000160872
 21
784.44747512365768
  0
LINE
  8
_0-a_極細1
  6
CONTINUOUS
 62
    7
 10
1199.8351000160872
 20
774.51495755128349
 11
1199.8351000160872
 21
784.84945624407624
  0
LINE
  8
_0-a_極細1
  6
CONTINUOUS
 62
    7
 10
1198.8351000160874
 20
774.51495755128349
 11
1198.8351000160874
 21
785.19069335814208
  0
LINE
  8
_0-a_極細1
  6
CONTINUOUS
 62
    7
 10
1197.8351000160872
 20
774.51495755128349
 11
1197.8351000160872
 21
785.47439607628121
  0
LINE
  8
_0-a_極細1
  6
CONTINUOUS
 62
    7
 10
1196.8351000160872
 20
774.51495755128349
 11
1196.8351000160872
 21
785.70306232731468
  0
LINE
  8
_0-a_極細1
  6
CONTINUOUS
 62
    7
 10
1195.8351000160872
 20
774.51495755128349
 11
1195.8351000160872
 21
785.87860092511801
  0
LINE
  8
_0-a_極細1
  6
CONTINUOUS
 62
    7
 10
1194.8351000160872
 20
774.51495755128349
 11
1194.8351000160872
 21
786.00241755646323
  0
LINE
  8
_0-a_極細1
  6
CONTINUOUS
 62
    7
 10
1193.8351000160874
 20
774.51495755128349
 11
1193.8351000160874
 21
786.07547395165511
  0
LINE
  8
_0-a_極細1
  6
CONTINUOUS
 62
    7
 10
1192.8351000160872
 20
774.51495755128349
 11
1192.8351000160872
 21
786.09832637376485
  0
LINE
  8
_0-a_極細1
  6
CONTINUOUS
 62
    7
 10
1191.8351000160872
 20
774.51495755128349
 11
1191.8351000160872
 21
786.07114715049875
  0
LINE
  8
_0-a_極細1
  6
CONTINUOUS
 62
    7
 10
1190.8351000160867
 20
774.51495755128349
 11
1190.8351000160867
 21
785.9937312368844
  0
LINE
  8
_0-a_極細1
  6
CONTINUOUS
 62
    7
 10
1189.8351000160867
 20
774.51495755128349
 11
1189.8351000160867
 21
785.86548840088028
  0
LINE
  8
_0-a_極細1
  6
CONTINUOUS
 62
    7
 10
1188.8351000160867
 20
774.51495755128349
 11
1188.8351000160867
 21
785.68542032612856
  0
LINE
  8
_0-a_極細1
  6
CONTINUOUS
 62
    7
 10
1187.8351000160867
 20
774.51495755128349
 11
1187.8351000160867
 21
785.45208051098712
  0
LINE
  8
_0-a_極細1
  6
CONTINUOUS
 62
    7
 10
1186.8351000160869
 20
774.51495755128349
 11
1186.8351000160869
 21
785.16351306395393
  0
LINE
  8
_0-a_極細1
  6
CONTINUOUS
 62
    7
 10
1185.8351000160867
 20
774.51495755128349
 11
1185.8351000160867
 21
784.81716400416246
  0
LINE
  8
_0-a_極細1
  6
CONTINUOUS
 62
    7
 10
1184.8351000160867
 20
774.51495755128349
 11
1184.8351000160867
 21
784.40975490867447
  0
LINE
  8
_0-a_極細1
  6
CONTINUOUS
 62
    7
 10
1183.8351000160867
 20
774.51495755128349
 11
1183.8351000160867
 21
783.93710271610871
  0
LINE
  8
_0-a_極細1
  6
CONTINUOUS
 62
    7
 10
1182.8351000160867
 20
774.51495755128349
 11
1182.8351000160867
 21
783.39385934970005
  0
LINE
  8
_0-a_極細1
  6
CONTINUOUS
 62
    7
 10
1181.8351000160869
 20
774.51495755128349
 11
1181.8351000160869
 21
782.77312690948088
  0
LINE
  8
_0-a_極細1
  6
CONTINUOUS
 62
    7
 10
1180.8351000160867
 20
774.51495755128349
 11
1180.8351000160867
 21
782.06587084576256
  0
LINE
  8
_0-a_極細1
  6
CONTINUOUS
 62
    7
 10
1179.8351000160867
 20
774.51495755128349
 11
1179.8351000160867
 21
781.25998757631862
  0
LINE
  8
_0-a_極細1
  6
CONTINUOUS
 62
    7
 10
1178.8351000160867
 20
774.51495755128349
 11
1178.8351000160867
 21
780.33874255953208
  0
LINE
  8
_0-a_極細1
  6
CONTINUOUS
 62
    7
 10
1177.8351000160867
 20
774.51495755128349
 11
1177.8351000160867
 21
779.2779668195567
  0
LINE
  8
_0-a_極細1
  6
CONTINUOUS
 62
    7
 10
1176.8351000160869
 20
774.51495755128349
 11
1176.8351000160869
 21
778.04053614481052
  0
LINE
  8
_0-a_極細1
  6
CONTINUOUS
 62
    7
 10
1175.8351000160867
 20
776.40698898065716
 11
1175.8351000160867
 21
776.56397508115163
  0
LINE
  8
_0-d_寸法1
  6
CONTINUOUS
 62
    7
 10
1265.9002937719717
 20
829.82814259183397
 11
1269.9822093338944
 21
838.95710558580731
  0
LINE
  8
_0-d_寸法1
  6
CONTINUOUS
 62
    7
 10
1265.9002937719717
 20
829.82814259183397
 11
1273.9998178416865
 21
835.69309867386153
  0
LINE
  8
_0-d_寸法1
  6
CONTINUOUS
 62
    7
 10
1265.9002937719717
 20
829.82814259183397
 11
1286.3582315342783
 21
855.00945716102478
  0
LINE
  8
_0-d_寸法1
  6
CONTINUOUS
 62
    7
 10
1286.3582315342783
 20
855.00945716102478
 11
1334.3582315342778
 21
855.00945716102478
  0
TEXT
  8
_0-d_寸法1
 62
    7
 10
1286.3582315342783
 20
855.00945716102478
 40
15
 41
0.8000000000000001
 50
0
  1
パッキン
  0
LINE
  8
_0-d_寸法1
  6
CONTINUOUS
 62
    7
 10
1222.863411464652
 20
799.38191756910896
 11
1229.9344438911228
 21
792.31081437202624
  0
LINE
  8
_0-d_寸法1
  6
CONTINUOUS
 62
    7
 10
1222.863411464652
 20
799.38191756910896
 11
1225.451553578418
 21
789.72264635441832
  0
LINE
  8
_0-d_寸法1
  6
CONTINUOUS
 62
    7
 10
1222.863411464652
 20
799.38191756910896
 11
1260.2687266255846
 21
734.5932624903661
  0
LINE
  8
_0-d_寸法1
  6
CONTINUOUS
 62
    7
 10
1260.2687266255846
 20
734.5932624903661
 11
1380.2687266255843
 21
734.5932624903661
  0
TEXT
  8
_0-d_寸法1
 62
    7
 10
1260.2687266255846
 20
734.5932624903661
 40
15
 41
0.8000000000000001
 50
0
  1
防臭インナーパッキン
  0
LINE
  8
_0-d_寸法1
  6
CONTINUOUS
 62
    7
 10
1265.2132964158222
 20
786.24220533721655
 11
1272.2846923079251
 21
779.17146562081143
  0
LINE
  8
_0-d_寸法1
  6
CONTINUOUS
 62
    7
 10
1265.2132964158222
 20
786.24220533721655
 11
1267.8019350403977
 21
776.58306717321068
  0
LINE
  8
_0-d_寸法1
  6
CONTINUOUS
 62
    7
 10
1265.2132964158222
 20
786.24220533721655
 11
1283.8863594344398
 21
753.90297679561047
  0
LINE
  8
_0-d_寸法1
  6
CONTINUOUS
 62
    7
 10
1283.8863594344398
 20
753.90297679561047
 11
1367.8863594344398
 21
753.90297679561047
  0
TEXT
  8
_0-d_寸法1
 62
    7
 10
1283.8863594344398
 20
753.90297679561047
 40
15
 41
0.8000000000000001
 50
0
  1
ロックフランジ
  0
LINE
  8
_0-1_計細線
  6
CONTINUOUS
 62
    3
 10
567.65882911398637
 20
440.26475899176199
 11
567.6588291139866
 21
423.26475899176211
  0
LINE
  8
_0-1_計細線
  6
CONTINUOUS
 62
    3
 10
565.65882911398614
 20
440.26475899176199
 11
565.65882911398614
 21
425.26475899176199
  0
LINE
  8
_0-1_計細線
  6
CONTINUOUS
 62
    3
 10
567.6588291139866
 20
423.26475899176211
 11
440.65882911398637
 21
423.26475899176211
  0
LINE
  8
_0-1_計細線
  6
CONTINUOUS
 62
    3
 10
565.65882911398614
 20
425.26475899176199
 11
442.65882911398683
 21
425.26475899176199
  0
LINE
  8
_0-1_計細線
  6
CONTINUOUS
 62
    3
 10
442.65882911398683
 20
440.26475899176199
 11
442.65882911398683
 21
425.26475899176199
  0
LINE
  8
_0-1_計細線
  6
CONTINUOUS
 62
    3
 10
440.6588291139866
 20
440.26475899176199
 11
440.65882911398637
 21
423.26475899176211
  0
LINE
  8
_0-1_計細線
  6
CONTINUOUS
 62
    3
 10
567.65882911398649
 20
440.26475899176199
 11
440.6588291139866
 21
440.26475899176199
  0
LINE
  8
_0-1_計細線
  6
CONTINUOUS
 62
    3
 10
435.65882911398654
 20
423.26475899176194
 11
435.65882911398654
 21
415.26475899176199
  0
LINE
  8
_0-1_計細線
  6
CONTINUOUS
 62
    3
 10
460.65882911398631
 20
415.26475899176205
 11
460.65882911398631
 21
423.26475899176211
  0
LINE
  8
_0-1_計細線
  6
CONTINUOUS
 62
    3
 10
435.65882911398654
 20
415.26475899176199
 11
460.65882911398631
 21
415.26475899176199
  0
LINE
  8
_0-1_計細線
  6
CONTINUOUS
 62
    3
 10
437.83727556804138
 20
406.8725267214856
 11
436.15882911398609
 21
415.26475899176199
  0
ARC
  8
_0-1_計細線
  6
CONTINUOUS
 62
    3
 10
439.7984369194233
 20
407.26475899176194
 40
2
 50
191.30993247402051
 51
269.99999999999977
  0
LINE
  8
_0-1_計細線
  6
CONTINUOUS
 62
    3
 10
460.15882911398626
 20
415.26475899176199
 11
458.48038265993097
 21
406.8725267214856
  0
LINE
  8
_0-1_計細線
  6
CONTINUOUS
 62
    3
 10
456.51922130854905
 20
405.26475899176199
 11
439.7984369194233
 21
405.26475899176199
  0
ARC
  8
_0-1_計細線
  6
CONTINUOUS
 62
    3
 10
456.51922130854905
 20
407.26475899176194
 40
2
 50
269.99999999999977
 51
348.6900675259788
  0
LINE
  8
_0-1_計細線
  6
CONTINUOUS
 62
    3
 10
460.65882911398631
 20
423.26475899176211
 11
435.65882911398654
 21
423.26475899176211
  0
LINE
  8
_0-1_計細線
  6
CONTINUOUS
 62
    3
 10
572.65882911398649
 20
423.26475899176194
 11
572.65882911398649
 21
415.26475899176199
  0
LINE
  8
_0-1_計細線
  6
CONTINUOUS
 62
    3
 10
547.65882911398671
 20
415.26475899176205
 11
547.65882911398671
 21
423.26475899176211
  0
LINE
  8
_0-1_計細線
  6
CONTINUOUS
 62
    3
 10
572.65882911398649
 20
415.26475899176199
 11
547.65882911398671
 21
415.26475899176199
  0
LINE
  8
_0-1_計細線
  6
CONTINUOUS
 62
    3
 10
570.48038265993159
 20
406.8725267214856
 11
572.15882911398694
 21
415.26475899176199
  0
ARC
  8
_0-1_計細線
  6
CONTINUOUS
 62
    3
 10
568.51922130854973
 20
407.26475899176194
 40
2
 50
269.99999999999977
 51
348.6900675259788
  0
LINE
  8
_0-1_計細線
  6
CONTINUOUS
 62
    3
 10
548.15882911398671
 20
415.26475899176199
 11
549.83727556804206
 21
406.8725267214856
  0
LINE
  8
_0-1_計細線
  6
CONTINUOUS
 62
    3
 10
551.79843691942392
 20
405.26475899176199
 11
568.51922130854973
 21
405.26475899176199
  0
ARC
  8
_0-1_計細線
  6
CONTINUOUS
 62
    3
 10
551.79843691942392
 20
407.26475899176194
 40
2
 50
191.30993247402051
 51
269.99999999999977
  0
LINE
  8
_0-1_計細線
  6
CONTINUOUS
 62
    3
 10
547.65882911398671
 20
423.26475899176211
 11
572.65882911398649
 21
423.26475899176211
  0
LINE
  8
_0-1_計細線
  6
CONTINUOUS
 62
    3
 10
575.65882903744614
 20
430.76475899176211
 11
574.65882903744625
 21
430.76475899176211
  0
LINE
  8
_0-1_計細線
  6
CONTINUOUS
 62
    3
 10
573.65882903744614
 20
439.51475899176194
 11
573.65882903744614
 21
405.26475899176205
  0
ARC
  8
_0-1_計細線
  6
CONTINUOUS
 62
    3
 10
574.90882903744637
 20
439.51475899176194
 40
1.25
 50
359.99999999998403
 51
179.99999999999946
  0
ARC
  8
_0-1_計細線
  6
CONTINUOUS
 62
    3
 10
574.90882903744614
 20
439.51475899176194
 40
0.25
 50
89.999999999999915
 51
179.99999999997394
  0
LINE
  8
_0-1_計細線
  6
CONTINUOUS
 62
    3
 10
574.90882903744614
 20
439.76475899176205
 11
574.89776687491121
 21
439.76475899176205
  0
LINE
  8
_0-1_計細線
  6
CONTINUOUS
 62
    3
 10
574.65882903744625
 20
435.83113196697252
 11
575.1455738500822
 21
439.48171806173923
  0
ARC
  8
_0-1_計細線
  6
CONTINUOUS
 62
    3
 10
574.89776687491121
 20
439.51475899176194
 40
0.25
 50
352.4053566314289
 51
89.999999999999545
  0
LINE
  8
_0-1_計細線
  6
CONTINUOUS
 62
    3
 10
575.65882903744614
 20
435.63201304134088
 11
575.65882903744614
 21
430.76475899176211
  0
LINE
  8
_0-1_計細線
  6
CONTINUOUS
 62
    3
 10
575.67637323608108
 20
435.89634048152305
 11
576.15882903744659
 21
439.51475899176194
  0
ARC
  8
_0-1_計細線
  6
CONTINUOUS
 62
    3
 10
577.65882903744625
 20
435.63201304134105
 40
2
 50
172.40535663140921
 51
180.0000000000029
  0
LINE
  8
_0-1_計細線
  6
CONTINUOUS
 62
    3
 10
574.65882903744625
 20
439.51475899176211
 11
574.65882903744625
 21
405.26475899176199
  0
LINE
  8
_0-1_計細線
  6
CONTINUOUS
 62
    3
 10
573.65882911398626
 20
405.26475899176199
 11
563.65870295396053
 21
405.26475899176199
  0
ARC
  8
_0-1_計細線
  6
CONTINUOUS
 62
    3
 10
563.66731175357472
 20
403.76475899176199
 40
1.5000000000000002
 50
89.999999999999915
 51
179.99999999999983
  0
LINE
  8
_0-1_計細線
  6
CONTINUOUS
 62
    3
 10
563.16731175357472
 20
402.76477571176571
 11
563.16731175357472
 21
403.76475899176199
  0
ARC
  8
_0-1_計細線
  6
CONTINUOUS
 62
    3
 10
563.66731175357472
 20
403.76475899176199
 40
0.5
 50
89.999999999999915
 51
179.99999999999983
  0
LINE
  8
_0-1_計細線
  6
CONTINUOUS
 62
    3
 10
563.16731175357472
 20
402.76477571176571
 11
563.16731175357472
 21
401.76475899176177
  0
ARC
  8
_0-1_計細線
  6
CONTINUOUS
 62
    3
 10
561.66731175357472
 20
401.76475899176177
 40
1.5000000000000002
 50
269.99999999999977
 51
359.99999999999966
  0
LINE
  8
_0-1_計細線
  6
CONTINUOUS
 62
    3
 10
562.16731175357336
 20
403.264742271758
 11
562.16731175357336
 21
401.76475899176177
  0
ARC
  8
_0-1_計細線
  6
CONTINUOUS
 62
    3
 10
561.66731175357336
 20
401.76475899176177
 40
0.5
 50
269.99999999999977
 51
359.99999999999966
  0
LINE
  8
_0-1_計細線
  6
CONTINUOUS
 62
    3
 10
562.16731175357472
 20
403.76475899176199
 11
562.16731175357472
 21
403.264742271758
  0
LINE
  8
_0-1_計細線
  6
CONTINUOUS
 62
    3
 10
561.55895527401253
 20
401.26475899176171
 11
561.66731175357472
 21
401.26475899176171
  0
LINE
  8
_0-1_計細線
  6
CONTINUOUS
 62
    3
 10
561.66731175357472
 20
400.26475899176177
 11
561.55895527401253
 21
400.26475899176177
  0
LINE
  8
_0-1_計細線
  6
CONTINUOUS
 62
    3
 10
561.05882911398612
 20
401.26475899176171
 11
561.55895527401253
 21
401.26475899176171
  0
LINE
  8
_0-1_計細線
  6
CONTINUOUS
 62
    3
 10
561.55895527401253
 20
400.26475899176177
 11
561.05882911398612
 21
400.26475899176177
  0
LINE
  8
_0-1_計細線
  6
CONTINUOUS
 62
    3
 10
573.65882903744625
 20
404.26475899176194
 11
563.65870295396053
 21
404.26475899176194
  0
ARC
  8
_0-1_計細線
  6
CONTINUOUS
 62
    3
 10
573.65882903744625
 20
405.26475899176199
 40
1
 50
269.99999999999977
 51
359.99999999999966
  0
LINE
  8
_0-1_計細線
  6
CONTINUOUS
 62
    3
 10
432.65882919052683
 20
430.76475899176211
 11
433.65882919052672
 21
430.76475899176211
  0
LINE
  8
_0-1_計細線
  6
CONTINUOUS
 62
    3
 10
434.65882919052689
 20
439.51475899176194
 11
434.65882919052689
 21
405.26475899176205
  0
ARC
  8
_0-1_計細線
  6
CONTINUOUS
 62
    3
 10
433.4088291905266
 20
439.51475899176194
 40
1.25
 50
0
 51
180.00000000001526
  0
ARC
  8
_0-1_計細線
  6
CONTINUOUS
 62
    3
 10
433.40882919052689
 20
439.51475899176194
 40
0.25
 50
0.0000000000260551
 51
89.999999999999915
  0
LINE
  8
_0-1_計細線
  6
CONTINUOUS
 62
    3
 10
433.40882919052689
 20
439.76475899176205
 11
433.41989135306176
 21
439.76475899176205
  0
LINE
  8
_0-1_計細線
  6
CONTINUOUS
 62
    3
 10
433.65882919052672
 20
435.83113196697252
 11
433.17208437789077
 21
439.48171806173923
  0
ARC
  8
_0-1_計細線
  6
CONTINUOUS
 62
    3
 10
433.41989135306176
 20
439.51475899176194
 40
0.25
 50
89.999999999999915
 51
187.59464336857042
  0
LINE
  8
_0-1_計細線
  6
CONTINUOUS
 62
    3
 10
432.65882919052683
 20
435.63201304134088
 11
432.65882919052683
 21
430.76475899176211
  0
LINE
  8
_0-1_計細線
  6
CONTINUOUS
 62
    3
 10
432.64128499189189
 20
435.89634048152305
 11
432.15882919052638
 21
439.51475899176194
  0
ARC
  8
_0-1_計細線
  6
CONTINUOUS
 62
    3
 10
430.65882919052677
 20
435.63201304134105
 40
2
 50
359.99999999999636
 51
7.5946433685904609
  0
LINE
  8
_0-1_計細線
  6
CONTINUOUS
 62
    3
 10
433.65882919052672
 20
439.51475899176211
 11
433.65882919052672
 21
405.26475899176199
  0
LINE
  8
_0-1_計細線
  6
CONTINUOUS
 62
    3
 10
434.65882911398671
 20
405.26475899176199
 11
444.65895527401244
 21
405.26475899176199
  0
ARC
  8
_0-1_計細線
  6
CONTINUOUS
 62
    3
 10
444.6503464743983
 20
403.76475899176199
 40
1.5000000000000002
 50
0
 51
89.999999999999915
  0
LINE
  8
_0-1_計細線
  6
CONTINUOUS
 62
    3
 10
445.15034647439825
 20
402.76477571176571
 11
445.15034647439825
 21
403.76475899176199
  0
ARC
  8
_0-1_計細線
  6
CONTINUOUS
 62
    3
 10
444.6503464743983
 20
403.76475899176199
 40
0.5
 50
0
 51
89.999999999999915
  0
LINE
  8
_0-1_計細線
  6
CONTINUOUS
 62
    3
 10
445.15034647439825
 20
402.76477571176571
 11
445.15034647439825
 21
401.76475899176177
  0
ARC
  8
_0-1_計細線
  6
CONTINUOUS
 62
    3
 10
446.65034647439825
 20
401.76475899176177
 40
1.5000000000000002
 50
179.99999999999983
 51
269.99999999999977
  0
LINE
  8
_0-1_計細線
  6
CONTINUOUS
 62
    3
 10
446.15034647439961
 20
403.264742271758
 11
446.15034647439961
 21
401.76475899176177
  0
ARC
  8
_0-1_計細線
  6
CONTINUOUS
 62
    3
 10
446.65034647439967
 20
401.76475899176177
 40
0.5
 50
179.99999999999983
 51
269.99999999999977
  0
LINE
  8
_0-1_計細線
  6
CONTINUOUS
 62
    3
 10
446.15034647439825
 20
403.76475899176199
 11
446.15034647439825
 21
403.264742271758
  0
LINE
  8
_0-1_計細線
  6
CONTINUOUS
 62
    3
 10
446.75870295396044
 20
401.26475899176171
 11
446.65034647439825
 21
401.26475899176171
  0
LINE
  8
_0-1_計細線
  6
CONTINUOUS
 62
    3
 10
446.65034647439825
 20
400.26475899176177
 11
446.75870295396044
 21
400.26475899176177
  0
LINE
  8
_0-1_計細線
  6
CONTINUOUS
 62
    3
 10
447.25882911398685
 20
401.26475899176171
 11
446.75870295396044
 21
401.26475899176171
  0
LINE
  8
_0-1_計細線
  6
CONTINUOUS
 62
    3
 10
446.75870295396044
 20
400.26475899176177
 11
447.25882911398685
 21
400.26475899176177
  0
LINE
  8
_0-1_計細線
  6
CONTINUOUS
 62
    3
 10
434.65882919052672
 20
404.26475899176194
 11
444.65895527401244
 21
404.26475899176194
  0
ARC
  8
_0-1_計細線
  6
CONTINUOUS
 62
    3
 10
434.65882919052672
 20
405.26475899176199
 40
1
 50
179.99999999999983
 51
269.99999999999977
  0
LINE
  8
_0-1_計細線
  6
CONTINUOUS
 62
    3
 10
574.90882903744637
 20
440.76475899176194
 11
433.4088291905266
 21
440.76475899176245
  0
LINE
  8
_0-1_計細線
  6
DASHED2
 62
    3
 10
437.65882911398717
 20
420.26475899176205
 11
437.65882911398717
 21
423.26475899176194
  0
LINE
  8
_0-1_計細線
  6
DASHED2
 62
    3
 10
440.65882911398654
 20
423.26475899176211
 11
440.65882911398654
 21
420.26475899176205
  0
LINE
  8
_0-1_計細線
  6
CONTINUOUS
 62
    3
 10
435.65882930291815
 20
420.26475899176205
 11
448.15882977975525
 21
420.26475899176205
  0
LINE
  8
_0-1_計細線
  6
CONTINUOUS
 62
    3
 10
448.15882977975525
 20
420.26475899176205
 11
448.15882911398717
 21
423.26475899176211
  0
LINE
  8
_0-1_計細線
  6
CONTINUOUS
 62
    3
 10
435.65882930291815
 20
420.26475899176205
 11
435.65882911398654
 21
423.26475899176194
  0
LINE
  8
_0-1_計細線
  6
CONTINUOUS
 62
    3
 10
435.65882911398654
 20
423.26475899176194
 11
448.15882911398717
 21
423.26475899176194
  0
LINE
  8
_1-5_寸法3
  6
CONTINUOUS
 62
    7
 10
882.46953019659441
 20
344.38028432122252
 11
837.46953019659475
 21
344.38028432122269
  0
LINE
  8
_1-5_寸法3
  6
CONTINUOUS
 62
    7
 10
842.46953019659475
 20
344.38028432122269
 11
845.05772064761982
 21
334.72102605833197
  0
LINE
  8
_1-5_寸法3
  6
CONTINUOUS
 62
    7
 10
842.46953019659475
 20
344.38028432122269
 11
839.88133974556945
 21
334.72102605833197
  0
LINE
  8
_1-5_寸法3
  6
CONTINUOUS
 62
    7
 10
884.96953019659475
 20
283.54695098788909
 11
837.46953019659475
 21
283.5469509878892
  0
LINE
  8
_1-5_寸法3
  6
CONTINUOUS
 62
    7
 10
842.46953019659475
 20
283.5469509878892
 11
839.88133974556945
 21
293.20620925077992
  0
LINE
  8
_1-5_寸法3
  6
CONTINUOUS
 62
    7
 10
842.46953019659475
 20
283.5469509878892
 11
845.05772064761982
 21
293.20620925077992
  0
LINE
  8
_1-5_寸法3
  6
CONTINUOUS
 62
    7
 10
842.46953019659475
 20
344.38028432122269
 11
842.46953019659475
 21
283.5469509878892
  0
TEXT
  8
_1-5_寸法3
 62
    7
 10
842.46953019659475
 20
298.96361765455583
 40
15
 41
1
 50
90
  1
36.5
  0
LINE
  8
_1-5_寸法3
  6
CONTINUOUS
 62
    7
 10
1142.4695301965946
 20
344.38028432122235
 11
1187.4695301965946
 21
344.38028432122195
  0
LINE
  8
_1-5_寸法3
  6
CONTINUOUS
 62
    7
 10
1182.4695301965946
 20
344.38028432122201
 11
1185.0577206476198
 21
334.72102605833135
  0
LINE
  8
_1-5_寸法3
  6
CONTINUOUS
 62
    7
 10
1182.4695301965946
 20
344.38028432122201
 11
1179.8813397455694
 21
334.72102605833135
  0
LINE
  8
_1-5_寸法3
  6
CONTINUOUS
 62
    7
 10
1142.4695301965946
 20
327.71361765455566
 11
1187.4695301965946
 21
327.71361765455532
  0
LINE
  8
_1-5_寸法3
  6
CONTINUOUS
 62
    7
 10
1182.4695301965946
 20
327.71361765455532
 11
1179.8813397455694
 21
337.37287591744598
  0
LINE
  8
_1-5_寸法3
  6
CONTINUOUS
 62
    7
 10
1182.4695301965946
 20
327.71361765455532
 11
1185.0577206476198
 21
337.37287591744598
  0
LINE
  8
_1-5_寸法3
  6
CONTINUOUS
 62
    7
 10
1182.4695301965946
 20
344.38028432122201
 11
1182.4695301965946
 21
327.71361765455532
  0
TEXT
  8
_1-5_寸法3
 62
    7
 10
1182.4695301965946
 20
328.54695098788864
 40
15
 41
1
 50
90
  1
10
  0
TEXT
  8
_0-7_枠細線
 62
    5
 10
964.41498588499815
 20
237.29869359341137
 40
25
 41
0.8
 50
0
  1
断面詳細図
  0
LINE
  8
_1-2_極細3
  6
CENTER1
 62
    2
 10
1012.4695301965947
 20
357.46038280875717
 11
1012.4695301965947
 21
275.06234067567982
  0
LINE
  8
_1-2_極細3
  6
CONTINUOUS
 62
    2
 10
1131.6361967356941
 20
327.71361765455276
 11
1129.9695300690275
 21
327.71361765455276
  0
LINE
  8
_1-2_極細3
  6
CONTINUOUS
 62
    2
 10
1128.3028634023606
 20
342.29695098788596
 11
1128.3028634023606
 21
285.21361765455265
  0
ARC
  8
_1-2_極細3
  6
CONTINUOUS
 62
    2
 10
1130.3861967356945
 20
342.29695098788596
 40
2.0833333333333339
 50
359.99999999998244
 51
179.99999999999946
  0
LINE
  8
_1-2_極細3
  6
CONTINUOUS
 62
    2
 10
1129.9695300690275
 20
342.29695098788613
 11
1129.9695300690275
 21
283.54695098788591
  0
ARC
  8
_1-2_極細3
  6
CONTINUOUS
 62
    2
 10
1130.3861967356941
 20
342.29695098788596
 40
0.4166666666666667
 50
89.999999999999915
 51
179.99999999998437
  0
LINE
  8
_1-2_極細3
  6
CONTINUOUS
 62
    2
 10
1130.3861967356941
 20
342.71361765455276
 11
1130.3677597981357
 21
342.71361765455276
  0
LINE
  8
_1-2_極細3
  6
CONTINUOUS
 62
    2
 10
1129.9695300690275
 20
336.15757261323688
 11
1130.7807714234207
 21
342.24188277118145
  0
ARC
  8
_1-2_極細3
  6
CONTINUOUS
 62
    2
 10
1130.3677597981357
 20
342.29695098788596
 40
0.4166666666666667
 50
352.4053566314289
 51
89.999999999999545
  0
LINE
  8
_1-2_極細3
  6
CONTINUOUS
 62
    2
 10
1129.9695300690275
 20
283.54695098788591
 11
894.96953032416218
 21
283.54695098788591
  0
LINE
  8
_1-2_極細3
  6
CONTINUOUS
 62
    2
 10
1128.3028634023606
 20
285.21361765455265
 11
896.63619699082915
 21
285.21361765455265
  0
LINE
  8
_1-2_極細3
  6
CONTINUOUS
 62
    2
 10
1131.6361967356941
 20
335.82570773718419
 11
1131.6361967356941
 21
327.71361765455276
  0
LINE
  8
_1-2_極細3
  6
CONTINUOUS
 62
    2
 10
1131.6654370667522
 20
336.26625347082103
 11
1132.469530069028
 21
342.29695098788596
  0
ARC
  8
_1-2_極細3
  6
CONTINUOUS
 62
    2
 10
1134.9695300690275
 20
335.8257077371843
 40
3.3333333333333339
 50
172.40535663140824
 51
180.00000000000256
  0
LINE
  8
_1-2_極細3
  6
CONTINUOUS
 62
    2
 10
893.30286365749555
 20
327.71361765455276
 11
894.96953032416218
 21
327.71361765455276
  0
LINE
  8
_1-2_極細3
  6
CONTINUOUS
 62
    2
 10
896.63619699082915
 20
342.29695098788596
 11
896.63619699082915
 21
285.21361765455265
  0
ARC
  8
_1-2_極細3
  6
CONTINUOUS
 62
    2
 10
894.55286365749521
 20
342.29695098788596
 40
2.0833333333333339
 50
0
 51
180.00000000001685
  0
LINE
  8
_1-2_極細3
  6
CONTINUOUS
 62
    2
 10
894.96953032416218
 20
342.29695098788613
 11
894.96953032416218
 21
283.54695098788591
  0
ARC
  8
_1-2_極細3
  6
CONTINUOUS
 62
    2
 10
894.55286365749555
 20
342.29695098788596
 40
0.4166666666666667
 50
0.000000000015633
 51
89.999999999999915
  0
LINE
  8
_1-2_極細3
  6
CONTINUOUS
 62
    2
 10
894.55286365749555
 20
342.71361765455276
 11
894.57130059505403
 21
342.71361765455276
  0
LINE
  8
_1-2_極細3
  6
CONTINUOUS
 62
    2
 10
894.96953032416218
 20
336.15757261323688
 11
894.15828896976905
 21
342.24188277118145
  0
ARC
  8
_1-2_極細3
  6
CONTINUOUS
 62
    2
 10
894.57130059505403
 20
342.29695098788596
 40
0.4166666666666667
 50
89.999999999999915
 51
187.59464336857042
  0
LINE
  8
_1-2_極細3
  6
CONTINUOUS
 62
    2
 10
893.30286365749555
 20
335.82570773718419
 11
893.30286365749555
 21
327.71361765455276
  0
LINE
  8
_1-2_極細3
  6
CONTINUOUS
 62
    2
 10
893.27362332643747
 20
336.26625347082103
 11
892.46953032416218
 21
342.29695098788596
  0
ARC
  8
_1-2_極細3
  6
CONTINUOUS
 62
    2
 10
889.96953032416218
 20
335.8257077371843
 40
3.3333333333333339
 50
359.9999999999967
 51
7.5946433685914272
  0
TEXT
  8
_0-7_枠細線
 62
    5
 10
1079.3639556341666
 20
239.05243570915644
 40
20
 41
0.6
 50
0
  1
Ｓ＝１：３
  0
LINE
  8
_1-3_細線3
  6
CONTINUOUS
 62
    4
 10
909.96953032416229
 20
318.54695098788898
 11
909.96953032416229
 21
343.54695098788898
  0
LINE
  8
_1-3_細線3
  6
CONTINUOUS
 62
    4
 10
1114.9695303241629
 20
318.54695098788977
 11
909.96953032416229
 21
318.54695098788898
  0
LINE
  8
_1-3_細線3
  6
CONTINUOUS
 62
    4
 10
1114.9695303241629
 20
343.54695098788977
 11
1114.9695303241629
 21
318.54695098788977
  0
LINE
  8
_1-3_細線3
  6
CONTINUOUS
 62
    4
 10
1118.3028636574959
 20
343.54695098788977
 11
906.63619699082915
 21
343.54695098788898
  0
LINE
  8
_1-3_細線3
  6
CONTINUOUS
 62
    4
 10
1118.3028636574959
 20
315.21361765455549
 11
1118.3028636574959
 21
343.54695098788977
  0
LINE
  8
_1-3_細線3
  6
CONTINUOUS
 62
    4
 10
906.63619699082915
 20
315.21361765455549
 11
1118.3028636574959
 21
315.21361765455549
  0
LINE
  8
_1-3_細線3
  6
CONTINUOUS
 62
    4
 10
906.63619699082915
 20
343.54695098788898
 11
906.63619699082915
 21
315.21361765455549
  0
LINE
  8
_1-5_寸法3
  6
CONTINUOUS
 62
    7
 10
1004.8121700036536
 20
321.64149375142097
 11
973.6607237498946
 21
347.78066081358918
  0
LINE
  8
_1-5_寸法3
  6
CONTINUOUS
 62
    7
 10
977.49094596548946
 20
344.56672276515644
 11
974.90275551446416
 21
354.22598102804716
  0
LINE
  8
_1-5_寸法3
  6
CONTINUOUS
 62
    7
 10
977.49094596548946
 20
344.56672276515644
 11
980.07913641651453
 21
354.22598102804716
  0
LINE
  8
_1-5_寸法3
  6
CONTINUOUS
 62
    7
 10
1004.8121700036536
 20
349.97482708475474
 11
973.6607237498946
 21
376.11399414692295
  0
LINE
  8
_1-5_寸法3
  6
CONTINUOUS
 62
    7
 10
977.49094596548946
 20
372.90005609849027
 11
980.07913641651453
 21
363.24079783559961
  0
LINE
  8
_1-5_寸法3
  6
CONTINUOUS
 62
    7
 10
977.49094596548946
 20
372.90005609849027
 11
974.90275551446416
 21
363.24079783559961
  0
LINE
  8
_1-5_寸法3
  6
CONTINUOUS
 62
    7
 10
977.49094596548946
 20
344.56672276515644
 11
977.49094596548946
 21
372.90005609849027
  0
TEXT
  8
_1-5_寸法3
 62
    7
 10
977.49094596548946
 20
351.2333894318233
 40
15
 41
1
 50
90
  1
17
  0
LINE
  8
_1-5_寸法3
  6
CONTINUOUS
 62
    7
 10
1067.0140005301632
 20
315.21361765455549
 11
1069.6021909811884
 21
305.55435939166478
  0
LINE
  8
_1-5_寸法3
  6
CONTINUOUS
 62
    7
 10
1067.0140005301632
 20
315.21361765455549
 11
1064.425810079138
 21
305.55435939166489
  0
LINE
  8
_1-5_寸法3
  6
CONTINUOUS
 62
    7
 10
1067.0140005301632
 20
318.54695098788932
 11
1064.425810079138
 21
328.20620925077998
  0
LINE
  8
_1-5_寸法3
  6
CONTINUOUS
 62
    7
 10
1067.0140005301632
 20
318.54695098788932
 11
1069.6021909811884
 21
328.20620925077998
  0
LINE
  8
_1-5_寸法3
  6
CONTINUOUS
 62
    7
 10
1067.0140005301632
 20
290.21361765455549
 11
1067.0140005301632
 21
343.54695098788932
  0
TEXT
  8
_1-5_寸法3
 62
    7
 10
1067.0140005301632
 20
295.11618731864633
 40
15
 41
1
 50
90
  1
2
  0
ARC
  8
_1-3_細線3
  6
CONTINUOUS
 62
    4
 10
1119.7368505208658
 20
288.5469509878892
 40
3.333333333333333
 50
269.99999999999977
 51
348.69006752597693
  0
LINE
  8
_1-3_細線3
  6
CONTINUOUS
 62
    4
 10
1119.7368505208658
 20
285.21361765455583
 11
1091.8688765389891
 21
285.21361765455583
  0
LINE
  8
_1-3_細線3
  6
CONTINUOUS
 62
    4
 10
1125.8028635299281
 20
301.88028432122269
 11
1123.0054527731688
 21
287.89323053742851
  0
ARC
  8
_1-3_細線3
  6
CONTINUOUS
 62
    4
 10
1091.8688765389891
 20
288.5469509878892
 40
3.333333333333333
 50
191.3099324740254
 51
269.99999999999977
  0
LINE
  8
_1-3_細線3
  6
CONTINUOUS
 62
    4
 10
1088.600274286687
 20
287.89323053742851
 11
1085.8028635299281
 21
301.88028432122269
  0
LINE
  8
_1-3_細線3
  6
CONTINUOUS
 62
    4
 10
1084.9695301965951
 20
315.21361765455651
 11
1126.6361968632611
 21
315.21361765455606
  0
LINE
  8
_1-3_細線3
  6
CONTINUOUS
 62
    4
 10
1084.9695301965951
 20
301.88028432122269
 11
1084.9695301965951
 21
315.2136176545564
  0
LINE
  8
_1-3_細線3
  6
CONTINUOUS
 62
    4
 10
1084.9695301965951
 20
301.88028432122269
 11
1126.6361968632611
 21
301.88028432122269
  0
LINE
  8
_1-3_細線3
  6
CONTINUOUS
 62
    4
 10
1126.6361968632611
 20
315.21361765455606
 11
1126.6361968632611
 21
301.88028432122269
  0
ARC
  8
_1-3_細線3
  6
CONTINUOUS
 62
    4
 10
933.07018385419974
 20
288.54695098788875
 40
3.333333333333333
 50
269.99999999999977
 51
348.69006752597676
  0
LINE
  8
_1-3_細線3
  6
CONTINUOUS
 62
    4
 10
933.07018385419974
 20
285.21361765455549
 11
905.2022098723229
 21
285.21361765455549
  0
LINE
  8
_1-3_細線3
  6
CONTINUOUS
 62
    4
 10
939.13619686326115
 20
301.88028432122235
 11
936.33878610650186
 21
287.89323053742817
  0
ARC
  8
_1-3_細線3
  6
CONTINUOUS
 62
    4
 10
905.2022098723229
 20
288.54695098788875
 40
3.333333333333333
 50
191.30993247401983
 51
269.99999999999977
  0
LINE
  8
_1-3_細線3
  6
CONTINUOUS
 62
    4
 10
901.93360762001998
 20
287.89323053742817
 11
899.13619686326126
 21
301.88028432122235
  0
LINE
  8
_1-3_細線3
  6
CONTINUOUS
 62
    4
 10
939.96953019659509
 20
315.21361765455583
 11
898.30286352992812
 21
315.21361765455583
  0
LINE
  8
_1-3_細線3
  6
CONTINUOUS
 62
    4
 10
939.96953019659509
 20
301.88028432122235
 11
939.96953019659509
 21
315.21361765455617
  0
LINE
  8
_1-3_細線3
  6
CONTINUOUS
 62
    4
 10
898.30286352992812
 20
301.88028432122235
 11
939.96953019659509
 21
301.88028432122235
  0
LINE
  8
_1-3_細線3
  6
CONTINUOUS
 62
    4
 10
898.30286352992812
 20
315.21361765455583
 11
898.30286352992812
 21
301.88028432122235
  0
LINE
  8
_1-5_寸法3
  6
CONTINUOUS
 62
    7
 10
892.46953032416161
 20
354.38028432121934
 11
892.46953032416172
 21
399.38028432121934
  0
LINE
  8
_1-5_寸法3
  6
CONTINUOUS
 62
    7
 10
892.46953032416172
 20
394.38028432121934
 11
882.81027206127089
 21
391.79209387019409
  0
LINE
  8
_1-5_寸法3
  6
CONTINUOUS
 62
    7
 10
892.46953032416172
 20
394.38028432121934
 11
882.81027206127089
 21
396.96847477224452
  0
LINE
  8
_1-5_寸法3
  6
CONTINUOUS
 62
    7
 10
896.63619699082915
 20
354.38028432121934
 11
896.63619699082926
 21
399.38028432121934
  0
CIRCLE
  8
_1-5_寸法3
  6
CONTINUOUS
 62
    1
 10
896.63619699082926
 20
394.38028432121934
 40
1.5000000000000002
  0
LINE
  8
_1-5_寸法3
  6
CONTINUOUS
 62
    7
 10
861.68895645071825
 20
394.38028432121934
 11
896.63619699082926
 21
394.38028432121934
  0
TEXT
  8
_1-5_寸法3
 62
    7
 10
861.68895645071848
 20
394.38028432121939
 40
15
 41
1
 50
0
  1
2.5
  0
LINE
  8
_1-5_寸法3
  6
CONTINUOUS
 62
    7
 10
906.63619699082915
 20
354.38028432121928
 11
906.63619699082915
 21
399.38028432121934
  0
LINE
  8
_1-5_寸法3
  6
CONTINUOUS
 62
    7
 10
896.63619699082926
 20
394.38028432121934
 11
906.63619699082915
 21
394.38028432121934
  0
TEXT
  8
_1-5_寸法3
 62
    7
 10
897.88619699082915
 20
394.38028432121934
 40
15
 41
1
 50
0
  1
6
  0
LINE
  8
_1-5_寸法3
  6
CONTINUOUS
 62
    7
 10
906.63619699082915
 20
394.38028432121934
 11
916.29545525371998
 21
396.96847477224452
  0
LINE
  8
_1-5_寸法3
  6
CONTINUOUS
 62
    7
 10
906.63619699082915
 20
394.38028432121934
 11
916.29545525371998
 21
391.79209387019409
  0
LINE
  8
_1-5_寸法3
  6
CONTINUOUS
 62
    7
 10
1118.3028636574959
 20
354.38028432121928
 11
1118.3028636574959
 21
399.38028432121934
  0
LINE
  8
_1-5_寸法3
  6
CONTINUOUS
 62
    7
 10
1118.3028636574959
 20
394.38028432121934
 11
1108.6436053946052
 21
391.79209387019409
  0
LINE
  8
_1-5_寸法3
  6
CONTINUOUS
 62
    7
 10
1118.3028636574959
 20
394.38028432121934
 11
1108.6436053946052
 21
396.96847477224452
  0
LINE
  8
_1-5_寸法3
  6
CONTINUOUS
 62
    7
 10
906.63619699082915
 20
394.38028432121934
 11
1118.3028636574959
 21
394.38028432121934
  0
TEXT
  8
_1-5_寸法3
 62
    7
 10
1001.2195303241627
 20
394.38028432121934
 40
15
 41
1
 50
0
  1
127
  0
LINE
  8
_1-5_寸法3
  6
CONTINUOUS
 62
    7
 10
1128.3028634023606
 20
354.38028432121928
 11
1128.3028634023606
 21
399.38028432121934
  0
CIRCLE
  8
_1-5_寸法3
  6
CONTINUOUS
 62
    1
 10
1128.3028634023606
 20
394.38028432121934
 40
1.5000000000000002
  0
LINE
  8
_1-5_寸法3
  6
CONTINUOUS
 62
    7
 10
1118.3028636574959
 20
394.38028432121934
 11
1128.3028634023606
 21
394.38028432121934
  0
TEXT
  8
_1-5_寸法3
 62
    7
 10
1119.5528635299281
 20
394.38028432121934
 40
15
 41
1
 50
0
  1
6
  0
LINE
  8
_1-5_寸法3
  6
CONTINUOUS
 62
    7
 10
1132.4695300690278
 20
354.38028432121928
 11
1132.4695300690278
 21
399.38028432121934
  0
LINE
  8
_1-5_寸法3
  6
CONTINUOUS
 62
    7
 10
1132.4695300690278
 20
394.38028432121934
 11
1142.1287883319185
 21
396.96847477224446
  0
LINE
  8
_1-5_寸法3
  6
CONTINUOUS
 62
    7
 10
1132.4695300690278
 20
394.38028432121934
 11
1142.1287883319185
 21
391.79209387019404
  0
LINE
  8
_1-5_寸法3
  6
CONTINUOUS
 62
    7
 10
1128.3028634023606
 20
394.38028432121934
 11
1168.0965131021458
 21
394.38028432121934
  0
TEXT
  8
_1-5_寸法3
 62
    7
 10
1145.5965131021458
 20
394.38028432121934
 40
15
 41
1
 50
0
  1
2.5
  0
LINE
  8
_1-5_寸法3
  6
CONTINUOUS
 62
    7
 10
892.46953019659475
 20
354.38028432122246
 11
892.46953019659475
 21
434.38028432121934
  0
LINE
  8
_1-5_寸法3
  6
CONTINUOUS
 62
    7
 10
892.46953019659475
 20
429.38028432121934
 11
902.12878845948535
 21
431.96847477224452
  0
LINE
  8
_1-5_寸法3
  6
CONTINUOUS
 62
    7
 10
892.46953019659475
 20
429.38028432121934
 11
902.12878845948535
 21
426.79209387019409
  0
LINE
  8
_1-5_寸法3
  6
CONTINUOUS
 62
    7
 10
1132.4695301965946
 20
354.38028432122246
 11
1132.4695301965946
 21
434.38028432121934
  0
LINE
  8
_1-5_寸法3
  6
CONTINUOUS
 62
    7
 10
1132.4695301965946
 20
429.38028432121934
 11
1122.8102719337039
 21
426.79209387019409
  0
LINE
  8
_1-5_寸法3
  6
CONTINUOUS
 62
    7
 10
1132.4695301965946
 20
429.38028432121934
 11
1122.8102719337039
 21
431.96847477224452
  0
LINE
  8
_1-5_寸法3
  6
CONTINUOUS
 62
    7
 10
892.46953019659475
 20
429.38028432121934
 11
1132.4695301965946
 21
429.38028432121934
  0
TEXT
  8
_1-5_寸法3
 62
    7
 10
1001.2195301965947
 20
429.38028432121928
 40
15
 41
1
 50
0
  1
144
  0
LINE
  8
_1-3_細線3
  6
CONTINUOUS
 62
    4
 10
979.14236521219084
 20
310.21361765455606
 11
979.14236521219084
 21
315.21361765455561
  0
LINE
  8
_1-3_細線3
  6
CONTINUOUS
 62
    4
 10
1045.8090318788577
 20
310.21361765455617
 11
979.14236521219084
 21
310.21361765455606
  0
LINE
  8
_1-3_細線3
  6
CONTINUOUS
 62
    4
 10
1045.8090318788577
 20
315.21361765455561
 11
1045.8090318788577
 21
310.21361765455617
  0
LINE
  8
_0-5_寸法線
  6
CONTINUOUS
 62
    7
 10
569.97500088133961
 20
253.76843104839932
 11
603.64892686049348
 21
253.76843104839932
  0
LINE
  8
_0-5_寸法線
  6
CONTINUOUS
 62
    7
 10
598.64892686049348
 20
253.76843104839932
 11
601.23711731151866
 21
244.10917278550863
  0
LINE
  8
_0-5_寸法線
  6
CONTINUOUS
 62
    7
 10
598.64892686049348
 20
253.76843104839932
 11
596.06073640946818
 21
244.10917278550866
  0
LINE
  8
_0-5_寸法線
  6
CONTINUOUS
 62
    7
 10
569.97500088133961
 20
263.76841774840261
 11
603.64892686049348
 21
263.76841774840261
  0
LINE
  8
_0-5_寸法線
  6
CONTINUOUS
 62
    7
 10
598.64892686049348
 20
263.76841774840261
 11
596.06073640946829
 21
273.42767601129327
  0
LINE
  8
_0-5_寸法線
  6
CONTINUOUS
 62
    7
 10
598.64892686049348
 20
263.76841774840261
 11
601.23711731151866
 21
273.42767601129327
  0
LINE
  8
_0-5_寸法線
  6
CONTINUOUS
 62
    7
 10
598.64892686049348
 20
228.76843104839932
 11
598.64892686049348
 21
288.76841774840261
  0
TEXT
  8
_0-5_寸法線
 62
    7
 10
598.64892686049348
 20
268.02299252985551
 40
15
 41
1
 50
90
  1
10
  0
LINE
  8
_0-5_寸法線
  6
CONTINUOUS
 62
    7
 10
468.20591646422992
 20
359.18190535921548
 11
468.20591646422986
 21
349.18190535921548
  0
LINE
  8
_0-5_寸法線
  6
CONTINUOUS
 62
    7
 10
468.20591646422992
 20
359.18190535921548
 11
463.20591646422986
 21
350.52165132137105
  0
LINE
  8
_0-5_寸法線
  6
CONTINUOUS
 62
    7
 10
468.20591646422992
 20
359.18190535921548
 11
427.55195045739924
 21
207.45923869254887
  0
LINE
  8
_0-5_寸法線
  6
CONTINUOUS
 62
    7
 10
427.55195045739924
 20
207.45923869254887
 11
294.87914435198036
 21
207.45923869254887
  0
TEXT
  8
_0-5_寸法線
 62
    7
 10
294.87914435198036
 20
209.45034980365995
 40
15
 41
0.7999999999999998
 50
0
  1
縦引き排水トラップ一式
  0
LINE
  8
_0-1_計細線
  6
CONTINUOUS
 62
    3
 10
437.16380763590746
 20
315.92605369827197
 11
436.72727569876429
 21
324.03358350260964
  0
LINE
  8
_0-1_計細線
  6
CONTINUOUS
 62
    3
 10
431.73450759053344
 20
328.76475899174307
 11
425.89854725700411
 21
328.76475899171851
  0
LINE
  8
_0-1_計細線
  6
CONTINUOUS
 62
    3
 10
587.15882911811036
 20
328.76475899171714
 11
602.08703234803761
 21
332.76475899164734
  0
LINE
  8
_0-1_計細線
  6
CONTINUOUS
 62
    3
 10
602.08703234804034
 20
332.76475899164848
 11
609.15882911477524
 21
332.76475899163279
  0
ARC
  8
_0-1_計細線
  6
CONTINUOUS
 62
    3
 10
431.73450759055413
 20
323.76475899174329
 40
5
 50
3.0819880307193452
 51
89.999999999999915
  0
LINE
  8
_0-1_計細線
  6
CONTINUOUS
 62
    3
 10
445.15882911477547
 20
339.764758991799
 11
443.15882911469976
 21
339.76475899178604
  0
LINE
  8
_0-1_計細線
  6
CONTINUOUS
 62
    3
 10
449.15882911469976
 20
339.764758991799
 11
445.15882911477547
 21
339.764758991799
  0
ARC
  8
_0-1_計細線
  6
CONTINUOUS
 62
    3
 10
558.15882911477524
 20
333.94495508944397
 40
1
 50
0.0000000749996167
 51
78.69006752595169
  0
LINE
  8
_0-1_計細線
  6
CONTINUOUS
 62
    3
 10
559.15882911477547
 20
333.94495508944397
 11
559.15882911501171
 21
333.76475899176035
  0
LINE
  8
_0-1_計細線
  6
CONTINUOUS
 62
    3
 10
563.1588291147757
 20
333.76475899174238
 11
559.15882911501171
 21
333.76475899176035
  0
ARC
  8
_0-1_計細線
  6
CONTINUOUS
 62
    3
 10
563.1588291147757
 20
334.76475899216263
 40
1
 50
269.99999999999977
 51
359.99999999999966
  0
LINE
  8
_0-1_計細線
  6
CONTINUOUS
 62
    3
 10
564.15882911477524
 20
338.7647589921628
 11
564.15882911477524
 21
334.76475899216263
  0
LINE
  8
_0-1_計細線
  6
CONTINUOUS
 62
    3
 10
565.15882911501171
 20
333.76475899174238
 11
563.1588291147757
 21
333.76475899174238
  0
LINE
  8
_0-1_計細線
  6
CONTINUOUS
 62
    3
 10
576.48808197229482
 20
333.76475899173039
 11
571.48808197231574
 21
328.76475899181742
  0
LINE
  8
_0-1_計細線
  6
CONTINUOUS
 62
    3
 10
571.48808197231574
 20
328.76475899181742
 11
599.22557792905604
 21
328.76475899163984
  0
LINE
  8
_0-1_計細線
  6
CONTINUOUS
 62
    3
 10
612.66929197433842
 20
321.00302706867365
 11
599.22557792905604
 21
328.76475899163984
  0
ARC
  8
_0-1_計細線
  6
CONTINUOUS
 62
    3
 10
611.1588291147757
 20
318.41101974810499
 40
3.0000000000000004
 50
10.451459140746802
 51
59.768991431907423
  0
LINE
  8
_0-1_計細線
  6
CONTINUOUS
 62
    3
 10
634.15882911477706
 20
318.57025178266053
 11
614.10905594744168
 21
318.95522709445277
  0
ARC
  8
_0-1_計細線
  6
CONTINUOUS
 62
    3
 10
611.1588291147757
 20
318.41101974810499
 40
3.0000000000000004
 50
0
 51
10.451459140746802
  0
LINE
  8
_0-1_計細線
  6
CONTINUOUS
 62
    3
 10
559.15882911500739
 20
328.76475899181742
 11
571.48808197231574
 21
328.76475899181742
  0
LINE
  8
_0-1_計細線
  6
CONTINUOUS
 62
    3
 10
606.36687191467445
 20
253.76824354853696
 11
450.25006891465347
 21
253.76824354860446
  0
LINE
  8
_0-1_計細線
  6
CONTINUOUS
 62
    3
 10
606.95247201117968
 20
248.7682435485367
 11
450.25581746847888
 21
248.76824354860423
  0
ARC
  8
_0-1_計細線
  6
CONTINUOUS
 62
    3
 10
434.1681467709821
 20
315.76475899175216
 40
3.0000000000000004
 50
3.0819880307200456
 51
89.999999999999915
  0
ARC
  8
_0-1_計細線
  6
CONTINUOUS
 62
    3
 10
432.27142093636962
 20
321.76475899174375
 40
3.0000000000000004
 50
185.00000000003766
 51
269.99999999999977
  0
LINE
  8
_0-1_計細線
  6
CONTINUOUS
 62
    3
 10
440.27029150513778
 20
258.23059452687176
 11
437.16380763590746
 21
315.92605369827197
  0
ARC
  8
_0-1_計細線
  6
CONTINUOUS
 62
    3
 10
450.25582772155849
 20
258.768243548604
 40
10
 50
183.08198803071917
 51
269.99999999999977
  0
LINE
  8
_0-1_計細線
  6
CONTINUOUS
 62
    3
 10
437.1265277613673
 20
338.76475899176194
 11
400.6588291147753
 21
338.76475899163489
  0
LINE
  8
_0-1_計細線
  6
CONTINUOUS
 62
    3
 10
421.15882911477547
 20
328.76475899082357
 11
406.23062588151407
 21
332.76475899164734
  0
LINE
  8
_0-1_計細線
  6
CONTINUOUS
 62
    3
 10
421.81709159944489
 20
333.76475899170032
 11
406.23070309798527
 21
337.94111920360911
  0
LINE
  8
_0-1_計細線
  6
CONTINUOUS
 62
    3
 10
427.00871695011557
 20
337.94111920357363
 11
406.93161873812755
 21
337.94111920357363
  0
LINE
  8
_0-1_計細線
  6
CONTINUOUS
 62
    3
 10
406.23089270399373
 20
337.94106839883563
 11
406.1588291148683
 21
338.76475899166007
  0
LINE
  8
_0-1_計細線
  6
CONTINUOUS
 62
    3
 10
406.23062588151129
 20
332.76475899164848
 11
399.15882911477524
 21
332.76475899163279
  0
LINE
  8
_0-1_計細線
  6
CONTINUOUS
 62
    3
 10
400.65882911477644
 20
338.76475899163489
 11
399.15882911477638
 21
332.76475899163302
  0
ARC
  8
_0-1_計細線
  6
CONTINUOUS
 62
    3
 10
439.05105282642194
 20
343.76475899177626
 40
1
 50
89.999999999999915
 51
173.48019824834822
  0
LINE
  8
_0-1_計細線
  6
CONTINUOUS
 62
    3
 10
432.82957625724612
 20
333.76475899174176
 11
441.86212142129625
 21
324.73221382769088
  0
LINE
  8
_0-1_計細線
  6
CONTINUOUS
 62
    3
 10
437.12887706065044
 20
336.53652600020223
 11
445.16458612342717
 21
328.50081693742595
  0
ARC
  8
_0-1_計細線
  6
CONTINUOUS
 62
    3
 10
425.89854725700411
 20
325.76475899171851
 40
3.0000000000000004
 50
5.0000000000434763
 51
89.999999999999915
  0
LINE
  8
_0-1_計細線
  6
CONTINUOUS
 62
    3
 10
429.15882911506719
 20
333.7647589917226
 11
421.81709159944489
 21
333.76475899170032
  0
LINE
  8
_0-1_計細線
  6
CONTINUOUS
 62
    3
 10
427.15882911477547
 20
338.76475899171692
 11
426.54670832982333
 21
335.40615687724022
  0
LINE
  8
_0-1_計細線
  6
CONTINUOUS
 62
    3
 10
425.89854725699098
 20
328.76475899171828
 11
421.15882911477547
 21
328.76475899169782
  0
ARC
  8
_0-1_計細線
  6
CONTINUOUS
 62
    3
 10
424.57911982520704
 20
335.76475899170873
 40
2
 50
269.99999999999977
 51
349.67094897780032
  0
LINE
  8
_0-1_計細線
  6
CONTINUOUS
 62
    3
 10
433.93965820190442
 20
333.76475899174443
 11
429.15882911506719
 21
333.76475899171169
  0
ARC
  8
_0-1_計細線
  6
CONTINUOUS
 62
    3
 10
433.71738633405926
 20
335.76475899174261
 40
2
 50
189.97879785855761
 51
269.99999999999977
  0
ARC
  8
_0-1_計細線
  6
CONTINUOUS
 62
    3
 10
433.93965820188419
 20
336.76475899174443
 40
3.0000000000000004
 50
269.99999999999977
 51
351.34132044732246
  0
LINE
  8
_0-1_計細線
  6
CONTINUOUS
 62
    3
 10
438.05752015376561
 20
343.87830558293723
 11
436.90546634897311
 21
336.31311528852348
  0
LINE
  8
_0-1_計細線
  6
CONTINUOUS
 62
    3
 10
431.15882911477735
 20
338.76475899172584
 11
431.74764244685662
 21
335.41819151082768
  0
LINE
  8
_0-1_計細線
  6
CONTINUOUS
 62
    3
 10
434.16814677096846
 20
318.76475899175216
 11
432.27142093638213
 21
318.76475899174375
  0
LINE
  8
_0-1_計細線
  6
CONTINUOUS
 62
    3
 10
429.28283684209396
 20
321.50329176349879
 11
428.88713135127915
 21
326.02622621996352
  0
LINE
  8
_0-1_計細線
  6
CONTINUOUS
 62
    3
 10
449.15882911470089
 20
344.76475899179923
 11
449.15882911470089
 21
339.764758991799
  0
LINE
  8
_0-1_計細線
  6
CONTINUOUS
 62
    3
 10
445.15882911477547
 20
333.7647589921628
 11
449.15882911477615
 21
333.764758991799
  0
LINE
  8
_0-1_計細線
  6
CONTINUOUS
 62
    3
 10
443.15882911469976
 20
333.7647589917861
 11
449.15882911469976
 21
333.764758991799
  0
LINE
  8
_0-1_計細線
  6
CONTINUOUS
 62
    3
 10
449.15882911470089
 20
339.7647589921628
 11
445.15882911477547
 21
339.7647589921628
  0
ARC
  8
_0-1_計細線
  6
CONTINUOUS
 62
    3
 10
446.76763170469286
 20
323.76475899179309
 40
5
 50
89.999999999999915
 51
183.06690832148945
  0
LINE
  8
_0-1_計細線
  6
CONTINUOUS
 62
    3
 10
443.15882911469976
 20
339.76475899178536
 11
443.15882911469976
 21
333.76475899178536
  0
LINE
  8
_0-1_計細線
  6
CONTINUOUS
 62
    3
 10
444.15882911477524
 20
338.7647589921628
 11
444.15882911477524
 21
334.76475899216302
  0
ARC
  8
_0-1_計細線
  6
CONTINUOUS
 62
    3
 10
445.15882911477547
 20
338.7647589921628
 40
1
 50
89.999999999999915
 51
179.99999999999983
  0
ARC
  8
_0-1_計細線
  6
CONTINUOUS
 62
    3
 10
445.15882911477547
 20
334.76475899216302
 40
1
 50
179.99999999999983
 51
269.99999999999977
  0
LINE
  8
_0-1_計細線
  6
CONTINUOUS
 62
    3
 10
449.15882911469976
 20
333.764758991799
 11
449.15882911469976
 21
328.76475899179877
  0
LINE
  8
_0-1_計細線
  6
CONTINUOUS
 62
    3
 10
449.15882911477615
 20
333.94495508944397
 11
449.15882911477615
 21
333.7647589921628
  0
ARC
  8
_0-1_計細線
  6
CONTINUOUS
 62
    3
 10
450.15882911477524
 20
333.94495508944397
 40
1
 50
101.30993247401
 51
179.99999999999983
  0
LINE
  8
_0-1_計細線
  6
CONTINUOUS
 62
    3
 10
449.15882911477615
 20
339.5845628948814
 11
449.15882911477615
 21
339.7647589921628
  0
ARC
  8
_0-1_計細線
  6
CONTINUOUS
 62
    3
 10
450.15882911477524
 20
339.5845628948814
 40
1
 50
179.99999999999983
 51
258.69006752598455
  0
LINE
  8
_0-1_計細線
  6
CONTINUOUS
 62
    3
 10
634.15882911477547
 20
325.30988870084821
 11
634.15882911477547
 21
252.29643320604373
  0
LINE
  8
_0-1_計細線
  6
CONTINUOUS
 62
    3
 10
632.65882911477547
 20
317.59886893217504
 11
614.13963167237466
 21
317.95445568869559
  0
LINE
  8
_0-1_計細線
  6
CONTINUOUS
 62
    3
 10
634.15882911477433
 20
258.95926620060095
 11
614.1588291147757
 21
259.34328581875798
  0
LINE
  8
_0-1_計細線
  6
CONTINUOUS
 62
    3
 10
632.65882911477661
 20
259.98825199380894
 11
614.17802655717492
 21
260.34310153087904
  0
LINE
  8
_0-1_計細線
  6
CONTINUOUS
 62
    3
 10
632.1204342299759
 20
250.29680178180092
 11
613.48733757546938
 21
250.65457551491775
  0
LINE
  8
_0-1_計細線
  6
CONTINUOUS
 62
    3
 10
614.1588291147757
 20
318.41101974810499
 11
614.1588291147757
 21
259.11849823516013
  0
ARC
  8
_0-1_計細線
  6
CONTINUOUS
 62
    3
 10
590.3056495880046
 20
295.57593785486301
 40
50.000000000000007
 50
291.71126247491782
 51
294.81817458382994
  0
ARC
  8
_0-1_計細線
  6
CONTINUOUS
 62
    3
 10
606.95247201118127
 20
253.7682435485367
 40
5
 50
269.99999999999977
 51
291.71126247491912
  0
ARC
  8
_0-1_計細線
  6
CONTINUOUS
 62
    3
 10
606.36687191467558
 20
256.76824354853693
 40
3.0000000000000004
 50
269.99999999999977
 51
292.48304715452747
  0
ARC
  8
_0-1_計細線
  6
CONTINUOUS
 62
    3
 10
590.3056495880046
 20
295.57593785486301
 40
45
 50
292.48304715453799
 51
299.76899289976654
  0
ARC
  8
_0-1_計細線
  6
CONTINUOUS
 62
    3
 10
611.1588291147757
 20
259.11849823516013
 40
3.0000000000000004
 50
299.7689928997529
 51
359.99999999999966
  0
ARC
  8
_0-1_計細線
  6
CONTINUOUS
 62
    3
 10
613.39135036347125
 20
245.65549695430991
 40
5
 50
88.89999999999047
 51
114.81817458383553
  0
LINE
  8
_0-1_計細線
  6
CONTINUOUS
 62
    3
 10
632.65882911477547
 20
317.59886893217504
 11
632.65882911477547
 21
259.98825199380917
  0
ARC
  8
_0-1_計細線
  6
CONTINUOUS
 62
    3
 10
632.1588291147757
 20
252.29643320604373
 40
2
 50
268.89999999998759
 51
359.99999999999966
  0
LINE
  8
_0-1_計細線
  6
CONTINUOUS
 62
    3
 10
634.15882911477547
 20
258.9592662006005
 11
632.65882911477547
 21
259.98825199380917
  0
LINE
  8
_0-1_計細線
  6
CONTINUOUS
 62
    3
 10
634.15882911477547
 20
318.57025178266053
 11
632.65882911477547
 21
317.59886893217572
  0
LINE
  8
_0-1_計細線
  6
CONTINUOUS
 62
    3
 10
632.19722399957482
 20
327.30952012509215
 11
614.24458695097769
 21
327.65422836630773
  0
LINE
  8
_0-1_計細線
  6
CONTINUOUS
 62
    3
 10
574.09264310699655
 20
333.76475899174648
 11
579.1588291144833
 21
333.76475899171191
  0
ARC
  8
_0-1_計細線
  6
CONTINUOUS
 62
    3
 10
574.60027189549237
 20
335.76475899174261
 40
2
 50
269.99999999999977
 51
350.02120214144162
  0
LINE
  8
_0-1_計細線
  6
CONTINUOUS
 62
    3
 10
570.84454340064985
 20
338.76475899176336
 11
607.65882911477524
 21
338.76475899163489
  0
LINE
  8
_0-1_計細線
  6
CONTINUOUS
 62
    3
 10
559.15882911501944
 20
344.76475899176035
 11
559.15882911501558
 21
339.76475899176035
  0
ARC
  8
_0-1_計細線
  6
CONTINUOUS
 62
    3
 10
569.26660540329726
 20
343.76475899173056
 40
1
 50
6.5198017516129783
 51
89.999999999999915
  0
LINE
  8
_0-1_計細線
  6
CONTINUOUS
 62
    3
 10
571.30596565538985
 20
335.65371048669073
 11
564.41701416049432
 21
328.76475899179559
  0
LINE
  8
_0-1_計細線
  6
CONTINUOUS
 62
    3
 10
559.15882911501558
 20
339.76475899176035
 11
565.15882911501558
 21
339.76475899174238
  0
LINE
  8
_0-1_計細線
  6
CONTINUOUS
 62
    3
 10
565.15882911501558
 20
339.76475899174216
 11
565.15882911501171
 21
333.76475899174216
  0
ARC
  8
_0-1_計細線
  6
CONTINUOUS
 62
    3
 10
563.1588291147757
 20
338.76475899216257
 40
1
 50
0
 51
89.999999999999915
  0
LINE
  8
_0-1_計細線
  6
CONTINUOUS
 62
    3
 10
559.15882911501171
 20
333.76475899176035
 11
559.15882911500853
 21
328.76475899175944
  0
LINE
  8
_0-1_計細線
  6
CONTINUOUS
 62
    3
 10
559.15882911477547
 20
339.58456289488117
 11
559.15882911477547
 21
339.7647589921628
  0
ARC
  8
_0-1_計細線
  6
CONTINUOUS
 62
    3
 10
558.15882911477524
 20
339.58456289488117
 40
1
 50
281.30993247405053
 51
359.99999999999966
  0
ARC
  8
_0-1_計細線
  6
CONTINUOUS
 62
    3
 10
574.09264310701724
 20
336.76475899174648
 40
3.0000000000000004
 50
186.51980175161458
 51
269.99999999999977
  0
LINE
  8
_0-1_計細線
  6
CONTINUOUS
 62
    3
 10
570.26013807595405
 20
343.87830558289124
 11
571.11204508904825
 21
336.42411921826647
  0
LINE
  8
_0-1_計細線
  6
CONTINUOUS
 62
    3
 10
581.30894127943611
 20
337.94111920357363
 11
601.38603949142475
 21
337.94111920357363
  0
LINE
  8
_0-1_計細線
  6
CONTINUOUS
 62
    3
 10
586.50056663010673
 20
333.76475899170032
 11
602.08695513156636
 21
337.94111920360911
  0
LINE
  8
_0-1_計細線
  6
CONTINUOUS
 62
    3
 10
579.15882911448443
 20
333.7647589917226
 11
586.50056663010673
 21
333.76475899170032
  0
LINE
  8
_0-1_計細線
  6
CONTINUOUS
 62
    3
 10
581.15882911477615
 20
338.76475899171692
 11
581.77094989972829
 21
335.40615687724022
  0
LINE
  8
_0-1_計細線
  6
CONTINUOUS
 62
    3
 10
577.15882911477433
 20
338.76475899172584
 11
576.57001578269501
 21
335.41819151082768
  0
ARC
  8
_0-1_計細線
  6
CONTINUOUS
 62
    3
 10
583.73853840434458
 20
335.76475899170873
 40
2
 50
190.32905102219897
 51
269.99999999999977
  0
LINE
  8
_0-1_計細線
  6
CONTINUOUS
 62
    3
 10
602.08676552555789
 20
337.94106839883563
 11
602.15882911468293
 21
338.76475899166007
  0
LINE
  8
_0-1_計細線
  6
CONTINUOUS
 62
    3
 10
607.65882911477524
 20
338.76475899163489
 11
609.48986166224972
 21
331.44062880173465
  0
ARC
  8
_0-1_計細線
  6
CONTINUOUS
 62
    3
 10
614.34057416297583
 20
332.65330692691577
 40
5
 50
194.03624346791665
 51
268.90000000000316
  0
ARC
  8
_0-1_計細線
  6
CONTINUOUS
 62
    3
 10
632.1588291147757
 20
325.30988870084821
 40
2
 50
0
 51
88.900000000007481
  0
LINE
  8
_0-1_計細線
  6
CONTINUOUS
 62
    3
 10
453.65882911398626
 20
344.76475899180923
 11
439.05105282641927
 21
344.76475899177672
  0
LINE
  8
_0-1_計細線
  6
CONTINUOUS
 62
    3
 10
453.65882911398626
 20
339.7647589921628
 11
449.4883764190181
 21
339.7647589921628
  0
LINE
  8
_0-1_計細線
  6
CONTINUOUS
 62
    3
 10
453.65882911398626
 20
333.76475899182878
 11
449.15882911469976
 21
333.764758991799
  0
LINE
  8
_0-1_計細線
  6
CONTINUOUS
 62
    3
 10
446.76763170468075
 20
328.76475899179354
 11
453.65882911398626
 21
328.76475899180855
  0
LINE
  8
_0-1_計細線
  6
CONTINUOUS
 62
    3
 10
449.96271297963722
 20
338.60398221919064
 11
453.65882911398626
 21
337.86475899232073
  0
LINE
  8
_0-1_計細線
  6
CONTINUOUS
 62
    3
 10
449.96271297963722
 20
334.92553576513524
 11
453.65882911398626
 21
335.66475899200509
  0
LINE
  8
_0-1_計細線
  6
CONTINUOUS
 62
    3
 10
554.65882911398671
 20
344.76475899177331
 11
569.26660540329999
 21
344.76475899173062
  0
LINE
  8
_0-1_計細線
  6
CONTINUOUS
 62
    3
 10
559.15882911501672
 20
339.76475899176057
 11
554.65882911398671
 21
339.76475899177382
  0
LINE
  8
_0-1_計細線
  6
CONTINUOUS
 62
    3
 10
559.15882911501171
 20
333.76475899176057
 11
554.65882911398671
 21
333.76475899177376
  0
LINE
  8
_0-1_計細線
  6
CONTINUOUS
 62
    3
 10
561.01513176262256
 20
328.76475899175398
 11
554.65882911398626
 21
328.76475899177262
  0
LINE
  8
_0-1_計細線
  6
CONTINUOUS
 62
    3
 10
558.35494524991395
 20
338.60398221919064
 11
554.65882911398626
 21
337.86475899200519
  0
LINE
  8
_0-1_計細線
  6
CONTINUOUS
 62
    3
 10
558.35494524991395
 20
334.92553576513524
 11
554.65882911398626
 21
335.66475899232069
  0
LINE
  8
_0-1_計細線
  6
CONTINUOUS
 62
    3
 10
504.15882911398626
 20
263.76824354855103
 11
449.71428062104934
 21
263.76824354857285
  0
ARC
  8
_0-1_計細線
  6
CONTINUOUS
 62
    3
 10
449.71428062105161
 20
268.76824354857285
 40
5
 50
183.06690832148945
 51
269.99999999997357
  0
LINE
  8
_0-1_計細線
  6
CONTINUOUS
 62
    3
 10
445.2572302272913
 20
258.50073309654908
 11
441.77479301732842
 21
323.49724853973817
  0
ARC
  8
_0-1_計細線
  6
CONTINUOUS
 62
    3
 10
450.25006891465574
 20
258.768243548604
 40
5
 50
183.06690832148686
 51
269.99999999999977
  0
ARC
  8
_0-1_計細線
  6
CONTINUOUS
 62
    3
 10
564.97500068133922
 20
258.76824374854436
 40
4.9999998000002961
 50
179.99999999999983
 51
269.99999999999977
  0
LINE
  8
_0-1_計細線
  6
CONTINUOUS
 62
    3
 10
504.15882911398626
 20
263.76824354855103
 11
554.97500108133863
 21
263.76824354855103
  0
ARC
  8
_0-1_計細線
  6
CONTINUOUS
 62
    3
 10
554.97500108133863
 20
258.76824374854436
 40
4.9999998000002961
 50
0
 51
89.999999999999915
  0
LINE
  8
_0-0_計極細
  6
CENTER2
 62
    2
 10
579.1588291144833
 20
345.36127696638169
 11
579.1588291144833
 21
330.75828236385064
  0
LINE
  8
_0-0_計極細
  6
CENTER2
 62
    2
 10
575.39310520969229
 20
336.20531613505983
 11
562.55356027305947
 21
323.36577119842855
  0
LINE
  8
_0-0_計極細
  6
CENTER2
 62
    2
 10
429.15882911506719
 20
345.36127696638169
 11
429.15882911506719
 21
330.75828236385064
  0
LINE
  8
_0-0_計極細
  6
CENTER2
 62
    2
 10
432.92455301985939
 20
337.20531613506023
 11
445.76409795649221
 21
324.3657711984286
  0
LINE
  8
_0-0_計極細
  6
CONTINUOUS
 62
    2
 10
447.25882911398571
 20
388.62350126855472
 11
447.25882911398571
 21
404.76824354855103
  0
LINE
  8
_0-0_計極細
  6
CONTINUOUS
 62
    2
 10
476.57549611398673
 20
268.76824354855125
 11
463.05882911398612
 21
268.76824354855125
  0
LINE
  8
_0-0_計極細
  6
CONTINUOUS
 62
    2
 10
463.05882911398612
 20
268.76824354855125
 11
462.65882911398649
 21
293.76824354855103
  0
LINE
  8
_0-0_計極細
  6
CONTINUOUS
 62
    2
 10
453.65882911398626
 20
301.76824354855103
 11
453.65882911398626
 21
375.7381332685548
  0
ARC
  8
_0-0_計極細
  6
CONTINUOUS
 62
    2
 10
461.65882911398626
 20
301.76824354855103
 40
8
 50
179.99999999999983
 51
269.99999999999977
  0
LINE
  8
_0-0_計極細
  6
CONTINUOUS
 62
    2
 10
476.65882911398626
 20
263.76824354855103
 11
476.57549578065328
 21
268.76824354855125
  0
LINE
  8
_0-0_計極細
  6
CONTINUOUS
 62
    2
 10
451.15882911398626
 20
380.0682602685547
 11
451.15882911398626
 21
388.06826026855475
  0
ARC
  8
_0-0_計極細
  6
CONTINUOUS
 62
    2
 10
448.65882911398626
 20
375.7381332685548
 40
5
 50
0
 51
59.999999999998813
  0
LINE
  8
_0-0_計極細
  6
CONTINUOUS
 62
    2
 10
447.25882911398571
 20
388.06826026855475
 11
447.25882911398571
 21
388.62350126855472
  0
LINE
  8
_0-0_計極細
  6
CONTINUOUS
 62
    2
 10
451.15882911398626
 20
388.06826026855475
 11
447.25882911398571
 21
388.06826026855475
  0
LINE
  8
_0-0_計極細
  6
CONTINUOUS
 62
    2
 10
447.25882911398571
 20
404.76824354855103
 11
561.05882911398658
 21
404.76824354855103
  0
LINE
  8
_0-0_計極細
  6
CONTINUOUS
 62
    2
 10
561.05882911398658
 20
388.62350126855472
 11
561.05882911398658
 21
404.76824354855103
  0
LINE
  8
_0-0_計極細
  6
CONTINUOUS
 62
    2
 10
545.6588291139858
 20
293.76824354855103
 11
546.6588291139858
 21
293.7682435485508
  0
LINE
  8
_0-0_計極細
  6
CONTINUOUS
 62
    2
 10
531.74216211398539
 20
268.76824354855125
 11
545.25882911398617
 21
268.76824354855125
  0
LINE
  8
_0-0_計極細
  6
CONTINUOUS
 62
    2
 10
545.25882911398617
 20
268.76824354855125
 11
545.6588291139858
 21
293.76824354855103
  0
LINE
  8
_0-0_計極細
  6
CONTINUOUS
 62
    2
 10
554.65882911398626
 20
301.76824354855103
 11
554.65882911398626
 21
375.7381332685548
  0
ARC
  8
_0-0_計極細
  6
CONTINUOUS
 62
    2
 10
546.65882911398626
 20
301.76824354855103
 40
8
 50
269.99999999999636
 51
359.99999999999966
  0
LINE
  8
_0-0_計極細
  6
CONTINUOUS
 62
    2
 10
504.1588291139858
 20
263.76824354855103
 11
528.71523011398563
 21
263.76824354855103
  0
LINE
  8
_0-0_計極細
  6
CONTINUOUS
 62
    2
 10
531.6588291139858
 20
263.76824354855103
 11
531.74216244731883
 21
268.76824354855125
  0
LINE
  8
_0-0_計極細
  6
CONTINUOUS
 62
    2
 10
557.15882911398649
 20
380.0682602685547
 11
557.15882911398649
 21
388.06826026855475
  0
ARC
  8
_0-0_計極細
  6
CONTINUOUS
 62
    2
 10
559.65882911398626
 20
375.7381332685548
 40
5
 50
119.99999999999895
 51
179.99999999999983
  0
LINE
  8
_0-0_計極細
  6
CONTINUOUS
 62
    2
 10
561.05882911398658
 20
388.06826026855475
 11
561.05882911398658
 21
388.62350126855472
  0
LINE
  8
_0-0_計極細
  6
CONTINUOUS
 62
    2
 10
557.15882911398649
 20
388.06826026855475
 11
561.05882911398658
 21
388.06826026855475
  0
LINE
  8
_0-0_計極細
  6
CONTINUOUS
 62
    2
 10
504.15882911398626
 20
403.76824354855103
 11
452.1232424940863
 21
403.76824354855103
  0
LINE
  8
_0-0_計極細
  6
CONTINUOUS
 62
    2
 10
462.65882911398649
 20
293.76824354855103
 11
461.65882911398626
 21
293.7682435485508
  0
LINE
  8
_0-0_計極細
  6
CONTINUOUS
 62
    2
 10
457.03382911020185
 20
354.1976538073784
 11
464.90882911398626
 21
354.1976538073784
  0
LINE
  8
_0-0_計極細
  6
CONTINUOUS
 62
    2
 10
477.15882911398631
 20
324.47608654855117
 11
477.15882911398631
 21
383.4503492685547
  0
ARC
  8
_0-0_計極細
  6
CONTINUOUS
 62
    2
 10
478.15882911398631
 20
324.47608654855117
 40
1
 50
179.99999999999983
 51
270.00045836623457
  0
LINE
  8
_0-0_計極細
  6
CONTINUOUS
 62
    2
 10
478.15882911398631
 20
323.47608654855094
 11
504.15882911398626
 21
323.47608654855117
  0
LINE
  8
_0-0_計極細
  6
CONTINUOUS
 62
    2
 10
476.57549578065328
 20
268.76824354855125
 11
476.15882911398626
 21
293.76824354855103
  0
LINE
  8
_0-0_計極細
  6
CONTINUOUS
 62
    2
 10
464.15882911398626
 20
296.26824354855103
 11
479.15882911398626
 21
296.26824354855103
  0
LINE
  8
_0-0_計極細
  6
CONTINUOUS
 62
    2
 10
456.15882911398626
 20
304.2682435485508
 11
456.15882911398626
 21
355.18981054855089
  0
LINE
  8
_0-0_計極細
  6
CONTINUOUS
 62
    2
 10
478.65882911398649
 20
263.76824354855103
 11
479.15882911398626
 21
296.26824354855103
  0
LINE
  8
_0-0_計極細
  6
CONTINUOUS
 62
    2
 10
476.15882911398626
 20
293.76824354855103
 11
466.15882911398626
 21
293.76824354855103
  0
ARC
  8
_0-0_計極細
  6
CONTINUOUS
 62
    2
 10
464.15882911398626
 20
304.26824354855103
 40
8
 50
180.00000000000128
 51
269.99999999999977
  0
LINE
  8
_0-0_計極細
  6
CONTINUOUS
 62
    2
 10
479.15882911398626
 20
296.26824354855103
 11
504.15882911398626
 21
296.26824354855103
  0
LINE
  8
_0-0_計極細
  6
CONTINUOUS
 62
    2
 10
479.15725011398649
 20
296.16557054855093
 11
479.15882911398626
 21
296.26824354855103
  0
LINE
  8
_0-0_計極細
  6
CONTINUOUS
 62
    2
 10
464.90882911398626
 20
318.26824354855103
 11
464.90882911398626
 21
345.26824354855103
  0
LINE
  8
_0-0_計極細
  6
CONTINUOUS
 62
    2
 10
476.90882911398631
 20
306.26824354855103
 11
479.15882911398626
 21
306.26824354855103
  0
LINE
  8
_0-0_計極細
  6
CONTINUOUS
 62
    2
 10
479.15882911398626
 20
296.26824354855103
 11
479.15882911398626
 21
306.26824354855103
  0
ARC
  8
_0-0_計極細
  6
CONTINUOUS
 62
    2
 10
476.90882911398631
 20
318.26824354855103
 40
12.000000000000002
 50
179.99999999999983
 51
269.99999999999977
  0
ARC
  8
_0-0_計極細
  6
CONTINUOUS
 62
    2
 10
457.15882911398631
 20
355.18981054855089
 40
1
 50
179.99999999999983
 51
262.81924399999713
  0
LINE
  8
_0-0_計極細
  6
CONTINUOUS
 62
    2
 10
456.15882911398626
 20
355.18981054855089
 11
456.15882911398626
 21
382.26826026855474
  0
LINE
  8
_0-0_計極細
  6
CONTINUOUS
 62
    2
 10
465.90882911398649
 20
268.76824354855125
 11
466.15882911398626
 21
293.76824354855103
  0
LINE
  8
_0-0_計極細
  6
CONTINUOUS
 62
    2
 10
503.22779511398659
 20
306.26824354855103
 11
476.90882911398631
 21
306.26824354855103
  0
LINE
  8
_0-0_計極細
  6
CONTINUOUS
 62
    2
 10
464.90882911398626
 20
318.26824354855103
 11
464.90882911398626
 21
376.0682602685547
  0
LINE
  8
_0-0_計極細
  6
CONTINUOUS
 62
    2
 10
466.90882911398631
 20
318.26824354855103
 11
466.90882911398631
 21
376.0682602685547
  0
LINE
  8
_0-0_計極細
  6
CONTINUOUS
 62
    2
 10
504.15882911398626
 20
308.26824354855103
 11
476.90882911398631
 21
308.26824354855103
  0
ARC
  8
_0-0_計極細
  6
CONTINUOUS
 62
    2
 10
476.90882911398631
 20
318.26824354855103
 40
10
 50
179.99999999999983
 51
269.99999999999977
  0
LINE
  8
_0-0_計極細
  6
CONTINUOUS
 62
    2
 10
463.90882911398626
 20
390.47610326855471
 11
504.15882911398626
 21
390.47610326855471
  0
LINE
  8
_0-0_計極細
  6
CONTINUOUS
 62
    2
 10
463.90882911398626
 20
386.07610326855479
 11
463.90882911398626
 21
390.47610326855471
  0
LINE
  8
_0-0_計極細
  6
CONTINUOUS
 62
    2
 10
460.65882911398631
 20
390.47610326855471
 11
463.90882911398626
 21
390.47610326855471
  0
LINE
  8
_0-0_計極細
  6
CONTINUOUS
 62
    2
 10
461.65882911398626
 20
386.07610326855479
 11
463.90882911398626
 21
386.07610326855479
  0
LINE
  8
_0-0_計極細
  6
CONTINUOUS
 62
    2
 10
461.65882911398626
 20
385.07610326855485
 11
461.65882911398626
 21
386.07610326855479
  0
ARC
  8
_0-0_計極細
  6
CONTINUOUS
 62
    2
 10
463.65882911398626
 20
385.07610326855485
 40
2
 50
179.99999999999983
 51
269.99999999999977
  0
LINE
  8
_0-0_計極細
  6
CONTINUOUS
 62
    2
 10
463.65882911398626
 20
383.07610326855479
 11
466.65882911398626
 21
383.07610326855479
  0
LINE
  8
_0-0_計極細
  6
CONTINUOUS
 62
    2
 10
466.65882911398626
 20
383.07610326855479
 11
466.65882911398626
 21
386.07610326855479
  0
ARC
  8
_0-0_計極細
  6
CONTINUOUS
 62
    2
 10
454.17982911398622
 20
401.72532426855469
 40
1.0500000000000114
 50
4.1509900000016975
 51
89.999999999999915
  0
LINE
  8
_0-0_計極細
  6
CONTINUOUS
 62
    2
 10
454.17982911398622
 20
387.45432426855473
 11
454.17982911398622
 21
402.77532426855464
  0
LINE
  8
_0-0_計極細
  6
CONTINUOUS
 62
    2
 10
454.17982911398622
 20
402.76825972230381
 11
447.25882911398571
 21
403.75401726855472
  0
LINE
  8
_0-0_計極細
  6
CONTINUOUS
 62
    2
 10
455.65882911398631
 20
383.0682602685547
 11
455.65882911398631
 21
385.97532426855474
  0
LINE
  8
_0-0_計極細
  6
CONTINUOUS
 62
    2
 10
454.17982911398622
 20
382.26826026855474
 11
455.65882911398631
 21
383.0682602685547
  0
LINE
  8
_0-0_計極細
  6
CONTINUOUS
 62
    2
 10
447.25882911398571
 20
402.06826026855475
 11
454.17982911398622
 21
401.26826026855474
  0
ARC
  8
_0-0_計極細
  6
CONTINUOUS
 62
    2
 10
465.90882911398631
 20
376.0682602685547
 40
1
 50
89.999999999999915
 51
179.99999999999983
  0
ARC
  8
_0-0_計極細
  6
CONTINUOUS
 62
    2
 10
465.90882911398631
 20
376.0682602685547
 40
1
 50
0
 51
89.999999999999915
  0
LINE
  8
_0-0_計極細
  6
CONTINUOUS
 62
    2
 10
504.15882911398626
 20
403.47532426855474
 11
454.17982911398622
 21
403.47532426855474
  0
LINE
  8
_0-0_計極細
  6
CONTINUOUS
 62
    2
 10
463.90882911398626
 20
389.97532426855469
 11
459.8588291139863
 21
389.97532426855469
  0
LINE
  8
_0-0_計極細
  6
CONTINUOUS
 62
    2
 10
456.91760511398621
 20
400.97532426855474
 11
458.10882911398608
 21
400.97532426855474
  0
LINE
  8
_0-0_計極細
  6
CONTINUOUS
 62
    2
 10
459.8588291139863
 20
388.67532426855473
 11
459.8588291139863
 21
399.22532426855469
  0
LINE
  8
_0-0_計極細
  6
CONTINUOUS
 62
    2
 10
457.65882911398626
 20
400.97532426855474
 11
457.65882911398626
 21
403.47532426855474
  0
ARC
  8
_0-0_計極細
  6
CONTINUOUS
 62
    2
 10
458.10882911398608
 20
399.22532426855469
 40
1.7500000000000004
 50
0
 51
89.999999999999915
  0
ARC
  8
_0-0_計極細
  6
CONTINUOUS
 62
    2
 10
454.17982911398622
 20
401.72532426855469
 40
1.7500000000000004
 50
4.1509899999972868
 51
89.999999999999915
  0
ARC
  8
_0-0_計極細
  6
CONTINUOUS
 62
    2
 10
456.91760511398621
 20
401.97532426855474
 40
1
 50
183.35088799999644
 51
269.99999999999977
  0
ARC
  8
_0-0_計極細
  6
CONTINUOUS
 62
    2
 10
456.91760511398621
 20
401.97532426855474
 40
1.6999999999999886
 50
183.35088800000108
 51
269.99999999999977
  0
LINE
  8
_0-0_計極細
  6
CONTINUOUS
 62
    2
 10
456.91760511398621
 20
400.27532426855464
 11
458.10882911398608
 21
400.27532426855464
  0
ARC
  8
_0-0_計極細
  6
CONTINUOUS
 62
    2
 10
458.10882911398608
 20
399.22532426855469
 40
1.0500000000000114
 50
0
 51
89.999999999999915
  0
LINE
  8
_0-0_計極細
  6
CONTINUOUS
 62
    2
 10
459.15882911398626
 20
387.97532426855469
 11
459.15882911398626
 21
399.22532426855469
  0
LINE
  8
_0-0_計極細
  6
CONTINUOUS
 62
    2
 10
454.17982911398622
 20
387.45432426855473
 11
455.65882911398631
 21
385.97532426855474
  0
LINE
  8
_0-0_計極細
  6
CONTINUOUS
 62
    2
 10
461.15882911398626
 20
383.97532426855469
 11
461.15882911398626
 21
389.97532426855469
  0
LINE
  8
_0-0_計極細
  6
CONTINUOUS
 62
    2
 10
463.40882911398631
 20
386.07610326855479
 11
463.40882911398631
 21
389.97532426855469
  0
LINE
  8
_0-0_計極細
  6
CONTINUOUS
 62
    2
 10
461.15882911398626
 20
387.97532426855469
 11
459.15882911398626
 21
387.97532426855469
  0
LINE
  8
_0-0_計極細
  6
CONTINUOUS
 62
    2
 10
461.15882911398626
 20
388.67532426855473
 11
459.8588291139863
 21
388.67532426855473
  0
LINE
  8
_0-0_計極細
  6
CONTINUOUS
 62
    2
 10
461.989013113986
 20
383.97532426855469
 11
461.15882911398626
 21
383.97532426855469
  0
LINE
  8
_0-0_計極細
  6
CONTINUOUS
 62
    2
 10
461.15882911398626
 20
385.97532426855474
 11
455.65882911398631
 21
385.97532426855474
  0
LINE
  8
_0-0_計極細
  6
CONTINUOUS
 62
    2
 10
474.37251611398602
 20
384.27532426855464
 11
469.37251611398602
 21
384.27532426855464
  0
LINE
  8
_0-0_計極細
  6
CONTINUOUS
 62
    2
 10
474.37251611398602
 20
384.27532426855464
 11
474.37251611398602
 21
385.97532426855474
  0
LINE
  8
_0-0_計極細
  6
CONTINUOUS
 62
    2
 10
469.37251611398602
 20
384.27532426855464
 11
469.37251611398602
 21
385.97532426855474
  0
LINE
  8
_0-0_計極細
  6
CONTINUOUS
 62
    2
 10
472.87251611398602
 20
384.27532426855464
 11
472.87251611398602
 21
385.97532426855474
  0
LINE
  8
_0-0_計極細
  6
CONTINUOUS
 62
    2
 10
457.70882911398644
 20
401.17532426855473
 11
457.70882911398644
 21
402.47532426855469
  0
LINE
  8
_0-0_計極細
  6
CONTINUOUS
 62
    2
 10
504.15882911398626
 20
402.97532426855469
 11
458.2088291139865
 21
402.97532426855469
  0
LINE
  8
_0-0_計極細
  6
CONTINUOUS
 62
    2
 10
459.85882911398613
 20
400.97532426855474
 11
457.90882911398626
 21
400.97532426855474
  0
LINE
  8
_0-0_計極細
  6
CONTINUOUS
 62
    2
 10
459.8588291139863
 20
397.97532426855469
 11
459.85882911398613
 21
400.97532426855474
  0
LINE
  8
_0-0_計極細
  6
CONTINUOUS
 62
    2
 10
460.95882911398644
 20
397.47532426855469
 11
460.95882911398644
 21
398.47532426855474
  0
ARC
  8
_0-0_計極細
  6
CONTINUOUS
 62
    2
 10
460.35882911398608
 20
397.97532426855469
 40
0.5
 50
179.99999999999983
 51
269.99999999999977
  0
ARC
  8
_0-0_計極細
  6
CONTINUOUS
 62
    2
 10
458.2088291139865
 20
402.47532426855469
 40
0.5
 50
155.94545100001582
 51
179.99999999999983
  0
ARC
  8
_0-0_計極細
  6
CONTINUOUS
 62
    2
 10
457.90882911398626
 20
401.17532426855473
 40
0.1999999999999886
 50
179.99999999999983
 51
269.99999999999977
  0
ARC
  8
_0-0_計極細
  6
CONTINUOUS
 62
    2
 10
458.2088291139865
 20
402.47532426855469
 40
0.5
 50
89.999999999999915
 51
155.94545100001582
  0
LINE
  8
_0-0_計極細
  6
CONTINUOUS
 62
    2
 10
503.95882911398644
 20
398.47532426855474
 11
460.95882911398644
 21
398.47532426855474
  0
LINE
  8
_0-0_計極細
  6
CONTINUOUS
 62
    2
 10
503.95882911398644
 20
397.47532426855469
 11
460.35882911398608
 21
397.47532426855469
  0
LINE
  8
_0-0_計極細
  6
CONTINUOUS
 62
    2
 10
504.15882911398626
 20
396.38143426855487
 11
460.00882911398577
 21
396.38143426855464
  0
LINE
  8
_0-0_計極細
  6
CONTINUOUS
 62
    2
 10
464.40882911398631
 20
396.38143426855464
 11
464.40882911398631
 21
395.88143426855459
  0
LINE
  8
_0-0_計極細
  6
CONTINUOUS
 62
    2
 10
460.80882911398618
 20
394.88143426855459
 11
460.00882911398577
 21
396.38143426855464
  0
LINE
  8
_0-0_計極細
  6
CONTINUOUS
 62
    2
 10
464.90882911398626
 20
393.08143426855463
 11
464.40882911398631
 21
393.58143426855463
  0
LINE
  8
_0-0_計極細
  6
CONTINUOUS
 62
    2
 10
464.40882911398631
 20
392.58143426855469
 11
464.90882911398626
 21
393.08143426855463
  0
LINE
  8
_0-0_計極細
  6
CONTINUOUS
 62
    2
 10
464.40882911398631
 20
394.88143426855459
 11
464.90882911398626
 21
395.38143426855464
  0
LINE
  8
_0-0_計極細
  6
CONTINUOUS
 62
    2
 10
464.90882911398626
 20
395.38143426855464
 11
464.40882911398631
 21
395.88143426855459
  0
LINE
  8
_0-0_計極細
  6
CONTINUOUS
 62
    2
 10
504.15882911398626
 20
395.38143426855481
 11
464.90882911398626
 21
395.38143426855464
  0
LINE
  8
_0-0_計極細
  6
CONTINUOUS
 62
    2
 10
504.15882911398626
 20
393.08143426855463
 11
464.90882911398626
 21
393.08143426855463
  0
LINE
  8
_0-0_計極細
  6
CONTINUOUS
 62
    2
 10
504.15882911398626
 20
392.08143426855463
 11
460.80882911398618
 21
392.08143426855463
  0
LINE
  8
_0-0_計極細
  6
CONTINUOUS
 62
    2
 10
460.80882911398618
 20
394.88143426855459
 11
460.80882911398618
 21
392.08143426855463
  0
LINE
  8
_0-0_計極細
  6
CONTINUOUS
 62
    2
 10
464.40882911398631
 20
392.58143426855469
 11
464.40882911398631
 21
392.08143426855463
  0
LINE
  8
_0-0_計極細
  6
CONTINUOUS
 62
    2
 10
464.40882911398631
 20
394.88143426855459
 11
464.40882911398631
 21
393.58143426855463
  0
LINE
  8
_0-0_計極細
  6
CONTINUOUS
 62
    2
 10
460.65882911398631
 20
390.47610326855471
 11
460.65882911398631
 21
391.97610326855465
  0
LINE
  8
_0-0_計極細
  6
CONTINUOUS
 62
    2
 10
460.65882911398631
 20
391.97610326855465
 11
504.15882911398626
 21
391.97610326855465
  0
LINE
  8
_0-0_計極細
  6
CONTINUOUS
 62
    2
 10
460.65882911398631
 20
396.57610326855485
 11
504.15882911398626
 21
396.57610326855485
  0
LINE
  8
_0-0_計極細
  6
CONTINUOUS
 62
    2
 10
460.65882911398631
 20
396.57610326855485
 11
460.65882911398631
 21
397.47532426855469
  0
LINE
  8
_0-0_計極細
  6
CONTINUOUS
 62
    2
 10
477.15882911398631
 20
383.0682602685547
 11
455.65882911398631
 21
383.0682602685547
  0
LINE
  8
_0-0_計極細
  6
CONTINUOUS
 62
    2
 10
477.15882911398631
 20
381.97259626855475
 11
477.15882911398631
 21
383.4503492685547
  0
LINE
  8
_0-0_計極細
  6
CONTINUOUS
 62
    2
 10
454.17982911398622
 20
403.47532426855474
 11
447.25882911398571
 21
404.46108128322476
  0
LINE
  8
_0-0_計極細
  6
CONTINUOUS
 62
    2
 10
465.90882911398631
 20
377.06826026855475
 11
477.15882911398631
 21
377.06826026855475
  0
LINE
  8
_0-0_計極細
  6
CONTINUOUS
 62
    2
 10
477.15882911398631
 20
382.26826026855474
 11
454.17982911398622
 21
382.26826026855474
  0
LINE
  8
_0-0_計極細
  6
CONTINUOUS
 62
    2
 10
504.15882911398626
 20
403.76824354855103
 11
556.19441573388622
 21
403.76824354855103
  0
LINE
  8
_0-0_計極細
  6
CONTINUOUS
 62
    2
 10
551.28382911777067
 20
354.1976538073784
 11
543.40882911398626
 21
354.1976538073784
  0
LINE
  8
_0-0_計極細
  6
CONTINUOUS
 62
    2
 10
531.1588291139858
 20
324.47608654855117
 11
531.1588291139858
 21
383.4503492685547
  0
ARC
  8
_0-0_計極細
  6
CONTINUOUS
 62
    2
 10
530.1588291139858
 20
324.47608654855117
 40
1
 50
269.99954163376469
 51
359.99999999999966
  0
LINE
  8
_0-0_計極細
  6
CONTINUOUS
 62
    2
 10
530.1588291139858
 20
323.47608654855094
 11
504.15882911398626
 21
323.47608654855117
  0
LINE
  8
_0-0_計極細
  6
CONTINUOUS
 62
    2
 10
531.74216244731883
 20
268.76824354855125
 11
532.1588291139858
 21
293.76824354855103
  0
LINE
  8
_0-0_計極細
  6
CONTINUOUS
 62
    2
 10
544.15882911398626
 20
296.26824354855103
 11
529.1588291139858
 21
296.26824354855103
  0
LINE
  8
_0-0_計極細
  6
CONTINUOUS
 62
    2
 10
552.15882911398626
 20
304.2682435485508
 11
552.15882911398626
 21
355.18981054855089
  0
LINE
  8
_0-0_計極細
  6
CONTINUOUS
 62
    2
 10
529.6588291139858
 20
263.76824354855103
 11
529.1588291139858
 21
296.26824354855103
  0
LINE
  8
_0-0_計極細
  6
CONTINUOUS
 62
    2
 10
532.1588291139858
 20
293.76824354855103
 11
542.1588291139858
 21
293.76824354855103
  0
ARC
  8
_0-0_計極細
  6
CONTINUOUS
 62
    2
 10
544.15882911398626
 20
304.26824354855103
 40
8
 50
269.99999999999977
 51
359.99999999999801
  0
LINE
  8
_0-0_計極細
  6
CONTINUOUS
 62
    2
 10
529.1588291139858
 20
296.26824354855103
 11
504.15882911398626
 21
296.26824354855103
  0
LINE
  8
_0-0_計極細
  6
CONTINUOUS
 62
    2
 10
529.16040811398557
 20
296.16557054855093
 11
529.1588291139858
 21
296.26824354855103
  0
LINE
  8
_0-0_計極細
  6
CONTINUOUS
 62
    2
 10
543.40882911398626
 20
318.26824354855103
 11
543.40882911398626
 21
345.26824354855103
  0
LINE
  8
_0-0_計極細
  6
CONTINUOUS
 62
    2
 10
531.4088291139858
 20
306.26824354855103
 11
529.1588291139858
 21
306.26824354855103
  0
LINE
  8
_0-0_計極細
  6
CONTINUOUS
 62
    2
 10
529.1588291139858
 20
296.26824354855103
 11
529.1588291139858
 21
306.26824354855103
  0
ARC
  8
_0-0_計極細
  6
CONTINUOUS
 62
    2
 10
531.4088291139858
 20
318.26824354855103
 40
12.000000000000002
 50
269.99999999999977
 51
359.99999999999966
  0
ARC
  8
_0-0_計極細
  6
CONTINUOUS
 62
    2
 10
551.15882911398626
 20
355.18981054855089
 40
1
 50
277.18075600000213
 51
359.99999999999966
  0
LINE
  8
_0-0_計極細
  6
CONTINUOUS
 62
    2
 10
552.15882911398626
 20
355.18981054855089
 11
552.15882911398626
 21
382.26826026855474
  0
LINE
  8
_0-0_計極細
  6
CONTINUOUS
 62
    2
 10
542.4088291139858
 20
268.76824354855125
 11
542.1588291139858
 21
293.76824354855103
  0
LINE
  8
_0-0_計極細
  6
CONTINUOUS
 62
    2
 10
505.08986311398598
 20
306.26824354855103
 11
531.4088291139858
 21
306.26824354855103
  0
LINE
  8
_0-0_計極細
  6
CONTINUOUS
 62
    2
 10
543.40882911398626
 20
318.26824354855103
 11
543.40882911398626
 21
376.0682602685547
  0
LINE
  8
_0-0_計極細
  6
CONTINUOUS
 62
    2
 10
541.40882911398626
 20
318.26824354855103
 11
541.40882911398626
 21
376.0682602685547
  0
LINE
  8
_0-0_計極細
  6
CONTINUOUS
 62
    2
 10
504.15882911398626
 20
308.26824354855103
 11
531.4088291139858
 21
308.26824354855103
  0
ARC
  8
_0-0_計極細
  6
CONTINUOUS
 62
    2
 10
531.4088291139858
 20
318.26824354855103
 40
10
 50
269.99999999999977
 51
359.99999999999966
  0
LINE
  8
_0-0_計極細
  6
CONTINUOUS
 62
    2
 10
544.40882911398626
 20
390.47610326855471
 11
504.15882911398626
 21
390.47610326855471
  0
LINE
  8
_0-0_計極細
  6
CONTINUOUS
 62
    2
 10
544.40882911398626
 20
386.07610326855479
 11
544.40882911398626
 21
390.47610326855471
  0
LINE
  8
_0-0_計極細
  6
CONTINUOUS
 62
    2
 10
547.65882911398626
 20
390.47610326855471
 11
544.40882911398626
 21
390.47610326855471
  0
LINE
  8
_0-0_計極細
  6
CONTINUOUS
 62
    2
 10
546.65882911398626
 20
386.07610326855479
 11
544.40882911398626
 21
386.07610326855479
  0
LINE
  8
_0-0_計極細
  6
CONTINUOUS
 62
    2
 10
546.65882911398626
 20
385.07610326855485
 11
546.65882911398626
 21
386.07610326855479
  0
ARC
  8
_0-0_計極細
  6
CONTINUOUS
 62
    2
 10
544.65882911398626
 20
385.07610326855485
 40
2
 50
269.99999999999977
 51
359.99999999999966
  0
LINE
  8
_0-0_計極細
  6
CONTINUOUS
 62
    2
 10
544.65882911398626
 20
383.07610326855479
 11
541.65882911398626
 21
383.07610326855479
  0
LINE
  8
_0-0_計極細
  6
CONTINUOUS
 62
    2
 10
541.65882911398626
 20
383.07610326855479
 11
541.65882911398626
 21
386.07610326855479
  0
ARC
  8
_0-0_計極細
  6
CONTINUOUS
 62
    2
 10
554.13782911398607
 20
401.72532426855469
 40
1.0500000000000114
 50
89.999999999999915
 51
175.84900999999832
  0
LINE
  8
_0-0_計極細
  6
CONTINUOUS
 62
    2
 10
554.13782911398607
 20
387.45432426855473
 11
554.13782911398607
 21
402.77532426855464
  0
LINE
  8
_0-0_計極細
  6
CONTINUOUS
 62
    2
 10
554.13782911398607
 20
402.76825972230381
 11
561.05882911398658
 21
403.75401726855472
  0
LINE
  8
_0-0_計極細
  6
CONTINUOUS
 62
    2
 10
552.65882911398649
 20
383.0682602685547
 11
552.65882911398649
 21
385.97532426855474
  0
LINE
  8
_0-0_計極細
  6
CONTINUOUS
 62
    2
 10
554.13782911398607
 20
382.26826026855474
 11
552.65882911398649
 21
383.0682602685547
  0
LINE
  8
_0-0_計極細
  6
CONTINUOUS
 62
    2
 10
561.05882911398658
 20
402.06826026855475
 11
554.13782911398607
 21
401.26826026855474
  0
ARC
  8
_0-0_計極細
  6
CONTINUOUS
 62
    2
 10
542.40882911398626
 20
376.0682602685547
 40
1
 50
0
 51
89.999999999999915
  0
ARC
  8
_0-0_計極細
  6
CONTINUOUS
 62
    2
 10
542.40882911398626
 20
376.0682602685547
 40
1
 50
89.999999999999915
 51
179.99999999999983
  0
LINE
  8
_0-0_計極細
  6
CONTINUOUS
 62
    2
 10
504.15882911398626
 20
403.47532426855474
 11
554.13782911398607
 21
403.47532426855474
  0
LINE
  8
_0-0_計極細
  6
CONTINUOUS
 62
    2
 10
544.40882911398626
 20
389.97532426855469
 11
548.45882911398598
 21
389.97532426855469
  0
LINE
  8
_0-0_計極細
  6
CONTINUOUS
 62
    2
 10
551.40005311398613
 20
400.97532426855474
 11
550.20882911398598
 21
400.97532426855474
  0
LINE
  8
_0-0_計極細
  6
CONTINUOUS
 62
    2
 10
548.45882911398598
 20
388.67532426855473
 11
548.45882911398598
 21
399.22532426855469
  0
LINE
  8
_0-0_計極細
  6
CONTINUOUS
 62
    2
 10
550.65882911398626
 20
400.97532426855474
 11
550.65882911398626
 21
403.47532426855474
  0
ARC
  8
_0-0_計極細
  6
CONTINUOUS
 62
    2
 10
550.20882911398598
 20
399.22532426855469
 40
1.7500000000000004
 50
89.999999999999915
 51
179.99999999999983
  0
ARC
  8
_0-0_計極細
  6
CONTINUOUS
 62
    2
 10
554.13782911398607
 20
401.72532426855469
 40
1.7500000000000004
 50
89.999999999999915
 51
175.84901000000218
  0
ARC
  8
_0-0_計極細
  6
CONTINUOUS
 62
    2
 10
551.40005311398613
 20
401.97532426855474
 40
1
 50
269.99999999999977
 51
356.64911200000284
  0
ARC
  8
_0-0_計極細
  6
CONTINUOUS
 62
    2
 10
551.40005311398613
 20
401.97532426855474
 40
1.6999999999999886
 50
269.99999999999977
 51
356.64911199999909
  0
LINE
  8
_0-0_計極細
  6
CONTINUOUS
 62
    2
 10
551.40005311398613
 20
400.27532426855464
 11
550.20882911398598
 21
400.27532426855464
  0
ARC
  8
_0-0_計極細
  6
CONTINUOUS
 62
    2
 10
550.20882911398598
 20
399.22532426855469
 40
1.0500000000000114
 50
89.999999999999915
 51
179.99999999999983
  0
LINE
  8
_0-0_計極細
  6
CONTINUOUS
 62
    2
 10
549.15882911398626
 20
387.97532426855469
 11
549.15882911398626
 21
399.22532426855469
  0
LINE
  8
_0-0_計極細
  6
CONTINUOUS
 62
    2
 10
554.13782911398607
 20
387.45432426855473
 11
552.65882911398649
 21
385.97532426855474
  0
LINE
  8
_0-0_計極細
  6
CONTINUOUS
 62
    2
 10
547.15882911398626
 20
383.97532426855469
 11
547.15882911398626
 21
389.97532426855469
  0
LINE
  8
_0-0_計極細
  6
CONTINUOUS
 62
    2
 10
544.90882911398626
 20
386.07610326855479
 11
544.90882911398626
 21
389.97532426855469
  0
LINE
  8
_0-0_計極細
  6
CONTINUOUS
 62
    2
 10
547.15882911398626
 20
387.97532426855469
 11
549.15882911398626
 21
387.97532426855469
  0
LINE
  8
_0-0_計極細
  6
CONTINUOUS
 62
    2
 10
547.15882911398626
 20
388.67532426855473
 11
548.45882911398598
 21
388.67532426855473
  0
LINE
  8
_0-0_計極細
  6
CONTINUOUS
 62
    2
 10
546.32864511398634
 20
383.97532426855469
 11
547.15882911398626
 21
383.97532426855469
  0
LINE
  8
_0-0_計極細
  6
CONTINUOUS
 62
    2
 10
547.15882911398626
 20
385.97532426855474
 11
552.65882911398649
 21
385.97532426855474
  0
LINE
  8
_0-0_計極細
  6
CONTINUOUS
 62
    2
 10
533.94514211398632
 20
384.27532426855464
 11
538.94514211398632
 21
384.27532426855464
  0
LINE
  8
_0-0_計極細
  6
CONTINUOUS
 62
    2
 10
533.94514211398632
 20
384.27532426855464
 11
533.94514211398632
 21
385.97532426855474
  0
LINE
  8
_0-0_計極細
  6
CONTINUOUS
 62
    2
 10
538.94514211398632
 20
384.27532426855464
 11
538.94514211398632
 21
385.97532426855474
  0
LINE
  8
_0-0_計極細
  6
CONTINUOUS
 62
    2
 10
535.44514211398632
 20
384.27532426855464
 11
535.44514211398632
 21
385.97532426855474
  0
LINE
  8
_0-0_計極細
  6
CONTINUOUS
 62
    2
 10
550.60882911398608
 20
401.17532426855473
 11
550.60882911398608
 21
402.47532426855469
  0
LINE
  8
_0-0_計極細
  6
CONTINUOUS
 62
    2
 10
504.15882911398626
 20
402.97532426855469
 11
550.10882911398608
 21
402.97532426855469
  0
LINE
  8
_0-0_計極細
  6
CONTINUOUS
 62
    2
 10
548.45882911398644
 20
400.97532426855474
 11
550.40882911398626
 21
400.97532426855474
  0
LINE
  8
_0-0_計極細
  6
CONTINUOUS
 62
    2
 10
548.45882911398598
 20
397.97532426855469
 11
548.45882911398644
 21
400.97532426855474
  0
LINE
  8
_0-0_計極細
  6
CONTINUOUS
 62
    2
 10
547.35882911398608
 20
397.47532426855469
 11
547.35882911398608
 21
398.47532426855474
  0
ARC
  8
_0-0_計極細
  6
CONTINUOUS
 62
    2
 10
547.95882911398598
 20
397.97532426855469
 40
0.5
 50
269.99999999999977
 51
359.99999999999966
  0
ARC
  8
_0-0_計極細
  6
CONTINUOUS
 62
    2
 10
550.10882911398608
 20
402.47532426855469
 40
0.5
 50
0
 51
24.05454900000543
  0
ARC
  8
_0-0_計極細
  6
CONTINUOUS
 62
    2
 10
550.40882911398626
 20
401.17532426855473
 40
0.1999999999999886
 50
269.99999999999977
 51
359.99999999999966
  0
ARC
  8
_0-0_計極細
  6
CONTINUOUS
 62
    2
 10
550.10882911398608
 20
402.47532426855469
 40
0.5
 50
24.05454900000543
 51
89.999999999999901
  0
LINE
  8
_0-0_計極細
  6
CONTINUOUS
 62
    2
 10
504.35882911398608
 20
398.47532426855474
 11
547.35882911398608
 21
398.47532426855474
  0
LINE
  8
_0-0_計極細
  6
CONTINUOUS
 62
    2
 10
504.35882911398608
 20
397.47532426855469
 11
547.95882911398598
 21
397.47532426855469
  0
LINE
  8
_0-0_計極細
  6
CONTINUOUS
 62
    2
 10
504.15882911398626
 20
396.38143426855487
 11
548.30882911398635
 21
396.38143426855464
  0
LINE
  8
_0-0_計極細
  6
CONTINUOUS
 62
    2
 10
543.90882911398626
 20
396.38143426855464
 11
543.90882911398626
 21
395.88143426855459
  0
LINE
  8
_0-0_計極細
  6
CONTINUOUS
 62
    2
 10
547.50882911398617
 20
394.88143426855459
 11
548.30882911398635
 21
396.38143426855464
  0
LINE
  8
_0-0_計極細
  6
CONTINUOUS
 62
    2
 10
543.40882911398626
 20
393.08143426855463
 11
543.90882911398626
 21
393.58143426855463
  0
LINE
  8
_0-0_計極細
  6
CONTINUOUS
 62
    2
 10
543.90882911398626
 20
392.58143426855469
 11
543.40882911398626
 21
393.08143426855463
  0
LINE
  8
_0-0_計極細
  6
CONTINUOUS
 62
    2
 10
543.90882911398626
 20
394.88143426855459
 11
543.40882911398626
 21
395.38143426855464
  0
LINE
  8
_0-0_計極細
  6
CONTINUOUS
 62
    2
 10
543.40882911398626
 20
395.38143426855464
 11
543.90882911398626
 21
395.88143426855459
  0
LINE
  8
_0-0_計極細
  6
CONTINUOUS
 62
    2
 10
504.15882911398626
 20
395.38143426855481
 11
543.40882911398626
 21
395.38143426855464
  0
LINE
  8
_0-0_計極細
  6
CONTINUOUS
 62
    2
 10
504.15882911398626
 20
393.08143426855463
 11
543.40882911398626
 21
393.08143426855463
  0
LINE
  8
_0-0_計極細
  6
CONTINUOUS
 62
    2
 10
504.15882911398626
 20
392.08143426855463
 11
547.50882911398617
 21
392.08143426855463
  0
LINE
  8
_0-0_計極細
  6
CONTINUOUS
 62
    2
 10
547.50882911398617
 20
394.88143426855459
 11
547.50882911398617
 21
392.08143426855463
  0
LINE
  8
_0-0_計極細
  6
CONTINUOUS
 62
    2
 10
543.90882911398626
 20
392.58143426855469
 11
543.90882911398626
 21
392.08143426855463
  0
LINE
  8
_0-0_計極細
  6
CONTINUOUS
 62
    2
 10
543.90882911398626
 20
394.88143426855459
 11
543.90882911398626
 21
393.58143426855463
  0
LINE
  8
_0-0_計極細
  6
CONTINUOUS
 62
    2
 10
547.65882911398626
 20
390.47610326855471
 11
547.65882911398626
 21
391.97610326855465
  0
LINE
  8
_0-0_計極細
  6
CONTINUOUS
 62
    2
 10
547.65882911398626
 20
391.97610326855465
 11
504.15882911398626
 21
391.97610326855465
  0
LINE
  8
_0-0_計極細
  6
CONTINUOUS
 62
    2
 10
547.65882911398626
 20
396.57610326855485
 11
504.15882911398626
 21
396.57610326855485
  0
LINE
  8
_0-0_計極細
  6
CONTINUOUS
 62
    2
 10
547.65882911398626
 20
396.57610326855485
 11
547.65882911398626
 21
397.47532426855469
  0
LINE
  8
_0-0_計極細
  6
CONTINUOUS
 62
    2
 10
531.1588291139858
 20
383.0682602685547
 11
552.65882911398649
 21
383.0682602685547
  0
LINE
  8
_0-0_計極細
  6
CONTINUOUS
 62
    2
 10
531.1588291139858
 20
381.97259626855475
 11
531.1588291139858
 21
383.4503492685547
  0
LINE
  8
_0-0_計極細
  6
CONTINUOUS
 62
    2
 10
554.13782911398607
 20
403.47532426855474
 11
561.05882911398658
 21
404.46108128322476
  0
LINE
  8
_0-0_計極細
  6
CONTINUOUS
 62
    2
 10
542.40882911398626
 20
377.06826026855475
 11
531.1588291139858
 21
377.06826026855475
  0
LINE
  8
_0-0_計極細
  6
CONTINUOUS
 62
    2
 10
531.1588291139858
 20
382.26826026855474
 11
554.13782911398607
 21
382.26826026855474
  0
LINE
  8
_0-0_計極細
  6
CONTINUOUS
 62
    2
 10
462.02734711719955
 20
386.07610326855479
 11
462.02734711719955
 21
389.97532426855469
  0
LINE
  8
_0-0_計極細
  6
CONTINUOUS
 62
    2
 10
546.02734711719927
 20
386.07610326855479
 11
546.02734711719927
 21
389.97532426855469
  0
LINE
  8
_0-0_計極細
  6
CONTINUOUS
 62
    2
 10
460.80882911398618
 20
393.54228238101064
 11
464.44798100153008
 21
393.54228238101064
  0
LINE
  8
_0-0_計極細
  6
CONTINUOUS
 62
    2
 10
460.72304345400948
 20
395.04228238101064
 11
464.56967722644208
 21
395.04228238101064
  0
LINE
  8
_0-0_計極細
  6
CONTINUOUS
 62
    2
 10
543.86967722644272
 20
393.54228238101064
 11
547.50882911398617
 21
393.54228238101064
  0
LINE
  8
_0-0_計極細
  6
CONTINUOUS
 62
    2
 10
543.74798100152998
 20
395.04228238101064
 11
547.59461477396258
 21
395.04228238101064
  0
ARC
  8
_0-0_計極細
  6
CONTINUOUS
 62
    2
 10
471.15882911398626
 20
383.4503492685547
 40
6.0000000000000009
 50
0
 51
24.886947317070639
  0
ARC
  8
_0-0_計極細
  6
CONTINUOUS
 62
    2
 10
469.65882911398631
 20
386.07610326855479
 40
3.0000000000000004
 50
129.97050058003856
 51
181.92509931279602
  0
LINE
  8
_0-0_計極細
  6
CONTINUOUS
 62
    2
 10
476.60166856131292
 20
385.97532426855474
 11
466.66052232628772
 21
385.97532426855474
  0
ARC
  8
_0-0_計極細
  6
CONTINUOUS
 62
    2
 10
471.15882911398626
 20
383.4503492685547
 40
6.0000000000000009
 50
24.886947317070639
 51
124.83370764384469
  0
ARC
  8
_0-0_計極細
  6
CONTINUOUS
 62
    2
 10
537.15882911398626
 20
383.4503492685547
 40
6.0000000000000009
 50
155.11305268292938
 51
179.99999999999983
  0
LINE
  8
_0-0_計極細
  6
CONTINUOUS
 62
    2
 10
531.71598966665965
 20
385.97532426855474
 11
541.65713590168457
 21
385.97532426855474
  0
ARC
  8
_0-0_計極細
  6
CONTINUOUS
 62
    2
 10
538.65882911398626
 20
386.07610326855479
 40
3.0000000000000004
 50
358.07490068720335
 51
50.02949941996107
  0
ARC
  8
_0-0_計極細
  6
CONTINUOUS
 62
    2
 10
537.15882911398626
 20
383.4503492685547
 40
6.0000000000000009
 50
55.166292356155324
 51
155.11305268292938
  0
LINE
  8
_0-0_計極細
  6
CONTINUOUS
 62
    2
 10
554.13782911398607
 20
401.94228238101073
 11
559.96896291437019
 21
401.94228238101073
  0
LINE
  8
_0-0_計極細
  6
CONTINUOUS
 62
    2
 10
554.65754192050667
 20
402.84228238101065
 11
561.05882911398658
 21
402.84228238101065
  0
LINE
  8
_0-0_計極細
  6
CONTINUOUS
 62
    2
 10
560.97643851296948
 20
403.74228238101068
 11
561.05882911398658
 21
403.74228238101068
  0
LINE
  8
_0-0_計極細
  6
CONTINUOUS
 62
    2
 10
448.3486953136017
 20
401.94228238101073
 11
454.17982911398622
 21
401.94228238101073
  0
LINE
  8
_0-0_計極細
  6
CONTINUOUS
 62
    2
 10
447.25882911398571
 20
402.84228238101065
 11
453.66011630746539
 21
402.84228238101065
  0
LINE
  8
_0-0_計極細
  6
CONTINUOUS
 62
    2
 10
447.25882911398571
 20
403.74228238101068
 11
447.34121971500258
 21
403.74228238101068
  0
LINE
  8
_0-0_計極細
  6
CENTER2
 62
    2
 10
660.37728326747379
 20
288.26860390820559
 11
594.68119293057248
 21
288.26860390820559
  0
LINE
  8
_0-0_計極細
  6
CENTER2
 62
    2
 10
660.56612715490246
 20
287.55363039286397
 11
621.3912949218402
 21
288.29274979823288
  0
LINE
  8
_0-5_寸法線
  6
CONTINUOUS
 62
    7
 10
440.25582772155849
 20
248.7682435485705
 11
309.15882911478025
 21
248.76824354857092
  0
LINE
  8
_0-5_寸法線
  6
CONTINUOUS
 62
    7
 10
314.15882911478025
 20
248.76824354857092
 11
311.57063866375506
 21
258.42750181146158
  0
LINE
  8
_0-5_寸法線
  6
CONTINUOUS
 62
    7
 10
314.15882911478025
 20
248.76824354857092
 11
316.74701956580549
 21
258.42750181146158
  0
LINE
  8
_0-5_寸法線
  6
CONTINUOUS
 62
    7
 10
423.4088291905266
 20
440.76475899176251
 11
309.15882911478025
 21
440.76475899176285
  0
LINE
  8
_0-5_寸法線
  6
CONTINUOUS
 62
    7
 10
314.15882911478025
 20
440.76475899176285
 11
316.74701956580549
 21
431.10550072887224
  0
LINE
  8
_0-5_寸法線
  6
CONTINUOUS
 62
    7
 10
314.15882911478025
 20
440.76475899176285
 11
311.57063866375506
 21
431.10550072887224
  0
LINE
  8
_0-5_寸法線
  6
CONTINUOUS
 62
    7
 10
314.15882911478025
 20
248.76824354857092
 11
314.15882911478025
 21
440.76475899176285
  0
TEXT
  8
_0-5_寸法線
 62
    7
 10
314.15882911478025
 20
296.01650127016683
 40
15
 41
1
 50
89.999999999999915
  1
192(152)～218
  0
LINE
  8
_0-5_寸法線
  6
CONTINUOUS
 62
    7
 10
440.25582772155849
 20
248.7682435485705
 11
344.1588291147803
 21
248.76824354857081
  0
LINE
  8
_0-5_寸法線
  6
CONTINUOUS
 62
    7
 10
349.1588291147803
 20
248.76824354857078
 11
346.57063866375506
 21
258.42750181146147
  0
LINE
  8
_0-5_寸法線
  6
CONTINUOUS
 62
    7
 10
349.1588291147803
 20
248.76824354857078
 11
351.74701956580549
 21
258.42750181146147
  0
LINE
  8
_0-5_寸法線
  6
CONTINUOUS
 62
    7
 10
390.65882911480821
 20
338.76475899176199
 11
344.1588291147803
 21
338.76475899176216
  0
LINE
  8
_0-5_寸法線
  6
CONTINUOUS
 62
    7
 10
349.1588291147803
 20
338.76475899176216
 11
351.74701956580543
 21
329.10550072887139
  0
LINE
  8
_0-5_寸法線
  6
CONTINUOUS
 62
    7
 10
349.1588291147803
 20
338.76475899176216
 11
346.57063866375501
 21
329.10550072887145
  0
LINE
  8
_0-5_寸法線
  6
CONTINUOUS
 62
    7
 10
349.1588291147803
 20
248.76824354857078
 11
349.1588291147803
 21
338.76475899176216
  0
TEXT
  8
_0-5_寸法線
 62
    7
 10
349.1588291147803
 20
286.2665012701666
 40
15
 41
1
 50
90
  1
90
  0
LINE
  8
_0-5_寸法線
  6
CONTINUOUS
 62
    7
 10
349.1588291147803
 20
338.76475899176216
 11
346.57063866375506
 21
348.42401725465277
  0
LINE
  8
_0-5_寸法線
  6
CONTINUOUS
 62
    7
 10
349.1588291147803
 20
338.76475899176216
 11
351.74701956580549
 21
348.42401725465277
  0
LINE
  8
_0-5_寸法線
  6
CONTINUOUS
 62
    7
 10
423.4088291905266
 20
440.76475899176251
 11
344.1588291147803
 21
440.76475899176273
  0
LINE
  8
_0-5_寸法線
  6
CONTINUOUS
 62
    7
 10
349.1588291147803
 20
440.76475899176273
 11
351.74701956580549
 21
431.10550072887207
  0
LINE
  8
_0-5_寸法線
  6
CONTINUOUS
 62
    7
 10
349.1588291147803
 20
440.76475899176273
 11
346.57063866375506
 21
431.10550072887207
  0
LINE
  8
_0-5_寸法線
  6
CONTINUOUS
 62
    7
 10
349.1588291147803
 20
338.76475899176216
 11
349.1588291147803
 21
440.76475899176273
  0
TEXT
  8
_0-5_寸法線
 62
    7
 10
349.15882911478025
 20
344.76475899176245
 40
15
 41
1
 50
89.999999999999957
  1
102(62)～128
  0
LINE
  8
_0-5_寸法線
  6
CONTINUOUS
 62
    7
 10
644.19668817251011
 20
248.76860390820468
 11
724.15882911477547
 21
248.76860390820468
  0
LINE
  8
_0-5_寸法線
  6
CONTINUOUS
 62
    7
 10
719.15882911477547
 20
248.76860390820468
 11
716.57063866375029
 21
258.42786217109534
  0
LINE
  8
_0-5_寸法線
  6
CONTINUOUS
 62
    7
 10
719.15882911477547
 20
248.76860390820468
 11
721.74701956580066
 21
258.42786217109534
  0
LINE
  8
_0-5_寸法線
  6
CONTINUOUS
 62
    7
 10
684.95844321320305
 20
288.26860390820468
 11
724.15882911477547
 21
288.26860390820468
  0
LINE
  8
_0-5_寸法線
  6
CONTINUOUS
 62
    7
 10
719.15882911477547
 20
288.26860390820468
 11
721.74701956580066
 21
278.60934564531408
  0
LINE
  8
_0-5_寸法線
  6
CONTINUOUS
 62
    7
 10
719.15882911477547
 20
288.26860390820468
 11
716.57063866375029
 21
278.60934564531408
  0
LINE
  8
_0-5_寸法線
  6
CONTINUOUS
 62
    7
 10
719.15882911477547
 20
248.76860390820468
 11
719.15882911477547
 21
288.26860390820468
  0
TEXT
  8
_0-5_寸法線
 62
    7
 10
719.15882911477547
 20
253.51860390820468
 40
15
 41
1
 50
90
  1
39.5
  0
LINE
  8
_0-5_寸法線
  6
CONTINUOUS
 62
    7
 10
644.19744107893234
 20
248.76824354857041
 11
759.15882911477547
 21
248.7682435485699
  0
LINE
  8
_0-5_寸法線
  6
CONTINUOUS
 62
    7
 10
754.15882911477547
 20
248.76824354856993
 11
751.57063866375029
 21
258.42750181146062
  0
LINE
  8
_0-5_寸法線
  6
CONTINUOUS
 62
    7
 10
754.15882911477547
 20
248.76824354856993
 11
756.74701956580066
 21
258.42750181146062
  0
LINE
  8
_0-5_寸法線
  6
CONTINUOUS
 62
    7
 10
644.19744107893234
 20
328.76777554894494
 11
759.15882911477547
 21
328.76777554894443
  0
LINE
  8
_0-5_寸法線
  6
CONTINUOUS
 62
    7
 10
754.15882911477547
 20
328.76777554894443
 11
756.74701956580066
 21
319.10851728605383
  0
LINE
  8
_0-5_寸法線
  6
CONTINUOUS
 62
    7
 10
754.15882911477547
 20
328.76777554894443
 11
751.57063866375029
 21
319.10851728605383
  0
LINE
  8
_0-5_寸法線
  6
CONTINUOUS
 62
    7
 10
754.15882911477547
 20
248.76824354856993
 11
754.15882911477547
 21
328.76777554894443
  0
TEXT
  8
_0-5_寸法線
 62
    7
 10
754.15882911477547
 20
281.26800954875716
 40
15
 41
1
 50
90
  1
80
  0
LINE
  8
_0-5_寸法線
  6
CONTINUOUS
 62
    7
 10
624.14471125900877
 20
288.07662975948512
 11
651.8314350808605
 21
287.54501826655871
  0
LINE
  8
_0-5_寸法線
  6
CONTINUOUS
 62
    7
 10
646.83235651760947
 20
287.64100534091841
 11
649.23463720964764
 21
277.933840591278
  0
LINE
  8
_0-5_寸法線
  6
CONTINUOUS
 62
    7
 10
646.83235651760947
 20
287.64100534091841
 11
644.05921024911527
 21
278.03321372298996
  0
LINE
  8
_0-5_寸法線
  6
CONTINUOUS
 62
    7
 10
624.14655413250671
 20
288.26860390820468
 11
651.83838120778114
 21
288.26860390820468
  0
LINE
  8
_0-5_寸法線
  6
CONTINUOUS
 62
    7
 10
646.83838120778114
 20
288.26860390820468
 11
644.25019075675596
 21
297.9278621710954
  0
LINE
  8
_0-5_寸法線
  6
CONTINUOUS
 62
    7
 10
646.83838120778114
 20
288.26860390820468
 11
649.42657165880632
 21
297.9278621710954
  0
ARC
  8
_0-5_寸法線
  6
CONTINUOUS
 62
    7
 10
614.14655413250671
 20
288.26860390820468
 40
32.691827075274432
 50
358.90000157751336
 51
359.99999999999966
  0
ARC
  8
_0-5_寸法線
  6
CONTINUOUS
 62
    7
 10
614.14655413250671
 20
288.26860390820468
 40
32.691827075274432
 50
315.08493781466814
 51
358.90000157751336
  0
ARC
  8
_0-5_寸法線
  6
CONTINUOUS
 62
    7
 10
614.14655413250671
 20
288.26860390820468
 40
32.691827075274432
 50
0
 51
61.715004335829214
  0
TEXT
  8
_0-5_寸法線
 62
    7
 10
634.01367013043853
 20
325.18900151500691
 40
15
 41
1
 50
-67.047822082689407
  1
1゜10’
  0
LINE
  8
_0-5_寸法線
  6
CONTINUOUS
 62
    7
 10
644.19668817251011
 20
258.95996992953957
 11
689.15882911477547
 21
258.95996992953945
  0
LINE
  8
_0-5_寸法線
  6
CONTINUOUS
 62
    7
 10
684.15882911477547
 20
258.95996992953945
 11
681.57063866375029
 21
268.61922819243011
  0
LINE
  8
_0-5_寸法線
  6
CONTINUOUS
 62
    7
 10
684.15882911477547
 20
258.95996992953945
 11
686.74701956580066
 21
268.61922819243011
  0
LINE
  8
_0-5_寸法線
  6
CONTINUOUS
 62
    7
 10
644.19668817251011
 20
318.57296358621539
 11
689.15882911477547
 21
318.57296358621528
  0
LINE
  8
_0-5_寸法線
  6
CONTINUOUS
 62
    7
 10
684.15882911477547
 20
318.57296358621528
 11
686.74701956580066
 21
308.91370532332462
  0
LINE
  8
_0-5_寸法線
  6
CONTINUOUS
 62
    7
 10
684.15882911477547
 20
318.57296358621528
 11
681.57063866375029
 21
308.91370532332462
  0
LINE
  8
_0-5_寸法線
  6
CONTINUOUS
 62
    7
 10
684.15882911477547
 20
258.95996992953945
 11
684.15882911477547
 21
318.57296358621528
  0
TEXT
  8
_0-5_寸法線
 62
    7
 10
684.15882911477547
 20
262.18233185949714
 40
15
 41
1
 50
90
  1
Rc2・59.6
  0
LINE
  8
_0-5_寸法線
  6
CONTINUOUS
 62
    7
 10
504.15882911398688
 20
238.7682435485705
 11
504.15882911398677
 21
193.7682435485705
  0
LINE
  8
_0-5_寸法線
  6
CONTINUOUS
 62
    7
 10
504.15882911398677
 20
198.7682435485705
 11
513.81808737687743
 21
201.35643399959571
  0
LINE
  8
_0-5_寸法線
  6
CONTINUOUS
 62
    7
 10
504.15882911398677
 20
198.7682435485705
 11
513.81808737687743
 21
196.18005309754523
  0
LINE
  8
_0-5_寸法線
  6
CONTINUOUS
 62
    7
 10
634.39782697971623
 20
242.29656637307755
 11
634.397826979716
 21
193.7682435485705
  0
LINE
  8
_0-5_寸法線
  6
CONTINUOUS
 62
    7
 10
634.397826979716
 20
198.7682435485705
 11
624.73856871682528
 21
196.18005309754528
  0
LINE
  8
_0-5_寸法線
  6
CONTINUOUS
 62
    7
 10
634.397826979716
 20
198.7682435485705
 11
624.73856871682528
 21
201.35643399959577
  0
LINE
  8
_0-5_寸法線
  6
CONTINUOUS
 62
    7
 10
504.15882911398677
 20
198.7682435485705
 11
634.397826979716
 21
198.7682435485705
  0
TEXT
  8
_0-5_寸法線
 62
    7
 10
558.02832804685136
 20
198.7682435485705
 40
15
 41
1
 50
0
  1
130
  0
LINE
  8
_0-5_寸法線
  6
CONTINUOUS
 62
    7
 10
477.0520728428321
 20
257.00851381334371
 11
477.05207284283205
 21
247.00851381334374
  0
LINE
  8
_0-5_寸法線
  6
CONTINUOUS
 62
    7
 10
477.0520728428321
 20
257.00851381334371
 11
472.0520728428321
 21
248.34825977549937
  0
LINE
  8
_0-5_寸法線
  6
CONTINUOUS
 62
    7
 10
477.0520728428321
 20
257.00851381334371
 11
456.12975505635359
 21
178.92536082210498
  0
LINE
  8
_0-5_寸法線
  6
CONTINUOUS
 62
    7
 10
456.12975505635359
 20
178.92536082210498
 11
372.12975505635364
 21
178.92536082210555
  0
TEXT
  8
_0-5_寸法線
 62
    7
 10
372.12975505635364
 20
178.92536082210498
 40
15
 41
0.7999999999999998
 50
0
  1
防水マス横引き
  0
LINE
  8
_0-5_寸法線
  6
CONTINUOUS
 62
    7
 10
399.15882911477638
 20
342.76475899163302
 11
399.15882911477672
 21
495.76475899176194
  0
LINE
  8
_0-5_寸法線
  6
CONTINUOUS
 62
    7
 10
399.15882911477672
 20
490.76475899176194
 11
408.81808737766738
 21
493.35294944278712
  0
LINE
  8
_0-5_寸法線
  6
CONTINUOUS
 62
    7
 10
399.15882911477672
 20
490.76475899176194
 11
408.81808737766738
 21
488.17656854073675
  0
LINE
  8
_0-5_寸法線
  6
CONTINUOUS
 62
    7
 10
609.15882911477331
 20
342.76475899164063
 11
609.15882911477365
 21
495.76475899176194
  0
LINE
  8
_0-5_寸法線
  6
CONTINUOUS
 62
    7
 10
609.15882911477365
 20
490.76475899176194
 11
599.49957085188294
 21
488.17656854073675
  0
LINE
  8
_0-5_寸法線
  6
CONTINUOUS
 62
    7
 10
609.15882911477365
 20
490.76475899176194
 11
599.49957085188294
 21
493.35294944278724
  0
LINE
  8
_0-5_寸法線
  6
CONTINUOUS
 62
    7
 10
399.15882911477672
 20
490.76475899176194
 11
609.15882911477365
 21
490.76475899176194
  0
TEXT
  8
_0-5_寸法線
 62
    7
 10
485.40882911477524
 20
490.76475899176194
 40
15
 41
1
 50
0
  1
φ210
  0
LINE
  8
_0-5_寸法線
  6
CONTINUOUS
 62
    7
 10
432.15882911398649
 20
580.76475899176194
 11
432.15882911398649
 21
535.76475899176194
  0
LINE
  8
_0-5_寸法線
  6
CONTINUOUS
 62
    7
 10
432.15882911398649
 20
540.76475899176194
 11
441.8180873768772
 21
543.35294944278712
  0
LINE
  8
_0-5_寸法線
  6
CONTINUOUS
 62
    7
 10
432.15882911398649
 20
540.76475899176194
 11
441.8180873768772
 21
538.17656854073675
  0
LINE
  8
_0-5_寸法線
  6
CONTINUOUS
 62
    7
 10
504.15882911398654
 20
580.76475899176194
 11
504.15882911398654
 21
535.76475899176194
  0
LINE
  8
_0-5_寸法線
  6
CONTINUOUS
 62
    7
 10
504.15882911398654
 20
540.76475899176194
 11
494.49957085109583
 21
538.17656854073675
  0
LINE
  8
_0-5_寸法線
  6
CONTINUOUS
 62
    7
 10
504.15882911398654
 20
540.76475899176194
 11
494.49957085109588
 21
543.35294944278712
  0
LINE
  8
_0-5_寸法線
  6
CONTINUOUS
 62
    7
 10
432.15882911398649
 20
540.76475899176194
 11
504.15882911398654
 21
540.76475899176194
  0
TEXT
  8
_0-5_寸法線
 62
    7
 10
460.65882911398654
 20
540.76475899176194
 40
15
 41
1
 50
0
  1
72
  0
LINE
  8
_0-5_寸法線
  6
CONTINUOUS
 62
    7
 10
504.15882911398654
 20
540.76475899176194
 11
513.8180873768772
 21
543.35294944278712
  0
LINE
  8
_0-5_寸法線
  6
CONTINUOUS
 62
    7
 10
504.15882911398654
 20
540.76475899176194
 11
513.8180873768772
 21
538.17656854073664
  0
LINE
  8
_0-5_寸法線
  6
CONTINUOUS
 62
    7
 10
576.15882911398649
 20
580.76475899176194
 11
576.15882911398649
 21
535.76475899176194
  0
LINE
  8
_0-5_寸法線
  6
CONTINUOUS
 62
    7
 10
576.15882911398649
 20
540.76475899176194
 11
566.49957085109577
 21
538.17656854073675
  0
LINE
  8
_0-5_寸法線
  6
CONTINUOUS
 62
    7
 10
576.15882911398649
 20
540.76475899176194
 11
566.49957085109577
 21
543.35294944278712
  0
LINE
  8
_0-5_寸法線
  6
CONTINUOUS
 62
    7
 10
504.15882911398654
 20
540.76475899176194
 11
576.15882911398649
 21
540.76475899176194
  0
TEXT
  8
_0-5_寸法線
 62
    7
 10
532.65882911398637
 20
540.76475899176194
 40
15
 41
1
 50
0
  1
72
  0
ARC
  8
_0-1_計細線
  6
CONTINUOUS
 62
    3
 10
542.77567514956331
 20
677.39397197053552
 40
0.501740082747087
 50
330.00000000003996
 51
20.189990999990084
  0
ARC
  8
_0-1_計細線
  6
CONTINUOUS
 62
    3
 10
542.77567514956331
 20
648.99436219452639
 40
0.501740082747087
 50
339.81000900000919
 51
29.999999999959307
  0
LINE
  8
_0-1_計細線
  6
CONTINUOUS
 62
    3
 10
505.46448162336196
 20
665.45200648625018
 11
504.16091352794666
 21
667.7098458899693
  0
LINE
  8
_0-1_計細線
  6
CONTINUOUS
 62
    3
 10
505.46448162336196
 20
665.45200648625018
 11
508.07161179328864
 21
665.45200648625018
  0
LINE
  8
_0-1_計細線
  6
CONTINUOUS
 62
    3
 10
505.46448162336196
 20
665.45200648625018
 11
545.74425831395251
 21
665.45200648625018
  0
LINE
  8
_0-1_計細線
  6
CONTINUOUS
 62
    3
 10
505.46448162336196
 20
660.93632767881093
 11
545.74425831395251
 21
660.93632767881093
  0
ARC
  8
_0-1_計細線
  6
CONTINUOUS
 62
    3
 10
504.16091352794666
 20
663.19416708253004
 40
46.4111412917104
 50
269.99999999999977
 51
89.999999999999545
  0
ARC
  8
_0-1_計細線
  6
CONTINUOUS
 62
    3
 10
504.16091352794666
 20
663.19416708253004
 40
57.198598227560836
 50
269.99999999999977
 51
89.999999999999545
  0
ARC
  8
_0-1_計細線
  6
CONTINUOUS
 62
    3
 10
504.16091352794666
 20
663.19416708253004
 40
41.644595453350377
 50
269.99999999999977
 51
356.8920785890931
  0
ARC
  8
_0-1_計細線
  6
CONTINUOUS
 62
    3
 10
504.16091352794666
 20
663.19416708253004
 40
41.644595453350377
 50
3.1079214109077964
 51
89.999999999999915
  0
ARC
  8
_0-0_計極細
  6
CONTINUOUS
 62
    2
 10
504.16091352794666
 20
663.19416708253004
 40
50.153133796808191
 50
269.99999999999977
 51
89.999999999999545
  0
ARC
  8
_0-0_計極細
  6
CONTINUOUS
 62
    2
 10
504.45059733389536
 20
657.17326200594403
 40
1.0034861863992508
 50
29.999999999951111
 51
106.77865499997519
  0
ARC
  8
_0-0_計極細
  6
CONTINUOUS
 62
    2
 10
504.16091352794666
 20
663.19416708253004
 40
37.630656728658437
 50
317.45760300000074
 51
327.38710799999916
  0
ARC
  8
_0-0_計極細
  6
CONTINUOUS
 62
    2
 10
504.16091352794666
 20
663.19416708253004
 40
37.630656728658437
 50
32.612892000001082
 51
42.54239699999939
  0
LINE
  8
_0-0_計極細
  6
CONTINUOUS
 62
    2
 10
539.33513129893413
 20
643.91522902730469
 11
530.37704207793354
 21
659.43110140966621
  0
LINE
  8
_0-0_計極細
  6
CONTINUOUS
 62
    2
 10
537.92830468145507
 20
639.32753417424385
 11
525.59730443654985
 21
660.68545462698444
  0
LINE
  8
_0-0_計極細
  6
CONTINUOUS
 62
    2
 10
533.30636894122358
 20
635.29114951542635
 11
519.36916582813478
 21
659.43110140966621
  0
LINE
  8
_0-0_計極細
  6
CONTINUOUS
 62
    2
 10
539.33513129893413
 20
682.47310513775676
 11
530.37704207793354
 21
666.95723275539626
  0
LINE
  8
_0-0_計極細
  6
CONTINUOUS
 62
    2
 10
537.92830468145507
 20
687.06079999081726
 11
525.59730443654985
 21
665.70287953807622
  0
LINE
  8
_0-0_計極細
  6
CONTINUOUS
 62
    2
 10
533.30636894122358
 20
691.09717862873072
 11
519.36916582813478
 21
666.95723275539626
  0
LINE
  8
_0-0_計極細
  6
CONTINUOUS
 62
    2
 10
531.14325041616917
 20
632.01339889626047
 11
514.58942818675109
 21
660.68545462698444
  0
LINE
  8
_0-0_計極細
  6
CONTINUOUS
 62
    2
 10
525.95539776598048
 20
628.95721156300453
 11
508.36128957833517
 21
659.43110140966621
  0
LINE
  8
_0-0_計極細
  6
CONTINUOUS
 62
    2
 10
522.91374489758141
 20
627.20111826293771
 11
505.319642730841
 21
657.67500208869262
  0
ARC
  8
_0-0_計極細
  6
CONTINUOUS
 62
    2
 10
504.16091352794666
 20
663.19416708253004
 40
37.630656728658437
 50
272.61289199999942
 51
282.54239699999982
  0
ARC
  8
_0-0_計極細
  6
CONTINUOUS
 62
    2
 10
508.38085149892845
 20
622.26830513088646
 40
0.501740082747087
 50
210.00000000000426
 51
275.88706199997517
  0
ARC
  8
_0-0_計極細
  6
CONTINUOUS
 62
    2
 10
504.16091352794666
 20
663.19416708253004
 40
37.630656728658437
 50
288.07291800000053
 51
297.3252259999997
  0
ARC
  8
_0-0_計極細
  6
CONTINUOUS
 62
    2
 10
504.16091352794666
 20
663.19416708253004
 40
27.094072844634091
 50
283.31934900000118
 51
296.2837799999993
  0
ARC
  8
_0-0_計極細
  6
CONTINUOUS
 62
    2
 10
518.10760558743618
 20
624.4872675505286
 40
0.501740082747087
 50
210.00000000010814
 51
289.81487200010849
  0
ARC
  8
_0-0_計極細
  6
CONTINUOUS
 62
    2
 10
512.88386232208609
 20
623.50021241408206
 40
1.0034861863992508
 50
282.39403400005705
 51
30.000000000002665
  0
ARC
  8
_0-0_計極細
  6
CONTINUOUS
 62
    2
 10
504.16091352794666
 20
663.19416708253004
 40
37.630656728658437
 50
302.67477399999865
 51
311.92708199999919
  0
ARC
  8
_0-0_計極細
  6
CONTINUOUS
 62
    2
 10
526.8244371420185
 20
629.45895766665728
 40
1.0034861863992508
 50
210.00000000002515
 51
303.89345000001418
  0
ARC
  8
_0-0_計極細
  6
CONTINUOUS
 62
    2
 10
530.70872771769677
 20
631.76252584443466
 40
0.501740082747087
 50
310.18512800003361
 51
29.999999999907399
  0
ARC
  8
_0-0_計極細
  6
CONTINUOUS
 62
    2
 10
522.04470552154248
 20
626.69937215928496
 40
1.0034861863992508
 50
296.10655000002453
 51
29.999999999999204
  0
ARC
  8
_0-0_計極細
  6
CONTINUOUS
 62
    2
 10
504.16091352794666
 20
663.19416708253004
 40
37.630656728658437
 50
77.457603000000148
 51
87.387108000000282
  0
ARC
  8
_0-0_計極細
  6
CONTINUOUS
 62
    2
 10
504.16091352794666
 20
663.19416708253004
 40
37.630656728658437
 50
77.457603000000148
 51
87.387108000000282
  0
ARC
  8
_0-0_計極細
  6
CONTINUOUS
 62
    2
 10
509.23033497527996
 20
659.93284149241265
 40
1.0034861863992508
 50
89.999999999999915
 51
209.9999999999992
  0
ARC
  8
_0-0_計極細
  6
CONTINUOUS
 62
    2
 10
509.23033497527996
 20
666.45549267265073
 40
1.0034861863992508
 50
150.00000000000043
 51
269.99999999999977
  0
ARC
  8
_0-0_計極細
  6
CONTINUOUS
 62
    2
 10
508.38085149892845
 20
704.12002903417272
 40
0.501740082747087
 50
84.112938000024442
 51
150.00000000004033
  0
LINE
  8
_0-0_計極細
  6
CONTINUOUS
 62
    2
 10
522.91374489758141
 20
699.18721590212431
 11
505.319642730841
 21
668.7133320763694
  0
LINE
  8
_0-0_計極細
  6
CONTINUOUS
 62
    2
 10
505.66613979709359
 20
669.31348987349895
 11
505.66613979709359
 21
681.3553000266686
  0
LINE
  8
_0-0_計極細
  6
CONTINUOUS
 62
    2
 10
506.16788590074498
 20
670.18253527044158
 11
506.16788590074498
 21
682.22434542361373
  0
LINE
  8
_0-0_計極細
  6
CONTINUOUS
 62
    2
 10
505.66613979709359
 20
645.03303413839251
 11
505.66613979709359
 21
657.07484429156443
  0
LINE
  8
_0-0_計極細
  6
CONTINUOUS
 62
    2
 10
506.16788590074498
 20
644.16398874144966
 11
506.16788590074498
 21
656.20579889461953
  0
ARC
  8
_0-0_計極細
  6
CONTINUOUS
 62
    2
 10
504.45059733389536
 20
669.21507215911663
 40
1.0034861863992508
 50
253.22134500003193
 51
330.00000000002603
  0
ARC
  8
_0-0_計極細
  6
CONTINUOUS
 62
    2
 10
504.16091352794666
 20
663.19416708253004
 40
27.094072844634091
 50
84.624317999999832
 51
89.999999999999915
  0
ARC
  8
_0-0_計極細
  6
CONTINUOUS
 62
    2
 10
504.16091352794666
 20
663.19416708253004
 40
27.094072844634091
 50
20.290983000001571
 51
35.37568200000068
  0
LINE
  8
_0-0_計極細
  6
CONTINUOUS
 62
    2
 10
531.14325041616917
 20
694.37493526880291
 11
514.58942818675109
 21
665.70287953807622
  0
LINE
  8
_0-0_計極細
  6
CONTINUOUS
 62
    2
 10
525.95539776598048
 20
697.43112260205692
 11
508.36128957833517
 21
666.95723275539626
  0
ARC
  8
_0-0_計極細
  6
CONTINUOUS
 62
    2
 10
504.16091352794666
 20
663.19416708253004
 40
27.094072844634091
 50
303.71622000000156
 51
316.68065099999922
  0
ARC
  8
_0-0_計極細
  6
CONTINUOUS
 62
    2
 10
520.23820520417189
 20
659.93284149241265
 40
1.0034861863992508
 50
89.999999999999915
 51
210.00000000002515
  0
ARC
  8
_0-0_計極細
  6
CONTINUOUS
 62
    2
 10
514.15490548827961
 20
660.43458759606449
 40
0.501740082747087
 50
30.0000000001085
 51
89.999999999999915
  0
ARC
  8
_0-0_計極細
  6
CONTINUOUS
 62
    2
 10
520.23820520417189
 20
666.45549267265073
 40
1.0034861863992508
 50
149.99999999997448
 51
269.99999999999977
  0
ARC
  8
_0-0_計極細
  6
CONTINUOUS
 62
    2
 10
514.15490548827961
 20
665.95374656899753
 40
0.501740082747087
 50
269.99999999999977
 51
329.99999999989114
  0
ARC
  8
_0-0_計極細
  6
CONTINUOUS
 62
    2
 10
504.16091352794666
 20
663.19416708253004
 40
27.094072844634091
 50
324.62431799999973
 51
339.7090169999999
  0
ARC
  8
_0-0_計極細
  6
CONTINUOUS
 62
    2
 10
504.16091352794666
 20
663.19416708253004
 40
27.094072844634091
 50
350.22103899999934
 51
355.21980800000068
  0
ARC
  8
_0-0_計極細
  6
CONTINUOUS
 62
    2
 10
504.16091352794666
 20
663.19416708253004
 40
27.094072844634091
 50
4.7801919999998796
 51
9.778961000001221
  0
ARC
  8
_0-0_計極細
  6
CONTINUOUS
 62
    2
 10
531.24608145397156
 20
659.93284149241265
 40
1.0034861863992508
 50
89.999999999999915
 51
210.00000000002515
  0
ARC
  8
_0-0_計極細
  6
CONTINUOUS
 62
    2
 10
525.16278173807837
 20
660.43458759606449
 40
0.501740082747087
 50
30.000000000056566
 51
89.999999999999915
  0
ARC
  8
_0-0_計極細
  6
CONTINUOUS
 62
    2
 10
531.24608145397156
 20
666.45549267265073
 40
1.0034861863992508
 50
149.99999999997448
 51
269.99999999999977
  0
ARC
  8
_0-0_計極細
  6
CONTINUOUS
 62
    2
 10
525.16278173807837
 20
665.95374656899753
 40
0.501740082747087
 50
269.99999999999977
 51
329.9999999999431
  0
ARC
  8
_0-0_計極細
  6
CONTINUOUS
 62
    2
 10
504.16091352794666
 20
663.19416708253004
 40
27.094072844634091
 50
43.319349000001104
 51
56.28377999999919
  0
ARC
  8
_0-0_計極細
  6
CONTINUOUS
 62
    2
 10
504.16091352794666
 20
663.19416708253004
 40
37.630656728658437
 50
62.674774000000312
 51
71.927081999999317
  0
ARC
  8
_0-0_計極細
  6
CONTINUOUS
 62
    2
 10
504.16091352794666
 20
663.19416708253004
 40
27.094072844634091
 50
63.716220000000746
 51
76.680650999998889
  0
ARC
  8
_0-0_計極細
  6
CONTINUOUS
 62
    2
 10
518.10760558743618
 20
701.90106661453285
 40
0.501740082747087
 50
70.185127999891137
 51
149.99999999993648
  0
ARC
  8
_0-0_計極細
  6
CONTINUOUS
 62
    2
 10
512.88386232208609
 20
702.88812175097985
 40
1.0034861863992508
 50
329.99999999999665
 51
77.605965999942228
  0
ARC
  8
_0-0_計極細
  6
CONTINUOUS
 62
    2
 10
504.16091352794666
 20
663.19416708253004
 40
37.630656728658437
 50
48.072918000001373
 51
57.325226000001372
  0
ARC
  8
_0-0_計極細
  6
CONTINUOUS
 62
    2
 10
526.8244371420185
 20
696.92937649840519
 40
1.0034861863992508
 50
56.106549999971008
 51
149.99999999999699
  0
ARC
  8
_0-0_計極細
  6
CONTINUOUS
 62
    2
 10
530.70872771769677
 20
694.6258022997232
 40
0.501740082747087
 50
330.00000000009186
 51
49.814871999965682
  0
ARC
  8
_0-0_計極細
  6
CONTINUOUS
 62
    2
 10
522.04470552154248
 20
699.68896200577558
 40
1.0034861863992508
 50
330.00000000000011
 51
63.893449999974756
  0
ARC
  8
_0-0_計極細
  6
CONTINUOUS
 62
    2
 10
534.17541433816655
 20
635.7928956190791
 40
1.0034861863992508
 50
210.00000000002515
 51
317.6059660000256
  0
ARC
  8
_0-0_計極細
  6
CONTINUOUS
 62
    2
 10
537.49378800388672
 20
639.07666112241816
 40
0.501740082747087
 50
324.11293799996702
 51
29.999999999959307
  0
ARC
  8
_0-0_計極細
  6
CONTINUOUS
 62
    2
 10
504.16091352794666
 20
663.19416708253004
 40
37.630656728658437
 50
14.493223999999607
 51
26.404005000000534
  0
LINE
  8
_0-0_計極細
  6
CONTINUOUS
 62
    2
 10
543.2101978480348
 20
677.14310493961523
 11
536.60518068634951
 21
665.70287953807622
  0
ARC
  8
_0-0_計極細
  6
CONTINUOUS
 62
    2
 10
544.244450859376
 20
656.48521103650842
 40
1.0034861863992508
 50
209.99999999997672
 51
350.4982300000064
  0
ARC
  8
_0-0_計極細
  6
CONTINUOUS
 62
    2
 10
544.244450859376
 20
669.90312312855372
 40
1.0034861863992508
 50
9.5017699999932326
 51
150.00000000000043
  0
ARC
  8
_0-0_計極細
  6
CONTINUOUS
 62
    2
 10
504.16091352794666
 20
663.19416708253004
 40
37.630656728658437
 50
3.6803540000001762
 51
6.228477000000372
  0
ARC
  8
_0-0_計極細
  6
CONTINUOUS
 62
    2
 10
504.16091352794666
 20
663.19416708253004
 40
37.630656728658437
 50
353.77152300000063
 51
356.31964600000015
  0
ARC
  8
_0-0_計極細
  6
CONTINUOUS
 62
    2
 10
504.16091352794666
 20
663.19416708253004
 40
37.630656728658437
 50
333.59599499999973
 51
345.50677600000074
  0
ARC
  8
_0-0_計極細
  6
CONTINUOUS
 62
    2
 10
540.20417669587891
 20
644.4169691100517
 40
1.0034861863992508
 50
209.99999999997672
 51
332.48216400001218
  0
ARC
  8
_0-0_計極細
  6
CONTINUOUS
 62
    2
 10
542.25395770377031
 20
659.93284149241265
 40
1.0034861863992508
 50
89.999999999999915
 51
210.00000000002515
  0
ARC
  8
_0-0_計極細
  6
CONTINUOUS
 62
    2
 10
536.17065798787712
 20
660.43458759606449
 40
0.501740082747087
 50
30.000000000004636
 51
89.999999999999915
  0
LINE
  8
_0-0_計極細
  6
CONTINUOUS
 62
    2
 10
543.37540546243122
 20
655.98347095376187
 11
541.38491832773229
 21
659.43110140966621
  0
LINE
  8
_0-0_計極細
  6
CONTINUOUS
 62
    2
 10
543.2101978480348
 20
649.2452292254477
 11
536.60518068634951
 21
660.68545462698444
  0
ARC
  8
_0-0_計極細
  6
CONTINUOUS
 62
    2
 10
542.25395770377031
 20
666.45549267265073
 40
1.0034861863992508
 50
149.99999999997448
 51
269.99999999999977
  0
ARC
  8
_0-0_計極細
  6
CONTINUOUS
 62
    2
 10
536.17065798787712
 20
665.95374656899753
 40
0.501740082747087
 50
269.99999999999977
 51
329.999999999995
  0
LINE
  8
_0-0_計極細
  6
CONTINUOUS
 62
    2
 10
543.37540546243122
 20
670.40486321130004
 11
541.38491832773229
 21
666.95723275539626
  0
ARC
  8
_0-0_計極細
  6
CONTINUOUS
 62
    2
 10
534.17541433816655
 20
690.59543854598292
 40
1.0034861863992508
 50
42.394033999974049
 51
149.99999999997448
  0
ARC
  8
_0-0_計極細
  6
CONTINUOUS
 62
    2
 10
537.49378800388672
 20
687.31167304264329
 40
0.501740082747087
 50
330.00000000003996
 51
35.887062000032259
  0
ARC
  8
_0-0_計極細
  6
CONTINUOUS
 62
    2
 10
540.20417669587891
 20
681.97136505501032
 40
1.0034861863992508
 50
27.517836000010465
 51
150.00000000000043
  0
LINE
  8
_0-0_計極細
  6
CONTINUOUS
 62
    2
 10
505.66613979709359
 20
636.14193839081258
 11
505.66613979709359
 21
638.00865004090588
  0
LINE
  8
_0-0_計極細
  6
CONTINUOUS
 62
    2
 10
506.16788590074498
 20
636.17452894274095
 11
506.16788590074498
 21
637.13960000934753
  0
LINE
  8
_0-0_計極細
  6
CONTINUOUS
 62
    2
 10
505.66613979709359
 20
688.37968159675358
 11
505.66613979709359
 21
690.24639577424807
  0
LINE
  8
_0-0_計極細
  6
CONTINUOUS
 62
    2
 10
506.16788590074498
 20
689.24873141155615
 11
506.16788590074498
 21
690.21380522231971
  0
ARC
  8
_0-1_計細線
  6
CONTINUOUS
 62
    3
 10
504.16091352794666
 20
663.19416708253004
 40
58.202084413960065
 50
269.9979480438883
 51
89.999999999999545
  0
LINE
  8
_0-0_計極細
  6
CONTINUOUS
 62
    2
 10
507.94632880045697
 20
704.37090208599989
 11
504.15882911398654
 21
697.81075972838028
  0
LINE
  8
_0-0_計極細
  6
CONTINUOUS
 62
    2
 10
513.75290771902996
 20
702.3863756473263
 11
504.15882911398654
 21
685.76894269819149
  0
LINE
  8
_0-0_計極細
  6
CONTINUOUS
 62
    2
 10
517.67308890987056
 20
702.15193364545496
 11
504.15882911398654
 21
678.74455348533138
  0
LINE
  8
_0-0_計極細
  6
CONTINUOUS
 62
    2
 10
513.75290771902996
 20
624.00195249682849
 11
504.15882911398654
 21
640.61938959062957
  0
LINE
  8
_0-0_計極細
  6
CONTINUOUS
 62
    2
 10
507.94632880045697
 20
622.01743207906077
 11
504.15882911398654
 21
628.57757443668015
  0
LINE
  8
_0-0_計極細
  6
CONTINUOUS
 62
    2
 10
517.67308890987056
 20
624.23639449870257
 11
504.15882911398654
 21
647.6437795741906
  0
ARC
  8
_0-0_計極細
  6
CONTINUOUS
 62
    2
 10
504.16091352794666
 20
663.19416708253004
 40
27.094072844634091
 50
269.99559209412416
 51
275.37568199999987
  0
LINE
  8
_0-1_計細線
  6
CONTINUOUS
 62
    3
 10
505.46448162336196
 20
665.45200648625018
 11
504.15882911398654
 21
667.7134627513185
  0
ARC
  8
_0-0_計極細
  6
CONTINUOUS
 62
    2
 10
504.45059733389536
 20
669.21507215911663
 40
1.0034861863992508
 50
253.09686206869779
 51
330.00000000002603
  0
LINE
  8
_0-1_計細線
  6
CONTINUOUS
 62
    3
 10
505.46448162336196
 20
660.93632767881093
 11
504.15882911398654
 21
658.67487141374249
  0
ARC
  8
_0-0_計極細
  6
CONTINUOUS
 62
    2
 10
504.45059733389536
 20
657.17326200594403
 40
1.0034861863992508
 50
29.999999999951111
 51
106.90313793131428
  0
LINE
  8
_0-5_寸法線
  6
CONTINUOUS
 62
    7
 10
422.15882911398649
 20
734.76475899176194
 11
377.15882911398649
 21
734.76475899176194
  0
LINE
  8
_0-5_寸法線
  6
CONTINUOUS
 62
    7
 10
382.15882911398649
 20
734.76475899176194
 11
379.5706386629613
 21
744.42401725465277
  0
LINE
  8
_0-5_寸法線
  6
CONTINUOUS
 62
    7
 10
382.15882911398649
 20
734.76475899176194
 11
384.74701956501178
 21
744.42401725465277
  0
LINE
  8
_0-5_寸法線
  6
CONTINUOUS
 62
    7
 10
422.15882911398649
 20
732.26475899176194
 11
377.15882911398649
 21
732.26475899176194
  0
LINE
  8
_0-5_寸法線
  6
CONTINUOUS
 62
    7
 10
382.15882911398649
 20
772.41317058132972
 11
382.15882911398649
 21
732.26475899176194
  0
TEXT
  8
_0-5_寸法線
 62
    7
 10
382.1588291139866
 20
746.4877727971932
 40
15
 41
1
 50
89.999999999999815
  1
2.5
  0
LINE
  8
_0-5_寸法線
  6
CONTINUOUS
 62
    7
 10
382.15882911398649
 20
732.26475899176194
 11
384.74701956501173
 21
722.60550072887122
  0
LINE
  8
_0-5_寸法線
  6
CONTINUOUS
 62
    7
 10
382.15882911398649
 20
732.26475899176194
 11
379.57063866296124
 21
722.60550072887122
  0
LINE
  8
_0-5_寸法線
  6
CONTINUOUS
 62
    7
 10
422.15882911398649
 20
593.26475899176194
 11
377.15882911398649
 21
593.26475899176194
  0
LINE
  8
_0-5_寸法線
  6
CONTINUOUS
 62
    7
 10
382.15882911398649
 20
593.26475899176194
 11
379.57063866296124
 21
602.92401725465265
  0
LINE
  8
_0-5_寸法線
  6
CONTINUOUS
 62
    7
 10
382.15882911398649
 20
593.26475899176194
 11
384.74701956501173
 21
602.92401725465265
  0
LINE
  8
_0-5_寸法線
  6
CONTINUOUS
 62
    7
 10
382.15882911398649
 20
732.26475899176194
 11
382.15882911398649
 21
593.26475899176194
  0
TEXT
  8
_0-5_寸法線
 62
    7
 10
382.15882911398649
 20
651.51475899176194
 40
15
 41
1
 50
90
  1
139
  0
LINE
  8
_0-5_寸法線
  6
CONTINUOUS
 62
    7
 10
422.15882911398649
 20
590.76475899176194
 11
377.15882911398649
 21
590.76475899176194
  0
LINE
  8
_0-5_寸法線
  6
CONTINUOUS
 62
    7
 10
382.15882911398649
 20
590.76475899176194
 11
384.74701956501173
 21
581.10550072887122
  0
LINE
  8
_0-5_寸法線
  6
CONTINUOUS
 62
    7
 10
382.15882911398649
 20
590.76475899176194
 11
379.57063866296124
 21
581.10550072887122
  0
LINE
  8
_0-5_寸法線
  6
CONTINUOUS
 62
    7
 10
382.15882911398649
 20
593.26475899176194
 11
382.15882911398649
 21
553.11634740219415
  0
TEXT
  8
_0-5_寸法線
 62
    7
 10
382.15882911398643
 20
557.39136894222338
 40
15
 41
1
 50
89.999999999999815
  1
2.5
  0
LINE
  8
_0-5_寸法線
  6
CONTINUOUS
 62
    7
 10
422.15882911398649
 20
734.76475899176194
 11
342.15882911398649
 21
734.76475899176194
  0
LINE
  8
_0-5_寸法線
  6
CONTINUOUS
 62
    7
 10
347.15882911398649
 20
734.76475899176194
 11
349.74701956501173
 21
725.10550072887122
  0
LINE
  8
_0-5_寸法線
  6
CONTINUOUS
 62
    7
 10
347.15882911398649
 20
734.76475899176194
 11
344.5706386629613
 21
725.10550072887122
  0
LINE
  8
_0-5_寸法線
  6
CONTINUOUS
 62
    7
 10
422.15882911398649
 20
590.76475899176194
 11
342.15882911398649
 21
590.76475899176194
  0
LINE
  8
_0-5_寸法線
  6
CONTINUOUS
 62
    7
 10
347.15882911398649
 20
590.76475899176194
 11
344.5706386629613
 21
600.42401725465265
  0
LINE
  8
_0-5_寸法線
  6
CONTINUOUS
 62
    7
 10
347.15882911398649
 20
590.76475899176194
 11
349.74701956501173
 21
600.42401725465265
  0
LINE
  8
_0-5_寸法線
  6
CONTINUOUS
 62
    7
 10
347.15882911398649
 20
734.76475899176194
 11
347.15882911398649
 21
590.76475899176194
  0
TEXT
  8
_0-5_寸法線
 62
    7
 10
347.15882911398649
 20
651.51475899176194
 40
15
 41
1
 50
90
  1
144
  0
LINE
  8
_0-5_寸法線
  6
CONTINUOUS
 62
    7
 10
454.00272936363308
 20
645.62948138873094
 11
451.4272658695121
 21
635.96682193129118
  0
LINE
  8
_0-5_寸法線
  6
CONTINUOUS
 62
    7
 10
454.00272936363308
 20
645.62948138873094
 11
446.94098282248501
 21
638.54910457753056
  0
LINE
  8
_0-5_寸法線
  6
CONTINUOUS
 62
    7
 10
454.00272936363308
 20
645.62948138873094
 11
388.88961205018683
 21
532.50635957717896
  0
LINE
  8
_0-5_寸法線
  6
CONTINUOUS
 62
    7
 10
388.88961205018683
 20
532.50635957717896
 11
352.88961205018677
 21
532.50635957717896
  0
TEXT
  8
_0-5_寸法線
 62
    7
 10
352.88961205018677
 20
532.50635957717896
 40
15
 41
0.8000000000000001
 50
0
  1
上フタ
  0
LINE
  8
_0-5_寸法線
  6
CONTINUOUS
 62
    7
 10
574.83774777018107
 20
599.91306095172877
 11
581.51184844436762
 21
592.46615688421025
  0
LINE
  8
_0-5_寸法線
  6
CONTINUOUS
 62
    7
 10
574.83774777018107
 20
599.91306095172877
 11
576.89423646768216
 21
590.12680251261884
  0
LINE
  8
_0-5_寸法線
  6
CONTINUOUS
 62
    7
 10
574.83774777018107
 20
599.91306095172877
 11
608.98703582887674
 21
532.50635957717896
  0
LINE
  8
_0-5_寸法線
  6
CONTINUOUS
 62
    7
 10
608.98703582887674
 20
532.50635957717896
 11
680.98703582887697
 21
532.50635957717896
  0
TEXT
  8
_0-5_寸法線
 62
    7
 10
608.98703582887674
 20
532.50635957717896
 40
15
 41
0.8000000000000001
 50
0
  1
排水ユニット
  0
LINE
  8
_0-5_寸法線
  6
CONTINUOUS
 62
    7
 10
440.65882911398614
 20
744.76475899176194
 11
440.65882911398626
 21
789.76475899176194
  0
LINE
  8
_0-5_寸法線
  6
CONTINUOUS
 62
    7
 10
440.65882911398626
 20
784.76475899176194
 11
450.31808737687692
 21
787.35294944278724
  0
LINE
  8
_0-5_寸法線
  6
CONTINUOUS
 62
    7
 10
440.65882911398626
 20
784.76475899176194
 11
450.31808737687692
 21
782.17656854073675
  0
LINE
  8
_0-5_寸法線
  6
CONTINUOUS
 62
    7
 10
567.65882911398705
 20
744.76475899176194
 11
567.65882911398717
 21
789.76475899176194
  0
LINE
  8
_0-5_寸法線
  6
CONTINUOUS
 62
    7
 10
567.65882911398717
 20
784.76475899176194
 11
557.99957085109645
 21
782.17656854073675
  0
LINE
  8
_0-5_寸法線
  6
CONTINUOUS
 62
    7
 10
567.65882911398717
 20
784.76475899176194
 11
557.99957085109645
 21
787.35294944278724
  0
LINE
  8
_0-5_寸法線
  6
CONTINUOUS
 62
    7
 10
440.65882911398626
 20
784.76475899176194
 11
567.65882911398717
 21
784.76475899176194
  0
TEXT
  8
_0-5_寸法線
 62
    7
 10
492.90882911398677
 20
784.76475899176194
 40
15
 41
1
 50
0
  1
127
  0
LINE
  8
_0-5_寸法線
  6
CONTINUOUS
 62
    7
 10
432.15882911398649
 20
744.76475899176194
 11
432.15882911398666
 21
824.76475899176194
  0
LINE
  8
_0-5_寸法線
  6
CONTINUOUS
 62
    7
 10
432.15882911398666
 20
819.76475899176194
 11
422.49957085109594
 21
817.17656854073675
  0
LINE
  8
_0-5_寸法線
  6
CONTINUOUS
 62
    7
 10
432.15882911398666
 20
819.76475899176194
 11
422.499570851096
 21
822.35294944278724
  0
LINE
  8
_0-5_寸法線
  6
CONTINUOUS
 62
    7
 10
434.65882911398649
 20
744.76475899176182
 11
434.65882911398666
 21
824.76475899176194
  0
LINE
  8
_0-5_寸法線
  6
CONTINUOUS
 62
    7
 10
398.53268033468225
 20
819.76475899176194
 11
434.65882911398666
 21
819.76475899176194
  0
TEXT
  8
_0-5_寸法線
 62
    7
 10
398.53268033468225
 20
819.76475899176194
 40
15
 41
1
 50
0
  1
2.5
  0
LINE
  8
_0-5_寸法線
  6
CONTINUOUS
 62
    7
 10
434.65882911398666
 20
819.76475899176194
 11
444.31808737687732
 21
822.35294944278724
  0
LINE
  8
_0-5_寸法線
  6
CONTINUOUS
 62
    7
 10
434.65882911398666
 20
819.76475899176194
 11
444.31808737687732
 21
817.17656854073664
  0
LINE
  8
_0-5_寸法線
  6
CONTINUOUS
 62
    7
 10
573.65882911398671
 20
744.76475899176182
 11
573.65882911398683
 21
824.76475899176194
  0
LINE
  8
_0-5_寸法線
  6
CONTINUOUS
 62
    7
 10
573.65882911398683
 20
819.76475899176194
 11
563.99957085109611
 21
817.17656854073675
  0
LINE
  8
_0-5_寸法線
  6
CONTINUOUS
 62
    7
 10
573.65882911398683
 20
819.76475899176194
 11
563.99957085109611
 21
822.35294944278724
  0
LINE
  8
_0-5_寸法線
  6
CONTINUOUS
 62
    7
 10
434.65882911398666
 20
819.76475899176194
 11
573.65882911398683
 21
819.76475899176194
  0
TEXT
  8
_0-5_寸法線
 62
    7
 10
492.90882911398694
 20
819.76475899176194
 40
15
 41
1
 50
0
  1
139
  0
LINE
  8
_0-5_寸法線
  6
CONTINUOUS
 62
    7
 10
576.15882911398649
 20
744.76475899176182
 11
576.1588291139866
 21
824.76475899176194
  0
LINE
  8
_0-5_寸法線
  6
CONTINUOUS
 62
    7
 10
576.1588291139866
 20
819.76475899176194
 11
585.81808737687743
 21
822.35294944278724
  0
LINE
  8
_0-5_寸法線
  6
CONTINUOUS
 62
    7
 10
576.1588291139866
 20
819.76475899176194
 11
585.81808737687743
 21
817.17656854073664
  0
LINE
  8
_0-5_寸法線
  6
CONTINUOUS
 62
    7
 10
573.65882911398683
 20
819.76475899176194
 11
612.19195941162002
 21
819.76475899176194
  0
TEXT
  8
_0-5_寸法線
 62
    7
 10
589.69195941162002
 20
819.76475899176194
 40
15
 41
1
 50
0
  1
2.5
  0
LINE
  8
_0-5_寸法線
  6
CONTINUOUS
 62
    7
 10
432.15882911398649
 20
744.76475899176194
 11
432.15882911398649
 21
859.76475899176194
  0
LINE
  8
_0-5_寸法線
  6
CONTINUOUS
 62
    7
 10
432.15882911398649
 20
854.76475899176194
 11
441.8180873768772
 21
857.35294944278724
  0
LINE
  8
_0-5_寸法線
  6
CONTINUOUS
 62
    7
 10
432.15882911398649
 20
854.76475899176194
 11
441.8180873768772
 21
852.17656854073675
  0
LINE
  8
_0-5_寸法線
  6
CONTINUOUS
 62
    7
 10
576.15882911398649
 20
744.76475899176194
 11
576.1588291139866
 21
859.76475899176194
  0
LINE
  8
_0-5_寸法線
  6
CONTINUOUS
 62
    7
 10
576.1588291139866
 20
854.76475899176194
 11
566.49957085109588
 21
852.17656854073675
  0
LINE
  8
_0-5_寸法線
  6
CONTINUOUS
 62
    7
 10
576.1588291139866
 20
854.76475899176194
 11
566.49957085109588
 21
857.35294944278724
  0
LINE
  8
_0-5_寸法線
  6
CONTINUOUS
 62
    7
 10
432.15882911398649
 20
854.76475899176194
 11
576.1588291139866
 21
854.76475899176194
  0
TEXT
  8
_0-5_寸法線
 62
    7
 10
492.90882911398654
 20
854.76475899176194
 40
15
 41
1
 50
0
  1
144
  0
CIRCLE
  8
_0-1_計細線
  6
DASHED2
 62
    3
 10
560.15882911398739
 20
718.76475899176194
 40
12.5
  0
CIRCLE
  8
_0-1_計細線
  6
DASHED2
 62
    3
 10
560.15882911398717
 20
606.76475899176194
 40
12.5
  0
ARC
  8
_0-1_計細線
  6
CONTINUOUS
 62
    3
 10
448.15882911398558
 20
718.76475899176194
 40
12.5
 50
36.869897645840268
 51
233.13010235415564
  0
ARC
  8
_0-1_計細線
  6
CONTINUOUS
 62
    3
 10
448.1588291139858
 20
606.76475899176194
 40
12.5
 50
126.86989764584402
 51
323.11949922673142
  0
ARC
  8
_0-1_計細線
  6
DASHED2
 62
    3
 10
448.15882911398558
 20
718.76475899176194
 40
12.5
 50
233.13010235415842
 51
36.86989764583992
  0
ARC
  8
_0-1_計細線
  6
DASHED2
 62
    3
 10
448.1588291139858
 20
606.76475899176194
 40
12.5
 50
323.11949922673136
 51
126.86989764584294
  0
LINE
  8
_0-5_寸法線
  6
CONTINUOUS
 62
    7
 10
436.96356459176144
 20
682.64002090523832
 11
430.18668397057843
 21
689.99351592775884
  0
LINE
  8
_0-5_寸法線
  6
CONTINUOUS
 62
    7
 10
436.96356459176144
 20
682.64002090523832
 11
434.77136132666283
 21
692.396774711935
  0
LINE
  8
_0-5_寸法線
  6
CONTINUOUS
 62
    7
 10
436.96356459176144
 20
682.64002090523832
 11
381.78657584789028
 21
787.90071631456067
  0
LINE
  8
_0-5_寸法線
  6
CONTINUOUS
 62
    7
 10
381.78657584789028
 20
787.90071631456067
 11
333.78657584789028
 21
787.9007163145609
  0
TEXT
  8
_0-5_寸法線
 62
    7
 10
333.78657584789033
 20
787.90071631456067
 40
15
 41
0.8000000000000001
 50
0
  1
取っ手部
  0
LINE
  8
_0-1_計細線
  6
CONTINUOUS
 62
    3
 10
432.15882911398649
 20
590.76475899176194
 11
432.15882911398649
 21
734.76475899176194
  0
LINE
  8
_0-1_計細線
  6
CONTINUOUS
 62
    3
 10
432.15882911398649
 20
734.76475899176194
 11
576.15882911398649
 21
734.76475899176194
  0
LINE
  8
_0-1_計細線
  6
CONTINUOUS
 62
    3
 10
576.15882911398649
 20
734.76475899176194
 11
576.15882911398649
 21
590.76475899176194
  0
LINE
  8
_0-1_計細線
  6
CONTINUOUS
 62
    3
 10
576.15882911398649
 20
590.76475899176194
 11
432.15882911398649
 21
590.76475899176194
  0
LINE
  8
_0-1_計細線
  6
CONTINUOUS
 62
    3
 10
434.65882911398649
 20
732.26475899176194
 11
434.65882911398649
 21
593.26475899176194
  0
LINE
  8
_0-1_計細線
  6
CONTINUOUS
 62
    3
 10
434.65882911398649
 20
593.26475899176194
 11
573.65882911398671
 21
593.26475899176194
  0
LINE
  8
_0-1_計細線
  6
CONTINUOUS
 62
    3
 10
573.65882911398671
 20
593.26475899176194
 11
573.65882911398671
 21
732.26475899176194
  0
LINE
  8
_0-1_計細線
  6
CONTINUOUS
 62
    3
 10
573.65882911398671
 20
732.26475899176194
 11
434.65882911398649
 21
732.26475899176194
  0
LINE
  8
_0-1_計細線
  6
CONTINUOUS
 62
    3
 10
442.65882911398603
 20
724.26475899176216
 11
442.65882911398603
 21
601.26475899176194
  0
LINE
  8
_0-1_計細線
  6
CONTINUOUS
 62
    3
 10
504.15882911398654
 20
724.26475899176182
 11
442.65882911398603
 21
724.26475899176216
  0
LINE
  8
_0-1_計細線
  6
CONTINUOUS
 62
    3
 10
442.65882911398603
 20
601.26475899176194
 11
504.15882911398654
 21
601.26475899176194
  0
ARC
  8
_0-1_計細線
  6
CONTINUOUS
 62
    3
 10
442.65882911398603
 20
724.26475899176125
 40
2
 50
89.999999999999915
 51
179.99999999999983
  0
LINE
  8
_0-1_計細線
  6
CONTINUOUS
 62
    3
 10
440.65882911398603
 20
601.26475899176194
 11
440.65882911398603
 21
724.26475899176125
  0
ARC
  8
_0-1_計細線
  6
CONTINUOUS
 62
    3
 10
442.65882911398603
 20
601.26475899176171
 40
2
 50
179.99999999999349
 51
269.99999999999977
  0
LINE
  8
_0-1_計細線
  6
CONTINUOUS
 62
    3
 10
442.65882911398603
 20
726.26475899176125
 11
504.15882911398654
 21
726.26475899176125
  0
LINE
  8
_0-1_計細線
  6
CONTINUOUS
 62
    3
 10
504.15882911398654
 20
599.26475899176194
 11
442.65882911398603
 21
599.26475899176171
  0
LINE
  8
_0-1_計細線
  6
DASHED2
 62
    3
 10
565.65882911398694
 20
601.26475899176194
 11
504.15882911398654
 21
601.26475899176194
  0
LINE
  8
_0-1_計細線
  6
DASHED2
 62
    3
 10
504.15882911398654
 20
724.26475899176182
 11
565.65882911398694
 21
724.26475899176216
  0
LINE
  8
_0-1_計細線
  6
DASHED2
 62
    3
 10
565.65882911398694
 20
724.26475899176216
 11
565.65882911398694
 21
601.26475899176194
  0
LINE
  8
_0-1_計細線
  6
DASHED2
 62
    3
 10
504.15882911398654
 20
599.26475899176194
 11
565.65882911398694
 21
599.26475899176171
  0
LINE
  8
_0-1_計細線
  6
DASHED2
 62
    3
 10
565.65882911398694
 20
726.26475899176125
 11
504.15882911398654
 21
726.26475899176125
  0
ARC
  8
_0-1_計細線
  6
DASHED2
 62
    3
 10
565.65882911398694
 20
601.26475899176171
 40
2
 50
269.99999999999977
 51
0.0000000000061575
  0
LINE
  8
_0-1_計細線
  6
DASHED2
 62
    3
 10
567.65882911398694
 20
601.26475899176194
 11
567.65882911398694
 21
724.26475899176125
  0
ARC
  8
_0-1_計細線
  6
DASHED2
 62
    3
 10
565.65882911398694
 20
724.26475899176125
 40
2
 50
0
 51
89.999999999999915
  0
LINE
  8
_0-1_計細線
  6
CONTINUOUS
 62
    3
 10
440.65882911398603
 20
682.76475899176194
 11
437.65882911398717
 21
682.76475899176216
  0
ARC
  8
_0-1_計細線
  6
CONTINUOUS
 62
    3
 10
437.65882911398717
 20
680.76475899176216
 40
2
 50
89.999999999999915
 51
180.00000000000617
  0
LINE
  8
_0-1_計細線
  6
CONTINUOUS
 62
    3
 10
435.65882911398717
 20
680.76475899176205
 11
435.65882911398717
 21
644.76475899176194
  0
LINE
  8
_0-1_計細線
  6
CONTINUOUS
 62
    3
 10
437.65882911398717
 20
642.76475899176216
 11
440.65882911398603
 21
642.76475899176194
  0
ARC
  8
_0-1_計細線
  6
CONTINUOUS
 62
    3
 10
437.65882911398717
 20
644.76475899176216
 40
2
 50
180.00000000000617
 51
269.99999999999977
  0
LINE
  8
_0-1_計細線
  6
CONTINUOUS
 62
    3
 10
437.65882911398717
 20
647.76475899176194
 11
440.65882911398603
 21
647.76475899176194
  0
LINE
  8
_0-1_計細線
  6
CONTINUOUS
 62
    3
 10
437.65882911398717
 20
677.76475899176194
 11
437.65882911398717
 21
647.76475899176194
  0
LINE
  8
_0-1_計細線
  6
CONTINUOUS
 62
    3
 10
440.65882911398603
 20
677.76475899176194
 11
437.65882911398717
 21
677.76475899176194
  0
LINE
  8
_0-1_計細線
  6
DASHED2
 62
    3
 10
440.65882911398603
 20
682.76475899176194
 11
448.15882911398717
 21
682.76475899176194
  0
LINE
  8
_0-1_計細線
  6
DASHED2
 62
    3
 10
448.15882911398717
 20
642.76475899176194
 11
440.65882911398603
 21
642.76475899176194
  0
LINE
  8
_0-1_計細線
  6
DASHED2
 62
    3
 10
448.15882911398717
 20
682.76475899176194
 11
448.15882911398717
 21
642.76475899176194
  0
LINE
  8
_0-0_計極細
  6
CENTER2
 62
    2
 10
680.60839710933817
 20
662.76475899176194
 11
734.41507434198843
 21
662.76475899176194
  0
LINE
  8
_0-5_寸法線
  6
CONTINUOUS
 62
    7
 10
688.1257786934641
 20
744.76475899176194
 11
688.1257786934641
 21
789.76475899176194
  0
LINE
  8
_0-5_寸法線
  6
CONTINUOUS
 62
    7
 10
688.1257786934641
 20
784.76475899176194
 11
697.78503695635482
 21
787.35294944278724
  0
LINE
  8
_0-5_寸法線
  6
CONTINUOUS
 62
    7
 10
688.1257786934641
 20
784.76475899176194
 11
697.78503695635482
 21
782.17656854073675
  0
LINE
  8
_0-5_寸法線
  6
CONTINUOUS
 62
    7
 10
724.62577869346421
 20
743.26475891522182
 11
724.62577869346421
 21
789.76475899176194
  0
LINE
  8
_0-5_寸法線
  6
CONTINUOUS
 62
    7
 10
724.62577869346421
 20
784.76475899176194
 11
714.96652043057338
 21
782.17656854073675
  0
LINE
  8
_0-5_寸法線
  6
CONTINUOUS
 62
    7
 10
724.62577869346421
 20
784.76475899176194
 11
714.96652043057338
 21
787.35294944278724
  0
LINE
  8
_0-5_寸法線
  6
CONTINUOUS
 62
    7
 10
688.1257786934641
 20
784.76475899176194
 11
724.62577869346421
 21
784.76475899176194
  0
TEXT
  8
_0-5_寸法線
 62
    7
 10
691.37577869346433
 20
784.76475899176194
 40
15
 41
1
 50
0
  1
36.5
  0
LINE
  8
_0-1_計細線
  6
CONTINUOUS
 62
    3
 10
726.12576197346004
 20
604.26488515178789
 11
724.62577869346364
 21
604.26488515178789
  0
ARC
  8
_0-1_計細線
  6
CONTINUOUS
 62
    3
 10
726.12576197346004
 20
606.26488515178789
 40
2
 50
269.99999999999977
 51
359.99999999999966
  0
LINE
  8
_0-1_計細線
  6
CONTINUOUS
 62
    3
 10
728.12576197345993
 20
606.26488515178789
 11
728.12576197345993
 21
611.76475899176194
  0
LINE
  8
_0-1_計細線
  6
CONTINUOUS
 62
    3
 10
726.12576197346038
 20
721.26463283173553
 11
724.62577869346421
 21
721.26463283173553
  0
ARC
  8
_0-1_計細線
  6
CONTINUOUS
 62
    3
 10
726.12576197346038
 20
719.26463283173564
 40
2
 50
0
 51
89.999999999999915
  0
LINE
  8
_0-1_計細線
  6
CONTINUOUS
 62
    3
 10
728.1257619734605
 20
707.76475899176194
 11
728.1257619734605
 21
719.26463283173564
  0
LINE
  8
_0-1_計細線
  6
CONTINUOUS
 62
    3
 10
728.12576197345993
 20
607.02598299176179
 11
728.1257619734605
 21
707.76475899176194
  0
ARC
  8
_0-1_計細線
  6
CONTINUOUS
 62
    3
 10
689.37577869346433
 20
733.51475891522205
 40
1.25
 50
89.999999999989583
 51
179.99999999999477
  0
LINE
  8
_0-1_計細線
  6
CONTINUOUS
 62
    3
 10
693.25852464388515
 20
734.26475891522159
 11
698.12577869346433
 21
734.26475891522159
  0
LINE
  8
_0-1_計細線
  6
CONTINUOUS
 62
    3
 10
692.99419720370315
 20
734.28230311385664
 11
689.37577869346433
 21
734.76475891522205
  0
ARC
  8
_0-1_計細線
  6
CONTINUOUS
 62
    3
 10
693.25852464388515
 20
736.26475891522182
 40
2
 50
262.40535663140565
 51
269.99999999999977
  0
LINE
  8
_0-1_計細線
  6
CONTINUOUS
 62
    3
 10
688.12577869346524
 20
733.51475891522205
 11
688.12577869346455
 21
592.01475906830183
  0
LINE
  8
_0-1_計細線
  6
CONTINUOUS
 62
    3
 10
698.12577869346455
 20
591.26475906830228
 11
698.1257786934641
 21
734.26475891522159
  0
ARC
  8
_0-1_計細線
  6
CONTINUOUS
 62
    3
 10
689.37577869346433
 20
592.01475906830194
 40
1.25
 50
180.00000000000486
 51
270.00000000001006
  0
LINE
  8
_0-1_計細線
  6
CONTINUOUS
 62
    3
 10
693.25852464388515
 20
591.26475906830228
 11
698.12577869346433
 21
591.26475906830228
  0
LINE
  8
_0-1_計細線
  6
CONTINUOUS
 62
    3
 10
692.99419720370315
 20
591.24721486966735
 11
689.37577869346433
 21
590.76475906830194
  0
ARC
  8
_0-1_計細線
  6
CONTINUOUS
 62
    3
 10
693.25852464388515
 20
589.26475906830217
 40
2
 50
89.999999999999915
 51
97.594643368594035
  0
LINE
  8
_0-1_計細線
  6
CONTINUOUS
 62
    3
 10
724.62577869346421
 20
733.26475891522182
 11
724.62577869346421
 21
592.26475906830251
  0
LINE
  8
_0-1_計細線
  6
CONTINUOUS
 62
    3
 10
724.62577869346421
 20
733.26475891522182
 11
698.1257786934641
 21
733.26475891522182
  0
LINE
  8
_0-1_計細線
  6
CONTINUOUS
 62
    3
 10
724.62577869346421
 20
592.26475906830217
 11
698.1257786934641
 21
592.26475906830217
  0
TEXT
  8
_0-7_枠細線
 62
    5
 10
1081.0266758875987
 20
494.58128282894023
 40
20
 41
0.6
 50
0
  1
Ｓ＝１：４
  0
TEXT
  8
_0-7_枠細線
 62
    5
 10
944.63322134332645
 20
494.58128282894023
 40
25
 41
0.8
 50
0
  1
排水部詳細図
  0
TEXT
  8
_1-1_寸法4
 62
    7
 10
1025.969568487262
 20
530.33064530690717
 40
15
 41
0.8000000000000001
 50
0
  1
（ＨＦＴ－５Ｚ）
  0
LINE
  8
_0-e_極細4
  6
CONTINUOUS
 62
    6
 10
933.30728382442373
 20
753.43596847030983
 11
933.30728382442373
 21
773.61689632030505
  0
LINE
  8
_0-e_極細4
  6
CONTINUOUS
 62
    6
 10
973.73678257442464
 20
597.36689632030505
 11
970.05728382442442
 21
597.36689632030505
  0
LINE
  8
_0-e_極細4
  6
CONTINUOUS
 62
    6
 10
969.95311757442505
 20
603.61689632030539
 11
953.05728382442408
 21
603.61689632030539
  0
LINE
  8
_0-e_極細4
  6
CONTINUOUS
 62
    6
 10
953.05728382442408
 20
603.61689632030539
 11
952.55728382442521
 21
634.86689632030505
  0
LINE
  8
_0-e_極細4
  6
CONTINUOUS
 62
    6
 10
941.30728382442442
 20
644.86689632030505
 11
941.30728382442442
 21
737.32925847030981
  0
ARC
  8
_0-e_極細4
  6
CONTINUOUS
 62
    6
 10
951.30728382442442
 20
644.86689632030505
 40
10
 50
179.99999999999983
 51
269.99999999999977
  0
LINE
  8
_0-e_極細4
  6
CONTINUOUS
 62
    6
 10
1004.432283824425
 20
597.36689632030505
 11
973.73678257442464
 21
597.36689632030505
  0
LINE
  8
_0-e_極細4
  6
CONTINUOUS
 62
    6
 10
970.05728382442442
 20
597.36689632030505
 11
969.95311715775824
 21
603.61689632030539
  0
LINE
  8
_0-e_極細4
  6
CONTINUOUS
 62
    6
 10
938.18228382442442
 20
742.7419172203098
 11
938.18228382442442
 21
752.7419172203098
  0
ARC
  8
_0-e_極細4
  6
CONTINUOUS
 62
    6
 10
935.05728382442442
 20
737.32925847030981
 40
6.25
 50
0
 51
59.999999999998025
  0
LINE
  8
_0-e_極細4
  6
CONTINUOUS
 62
    6
 10
933.30728382442373
 20
752.7419172203098
 11
933.30728382442373
 21
753.43596847030983
  0
LINE
  8
_0-e_極細4
  6
CONTINUOUS
 62
    6
 10
938.18228382442442
 20
752.7419172203098
 11
933.30728382442373
 21
752.7419172203098
  0
LINE
  8
_0-e_極細4
  6
CONTINUOUS
 62
    6
 10
933.30728382442373
 20
773.61689632030505
 11
1075.5572838244252
 21
773.61689632030505
  0
LINE
  8
_0-e_極細4
  6
CONTINUOUS
 62
    6
 10
1075.5572838244252
 20
753.43596847030983
 11
1075.5572838244252
 21
773.61689632030505
  0
LINE
  8
_0-e_極細4
  6
CONTINUOUS
 62
    6
 10
1056.3072838244236
 20
634.86689632030505
 11
1057.5572838244236
 21
634.86689632030505
  0
LINE
  8
_0-e_極細4
  6
CONTINUOUS
 62
    6
 10
1035.1277850744234
 20
597.36689632030505
 11
1038.8072838244236
 21
597.36689632030505
  0
LINE
  8
_0-e_極細4
  6
CONTINUOUS
 62
    6
 10
1038.9114500744233
 20
603.61689632030539
 11
1055.8072838244241
 21
603.61689632030539
  0
LINE
  8
_0-e_極細4
  6
CONTINUOUS
 62
    6
 10
1055.8072838244241
 20
603.61689632030539
 11
1056.3072838244236
 21
634.86689632030505
  0
LINE
  8
_0-e_極細4
  6
CONTINUOUS
 62
    6
 10
1067.5572838244243
 20
644.86689632030505
 11
1067.5572838244243
 21
737.32925847030981
  0
ARC
  8
_0-e_極細4
  6
CONTINUOUS
 62
    6
 10
1057.5572838244243
 20
644.86689632030505
 40
10
 50
269.99999999999574
 51
359.99999999999966
  0
LINE
  8
_0-e_極細4
  6
CONTINUOUS
 62
    6
 10
1004.4322838244237
 20
597.36689632030505
 11
1035.1277850744234
 21
597.36689632030505
  0
LINE
  8
_0-e_極細4
  6
CONTINUOUS
 62
    6
 10
1038.8072838244236
 20
597.36689632030505
 11
1038.9114504910901
 21
603.61689632030539
  0
LINE
  8
_0-e_極細4
  6
CONTINUOUS
 62
    6
 10
1070.682283824425
 20
742.7419172203098
 11
1070.682283824425
 21
752.7419172203098
  0
ARC
  8
_0-e_極細4
  6
CONTINUOUS
 62
    6
 10
1073.8072838244243
 20
737.32925847030981
 40
6.25
 50
119.99999999999656
 51
179.99999999999983
  0
LINE
  8
_0-e_極細4
  6
CONTINUOUS
 62
    6
 10
1075.5572838244252
 20
752.7419172203098
 11
1075.5572838244252
 21
753.43596847030983
  0
LINE
  8
_0-e_極細4
  6
CONTINUOUS
 62
    6
 10
1070.682283824425
 20
752.7419172203098
 11
1075.5572838244252
 21
752.7419172203098
  0
LINE
  8
_0-e_極細4
  6
CONTINUOUS
 62
    6
 10
1004.4322838244244
 20
772.36689632030505
 11
939.38780054954975
 21
772.36689632030505
  0
LINE
  8
_0-e_極細4
  6
CONTINUOUS
 62
    6
 10
952.55728382442521
 20
634.86689632030505
 11
951.30728382442442
 21
634.86689632030505
  0
LINE
  8
_0-e_極細4
  6
CONTINUOUS
 62
    6
 10
945.52603381969391
 20
710.40365914383926
 11
955.36978382442442
 21
710.40365914383926
  0
LINE
  8
_0-e_極細4
  6
CONTINUOUS
 62
    6
 10
970.68228382442442
 20
673.25170007030522
 11
970.68228382442442
 21
746.96952847030968
  0
ARC
  8
_0-e_極細4
  6
CONTINUOUS
 62
    6
 10
971.93228382442442
 20
673.25170007030522
 40
1.25
 50
179.99999999999983
 51
270.00045836622417
  0
LINE
  8
_0-e_極細4
  6
CONTINUOUS
 62
    6
 10
971.93228382442442
 20
672.00170007030511
 11
1004.4322838244244
 21
672.00170007030522
  0
LINE
  8
_0-e_極細4
  6
CONTINUOUS
 62
    6
 10
969.95311715775824
 20
603.61689632030539
 11
969.43228382442442
 21
634.86689632030505
  0
LINE
  8
_0-e_極細4
  6
CONTINUOUS
 62
    6
 10
954.43228382442442
 20
637.99189632030505
 11
973.18228382442442
 21
637.99189632030505
  0
LINE
  8
_0-e_極細4
  6
CONTINUOUS
 62
    6
 10
944.43228382442442
 20
647.99189632030505
 11
944.43228382442442
 21
711.64385507030499
  0
LINE
  8
_0-e_極細4
  6
CONTINUOUS
 62
    6
 10
972.55728382442521
 20
597.36689632030505
 11
973.18228382442442
 21
637.99189632030505
  0
LINE
  8
_0-e_極細4
  6
CONTINUOUS
 62
    6
 10
969.43228382442442
 20
634.86689632030505
 11
956.93228382442442
 21
634.86689632030505
  0
ARC
  8
_0-e_極細4
  6
CONTINUOUS
 62
    6
 10
954.43228382442442
 20
647.99189632030505
 40
10
 50
179.99999999999983
 51
269.99999999999977
  0
LINE
  8
_0-e_極細4
  6
CONTINUOUS
 62
    6
 10
973.18228382442442
 20
637.99189632030505
 11
1004.4322838244244
 21
637.99189632030505
  0
LINE
  8
_0-e_極細4
  6
CONTINUOUS
 62
    6
 10
973.18031007442471
 20
637.8635550703051
 11
973.18228382442442
 21
637.99189632030505
  0
LINE
  8
_0-e_極細4
  6
CONTINUOUS
 62
    6
 10
955.36978382442442
 20
665.49189632030505
 11
955.36978382442442
 21
699.24189632030505
  0
LINE
  8
_0-e_極細4
  6
CONTINUOUS
 62
    6
 10
970.36978382442442
 20
650.49189632030505
 11
973.18228382442442
 21
650.49189632030505
  0
LINE
  8
_0-e_極細4
  6
CONTINUOUS
 62
    6
 10
973.18228382442442
 20
637.99189632030505
 11
973.18228382442442
 21
650.49189632030505
  0
ARC
  8
_0-e_極細4
  6
CONTINUOUS
 62
    6
 10
970.36978382442442
 20
665.49189632030505
 40
15
 50
179.99999999999983
 51
269.99999999999977
  0
ARC
  8
_0-e_極細4
  6
CONTINUOUS
 62
    6
 10
945.68228382442442
 20
711.64385507030499
 40
1.25
 50
179.99999999999983
 51
262.81924399999775
  0
LINE
  8
_0-e_極細4
  6
CONTINUOUS
 62
    6
 10
944.43228382442442
 20
711.64385507030499
 11
944.43228382442442
 21
745.4919172203098
  0
LINE
  8
_0-e_極細4
  6
CONTINUOUS
 62
    6
 10
956.61978382442521
 20
603.61689632030539
 11
956.93228382442442
 21
634.86689632030505
  0
LINE
  8
_0-e_極細4
  6
CONTINUOUS
 62
    6
 10
1004.4322838244244
 20
650.49189632030505
 11
1003.2684913244246
 21
650.49189632030505
  0
LINE
  8
_0-e_極細4
  6
CONTINUOUS
 62
    6
 10
1003.2684913244246
 20
650.49189632030505
 11
970.36978382442442
 21
650.49189632030505
  0
LINE
  8
_0-e_極細4
  6
CONTINUOUS
 62
    6
 10
955.36978382442442
 20
665.49189632030505
 11
955.36978382442442
 21
737.7419172203098
  0
LINE
  8
_0-e_極細4
  6
CONTINUOUS
 62
    6
 10
957.86978382442442
 20
665.49189632030505
 11
957.86978382442442
 21
737.7419172203098
  0
LINE
  8
_0-e_極細4
  6
CONTINUOUS
 62
    6
 10
1004.4322838244244
 20
652.99189632030505
 11
970.36978382442442
 21
652.99189632030505
  0
ARC
  8
_0-e_極細4
  6
CONTINUOUS
 62
    6
 10
970.36978382442442
 20
665.49189632030505
 40
12.5
 50
179.99999999999983
 51
269.99999999999977
  0
LINE
  8
_0-e_極細4
  6
CONTINUOUS
 62
    6
 10
954.11978382442442
 20
755.75172097030963
 11
1004.4322838244244
 21
755.75172097030963
  0
LINE
  8
_0-e_極細4
  6
CONTINUOUS
 62
    6
 10
954.11978382442442
 20
750.25172097030963
 11
954.11978382442442
 21
755.75172097030963
  0
LINE
  8
_0-e_極細4
  6
CONTINUOUS
 62
    6
 10
950.05728382442442
 20
755.75172097030963
 11
954.11978382442442
 21
755.75172097030963
  0
LINE
  8
_0-e_極細4
  6
CONTINUOUS
 62
    6
 10
951.30728382442442
 20
750.25172097030963
 11
954.11978382442442
 21
750.25172097030963
  0
LINE
  8
_0-e_極細4
  6
CONTINUOUS
 62
    6
 10
951.30728382442442
 20
749.00172097030963
 11
951.30728382442442
 21
750.25172097030963
  0
ARC
  8
_0-e_極細4
  6
CONTINUOUS
 62
    6
 10
953.80728382442442
 20
749.00172097030963
 40
2.5
 50
179.99999999999983
 51
269.99999999999977
  0
LINE
  8
_0-e_極細4
  6
CONTINUOUS
 62
    6
 10
953.80728382442442
 20
746.50172097030963
 11
957.55728382442442
 21
746.50172097030963
  0
LINE
  8
_0-e_極細4
  6
CONTINUOUS
 62
    6
 10
957.55728382442442
 20
746.50172097030963
 11
957.55728382442442
 21
750.25172097030963
  0
ARC
  8
_0-e_極細4
  6
CONTINUOUS
 62
    6
 10
941.95853382442453
 20
769.81324722030968
 40
1.3125000000000142
 50
4.1509900000066464
 51
89.999999999999915
  0
LINE
  8
_0-e_極細4
  6
CONTINUOUS
 62
    6
 10
941.95853382442453
 20
751.97449722030956
 11
941.95853382442453
 21
771.12574722030956
  0
LINE
  8
_0-e_極細4
  6
CONTINUOUS
 62
    6
 10
941.95853382442453
 20
771.11691653749631
 11
933.30728382442373
 21
772.34911347030959
  0
LINE
  8
_0-e_極細4
  6
CONTINUOUS
 62
    6
 10
943.80728382442442
 20
746.4919172203098
 11
943.80728382442442
 21
750.12574722030968
  0
LINE
  8
_0-e_極細4
  6
CONTINUOUS
 62
    6
 10
941.95853382442453
 20
745.4919172203098
 11
943.80728382442442
 21
746.4919172203098
  0
LINE
  8
_0-e_極細4
  6
CONTINUOUS
 62
    6
 10
933.30728382442373
 20
770.24191722030992
 11
941.95853382442453
 21
769.2419172203098
  0
ARC
  8
_0-e_極細4
  6
CONTINUOUS
 62
    6
 10
956.61978382442442
 20
737.7419172203098
 40
1.25
 50
89.999999999999915
 51
179.99999999999983
  0
ARC
  8
_0-e_極細4
  6
CONTINUOUS
 62
    6
 10
956.61978382442442
 20
737.7419172203098
 40
1.25
 50
0
 51
89.999999999999915
  0
LINE
  8
_0-e_極細4
  6
CONTINUOUS
 62
    6
 10
1004.4322838244244
 20
772.00074722030968
 11
941.95853382442453
 21
772.00074722030968
  0
LINE
  8
_0-e_極細4
  6
CONTINUOUS
 62
    6
 10
954.11978382442442
 20
755.12574722030968
 11
949.05728382442464
 21
755.12574722030968
  0
LINE
  8
_0-e_極細4
  6
CONTINUOUS
 62
    6
 10
945.38075382442446
 20
768.87574722030968
 11
946.8697838244243
 21
768.87574722030968
  0
LINE
  8
_0-e_極細4
  6
CONTINUOUS
 62
    6
 10
949.05728382442464
 20
753.50074722030979
 11
949.05728382442464
 21
766.68824722030968
  0
LINE
  8
_0-e_極細4
  6
CONTINUOUS
 62
    6
 10
946.30728382442442
 20
768.87574722030968
 11
946.30728382442442
 21
772.00074722030968
  0
ARC
  8
_0-e_極細4
  6
CONTINUOUS
 62
    6
 10
946.8697838244243
 20
766.68824722030968
 40
2.1875000000000004
 50
0
 51
89.999999999999915
  0
ARC
  8
_0-e_極細4
  6
CONTINUOUS
 62
    6
 10
941.95853382442453
 20
769.81324722030968
 40
2.1875000000000004
 50
4.1509900000035493
 51
89.999999999999915
  0
ARC
  8
_0-e_極細4
  6
CONTINUOUS
 62
    6
 10
945.38075382442446
 20
770.12574722030968
 40
1.25
 50
183.35088799999122
 51
269.99999999999977
  0
ARC
  8
_0-e_極細4
  6
CONTINUOUS
 62
    6
 10
945.38075382442446
 20
770.12574722030968
 40
2.1249999999999858
 50
183.35088800000082
 51
269.99999999999977
  0
LINE
  8
_0-e_極細4
  6
CONTINUOUS
 62
    6
 10
945.38075382442446
 20
768.00074722030956
 11
946.8697838244243
 21
768.00074722030956
  0
ARC
  8
_0-e_極細4
  6
CONTINUOUS
 62
    6
 10
946.8697838244243
 20
766.68824722030968
 40
1.3125000000000142
 50
0
 51
89.999999999999915
  0
LINE
  8
_0-e_極細4
  6
CONTINUOUS
 62
    6
 10
948.18228382442442
 20
752.62574722030968
 11
948.18228382442442
 21
766.68824722030968
  0
LINE
  8
_0-e_極細4
  6
CONTINUOUS
 62
    6
 10
941.95853382442453
 20
751.97449722030956
 11
943.80728382442442
 21
750.12574722030968
  0
LINE
  8
_0-e_極細4
  6
CONTINUOUS
 62
    6
 10
950.68228382442442
 20
747.62574722030968
 11
950.68228382442442
 21
755.12574722030968
  0
LINE
  8
_0-e_極細4
  6
CONTINUOUS
 62
    6
 10
953.49478382442442
 20
750.25172097030963
 11
953.49478382442442
 21
755.12574722030968
  0
LINE
  8
_0-e_極細4
  6
CONTINUOUS
 62
    6
 10
950.68228382442442
 20
752.62574722030968
 11
948.18228382442442
 21
752.62574722030968
  0
LINE
  8
_0-e_極細4
  6
CONTINUOUS
 62
    6
 10
950.68228382442442
 20
753.50074722030979
 11
949.05728382442464
 21
753.50074722030979
  0
LINE
  8
_0-e_極細4
  6
CONTINUOUS
 62
    6
 10
951.7200138244242
 20
747.62574722030968
 11
950.68228382442442
 21
747.62574722030968
  0
LINE
  8
_0-e_極細4
  6
CONTINUOUS
 62
    6
 10
950.68228382442442
 20
750.12574722030968
 11
943.80728382442442
 21
750.12574722030968
  0
LINE
  8
_0-e_極細4
  6
CONTINUOUS
 62
    6
 10
967.19939257442456
 20
748.00074722030945
 11
960.94939257442456
 21
748.00074722030945
  0
LINE
  8
_0-e_極細4
  6
CONTINUOUS
 62
    6
 10
967.19939257442456
 20
748.00074722030945
 11
967.19939257442456
 21
750.12574722030968
  0
LINE
  8
_0-e_極細4
  6
CONTINUOUS
 62
    6
 10
960.94939257442456
 20
748.00074722030945
 11
960.94939257442456
 21
750.12574722030968
  0
LINE
  8
_0-e_極細4
  6
CONTINUOUS
 62
    6
 10
965.32439257442456
 20
748.00074722030945
 11
965.32439257442456
 21
750.12574722030968
  0
LINE
  8
_0-e_極細4
  6
CONTINUOUS
 62
    6
 10
946.3697838244243
 20
769.12574722030979
 11
946.3697838244243
 21
770.75074722030968
  0
LINE
  8
_0-e_極細4
  6
CONTINUOUS
 62
    6
 10
1004.4322838244244
 20
771.37574722030968
 11
946.9947838244243
 21
771.37574722030968
  0
LINE
  8
_0-e_極細4
  6
CONTINUOUS
 62
    6
 10
949.0572838244243
 20
768.87574722030968
 11
946.61978382442442
 21
768.87574722030968
  0
LINE
  8
_0-e_極細4
  6
CONTINUOUS
 62
    6
 10
949.05728382442464
 20
765.12574722030968
 11
949.0572838244243
 21
768.87574722030968
  0
LINE
  8
_0-e_極細4
  6
CONTINUOUS
 62
    6
 10
950.4322838244243
 20
764.50074722030968
 11
950.4322838244243
 21
765.75074722030968
  0
ARC
  8
_0-e_極細4
  6
CONTINUOUS
 62
    6
 10
949.6822838244243
 20
765.12574722030968
 40
0.625
 50
179.99999999999983
 51
269.99999999999977
  0
ARC
  8
_0-e_極細4
  6
CONTINUOUS
 62
    6
 10
946.9947838244243
 20
770.75074722030968
 40
0.625
 50
155.94545100001108
 51
179.99999999999983
  0
ARC
  8
_0-e_極細4
  6
CONTINUOUS
 62
    6
 10
946.61978382442442
 20
769.12574722030979
 40
0.2499999999999857
 50
179.99999999999983
 51
269.99999999999977
  0
ARC
  8
_0-e_極細4
  6
CONTINUOUS
 62
    6
 10
946.9947838244243
 20
770.75074722030968
 40
0.625
 50
89.999999999999915
 51
155.94545100001108
  0
LINE
  8
_0-e_極細4
  6
CONTINUOUS
 62
    6
 10
1004.1822838244241
 20
765.75074722030968
 11
950.4322838244243
 21
765.75074722030968
  0
LINE
  8
_0-e_極細4
  6
CONTINUOUS
 62
    6
 10
1004.1822838244241
 20
764.50074722030968
 11
949.6822838244243
 21
764.50074722030968
  0
LINE
  8
_0-e_極細4
  6
CONTINUOUS
 62
    6
 10
1004.4322838244244
 20
763.13338472030989
 11
949.24478382442339
 21
763.13338472030955
  0
LINE
  8
_0-e_極細4
  6
CONTINUOUS
 62
    6
 10
954.74478382442442
 20
763.13338472030955
 11
954.74478382442442
 21
762.50838472030955
  0
LINE
  8
_0-e_極細4
  6
CONTINUOUS
 62
    6
 10
950.24478382442408
 20
761.25838472030955
 11
949.24478382442339
 21
763.13338472030955
  0
LINE
  8
_0-e_極細4
  6
CONTINUOUS
 62
    6
 10
955.36978382442442
 20
759.00838472030966
 11
954.74478382442442
 21
759.63338472030966
  0
LINE
  8
_0-e_極細4
  6
CONTINUOUS
 62
    6
 10
954.74478382442442
 20
758.38338472030966
 11
955.36978382442442
 21
759.00838472030966
  0
LINE
  8
_0-e_極細4
  6
CONTINUOUS
 62
    6
 10
954.74478382442442
 20
761.25838472030955
 11
955.36978382442442
 21
761.88338472030955
  0
LINE
  8
_0-e_極細4
  6
CONTINUOUS
 62
    6
 10
955.36978382442442
 20
761.88338472030955
 11
954.74478382442442
 21
762.50838472030955
  0
LINE
  8
_0-e_極細4
  6
CONTINUOUS
 62
    6
 10
1004.4322838244244
 20
761.88338472030989
 11
955.36978382442442
 21
761.88338472030955
  0
LINE
  8
_0-e_極細4
  6
CONTINUOUS
 62
    6
 10
1004.4322838244244
 20
759.00838472030966
 11
955.36978382442442
 21
759.00838472030966
  0
LINE
  8
_0-e_極細4
  6
CONTINUOUS
 62
    6
 10
1004.4322838244244
 20
757.75838472030966
 11
950.24478382442408
 21
757.75838472030966
  0
LINE
  8
_0-e_極細4
  6
CONTINUOUS
 62
    6
 10
950.24478382442408
 20
761.25838472030955
 11
950.24478382442408
 21
757.75838472030966
  0
LINE
  8
_0-e_極細4
  6
CONTINUOUS
 62
    6
 10
954.74478382442442
 20
758.38338472030966
 11
954.74478382442442
 21
757.75838472030966
  0
LINE
  8
_0-e_極細4
  6
CONTINUOUS
 62
    6
 10
954.74478382442442
 20
761.25838472030955
 11
954.74478382442442
 21
759.63338472030966
  0
LINE
  8
_0-e_極細4
  6
CONTINUOUS
 62
    6
 10
950.05728382442442
 20
755.75172097030963
 11
950.05728382442442
 21
757.62672097030963
  0
LINE
  8
_0-e_極細4
  6
CONTINUOUS
 62
    6
 10
950.05728382442442
 20
757.62672097030963
 11
1004.4322838244244
 21
757.62672097030963
  0
LINE
  8
_0-e_極細4
  6
CONTINUOUS
 62
    6
 10
950.05728382442442
 20
763.37672097030963
 11
1004.4322838244244
 21
763.37672097030963
  0
LINE
  8
_0-e_極細4
  6
CONTINUOUS
 62
    6
 10
950.05728382442442
 20
763.37672097030963
 11
950.05728382442442
 21
764.50074722030968
  0
LINE
  8
_0-e_極細4
  6
CONTINUOUS
 62
    6
 10
970.68228382442442
 20
746.4919172203098
 11
943.80728382442442
 21
746.4919172203098
  0
LINE
  8
_0-e_極細4
  6
CONTINUOUS
 62
    6
 10
970.68228382442442
 20
745.12233722030987
 11
970.68228382442442
 21
746.96952847030968
  0
LINE
  8
_0-e_極細4
  6
CONTINUOUS
 62
    6
 10
941.95853382442453
 20
772.00074722030968
 11
933.30728382442373
 21
773.23294348864738
  0
LINE
  8
_0-e_極細4
  6
CONTINUOUS
 62
    6
 10
956.61978382442442
 20
738.9919172203098
 11
970.68228382442442
 21
738.9919172203098
  0
LINE
  8
_0-e_極細4
  6
CONTINUOUS
 62
    6
 10
970.68228382442442
 20
745.4919172203098
 11
941.95853382442453
 21
745.4919172203098
  0
LINE
  8
_0-e_極細4
  6
CONTINUOUS
 62
    6
 10
1004.4322838244244
 20
772.36689632030505
 11
1069.4767670992994
 21
772.36689632030505
  0
LINE
  8
_0-e_極細4
  6
CONTINUOUS
 62
    6
 10
1063.3385338291544
 20
710.40365914383926
 11
1053.4947838244243
 21
710.40365914383926
  0
LINE
  8
_0-e_極細4
  6
CONTINUOUS
 62
    6
 10
1038.1822838244236
 20
673.25170007030522
 11
1038.1822838244236
 21
746.96952847030968
  0
ARC
  8
_0-e_極細4
  6
CONTINUOUS
 62
    6
 10
1036.9322838244236
 20
673.25170007030522
 40
1.25
 50
269.99954163375423
 51
359.99999999999966
  0
LINE
  8
_0-e_極細4
  6
CONTINUOUS
 62
    6
 10
1036.9322838244236
 20
672.00170007030511
 11
1004.4322838244244
 21
672.00170007030522
  0
LINE
  8
_0-e_極細4
  6
CONTINUOUS
 62
    6
 10
1038.9114504910901
 20
603.61689632030539
 11
1039.4322838244236
 21
634.86689632030505
  0
LINE
  8
_0-e_極細4
  6
CONTINUOUS
 62
    6
 10
1054.4322838244243
 20
637.99189632030505
 11
1035.6822838244236
 21
637.99189632030505
  0
LINE
  8
_0-e_極細4
  6
CONTINUOUS
 62
    6
 10
1064.4322838244243
 20
647.99189632030505
 11
1064.4322838244243
 21
711.64385507030499
  0
LINE
  8
_0-e_極細4
  6
CONTINUOUS
 62
    6
 10
1036.3072838244236
 20
597.36689632030505
 11
1035.6822838244236
 21
637.99189632030505
  0
LINE
  8
_0-e_極細4
  6
CONTINUOUS
 62
    6
 10
1039.4322838244236
 20
634.86689632030505
 11
1051.9322838244236
 21
634.86689632030505
  0
ARC
  8
_0-e_極細4
  6
CONTINUOUS
 62
    6
 10
1054.4322838244243
 20
647.99189632030505
 40
10
 50
269.99999999999977
 51
359.99999999999966
  0
LINE
  8
_0-e_極細4
  6
CONTINUOUS
 62
    6
 10
1035.6822838244236
 20
637.99189632030505
 11
1004.4322838244244
 21
637.99189632030505
  0
LINE
  8
_0-e_極細4
  6
CONTINUOUS
 62
    6
 10
1035.6842575744233
 20
637.8635550703051
 11
1035.6822838244236
 21
637.99189632030505
  0
LINE
  8
_0-e_極細4
  6
CONTINUOUS
 62
    6
 10
1053.4947838244243
 20
665.49189632030505
 11
1053.4947838244243
 21
699.24189632030505
  0
LINE
  8
_0-e_極細4
  6
CONTINUOUS
 62
    6
 10
1038.4947838244236
 20
650.49189632030505
 11
1035.6822838244236
 21
650.49189632030505
  0
LINE
  8
_0-e_極細4
  6
CONTINUOUS
 62
    6
 10
1035.6822838244236
 20
637.99189632030505
 11
1035.6822838244236
 21
650.49189632030505
  0
ARC
  8
_0-e_極細4
  6
CONTINUOUS
 62
    6
 10
1038.4947838244236
 20
665.49189632030505
 40
15
 50
269.99999999999977
 51
359.99999999999966
  0
ARC
  8
_0-e_極細4
  6
CONTINUOUS
 62
    6
 10
1063.1822838244243
 20
711.64385507030499
 40
1.25
 50
277.18075599998082
 51
359.99999999999966
  0
LINE
  8
_0-e_極細4
  6
CONTINUOUS
 62
    6
 10
1064.4322838244243
 20
711.64385507030499
 11
1064.4322838244243
 21
745.4919172203098
  0
LINE
  8
_0-e_極細4
  6
CONTINUOUS
 62
    6
 10
1052.2447838244236
 20
603.61689632030539
 11
1051.9322838244236
 21
634.86689632030505
  0
LINE
  8
_0-e_極細4
  6
CONTINUOUS
 62
    6
 10
1004.4322838244244
 20
650.49189632030505
 11
1005.5960763244236
 21
650.49189632030505
  0
LINE
  8
_0-e_極細4
  6
CONTINUOUS
 62
    6
 10
1005.5960763244236
 20
650.49189632030505
 11
1038.4947838244236
 21
650.49189632030505
  0
LINE
  8
_0-e_極細4
  6
CONTINUOUS
 62
    6
 10
1053.4947838244243
 20
665.49189632030505
 11
1053.4947838244243
 21
737.7419172203098
  0
LINE
  8
_0-e_極細4
  6
CONTINUOUS
 62
    6
 10
1050.9947838244243
 20
665.49189632030505
 11
1050.9947838244243
 21
737.7419172203098
  0
LINE
  8
_0-e_極細4
  6
CONTINUOUS
 62
    6
 10
1004.4322838244244
 20
652.99189632030505
 11
1038.4947838244236
 21
652.99189632030505
  0
ARC
  8
_0-e_極細4
  6
CONTINUOUS
 62
    6
 10
1038.4947838244236
 20
665.49189632030505
 40
12.5
 50
269.99999999999977
 51
359.99999999999966
  0
LINE
  8
_0-e_極細4
  6
CONTINUOUS
 62
    6
 10
1054.7447838244243
 20
755.75172097030963
 11
1004.4322838244244
 21
755.75172097030963
  0
LINE
  8
_0-e_極細4
  6
CONTINUOUS
 62
    6
 10
1054.7447838244243
 20
750.25172097030963
 11
1054.7447838244243
 21
755.75172097030963
  0
LINE
  8
_0-e_極細4
  6
CONTINUOUS
 62
    6
 10
1058.8072838244243
 20
755.75172097030963
 11
1054.7447838244243
 21
755.75172097030963
  0
LINE
  8
_0-e_極細4
  6
CONTINUOUS
 62
    6
 10
1057.5572838244243
 20
750.25172097030963
 11
1054.7447838244243
 21
750.25172097030963
  0
LINE
  8
_0-e_極細4
  6
CONTINUOUS
 62
    6
 10
1057.5572838244243
 20
749.00172097030963
 11
1057.5572838244243
 21
750.25172097030963
  0
ARC
  8
_0-e_極細4
  6
CONTINUOUS
 62
    6
 10
1055.0572838244243
 20
749.00172097030963
 40
2.5
 50
269.99999999999977
 51
359.99999999999966
  0
LINE
  8
_0-e_極細4
  6
CONTINUOUS
 62
    6
 10
1055.0572838244243
 20
746.50172097030963
 11
1051.3072838244243
 21
746.50172097030963
  0
LINE
  8
_0-e_極細4
  6
CONTINUOUS
 62
    6
 10
1051.3072838244243
 20
746.50172097030963
 11
1051.3072838244243
 21
750.25172097030963
  0
ARC
  8
_0-e_極細4
  6
CONTINUOUS
 62
    6
 10
1066.9060338244242
 20
769.81324722030968
 40
1.3125000000000142
 50
89.999999999999915
 51
175.84900999999479
  0
LINE
  8
_0-e_極細4
  6
CONTINUOUS
 62
    6
 10
1066.9060338244242
 20
751.97449722030956
 11
1066.9060338244242
 21
771.12574722030956
  0
LINE
  8
_0-e_極細4
  6
CONTINUOUS
 62
    6
 10
1066.9060338244242
 20
771.11691653749631
 11
1075.5572838244252
 21
772.34911347030959
  0
LINE
  8
_0-e_極細4
  6
CONTINUOUS
 62
    6
 10
1065.057283824425
 20
746.4919172203098
 11
1065.057283824425
 21
750.12574722030968
  0
LINE
  8
_0-e_極細4
  6
CONTINUOUS
 62
    6
 10
1066.9060338244242
 20
745.4919172203098
 11
1065.057283824425
 21
746.4919172203098
  0
LINE
  8
_0-e_極細4
  6
CONTINUOUS
 62
    6
 10
1075.5572838244252
 20
770.24191722030992
 11
1066.9060338244242
 21
769.2419172203098
  0
ARC
  8
_0-e_極細4
  6
CONTINUOUS
 62
    6
 10
1052.2447838244243
 20
737.7419172203098
 40
1.25
 50
0
 51
89.999999999999915
  0
ARC
  8
_0-e_極細4
  6
CONTINUOUS
 62
    6
 10
1052.2447838244243
 20
737.7419172203098
 40
1.25
 50
89.999999999999915
 51
179.99999999999983
  0
LINE
  8
_0-e_極細4
  6
CONTINUOUS
 62
    6
 10
1004.4322838244244
 20
772.00074722030968
 11
1066.9060338244242
 21
772.00074722030968
  0
LINE
  8
_0-e_極細4
  6
CONTINUOUS
 62
    6
 10
1054.7447838244243
 20
755.12574722030968
 11
1059.8072838244241
 21
755.12574722030968
  0
LINE
  8
_0-e_極細4
  6
CONTINUOUS
 62
    6
 10
1063.4838138244238
 20
768.87574722030968
 11
1061.9947838244241
 21
768.87574722030968
  0
LINE
  8
_0-e_極細4
  6
CONTINUOUS
 62
    6
 10
1059.8072838244241
 20
753.50074722030979
 11
1059.8072838244241
 21
766.68824722030968
  0
LINE
  8
_0-e_極細4
  6
CONTINUOUS
 62
    6
 10
1062.5572838244243
 20
768.87574722030968
 11
1062.5572838244243
 21
772.00074722030968
  0
ARC
  8
_0-e_極細4
  6
CONTINUOUS
 62
    6
 10
1061.9947838244241
 20
766.68824722030968
 40
2.1875000000000004
 50
89.999999999999915
 51
179.99999999999983
  0
ARC
  8
_0-e_極細4
  6
CONTINUOUS
 62
    6
 10
1066.9060338244242
 20
769.81324722030968
 40
2.1875000000000004
 50
89.999999999999915
 51
175.84900999999644
  0
ARC
  8
_0-e_極細4
  6
CONTINUOUS
 62
    6
 10
1063.4838138244238
 20
770.12574722030968
 40
1.25
 50
269.99999999999977
 51
356.64911200000864
  0
ARC
  8
_0-e_極細4
  6
CONTINUOUS
 62
    6
 10
1063.4838138244238
 20
770.12574722030968
 40
2.1249999999999858
 50
269.99999999999977
 51
356.64911199999989
  0
LINE
  8
_0-e_極細4
  6
CONTINUOUS
 62
    6
 10
1063.4838138244238
 20
768.00074722030956
 11
1061.9947838244241
 21
768.00074722030956
  0
ARC
  8
_0-e_極細4
  6
CONTINUOUS
 62
    6
 10
1061.9947838244241
 20
766.68824722030968
 40
1.3125000000000142
 50
89.999999999999915
 51
179.99999999999983
  0
LINE
  8
_0-e_極細4
  6
CONTINUOUS
 62
    6
 10
1060.6822838244243
 20
752.62574722030968
 11
1060.6822838244243
 21
766.68824722030968
  0
LINE
  8
_0-e_極細4
  6
CONTINUOUS
 62
    6
 10
1066.9060338244242
 20
751.97449722030956
 11
1065.057283824425
 21
750.12574722030968
  0
LINE
  8
_0-e_極細4
  6
CONTINUOUS
 62
    6
 10
1058.1822838244243
 20
747.62574722030968
 11
1058.1822838244243
 21
755.12574722030968
  0
LINE
  8
_0-e_極細4
  6
CONTINUOUS
 62
    6
 10
1055.3697838244243
 20
750.25172097030963
 11
1055.3697838244243
 21
755.12574722030968
  0
LINE
  8
_0-e_極細4
  6
CONTINUOUS
 62
    6
 10
1058.1822838244243
 20
752.62574722030968
 11
1060.6822838244243
 21
752.62574722030968
  0
LINE
  8
_0-e_極細4
  6
CONTINUOUS
 62
    6
 10
1058.1822838244243
 20
753.50074722030979
 11
1059.8072838244241
 21
753.50074722030979
  0
LINE
  8
_0-e_極細4
  6
CONTINUOUS
 62
    6
 10
1057.1445538244241
 20
747.62574722030968
 11
1058.1822838244243
 21
747.62574722030968
  0
LINE
  8
_0-e_極細4
  6
CONTINUOUS
 62
    6
 10
1058.1822838244243
 20
750.12574722030968
 11
1065.057283824425
 21
750.12574722030968
  0
LINE
  8
_0-e_極細4
  6
CONTINUOUS
 62
    6
 10
1041.6651750744243
 20
748.00074722030945
 11
1047.9151750744243
 21
748.00074722030945
  0
LINE
  8
_0-e_極細4
  6
CONTINUOUS
 62
    6
 10
1041.6651750744243
 20
748.00074722030945
 11
1041.6651750744243
 21
750.12574722030968
  0
LINE
  8
_0-e_極細4
  6
CONTINUOUS
 62
    6
 10
1047.9151750744243
 20
748.00074722030945
 11
1047.9151750744243
 21
750.12574722030968
  0
LINE
  8
_0-e_極細4
  6
CONTINUOUS
 62
    6
 10
1043.5401750744243
 20
748.00074722030945
 11
1043.5401750744243
 21
750.12574722030968
  0
LINE
  8
_0-e_極細4
  6
CONTINUOUS
 62
    6
 10
1062.4947838244243
 20
769.12574722030979
 11
1062.4947838244243
 21
770.75074722030968
  0
LINE
  8
_0-e_極細4
  6
CONTINUOUS
 62
    6
 10
1004.4322838244244
 20
771.37574722030968
 11
1061.8697838244243
 21
771.37574722030968
  0
LINE
  8
_0-e_極細4
  6
CONTINUOUS
 62
    6
 10
1059.8072838244241
 20
768.87574722030968
 11
1062.2447838244243
 21
768.87574722030968
  0
LINE
  8
_0-e_極細4
  6
CONTINUOUS
 62
    6
 10
1059.8072838244241
 20
765.12574722030968
 11
1059.8072838244241
 21
768.87574722030968
  0
LINE
  8
_0-e_極細4
  6
CONTINUOUS
 62
    6
 10
1058.4322838244243
 20
764.50074722030968
 11
1058.4322838244243
 21
765.75074722030968
  0
ARC
  8
_0-e_極細4
  6
CONTINUOUS
 62
    6
 10
1059.1822838244241
 20
765.12574722030968
 40
0.625
 50
269.99999999999977
 51
359.99999999999966
  0
ARC
  8
_0-e_極細4
  6
CONTINUOUS
 62
    6
 10
1061.8697838244243
 20
770.75074722030968
 40
0.625
 50
0
 51
24.054549000022931
  0
ARC
  8
_0-e_極細4
  6
CONTINUOUS
 62
    6
 10
1062.2447838244243
 20
769.12574722030979
 40
0.2499999999999857
 50
269.99999999999977
 51
359.99999999999966
  0
ARC
  8
_0-e_極細4
  6
CONTINUOUS
 62
    6
 10
1061.8697838244243
 20
770.75074722030968
 40
0.625
 50
24.054549000022931
 51
89.999999999999915
  0
LINE
  8
_0-e_極細4
  6
CONTINUOUS
 62
    6
 10
1004.6822838244243
 20
765.75074722030968
 11
1058.4322838244243
 21
765.75074722030968
  0
LINE
  8
_0-e_極細4
  6
CONTINUOUS
 62
    6
 10
1004.6822838244243
 20
764.50074722030968
 11
1059.1822838244241
 21
764.50074722030968
  0
LINE
  8
_0-e_極細4
  6
CONTINUOUS
 62
    6
 10
1004.4322838244244
 20
763.13338472030989
 11
1059.6197838244241
 21
763.13338472030955
  0
LINE
  8
_0-e_極細4
  6
CONTINUOUS
 62
    6
 10
1054.1197838244243
 20
763.13338472030955
 11
1054.1197838244243
 21
762.50838472030955
  0
LINE
  8
_0-e_極細4
  6
CONTINUOUS
 62
    6
 10
1058.6197838244241
 20
761.25838472030955
 11
1059.6197838244241
 21
763.13338472030955
  0
LINE
  8
_0-e_極細4
  6
CONTINUOUS
 62
    6
 10
1053.4947838244243
 20
759.00838472030966
 11
1054.1197838244243
 21
759.63338472030966
  0
LINE
  8
_0-e_極細4
  6
CONTINUOUS
 62
    6
 10
1054.1197838244243
 20
758.38338472030966
 11
1053.4947838244243
 21
759.00838472030966
  0
LINE
  8
_0-e_極細4
  6
CONTINUOUS
 62
    6
 10
1054.1197838244243
 20
761.25838472030955
 11
1053.4947838244243
 21
761.88338472030955
  0
LINE
  8
_0-e_極細4
  6
CONTINUOUS
 62
    6
 10
1053.4947838244243
 20
761.88338472030955
 11
1054.1197838244243
 21
762.50838472030955
  0
LINE
  8
_0-e_極細4
  6
CONTINUOUS
 62
    6
 10
1004.4322838244244
 20
761.88338472030989
 11
1053.4947838244243
 21
761.88338472030955
  0
LINE
  8
_0-e_極細4
  6
CONTINUOUS
 62
    6
 10
1004.4322838244244
 20
759.00838472030966
 11
1053.4947838244243
 21
759.00838472030966
  0
LINE
  8
_0-e_極細4
  6
CONTINUOUS
 62
    6
 10
1004.4322838244244
 20
757.75838472030966
 11
1058.6197838244241
 21
757.75838472030966
  0
LINE
  8
_0-e_極細4
  6
CONTINUOUS
 62
    6
 10
1058.6197838244241
 20
761.25838472030955
 11
1058.6197838244241
 21
757.75838472030966
  0
LINE
  8
_0-e_極細4
  6
CONTINUOUS
 62
    6
 10
1054.1197838244243
 20
758.38338472030966
 11
1054.1197838244243
 21
757.75838472030966
  0
LINE
  8
_0-e_極細4
  6
CONTINUOUS
 62
    6
 10
1054.1197838244243
 20
761.25838472030955
 11
1054.1197838244243
 21
759.63338472030966
  0
LINE
  8
_0-e_極細4
  6
CONTINUOUS
 62
    6
 10
1058.8072838244243
 20
755.75172097030963
 11
1058.8072838244243
 21
757.62672097030963
  0
LINE
  8
_0-e_極細4
  6
CONTINUOUS
 62
    6
 10
1058.8072838244243
 20
757.62672097030963
 11
1004.4322838244244
 21
757.62672097030963
  0
LINE
  8
_0-e_極細4
  6
CONTINUOUS
 62
    6
 10
1058.8072838244243
 20
763.37672097030963
 11
1004.4322838244244
 21
763.37672097030963
  0
LINE
  8
_0-e_極細4
  6
CONTINUOUS
 62
    6
 10
1058.8072838244243
 20
763.37672097030963
 11
1058.8072838244243
 21
764.50074722030968
  0
LINE
  8
_0-e_極細4
  6
CONTINUOUS
 62
    6
 10
1038.1822838244236
 20
746.4919172203098
 11
1065.057283824425
 21
746.4919172203098
  0
LINE
  8
_0-e_極細4
  6
CONTINUOUS
 62
    6
 10
1038.1822838244236
 20
745.12233722030987
 11
1038.1822838244236
 21
746.96952847030968
  0
LINE
  8
_0-e_極細4
  6
CONTINUOUS
 62
    6
 10
1066.9060338244242
 20
772.00074722030968
 11
1075.5572838244252
 21
773.23294348864738
  0
LINE
  8
_0-e_極細4
  6
CONTINUOUS
 62
    6
 10
1052.2447838244243
 20
738.9919172203098
 11
1038.1822838244236
 21
738.9919172203098
  0
LINE
  8
_0-e_極細4
  6
CONTINUOUS
 62
    6
 10
1038.1822838244236
 20
745.4919172203098
 11
1066.9060338244242
 21
745.4919172203098
  0
LINE
  8
_0-e_極細4
  6
CONTINUOUS
 62
    6
 10
971.65955468979348
 20
597.36689632030539
 11
972.57131084215325
 21
598.2786524726655
  0
LINE
  8
_0-e_極細4
  6
CONTINUOUS
 62
    6
 10
970.04008088075182
 20
598.39907294071293
 11
972.61274288011373
 21
600.97173494007495
  0
LINE
  8
_0-e_極細4
  6
CONTINUOUS
 62
    6
 10
969.99661120158009
 20
601.00725369099098
 11
972.6541749180742
 21
603.66481740748463
  0
LINE
  8
_0-e_極細4
  6
CONTINUOUS
 62
    6
 10
969.95314152240917
 20
603.61543444126949
 11
972.6956069560332
 21
606.35789987489431
  0
LINE
  8
_0-e_極細4
  6
CONTINUOUS
 62
    6
 10
969.90967184323745
 20
606.22361519154754
 11
972.73703899399368
 21
609.05098234230411
  0
LINE
  8
_0-e_極細4
  6
CONTINUOUS
 62
    6
 10
969.86620216406652
 20
608.83179594182582
 11
972.77847103195415
 21
611.74406480971368
  0
LINE
  8
_0-e_極細4
  6
CONTINUOUS
 62
    6
 10
969.822732484894
 20
611.4399766921041
 11
972.81990306991429
 21
614.43714727712324
  0
LINE
  8
_0-e_極細4
  6
CONTINUOUS
 62
    6
 10
969.77926280572376
 20
614.04815744238226
 11
972.86133510787477
 21
617.13022974453327
  0
LINE
  8
_0-e_極細4
  6
CONTINUOUS
 62
    6
 10
969.73579312655215
 20
616.65633819266054
 11
972.90276714583399
 21
619.82331221194283
  0
LINE
  8
_0-e_極細4
  6
CONTINUOUS
 62
    6
 10
954.04470082474734
 20
603.61689632030539
 11
956.64579476381562
 21
606.21799025937344
  0
LINE
  8
_0-e_極細4
  6
CONTINUOUS
 62
    6
 10
969.69232344738043
 20
619.26451894293848
 11
972.94419918379447
 21
622.5163946793524
  0
LINE
  8
_0-e_極細4
  6
CONTINUOUS
 62
    6
 10
953.03107542396515
 20
605.2549213489732
 11
956.67257911158754
 21
608.89642503659525
  0
LINE
  8
_0-e_極細4
  6
CONTINUOUS
 62
    6
 10
969.64885376820985
 20
621.8726996932171
 11
972.98563122175494
 21
625.20947714676231
  0
LINE
  8
_0-e_極細4
  6
CONTINUOUS
 62
    6
 10
952.98931714948583
 20
607.8648135039432
 11
956.69936345936003
 21
611.57485981381694
  0
LINE
  8
_0-e_極細4
  6
CONTINUOUS
 62
    6
 10
969.60538408903813
 20
624.48088044349504
 11
973.02706325971474
 21
627.90255961417176
  0
LINE
  8
_0-e_極細4
  6
CONTINUOUS
 62
    6
 10
952.94755887500651
 20
610.47470565891342
 11
956.72614780713116
 21
614.25329459103875
  0
LINE
  8
_0-e_極細4
  6
CONTINUOUS
 62
    6
 10
969.56191440986674
 20
627.08906119377332
 11
973.06849529767521
 21
630.59564208158145
  0
LINE
  8
_0-e_極細4
  6
CONTINUOUS
 62
    6
 10
952.90580060052719
 20
613.08459781388342
 11
956.75293215490444
 21
616.93172936826056
  0
LINE
  8
_0-e_極細4
  6
CONTINUOUS
 62
    6
 10
969.51844473069502
 20
629.6972419440516
 11
973.10992733563489
 21
633.28872454899113
  0
LINE
  8
_0-e_極細4
  6
CONTINUOUS
 62
    6
 10
952.86404232604798
 20
615.69448996885342
 11
956.77971650267693
 21
619.61016414548237
  0
LINE
  8
_0-e_極細4
  6
CONTINUOUS
 62
    6
 10
969.47497505152478
 20
632.30542269432965
 11
973.15135937359537
 21
635.98180701640092
  0
LINE
  8
_0-e_極細4
  6
CONTINUOUS
 62
    6
 10
952.82228405156798
 20
618.30438212382353
 11
956.80650085044874
 21
622.28859892270395
  0
LINE
  8
_0-e_極細4
  6
CONTINUOUS
 62
    6
 10
969.38479824805029
 20
634.86689632030539
 11
972.50979824805029
 21
637.99189632030505
  0
LINE
  8
_0-e_極細4
  6
CONTINUOUS
 62
    6
 10
952.78052577708866
 20
620.91427427879341
 11
956.83328519822055
 21
624.96703369992576
  0
LINE
  8
_0-e_極細4
  6
CONTINUOUS
 62
    6
 10
966.73314781860029
 20
634.86689632030505
 11
969.8581478186004
 21
637.99189632030505
  0
LINE
  8
_0-e_極細4
  6
CONTINUOUS
 62
    6
 10
952.73876750260933
 20
623.52416643376364
 11
956.86006954599361
 21
627.64546847714746
  0
LINE
  8
_0-e_極細4
  6
CONTINUOUS
 62
    6
 10
964.08149738915108
 20
634.86689632030539
 11
967.20649738915108
 21
637.99189632030505
  0
LINE
  8
_0-e_極細4
  6
CONTINUOUS
 62
    6
 10
952.69700922813001
 20
626.13405858873364
 11
956.88685389376576
 21
630.32390325436927
  0
LINE
  8
_0-e_極細4
  6
CONTINUOUS
 62
    6
 10
961.42984695970154
 20
634.86689632030539
 11
964.5548469597004
 21
637.99189632030505
  0
LINE
  8
_0-e_極細4
  6
CONTINUOUS
 62
    6
 10
952.65525095365047
 20
628.74395074370364
 11
956.91363824153757
 21
633.00233803159108
  0
LINE
  8
_0-e_極細4
  6
CONTINUOUS
 62
    6
 10
958.77819653025188
 20
634.86689632030539
 11
961.90319653025188
 21
637.99189632030505
  0
LINE
  8
_0-e_極細4
  6
CONTINUOUS
 62
    6
 10
952.61349267917069
 20
631.35384289867386
 11
959.25154610080256
 21
637.99189632030505
  0
LINE
  8
_0-e_極細4
  6
CONTINUOUS
 62
    6
 10
952.57173440469069
 20
633.96373505364397
 11
956.59989567135256
 21
637.99189632030505
  0
LINE
  8
_0-e_極細4
  6
CONTINUOUS
 62
    6
 10
950.83443098818589
 20
634.87808206658804
 11
953.95943098818623
 21
638.00308206658804
  0
LINE
  8
_0-e_極細4
  6
CONTINUOUS
 62
    6
 10
948.55718174818958
 20
635.25248325604127
 11
951.68218174818958
 21
638.37748325604127
  0
LINE
  8
_0-e_極細4
  6
CONTINUOUS
 62
    6
 10
946.66354945553837
 20
636.01050139283996
 11
949.78854945553906
 21
639.13550139283996
  0
LINE
  8
_0-e_極細4
  6
CONTINUOUS
 62
    6
 10
945.05992919743437
 20
637.05853156418493
 11
948.18492919743437
 21
640.18353156418493
  0
LINE
  8
_0-e_極細4
  6
CONTINUOUS
 62
    6
 10
943.71195474279318
 20
638.36220753899318
 11
946.83695474279284
 21
641.4872075389934
  0
LINE
  8
_0-e_極細4
  6
CONTINUOUS
 62
    6
 10
942.61713449829529
 20
639.91903772394505
 11
945.74213449829529
 21
643.04403772394505
  0
LINE
  8
_0-e_極細4
  6
CONTINUOUS
 62
    6
 10
941.8032236534815
 20
641.75677730858058
 11
944.9282236534815
 21
644.88177730858058
  0
LINE
  8
_0-e_極細4
  6
CONTINUOUS
 62
    6
 10
941.34901949437506
 20
643.9542235789238
 11
944.47401949437437
 21
647.07922357892369
  0
LINE
  8
_0-e_極細4
  6
CONTINUOUS
 62
    6
 10
941.30728382442487
 20
646.56413833842305
 11
944.43228382442373
 21
649.68913833842305
  0
LINE
  8
_0-e_極細4
  6
CONTINUOUS
 62
    6
 10
941.30728382442487
 20
649.21578876787237
 11
944.43228382442373
 21
652.34078876787237
  0
LINE
  8
_0-e_極細4
  6
CONTINUOUS
 62
    6
 10
941.30728382442487
 20
651.86743919732226
 11
944.43228382442373
 21
654.99243919732226
  0
LINE
  8
_0-e_極細4
  6
CONTINUOUS
 62
    6
 10
941.30728382442487
 20
654.51908962677169
 11
944.43228382442373
 21
657.64408962677169
  0
LINE
  8
_0-e_極細4
  6
CONTINUOUS
 62
    6
 10
941.30728382442487
 20
657.17074005622112
 11
944.43228382442373
 21
660.29574005622112
  0
LINE
  8
_0-e_極細4
  6
CONTINUOUS
 62
    6
 10
941.30728382442487
 20
659.82239048567078
 11
944.43228382442373
 21
662.94739048567044
  0
LINE
  8
_0-e_極細4
  6
CONTINUOUS
 62
    6
 10
941.30728382442487
 20
662.4740409151201
 11
944.43228382442373
 21
665.5990409151201
  0
LINE
  8
_0-e_極細4
  6
CONTINUOUS
 62
    6
 10
941.30728382442487
 20
665.12569134456999
 11
944.43228382442373
 21
668.25069134456965
  0
LINE
  8
_0-e_極細4
  6
CONTINUOUS
 62
    6
 10
941.30728382442487
 20
667.77734177401942
 11
944.43228382442373
 21
670.90234177401942
  0
LINE
  8
_0-e_極細4
  6
CONTINUOUS
 62
    6
 10
941.30728382442487
 20
670.42899220346897
 11
944.43228382442373
 21
673.55399220346885
  0
LINE
  8
_0-e_極細4
  6
CONTINUOUS
 62
    6
 10
941.30728382442487
 20
673.08064263291851
 11
944.43228382442373
 21
676.20564263291851
  0
LINE
  8
_0-e_極細4
  6
CONTINUOUS
 62
    6
 10
941.30728382442442
 20
675.73229306236783
 11
944.43228382442373
 21
678.85729306236783
  0
LINE
  8
_0-e_極細4
  6
CONTINUOUS
 62
    6
 10
941.30728382442487
 20
678.38394349181772
 11
944.43228382442442
 21
681.50894349181738
  0
LINE
  8
_0-e_極細4
  6
CONTINUOUS
 62
    6
 10
941.30728382442487
 20
681.03559392126715
 11
944.43228382442442
 21
684.16059392126715
  0
LINE
  8
_0-e_極細4
  6
CONTINUOUS
 62
    6
 10
941.30728382442487
 20
683.6872443507167
 11
944.43228382442442
 21
686.81224435071658
  0
LINE
  8
_0-e_極細4
  6
CONTINUOUS
 62
    6
 10
941.30728382442487
 20
686.33889478016624
 11
944.43228382442442
 21
689.46389478016624
  0
LINE
  8
_0-e_極細4
  6
CONTINUOUS
 62
    6
 10
941.30728382442487
 20
688.9905452096159
 11
944.43228382442442
 21
692.11554520961556
  0
LINE
  8
_0-e_極細4
  6
CONTINUOUS
 62
    6
 10
941.30728382442487
 20
691.64219563906545
 11
944.43228382442442
 21
694.76719563906545
  0
LINE
  8
_0-e_極細4
  6
CONTINUOUS
 62
    6
 10
941.30728382442487
 20
694.29384606851488
 11
944.43228382442487
 21
697.41884606851488
  0
LINE
  8
_0-e_極細4
  6
CONTINUOUS
 62
    6
 10
941.30728382442487
 20
696.94549649796443
 11
944.43228382442442
 21
700.07049649796443
  0
LINE
  8
_0-e_極細4
  6
CONTINUOUS
 62
    6
 10
941.30728382442487
 20
699.59714692741397
 11
944.43228382442442
 21
702.72214692741397
  0
LINE
  8
_0-e_極細4
  6
CONTINUOUS
 62
    6
 10
941.30728382442487
 20
702.24879735686363
 11
944.43228382442442
 21
705.37379735686363
  0
LINE
  8
_0-e_極細4
  6
CONTINUOUS
 62
    6
 10
941.30728382442487
 20
704.90044778631318
 11
944.43228382442442
 21
708.02544778631318
  0
LINE
  8
_0-e_極細4
  6
CONTINUOUS
 62
    6
 10
941.30728382442487
 20
707.55209821576261
 11
944.43228382442442
 21
710.67709821576261
  0
LINE
  8
_0-e_極細4
  6
CONTINUOUS
 62
    6
 10
941.30728382442442
 20
710.20374864521216
 11
944.43228382442442
 21
713.32874864521216
  0
LINE
  8
_0-e_極細4
  6
CONTINUOUS
 62
    6
 10
941.30728382442487
 20
712.8553990746617
 11
944.43228382442487
 21
715.9803990746617
  0
LINE
  8
_0-e_極細4
  6
CONTINUOUS
 62
    6
 10
941.30728382442487
 20
715.50704950411136
 11
944.43228382442487
 21
718.63204950411136
  0
LINE
  8
_0-e_極細4
  6
CONTINUOUS
 62
    6
 10
941.30728382442487
 20
718.15869993356091
 11
944.43228382442487
 21
721.28369993356091
  0
LINE
  8
_0-e_極細4
  6
CONTINUOUS
 62
    6
 10
941.30728382442442
 20
720.81035036301057
 11
944.43228382442442
 21
723.93535036301034
  0
LINE
  8
_0-e_極細4
  6
CONTINUOUS
 62
    6
 10
941.30728382442442
 20
723.46200079245989
 11
944.43228382442487
 21
726.58700079245989
  0
LINE
  8
_0-e_極細4
  6
CONTINUOUS
 62
    6
 10
941.30728382442442
 20
726.11365122190944
 11
944.43228382442442
 21
729.23865122190944
  0
LINE
  8
_0-e_極細4
  6
CONTINUOUS
 62
    6
 10
941.30728382442487
 20
728.7653016513591
 11
944.43228382442487
 21
731.8903016513591
  0
LINE
  8
_0-e_極細4
  6
CONTINUOUS
 62
    6
 10
941.30728382442487
 20
731.41695208080864
 11
944.43228382442487
 21
734.54195208080864
  0
LINE
  8
_0-e_極細4
  6
CONTINUOUS
 62
    6
 10
941.30728382442487
 20
734.0686025102583
 11
944.43228382442487
 21
737.19360251025807
  0
LINE
  8
_0-e_極細4
  6
CONTINUOUS
 62
    6
 10
941.30728382442487
 20
736.72025293970751
 11
944.43228382442487
 21
739.84525293970751
  0
LINE
  8
_0-e_極細4
  6
CONTINUOUS
 62
    6
 10
941.04757825388094
 20
739.11219779861437
 11
944.43228382442487
 21
742.49690336915717
  0
LINE
  8
_0-e_極細4
  6
CONTINUOUS
 62
    6
 10
940.18556093765244
 20
740.90183091183474
 11
944.43228382442487
 21
745.14855379860683
  0
LINE
  8
_0-e_極細4
  6
CONTINUOUS
 62
    6
 10
938.89462458587616
 20
742.26254498950811
 11
942.12399681667819
 21
745.4919172203098
  0
LINE
  8
_0-e_極細4
  6
CONTINUOUS
 62
    6
 10
942.318945850261
 20
745.68686625389307
 11
943.80728382442442
 21
747.17520422805637
  0
LINE
  8
_0-e_極細4
  6
CONTINUOUS
 62
    6
 10
938.18228382442442
 20
744.20185465750603
 11
943.80728382442442
 21
749.82685465750603
  0
LINE
  8
_0-e_極細4
  6
CONTINUOUS
 62
    6
 10
938.18228382442442
 20
746.85350508695524
 11
942.63090489110198
 21
751.3021261536328
  0
LINE
  8
_0-e_極細4
  6
CONTINUOUS
 62
    6
 10
938.18228382442442
 20
749.50515551640524
 11
941.95853382442453
 21
753.2814055164049
  0
LINE
  8
_0-e_極細4
  6
CONTINUOUS
 62
    6
 10
938.18228382442442
 20
752.15680594585456
 11
941.95853382442453
 21
755.93305594585456
  0
LINE
  8
_0-e_極細4
  6
CONTINUOUS
 62
    6
 10
936.11574466943
 20
752.74191722031003
 11
941.95853382442453
 21
758.58470637530434
  0
LINE
  8
_0-e_極細4
  6
CONTINUOUS
 62
    6
 10
933.46409423998068
 20
752.74191722031003
 11
941.95853382442453
 21
761.23635680475377
  0
LINE
  8
_0-e_極細4
  6
CONTINUOUS
 62
    6
 10
933.30728382442373
 20
755.23675723420274
 11
941.95853382442453
 21
763.88800723420309
  0
LINE
  8
_0-e_極細4
  6
CONTINUOUS
 62
    6
 10
933.30728382442373
 20
757.88840766365229
 11
941.95853382442453
 21
766.53965766365275
  0
LINE
  8
_0-e_極細4
  6
CONTINUOUS
 62
    6
 10
933.30728382442373
 20
760.54005809310195
 11
941.95853382442453
 21
769.19130809310229
  0
LINE
  8
_0-e_極細4
  6
CONTINUOUS
 62
    6
 10
933.30728382442373
 20
763.19170852255172
 11
939.62699557124267
 21
769.51142026937009
  0
LINE
  8
_0-e_極細4
  6
CONTINUOUS
 62
    6
 10
933.30728382442373
 20
765.84335895200115
 11
937.25009198074702
 21
769.78616710832341
  0
LINE
  8
_0-e_極細4
  6
CONTINUOUS
 62
    6
 10
933.30728382442373
 20
768.49500938145047
 11
934.87318839025068
 21
770.06091394727719
  0
LINE
  8
_0-e_極細4
  6
CONTINUOUS
 62
    6
 10
1054.80741714383
 20
603.61689632030539
 11
1055.8235418192305
 21
604.63302099570546
  0
LINE
  8
_0-e_極細4
  6
CONTINUOUS
 62
    6
 10
1052.2439024668981
 20
603.70503207282297
 11
1055.8666580863753
 21
607.32778769230038
  0
LINE
  8
_0-e_極細4
  6
CONTINUOUS
 62
    6
 10
1052.2176485022499
 20
606.33042853762447
 11
1055.909774353521
 21
610.02255438889529
  0
LINE
  8
_0-e_極細4
  6
CONTINUOUS
 62
    6
 10
1052.1913945376025
 20
608.95582500242574
 11
1055.9528906206669
 21
612.71732108549043
  0
LINE
  8
_0-e_極細4
  6
CONTINUOUS
 62
    6
 10
1037.9508154260313
 20
597.36689632030505
 11
1038.821800237956
 21
598.23788113222895
  0
LINE
  8
_0-e_極細4
  6
CONTINUOUS
 62
    6
 10
1052.1651405729538
 20
611.58122146722746
 11
1055.9960068878124
 21
615.41208778208545
  0
LINE
  8
_0-e_極細4
  6
CONTINUOUS
 62
    6
 10
1036.2920092967295
 20
598.35974062045159
 11
1038.8667434655733
 21
600.93447478929636
  0
LINE
  8
_0-e_極細4
  6
CONTINUOUS
 62
    6
 10
1052.1388866083064
 20
614.20661793202896
 11
1056.0391231549577
 21
618.10685447868025
  0
LINE
  8
_0-e_極細4
  6
CONTINUOUS
 62
    6
 10
1036.2518327750702
 20
600.97121452824297
 11
1038.9116866931915
 21
603.63106844636388
  0
LINE
  8
_0-e_極細4
  6
CONTINUOUS
 62
    6
 10
1052.1126326436577
 20
616.83201439683046
 11
1056.0822394221029
 21
620.8016211752755
  0
LINE
  8
_0-e_極細4
  6
CONTINUOUS
 62
    6
 10
1036.2116562534127
 20
603.58268843603446
 11
1038.9566299208088
 21
606.32766210343118
  0
LINE
  8
_0-e_極細4
  6
CONTINUOUS
 62
    6
 10
1052.0863786790103
 20
619.45741086163196
 11
1056.1253556892482
 21
623.49638787187041
  0
LINE
  8
_0-e_極細4
  6
CONTINUOUS
 62
    6
 10
1036.1714797317538
 20
606.19416234382572
 11
1039.0015731484275
 21
609.02425576049859
  0
LINE
  8
_0-e_極細4
  6
CONTINUOUS
 62
    6
 10
1052.060124714362
 20
622.08280732643345
 11
1056.1684719563943
 21
626.19115456846555
  0
LINE
  8
_0-e_極細4
  6
CONTINUOUS
 62
    6
 10
1036.1313032100959
 20
608.80563625161676
 11
1039.0465163760448
 21
611.72084941756589
  0
LINE
  8
_0-e_極細4
  6
CONTINUOUS
 62
    6
 10
1052.0338707497137
 20
624.70820379123529
 11
1056.21158822354
 21
628.88592126506057
  0
LINE
  8
_0-e_極細4
  6
CONTINUOUS
 62
    6
 10
1036.0911266884375
 20
611.41711015940803
 11
1039.0914596036635
 21
614.4174430746333
  0
LINE
  8
_0-e_極細4
  6
CONTINUOUS
 62
    6
 10
1052.0076167850664
 20
627.33360025603679
 11
1056.2547044906848
 21
631.58068796165537
  0
LINE
  8
_0-e_極細4
  6
CONTINUOUS
 62
    6
 10
1059.7943468340052
 20
635.12033030497628
 11
1067.3038498397534
 21
642.62983331072348
  0
LINE
  8
_0-e_極細4
  6
CONTINUOUS
 62
    6
 10
1036.0509501667796
 20
614.02858406719918
 11
1039.1364028312807
 21
617.11403673170059
  0
LINE
  8
_0-e_極細4
  6
CONTINUOUS
 62
    6
 10
1051.9813628204176
 20
629.9589967208384
 11
1056.2978207578306
 21
634.27545465825062
  0
LINE
  8
_0-e_極細4
  6
CONTINUOUS
 62
    6
 10
1056.889262419885
 20
634.86689632030505
 11
1067.557283824425
 21
645.53491772484438
  0
LINE
  8
_0-e_極細4
  6
CONTINUOUS
 62
    6
 10
1036.0107736451207
 20
616.64005797499067
 11
1039.181346058898
 21
619.81063038876812
  0
LINE
  8
_0-e_極細4
  6
CONTINUOUS
 62
    6
 10
1051.9551088557703
 20
632.58439318563978
 11
1058.0335950166871
 21
638.66287934655713
  0
LINE
  8
_0-e_極細4
  6
CONTINUOUS
 62
    6
 10
1063.7613007981724
 20
644.39058512804183
 11
1067.557283824425
 21
648.18656815429392
  0
LINE
  8
_0-e_極細4
  6
CONTINUOUS
 62
    6
 10
1035.9705971234632
 20
619.25153188278193
 11
1039.2262892865162
 21
622.50722404583541
  0
LINE
  8
_0-e_極細4
  6
CONTINUOUS
 62
    6
 10
1051.5859615609859
 20
634.86689632030539
 11
1054.7149575820583
 21
637.99589234137727
  0
LINE
  8
_0-e_極細4
  6
CONTINUOUS
 62
    6
 10
1064.4282878033525
 20
647.7092225626717
 11
1067.557283824425
 21
650.83821858374347
  0
LINE
  8
_0-e_極細4
  6
CONTINUOUS
 62
    6
 10
1035.9304206018039
 20
621.86300579057308
 11
1039.2712325141335
 21
625.20381770290271
  0
LINE
  8
_0-e_極細4
  6
CONTINUOUS
 62
    6
 10
1048.9343111315366
 20
634.86689632030539
 11
1052.0593111315359
 21
637.99189632030505
  0
LINE
  8
_0-e_極細4
  6
CONTINUOUS
 62
    6
 10
1064.432283824425
 20
650.36486901319279
 11
1067.557283824425
 21
653.48986901319313
  0
LINE
  8
_0-e_極細4
  6
CONTINUOUS
 62
    6
 10
1035.8902440801464
 20
624.47447969836446
 11
1039.3161757417517
 21
627.90041135997001
  0
LINE
  8
_0-e_極細4
  6
CONTINUOUS
 62
    6
 10
1046.2826607020868
 20
634.86689632030539
 11
1049.4076607020868
 21
637.99189632030505
  0
LINE
  8
_0-e_極細4
  6
CONTINUOUS
 62
    6
 10
1064.432283824425
 20
653.01651944264268
 11
1067.557283824425
 21
656.14151944264268
  0
LINE
  8
_0-e_極細4
  6
CONTINUOUS
 62
    6
 10
1035.8500675584876
 20
627.08595360615561
 11
1039.361118969369
 21
630.59700501703765
  0
LINE
  8
_0-e_極細4
  6
CONTINUOUS
 62
    6
 10
1043.6310102726372
 20
634.86689632030539
 11
1046.7560102726372
 21
637.99189632030505
  0
LINE
  8
_0-e_極細4
  6
CONTINUOUS
 62
    6
 10
1064.432283824425
 20
655.66816987209211
 11
1067.557283824425
 21
658.79316987209234
  0
LINE
  8
_0-e_極細4
  6
CONTINUOUS
 62
    6
 10
1035.8098910368296
 20
629.6974275139471
 11
1039.4060621969877
 21
633.29359867410506
  0
LINE
  8
_0-e_極細4
  6
CONTINUOUS
 62
    6
 10
1040.9793598431881
 20
634.86689632030539
 11
1044.1043598431881
 21
637.99189632030505
  0
LINE
  8
_0-e_極細4
  6
CONTINUOUS
 62
    6
 10
1064.432283824425
 20
658.31982030154165
 11
1067.557283824425
 21
661.44482030154165
  0
LINE
  8
_0-e_極細4
  6
CONTINUOUS
 62
    6
 10
1035.7697145151712
 20
632.30890142173837
 11
1041.4527094137381
 21
637.99189632030505
  0
LINE
  8
_0-e_極細4
  6
CONTINUOUS
 62
    6
 10
1064.432283824425
 20
660.9714707309912
 11
1067.557283824425
 21
664.0964707309912
  0
LINE
  8
_0-e_極細4
  6
CONTINUOUS
 62
    6
 10
1035.7295379935133
 20
634.92037532952952
 11
1038.8010589842881
 21
637.99189632030505
  0
LINE
  8
_0-e_極細4
  6
CONTINUOUS
 62
    6
 10
1064.432283824425
 20
663.62312116044086
 11
1067.557283824425
 21
666.74812116044086
  0
LINE
  8
_0-e_極細4
  6
CONTINUOUS
 62
    6
 10
1035.6893614718545
 20
637.53184923732067
 11
1036.1494085548391
 21
637.99189632030505
  0
LINE
  8
_0-e_極細4
  6
CONTINUOUS
 62
    6
 10
1064.432283824425
 20
666.27477158989041
 11
1067.557283824425
 21
669.39977158989041
  0
LINE
  8
_0-e_極細4
  6
CONTINUOUS
 62
    6
 10
1064.432283824425
 20
668.92642201934007
 11
1067.557283824425
 21
672.05142201933984
  0
LINE
  8
_0-e_極細4
  6
CONTINUOUS
 62
    6
 10
1064.432283824425
 20
671.57807244878938
 11
1067.557283824425
 21
674.70307244878938
  0
LINE
  8
_0-e_極細4
  6
CONTINUOUS
 62
    6
 10
1064.432283824425
 20
674.22972287823927
 11
1067.557283824425
 21
677.35472287823893
  0
LINE
  8
_0-e_極細4
  6
CONTINUOUS
 62
    6
 10
1064.432283824425
 20
676.88137330768825
 11
1067.557283824425
 21
680.00637330768859
  0
LINE
  8
_0-e_極細4
  6
CONTINUOUS
 62
    6
 10
1064.432283824425
 20
679.53302373713814
 11
1067.557283824425
 21
682.65802373713814
  0
LINE
  8
_0-e_極細4
  6
CONTINUOUS
 62
    6
 10
1064.432283824425
 20
682.18467416658757
 11
1067.5572838244243
 21
685.30967416658757
  0
LINE
  8
_0-e_極細4
  6
CONTINUOUS
 62
    6
 10
1064.432283824425
 20
684.83632459603712
 11
1067.5572838244243
 21
687.96132459603712
  0
LINE
  8
_0-e_極細4
  6
CONTINUOUS
 62
    6
 10
1064.432283824425
 20
687.48797502548666
 11
1067.557283824425
 21
690.61297502548666
  0
LINE
  8
_0-e_極細4
  6
CONTINUOUS
 62
    6
 10
1064.432283824425
 20
690.13962545493632
 11
1067.557283824425
 21
693.26462545493632
  0
LINE
  8
_0-e_極細4
  6
CONTINUOUS
 62
    6
 10
1064.432283824425
 20
692.79127588438587
 11
1067.557283824425
 21
695.91627588438587
  0
LINE
  8
_0-e_極細4
  6
CONTINUOUS
 62
    6
 10
1064.432283824425
 20
695.4429263138353
 11
1067.557283824425
 21
698.56792631383553
  0
LINE
  8
_0-e_極細4
  6
CONTINUOUS
 62
    6
 10
1064.432283824425
 20
698.09457674328485
 11
1067.557283824425
 21
701.21957674328485
  0
LINE
  8
_0-e_極細4
  6
CONTINUOUS
 62
    6
 10
1064.432283824425
 20
700.74622717273439
 11
1067.5572838244243
 21
703.87122717273439
  0
LINE
  8
_0-e_極細4
  6
CONTINUOUS
 62
    6
 10
1064.432283824425
 20
703.39787760218405
 11
1067.557283824425
 21
706.52287760218405
  0
LINE
  8
_0-e_極細4
  6
CONTINUOUS
 62
    6
 10
1064.432283824425
 20
706.0495280316336
 11
1067.557283824425
 21
709.1745280316336
  0
LINE
  8
_0-e_極細4
  6
CONTINUOUS
 62
    6
 10
1064.432283824425
 20
708.70117846108326
 11
1067.557283824425
 21
711.82617846108326
  0
LINE
  8
_0-e_極細4
  6
CONTINUOUS
 62
    6
 10
1064.432283824425
 20
711.35282889053258
 11
1067.557283824425
 21
714.47782889053258
  0
LINE
  8
_0-e_極細4
  6
CONTINUOUS
 62
    6
 10
1064.432283824425
 20
714.00447931998247
 11
1067.557283824425
 21
717.12947931998247
  0
LINE
  8
_0-e_極細4
  6
CONTINUOUS
 62
    6
 10
1064.4322838244243
 20
716.65612974943178
 11
1067.557283824425
 21
719.78112974943178
  0
LINE
  8
_0-e_極細4
  6
CONTINUOUS
 62
    6
 10
1064.432283824425
 20
719.30778017888133
 11
1067.557283824425
 21
722.43278017888133
  0
LINE
  8
_0-e_極細4
  6
CONTINUOUS
 62
    6
 10
1064.432283824425
 20
721.95943060833099
 11
1067.557283824425
 21
725.08443060833076
  0
LINE
  8
_0-e_極細4
  6
CONTINUOUS
 62
    6
 10
1064.432283824425
 20
724.61108103778031
 11
1067.557283824425
 21
727.73608103778031
  0
LINE
  8
_0-e_極細4
  6
CONTINUOUS
 62
    6
 10
1064.432283824425
 20
727.2627314672302
 11
1067.5572838244243
 21
730.38773146722986
  0
LINE
  8
_0-e_極細4
  6
CONTINUOUS
 62
    6
 10
1064.432283824425
 20
729.91438189667952
 11
1067.5572838244243
 21
733.03938189667952
  0
LINE
  8
_0-e_極細4
  6
CONTINUOUS
 62
    6
 10
1064.4322838244243
 20
732.56603232612906
 11
1067.5572838244243
 21
735.69103232612906
  0
LINE
  8
_0-e_極細4
  6
CONTINUOUS
 62
    6
 10
1064.4322838244243
 20
735.21768275557872
 11
1067.6572553964431
 21
738.44265432759744
  0
LINE
  8
_0-e_極細4
  6
CONTINUOUS
 62
    6
 10
1064.432283824425
 20
737.86933318502793
 11
1070.682283824425
 21
744.11933318502793
  0
LINE
  8
_0-e_極細4
  6
CONTINUOUS
 62
    6
 10
1064.432283824425
 20
740.52098361447759
 11
1070.682283824425
 21
746.77098361447793
  0
LINE
  8
_0-e_極細4
  6
CONTINUOUS
 62
    6
 10
1064.432283824425
 20
743.17263404392725
 11
1066.7515670008067
 21
745.4919172203098
  0
LINE
  8
_0-e_極細4
  6
CONTINUOUS
 62
    6
 10
1066.8057896681585
 20
745.54613988766096
 11
1070.682283824425
 21
749.42263404392725
  0
LINE
  8
_0-e_極細4
  6
CONTINUOUS
 62
    6
 10
1074.0015670008072
 20
752.7419172203098
 11
1075.5572838244252
 21
754.29763404392713
  0
LINE
  8
_0-e_極細4
  6
CONTINUOUS
 62
    6
 10
1065.0849511490021
 20
746.47695179795517
 11
1070.682283824425
 21
752.07428447337679
  0
LINE
  8
_0-e_極細4
  6
CONTINUOUS
 62
    6
 10
1071.3499165713572
 20
752.74191722031003
 11
1075.5572838244252
 21
756.94928447337679
  0
LINE
  8
_0-e_極細4
  6
CONTINUOUS
 62
    6
 10
1065.057283824425
 20
749.10093490282645
 11
1075.5572838244252
 21
759.60093490282634
  0
LINE
  8
_0-e_極細4
  6
CONTINUOUS
 62
    6
 10
1066.9060338244242
 20
753.60133533227543
 11
1075.5572838244252
 21
762.25258533227577
  0
LINE
  8
_0-e_極細4
  6
CONTINUOUS
 62
    6
 10
1066.9060338244242
 20
756.25298576172486
 11
1075.5572838244252
 21
764.9042357617252
  0
LINE
  8
_0-e_極細4
  6
CONTINUOUS
 62
    6
 10
1066.9060338244242
 20
758.90463619117452
 11
1075.5572838244252
 21
767.55588619117486
  0
LINE
  8
_0-e_極細4
  6
CONTINUOUS
 62
    6
 10
1066.9060338244242
 20
761.55628662062372
 11
1075.5572838244252
 21
770.20753662062452
  0
LINE
  8
_0-e_極細4
  6
CONTINUOUS
 62
    6
 10
1066.9060338244242
 20
764.20793705007372
 11
1072.5979431134629
 21
769.89984633911206
  0
LINE
  8
_0-e_極細4
  6
CONTINUOUS
 62
    6
 10
1066.9060338244242
 20
766.85958747952316
 11
1069.5997283410031
 21
769.55328199610278
  0
LINE
  8
_0-e_極細4
  6
CONTINUOUS
 62
    6
 10
972.50979824805029
 20
637.99189632030505
 11
973.18228382442442
 21
638.66438189667963
  0
LINE
  8
_0-e_極細4
  6
CONTINUOUS
 62
    6
 10
969.8581478186004
 20
637.99189632030505
 11
973.18228382442442
 21
641.31603232612918
  0
LINE
  8
_0-e_極細4
  6
CONTINUOUS
 62
    6
 10
967.20649738915108
 20
637.99189632030505
 11
973.18228382442442
 21
643.96768275557883
  0
LINE
  8
_0-e_極細4
  6
CONTINUOUS
 62
    6
 10
964.5548469597004
 20
637.99189632030505
 11
973.18228382442521
 21
646.61933318502838
  0
LINE
  8
_0-e_極細4
  6
CONTINUOUS
 62
    6
 10
961.90319653025188
 20
637.99189632030505
 11
973.18228382442521
 21
649.27098361447793
  0
LINE
  8
_0-e_極細4
  6
CONTINUOUS
 62
    6
 10
959.25154610080256
 20
637.99189632030505
 11
971.75154610080256
 21
650.49189632030505
  0
LINE
  8
_0-e_極細4
  6
CONTINUOUS
 62
    6
 10
956.59989567135256
 20
637.99189632030505
 11
969.14960585098004
 21
650.5416064999331
  0
LINE
  8
_0-e_極細4
  6
CONTINUOUS
 62
    6
 10
953.95943098818623
 20
638.00308206658804
 11
966.86374377130414
 21
650.90739484970584
  0
LINE
  8
_0-e_極細4
  6
CONTINUOUS
 62
    6
 10
951.68218174818958
 20
638.37748325604127
 11
964.84937125238685
 21
651.54467276023809
  0
LINE
  8
_0-e_極細4
  6
CONTINUOUS
 62
    6
 10
949.78854945553906
 20
639.13550139283996
 11
963.05139133622845
 21
652.3983432735298
  0
LINE
  8
_0-e_極細4
  6
CONTINUOUS
 62
    6
 10
948.18492919743437
 20
640.18353156418493
 11
961.44054650893759
 21
653.43914887568815
  0
LINE
  8
_0-e_極細4
  6
CONTINUOUS
 62
    6
 10
946.83695474279284
 20
641.4872075389934
 11
960.00173625510865
 21
654.6519890513099
  0
LINE
  8
_0-e_極細4
  6
CONTINUOUS
 62
    6
 10
945.74213449829529
 20
643.04403772394505
 11
958.72943216165424
 21
656.03133538730378
  0
LINE
  8
_0-e_極細4
  6
CONTINUOUS
 62
    6
 10
944.9282236534815
 20
644.88177730858058
 11
957.62622251786513
 21
657.57977617296444
  0
LINE
  8
_0-e_極細4
  6
CONTINUOUS
 62
    6
 10
944.47401949437437
 20
647.07922357892369
 11
956.70347933937649
 21
659.30868342392546
  0
LINE
  8
_0-e_極細4
  6
CONTINUOUS
 62
    6
 10
944.43228382442487
 20
649.68913833842305
 11
955.98459380786437
 21
661.241448321863
  0
LINE
  8
_0-e_極細4
  6
CONTINUOUS
 62
    6
 10
944.43228382442487
 20
652.34078876787237
 11
955.51331151840168
 21
663.42181646184986
  0
LINE
  8
_0-e_極細4
  6
CONTINUOUS
 62
    6
 10
944.43228382442487
 20
654.99243919732226
 11
955.36978382442442
 21
665.92993919732191
  0
LINE
  8
_0-e_極細4
  6
CONTINUOUS
 62
    6
 10
944.43228382442487
 20
657.64408962677169
 11
955.36978382442442
 21
668.58158962677169
  0
LINE
  8
_0-e_極細4
  6
CONTINUOUS
 62
    6
 10
944.43228382442487
 20
660.29574005622123
 11
955.36978382442442
 21
671.23324005622112
  0
LINE
  8
_0-e_極細4
  6
CONTINUOUS
 62
    6
 10
944.43228382442487
 20
662.94739048567078
 11
955.36978382442442
 21
673.88489048567078
  0
LINE
  8
_0-e_極細4
  6
CONTINUOUS
 62
    6
 10
944.43228382442487
 20
665.59904091512044
 11
955.36978382442442
 21
676.5365409151201
  0
LINE
  8
_0-e_極細4
  6
CONTINUOUS
 62
    6
 10
944.43228382442487
 20
668.25069134456999
 11
955.36978382442442
 21
679.18819134456965
  0
LINE
  8
_0-e_極細4
  6
CONTINUOUS
 62
    6
 10
944.43228382442487
 20
670.90234177401942
 11
955.36978382442442
 21
681.83984177401942
  0
LINE
  8
_0-e_極細4
  6
CONTINUOUS
 62
    6
 10
944.43228382442442
 20
673.55399220346885
 11
955.36978382442442
 21
684.49149220346885
  0
LINE
  8
_0-e_極細4
  6
CONTINUOUS
 62
    6
 10
944.43228382442442
 20
676.20564263291851
 11
955.36978382442442
 21
687.14314263291817
  0
LINE
  8
_0-e_極細4
  6
CONTINUOUS
 62
    6
 10
944.43228382442442
 20
678.85729306236783
 11
955.36978382442442
 21
689.79479306236783
  0
LINE
  8
_0-e_極細4
  6
CONTINUOUS
 62
    6
 10
944.43228382442487
 20
681.50894349181772
 11
955.36978382442442
 21
692.44644349181772
  0
LINE
  8
_0-e_極細4
  6
CONTINUOUS
 62
    6
 10
944.43228382442487
 20
684.16059392126715
 11
955.36978382442442
 21
695.09809392126715
  0
LINE
  8
_0-e_極細4
  6
CONTINUOUS
 62
    6
 10
944.43228382442487
 20
686.81224435071658
 11
955.36978382442442
 21
697.74974435071658
  0
LINE
  8
_0-e_極細4
  6
CONTINUOUS
 62
    6
 10
944.43228382442487
 20
689.46389478016624
 11
955.36978382442442
 21
700.40139478016624
  0
LINE
  8
_0-e_極細4
  6
CONTINUOUS
 62
    6
 10
944.43228382442442
 20
692.11554520961556
 11
955.36978382442442
 21
703.05304520961556
  0
LINE
  8
_0-e_極細4
  6
CONTINUOUS
 62
    6
 10
944.43228382442442
 20
694.76719563906545
 11
955.36978382442442
 21
705.70469563906545
  0
LINE
  8
_0-e_極細4
  6
CONTINUOUS
 62
    6
 10
944.43228382442487
 20
697.41884606851488
 11
955.36978382442442
 21
708.35634606851488
  0
LINE
  8
_0-e_極細4
  6
CONTINUOUS
 62
    6
 10
944.43228382442487
 20
700.07049649796443
 11
954.76544647030005
 21
710.40365914383972
  0
LINE
  8
_0-e_極細4
  6
CONTINUOUS
 62
    6
 10
944.43228382442487
 20
702.72214692741397
 11
952.1137960408505
 21
710.40365914383972
  0
LINE
  8
_0-e_極細4
  6
CONTINUOUS
 62
    6
 10
944.43228382442487
 20
705.37379735686363
 11
949.46214561140005
 21
710.40365914383972
  0
LINE
  8
_0-e_極細4
  6
CONTINUOUS
 62
    6
 10
944.43228382442487
 20
708.02544778631318
 11
946.8104951819505
 21
710.40365914383972
  0
LINE
  8
_0-e_極細4
  6
CONTINUOUS
 62
    6
 10
944.43228382442487
 20
710.67709821576284
 11
944.66819830966858
 21
710.91301270100655
  0
LINE
  8
_0-e_極細4
  6
CONTINUOUS
 62
    6
 10
1058.0335950166871
 20
638.66287934655713
 11
1063.7613007981724
 21
644.39058512804183
  0
LINE
  8
_0-e_極細4
  6
CONTINUOUS
 62
    6
 10
1054.7149575820583
 20
637.99589234137727
 11
1064.4282878033525
 21
647.7092225626717
  0
LINE
  8
_0-e_極細4
  6
CONTINUOUS
 62
    6
 10
1052.0593111315366
 20
637.99189632030505
 11
1064.432283824425
 21
650.36486901319279
  0
LINE
  8
_0-e_極細4
  6
CONTINUOUS
 62
    6
 10
1049.4076607020868
 20
637.99189632030505
 11
1064.432283824425
 21
653.01651944264268
  0
LINE
  8
_0-e_極細4
  6
CONTINUOUS
 62
    6
 10
1046.7560102726372
 20
637.99189632030505
 11
1064.432283824425
 21
655.66816987209211
  0
LINE
  8
_0-e_極細4
  6
CONTINUOUS
 62
    6
 10
1044.1043598431881
 20
637.99189632030505
 11
1064.432283824425
 21
658.31982030154165
  0
LINE
  8
_0-e_極細4
  6
CONTINUOUS
 62
    6
 10
1041.4527094137381
 20
637.99189632030505
 11
1064.432283824425
 21
660.9714707309912
  0
LINE
  8
_0-e_極細4
  6
CONTINUOUS
 62
    6
 10
1038.8010589842881
 20
637.99189632030505
 11
1064.432283824425
 21
663.62312116044086
  0
LINE
  8
_0-e_極細4
  6
CONTINUOUS
 62
    6
 10
1036.1494085548391
 20
637.99189632030505
 11
1064.432283824425
 21
666.27477158989041
  0
LINE
  8
_0-e_極細4
  6
CONTINUOUS
 62
    6
 10
1035.6822838244236
 20
640.17642201933984
 11
1064.432283824425
 21
668.92642201934007
  0
LINE
  8
_0-e_極細4
  6
CONTINUOUS
 62
    6
 10
1035.6822838244236
 20
642.82807244878938
 11
1044.6812967745107
 21
651.82708539887597
  0
LINE
  8
_0-e_極細4
  6
CONTINUOUS
 62
    6
 10
1052.1595947458534
 20
659.30538337021835
 11
1064.432283824425
 21
671.57807244878938
  0
LINE
  8
_0-e_極細4
  6
CONTINUOUS
 62
    6
 10
1035.6822838244243
 20
645.4797228782387
 11
1040.8863350839499
 21
650.6837741377642
  0
LINE
  8
_0-e_極細4
  6
CONTINUOUS
 62
    6
 10
1053.3029060069655
 20
663.10034506078
 11
1064.432283824425
 21
674.22972287823927
  0
LINE
  8
_0-e_極細4
  6
CONTINUOUS
 62
    6
 10
1035.6822838244243
 20
648.13137330768825
 11
1038.0428068370404
 21
650.49189632030505
  0
LINE
  8
_0-e_極細4
  6
CONTINUOUS
 62
    6
 10
1053.494783824425
 20
665.94387330768859
 11
1064.432283824425
 21
676.88137330768825
  0
LINE
  8
_0-e_極細4
  6
CONTINUOUS
 62
    6
 10
1053.494783824425
 20
668.59552373713814
 11
1064.432283824425
 21
679.53302373713814
  0
LINE
  8
_0-e_極細4
  6
CONTINUOUS
 62
    6
 10
1053.494783824425
 20
671.24717416658757
 11
1064.432283824425
 21
682.18467416658757
  0
LINE
  8
_0-e_極細4
  6
CONTINUOUS
 62
    6
 10
1053.494783824425
 20
673.89882459603712
 11
1064.432283824425
 21
684.83632459603712
  0
LINE
  8
_0-e_極細4
  6
CONTINUOUS
 62
    6
 10
1053.494783824425
 20
676.55047502548666
 11
1064.432283824425
 21
687.48797502548666
  0
LINE
  8
_0-e_極細4
  6
CONTINUOUS
 62
    6
 10
1053.494783824425
 20
679.20212545493632
 11
1064.432283824425
 21
690.13962545493632
  0
LINE
  8
_0-e_極細4
  6
CONTINUOUS
 62
    6
 10
1053.494783824425
 20
681.85377588438587
 11
1064.432283824425
 21
692.79127588438587
  0
LINE
  8
_0-e_極細4
  6
CONTINUOUS
 62
    6
 10
1053.494783824425
 20
684.50542631383553
 11
1064.432283824425
 21
695.4429263138353
  0
LINE
  8
_0-e_極細4
  6
CONTINUOUS
 62
    6
 10
1053.494783824425
 20
687.15707674328485
 11
1064.432283824425
 21
698.09457674328485
  0
LINE
  8
_0-e_極細4
  6
CONTINUOUS
 62
    6
 10
1053.494783824425
 20
689.80872717273439
 11
1064.432283824425
 21
700.74622717273439
  0
LINE
  8
_0-e_極細4
  6
CONTINUOUS
 62
    6
 10
1053.494783824425
 20
692.46037760218405
 11
1064.432283824425
 21
703.39787760218405
  0
LINE
  8
_0-e_極細4
  6
CONTINUOUS
 62
    6
 10
1053.494783824425
 20
695.1120280316336
 11
1064.432283824425
 21
706.0495280316336
  0
LINE
  8
_0-e_極細4
  6
CONTINUOUS
 62
    6
 10
1053.494783824425
 20
697.76367846108326
 11
1064.432283824425
 21
708.70117846108326
  0
LINE
  8
_0-e_極細4
  6
CONTINUOUS
 62
    6
 10
1053.494783824425
 20
700.41532889053258
 11
1063.5197154227715
 21
710.44026048887963
  0
LINE
  8
_0-e_極細4
  6
CONTINUOUS
 62
    6
 10
1064.38587840585
 20
711.30642347195828
 11
1064.432283824425
 21
711.35282889053258
  0
LINE
  8
_0-e_極細4
  6
CONTINUOUS
 62
    6
 10
1053.4947838244243
 20
703.06697931998247
 11
1060.8314636482817
 21
710.40365914383926
  0
LINE
  8
_0-e_極細4
  6
CONTINUOUS
 62
    6
 10
1053.4947838244243
 20
705.71862974943178
 11
1058.1798132188312
 21
710.40365914383972
  0
LINE
  8
_0-e_極細4
  6
CONTINUOUS
 62
    6
 10
1053.494783824425
 20
708.37028017888133
 11
1055.5281627893826
 21
710.40365914383926
  0
LINE
  8
_0-e_極細4
  6
CONTINUOUS
 62
    6
 10
1004.2679313284406
 20
772.36689632030505
 11
1004.2679313284406
 21
773.61689632030505
  0
LINE
  8
_0-e_極細4
  6
CONTINUOUS
 62
    6
 10
1002.3929313284406
 20
772.36689632030505
 11
1002.3929313284406
 21
773.61689632030505
  0
LINE
  8
_0-e_極細4
  6
CONTINUOUS
 62
    6
 10
1000.5179313284406
 20
772.36689632030505
 11
1000.5179313284406
 21
773.61689632030505
  0
LINE
  8
_0-e_極細4
  6
CONTINUOUS
 62
    6
 10
998.64293132844057
 20
772.36689632030505
 11
998.64293132844057
 21
773.61689632030505
  0
LINE
  8
_0-e_極細4
  6
CONTINUOUS
 62
    6
 10
996.76793132844057
 20
772.36689632030505
 11
996.76793132844057
 21
773.61689632030505
  0
LINE
  8
_0-e_極細4
  6
CONTINUOUS
 62
    6
 10
994.89293132844057
 20
772.36689632030505
 11
994.89293132844057
 21
773.61689632030505
  0
LINE
  8
_0-e_極細4
  6
CONTINUOUS
 62
    6
 10
993.01793132844057
 20
772.36689632030505
 11
993.01793132844057
 21
773.61689632030505
  0
LINE
  8
_0-e_極細4
  6
CONTINUOUS
 62
    6
 10
991.14293132844057
 20
772.36689632030505
 11
991.14293132844057
 21
773.61689632030505
  0
LINE
  8
_0-e_極細4
  6
CONTINUOUS
 62
    6
 10
989.26793132844057
 20
772.36689632030505
 11
989.26793132844057
 21
773.61689632030505
  0
LINE
  8
_0-e_極細4
  6
CONTINUOUS
 62
    6
 10
987.39293132844125
 20
772.36689632030505
 11
987.39293132844125
 21
773.61689632030505
  0
LINE
  8
_0-e_極細4
  6
CONTINUOUS
 62
    6
 10
985.51793132844125
 20
772.36689632030505
 11
985.51793132844125
 21
773.61689632030505
  0
LINE
  8
_0-e_極細4
  6
CONTINUOUS
 62
    6
 10
983.64293132844125
 20
772.36689632030505
 11
983.64293132844125
 21
773.61689632030505
  0
LINE
  8
_0-e_極細4
  6
CONTINUOUS
 62
    6
 10
981.76793132844125
 20
772.36689632030505
 11
981.76793132844125
 21
773.61689632030505
  0
LINE
  8
_0-e_極細4
  6
CONTINUOUS
 62
    6
 10
979.89293132844125
 20
772.36689632030505
 11
979.89293132844125
 21
773.61689632030505
  0
LINE
  8
_0-e_極細4
  6
CONTINUOUS
 62
    6
 10
978.01793132844125
 20
772.36689632030505
 11
978.01793132844125
 21
773.61689632030505
  0
LINE
  8
_0-e_極細4
  6
CONTINUOUS
 62
    6
 10
976.14293132844125
 20
772.36689632030505
 11
976.14293132844125
 21
773.61689632030539
  0
LINE
  8
_0-e_極細4
  6
CONTINUOUS
 62
    6
 10
974.26793132844125
 20
772.36689632030505
 11
974.26793132844125
 21
773.61689632030539
  0
LINE
  8
_0-e_極細4
  6
CONTINUOUS
 62
    6
 10
972.39293132844125
 20
772.36689632030505
 11
972.39293132844125
 21
773.61689632030539
  0
LINE
  8
_0-e_極細4
  6
CONTINUOUS
 62
    6
 10
970.51793132844125
 20
772.36689632030505
 11
970.51793132844125
 21
773.61689632030539
  0
LINE
  8
_0-e_極細4
  6
CONTINUOUS
 62
    6
 10
968.64293132844125
 20
772.36689632030505
 11
968.64293132844125
 21
773.61689632030505
  0
LINE
  8
_0-e_極細4
  6
CONTINUOUS
 62
    6
 10
966.76793132844125
 20
772.36689632030505
 11
966.76793132844125
 21
773.61689632030505
  0
LINE
  8
_0-e_極細4
  6
CONTINUOUS
 62
    6
 10
964.89293132844125
 20
772.36689632030505
 11
964.89293132844125
 21
773.61689632030505
  0
LINE
  8
_0-e_極細4
  6
CONTINUOUS
 62
    6
 10
963.01793132844125
 20
772.36689632030505
 11
963.01793132844125
 21
773.61689632030505
  0
LINE
  8
_0-e_極細4
  6
CONTINUOUS
 62
    6
 10
961.14293132844125
 20
772.36689632030505
 11
961.14293132844125
 21
773.61689632030505
  0
LINE
  8
_0-e_極細4
  6
CONTINUOUS
 62
    6
 10
959.26793132844125
 20
772.36689632030505
 11
959.26793132844125
 21
773.61689632030505
  0
LINE
  8
_0-e_極細4
  6
CONTINUOUS
 62
    6
 10
957.39293132844125
 20
772.36689632030505
 11
957.39293132844125
 21
773.61689632030505
  0
LINE
  8
_0-e_極細4
  6
CONTINUOUS
 62
    6
 10
955.51793132844125
 20
772.36689632030505
 11
955.51793132844125
 21
773.61689632030505
  0
LINE
  8
_0-e_極細4
  6
CONTINUOUS
 62
    6
 10
953.64293132844125
 20
772.36689632030505
 11
953.64293132844125
 21
773.61689632030505
  0
LINE
  8
_0-e_極細4
  6
CONTINUOUS
 62
    6
 10
951.76793132844125
 20
772.36689632030505
 11
951.76793132844125
 21
773.61689632030505
  0
LINE
  8
_0-e_極細4
  6
CONTINUOUS
 62
    6
 10
949.89293132844125
 20
772.36689632030505
 11
949.89293132844125
 21
773.61689632030505
  0
LINE
  8
_0-e_極細4
  6
CONTINUOUS
 62
    6
 10
948.01793132844125
 20
772.36689632030505
 11
948.01793132844125
 21
773.61689632030505
  0
LINE
  8
_0-e_極細4
  6
CONTINUOUS
 62
    6
 10
946.14293132844125
 20
772.36689632030505
 11
946.14293132844125
 21
773.61689632030505
  0
LINE
  8
_0-e_極細4
  6
CONTINUOUS
 62
    6
 10
944.26793132844125
 20
772.36689632030505
 11
944.26793132844125
 21
773.61689632030505
  0
LINE
  8
_0-e_極細4
  6
CONTINUOUS
 62
    6
 10
942.39293132844125
 20
772.36689632030505
 11
942.39293132844125
 21
773.61689632030505
  0
LINE
  8
_0-e_極細4
  6
CONTINUOUS
 62
    6
 10
940.51793132844125
 20
772.36689632030505
 11
940.51793132844125
 21
773.61689632030505
  0
LINE
  8
_0-e_極細4
  6
CONTINUOUS
 62
    6
 10
938.64293132844125
 20
772.47298799740452
 11
938.64293132844125
 21
773.61689632030505
  0
LINE
  8
_0-e_極細4
  6
CONTINUOUS
 62
    6
 10
936.76793132844125
 20
772.74004397233682
 11
936.76793132844125
 21
773.61689632030505
  0
LINE
  8
_0-e_極細4
  6
CONTINUOUS
 62
    6
 10
934.89293132844125
 20
773.00709994726901
 11
934.89293132844125
 21
773.61689632030505
  0
LINE
  8
_0-e_極細4
  6
CONTINUOUS
 62
    6
 10
1075.5179313284405
 20
773.22733851841747
 11
1075.5179313284405
 21
773.61689632030505
  0
LINE
  8
_0-e_極細4
  6
CONTINUOUS
 62
    6
 10
1073.6429313284405
 20
772.96028254348528
 11
1073.6429313284405
 21
773.61689632030505
  0
LINE
  8
_0-e_極細4
  6
CONTINUOUS
 62
    6
 10
1071.7679313284405
 20
772.69322656855309
 11
1071.7679313284405
 21
773.61689632030505
  0
LINE
  8
_0-e_極細4
  6
CONTINUOUS
 62
    6
 10
1069.8929313284405
 20
772.42617059362078
 11
1069.8929313284405
 21
773.61689632030505
  0
LINE
  8
_0-e_極細4
  6
CONTINUOUS
 62
    6
 10
1068.0179313284405
 20
772.36689632030505
 11
1068.0179313284405
 21
773.61689632030505
  0
LINE
  8
_0-e_極細4
  6
CONTINUOUS
 62
    6
 10
1066.1429313284405
 20
772.36689632030505
 11
1066.1429313284405
 21
773.61689632030505
  0
LINE
  8
_0-e_極細4
  6
CONTINUOUS
 62
    6
 10
1064.2679313284405
 20
772.36689632030505
 11
1064.2679313284405
 21
773.61689632030539
  0
LINE
  8
_0-e_極細4
  6
CONTINUOUS
 62
    6
 10
1062.3929313284405
 20
772.36689632030505
 11
1062.3929313284405
 21
773.61689632030539
  0
LINE
  8
_0-e_極細4
  6
CONTINUOUS
 62
    6
 10
1060.5179313284405
 20
772.36689632030505
 11
1060.5179313284405
 21
773.61689632030539
  0
LINE
  8
_0-e_極細4
  6
CONTINUOUS
 62
    6
 10
1058.6429313284405
 20
772.36689632030505
 11
1058.6429313284405
 21
773.61689632030539
  0
LINE
  8
_0-e_極細4
  6
CONTINUOUS
 62
    6
 10
1056.7679313284405
 20
772.36689632030505
 11
1056.7679313284405
 21
773.61689632030505
  0
LINE
  8
_0-e_極細4
  6
CONTINUOUS
 62
    6
 10
1054.8929313284405
 20
772.36689632030505
 11
1054.8929313284405
 21
773.61689632030505
  0
LINE
  8
_0-e_極細4
  6
CONTINUOUS
 62
    6
 10
1053.0179313284405
 20
772.36689632030505
 11
1053.0179313284405
 21
773.61689632030505
  0
LINE
  8
_0-e_極細4
  6
CONTINUOUS
 62
    6
 10
1051.1429313284405
 20
772.36689632030505
 11
1051.1429313284405
 21
773.61689632030505
  0
LINE
  8
_0-e_極細4
  6
CONTINUOUS
 62
    6
 10
1049.2679313284405
 20
772.36689632030505
 11
1049.2679313284405
 21
773.61689632030505
  0
LINE
  8
_0-e_極細4
  6
CONTINUOUS
 62
    6
 10
1047.3929313284405
 20
772.36689632030505
 11
1047.3929313284405
 21
773.61689632030505
  0
LINE
  8
_0-e_極細4
  6
CONTINUOUS
 62
    6
 10
1045.5179313284405
 20
772.36689632030505
 11
1045.5179313284405
 21
773.61689632030505
  0
LINE
  8
_0-e_極細4
  6
CONTINUOUS
 62
    6
 10
1043.6429313284405
 20
772.36689632030505
 11
1043.6429313284405
 21
773.61689632030505
  0
LINE
  8
_0-e_極細4
  6
CONTINUOUS
 62
    6
 10
1041.7679313284405
 20
772.36689632030505
 11
1041.7679313284405
 21
773.61689632030505
  0
LINE
  8
_0-e_極細4
  6
CONTINUOUS
 62
    6
 10
1039.8929313284405
 20
772.36689632030505
 11
1039.8929313284405
 21
773.61689632030505
  0
LINE
  8
_0-e_極細4
  6
CONTINUOUS
 62
    6
 10
1038.0179313284405
 20
772.36689632030505
 11
1038.0179313284405
 21
773.61689632030505
  0
LINE
  8
_0-e_極細4
  6
CONTINUOUS
 62
    6
 10
1036.1429313284405
 20
772.36689632030505
 11
1036.1429313284405
 21
773.61689632030505
  0
LINE
  8
_0-e_極細4
  6
CONTINUOUS
 62
    6
 10
1034.2679313284405
 20
772.36689632030505
 11
1034.2679313284405
 21
773.61689632030505
  0
LINE
  8
_0-e_極細4
  6
CONTINUOUS
 62
    6
 10
1032.3929313284405
 20
772.36689632030505
 11
1032.3929313284405
 21
773.61689632030505
  0
LINE
  8
_0-e_極細4
  6
CONTINUOUS
 62
    6
 10
1030.5179313284405
 20
772.36689632030505
 11
1030.5179313284405
 21
773.61689632030505
  0
LINE
  8
_0-e_極細4
  6
CONTINUOUS
 62
    6
 10
1028.6429313284405
 20
772.36689632030505
 11
1028.6429313284405
 21
773.61689632030505
  0
LINE
  8
_0-e_極細4
  6
CONTINUOUS
 62
    6
 10
1026.7679313284405
 20
772.36689632030505
 11
1026.7679313284405
 21
773.61689632030505
  0
LINE
  8
_0-e_極細4
  6
CONTINUOUS
 62
    6
 10
1024.8929313284405
 20
772.36689632030505
 11
1024.8929313284405
 21
773.61689632030505
  0
LINE
  8
_0-e_極細4
  6
CONTINUOUS
 62
    6
 10
1023.0179313284406
 20
772.36689632030505
 11
1023.0179313284406
 21
773.61689632030505
  0
LINE
  8
_0-e_極細4
  6
CONTINUOUS
 62
    6
 10
1021.1429313284406
 20
772.36689632030505
 11
1021.1429313284406
 21
773.61689632030505
  0
LINE
  8
_0-e_極細4
  6
CONTINUOUS
 62
    6
 10
1019.2679313284406
 20
772.36689632030505
 11
1019.2679313284406
 21
773.61689632030505
  0
LINE
  8
_0-e_極細4
  6
CONTINUOUS
 62
    6
 10
1017.3929313284406
 20
772.36689632030505
 11
1017.3929313284406
 21
773.61689632030505
  0
LINE
  8
_0-e_極細4
  6
CONTINUOUS
 62
    6
 10
1015.5179313284406
 20
772.36689632030505
 11
1015.5179313284406
 21
773.61689632030505
  0
LINE
  8
_0-e_極細4
  6
CONTINUOUS
 62
    6
 10
1013.6429313284406
 20
772.36689632030505
 11
1013.6429313284406
 21
773.61689632030505
  0
LINE
  8
_0-e_極細4
  6
CONTINUOUS
 62
    6
 10
1011.7679313284406
 20
772.36689632030505
 11
1011.7679313284406
 21
773.61689632030505
  0
LINE
  8
_0-e_極細4
  6
CONTINUOUS
 62
    6
 10
1009.8929313284406
 20
772.36689632030505
 11
1009.8929313284406
 21
773.61689632030505
  0
LINE
  8
_0-e_極細4
  6
CONTINUOUS
 62
    6
 10
1008.0179313284406
 20
772.36689632030505
 11
1008.0179313284406
 21
773.61689632030505
  0
LINE
  8
_0-e_極細4
  6
CONTINUOUS
 62
    6
 10
1006.1429313284406
 20
772.36689632030505
 11
1006.1429313284406
 21
773.61689632030505
  0
LINE
  8
_0-e_極細4
  6
CONTINUOUS
 62
    6
 10
1066.1429313284405
 20
751.21139472432651
 11
1066.1429313284405
 21
770.88110995990905
  0
LINE
  8
_0-e_極細4
  6
CONTINUOUS
 62
    6
 10
1064.2679313284405
 20
750.12574722030968
 11
1064.2679313284405
 21
768.15070678024438
  0
LINE
  8
_0-e_極細4
  6
CONTINUOUS
 62
    6
 10
1062.3929313284405
 20
750.12574722030968
 11
1062.3929313284405
 21
768.00074722030956
  0
LINE
  8
_0-e_極細4
  6
CONTINUOUS
 62
    6
 10
1060.5179313284405
 20
750.12574722030968
 11
1060.5179313284405
 21
752.62574722030968
  0
LINE
  8
_0-e_極細4
  6
CONTINUOUS
 62
    6
 10
1058.6429313284405
 20
750.12574722030968
 11
1058.6429313284405
 21
752.62574722030968
  0
LINE
  8
_0-e_極細4
  6
CONTINUOUS
 62
    6
 10
949.89293132844125
 20
750.12574722030968
 11
949.89293132844125
 21
752.62574722030968
  0
LINE
  8
_0-e_極細4
  6
CONTINUOUS
 62
    6
 10
948.01793132844125
 20
750.12574722030968
 11
948.01793132844125
 21
767.32418240491654
  0
LINE
  8
_0-e_極細4
  6
CONTINUOUS
 62
    6
 10
946.14293132844125
 20
750.12574722030968
 11
946.14293132844125
 21
768.00074722030956
  0
LINE
  8
_0-e_極細4
  6
CONTINUOUS
 62
    6
 10
944.26793132844125
 20
750.12574722030968
 11
944.26793132844125
 21
768.31542926690133
  0
LINE
  8
_0-e_極細4
  6
CONTINUOUS
 62
    6
 10
942.39293132844125
 20
751.54009971629353
 11
942.39293132844125
 21
771.05177661378593
  0
LINE
  8
_0-e_極細4
  6
CONTINUOUS
 62
    6
 10
951.76793132844125
 20
750.25172097030963
 11
951.76793132844125
 21
755.12574722030968
  0
LINE
  8
_0-e_極細4
  6
CONTINUOUS
 62
    6
 10
1056.7679313284405
 20
750.25172097030963
 11
1056.7679313284405
 21
755.12574722030968
  0
LINE
  8
_0-e_極細4
  6
CONTINUOUS
 62
    6
 10
950.24478382442408
 20
759.58444486087967
 11
954.79372368385441
 21
759.58444486087967
  0
LINE
  8
_0-e_極細4
  6
CONTINUOUS
 62
    6
 10
950.13755174945334
 20
761.45944486087967
 11
954.94584396499431
 21
761.45944486087967
  0
LINE
  8
_0-e_極細4
  6
CONTINUOUS
 62
    6
 10
1054.070843964995
 20
759.58444486087967
 11
1058.6197838244241
 21
759.58444486087967
  0
LINE
  8
_0-e_極細4
  6
CONTINUOUS
 62
    6
 10
1053.9187236838541
 20
761.45944486087967
 11
1058.7270158993947
 21
761.45944486087967
  0
ARC
  8
_0-e_極細4
  6
CONTINUOUS
 62
    6
 10
963.18228382442442
 20
746.96952847030968
 40
7.5
 50
0
 51
24.886947317069822
  0
ARC
  8
_0-e_極細4
  6
CONTINUOUS
 62
    6
 10
961.30728382442442
 20
750.25172097030963
 40
3.75
 50
129.97050058003424
 51
181.92509931279531
  0
LINE
  8
_0-e_極細4
  6
CONTINUOUS
 62
    6
 10
969.98583313358256
 20
750.12574722030968
 11
957.55940033980153
 21
750.12574722030968
  0
ARC
  8
_0-e_極細4
  6
CONTINUOUS
 62
    6
 10
963.18228382442442
 20
746.96952847030968
 40
7.5
 50
24.886947317069822
 51
124.8337076438435
  0
LINE
  8
_0-e_極細4
  6
CONTINUOUS
 62
    6
 10
968.64293132844125
 20
750.12574722030968
 11
968.64293132844125
 21
752.11066928114906
  0
LINE
  8
_0-e_極細4
  6
CONTINUOUS
 62
    6
 10
966.76793132844125
 20
750.12574722030968
 11
966.76793132844125
 21
753.55687482350402
  0
LINE
  8
_0-e_極細4
  6
CONTINUOUS
 62
    6
 10
964.89293132844125
 20
750.12574722030968
 11
964.89293132844125
 21
754.27183530561865
  0
LINE
  8
_0-e_極細4
  6
CONTINUOUS
 62
    6
 10
963.01793132844125
 20
750.12574722030968
 11
963.01793132844125
 21
754.46772747120735
  0
LINE
  8
_0-e_極細4
  6
CONTINUOUS
 62
    6
 10
961.14293132844125
 20
750.12574722030968
 11
961.14293132844125
 21
754.1869408457477
  0
LINE
  8
_0-e_極細4
  6
CONTINUOUS
 62
    6
 10
959.26793132844125
 20
750.12574722030968
 11
959.26793132844125
 21
753.36701583154661
  0
ARC
  8
_0-e_極細4
  6
CONTINUOUS
 62
    6
 10
1045.6822838244243
 20
746.96952847030968
 40
7.5
 50
155.11305268293165
 51
179.99999999999983
  0
LINE
  8
_0-e_極細4
  6
CONTINUOUS
 62
    6
 10
1038.8787345152657
 20
750.12574722030968
 11
1051.3051673090472
 21
750.12574722030968
  0
ARC
  8
_0-e_極細4
  6
CONTINUOUS
 62
    6
 10
1047.5572838244243
 20
750.25172097030963
 40
3.75
 50
358.07490068720409
 51
50.029499419968097
  0
ARC
  8
_0-e_極細4
  6
CONTINUOUS
 62
    6
 10
1045.6822838244243
 20
746.96952847030968
 40
7.5
 50
55.166292356157925
 51
155.11305268293165
  0
LINE
  8
_0-e_極細4
  6
CONTINUOUS
 62
    6
 10
1051.1429313284405
 20
750.12574722030968
 11
1051.1429313284405
 21
751.34973371019078
  0
LINE
  8
_0-e_極細4
  6
CONTINUOUS
 62
    6
 10
1049.2679313284405
 20
750.12574722030968
 11
1049.2679313284405
 21
753.55687482350402
  0
LINE
  8
_0-e_極細4
  6
CONTINUOUS
 62
    6
 10
1047.3929313284405
 20
750.12574722030968
 11
1047.3929313284405
 21
754.27183530561865
  0
LINE
  8
_0-e_極細4
  6
CONTINUOUS
 62
    6
 10
1045.5179313284405
 20
750.12574722030968
 11
1045.5179313284405
 21
754.46772747120735
  0
LINE
  8
_0-e_極細4
  6
CONTINUOUS
 62
    6
 10
1043.6429313284405
 20
750.12574722030968
 11
1043.6429313284405
 21
754.1869408457477
  0
LINE
  8
_0-e_極細4
  6
CONTINUOUS
 62
    6
 10
1041.7679313284405
 20
750.12574722030968
 11
1041.7679313284405
 21
753.36701583154661
  0
LINE
  8
_0-e_極細4
  6
CONTINUOUS
 62
    6
 10
1039.8929313284405
 20
750.12574722030968
 11
1039.8929313284405
 21
751.73748376343599
  0
LINE
  8
_0-e_極細4
  6
CONTINUOUS
 62
    6
 10
1066.9060338244242
 20
770.08444486087967
 11
1074.1949510749043
 21
770.08444486087967
  0
LINE
  8
_0-e_極細4
  6
CONTINUOUS
 62
    6
 10
1067.5556748325748
 20
771.20944486087956
 11
1075.5572838244252
 21
771.20944486087956
  0
LINE
  8
_0-e_極細4
  6
CONTINUOUS
 62
    6
 10
1075.4542955731529
 20
772.33444486087978
 11
1075.5572838244252
 21
772.33444486087978
  0
LINE
  8
_0-e_極細4
  6
CONTINUOUS
 62
    6
 10
934.66961657394393
 20
770.08444486087967
 11
941.95853382442453
 21
770.08444486087967
  0
LINE
  8
_0-e_極細4
  6
CONTINUOUS
 62
    6
 10
933.30728382442373
 20
771.20944486087956
 11
941.30889281627321
 21
771.20944486087956
  0
LINE
  8
_0-e_極細4
  6
CONTINUOUS
 62
    6
 10
933.30728382442373
 20
772.33444486087978
 11
933.41027207569471
 21
772.33444486087978
  0
LINE
  8
_0-e_極細4
  6
DASHED2
 62
    6
 10
920.68850697682581
 20
662.5641590074564
 11
920.14284205539695
 21
672.69857126287832
  0
LINE
  8
_0-e_極細4
  6
DASHED2
 62
    6
 10
913.90188192010839
 20
678.61254062429509
 11
906.60693150319673
 21
678.6125406242644
  0
LINE
  8
_0-e_極細4
  6
DASHED2
 62
    6
 10
1108.1822838295791
 20
678.61254062426281
 11
1126.842537866989
 21
683.61254062417561
  0
LINE
  8
_0-e_極細4
  6
DASHED2
 62
    6
 10
1126.8425378669922
 20
683.61254062417686
 11
1135.6822838254111
 21
683.61254062415742
  0
LINE
  8
_0-e_極細4
  6
CONTINUOUS
 62
    6
 10
1166.4117777036449
 20
665.87940084104855
 11
1166.9322838254107
 21
666.39990696281461
  0
LINE
  8
_0-e_極細4
  6
CONTINUOUS
 62
    6
 10
1163.8100823765001
 20
665.9293559433529
 11
1166.9322838254107
 21
669.05155739226393
  0
LINE
  8
_0-e_極細4
  6
CONTINUOUS
 62
    6
 10
1161.208387049355
 20
665.97931104565748
 11
1166.9322838254107
 21
671.70320782171359
  0
LINE
  8
_0-e_極細4
  6
CONTINUOUS
 62
    6
 10
1158.606691722209
 20
666.02926614796206
 11
1166.9315593690692
 21
674.35413379482134
  0
LINE
  8
_0-e_極細4
  6
CONTINUOUS
 62
    6
 10
1156.0049963950644
 20
666.07922125026619
 11
1166.0905752166514
 21
676.16480007185305
  0
LINE
  8
_0-e_極細4
  6
CONTINUOUS
 62
    6
 10
1153.4033010679193
 20
666.12917635257088
 11
1164.0753909734792
 21
676.80126625812989
  0
LINE
  8
_0-e_極細4
  6
CONTINUOUS
 62
    6
 10
1150.8016057407747
 20
666.17913145487535
 11
1161.4736956463341
 21
676.85122136043458
  0
LINE
  8
_0-e_極細4
  6
CONTINUOUS
 62
    6
 10
1148.1999104136303
 20
666.22908655718004
 11
1158.8720003191881
 21
676.90117646273904
  0
LINE
  8
_0-e_極細4
  6
CONTINUOUS
 62
    6
 10
1145.598215086485
 20
666.27904165948439
 11
1156.2703049920435
 21
676.95113156504374
  0
LINE
  8
_0-e_極細4
  6
CONTINUOUS
 62
    6
 10
1142.996519759339
 20
666.32899676178886
 11
1153.6686096648991
 21
677.0010866673482
  0
LINE
  8
_0-e_極細4
  6
CONTINUOUS
 62
    6
 10
1141.4770512103621
 20
667.46117864226119
 11
1151.0669143377538
 21
677.0510417696529
  0
LINE
  8
_0-e_極細4
  6
CONTINUOUS
 62
    6
 10
1140.1972485388931
 20
668.83302640024158
 11
1148.4652190106087
 21
677.10099687195725
  0
LINE
  8
_0-e_極細4
  6
CONTINUOUS
 62
    6
 10
1138.5187634823581
 20
669.80619177315646
 11
1145.8635236834634
 21
677.15095197426172
  0
LINE
  8
_0-e_極細4
  6
CONTINUOUS
 62
    6
 10
1136.8376844720444
 20
670.7767631922917
 11
1143.2618283563181
 21
677.20090707656641
  0
LINE
  8
_0-e_極細4
  6
CONTINUOUS
 62
    6
 10
1135.1566054617308
 20
671.74733461142762
 11
1140.7854093311878
 21
677.37613848088517
  0
LINE
  8
_0-e_極細4
  6
CONTINUOUS
 62
    6
 10
1133.4755264514158
 20
672.71790603056331
 11
1138.8988088034205
 21
678.14118838256763
  0
LINE
  8
_0-e_極細4
  6
CONTINUOUS
 62
    6
 10
1131.7944474411022
 20
673.68847744969889
 11
1137.459446912947
 21
679.35347692154335
  0
LINE
  8
_0-e_極細4
  6
CONTINUOUS
 62
    6
 10
1130.1133684307893
 20
674.65904886883447
 11
1136.4301216920182
 21
680.97580213006438
  0
LINE
  8
_0-e_極細4
  6
CONTINUOUS
 62
    6
 10
1128.4322894204756
 20
675.62962028797017
 11
1135.8288690116613
 21
683.02619987915693
  0
LINE
  8
_0-e_極細4
  6
CONTINUOUS
 62
    6
 10
1126.7512104101604
 20
676.60019170710575
 11
1135.2985389257717
 21
685.14752022271648
  0
LINE
  8
_0-e_極細4
  6
CONTINUOUS
 62
    6
 10
1125.0701313998468
 20
677.57076312624167
 11
1134.7682088398813
 21
687.26884056627625
  0
LINE
  8
_0-e_極細4
  6
CONTINUOUS
 62
    6
 10
1123.3890523895332
 20
678.54133454537703
 11
1134.2378787539917
 21
689.39016090983603
  0
LINE
  8
_0-e_極細4
  6
CONTINUOUS
 62
    6
 10
1120.8086080388894
 20
678.61254062418209
 11
1133.3086080388682
 21
691.11254062416162
  0
LINE
  8
_0-e_極細4
  6
CONTINUOUS
 62
    6
 10
1118.1569576094562
 20
678.61254062419914
 11
1130.656957609428
 21
691.11254062417106
  0
LINE
  8
_0-e_極細4
  6
CONTINUOUS
 62
    6
 10
1115.5053071800228
 20
678.61254062421585
 11
1128.005307179988
 21
691.11254062418027
  0
LINE
  8
_0-e_極細4
  6
CONTINUOUS
 62
    6
 10
1112.8536567505917
 20
678.61254062423302
 11
1123.402332675141
 21
689.1612165487835
  0
LINE
  8
_0-e_極細4
  6
CONTINUOUS
 62
    6
 10
1110.2020063211585
 20
678.61254062424996
 11
1119.7801108265492
 21
688.19064512964121
  0
LINE
  8
_0-e_極細4
  6
CONTINUOUS
 62
    6
 10
1107.5503558917251
 20
678.61254062426713
 11
1116.1578889779576
 21
687.22007371049858
  0
LINE
  8
_0-e_極細4
  6
CONTINUOUS
 62
    6
 10
1104.8987054622928
 20
678.61254062428372
 11
1112.5356671293646
 21
686.24950229135652
  0
LINE
  8
_0-e_極細4
  6
CONTINUOUS
 62
    6
 10
1102.2470550328601
 20
678.61254062430078
 11
1108.9134452807734
 21
685.27893087221389
  0
LINE
  8
_0-e_極細4
  6
CONTINUOUS
 62
    6
 10
1099.5954046034274
 20
678.61254062431783
 11
1105.8454046033564
 21
684.86254062424666
  0
LINE
  8
_0-e_極細4
  6
CONTINUOUS
 62
    6
 10
1096.9437541739962
 20
678.61254062433488
 11
1103.1937541739153
 21
684.86254062425451
  0
LINE
  8
_0-e_極細4
  6
CONTINUOUS
 62
    6
 10
1094.2921037445631
 20
678.61254062435194
 11
1100.5421037444737
 21
684.86254062426281
  0
LINE
  8
_0-e_極細4
  6
CONTINUOUS
 62
    6
 10
1091.6404533151297
 20
678.61254062436888
 11
1097.8904533150326
 21
684.86254062427122
  0
LINE
  8
_0-e_極細4
  6
CONTINUOUS
 62
    6
 10
1088.9888028856985
 20
678.61254062438559
 11
1095.2388028855942
 21
684.86254062428259
  0
LINE
  8
_0-e_極細4
  6
CONTINUOUS
 62
    6
 10
1078.3822011678033
 20
678.61254062429009
 11
1088.1066343222487
 21
688.33697377873466
  0
LINE
  8
_0-e_極細4
  6
CONTINUOUS
 62
    6
 10
1075.7305507383669
 20
678.61254062430351
 11
1087.8346701756395
 21
690.71666006157568
  0
LINE
  8
_0-e_極細4
  6
CONTINUOUS
 62
    6
 10
1073.1822838257028
 20
678.71592414108807
 11
1079.328900308913
 21
684.86254062429839
  0
LINE
  8
_0-e_極細4
  6
CONTINUOUS
 62
    6
 10
1080.6822838257074
 20
686.21592414109284
 11
1087.5627060290306
 21
693.09634634441647
  0
LINE
  8
_0-e_極細4
  6
CONTINUOUS
 62
    6
 10
1073.1822838257044
 20
681.36757457053943
 11
1076.6772498794705
 21
684.86254062430635
  0
LINE
  8
_0-e_極細4
  6
CONTINUOUS
 62
    6
 10
1080.682283825709
 20
688.86757457054432
 11
1087.2907418824213
 21
695.47603262725727
  0
LINE
  8
_0-e_極細4
  6
CONTINUOUS
 62
    6
 10
1073.1822838257058
 20
684.01922499999057
 11
1074.0255994500303
 21
684.86254062431431
  0
LINE
  8
_0-e_極細4
  6
CONTINUOUS
 62
    6
 10
1080.6822838257112
 20
691.51922499999557
 11
1086.9810691846128
 21
697.81801035889714
  0
LINE
  8
_0-e_極細4
  6
CONTINUOUS
 62
    6
 10
1078.873949020566
 20
692.36254062429964
 11
1085.1239490205471
 21
698.61254062428145
  0
LINE
  8
_0-e_極細4
  6
CONTINUOUS
 62
    6
 10
1076.2222985911244
 20
692.36254062430805
 11
1082.4722985911055
 21
698.61254062428941
  0
LINE
  8
_0-e_極細4
  6
CONTINUOUS
 62
    6
 10
1073.5706481616814
 20
692.36254062431556
 11
1079.8206481616644
 21
698.61254062429725
  0
LINE
  8
_0-e_極細4
  6
CONTINUOUS
 62
    6
 10
1073.1822838257119
 20
694.62582671779512
 11
1077.1689977322221
 21
698.61254062430487
  0
LINE
  8
_0-e_極細4
  6
CONTINUOUS
 62
    6
 10
1073.1822838257128
 20
697.27747714724546
 11
1074.5173473027796
 21
698.61254062431283
  0
LINE
  8
_0-e_極細4
  6
CONTINUOUS
 62
    6
 10
1163.282293701501
 20
580.54875352596844
 11
1166.9322838254107
 21
584.19874364987834
  0
LINE
  8
_0-e_極細4
  6
CONTINUOUS
 62
    6
 10
1160.6805983743559
 20
580.59870862827268
 11
1166.9322838254107
 21
586.85039407932788
  0
LINE
  8
_0-e_極細4
  6
CONTINUOUS
 62
    6
 10
1158.0789030472113
 20
580.64866373057737
 11
1166.9322838254107
 21
589.50204450877754
  0
LINE
  8
_0-e_極細4
  6
CONTINUOUS
 62
    6
 10
1155.4772077200653
 20
580.69861883288183
 11
1166.149297625625
 21
591.37070873844073
  0
LINE
  8
_0-e_極細4
  6
CONTINUOUS
 62
    6
 10
1152.8755123929202
 20
580.74857393518653
 11
1163.5476022984801
 21
591.42066384074531
  0
LINE
  8
_0-e_極細4
  6
CONTINUOUS
 62
    6
 10
1150.2738170657756
 20
580.79852903749099
 11
1160.9459069713341
 21
591.47061894304989
  0
LINE
  8
_0-e_極細4
  6
CONTINUOUS
 62
    6
 10
1147.6721217386312
 20
580.84848413979546
 11
1158.344211644189
 21
591.52057404535435
  0
LINE
  8
_0-e_極細4
  6
CONTINUOUS
 62
    6
 10
1145.0704264114859
 20
580.89843924209993
 11
1155.7425163170444
 21
591.57052914765904
  0
LINE
  8
_0-e_極細4
  6
CONTINUOUS
 62
    6
 10
1142.4687310843408
 20
580.94839434440451
 11
1153.1408209899
 21
591.62048424996351
  0
LINE
  8
_0-e_極細4
  6
CONTINUOUS
 62
    6
 10
1139.717200271534
 20
580.84851396104818
 11
1150.5391256627547
 21
591.6704393522682
  0
LINE
  8
_0-e_極細4
  6
CONTINUOUS
 62
    6
 10
1135.3044527356531
 20
579.08741685461575
 11
1147.9374303356096
 21
591.72039445457267
  0
LINE
  8
_0-e_極細4
  6
CONTINUOUS
 62
    6
 10
1132.1822817718746
 20
578.61689632028754
 11
1145.335735008465
 21
591.77034955687702
  0
LINE
  8
_0-e_極細4
  6
CONTINUOUS
 62
    6
 10
1129.5306313424276
 20
578.61689632028879
 11
1138.2078519869253
 21
587.29411696478735
  0
LINE
  8
_0-e_極細4
  6
CONTINUOUS
 62
    6
 10
1141.8869190427993
 20
590.97318402066151
 11
1142.7340396813206
 21
591.82030465918183
  0
LINE
  8
_0-e_極細4
  6
CONTINUOUS
 62
    6
 10
1126.8789809129782
 20
578.61689632028992
 11
1133.2946542962188
 21
585.03256970353038
  0
LINE
  8
_0-e_極細4
  6
CONTINUOUS
 62
    6
 10
1124.2273304835298
 20
578.61689632029095
 11
1130.4773304835276
 21
584.86689632028833
  0
LINE
  8
_0-e_極細4
  6
CONTINUOUS
 62
    6
 10
1121.5756800540814
 20
578.6168963202922
 11
1127.8256800540782
 21
584.86689632028947
  0
LINE
  8
_0-e_極細4
  6
CONTINUOUS
 62
    6
 10
1118.9240296246335
 20
578.61689632029334
 11
1125.1740296246305
 21
584.86689632029061
  0
LINE
  8
_0-e_極細4
  6
CONTINUOUS
 62
    6
 10
1116.2723791951846
 20
578.61689632029436
 11
1122.5223791951821
 21
584.86689632029174
  0
LINE
  8
_0-e_極細4
  6
CONTINUOUS
 62
    6
 10
1113.6207287657367
 20
578.61689632029561
 11
1119.8707287657344
 21
584.86689632029288
  0
LINE
  8
_0-e_極細4
  6
CONTINUOUS
 62
    6
 10
1110.9690783362873
 20
578.61689632029675
 11
1117.2190783362857
 21
584.86689632029402
  0
LINE
  8
_0-e_極細4
  6
CONTINUOUS
 62
    6
 10
1108.3174279068396
 20
578.61689632029777
 11
1114.567427906836
 21
584.86689632029515
  0
LINE
  8
_0-e_極細4
  6
CONTINUOUS
 62
    6
 10
1105.6657774773912
 20
578.61689632029902
 11
1111.9157774773889
 21
584.86689632029629
  0
LINE
  8
_0-e_極細4
  6
CONTINUOUS
 62
    6
 10
1103.0141270479435
 20
578.61689632030016
 11
1109.2641270479396
 21
584.86689632029743
  0
LINE
  8
_0-e_極細4
  6
CONTINUOUS
 62
    6
 10
1100.3624766184948
 20
578.61689632030141
 11
1106.6124766184919
 21
584.86689632029857
  0
LINE
  8
_0-e_極細4
  6
CONTINUOUS
 62
    6
 10
1097.7108261890451
 20
578.61689632030254
 11
1103.9608261890428
 21
584.8668963202997
  0
LINE
  8
_0-e_極細4
  6
CONTINUOUS
 62
    6
 10
1095.059175759598
 20
578.61689632030357
 11
1101.3091757595948
 21
584.86689632030084
  0
LINE
  8
_0-e_極細4
  6
CONTINUOUS
 62
    6
 10
1092.4075253301487
 20
578.61689632030459
 11
1098.657525330146
 21
584.86689632030209
  0
LINE
  8
_0-e_極細4
  6
CONTINUOUS
 62
    6
 10
1089.755874900701
 20
578.61689632030584
 11
1096.005874900698
 21
584.86689632030345
  0
LINE
  8
_0-e_極細4
  6
CONTINUOUS
 62
    6
 10
1087.1042244712519
 20
578.61689632030698
 11
1093.3542244712496
 21
584.86689632030425
  0
LINE
  8
_0-e_極細4
  6
CONTINUOUS
 62
    6
 10
1084.4525740418039
 20
578.616896320308
 11
1090.702574041801
 21
584.86689632030539
  0
LINE
  8
_0-e_極細4
  6
CONTINUOUS
 62
    6
 10
1081.8009236123551
 20
578.61689632030925
 11
1088.0509236123526
 21
584.86689632030652
  0
LINE
  8
_0-e_極細4
  6
CONTINUOUS
 62
    6
 10
1079.1492731829071
 20
578.6168963203105
 11
1085.3992731829048
 21
584.86689632030777
  0
LINE
  8
_0-e_極細4
  6
CONTINUOUS
 62
    6
 10
1076.4976227534587
 20
578.61689632031164
 11
1082.7476227534562
 21
584.8668963203088
  0
LINE
  8
_0-e_極細4
  6
CONTINUOUS
 62
    6
 10
1073.8459723240101
 20
578.61689632031278
 11
1080.0959723240085
 21
584.86689632030993
  0
LINE
  8
_0-e_極細4
  6
CONTINUOUS
 62
    6
 10
1071.1943218945617
 20
578.6168963203138
 11
1077.4443218945594
 21
584.86689632031141
  0
LINE
  8
_0-e_極細4
  6
CONTINUOUS
 62
    6
 10
1068.5426714651139
 20
578.61689632031505
 11
1074.7926714651101
 21
584.86689632031232
  0
LINE
  8
_0-e_極細4
  6
CONTINUOUS
 62
    6
 10
1065.8910210356653
 20
578.61689632031619
 11
1072.1410210356623
 21
584.86689632031334
  0
LINE
  8
_0-e_極細4
  6
CONTINUOUS
 62
    6
 10
1063.2393706062176
 20
578.61689632031721
 11
1069.4893706062132
 21
584.86689632031448
  0
LINE
  8
_0-e_極細4
  6
CONTINUOUS
 62
    6
 10
1060.5877201767685
 20
578.61689632031846
 11
1066.8377201767662
 21
584.86689632031573
  0
LINE
  8
_0-e_極細4
  6
CONTINUOUS
 62
    6
 10
1057.9360697473192
 20
578.6168963203196
 11
1064.1860697473164
 21
584.8668963203171
  0
LINE
  8
_0-e_極細4
  6
CONTINUOUS
 62
    6
 10
1055.2844193178714
 20
578.61689632032073
 11
1061.5344193178685
 21
584.86689632031823
  0
LINE
  8
_0-e_極細4
  6
CONTINUOUS
 62
    6
 10
1052.6327688884223
 20
578.61689632032187
 11
1058.8827688884201
 21
584.86689632031914
  0
LINE
  8
_0-e_極細4
  6
CONTINUOUS
 62
    6
 10
1049.9811184589744
 20
578.61689632032301
 11
1056.2311184589714
 21
584.86689632032051
  0
LINE
  8
_0-e_極細4
  6
CONTINUOUS
 62
    6
 10
1047.3294680295255
 20
578.61689632032414
 11
1053.5794680295237
 21
584.86689632032164
  0
LINE
  8
_0-e_極細4
  6
CONTINUOUS
 62
    6
 10
1044.6778176000776
 20
578.61689632032528
 11
1050.9278176000753
 21
584.86689632032255
  0
LINE
  8
_0-e_極細4
  6
CONTINUOUS
 62
    6
 10
1042.0261671706292
 20
578.61689632032642
 11
1048.2761671706266
 21
584.86689632032392
  0
LINE
  8
_0-e_極細4
  6
CONTINUOUS
 62
    6
 10
1039.3745167411805
 20
578.61689632032744
 11
1045.6245167411789
 21
584.86689632032505
  0
LINE
  8
_0-e_極細4
  6
CONTINUOUS
 62
    6
 10
1036.7228663117321
 20
578.61689632032892
 11
1042.9728663117298
 21
584.86689632032596
  0
LINE
  8
_0-e_極細4
  6
CONTINUOUS
 62
    6
 10
1034.0712158822844
 20
578.61689632032983
 11
1040.3212158822821
 21
584.86689632032744
  0
LINE
  8
_0-e_極細4
  6
CONTINUOUS
 62
    6
 10
1031.4195654528357
 20
578.61689632033097
 11
1037.6695654528328
 21
584.86689632032846
  0
LINE
  8
_0-e_極細4
  6
CONTINUOUS
 62
    6
 10
1028.767915023388
 20
578.6168963203321
 11
1035.0179150233837
 21
584.86689632032937
  0
LINE
  8
_0-e_極細4
  6
CONTINUOUS
 62
    6
 10
1026.1162645939389
 20
578.61689632033324
 11
1032.3662645939366
 21
584.86689632033085
  0
LINE
  8
_0-e_極細4
  6
CONTINUOUS
 62
    6
 10
1023.4646141644896
 20
578.61689632033438
 11
1029.7146141644869
 21
584.86689632033188
  0
LINE
  8
_0-e_極細4
  6
CONTINUOUS
 62
    6
 10
1020.8129637350419
 20
578.61689632033551
 11
1027.0629637350403
 21
584.86689632033301
  0
LINE
  8
_0-e_極細4
  6
CONTINUOUS
 62
    6
 10
1018.1613133055929
 20
578.61689632033665
 11
1024.4113133055905
 21
584.86689632033415
  0
LINE
  8
_0-e_極細4
  6
CONTINUOUS
 62
    6
 10
1015.5096628761459
 20
578.61689632033801
 11
1021.7596628761419
 21
584.86689632033529
  0
LINE
  8
_0-e_極細4
  6
CONTINUOUS
 62
    6
 10
1012.858012446696
 20
578.61689632033915
 11
1019.1080124466941
 21
584.86689632033642
  0
LINE
  8
_0-e_極細4
  6
CONTINUOUS
 62
    6
 10
1010.2063620172481
 20
578.61689632034006
 11
1016.4563620172459
 21
584.86689632033767
  0
LINE
  8
_0-e_極細4
  6
CONTINUOUS
 62
    6
 10
1007.5547115877997
 20
578.6168963203412
 11
1013.8047115877974
 21
584.8668963203387
  0
LINE
  8
_0-e_極細4
  6
CONTINUOUS
 62
    6
 10
1004.903061158351
 20
578.61689632034256
 11
1011.1530611583493
 21
584.86689632033983
  0
LINE
  8
_0-e_極細4
  6
CONTINUOUS
 62
    6
 10
1004.4322838244244
 20
580.79776941586431
 11
1008.5014107289004
 21
584.86689632034108
  0
LINE
  8
_0-e_極細4
  6
CONTINUOUS
 62
    6
 10
1004.4322838244244
 20
583.44941984531363
 11
1005.8497602994527
 21
584.86689632034222
  0
LINE
  8
_0-e_極細4
  6
CONTINUOUS
 62
    6
 10
1002.2514107289032
 20
578.61689632034347
 11
1004.4322838244244
 21
580.79776941586431
  0
LINE
  8
_0-e_極細4
  6
CONTINUOUS
 62
    6
 10
999.59976029945494
 20
578.61689632034461
 11
1004.4322838244244
 21
583.44941984531363
  0
LINE
  8
_0-e_極細4
  6
CONTINUOUS
 62
    6
 10
996.94810987000619
 20
578.61689632034575
 11
1003.1981098700032
 21
584.86689632034324
  0
LINE
  8
_0-e_極細4
  6
CONTINUOUS
 62
    6
 10
994.29645944055846
 20
578.61689632034711
 11
1000.5464594405555
 21
584.86689632034449
  0
LINE
  8
_0-e_極細4
  6
CONTINUOUS
 62
    6
 10
991.64480901110949
 20
578.61689632034825
 11
997.89480901110721
 21
584.86689632034563
  0
LINE
  8
_0-e_極細4
  6
CONTINUOUS
 62
    6
 10
988.99315858166176
 20
578.61689632034916
 11
995.24315858165733
 21
584.86689632034688
  0
LINE
  8
_0-e_極細4
  6
CONTINUOUS
 62
    6
 10
986.34150815221255
 20
578.61689632035052
 11
992.59150815221074
 21
584.86689632034791
  0
LINE
  8
_0-e_極細4
  6
CONTINUOUS
 62
    6
 10
983.68985772276335
 20
578.61689632035166
 11
989.93985772276108
 21
584.86689632034904
  0
LINE
  8
_0-e_極細4
  6
CONTINUOUS
 62
    6
 10
981.0382072933163
 20
578.61689632035279
 11
987.28820729331403
 21
584.86689632035029
  0
LINE
  8
_0-e_極細4
  6
CONTINUOUS
 62
    6
 10
978.38655686386642
 20
578.6168963203537
 11
984.63655686386483
 21
584.86689632035132
  0
LINE
  8
_0-e_極細4
  6
CONTINUOUS
 62
    6
 10
975.73490643441983
 20
578.61689632035484
 11
981.9849064344163
 21
584.86689632035257
  0
LINE
  8
_0-e_極細4
  6
CONTINUOUS
 62
    6
 10
973.08325600497017
 20
578.6168963203562
 11
979.33325600496789
 21
584.8668963203537
  0
LINE
  8
_0-e_極細4
  6
CONTINUOUS
 62
    6
 10
970.43160557552164
 20
578.61689632035711
 11
976.68160557551982
 21
584.86689632035473
  0
LINE
  8
_0-e_極細4
  6
CONTINUOUS
 62
    6
 10
967.77995514607392
 20
578.61689632035825
 11
974.02995514607096
 21
584.86689632035598
  0
LINE
  8
_0-e_極細4
  6
CONTINUOUS
 62
    6
 10
965.12830471662539
 20
578.61689632035961
 11
971.37830471662312
 21
584.86689632035711
  0
LINE
  8
_0-e_極細4
  6
CONTINUOUS
 62
    6
 10
962.47665428717698
 20
578.61689632036075
 11
968.72665428717391
 21
584.86689632035825
  0
LINE
  8
_0-e_極細4
  6
CONTINUOUS
 62
    6
 10
959.82500385772892
 20
578.61689632036189
 11
966.07500385772619
 21
584.86689632035939
  0
LINE
  8
_0-e_極細4
  6
CONTINUOUS
 62
    6
 10
957.17335342827994
 20
578.61689632036303
 11
963.42335342827766
 21
584.86689632036052
  0
LINE
  8
_0-e_極細4
  6
CONTINUOUS
 62
    6
 10
954.52170299883221
 20
578.61689632036416
 11
960.77170299882994
 21
584.86689632036166
  0
LINE
  8
_0-e_極細4
  6
CONTINUOUS
 62
    6
 10
951.87005256938301
 20
578.6168963203653
 11
958.12005256938119
 21
584.8668963203628
  0
LINE
  8
_0-e_極細4
  6
CONTINUOUS
 62
    6
 10
949.21840213993528
 20
578.61689632036644
 11
955.46840213993346
 21
584.86689632036416
  0
LINE
  8
_0-e_極細4
  6
CONTINUOUS
 62
    6
 10
946.56675171048676
 20
578.61689632036757
 11
952.81675171048448
 21
584.86689632036507
  0
LINE
  8
_0-e_極細4
  6
CONTINUOUS
 62
    6
 10
943.91510128103721
 20
578.61689632036871
 11
950.16510128103528
 21
584.86689632036621
  0
LINE
  8
_0-e_極細4
  6
CONTINUOUS
 62
    6
 10
941.26345085159016
 20
578.61689632036985
 11
947.51345085158755
 21
584.86689632036735
  0
LINE
  8
_0-e_極細4
  6
CONTINUOUS
 62
    6
 10
938.61180042214062
 20
578.61689632037098
 11
944.86180042213834
 21
584.86689632036871
  0
LINE
  8
_0-e_極細4
  6
CONTINUOUS
 62
    6
 10
936.00426619822827
 20
578.66101252590772
 11
942.21014999269016
 21
584.86689632036985
  0
LINE
  8
_0-e_極細4
  6
CONTINUOUS
 62
    6
 10
933.75230264303525
 20
579.06069940016357
 11
939.55849956324175
 21
584.86689632037098
  0
LINE
  8
_0-e_極細4
  6
CONTINUOUS
 62
    6
 10
931.8098678154189
 20
579.76991500199631
 11
936.90837199121518
 21
584.86841917779293
  0
LINE
  8
_0-e_極細4
  6
CONTINUOUS
 62
    6
 10
930.11065733666544
 20
580.72235495269399
 11
934.70878777685232
 21
585.32048539288019
  0
LINE
  8
_0-e_極細4
  6
CONTINUOUS
 62
    6
 10
928.6237613869456
 20
581.88710943242336
 11
933.04899203794196
 21
586.31234008342005
  0
LINE
  8
_0-e_極細4
  6
CONTINUOUS
 62
    6
 10
927.33750093645642
 20
583.25249941138338
 11
931.80199074574932
 21
587.71698922067696
  0
LINE
  8
_0-e_極細4
  6
CONTINUOUS
 62
    6
 10
926.25466173145685
 20
584.82131063583415
 11
930.99335261018098
 21
589.56000151455703
  0
LINE
  8
_0-e_極細4
  6
CONTINUOUS
 62
    6
 10
925.39356950347212
 20
586.61186883729806
 11
930.74217136718346
 21
591.96047070100974
  0
LINE
  8
_0-e_極細4
  6
CONTINUOUS
 62
    6
 10
924.79614385766297
 20
588.66609362093857
 11
930.60732400510221
 21
594.47727376837884
  0
LINE
  8
_0-e_極細4
  6
CONTINUOUS
 62
    6
 10
924.53848503359939
 20
591.06008522632499
 11
930.47247664302233
 21
596.99407683574748
  0
LINE
  8
_0-e_極細4
  6
CONTINUOUS
 62
    6
 10
924.40300730256001
 20
593.57625792473516
 11
930.33762928094177
 21
599.51087990311646
  0
LINE
  8
_0-e_極細4
  6
CONTINUOUS
 62
    6
 10
924.26752957152064
 20
596.09243062314567
 11
930.20278191886052
 21
602.02768297048499
  0
LINE
  8
_0-e_極細4
  6
CONTINUOUS
 62
    6
 10
924.13205184048127
 20
598.60860332155573
 11
930.06793455678064
 21
604.54448603785397
  0
LINE
  8
_0-e_極細4
  6
CONTINUOUS
 62
    6
 10
923.99657410944189
 20
601.12477601996625
 11
929.93308719470008
 21
607.06128910522295
  0
LINE
  8
_0-e_極細4
  6
CONTINUOUS
 62
    6
 10
923.86109637840252
 20
603.64094871837653
 11
929.79823983261838
 21
609.57809217259171
  0
LINE
  8
_0-e_極細4
  6
CONTINUOUS
 62
    6
 10
923.72561864736315
 20
606.15712141678671
 11
929.66339247053713
 21
612.09489523996047
  0
LINE
  8
_0-e_極細4
  6
CONTINUOUS
 62
    6
 10
923.59014091632559
 20
608.673294115197
 11
929.52854510845725
 21
614.61169830732945
  0
LINE
  8
_0-e_極細4
  6
CONTINUOUS
 62
    6
 10
923.45466318528622
 20
611.18946681360751
 11
929.39369774637669
 21
617.12850137469798
  0
LINE
  8
_0-e_極細4
  6
CONTINUOUS
 62
    6
 10
923.31918545424685
 20
613.7056395120178
 11
929.25885038429544
 21
619.64530444206673
  0
LINE
  8
_0-e_極細4
  6
CONTINUOUS
 62
    6
 10
923.18370772320748
 20
616.22181221042808
 11
929.12400302221556
 21
622.16210750943571
  0
LINE
  8
_0-e_極細4
  6
CONTINUOUS
 62
    6
 10
923.0482299921681
 20
618.73798490883826
 11
928.98915566013386
 21
624.67891057680447
  0
LINE
  8
_0-e_極細4
  6
CONTINUOUS
 62
    6
 10
922.91275226112873
 20
621.25415760724866
 11
928.8543082980533
 21
627.19571364417345
  0
LINE
  8
_0-e_極細4
  6
CONTINUOUS
 62
    6
 10
922.77727453008936
 20
623.77033030565883
 11
928.71946093597205
 21
629.71251671154221
  0
LINE
  8
_0-e_極細4
  6
CONTINUOUS
 62
    6
 10
922.64179679904998
 20
626.28650300406912
 11
928.58461357389217
 21
632.22931977891119
  0
LINE
  8
_0-e_極細4
  6
CONTINUOUS
 62
    6
 10
922.50631906801061
 20
628.80267570247963
 11
928.44976621181161
 21
634.7461228462796
  0
LINE
  8
_0-e_極細4
  6
CONTINUOUS
 62
    6
 10
922.37084133697238
 20
631.31884840089003
 11
928.31491884973036
 21
637.2629259136487
  0
LINE
  8
_0-e_極細4
  6
CONTINUOUS
 62
    6
 10
922.235363605933
 20
633.83502109930021
 11
928.18007148765048
 21
639.77972898101746
  0
LINE
  8
_0-e_極細4
  6
CONTINUOUS
 62
    6
 10
922.09988587489363
 20
636.35119379771049
 11
928.04522412556878
 21
642.29653204838633
  0
LINE
  8
_0-e_極細4
  6
CONTINUOUS
 62
    6
 10
921.96440814385426
 20
638.86736649612078
 11
927.91037676348822
 21
644.81333511575508
  0
LINE
  8
_0-e_極細4
  6
CONTINUOUS
 62
    6
 10
921.82893041281488
 20
641.38353919453095
 11
927.77552940140697
 21
647.33013818312372
  0
LINE
  8
_0-e_極細4
  6
CONTINUOUS
 62
    6
 10
921.69345268177551
 20
643.89971189294158
 11
927.64068203932709
 21
649.8469412504927
  0
LINE
  8
_0-e_極細4
  6
CONTINUOUS
 62
    6
 10
921.55797495073614
 20
646.41588459135176
 11
927.50583467724653
 21
652.36374431786146
  0
LINE
  8
_0-e_極細4
  6
CONTINUOUS
 62
    6
 10
921.42249721969677
 20
648.93205728976204
 11
927.37098731516528
 21
654.88054738523044
  0
LINE
  8
_0-e_極細4
  6
CONTINUOUS
 62
    6
 10
921.28701948865785
 20
651.44822998817233
 11
927.2361399530854
 21
657.39735045259908
  0
LINE
  8
_0-e_極細4
  6
CONTINUOUS
 62
    6
 10
921.15154175761847
 20
653.96440268658284
 11
927.1012925910037
 21
659.91415351996784
  0
LINE
  8
_0-e_極細4
  6
CONTINUOUS
 62
    6
 10
921.0160640265791
 20
656.48057538499279
 11
926.96644522892313
 21
662.43095658733648
  0
LINE
  8
_0-e_極細4
  6
CONTINUOUS
 62
    6
 10
920.88058629553973
 20
658.99674808340308
 11
926.83159786684189
 21
664.94775965470569
  0
LINE
  8
_0-e_極細4
  6
CONTINUOUS
 62
    6
 10
920.74510856450036
 20
661.51292078181359
 11
926.69675050476201
 21
667.46456272207456
  0
LINE
  8
_0-e_極細4
  6
CONTINUOUS
 62
    6
 10
920.39953838105009
 20
663.81900102781231
 11
926.56190314268144
 21
669.98136578944298
  0
LINE
  8
_0-e_極細4
  6
CONTINUOUS
 62
    6
 10
919.2491825650967
 20
665.32029564130892
 11
926.44517849736019
 21
672.51629157357172
  0
LINE
  8
_0-e_極細4
  6
CONTINUOUS
 62
    6
 10
917.36595428304656
 20
666.08871778870798
 11
925.70524743606472
 21
674.42801094172682
  0
LINE
  8
_0-e_極細4
  6
CONTINUOUS
 62
    6
 10
914.73812668918515
 20
666.11254062429691
 11
924.37942222134154
 21
675.75383615645183
  0
LINE
  8
_0-e_極細4
  6
CONTINUOUS
 62
    6
 10
912.62944959020149
 20
666.65551395476302
 11
923.05359700661654
 21
677.07966137117648
  0
LINE
  8
_0-e_極細4
  6
CONTINUOUS
 62
    6
 10
911.31973016798213
 20
667.99744496199139
 11
921.72777179189154
 21
678.40548658590149
  0
LINE
  8
_0-e_極細4
  6
CONTINUOUS
 62
    6
 10
910.78653327022778
 20
670.11589849368772
 11
920.40194657716654
 21
679.7313118006258
  0
LINE
  8
_0-e_極細4
  6
CONTINUOUS
 62
    6
 10
910.57320750418342
 20
672.55422315709222
 11
919.07612136244154
 21
681.0571370153508
  0
LINE
  8
_0-e_極細4
  6
CONTINUOUS
 62
    6
 10
910.35988173813791
 20
674.99254782049638
 11
917.75029614771768
 21
682.38296223007569
  0
LINE
  8
_0-e_極細4
  6
CONTINUOUS
 62
    6
 10
909.69937616343361
 20
676.98369267524231
 11
916.42447093299268
 21
683.70878744480035
  0
LINE
  8
_0-e_極細4
  6
CONTINUOUS
 62
    6
 10
908.28177732439769
 20
678.21774426565571
 11
914.92657368301764
 21
684.86254062427463
  0
LINE
  8
_0-e_極細4
  6
CONTINUOUS
 62
    6
 10
906.02492325344713
 20
678.61254062415446
 11
912.27492325355627
 21
684.86254062426315
  0
LINE
  8
_0-e_極細4
  6
CONTINUOUS
 62
    6
 10
903.37327282349622
 20
678.61254062365379
 11
909.62327282409717
 21
684.86254062425417
  0
LINE
  8
_0-e_極細4
  6
CONTINUOUS
 62
    6
 10
900.72162239354668
 20
678.61254062315356
 11
906.97162239464376
 21
684.8625406242503
  0
LINE
  8
_0-e_極細4
  6
CONTINUOUS
 62
    6
 10
898.62201841658236
 20
679.16458707563845
 11
904.31997196519035
 21
684.86254062424621
  0
LINE
  8
_0-e_極細4
  6
CONTINUOUS
 62
    6
 10
896.53072765724073
 20
679.72494674574637
 11
901.66832153573694
 21
684.86254062424211
  0
LINE
  8
_0-e_極細4
  6
CONTINUOUS
 62
    6
 10
894.43943689789864
 20
680.28530641585394
 11
899.54254052869328
 21
685.38841004664789
  0
LINE
  8
_0-e_極細4
  6
CONTINUOUS
 62
    6
 10
892.3481461385569
 20
680.84566608596162
 11
897.45124976935188
 21
685.94876971675592
  0
LINE
  8
_0-e_極細4
  6
CONTINUOUS
 62
    6
 10
890.25685537921493
 20
681.4060257560692
 11
895.35995901000945
 21
686.50912938686349
  0
LINE
  8
_0-e_極細4
  6
CONTINUOUS
 62
    6
 10
888.16556461987329
 20
681.96638542617711
 11
893.26866825066827
 21
687.06948905697129
  0
LINE
  8
_0-e_極細4
  6
CONTINUOUS
 62
    6
 10
886.07427386053121
 20
682.52674509628469
 11
891.17737749132584
 21
687.62984872707887
  0
LINE
  8
_0-e_極細4
  6
CONTINUOUS
 62
    6
 10
883.98298310118946
 20
683.0871047663926
 11
889.08608673198262
 21
688.19020839718678
  0
LINE
  8
_0-e_極細4
  6
CONTINUOUS
 62
    6
 10
881.85676852952372
 20
683.6125406241764
 11
886.99479597264201
 21
688.75056806729435
  0
LINE
  8
_0-e_極細4
  6
CONTINUOUS
 62
    6
 10
879.20511810006883
 20
683.61254062417106
 11
884.9035052132989
 21
689.31092773740204
  0
LINE
  8
_0-e_極細4
  6
CONTINUOUS
 62
    6
 10
876.55346767061349
 20
683.61254062416504
 11
882.8122144539584
 21
689.8712874075095
  0
LINE
  8
_0-e_極細4
  6
CONTINUOUS
 62
    6
 10
873.90181724115848
 20
683.61254062415935
 11
881.40181724118054
 21
691.11254062418243
  0
LINE
  8
_0-e_極細4
  6
CONTINUOUS
 62
    6
 10
873.82632282998031
 20
686.18869664243084
 11
878.75016681172212
 21
691.11254062417299
  0
LINE
  8
_0-e_極細4
  6
CONTINUOUS
 62
    6
 10
874.71020630646183
 20
689.7242305483627
 11
876.09851638226348
 21
691.11254062416356
  0
ARC
  8
_0-e_極細4
  6
DASHED2
 62
    6
 10
913.90188192013454
 20
672.36254062429543
 40
6.25
 50
3.0819880307200056
 51
89.999999999999915
  0
LINE
  8
_0-e_極細4
  6
CENTER1
 62
    6
 10
915.38943870676565
 20
689.16323705344155
 11
931.43886987755707
 21
673.11380588265195
  0
LINE
  8
_0-e_極細4
  6
CENTER1
 62
    6
 10
910.68228382577547
 20
699.35818809259342
 11
910.68228382577547
 21
681.10444483942968
  0
LINE
  8
_0-e_極細4
  6
CENTER1
 62
    6
 10
1199.7053515162838
 20
628.6125406241573
 11
1117.5852385951571
 21
628.6125406241573
  0
LINE
  8
_0-e_極細4
  6
CENTER1
 62
    6
 10
1093.4751289440574
 20
687.91323705344109
 11
1077.4256977732655
 21
671.86380588265195
  0
LINE
  8
_0-e_極細4
  6
CENTER1
 62
    6
 10
1098.1822838250453
 20
699.35818809259342
 11
1098.1822838250453
 21
681.10444483942968
  0
LINE
  8
_0-e_極細4
  6
CONTINUOUS
 62
    6
 10
930.68228382541122
 20
692.36254062436512
 11
928.18228382531618
 21
692.36254062434898
  0
LINE
  8
_0-e_極細4
  6
CONTINUOUS
 62
    6
 10
935.68228382531618
 20
692.36254062436512
 11
930.68228382541122
 21
692.36254062436512
  0
ARC
  8
_0-e_極細4
  6
CONTINUOUS
 62
    6
 10
1071.9322838254104
 20
685.08778574642122
 40
1.25
 50
0.0000000750074332
 51
78.690067525947086
  0
LINE
  8
_0-e_極細4
  6
CONTINUOUS
 62
    6
 10
1073.1822838254111
 20
685.08778574642122
 11
1073.182283825706
 21
684.86254062431669
  0
LINE
  8
_0-e_極細4
  6
CONTINUOUS
 62
    6
 10
1078.1822838254111
 20
684.86254062429441
 11
1073.182283825706
 21
684.86254062431669
  0
ARC
  8
_0-e_極細4
  6
CONTINUOUS
 62
    6
 10
1078.1822838254111
 20
686.11254062481964
 40
1.25
 50
269.99999999999977
 51
359.99999999999966
  0
LINE
  8
_0-e_極細4
  6
CONTINUOUS
 62
    6
 10
1079.4322838254104
 20
691.11254062481987
 11
1079.4322838254104
 21
686.11254062481964
  0
LINE
  8
_0-e_極細4
  6
CONTINUOUS
 62
    6
 10
1080.682283825706
 20
684.86254062429441
 11
1078.1822838254111
 21
684.86254062429441
  0
LINE
  8
_0-e_極細4
  6
CONTINUOUS
 62
    6
 10
1094.8438498973098
 20
684.86254062427918
 11
1088.5938498973364
 21
678.6125406243882
  0
LINE
  8
_0-e_極細4
  6
CONTINUOUS
 62
    6
 10
1088.5938498973364
 20
678.6125406243882
 11
1123.2657198432614
 21
678.61254062416617
  0
LINE
  8
_0-e_極細4
  6
CONTINUOUS
 62
    6
 10
1140.0703623998641
 20
668.91037572045832
 11
1123.2657198432614
 21
678.61254062416617
  0
ARC
  8
_0-e_極細4
  6
CONTINUOUS
 62
    6
 10
1138.1822838254111
 20
665.67036656974767
 40
3.75
 50
10.451459140746355
 51
59.768991431912113
  0
LINE
  8
_0-e_極細4
  6
CONTINUOUS
 62
    6
 10
1166.9322838254129
 20
665.86940661294204
 11
1141.8700673662431
 21
666.35062575268239
  0
ARC
  8
_0-e_極細4
  6
CONTINUOUS
 62
    6
 10
1138.1822838254111
 20
665.67036656974767
 40
3.75
 50
0
 51
10.451459140746355
  0
LINE
  8
_0-e_極細4
  6
CONTINUOUS
 62
    6
 10
1073.1822838257012
 20
678.6125406243882
 11
1088.5938498973364
 21
678.6125406243882
  0
LINE
  8
_0-e_極細4
  6
CONTINUOUS
 62
    6
 10
1132.1923373252848
 20
584.86689632028754
 11
937.04633357525825
 21
584.86689632037189
  0
LINE
  8
_0-e_極細4
  6
CONTINUOUS
 62
    6
 10
1132.9243374459154
 20
578.6168963202872
 11
937.05351926754008
 21
578.61689632037167
  0
ARC
  8
_0-e_極細4
  6
CONTINUOUS
 62
    6
 10
916.94393089566904
 20
662.36254062430646
 40
3.75
 50
3.0819880307226475
 51
89.999999999999915
  0
ARC
  8
_0-e_極細4
  6
CONTINUOUS
 62
    6
 10
914.57302360240362
 20
669.86254062429612
 40
3.75
 50
185.00000000003837
 51
269.99999999999977
  0
LINE
  8
_0-e_極細4
  6
CONTINUOUS
 62
    6
 10
924.57161181336403
 20
590.44483504320601
 11
920.68850697682581
 21
662.5641590074564
  0
ARC
  8
_0-e_極細4
  6
CONTINUOUS
 62
    6
 10
937.05353208388999
 20
591.11689632037144
 40
12.5
 50
183.08198803071861
 51
269.99999999999977
  0
LINE
  8
_0-e_極細4
  6
CONTINUOUS
 62
    6
 10
920.64190713365053
 20
691.11254062431885
 11
875.05728382541054
 21
691.11254062415981
  0
LINE
  8
_0-e_極細4
  6
CONTINUOUS
 62
    6
 10
900.68228382541122
 20
678.61254062314572
 11
882.022029783834
 21
683.61254062417561
  0
LINE
  8
_0-e_極細4
  6
CONTINUOUS
 62
    6
 10
901.5051119312476
 20
684.86254062424166
 11
882.02212630442307
 21
690.08299088912781
  0
LINE
  8
_0-e_極細4
  6
CONTINUOUS
 62
    6
 10
907.99464361958587
 20
690.08299088908348
 11
882.89827085460104
 21
690.08299088908348
  0
LINE
  8
_0-e_極細4
  6
CONTINUOUS
 62
    6
 10
882.02236331193365
 20
690.08292738316084
 11
881.93228382552718
 21
691.11254062419152
  0
LINE
  8
_0-e_極細4
  6
CONTINUOUS
 62
    6
 10
882.02202978383059
 20
683.61254062417686
 11
873.18228382541054
 21
683.61254062415742
  0
LINE
  8
_0-e_極細4
  6
CONTINUOUS
 62
    6
 10
875.05728382541247
 20
691.11254062415981
 11
873.18228382541247
 21
683.61254062415753
  0
ARC
  8
_0-e_極細4
  6
CONTINUOUS
 62
    6
 10
923.0475634649689
 20
697.3625406243367
 40
1.25
 50
89.999999999999915
 51
173.48019824835279
  0
LINE
  8
_0-e_極細4
  6
CONTINUOUS
 62
    6
 10
915.27071775349953
 20
684.8625406242935
 11
926.56139920856219
 21
673.57185916923004
  0
LINE
  8
_0-e_極細4
  6
CONTINUOUS
 62
    6
 10
920.64484375775453
 20
688.32724938486922
 11
930.68948008622544
 21
678.28261305639887
  0
ARC
  8
_0-e_極細4
  6
CONTINUOUS
 62
    6
 10
906.60693150319673
 20
674.8625406242644
 40
3.75
 50
5.000000000043098
 51
89.999999999999915
  0
LINE
  8
_0-e_極細4
  6
CONTINUOUS
 62
    6
 10
910.68228382577547
 20
684.86254062426963
 11
901.5051119312476
 21
684.86254062424166
  0
LINE
  8
_0-e_極細4
  6
CONTINUOUS
 62
    6
 10
908.18228382541122
 20
691.11254062426258
 11
907.41713284422065
 21
686.91428798116647
  0
LINE
  8
_0-e_極細4
  6
CONTINUOUS
 62
    6
 10
906.60693150318014
 20
678.61254062426428
 11
900.68228382541122
 21
678.61254062423859
  0
ARC
  8
_0-e_極細4
  6
CONTINUOUS
 62
    6
 10
904.95764721345029
 20
687.36254062425223
 40
2.5
 50
269.99999999999977
 51
349.67094897780584
  0
LINE
  8
_0-e_極細4
  6
CONTINUOUS
 62
    6
 10
916.65832018432241
 20
684.86254062429691
 11
910.68228382577547
 21
684.86254062425598
  0
ARC
  8
_0-e_極細4
  6
CONTINUOUS
 62
    6
 10
916.38048034951555
 20
687.36254062429464
 40
2.5
 50
189.97879785855761
 51
269.99999999999977
  0
ARC
  8
_0-e_極細4
  6
CONTINUOUS
 62
    6
 10
916.65832018429671
 20
688.61254062429691
 40
3.75
 50
269.99999999999977
 51
351.34132044731996
  0
LINE
  8
_0-e_極細4
  6
CONTINUOUS
 62
    6
 10
921.80564762414849
 20
697.50447386328779
 11
920.36558036815779
 21
688.04798599527066
  0
LINE
  8
_0-e_極細4
  6
CONTINUOUS
 62
    6
 10
913.18228382541349
 20
691.11254062427349
 11
913.91830049051225
 21
686.92933127315098
  0
LINE
  8
_0-e_極細4
  6
CONTINUOUS
 62
    6
 10
916.94393089565199
 20
666.11254062430646
 11
914.57302360241954
 21
666.11254062429612
  0
LINE
  8
_0-e_極細4
  6
CONTINUOUS
 62
    6
 10
910.83729348455893
 20
669.53570658898968
 11
910.34266162104075
 21
675.18937465957083
  0
LINE
  8
_0-e_極細4
  6
CONTINUOUS
 62
    6
 10
935.682283825318
 20
698.61254062436547
 11
935.682283825318
 21
692.36254062436512
  0
LINE
  8
_0-e_極細4
  6
CONTINUOUS
 62
    6
 10
930.68228382541122
 20
684.86254062481987
 11
935.68228382541167
 21
684.86254062436512
  0
LINE
  8
_0-e_極細4
  6
CONTINUOUS
 62
    6
 10
928.18228382531618
 20
684.86254062434898
 11
935.68228382531618
 21
684.86254062436512
  0
LINE
  8
_0-e_極細4
  6
CONTINUOUS
 62
    6
 10
935.682283825318
 20
692.36254062481987
 11
930.68228382541122
 21
692.36254062481987
  0
ARC
  8
_0-e_極細4
  6
CONTINUOUS
 62
    6
 10
932.6932870628076
 20
672.36254062435762
 40
6.25
 50
89.999999999999915
 51
183.06690832148894
  0
LINE
  8
_0-e_極細4
  6
CONTINUOUS
 62
    6
 10
928.18228382531618
 20
692.36254062434807
 11
928.18228382531618
 21
684.86254062434807
  0
LINE
  8
_0-e_極細4
  6
CONTINUOUS
 62
    6
 10
929.43228382541054
 20
691.11254062481987
 11
929.43228382541054
 21
686.11254062482021
  0
ARC
  8
_0-e_極細4
  6
CONTINUOUS
 62
    6
 10
930.68228382541122
 20
691.11254062481987
 40
1.25
 50
89.999999999999915
 51
179.99999999999983
  0
ARC
  8
_0-e_極細4
  6
CONTINUOUS
 62
    6
 10
930.68228382541122
 20
686.11254062482021
 40
1.25
 50
179.99999999999983
 51
269.99999999999977
  0
LINE
  8
_0-e_極細4
  6
CONTINUOUS
 62
    6
 10
935.68228382531618
 20
684.86254062436512
 11
935.68228382531618
 21
678.6125406243649
  0
LINE
  8
_0-e_極細4
  6
CONTINUOUS
 62
    6
 10
935.68228382541167
 20
685.08778574642122
 11
935.68228382541167
 21
684.86254062481987
  0
ARC
  8
_0-e_極細4
  6
CONTINUOUS
 62
    6
 10
936.93228382541054
 20
685.08778574642122
 40
1.25
 50
101.30993247399159
 51
179.99999999999983
  0
LINE
  8
_0-e_極細4
  6
CONTINUOUS
 62
    6
 10
935.68228382541167
 20
692.13729550321818
 11
935.68228382541167
 21
692.36254062481987
  0
ARC
  8
_0-e_極細4
  6
CONTINUOUS
 62
    6
 10
936.93228382541054
 20
692.13729550321818
 40
1.25
 50
179.99999999999983
 51
258.69006752600188
  0
LINE
  8
_0-e_極細4
  6
CONTINUOUS
 62
    6
 10
1166.9322838254107
 20
674.29395276067669
 11
1166.9322838254107
 21
583.02713339217098
  0
LINE
  8
_0-e_極細4
  6
CONTINUOUS
 62
    6
 10
1165.0572838254104
 20
664.65517804983517
 11
1141.9082870224099
 21
665.09966149548575
  0
LINE
  8
_0-e_極細4
  6
CONTINUOUS
 62
    6
 10
1166.9322838254095
 20
591.35567463536756
 11
1141.9322838254111
 21
591.83569915806379
  0
LINE
  8
_0-e_極細4
  6
CONTINUOUS
 62
    6
 10
1165.0572838254118
 20
592.64190687687744
 11
1141.95628062841
 21
593.08546879821517
  0
LINE
  8
_0-e_極細4
  6
CONTINUOUS
 62
    6
 10
1164.3842902194112
 20
580.52759411186742
 11
1141.0929194012788
 21
580.9748112782637
  0
LINE
  8
_0-e_極細4
  6
CONTINUOUS
 62
    6
 10
1141.9322838254111
 20
665.67036656974767
 11
1141.9322838254111
 21
591.55471467856648
  0
ARC
  8
_0-e_極細4
  6
CONTINUOUS
 62
    6
 10
1112.1158094169477
 20
637.12651420319514
 40
62.500000000000007
 50
291.71126247491748
 51
294.81817458382972
  0
ARC
  8
_0-e_極細4
  6
CONTINUOUS
 62
    6
 10
1132.9243374459184
 20
584.8668963202872
 40
6.25
 50
269.99999999999977
 51
291.71126247491935
  0
ARC
  8
_0-e_極細4
  6
CONTINUOUS
 62
    6
 10
1132.1923373252855
 20
588.61689632028754
 40
3.75
 50
269.99999999999977
 51
292.48304715453583
  0
ARC
  8
_0-e_極細4
  6
CONTINUOUS
 62
    6
 10
1112.1158094169477
 20
637.12651420319514
 40
56.25
 50
292.48304715453781
 51
299.76899289976581
  0
ARC
  8
_0-e_極細4
  6
CONTINUOUS
 62
    6
 10
1138.1822838254111
 20
591.55471467856648
 40
3.75
 50
299.76899289975665
 51
359.99999999999966
  0
ARC
  8
_0-e_極細4
  6
CONTINUOUS
 62
    6
 10
1140.9729353862801
 20
574.72596307750359
 40
6.25
 50
88.899999999988452
 51
114.81817458382919
  0
LINE
  8
_0-e_極細4
  6
CONTINUOUS
 62
    6
 10
1165.0572838254104
 20
664.65517804983517
 11
1165.0572838254104
 21
592.64190687687778
  0
ARC
  8
_0-e_極細4
  6
CONTINUOUS
 62
    6
 10
1164.4322838254104
 20
583.02713339217098
 40
2.5
 50
268.90000000000055
 51
359.99999999999966
  0
LINE
  8
_0-e_極細4
  6
CONTINUOUS
 62
    6
 10
1166.9322838254107
 20
591.35567463536688
 11
1165.0572838254104
 21
592.64190687687778
  0
LINE
  8
_0-e_極細4
  6
CONTINUOUS
 62
    6
 10
1166.9322838254107
 20
665.86940661294204
 11
1165.0572838254104
 21
664.65517804983608
  0
LINE
  8
_0-e_極細4
  6
CONTINUOUS
 62
    6
 10
1164.4802774314096
 20
676.79349204098162
 11
1142.0394811206631
 21
677.22437734250104
  0
LINE
  8
_0-e_極細4
  6
CONTINUOUS
 62
    6
 10
1091.8495513156877
 20
684.86254062429953
 11
1098.1822838250453
 21
684.86254062425633
  0
ARC
  8
_0-e_極細4
  6
CONTINUOUS
 62
    6
 10
1092.4840873013072
 20
687.36254062429464
 40
2.5
 50
269.99999999999977
 51
350.02120214144162
  0
LINE
  8
_0-e_極細4
  6
CONTINUOUS
 62
    6
 10
1087.7894266827543
 20
691.11254062432045
 11
1133.8072838254111
 21
691.11254062415981
  0
LINE
  8
_0-e_極細4
  6
CONTINUOUS
 62
    6
 10
1073.1822838257158
 20
698.61254062431669
 11
1073.1822838257112
 21
692.36254062431669
  0
ARC
  8
_0-e_極細4
  6
CONTINUOUS
 62
    6
 10
1085.8170041860631
 20
697.36254062427952
 40
1.25
 50
6.5198017516161588
 51
89.999999999999915
  0
LINE
  8
_0-e_極細4
  6
CONTINUOUS
 62
    6
 10
1088.3662045011788
 20
687.22372999297977
 11
1079.7550151325593
 21
678.61254062436092
  0
LINE
  8
_0-e_極細4
  6
CONTINUOUS
 62
    6
 10
1073.1822838257112
 20
692.36254062431669
 11
1080.6822838257112
 21
692.36254062429441
  0
LINE
  8
_0-e_極細4
  6
CONTINUOUS
 62
    6
 10
1080.6822838257112
 20
692.36254062429396
 11
1080.682283825706
 21
684.86254062429396
  0
ARC
  8
_0-e_極細4
  6
CONTINUOUS
 62
    6
 10
1078.1822838254111
 20
691.11254062481964
 40
1.25
 50
0
 51
89.999999999999915
  0
LINE
  8
_0-e_極細4
  6
CONTINUOUS
 62
    6
 10
1073.182283825706
 20
684.86254062431669
 11
1073.1822838257021
 21
678.61254062431556
  0
LINE
  8
_0-e_極細4
  6
CONTINUOUS
 62
    6
 10
1073.1822838254111
 20
692.13729550321784
 11
1073.1822838254111
 21
692.36254062481987
  0
ARC
  8
_0-e_極細4
  6
CONTINUOUS
 62
    6
 10
1071.9322838254104
 20
692.13729550321784
 40
1.25
 50
281.30993247405456
 51
359.99999999999966
  0
ARC
  8
_0-e_極細4
  6
CONTINUOUS
 62
    6
 10
1091.8495513157129
 20
688.61254062429953
 40
3.75
 50
186.51980175161393
 51
269.99999999999977
  0
LINE
  8
_0-e_極細4
  6
CONTINUOUS
 62
    6
 10
1087.0589200268839
 20
697.50447386323049
 11
1088.1238037932515
 21
688.18674090744946
  0
LINE
  8
_0-e_極細4
  6
CONTINUOUS
 62
    6
 10
1100.8699240312371
 20
690.08299088908348
 11
1125.966296796222
 21
690.08299088908348
  0
LINE
  8
_0-e_極細4
  6
CONTINUOUS
 62
    6
 10
1107.3594557195752
 20
684.86254062424166
 11
1126.8424413463999
 21
690.08299088912781
  0
LINE
  8
_0-e_極細4
  6
CONTINUOUS
 62
    6
 10
1098.1822838250473
 20
684.86254062426963
 11
1107.3594557195752
 21
684.86254062424166
  0
LINE
  8
_0-e_極細4
  6
CONTINUOUS
 62
    6
 10
1100.6822838254118
 20
691.11254062426258
 11
1101.4474348066024
 21
686.91428798116647
  0
LINE
  8
_0-e_極細4
  6
CONTINUOUS
 62
    6
 10
1095.6822838254091
 20
691.11254062427349
 11
1094.9462671603105
 21
686.92933127315098
  0
ARC
  8
_0-e_極細4
  6
CONTINUOUS
 62
    6
 10
1103.9069204373727
 20
687.36254062425223
 40
2.5
 50
190.32905102219345
 51
269.99999999999977
  0
LINE
  8
_0-e_極細4
  6
CONTINUOUS
 62
    6
 10
1126.8422043388891
 20
690.08292738316084
 11
1126.9322838252951
 21
691.11254062419152
  0
LINE
  8
_0-e_極細4
  6
CONTINUOUS
 62
    6
 10
1133.8072838254111
 20
691.11254062415981
 11
1136.0960745097536
 21
681.95737788678468
  0
ARC
  8
_0-e_極細4
  6
CONTINUOUS
 62
    6
 10
1142.1594651356611
 20
683.47322554326115
 40
6.25
 50
194.03624346791753
 51
268.90000000000055
  0
ARC
  8
_0-e_極細4
  6
CONTINUOUS
 62
    6
 10
1164.4322838254104
 20
674.29395276067669
 40
2.5
 50
0
 51
88.900000000000901
  0
LINE
  8
_0-e_極細4
  6
CONTINUOUS
 62
    6
 10
941.30728382442442
 20
698.61254062437797
 11
923.04756346496549
 21
698.61254062433716
  0
LINE
  8
_0-e_極細4
  6
CONTINUOUS
 62
    6
 10
941.30728382442442
 20
692.36254062481987
 11
936.0942179557145
 21
692.36254062481987
  0
LINE
  8
_0-e_極細4
  6
CONTINUOUS
 62
    6
 10
941.30728382442442
 20
684.8625406244023
 11
935.68228382531618
 21
684.86254062436512
  0
LINE
  8
_0-e_極細4
  6
CONTINUOUS
 62
    6
 10
932.69328706279282
 20
678.6125406243583
 11
941.30728382442442
 21
678.61254062437695
  0
LINE
  8
_0-e_極細4
  6
CONTINUOUS
 62
    6
 10
936.6871386564884
 20
690.91156965860455
 11
941.30728382442442
 21
689.98754062501735
  0
LINE
  8
_0-e_極細4
  6
CONTINUOUS
 62
    6
 10
936.6871386564884
 20
686.31351159103531
 11
941.30728382442442
 21
687.23754062462274
  0
LINE
  8
_0-e_極細4
  6
CONTINUOUS
 62
    6
 10
1067.557283824425
 20
698.61254062433306
 11
1085.8170041860667
 21
698.61254062427952
  0
LINE
  8
_0-e_極細4
  6
CONTINUOUS
 62
    6
 10
1073.1822838257119
 20
692.36254062431715
 11
1067.557283824425
 21
692.36254062433363
  0
LINE
  8
_0-e_極細4
  6
CONTINUOUS
 62
    6
 10
1073.182283825706
 20
684.86254062431715
 11
1067.557283824425
 21
684.86254062433363
  0
LINE
  8
_0-e_極細4
  6
CONTINUOUS
 62
    6
 10
1075.5026621352199
 20
678.61254062430874
 11
1067.5572838244243
 21
678.61254062433215
  0
LINE
  8
_0-e_極細4
  6
CONTINUOUS
 62
    6
 10
1072.1774289943342
 20
690.91156965860455
 11
1067.5572838244243
 21
689.98754062462285
  0
LINE
  8
_0-e_極細4
  6
CONTINUOUS
 62
    6
 10
1072.1774289943342
 20
686.31351159103531
 11
1067.5572838244243
 21
687.23754062501723
  0
LINE
  8
_0-e_極細4
  6
CENTER1
 62
    6
 10
1004.4322838244244
 20
786.21547072114299
 11
1004.4322838244244
 21
568.61689632034256
  0
CIRCLE
  8
_1-1_寸法4
  6
CONTINUOUS
 62
    7
 10
1059.8072838244241
 20
760.93677041037245
 40
25
  0
LINE
  8
_1-1_寸法4
  6
CONTINUOUS
 62
    7
 10
975.67458559408635
 20
768.42516611678491
 11
966.77635434085732
 21
772.98822217211227
  0
LINE
  8
_1-1_寸法4
  6
CONTINUOUS
 62
    7
 10
975.67458559408635
 20
768.42516611678491
 11
970.25001930770497
 21
776.82600420620531
  0
LINE
  8
_1-1_寸法4
  6
CONTINUOUS
 62
    7
 10
975.67458559408635
 20
768.42516611678491
 11
956.29974690456709
 21
785.96177913863744
  0
LINE
  8
_1-1_寸法4
  6
CONTINUOUS
 62
    7
 10
956.29974690456709
 20
785.96177913863744
 11
884.2997469045672
 21
785.96177913863744
  0
TEXT
  8
_1-1_寸法4
 62
    7
 10
884.29974690456697
 20
785.96177913863755
 40
15
 41
0.7999999999999998
 50
-0.000000000000113
  1
ストレーナー
  0
TEXT
  8
_1-1_寸法4
 62
    7
 10
1071.412876612399
 20
780.29896122279695
 40
15
 41
0.8000000000000001
 50
0
  1
Ｃ部
  0
LINE
  8
_1-1_寸法4
  6
CONTINUOUS
 62
    7
 10
998.61973883854625
 20
605.26842574095542
 11
996.03154838752107
 21
595.60916747806471
  0
LINE
  8
_1-1_寸法4
  6
CONTINUOUS
 62
    7
 10
998.61973883854625
 20
605.26842574095542
 11
991.54867102668072
 21
598.19735792909
  0
LINE
  8
_1-1_寸法4
  6
CONTINUOUS
 62
    7
 10
998.61973883854625
 20
605.26842574095542
 11
964.01464517031911
 21
545.33064530690717
  0
LINE
  8
_1-1_寸法4
  6
CONTINUOUS
 62
    7
 10
964.01464517031911
 20
545.33064530690717
 11
856.014645170319
 21
545.33064530690717
  0
TEXT
  8
_1-1_寸法4
 62
    7
 10
856.014645170319
 20
545.33064530690717
 40
15
 41
0.7999999999999998
 50
0
  1
縦引きトラップ本体
  0
LINE
  8
_1-1_寸法4
  6
CONTINUOUS
 62
    7
 10
979.1128381861198
 20
705.22321229850309
 11
969.45357992322897
 21
707.81140274952816
  0
LINE
  8
_1-1_寸法4
  6
CONTINUOUS
 62
    7
 10
979.1128381861198
 20
705.22321229850309
 11
972.04177037425438
 21
712.29428011036862
  0
LINE
  8
_1-1_寸法4
  6
CONTINUOUS
 62
    7
 10
979.1128381861198
 20
705.22321229850309
 11
933.30728382442373
 21
731.66906143960864
  0
LINE
  8
_1-1_寸法4
  6
CONTINUOUS
 62
    7
 10
933.30728382442373
 20
731.66906143960864
 11
837.30728382442385
 21
731.66906143960864
  0
TEXT
  8
_1-1_寸法4
 62
    7
 10
837.30728382442362
 20
731.66906143960864
 40
15
 41
0.7999999999999998
 50
0
  1
防臭インナー１号
  0
LINE
  8
_1-1_寸法4
  6
CONTINUOUS
 62
    7
 10
964.29375286150446
 20
686.93949641352731
 11
954.63449459861363
 21
689.52768686455261
  0
LINE
  8
_1-1_寸法4
  6
CONTINUOUS
 62
    7
 10
964.29375286150446
 20
686.93949641352731
 11
957.22268504963893
 21
694.01056422539284
  0
LINE
  8
_1-1_寸法4
  6
CONTINUOUS
 62
    7
 10
964.29375286150446
 20
686.93949641352731
 11
933.30728382442373
 21
704.82954265332194
  0
LINE
  8
_1-1_寸法4
  6
CONTINUOUS
 62
    7
 10
933.30728382442373
 20
704.82954265332194
 11
837.30728382442385
 21
704.82954265332194
  0
TEXT
  8
_1-1_寸法4
 62
    7
 10
837.30728382442362
 20
704.82954265332194
 40
15
 41
0.7999999999999998
 50
0
  1
防臭インナー２号
  0
LINE
  8
_0-e_極細4
  6
CONTINUOUS
 62
    6
 10
1004.4322838244244
 20
597.36689632030505
 11
936.37659820825377
 21
597.36689632033233
  0
ARC
  8
_0-e_極細4
  6
CONTINUOUS
 62
    6
 10
936.37659820825604
 20
603.61689632033233
 40
6.25
 50
183.06690832148999
 51
269.9999999999788
  0
LINE
  8
_0-e_極細4
  6
CONTINUOUS
 62
    6
 10
930.80528521605572
 20
590.78250825530267
 11
926.45223870360212
 21
672.02815255928897
  0
ARC
  8
_0-e_極細4
  6
CONTINUOUS
 62
    6
 10
937.0463335752612
 20
591.11689632037144
 40
6.25
 50
183.06690832148894
 51
269.99999999999977
  0
ARC
  8
_0-e_極細4
  6
CONTINUOUS
 62
    6
 10
1080.4524982836153
 20
591.11689657029672
 40
6.2499997500003701
 50
179.99999999999983
 51
269.99999999999977
  0
LINE
  8
_0-e_極細4
  6
CONTINUOUS
 62
    6
 10
1004.4322838244244
 20
597.36689632030505
 11
1067.9524987836146
 21
597.36689632030505
  0
ARC
  8
_0-e_極細4
  6
CONTINUOUS
 62
    6
 10
1067.9524987836146
 20
591.11689657029672
 40
6.2499997500003701
 50
0
 51
89.999999999999915
  0
LINE
  8
_1-1_寸法4
  6
CONTINUOUS
 62
    7
 10
1023.4646141634636
 20
581.26854674875642
 11
1028.4646141634635
 21
572.608292710912
  0
LINE
  8
_1-1_寸法4
  6
CONTINUOUS
 62
    7
 10
1023.4646141634636
 20
581.26854674875642
 11
1023.4646141634636
 21
571.26854674875642
  0
LINE
  8
_1-1_寸法4
  6
CONTINUOUS
 62
    7
 10
1023.4646141634636
 20
581.26854674875642
 11
1033.0941458324762
 21
545.33064530690717
  0
LINE
  8
_1-1_寸法4
  6
CONTINUOUS
 62
    7
 10
1033.0941458324762
 20
545.33064530690717
 11
1117.0941458324762
 21
545.33064530690717
  0
TEXT
  8
_1-1_寸法4
 62
    7
 10
1033.0941458324762
 20
545.33064530690717
 40
15
 41
0.8000000000000001
 50
0
  1
防水マス横引き
  0
TEXT
  8
_0-7_枠細線
 62
    5
 10
961.4307702470602
 20
110
 40
20
 41
0.6
 50
0
  1
ＨＴＡＺ－１５Ｌ１５０
  0
LINE
  8
_0-0_計極細
  6
CENTER1
 62
    2
 10
504.15882911398654
 20
754.35087610418168
 11
504.15882911398654
 21
242.08006387300614
  0
LINE
  8
_0-1_計細線
  6
CONTINUOUS
 62
    3
 10
500.1609177473054
 20
589.437892385493
 11
500.16091774731359
 21
587.43146255140903
  0
LINE
  8
_0-1_計細線
  6
CONTINUOUS
 62
    3
 10
499.16091884730554
 20
589.43789238549164
 11
499.16091884731372
 21
587.4314625514063
  0
LINE
  8
_0-1_計細線
  6
CONTINUOUS
 62
    3
 10
508.16090894502827
 20
589.437892385493
 11
508.16090894502008
 21
587.43146255140903
  0
LINE
  8
_0-1_計細線
  6
CONTINUOUS
 62
    3
 10
509.16090784502535
 20
589.43789238549164
 11
509.16090784501989
 21
587.4314625514063
  0
ARC
  8
_0-1_計細線
  6
CONTINUOUS
 62
    3
 10
498.16091994731391
 20
587.43146255140221
 40
0.9999989000003957
 50
265.47193698641991
 51
0.0000000002341397
  0
ARC
  8
_0-1_計細線
  6
CONTINUOUS
 62
    3
 10
498.16091994731391
 20
587.43146255140221
 40
1.9999978000008023
 50
265.47193698642093
 51
0.000000000195057
  0
ARC
  8
_0-1_計細線
  6
CONTINUOUS
 62
    3
 10
510.16090674502243
 20
587.43146255140221
 40
0.9999989000003957
 50
179.99999999976549
 51
274.52806301357936
  0
ARC
  8
_0-1_計細線
  6
CONTINUOUS
 62
    3
 10
510.16090674502243
 20
587.43146255140221
 40
1.9999978000008023
 50
179.99999999976549
 51
274.52806301357833
  0
ARC
  8
_0-1_計細線
  6
CONTINUOUS
 62
    3
 10
498.16091994730846
 20
589.43789238549027
 40
0.9999989000003957
 50
0.0000000002344961
 51
85.349290995317986
  0
ARC
  8
_0-1_計細線
  6
CONTINUOUS
 62
    3
 10
510.16090674502789
 20
589.43789238549027
 40
0.9999989000003957
 50
94.650709004682014
 51
179.99999999976549
  0
LINE
  8
_0-1_計細線
  6
CONTINUOUS
 62
    3
 10
634.1603383263398
 20
625.69433581267288
 11
634.1603383263398
 21
663.19416691274967
  0
LINE
  8
_0-1_計細線
  6
CONTINUOUS
 62
    3
 10
633.16034283033946
 20
624.69434031667117
 11
615.44994125104927
 21
624.69434031667117
  0
ARC
  8
_0-1_計細線
  6
CONTINUOUS
 62
    3
 10
633.16034283033946
 20
625.69433581267288
 40
0.9999954960020431
 50
269.99999999999977
 51
359.99999999999966
  0
LINE
  8
_0-1_計細線
  6
CONTINUOUS
 62
    3
 10
614.24622801985311
 20
625.69433581267288
 11
614.24622801985311
 21
663.19416691274967
  0
ARC
  8
_0-1_計細線
  6
CONTINUOUS
 62
    3
 10
603.69129277832485
 20
618.19436959265806
 40
4.9999774800103012
 50
269.99999999999977
 51
334.79169788884707
  0
LINE
  8
_0-1_計細線
  6
CONTINUOUS
 62
    3
 10
603.69129277832485
 20
613.19439211264557
 11
596.49143455091394
 21
613.19439211264557
  0
LINE
  8
_0-1_計細線
  6
CONTINUOUS
 62
    3
 10
610.92613488685743
 20
621.82390522410117
 11
608.21509914251396
 21
616.06482720521547
  0
ARC
  8
_0-1_計細線
  6
CONTINUOUS
 62
    3
 10
615.44994125104927
 20
619.6943628366613
 40
4.9999774800103012
 50
89.999999999999915
 51
154.79169788884744
  0
LINE
  8
_0-1_計細線
  6
CONTINUOUS
 62
    3
 10
633.16034283033946
 20
701.69399350882952
 11
615.44994125104381
 21
701.69399350882952
  0
ARC
  8
_0-1_計細線
  6
CONTINUOUS
 62
    3
 10
633.16034283033946
 20
700.69399801282646
 40
0.9999954960020431
 50
0
 51
89.999999999999915
  0
LINE
  8
_0-1_計細線
  6
CONTINUOUS
 62
    3
 10
634.1603383263398
 20
700.69399801282646
 11
634.1603383263398
 21
663.19416691274967
  0
LINE
  8
_0-1_計細線
  6
CONTINUOUS
 62
    3
 10
603.69129277832485
 20
713.19394171285251
 11
596.49143455091394
 21
713.19394171285251
  0
LINE
  8
_0-1_計細線
  6
CONTINUOUS
 62
    3
 10
610.92613488685743
 20
704.56442860139816
 11
608.21509914251396
 21
710.3235066202825
  0
ARC
  8
_0-1_計細線
  6
CONTINUOUS
 62
    3
 10
603.69129277832485
 20
708.19396423284138
 40
4.9999774800103012
 50
25.208302111171164
 51
89.999999999999915
  0
LINE
  8
_0-1_計細線
  6
CONTINUOUS
 62
    3
 10
614.24622801985311
 20
700.69399801282646
 11
614.24622801985311
 21
663.19416691274967
  0
ARC
  8
_0-1_計細線
  6
CONTINUOUS
 62
    3
 10
615.44994125104381
 20
706.69397098883951
 40
4.9999774800103012
 50
205.20830211117553
 51
269.99999999999977
  0
ARC
  8
_0-1_計細線
  6
CONTINUOUS
 62
    3
 10
329.49281055443839
 20
663.19416691274967
 40
279.9987388805763
 50
349.95892672538429
 51
10.041073274614719
  0
ARC
  8
_0-1_計細線
  6
CONTINUOUS
 62
    3
 10
504.16091334616959
 20
663.19416691274841
 40
97.999892200039199
 50
227.28142374106423
 51
312.71857625893409
  0
ARC
  8
_0-1_計細線
  6
CONTINUOUS
 62
    3
 10
428.39820933637549
 20
657.19417350189747
 40
1.9999978000008023
 50
89.999999999765507
 51
184.52806301357833
  0
LINE
  8
_0-1_計細線
  6
CONTINUOUS
 62
    3
 10
430.40463917047168
 20
659.19417130188879
 11
428.39820933638362
 21
659.19417130189697
  0
LINE
  8
_0-1_計細線
  6
CONTINUOUS
 62
    3
 10
430.40463917046765
 20
658.19417240188898
 11
428.39820933638094
 21
658.19417240189728
  0
ARC
  8
_0-1_計細線
  6
CONTINUOUS
 62
    3
 10
428.39820933637549
 20
657.19417350189747
 40
0.9999989000003957
 50
89.999999999687333
 51
184.52806301357731
  0
ARC
  8
_0-1_計細線
  6
CONTINUOUS
 62
    3
 10
430.40463917046219
 20
657.1941735018919
 40
0.9999989000003957
 50
4.650709004682013
 51
89.999999999765507
  0
ARC
  8
_0-1_計細線
  6
CONTINUOUS
 62
    3
 10
428.39820933637549
 20
669.19416029960587
 40
1.9999978000008023
 50
175.4719369864213
 51
270.00000000023414
  0
LINE
  8
_0-1_計細線
  6
CONTINUOUS
 62
    3
 10
430.40463917047168
 20
667.19416249961171
 11
428.39820933638362
 21
667.19416249960364
  0
LINE
  8
_0-1_計細線
  6
CONTINUOUS
 62
    3
 10
430.40463917046765
 20
668.19416139960879
 11
428.39820933638094
 21
668.19416139960344
  0
ARC
  8
_0-1_計細線
  6
CONTINUOUS
 62
    3
 10
428.39820933637549
 20
669.19416029960587
 40
0.9999989000003957
 50
175.47193698642235
 51
270.00000000023414
  0
ARC
  8
_0-1_計細線
  6
CONTINUOUS
 62
    3
 10
430.40463917046219
 20
669.19416029961144
 40
0.9999989000003957
 50
270.00000000023414
 51
355.34929099531763
  0
ARC
  8
_0-1_計細線
  6
CONTINUOUS
 62
    3
 10
504.16091369686887
 20
663.19416689989089
 40
77.999914200031185
 50
157.3129296519829
 51
175.47193698641308
  0
ARC
  8
_0-1_計細線
  6
CONTINUOUS
 62
    3
 10
504.16091369686887
 20
663.19416689989089
 40
76.999915300030807
 50
159.23880444680685
 51
175.47193698641294
  0
ARC
  8
_0-1_計細線
  6
CONTINUOUS
 62
    3
 10
504.16091369686887
 20
663.19416689989089
 40
72.999919700029196
 50
170.69166042052115
 51
175.34929099534372
  0
ARC
  8
_0-1_計細線
  6
CONTINUOUS
 62
    3
 10
430.40463917046219
 20
669.19416029961144
 40
1.9999978000008023
 50
270.00000000023414
 51
331.41858827404451
  0
ARC
  8
_0-1_計細線
  6
CONTINUOUS
 62
    3
 10
430.40463917046219
 20
657.1941735018919
 40
1.9999978000008023
 50
28.581411725966586
 51
89.999999999765507
  0
ARC
  8
_0-1_計細線
  6
CONTINUOUS
 62
    3
 10
504.16091369686887
 20
663.1941669016071
 40
72.99991970002921
 50
184.65070900465378
 51
189.60712020669735
  0
ARC
  8
_0-1_計細線
  6
CONTINUOUS
 62
    3
 10
504.16091369686887
 20
663.1941669016071
 40
76.999915300030793
 50
184.52806301358464
 51
200.73222615762035
  0
ARC
  8
_0-1_計細線
  6
CONTINUOUS
 62
    3
 10
504.16091369686887
 20
663.1941669016071
 40
77.999914200031213
 50
184.52806301358456
 51
202.61971368823214
  0
ARC
  8
_0-1_計細線
  6
CONTINUOUS
 62
    3
 10
579.92361771951778
 20
657.19417350189747
 40
1.9999978000008023
 50
355.47193698642093
 51
90.000000000234138
  0
LINE
  8
_0-1_計細線
  6
CONTINUOUS
 62
    3
 10
577.91718788542153
 20
659.19417130188879
 11
579.92361771950959
 21
659.19417130189697
  0
LINE
  8
_0-1_計細線
  6
CONTINUOUS
 62
    3
 10
577.91718788542562
 20
658.19417240188898
 11
579.92361771951232
 21
658.19417240189728
  0
ARC
  8
_0-1_計細線
  6
CONTINUOUS
 62
    3
 10
579.92361771951778
 20
657.19417350189747
 40
0.9999989000003957
 50
355.47193698642195
 51
90.000000000312298
  0
ARC
  8
_0-1_計細線
  6
CONTINUOUS
 62
    3
 10
577.91718788543108
 20
657.1941735018919
 40
0.9999989000003957
 50
90.000000000234493
 51
175.349290995318
  0
ARC
  8
_0-1_計細線
  6
CONTINUOUS
 62
    3
 10
579.92361771951778
 20
669.19416029960587
 40
1.9999978000008023
 50
269.99999999976512
 51
4.528063013578346
  0
LINE
  8
_0-1_計細線
  6
CONTINUOUS
 62
    3
 10
577.91718788542153
 20
667.19416249961171
 11
579.92361771950959
 21
667.19416249960364
  0
LINE
  8
_0-1_計細線
  6
CONTINUOUS
 62
    3
 10
577.91718788542562
 20
668.19416139960879
 11
579.92361771951232
 21
668.19416139960344
  0
ARC
  8
_0-1_計細線
  6
CONTINUOUS
 62
    3
 10
579.92361771951778
 20
669.19416029960587
 40
0.9999989000003957
 50
269.99999999976512
 51
4.5280630135773281
  0
ARC
  8
_0-1_計細線
  6
CONTINUOUS
 62
    3
 10
577.91718788543108
 20
669.19416029961144
 40
0.9999989000003957
 50
184.65070900468166
 51
269.99999999976512
  0
ARC
  8
_0-1_計細線
  6
CONTINUOUS
 62
    3
 10
504.16091335902433
 20
663.19416689989089
 40
77.999914200031185
 50
4.5280630135869266
 51
22.687070348017091
  0
ARC
  8
_0-1_計細線
  6
CONTINUOUS
 62
    3
 10
504.16091335902433
 20
663.19416689989089
 40
76.999915300030807
 50
4.5280630135870465
 51
20.76119555319314
  0
ARC
  8
_0-1_計細線
  6
CONTINUOUS
 62
    3
 10
504.16091335902433
 20
663.19416689989089
 40
72.999919700029196
 50
4.6507090046562833
 51
9.3083395794788633
  0
ARC
  8
_0-1_計細線
  6
CONTINUOUS
 62
    3
 10
577.91718788543108
 20
669.19416029961144
 40
1.9999978000008023
 50
208.58141172595478
 51
269.99999999976512
  0
ARC
  8
_0-1_計細線
  6
CONTINUOUS
 62
    3
 10
577.91718788543108
 20
657.1941735018919
 40
1.9999978000008023
 50
90.000000000234493
 51
151.41858827403343
  0
ARC
  8
_0-1_計細線
  6
CONTINUOUS
 62
    3
 10
504.16091335902433
 20
663.1941669016071
 40
72.99991970002921
 50
350.39287979330192
 51
355.34929099534548
  0
ARC
  8
_0-1_計細線
  6
CONTINUOUS
 62
    3
 10
504.16091335902433
 20
663.1941669016071
 40
76.999915300030793
 50
339.26777384237892
 51
355.47193698641462
  0
ARC
  8
_0-1_計細線
  6
CONTINUOUS
 62
    3
 10
504.16091335902433
 20
663.1941669016071
 40
77.999914200031213
 50
337.38028631176712
 51
355.47193698641473
  0
CIRCLE
  8
_0-1_計細線
  6
CONTINUOUS
 62
    3
 10
504.16091352794666
 20
663.19416708253004
 40
104.99988433026022
  0
CIRCLE
  8
_0-1_計細線
  6
CONTINUOUS
 62
    3
 10
504.16091352794666
 20
663.19416708253004
 40
103.99988543025984
  0
ARC
  8
_0-1_計細線
  6
CONTINUOUS
 62
    3
 10
504.16091334616959
 20
663.19416691274967
 40
97.99956840815851
 50
137.28162860036269
 51
222.71837139963677
  0
ARC
  8
_0-1_計細線
  6
CONTINUOUS
 62
    3
 10
504.16091334616959
 20
663.19416691274967
 40
97.99956840815851
 50
317.28162891367941
 51
42.718371086319578
  0
ARC
  8
_0-1_計細線
  6
CONTINUOUS
 62
    3
 10
504.16091334616959
 20
663.19416691274967
 40
97.99956840815851
 50
47.281628903340867
 51
132.71837109665876
  0
ARC
  8
_0-1_計細線
  6
CONTINUOUS
 62
    3
 10
504.16091334702355
 20
663.19416691189167
 40
77.999914200031213
 50
248.2150239805336
 51
265.47193698641269
  0
ARC
  8
_0-1_計細線
  6
CONTINUOUS
 62
    3
 10
504.16091334702355
 20
663.19416691189167
 40
76.999915300030793
 50
250.15977040955639
 51
265.47193698641462
  0
ARC
  8
_0-1_計細線
  6
CONTINUOUS
 62
    3
 10
504.16091334702355
 20
663.19416691189167
 40
72.99991970002921
 50
262.83209903714487
 51
265.34929099534548
  0
ARC
  8
_0-1_計細線
  6
CONTINUOUS
 62
    3
 10
498.16091994730846
 20
589.43789238549027
 40
1.9999978000008023
 50
0.0000000001954134
 51
41.562300533117565
  0
ARC
  8
_0-1_計細線
  6
CONTINUOUS
 62
    3
 10
510.16090674502789
 20
589.43789238549027
 40
1.9999978000008023
 50
138.43769946688244
 51
179.99999999976549
  0
ARC
  8
_0-1_計細線
  6
CONTINUOUS
 62
    3
 10
504.16091334530734
 20
663.19416691189167
 40
72.999919700029196
 50
274.65070900465594
 51
277.16790096285308
  0
ARC
  8
_0-1_計細線
  6
CONTINUOUS
 62
    3
 10
504.16091334530734
 20
663.19416691189167
 40
76.999915300030807
 50
274.52806301358669
 51
289.84022959044177
  0
ARC
  8
_0-1_計細線
  6
CONTINUOUS
 62
    3
 10
504.16091334530734
 20
663.19416691189167
 40
77.999914200031185
 50
274.52806301358657
 51
291.78497601946452
  0
LINE
  8
_0-1_計細線
  6
CONTINUOUS
 62
    3
 10
500.1609177473054
 20
736.09162559803099
 11
500.16091774731359
 21
738.09805543211485
  0
LINE
  8
_0-1_計細線
  6
CONTINUOUS
 62
    3
 10
499.16091884730554
 20
736.09162559803224
 11
499.16091884731372
 21
738.09805543211769
  0
LINE
  8
_0-1_計細線
  6
CONTINUOUS
 62
    3
 10
508.16090894502827
 20
736.09162559803099
 11
508.16090894502008
 21
738.09805543211485
  0
LINE
  8
_0-1_計細線
  6
CONTINUOUS
 62
    3
 10
509.16090784502535
 20
736.09162559803224
 11
509.16090784501989
 21
738.09805543211769
  0
ARC
  8
_0-1_計細線
  6
CONTINUOUS
 62
    3
 10
498.16091994731391
 20
738.09805543212167
 40
0.9999989000003957
 50
359.99999999976512
 51
94.52806301357937
  0
ARC
  8
_0-1_計細線
  6
CONTINUOUS
 62
    3
 10
498.16091994731391
 20
738.09805543212167
 40
1.9999978000008023
 50
359.99999999980423
 51
94.528063013578347
  0
ARC
  8
_0-1_計細線
  6
CONTINUOUS
 62
    3
 10
510.16090674502243
 20
738.09805543212167
 40
0.9999989000003957
 50
85.471936986420275
 51
180.00000000023414
  0
ARC
  8
_0-1_計細線
  6
CONTINUOUS
 62
    3
 10
510.16090674502243
 20
738.09805543212167
 40
1.9999978000008023
 50
85.471936986421312
 51
180.00000000023414
  0
ARC
  8
_0-1_計細線
  6
CONTINUOUS
 62
    3
 10
498.16091994730846
 20
736.09162559803372
 40
0.9999989000003957
 50
274.65070900468169
 51
359.99999999976512
  0
ARC
  8
_0-1_計細線
  6
CONTINUOUS
 62
    3
 10
510.16090674502789
 20
736.09162559803372
 40
0.9999989000003957
 50
180.00000000023414
 51
265.34929099531763
  0
ARC
  8
_0-1_計細線
  6
CONTINUOUS
 62
    3
 10
504.16091334702355
 20
662.33535107163232
 40
77.999914200031213
 50
94.52806301358693
 51
111.78497601946606
  0
ARC
  8
_0-1_計細線
  6
CONTINUOUS
 62
    3
 10
504.16091334702355
 20
662.33535107163232
 40
76.999915300030793
 50
94.528063013584998
 51
109.84022959044329
  0
ARC
  8
_0-1_計細線
  6
CONTINUOUS
 62
    3
 10
504.16091334702355
 20
662.33535107163232
 40
72.99991970002921
 50
94.650709004654146
 51
97.167900962854745
  0
ARC
  8
_0-1_計細線
  6
CONTINUOUS
 62
    3
 10
498.16091994730846
 20
736.09162559803372
 40
1.9999978000008023
 50
318.43769946688212
 51
359.99999999980423
  0
ARC
  8
_0-1_計細線
  6
CONTINUOUS
 62
    3
 10
510.16090674502789
 20
736.09162559803372
 40
1.9999978000008023
 50
180.00000000023414
 51
221.56230053311722
  0
ARC
  8
_0-1_計細線
  6
CONTINUOUS
 62
    3
 10
504.16091334530734
 20
662.33535107163232
 40
72.999919700029196
 50
82.832099037146563
 51
85.349290995343722
  0
ARC
  8
_0-1_計細線
  6
CONTINUOUS
 62
    3
 10
504.16091334530734
 20
662.33535107163232
 40
76.999915300030807
 50
70.159770409557851
 51
85.471936986412956
  0
ARC
  8
_0-1_計細線
  6
CONTINUOUS
 62
    3
 10
504.16091334530734
 20
662.33535107163232
 40
77.999914200031185
 50
68.215023980535108
 51
85.471936986413084
  0
LINE
  8
_0-0_計極細
  6
CENTER2
 62
    2
 10
421.41609387866595
 20
662.76475899176194
 11
584.22224102332234
 21
662.76475899176194
  0
TEXT
  8
_0-5_寸法線
 62
    7
 10
293.33295441958921
 20
153.77268415627327
 40
15
 41
0.8000000000000001
 50
0
  1
※ （　）内はトラップ切断時
  0
TEXT
  8
_0-7_枠細線
 62
    5
 10
960.50000000000011
 20
149.53034845114914
 40
20
 41
0.6
 50
0
  1
フリースタイルユニット＋防水マス
  0
ENDSEC
  0
EOF
