  0
SECTION
  2
HEADER
  9
$ACADVER
  1
AC1009
  9
$INSBASE
 10
0
 20
0
 30
0
  9
$EXTMIN
 10
0
 20
0
  9
$EXTMAX
 10
1485
 20
1050
  9
$LIMMIN
 10
0
 20
0
  9
$LIMMAX
 10
1485
 20
1050
  9
$LTSCALE
 40
5
  0
ENDSEC
  0
SECTION
  2
TABLES
  0
TABLE
  2
LTYPE
 70
     9
  0
LTYPE
  2
CONTINUOUS
 70
    64
  3
実線
 72
    65
 73
     0
 40
0.0
  0
LTYPE
  2
DASHED1
 70
    64
  3
--  --  --  --  --  --  --  --  
 72
    65
 73
     2
 40
2.5
 49
1.25
 49
-1.25
  0
LTYPE
  2
DASHED2
 70
    64
  3
----    ----    ----    ----    
 72
    65
 73
     2
 40
5.0
 49
2.5
 49
-2.5
  0
LTYPE
  2
DASHED3
 70
    64
  3
------  ------  ------  ------  
 72
    65
 73
     2
 40
5.0
 49
3.75
 49
-1.25
  0
LTYPE
  2
CENTER1
 70
    64
  3
----- - ----- - ----- - ----- - 
 72
    65
 73
     4
 40
10.0
 49
6.25
 49
-1.25
 49
1.25
 49
-1.25
  0
LTYPE
  2
CENTER2
 70
    64
  3
----------  --  ----------  --  
 72
    65
 73
     4
 40
20.0
 49
12.5
 49
-2.5
 49
2.5
 49
-2.5
  0
LTYPE
  2
PHANTOM1
 70
    64
  3
--- - - --- - - --- - - --- - - 
 72
    65
 73
     6
 40
10.0
 49
3.25
 49
-1.25
 49
1.25
 49
-1.25
 49
1.25
 49
-1.25
  0
LTYPE
  2
PHANTOM2
 70
    64
  3
--------  -  -  --------  -  -  
 72
    65
 73
     6
 40
20.0
 49
10.0
 49
-2.5
 49
1.25
 49
-2.5
 49
1.25
 49
-2.5
  0
LTYPE
  2
DOT
 70
    64
  3
-   -   -   -   -   -   -   -   
 72
    65
 73
     2
 40
2.5
 49
0.625
 49
-1.875
  0
LTYPE
  2
DUMMY
 70
    64
  3
ダミー
 72
    65
 73
     0
 40
0.0
  0
LTYPE
  2
RAND1
 70
    64
  3
ランダム線1
 72
    65
 73
     4
 40
10.0
 49
1.0
 49
-2.0
 49
3.0
 49
-4.0
  0
LTYPE
  2
RAND2
 70
    64
  3
ランダム線2
 72
    65
 73
     4
 40
14.0
 49
2.0
 49
-3.0
 49
4.0
 49
-5.0
  0
LTYPE
  2
RAND3
 70
    64
  3
ランダム線3
 72
    65
 73
     4
 40
18.0
 49
3.0
 49
-4.0
 49
5.0
 49
-6.0
  0
LTYPE
  2
RAND4
 70
    64
  3
ランダム線4
 72
    65
 73
     4
 40
22.0
 49
4.0
 49
-5.0
 49
6.0
 49
-7.0
  0
LTYPE
  2
RAND5
 70
    64
  3
ランダム線5
 72
    65
 73
     4
 40
26.0
 49
5.0
 49
-6.0
 49
7.0
 49
-8.0
  0
LTYPE
  2
LONG1
 70
    64
  3
----------  --  ----------  --  
 72
    65
 73
     4
 40
40.0
 49
32.5
 49
-2.5
 49
2.5
 49
-2.5
  0
LTYPE
  2
LONG2
 70
    64
  3
--------  -  -  --------  -  -  
 72
    65
 73
     6
 40
40.0
 49
30.0
 49
-2.5
 49
1.25
 49
-2.5
 49
1.25
 49
-2.5
  0
LTYPE
  2
LONG3
 70
    64
  3
+++++++++++++++..+++++++++++++++
 72
    65
 73
     2
 40
40.0
 49
37.5
 49
-2.5
  0
LTYPE
  2
LONG4
 70
    64
  3
+++++++++++++++..+++++++++++++++
 72
    65
 73
     2
 40
80.0
 49
75.0
 49
-5.0
  0
LTYPE
  2
LONG5
 70
    64
  3
----------  --  ----------  --  
 72
    65
 73
     4
 40
60.0
 49
37.5
 49
-7.5
 49
7.5
 49
-7.5
  0
LTYPE
  2
dashed
 70
   64
  3
-------   -------------   ------
 72
   65
 73
    2
 40
7.5
 49
6
 49
-1.5
  0
LTYPE
  2
dashed_spaced
 70
   64
  3
----        --------        ----
 72
   65
 73
    2
 40
12
 49
6
 49
-6
  0
LTYPE
  2
long_dashed_dotted
 70
   64
  3
------------- --- --------------
 72
   65
 73
    4
 40
15.25
 49
12
 49
-1.5
 49
0.25
 49
-1.5
  0
LTYPE
  2
long_dashed_double-dotted
 70
   64
  3
----------- --- --- ------------
 72
   65
 73
    6
 40
17
 49
12
 49
-1.5
 49
0.25
 49
-1.5
 49
0.25
 49
-1.5
  0
LTYPE
  2
long_dashed_triplicate-dotted
 70
   64
  3
--------- --- --- --- ----------
 72
   65
 73
    8
 40
18.75
 49
12
 49
-1.5
 49
0.25
 49
-1.5
 49
0.25
 49
-1.5
 49
0.25
 49
-1.5
  0
LTYPE
  2
dotted
 70
   64
  3
   -       -       -       -    
 72
   65
 73
    2
 40
1.75
 49
0.25
 49
-1.5
  0
LTYPE
  2
chain
 70
   64
  3
-------------- -- --------------
 72
   65
 73
    4
 40
18.5
 49
12
 49
-1.5
 49
3.5
 49
-1.5
  0
LTYPE
  2
chain_double_dash
 70
   64
  3
------------ -- -- -------------
 72
   65
 73
    6
 40
23.5
 49
12
 49
-1.5
 49
3.5
 49
-1.5
 49
3.5
 49
-1.5
  0
LTYPE
  2
dashed_dotted
 70
   64
  3
-----------     -     ----------
 72
   65
 73
    4
 40
9.25
 49
6
 49
-1.5
 49
0.25
 49
-1.5
  0
LTYPE
  2
double-dashed_dotted
 70
   64
  3
------   -----------   -   -----
 72
   65
 73
    6
 40
16.75
 49
6
 49
-1.5
 49
6
 49
-1.5
 49
0.25
 49
-1.5
  0
LTYPE
  2
dashed_double-dotted
 70
   64
  3
---------    -    -    ---------
 72
   65
 73
    6
 40
11
 49
6
 49
-1.5
 49
0.25
 49
-1.5
 49
0.25
 49
-1.5
  0
LTYPE
  2
double-dashed_double-dotted
 70
   64
  3
-----   ---------   -   -   ----
 72
   65
 73
    8
 40
18.5
 49
6
 49
-1.5
 49
6
 49
-1.5
 49
0.25
 49
-1.5
 49
0.25
 49
-1.5
  0
LTYPE
  2
dashed_triplicate-dotted
 70
   64
  3
-------    -    -    -    ------
 72
   65
 73
    8
 40
12.75
 49
6
 49
-1.5
 49
0.25
 49
-1.5
 49
0.25
 49
-1.5
 49
0.25
 49
-1.5
  0
LTYPE
  2
double-dashed_triplicate-dotted
 70
   64
  3
-----  ---------  -  -  -  -----
 72
   65
 73
   10
 40
20.25
 49
6
 49
-1.5
 49
6
 49
-1.5
 49
0.25
 49
-1.5
 49
0.25
 49
-1.5
 49
0.25
 49
-1.5
  0
LTYPE
  2
undefined
 70
   64
  3
--------------------------------
 72
   65
 73
    0
 40
0
  0
ENDTAB
  0
TABLE
  2
STYLE
  5
3
100
AcDbSymbolTable
 70
     1
  0
STYLE
  5
10
100
AcDbSymbolTableRecord
100
AcDbTextStyleTableRecord
  2
STANDARD
 70
     0
 40
0.0
 41
1.0
 50
0.0
 71
     0
 42
0.2
  3
txt
  4
bigfont.shx
  0
STYLE
  5
26
100
AcDbSymbolTableRecord
100
AcDbTextStyleTableRecord
  2
TATEGAKI
 70
    68
 40
0.0
 41
1.0
 50
0.0
 71
     0
 42
1.0
  3
txt
  4
bigfont.shx
  0
ENDTAB
  0
TABLE
  2
LAYER
 70
   10
  0
LAYER
  2
_0-0_計極細
 70
   64
 62
    7
  6
CONTINUOUS
  0
LAYER
  2
_0-1_計細線
 70
   64
 62
    7
  6
CONTINUOUS
  0
LAYER
  2
_0-5_寸法線
 70
   64
 62
    7
  6
CONTINUOUS
  0
LAYER
  2
_0-7_枠細線
 70
   64
 62
    7
  6
CONTINUOUS
  0
LAYER
  2
_0-8_枠中線
 70
   64
 62
    7
  6
CONTINUOUS
  0
LAYER
  2
_0-9_枠極太
 70
   64
 62
    7
  6
CONTINUOUS
  0
LAYER
  2
_0-a_極細3
 70
   64
 62
    7
  6
CONTINUOUS
  0
LAYER
  2
_0-b_細線3
 70
   64
 62
    7
  6
CONTINUOUS
  0
LAYER
  2
_0-d_寸法3
 70
   64
 62
    7
  6
CONTINUOUS
  0
LAYER
  2
ADD_LINE
 70
   64
 62
    7
  6
CONTINUOUS
  0
ENDTAB
  0
ENDSEC
  0
SECTION
  2
BLOCKS
  0
ENDSEC
  0
SECTION
  2
ENTITIES
  0
LINE
  8
_0-7_枠細線
  6
CONTINUOUS
 62
    5
 10
1185
 20
180
 11
1185
 21
100
  0
TEXT
  8
_0-7_枠細線
 62
    5
 10
937.5
 20
97.5
 40
17.5
 41
1
 50
0
  1
備考
  7
TATEGAKI
  0
TEXT
  8
_0-7_枠細線
 62
    5
 10
937.5
 20
137.5
 40
17.5
 41
1
 50
0
  1
品番
  7
TATEGAKI
  0
TEXT
  8
_0-7_枠細線
 62
    5
 10
937.5
 20
177.5
 40
17.5
 41
1
 50
0
  1
品名
  7
TATEGAKI
  0
LINE
  8
_0-7_枠細線
  6
CONTINUOUS
 62
    5
 10
1185
 20
140
 11
925
 21
140
  0
LINE
  8
_0-7_枠細線
  6
CONTINUOUS
 62
    5
 10
950
 20
180
 11
950
 21
60
  0
LINE
  8
_0-8_枠中線
  6
CONTINUOUS
 62
    5
 10
1425
 20
180
 11
925
 21
180
  0
LINE
  8
_0-8_枠中線
  6
CONTINUOUS
 62
    5
 10
925
 20
180
 11
925
 21
60
  0
LINE
  8
_0-7_枠細線
  6
CONTINUOUS
 62
    5
 10
1245
 20
180
 11
1245
 21
60
  0
TEXT
  8
_0-7_枠細線
 62
    5
 10
1192.5
 20
160
 40
15
 41
1
 50
0
  1
縮　尺
  0
TEXT
  8
_0-7_枠細線
 62
    5
 10
1194
 20
117.5
 40
20
 41
0.7
 50
0
  1
１：５
  0
LINE
  8
_0-7_枠細線
  6
CONTINUOUS
 62
    5
 10
1185
 20
155
 11
1245
 21
155
  0
LINE
  8
_0-7_枠細線
  6
CONTINUOUS
 62
    5
 10
1245
 20
100
 11
925
 21
100
  0
LINE
  8
_0-7_枠細線
  6
CONTINUOUS
 62
    5
 10
1425
 20
90
 11
1245
 21
90
  0
LINE
  8
_0-7_枠細線
  6
CONTINUOUS
 62
    5
 10
1245
 20
120
 11
1425
 21
120
  0
LINE
  8
_0-7_枠細線
  6
CONTINUOUS
 62
    5
 10
1425
 20
140
 11
1245
 21
140
  0
TEXT
  8
_0-7_枠細線
 62
    5
 10
1255
 20
147.5
 40
25
 41
0.8
 50
0
  1
株式会社シマブン
  0
TEXT
  8
_0-7_枠細線
 62
    5
 10
1252.5
 20
60
 40
15
 41
1
 50
0
  1
年月日
  0
TEXT
  8
_0-7_枠細線
 62
    5
 10
1252.5
 20
75
 40
15
 41
1
 50
0
  1
作　成
  0
TEXT
  8
_0-7_枠細線
 62
    5
 10
1250
 20
95
 40
20
 41
1
 50
0
  1
島 英
  0
TEXT
  8
_0-7_枠細線
 62
    5
 10
1256.25
 20
122.5
 40
15
 41
1
 50
0
  1
承 認
  0
LINE
  8
_0-7_枠細線
  6
CONTINUOUS
 62
    5
 10
1305
 20
140
 11
1305
 21
60
  0
TEXT
  8
_0-7_枠細線
 62
    5
 10
1315
 20
95
 40
20
 41
1
 50
0
  1
隠塚
  0
TEXT
  8
_0-7_枠細線
 62
    5
 10
1316.25
 20
122.5
 40
15
 41
1
 50
0
  1
検 図
  0
LINE
  8
_0-7_枠細線
  6
CONTINUOUS
 62
    5
 10
1365
 20
140
 11
1365
 21
90
  0
TEXT
  8
_0-7_枠細線
 62
    5
 10
1375
 20
95
 40
20
 41
1
 50
0
  1
藤戸
  0
TEXT
  8
_0-7_枠細線
 62
    5
 10
1376.25
 20
122.5
 40
15
 41
1
 50
0
  1
設 計
  0
TEXT
  8
_0-7_枠細線
 62
    5
 10
965.50000000000011
 20
150
 40
20
 41
0.6
 50
0
  1
セーフティグレーチングＨ２０タイプ
  0
LINE
  8
_0-a_極細3
  6
CENTER1
 62
    7
 10
493.03841985316808
 20
227.52699371523795
 11
493.03841985316808
 21
290.97699371524413
  0
LINE
  8
_0-a_極細3
  6
CONTINUOUS
 62
    7
 10
168.03841985316765
 20
232.04615653402107
 11
168.03841985316765
 21
163.71282320068715
  0
LINE
  8
_0-a_極細3
  6
CONTINUOUS
 62
    7
 10
251.37175318650108
 20
163.71282320068715
 11
168.03841985316765
 21
163.71282320068715
  0
LINE
  8
_0-a_極細3
  6
CONTINUOUS
 62
    7
 10
168.03841985316765
 20
232.04615653402107
 11
137.1940060413865
 21
232.04615653402107
  0
LINE
  8
_0-a_極細3
  6
CONTINUOUS
 62
    7
 10
251.37175318650108
 20
163.71282320068715
 11
251.37175318650108
 21
137.47122290590866
  0
LINE
  8
_0-a_極細3
  6
CONTINUOUS
 62
    7
 10
213.94977862151137
 20
137.47122302234493
 11
240.19137879985394
 21
163.71282320068715
  0
LINE
  8
_0-a_極細3
  6
CONTINUOUS
 62
    7
 10
143.23910072287006
 20
137.47122324235852
 11
169.4807006811991
 21
163.71282320068715
  0
LINE
  8
_0-a_極細3
  6
CONTINUOUS
 62
    7
 10
137.1940060413865
 20
202.13680667952943
 11
167.10335589587771
 21
232.04615653402107
  0
LINE
  8
_0-a_極細3
  6
CONTINUOUS
 62
    7
 10
206.87871083164714
 20
137.47122304434654
 11
233.12031098798826
 21
163.71282320068715
  0
LINE
  8
_0-a_極細3
  6
CONTINUOUS
 62
    7
 10
137.1940060413865
 20
138.49719637274029
 11
168.03841985316765
 21
169.34161018452187
  0
LINE
  8
_0-a_極細3
  6
CONTINUOUS
 62
    7
 10
137.1940060413865
 20
209.20787449139516
 11
160.03228808401195
 21
232.04615653402107
  0
LINE
  8
_0-a_極細3
  6
CONTINUOUS
 62
    7
 10
199.80764304178342
 20
137.47122306634807
 11
226.04924317612287
 21
163.71282320068715
  0
LINE
  8
_0-a_極細3
  6
CONTINUOUS
 62
    7
 10
137.1940060413865
 20
145.56826418460602
 11
168.03841985316765
 21
176.41267799638717
  0
LINE
  8
_0-a_極細3
  6
CONTINUOUS
 62
    7
 10
137.1940060413865
 20
216.27894230326092
 11
152.96122027214665
 21
232.04615653402107
  0
CIRCLE
  8
_0-a_極細3
  6
CONTINUOUS
 62
    7
 10
155.0898938845537
 20
247.2495669506807
 40
0.5530864197530718
  0
CIRCLE
  8
_0-a_極細3
  6
CONTINUOUS
 62
    7
 10
144.75902968702329
 20
237.29401139512538
 40
0.5530864197530718
  0
CIRCLE
  8
_0-a_極細3
  6
CONTINUOUS
 62
    7
 10
155.36643709443047
 20
238.36067806179202
 40
0.5530864197530718
  0
CIRCLE
  8
_0-a_極細3
  6
CONTINUOUS
 62
    7
 10
167.98865931665276
 20
240.31623361734731
 40
0.5530864197530718
  0
CIRCLE
  8
_0-a_極細3
  6
CONTINUOUS
 62
    7
 10
196.43310376109667
 20
252.04956695068088
 40
0.5530864197530718
  0
CIRCLE
  8
_0-a_極細3
  6
CONTINUOUS
 62
    7
 10
221.32199264998533
 20
262.00512250623615
 40
0.5530864197530718
  0
CIRCLE
  8
_0-a_極細3
  6
CONTINUOUS
 62
    7
 10
227.01088153887417
 20
245.82734472845826
 40
0.5530864197530718
  0
CIRCLE
  8
_0-a_極細3
  6
CONTINUOUS
 62
    7
 10
202.12199264998546
 20
245.29401139512541
 40
0.5530864197530718
  0
CIRCLE
  8
_0-a_極細3
  6
CONTINUOUS
 62
    7
 10
190.38865931665242
 20
260.22734472845832
 40
0.5530864197530718
  0
CIRCLE
  8
_0-a_極細3
  6
CONTINUOUS
 62
    7
 10
174.93310376109704
 20
233.06067806179183
 40
0.5530864197530718
  0
CIRCLE
  8
_0-a_極細3
  6
CONTINUOUS
 62
    7
 10
195.37754820554099
 20
231.81623361734728
 40
0.5530864197530718
  0
CIRCLE
  8
_0-a_極細3
  6
CONTINUOUS
 62
    7
 10
220.4442148722076
 20
228.08290028401416
 40
0.5530864197530718
  0
CIRCLE
  8
_0-a_極細3
  6
CONTINUOUS
 62
    7
 10
207.8219926499853
 20
222.39401139512529
 40
0.5530864197530718
  0
CIRCLE
  8
_0-a_極細3
  6
CONTINUOUS
 62
    7
 10
193.06643709443028
 20
208.88290028401434
 40
0.5530864197530718
  0
CIRCLE
  8
_0-a_極細3
  6
CONTINUOUS
 62
    7
 10
220.4442148722076
 20
216.17178917290315
 40
0.5530864197530718
  0
CIRCLE
  8
_0-a_極細3
  6
CONTINUOUS
 62
    7
 10
179.33310376109674
 20
189.06067806179223
 40
0.5530864197530718
  0
CIRCLE
  8
_0-a_極細3
  6
CONTINUOUS
 62
    7
 10
173.64421487220781
 20
171.105122506237
 40
0.5530864197530718
  0
CIRCLE
  8
_0-a_極細3
  6
CONTINUOUS
 62
    7
 10
182.35532598331906
 20
177.86067806179247
 40
0.5530864197530718
  0
CIRCLE
  8
_0-a_極細3
  6
CONTINUOUS
 62
    7
 10
188.57754820554121
 20
169.32734472845914
 40
0.5530864197530718
  0
CIRCLE
  8
_0-a_極細3
  6
CONTINUOUS
 62
    7
 10
227.87754820554099
 20
187.21623361734785
 40
0.5530864197530718
  0
CIRCLE
  8
_0-a_極細3
  6
CONTINUOUS
 62
    7
 10
216.67754820554114
 20
181.70512250623688
 40
0.5530864197530718
  0
CIRCLE
  8
_0-a_極細3
  6
CONTINUOUS
 62
    7
 10
222.89977042776329
 20
179.21623361734788
 40
0.5530864197530718
  0
CIRCLE
  8
_0-a_極細3
  6
CONTINUOUS
 62
    7
 10
219.34421487220766
 20
169.97178917290327
 40
0.5530864197530718
  0
CIRCLE
  8
_0-a_極細3
  6
CONTINUOUS
 62
    7
 10
239.2553259833187
 20
171.03845583957039
 40
0.5530864197530718
  0
CIRCLE
  8
_0-a_極細3
  6
CONTINUOUS
 62
    7
 10
252.23310376109637
 20
174.23845583957018
 40
0.5530864197530718
  0
CIRCLE
  8
_0-a_極細3
  6
CONTINUOUS
 62
    7
 10
265.92199264998527
 20
159.30512250623721
 40
0.5530864197530718
  0
CIRCLE
  8
_0-a_極細3
  6
CONTINUOUS
 62
    7
 10
258.98865931665182
 20
144.37178917290382
 40
0.5530864197530718
  0
CIRCLE
  8
_0-a_極細3
  6
CONTINUOUS
 62
    7
 10
242.32199264998528
 20
187.98660398771835
 40
0.5530864197530718
  0
CIRCLE
  8
_0-a_極細3
  6
CONTINUOUS
 62
    7
 10
257.07754820554078
 20
222.11993732105114
 40
0.5530864197530718
  0
CIRCLE
  8
_0-a_極細3
  6
CONTINUOUS
 62
    7
 10
272.18865931665164
 20
212.16438176549585
 40
0.5530864197530718
  0
CIRCLE
  8
_0-a_極細3
  6
CONTINUOUS
 62
    7
 10
272.72199264998494
 20
194.2088262099405
 40
0.5530864197530718
  0
CIRCLE
  8
_0-a_極細3
  6
CONTINUOUS
 62
    7
 10
237.47754820554093
 20
223.94215954327365
 40
0.5530864197530718
  0
CIRCLE
  8
_0-a_極細3
  6
CONTINUOUS
 62
    7
 10
217.18865931665206
 20
245.9261101605571
 40
1.825531472681392
  0
CIRCLE
  8
_0-a_極細3
  6
CONTINUOUS
 62
    7
 10
165.42653961521708
 20
252.8557244352551
 40
1.825531472681392
  0
CIRCLE
  8
_0-a_極細3
  6
CONTINUOUS
 62
    7
 10
214.36643709443004
 20
212.99277682722462
 40
1.825531472681392
  0
CIRCLE
  8
_0-a_極細3
  6
CONTINUOUS
 62
    7
 10
191.96643709442995
 20
223.12611016055783
 40
1.825531472681392
  0
CIRCLE
  8
_0-a_極細3
  6
CONTINUOUS
 62
    7
 10
172.36643709443001
 20
185.12611016055786
 40
1.825531472681392
  0
CIRCLE
  8
_0-a_極細3
  6
CONTINUOUS
 62
    7
 10
225.56643709442938
 20
172.32611016055813
 40
1.825531472681392
  0
CIRCLE
  8
_0-a_極細3
  6
CONTINUOUS
 62
    7
 10
261.54421487220702
 20
168.72611016055814
 40
1.825531472681392
  0
CIRCLE
  8
_0-a_極細3
  6
CONTINUOUS
 62
    7
 10
266.34421487220675
 20
150.0594434938921
 40
1.825531472681392
  0
CIRCLE
  8
_0-a_極細3
  6
CONTINUOUS
 62
    7
 10
145.22946007413771
 20
253.74833238277961
 40
1.825531472681392
  0
LINE
  8
_0-a_極細3
  6
CONTINUOUS
 62
    7
 10
283.87175318650111
 20
238.71282320068715
 11
284.70508651983465
 21
238.71282320068715
  0
LINE
  8
_0-a_極細3
  6
CONTINUOUS
 62
    7
 10
284.70508651983465
 20
238.71282320068715
 11
284.70508651983465
 21
137.47122290590866
  0
CIRCLE
  8
_0-a_極細3
  6
CONTINUOUS
 62
    7
 10
277.81765237220566
 20
222.72611016055819
 40
1.825531472681392
  0
CIRCLE
  8
_0-a_極細3
  6
CONTINUOUS
 62
    7
 10
276.8256963536885
 20
168.01623361734798
 40
0.5530864197530718
  0
CIRCLE
  8
_0-a_極細3
  6
CONTINUOUS
 62
    7
 10
278.15902968702244
 20
145.3601625841784
 40
0.5530864197530718
  0
CIRCLE
  8
_0-a_極細3
  6
CONTINUOUS
 62
    7
 10
265.78865931664751
 20
203.61499904944685
 40
1.825531472681392
  0
LINE
  8
_0-a_極細3
  6
CONTINUOUS
 62
    7
 10
226.37175318650108
 20
277.04615653402107
 11
226.37175318650108
 21
265.3794898673541
  0
LINE
  8
_0-a_極細3
  6
CONTINUOUS
 62
    7
 10
226.37175318650108
 20
277.04615653402107
 11
137.1940060413865
 21
277.04615653402107
  0
LINE
  8
_0-a_極細3
  6
CONTINUOUS
 62
    7
 10
234.70508651983465
 20
265.3794898673541
 11
137.1940060413865
 21
265.3794898673541
  0
LINE
  8
_0-a_極細3
  6
CONTINUOUS
 62
    7
 10
234.70508651983465
 20
277.04615653402107
 11
226.37175318650108
 21
277.04615653402107
  0
LINE
  8
_0-a_極細3
  6
CONTINUOUS
 62
    7
 10
234.70508651983465
 20
276.21282320068713
 11
234.70508651983465
 21
277.04615653402107
  0
LINE
  8
_0-a_極細3
  6
CONTINUOUS
 62
    7
 10
234.506996263475
 20
265.3794898673541
 11
234.70508651983414
 21
265.57758012371323
  0
LINE
  8
_0-a_極細3
  6
CONTINUOUS
 62
    7
 10
230.26435557635594
 20
265.3794898673541
 11
234.70508651983465
 21
269.82022081083232
  0
LINE
  8
_0-a_極細3
  6
CONTINUOUS
 62
    7
 10
226.37175318650108
 20
265.72952816461839
 11
234.70508651983465
 21
274.06286149795187
  0
LINE
  8
_0-a_極細3
  6
CONTINUOUS
 62
    7
 10
226.37175318650108
 20
269.97216885173793
 11
233.44574086878382
 21
277.04615653402107
  0
LINE
  8
_0-a_極細3
  6
CONTINUOUS
 62
    7
 10
226.37175318650108
 20
274.21480953885748
 11
229.20310018166475
 21
277.04615653402107
  0
LINE
  8
_0-a_極細3
  6
CONTINUOUS
 62
    7
 10
234.70508651983465
 20
274.76518966176218
 11
232.42411964757622
 21
277.04615653402107
  0
LINE
  8
_0-a_極細3
  6
CONTINUOUS
 62
    7
 10
234.70508651983465
 20
270.52254897464263
 11
228.18147896045659
 21
277.04615653402107
  0
LINE
  8
_0-a_極細3
  6
CONTINUOUS
 62
    7
 10
226.37175318650108
 20
274.61324162085702
 11
234.70508651983465
 21
266.27990828752354
  0
LINE
  8
_0-a_極細3
  6
CONTINUOUS
 62
    7
 10
226.37175318650108
 20
270.37060093373748
 11
231.36286425288446
 21
265.3794898673541
  0
LINE
  8
_0-a_極細3
  6
CONTINUOUS
 62
    7
 10
226.37175318650108
 20
266.12796024661839
 11
227.1202235657654
 21
265.3794898673541
  0
LINE
  8
_0-a_極細3
  6
CONTINUOUS
 62
    7
 10
217.53643350887046
 20
265.37948986122683
 11
226.37175318650108
 21
274.21480953885748
  0
LINE
  8
_0-a_極細3
  6
CONTINUOUS
 62
    7
 10
196.32323005856307
 20
265.37948984651575
 11
207.9898967460683
 21
277.04615653402061
  0
LINE
  8
_0-a_極細3
  6
CONTINUOUS
 62
    7
 10
175.11002660825511
 20
265.37948983180422
 11
186.77669331047156
 21
277.04615653402107
  0
LINE
  8
_0-a_極細3
  6
CONTINUOUS
 62
    7
 10
153.89682315794721
 20
265.37948981709269
 11
165.5634898748751
 21
277.04615653402107
  0
LINE
  8
_0-a_極細3
  6
CONTINUOUS
 62
    7
 10
137.1940060413865
 20
269.88987613612835
 11
144.35028643927879
 21
277.04615653402061
  0
LINE
  8
_0-a_極細3
  6
DASHED2
 62
    7
 10
206.92983178371676
 20
265.37948985387084
 11
218.59649846386651
 21
277.04615653402107
  0
LINE
  8
_0-a_極細3
  6
DASHED2
 62
    7
 10
185.71662833340881
 20
265.37948983915976
 11
197.38329502827014
 21
277.04615653402107
  0
LINE
  8
_0-a_極細3
  6
DASHED2
 62
    7
 10
164.50342488310142
 20
265.37948982444868
 11
176.17009159267332
 21
277.04615653402107
  0
LINE
  8
_0-a_極細3
  6
DASHED2
 62
    7
 10
143.29022143279346
 20
265.37948980973761
 11
154.95688815707695
 21
277.04615653402107
  0
ARC
  8
_0-b_細線3
  6
CONTINUOUS
 62
    7
 10
239.70508651983465
 20
243.71282320068715
 40
5
 50
179.99999999999983
 51
269.99999999999977
  0
LINE
  8
_0-b_細線3
  6
CONTINUOUS
 62
    7
 10
234.70508651983465
 20
243.71282320068715
 11
234.70508651983465
 21
276.21282320068713
  0
LINE
  8
_0-b_細線3
  6
CONTINUOUS
 62
    7
 10
239.70508651983465
 20
238.71282320068715
 11
283.87175318650111
 21
238.71282320068715
  0
LINE
  8
_0-b_細線3
  6
CONTINUOUS
 62
    7
 10
284.70508651983465
 20
239.54615653402107
 11
283.87175318650111
 21
238.71282320068715
  0
LINE
  8
_0-b_細線3
  6
CONTINUOUS
 62
    7
 10
284.70508651983465
 20
242.87948986735412
 11
284.70508651983465
 21
239.54615653402107
  0
LINE
  8
_0-b_細線3
  6
CONTINUOUS
 62
    7
 10
283.87175318650111
 20
243.71282320068715
 11
284.70508651983465
 21
242.87948986735412
  0
LINE
  8
_0-b_細線3
  6
CONTINUOUS
 62
    7
 10
239.70508651983465
 20
243.71282320068715
 11
283.87175318650111
 21
243.71282320068715
  0
LINE
  8
_0-b_細線3
  6
CONTINUOUS
 62
    7
 10
235.53841985316765
 20
277.04615653402107
 11
234.70508651983465
 21
276.21282320068713
  0
LINE
  8
_0-b_細線3
  6
CONTINUOUS
 62
    7
 10
238.87175318650108
 20
277.04615653402107
 11
235.53841985316765
 21
277.04615653402107
  0
LINE
  8
_0-b_細線3
  6
CONTINUOUS
 62
    7
 10
239.70508651983465
 20
276.21282320068713
 11
238.87175318650108
 21
277.04615653402107
  0
LINE
  8
_0-b_細線3
  6
CONTINUOUS
 62
    7
 10
239.70508651983465
 20
243.71282320068715
 11
239.70508651983465
 21
276.21282320068713
  0
CIRCLE
  8
_0-a_極細3
  6
CONTINUOUS
 62
    7
 10
204.88495561294869
 20
257.43722127166711
 40
1.825531472681392
  0
LINE
  8
_0-a_極細3
  6
CONTINUOUS
 62
    7
 10
818.03841985316808
 20
232.04615653402107
 11
818.03841985316808
 21
163.71282320068715
  0
LINE
  8
_0-a_極細3
  6
CONTINUOUS
 62
    7
 10
734.70508651983482
 20
163.71282320068715
 11
818.03841985316808
 21
163.71282320068715
  0
LINE
  8
_0-a_極細3
  6
CONTINUOUS
 62
    7
 10
818.03841985316808
 20
232.04615653402107
 11
848.88283366494943
 21
232.04615653402107
  0
LINE
  8
_0-a_極細3
  6
CONTINUOUS
 62
    7
 10
734.70508651983482
 20
163.71282320068715
 11
734.70508651983482
 21
137.47122290590866
  0
LINE
  8
_0-a_極細3
  6
CONTINUOUS
 62
    7
 10
826.3284222677612
 20
137.47122290590866
 11
848.88283370649015
 21
160.02563434463724
  0
LINE
  8
_0-a_極細3
  6
CONTINUOUS
 62
    7
 10
755.61774414910633
 20
137.47122290590866
 11
781.85934444388522
 21
163.71282320068715
  0
LINE
  8
_0-a_極細3
  6
CONTINUOUS
 62
    7
 10
818.03841985316808
 20
199.89189860997021
 11
848.88283366570499
 21
230.7363124225067
  0
LINE
  8
_0-a_極細3
  6
CONTINUOUS
 62
    7
 10
819.25735445589555
 20
137.47122290590866
 11
848.88283370241152
 21
167.09670215242431
  0
LINE
  8
_0-a_極細3
  6
CONTINUOUS
 62
    7
 10
748.54667633724057
 20
137.47122290590866
 11
774.78827663201992
 21
163.71282320068715
  0
LINE
  8
_0-a_極細3
  6
CONTINUOUS
 62
    7
 10
818.03841985316808
 20
206.96296642183555
 11
843.12160978580278
 21
232.04615635447044
  0
LINE
  8
_0-a_極細3
  6
CONTINUOUS
 62
    7
 10
812.18628664403013
 20
137.47122290590866
 11
848.88283369833289
 21
174.16776996021142
  0
LINE
  8
_0-a_極細3
  6
CONTINUOUS
 62
    7
 10
741.47560852537526
 20
137.47122290590866
 11
767.71720882015438
 21
163.71282320068715
  0
LINE
  8
_0-a_極細3
  6
CONTINUOUS
 62
    7
 10
818.03841985316808
 20
214.03403423370128
 11
836.05054202455358
 21
232.04615640508655
  0
CIRCLE
  8
_0-a_極細3
  6
CONTINUOUS
 62
    7
 10
721.11088153887226
 20
222.56715954327365
 40
0.5530864197530718
  0
CIRCLE
  8
_0-a_極細3
  6
CONTINUOUS
 62
    7
 10
731.06643709442767
 20
227.36715954327337
 40
0.5530864197530718
  0
CIRCLE
  8
_0-a_極細3
  6
CONTINUOUS
 62
    7
 10
726.97754820553905
 20
202.38938176549624
 40
0.5530864197530718
  0
CIRCLE
  8
_0-a_極細3
  6
CONTINUOUS
 62
    7
 10
744.51088153887213
 20
185.36715954327383
 40
0.5530864197530718
  0
CIRCLE
  8
_0-a_極細3
  6
CONTINUOUS
 62
    7
 10
726.67754820553898
 20
162.06715954327407
 40
0.5530864197530718
  0
CIRCLE
  8
_0-a_極細3
  6
CONTINUOUS
 62
    7
 10
717.34421487220584
 20
144.20049287660774
 40
0.5530864197530718
  0
CIRCLE
  8
_0-a_極細3
  6
CONTINUOUS
 62
    7
 10
728.81088153887208
 20
174.0671595432741
 40
0.5530864197530718
  0
CIRCLE
  8
_0-a_極細3
  6
CONTINUOUS
 62
    7
 10
742.67754820553864
 20
169.26715954327392
 40
0.5530864197530718
  0
CIRCLE
  8
_0-a_極細3
  6
CONTINUOUS
 62
    7
 10
769.61088153887192
 20
169.53382620994077
 40
0.5530864197530718
  0
CIRCLE
  8
_0-a_極細3
  6
CONTINUOUS
 62
    7
 10
757.61088153887204
 20
178.60049287660743
 40
0.5530864197530718
  0
CIRCLE
  8
_0-a_極細3
  6
CONTINUOUS
 62
    7
 10
768.81088153887185
 20
184.20049287660731
 40
0.5530864197530718
  0
CIRCLE
  8
_0-a_極細3
  6
CONTINUOUS
 62
    7
 10
759.32199264998292
 20
258.22271509882876
 40
0.5530864197530718
  0
CIRCLE
  8
_0-a_極細3
  6
CONTINUOUS
 62
    7
 10
756.83310376109398
 20
238.48938176549566
 40
0.5530864197530718
  0
CIRCLE
  8
_0-a_極細3
  6
CONTINUOUS
 62
    7
 10
777.36643709442717
 20
237.77827065438444
 40
0.5530864197530718
  0
CIRCLE
  8
_0-a_極細3
  6
CONTINUOUS
 62
    7
 10
765.76643709442715
 20
223.77827065438487
 40
0.5530864197530718
  0
CIRCLE
  8
_0-a_極細3
  6
CONTINUOUS
 62
    7
 10
804.96643709442674
 20
170.57827065438502
 40
0.5530864197530718
  0
CIRCLE
  8
_0-a_極細3
  6
CONTINUOUS
 62
    7
 10
812.16643709442678
 20
184.57827065438508
 40
0.5530864197530718
  0
CIRCLE
  8
_0-a_極細3
  6
CONTINUOUS
 62
    7
 10
810.56643709442665
 20
205.37827065438478
 40
0.5530864197530718
  0
CIRCLE
  8
_0-a_極細3
  6
CONTINUOUS
 62
    7
 10
792.56643709442699
 20
226.5782706543846
 40
0.5530864197530718
  0
CIRCLE
  8
_0-a_極細3
  6
CONTINUOUS
 62
    7
 10
809.3664370944266
 20
246.17827065438451
 40
0.5530864197530718
  0
CIRCLE
  8
_0-a_極細3
  6
CONTINUOUS
 62
    7
 10
806.56643709442676
 20
219.37827065438481
 40
0.5530864197530718
  0
CIRCLE
  8
_0-a_極細3
  6
CONTINUOUS
 62
    7
 10
836.16643709442644
 20
240.57827065438417
 40
0.5530864197530718
  0
CIRCLE
  8
_0-a_極細3
  6
CONTINUOUS
 62
    7
 10
831.36643709442626
 20
254.34833238277952
 40
1.825531472681392
  0
CIRCLE
  8
_0-a_極細3
  6
CONTINUOUS
 62
    7
 10
815.72199264998198
 20
238.88166571611328
 40
1.825531472681392
  0
CIRCLE
  8
_0-a_極細3
  6
CONTINUOUS
 62
    7
 10
760.29977042776056
 20
245.45944349389086
 40
1.825531472681392
  0
CIRCLE
  8
_0-a_極細3
  6
CONTINUOUS
 62
    7
 10
792.29977042776
 20
213.45944349389086
 40
1.825531472681392
  0
CIRCLE
  8
_0-a_極細3
  6
CONTINUOUS
 62
    7
 10
721.90532598331697
 20
168.90944349389159
 40
1.825531472681392
  0
CIRCLE
  8
_0-a_極細3
  6
CONTINUOUS
 62
    7
 10
732.12754820553869
 20
198.77611016055795
 40
1.825531472681392
  0
CIRCLE
  8
_0-a_極細3
  6
CONTINUOUS
 62
    7
 10
767.32754820553839
 20
176.37611016055828
 40
1.825531472681392
  0
CIRCLE
  8
_0-a_極細3
  6
CONTINUOUS
 62
    7
 10
813.59274084082199
 20
166.18905776858853
 40
1.825531472681392
  0
CIRCLE
  8
_0-a_極細3
  6
CONTINUOUS
 62
    7
 10
762.92754820553819
 20
219.57611016055765
 40
1.825531472681392
  0
CIRCLE
  8
_0-a_極細3
  6
CONTINUOUS
 62
    7
 10
715.46149882282293
 20
214.1529047535214
 40
0.5530864197530718
  0
CIRCLE
  8
_0-a_極細3
  6
CONTINUOUS
 62
    7
 10
715.66149882282377
 20
190.1973491979661
 40
0.5530864197530718
  0
CIRCLE
  8
_0-a_極細3
  6
CONTINUOUS
 62
    7
 10
823.36643709442671
 20
262.31160398771772
 40
0.5530864197530718
  0
CIRCLE
  8
_0-a_極細3
  6
CONTINUOUS
 62
    7
 10
792.56643709442699
 20
257.24493732105111
 40
0.5530864197530718
  0
CIRCLE
  8
_0-a_極細3
  6
CONTINUOUS
 62
    7
 10
792.6997704277602
 20
250.9261101605571
 40
1.825531472681392
  0
CIRCLE
  8
_0-a_極細3
  6
CONTINUOUS
 62
    7
 10
771.36643709442706
 20
263.24493732105111
 40
0.5530864197530718
  0
LINE
  8
_0-a_極細3
  6
CONTINUOUS
 62
    7
 10
702.20508651983425
 20
238.71282320068715
 11
701.37175318650111
 21
238.71282320068715
  0
LINE
  8
_0-a_極細3
  6
CONTINUOUS
 62
    7
 10
701.37175318650111
 20
238.71282320068715
 11
701.37175318650111
 21
137.47122290590866
  0
CIRCLE
  8
_0-a_極細3
  6
CONTINUOUS
 62
    7
 10
707.35614902858447
 20
198.65604843216261
 40
0.5530864197530718
  0
CIRCLE
  8
_0-a_極細3
  6
CONTINUOUS
 62
    7
 10
708.66273339072438
 20
159.40049287660756
 40
0.5530864197530718
  0
CIRCLE
  8
_0-a_極細3
  6
CONTINUOUS
 62
    7
 10
708.02384450183467
 20
225.3538879383359
 40
1.825531472681392
  0
CIRCLE
  8
_0-a_極細3
  6
CONTINUOUS
 62
    7
 10
710.97199264998267
 20
152.73166571611364
 40
1.825531472681392
  0
LINE
  8
_0-a_極細3
  6
CONTINUOUS
 62
    7
 10
759.70508651983482
 20
277.04615653402107
 11
759.70508651983482
 21
265.3794898673541
  0
LINE
  8
_0-a_極細3
  6
CONTINUOUS
 62
    7
 10
759.70508651983482
 20
277.04615653402107
 11
848.88283366494943
 21
277.04615653402107
  0
LINE
  8
_0-a_極細3
  6
CONTINUOUS
 62
    7
 10
751.37175318650134
 20
265.3794898673541
 11
848.88283366494943
 21
265.3794898673541
  0
LINE
  8
_0-a_極細3
  6
CONTINUOUS
 62
    7
 10
751.37175318650134
 20
277.04615653402107
 11
759.70508651983482
 21
277.04615653402107
  0
LINE
  8
_0-a_極細3
  6
CONTINUOUS
 62
    7
 10
751.37175318650134
 20
276.21282320068713
 11
751.37175318650134
 21
277.04615653402107
  0
LINE
  8
_0-a_極細3
  6
CONTINUOUS
 62
    7
 10
759.70508651983459
 20
269.04857614807861
 11
756.03600023910985
 21
265.3794898673541
  0
LINE
  8
_0-a_極細3
  6
CONTINUOUS
 62
    7
 10
759.70508651983459
 20
273.2912168351977
 11
751.79335955199076
 21
265.3794898673541
  0
LINE
  8
_0-a_極細3
  6
CONTINUOUS
 62
    7
 10
751.37175318650134
 20
269.20052418898422
 11
759.21738553153818
 21
277.04615653402107
  0
LINE
  8
_0-a_極細3
  6
CONTINUOUS
 62
    7
 10
751.37175318650134
 20
273.44316487610331
 11
754.97474484441864
 21
277.04615653402061
  0
LINE
  8
_0-a_極細3
  6
CONTINUOUS
 62
    7
 10
759.70508651983482
 20
275.53683432451544
 11
758.19576431032931
 21
277.04615653402107
  0
LINE
  8
_0-a_極細3
  6
CONTINUOUS
 62
    7
 10
759.70508651983482
 20
271.29419363739589
 11
753.9531236232101
 21
277.04615653402107
  0
LINE
  8
_0-a_極細3
  6
CONTINUOUS
 62
    7
 10
759.70508651983482
 20
267.0515529502768
 11
751.37175318650134
 21
275.38488628361029
  0
LINE
  8
_0-a_極細3
  6
CONTINUOUS
 62
    7
 10
757.13450891563798
 20
265.3794898673541
 11
751.37175318650134
 21
271.14224559649074
  0
LINE
  8
_0-a_極細3
  6
CONTINUOUS
 62
    7
 10
752.89186822851889
 20
265.3794898673541
 11
751.37175318650134
 21
266.89960490937119
  0
LINE
  8
_0-a_極細3
  6
CONTINUOUS
 62
    7
 10
828.16089192013794
 20
265.3794898673541
 11
839.82755796001538
 21
277.04615590723188
  0
LINE
  8
_0-a_極細3
  6
CONTINUOUS
 62
    7
 10
806.94768848454135
 20
265.3794898673541
 11
818.6143546903678
 21
277.0461560731801
  0
LINE
  8
_0-a_極細3
  6
CONTINUOUS
 62
    7
 10
785.73448504894486
 20
265.3794898673541
 11
797.40115142071954
 21
277.04615623912878
  0
LINE
  8
_0-a_極細3
  6
CONTINUOUS
 62
    7
 10
764.52128161334849
 20
265.3794898673541
 11
776.18794815107196
 21
277.04615640507745
  0
LINE
  8
_0-a_極細3
  6
DASHED2
 62
    7
 10
838.76749363793635
 20
265.3794898673541
 11
848.88283366494943
 21
275.49482989436729
  0
LINE
  8
_0-a_極細3
  6
DASHED2
 62
    7
 10
817.55429020233942
 20
265.3794898673541
 11
829.22095632519154
 21
277.04615599020599
  0
LINE
  8
_0-a_極細3
  6
DASHED2
 62
    7
 10
796.34108676674316
 20
265.3794898673541
 11
808.00775305554362
 21
277.04615615615421
  0
LINE
  8
_0-a_極細3
  6
DASHED2
 62
    7
 10
775.12788333114668
 20
265.3794898673541
 11
786.79454978589547
 21
277.04615632210289
  0
LINE
  8
_0-a_極細3
  6
DASHED2
 62
    7
 10
759.70508651983459
 20
271.16989649163861
 11
765.58134651624778
 21
277.04615648805157
  0
ARC
  8
_0-b_細線3
  6
CONTINUOUS
 62
    7
 10
746.37175318650134
 20
243.71282320068715
 40
5
 50
269.99999999999977
 51
359.99999999999966
  0
LINE
  8
_0-b_細線3
  6
CONTINUOUS
 62
    7
 10
751.37175318650134
 20
243.71282320068715
 11
751.37175318650134
 21
276.21282320068713
  0
LINE
  8
_0-b_細線3
  6
CONTINUOUS
 62
    7
 10
746.37175318650134
 20
238.71282320068715
 11
702.20508651983425
 21
238.71282320068715
  0
LINE
  8
_0-b_細線3
  6
CONTINUOUS
 62
    7
 10
701.37175318650111
 20
239.54615653402107
 11
702.20508651983425
 21
238.71282320068715
  0
LINE
  8
_0-b_細線3
  6
CONTINUOUS
 62
    7
 10
701.37175318650111
 20
242.87948986735412
 11
701.37175318650111
 21
239.54615653402107
  0
LINE
  8
_0-b_細線3
  6
CONTINUOUS
 62
    7
 10
702.20508651983425
 20
243.71282320068715
 11
701.37175318650111
 21
242.87948986735412
  0
LINE
  8
_0-b_細線3
  6
CONTINUOUS
 62
    7
 10
746.37175318650134
 20
243.71282320068715
 11
702.20508651983425
 21
243.71282320068715
  0
LINE
  8
_0-b_細線3
  6
CONTINUOUS
 62
    7
 10
750.53841985316831
 20
277.04615653402107
 11
751.37175318650134
 21
276.21282320068713
  0
LINE
  8
_0-b_細線3
  6
CONTINUOUS
 62
    7
 10
747.20508651983482
 20
277.04615653402107
 11
750.53841985316831
 21
277.04615653402107
  0
LINE
  8
_0-b_細線3
  6
CONTINUOUS
 62
    7
 10
746.37175318650134
 20
276.21282320068713
 11
747.20508651983482
 21
277.04615653402107
  0
LINE
  8
_0-b_細線3
  6
CONTINUOUS
 62
    7
 10
746.37175318650134
 20
243.71282320068715
 11
746.37175318650134
 21
276.21282320068713
  0
LINE
  8
_0-d_寸法3
  6
CONTINUOUS
 62
    7
 10
234.70508651983465
 20
282.04615653402107
 11
234.70508651983465
 21
392.04615486567582
  0
LINE
  8
_0-d_寸法3
  6
CONTINUOUS
 62
    7
 10
234.70508651983465
 20
387.04615486567582
 11
244.36434478272531
 21
389.634345316701
  0
LINE
  8
_0-d_寸法3
  6
CONTINUOUS
 62
    7
 10
234.70508651983465
 20
387.04615486567582
 11
244.36434478272531
 21
384.45796441465063
  0
LINE
  8
_0-d_寸法3
  6
CONTINUOUS
 62
    7
 10
751.37175318650134
 20
282.04615653402107
 11
751.37175318650168
 21
392.04615486567582
  0
LINE
  8
_0-d_寸法3
  6
CONTINUOUS
 62
    7
 10
751.37175318650168
 20
387.04615486567582
 11
741.71249492361085
 21
384.45796441465063
  0
LINE
  8
_0-d_寸法3
  6
CONTINUOUS
 62
    7
 10
751.37175318650168
 20
387.04615486567582
 11
741.71249492361085
 21
389.63434531670111
  0
LINE
  8
_0-d_寸法3
  6
CONTINUOUS
 62
    7
 10
234.70508651983465
 20
387.04615486567582
 11
751.37175318650168
 21
387.04615486567582
  0
TEXT
  8
_0-d_寸法3
 62
    7
 10
481.78841985316808
 20
387.04615486567582
 40
15
 41
1
 50
0
  1
310
  0
ARC
  8
_0-b_細線3
  6
CONTINUOUS
 62
    7
 10
556.03841985681606
 20
273.71245819900923
 40
1.666666666666667
 50
89.999999999999915
 51
179.99999999999983
  0
ARC
  8
_0-b_細線3
  6
CONTINUOUS
 62
    7
 10
556.81833517569544
 20
277.04579153234226
 40
1.666666666666667
 50
269.99999999999977
 51
330.00000000000881
  0
ARC
  8
_0-b_細線3
  6
CONTINUOUS
 62
    7
 10
559.70508652164312
 20
275.3791248656762
 40
1.666666666666667
 50
89.999999999999915
 51
150.00000000000134
  0
LINE
  8
_0-b_細線3
  6
CONTINUOUS
 62
    7
 10
556.03841985681606
 20
275.3791248656762
 11
556.81833517569544
 21
275.3791248656762
  0
ARC
  8
_0-b_細線3
  6
CONTINUOUS
 62
    7
 10
571.70508651980413
 20
273.71245819900923
 40
1.666666666666667
 50
0
 51
89.999999999999915
  0
ARC
  8
_0-b_細線3
  6
CONTINUOUS
 62
    7
 10
570.92517120092521
 20
277.04579153234226
 40
1.666666666666667
 50
209.99999999999051
 51
269.99999999999977
  0
ARC
  8
_0-b_細線3
  6
CONTINUOUS
 62
    7
 10
568.03841985497706
 20
275.3791248656762
 40
1.666666666666667
 50
29.999999999990862
 51
89.999999999999901
  0
LINE
  8
_0-b_細線3
  6
CONTINUOUS
 62
    7
 10
571.70508651980413
 20
275.3791248656762
 11
570.92517120092521
 21
275.3791248656762
  0
ARC
  8
_0-b_細線3
  6
CONTINUOUS
 62
    7
 10
555.20508652348303
 20
271.3791248656762
 40
0.8333333333333334
 50
179.99999999999983
 51
269.99999999999977
  0
LINE
  8
_0-b_細線3
  6
CONTINUOUS
 62
    7
 10
554.37175319014955
 20
273.71245819900923
 11
554.37175319014955
 21
271.3791248656762
  0
ARC
  8
_0-b_細線3
  6
CONTINUOUS
 62
    7
 10
572.53841985313761
 20
271.3791248656762
 40
0.8333333333333334
 50
269.99999999999977
 51
359.99999999999966
  0
LINE
  8
_0-b_細線3
  6
CONTINUOUS
 62
    7
 10
573.3717531864711
 20
273.71245819900923
 11
573.3717531864711
 21
271.3791248656762
  0
ARC
  8
_0-b_細線3
  6
CONTINUOUS
 62
    7
 10
559.37175319014955
 20
268.8791248656762
 40
1.666666666666667
 50
0
 51
89.999999999999915
  0
LINE
  8
_0-b_細線3
  6
CONTINUOUS
 62
    7
 10
559.37175319014955
 20
270.54579153234226
 11
555.20508652348303
 21
270.54579153234226
  0
ARC
  8
_0-b_細線3
  6
CONTINUOUS
 62
    7
 10
568.37175319014955
 20
268.8791248656762
 40
1.666666666666667
 50
89.999999999999915
 51
179.99999999999983
  0
LINE
  8
_0-b_細線3
  6
CONTINUOUS
 62
    7
 10
568.37175318647064
 20
270.54579153234226
 11
572.53841985313761
 21
270.54579153234226
  0
LINE
  8
_0-b_細線3
  6
CONTINUOUS
 62
    7
 10
568.03841985497706
 20
277.04579153234226
 11
559.70508652164312
 21
277.04579153234226
  0
LINE
  8
_0-b_細線3
  6
CONTINUOUS
 62
    7
 10
561.03841985497706
 20
243.71245819900923
 11
561.03841985681606
 21
268.8791248656762
  0
LINE
  8
_0-b_細線3
  6
CONTINUOUS
 62
    7
 10
566.70508652164358
 20
243.71245819900923
 11
566.70508652348303
 21
268.8791248656762
  0
LINE
  8
_0-b_細線3
  6
CONTINUOUS
 62
    7
 10
566.70508652164358
 20
243.71245819900923
 11
561.03841985497706
 21
243.71245819900923
  0
ARC
  8
_0-b_細線3
  6
CONTINUOUS
 62
    7
 10
527.70508652288004
 20
273.71245819900923
 40
1.666666666666667
 50
89.999999999999915
 51
179.99999999999983
  0
ARC
  8
_0-b_細線3
  6
CONTINUOUS
 62
    7
 10
528.48500184175896
 20
277.04579153234226
 40
1.666666666666667
 50
269.99999999999977
 51
330.00000000000881
  0
ARC
  8
_0-b_細線3
  6
CONTINUOUS
 62
    7
 10
531.3717531877071
 20
275.3791248656762
 40
1.666666666666667
 50
89.999999999999915
 51
150.00000000000915
  0
LINE
  8
_0-b_細線3
  6
CONTINUOUS
 62
    7
 10
527.70508652288004
 20
275.3791248656762
 11
528.48500184175896
 21
275.3791248656762
  0
ARC
  8
_0-b_細線3
  6
CONTINUOUS
 62
    7
 10
543.37175318586765
 20
273.71245819900923
 40
1.666666666666667
 50
0
 51
89.999999999999915
  0
ARC
  8
_0-b_細線3
  6
CONTINUOUS
 62
    7
 10
542.59183786698873
 20
277.04579153234226
 40
1.666666666666667
 50
209.99999999998269
 51
269.99999999999977
  0
ARC
  8
_0-b_細線3
  6
CONTINUOUS
 62
    7
 10
539.70508652104058
 20
275.3791248656762
 40
1.666666666666667
 50
29.999999999998682
 51
89.999999999999915
  0
LINE
  8
_0-b_細線3
  6
CONTINUOUS
 62
    7
 10
543.37175318586765
 20
275.3791248656762
 11
542.59183786698873
 21
275.3791248656762
  0
ARC
  8
_0-b_細線3
  6
CONTINUOUS
 62
    7
 10
526.87175318954655
 20
271.3791248656762
 40
0.8333333333333334
 50
179.99999999999983
 51
269.99999999999977
  0
LINE
  8
_0-b_細線3
  6
CONTINUOUS
 62
    7
 10
526.03841985621307
 20
273.71245819900923
 11
526.03841985621307
 21
271.3791248656762
  0
ARC
  8
_0-b_細線3
  6
CONTINUOUS
 62
    7
 10
544.20508651920113
 20
271.3791248656762
 40
0.8333333333333334
 50
269.99999999999977
 51
359.99999999999966
  0
LINE
  8
_0-b_細線3
  6
CONTINUOUS
 62
    7
 10
545.03841985253462
 20
273.71245819900923
 11
545.03841985253462
 21
271.3791248656762
  0
ARC
  8
_0-b_細線3
  6
CONTINUOUS
 62
    7
 10
531.03841985621307
 20
268.8791248656762
 40
1.666666666666667
 50
0
 51
89.999999999999915
  0
LINE
  8
_0-b_細線3
  6
CONTINUOUS
 62
    7
 10
531.03841985621307
 20
270.54579153234226
 11
526.87175318954655
 21
270.54579153234226
  0
ARC
  8
_0-b_細線3
  6
CONTINUOUS
 62
    7
 10
540.03841985621352
 20
268.8791248656762
 40
1.666666666666667
 50
89.999999999999915
 51
179.99999999999983
  0
LINE
  8
_0-b_細線3
  6
CONTINUOUS
 62
    7
 10
540.03841985253462
 20
270.54579153234226
 11
544.20508651920113
 21
270.54579153234226
  0
LINE
  8
_0-b_細線3
  6
CONTINUOUS
 62
    7
 10
539.70508652104058
 20
277.04579153234226
 11
531.3717531877071
 21
277.04579153234226
  0
LINE
  8
_0-b_細線3
  6
CONTINUOUS
 62
    7
 10
532.70508652104058
 20
243.71245819900923
 11
532.70508652288004
 21
268.8791248656762
  0
LINE
  8
_0-b_細線3
  6
CONTINUOUS
 62
    7
 10
538.3717531877071
 20
243.71245819900923
 11
538.37175318954655
 21
268.8791248656762
  0
LINE
  8
_0-b_細線3
  6
CONTINUOUS
 62
    7
 10
538.3717531877071
 20
243.71245819900923
 11
532.70508652104058
 21
243.71245819900923
  0
ARC
  8
_0-b_細線3
  6
CONTINUOUS
 62
    7
 10
499.37175318894356
 20
273.71245819900923
 40
1.666666666666667
 50
89.999999999999915
 51
179.99999999999983
  0
ARC
  8
_0-b_細線3
  6
CONTINUOUS
 62
    7
 10
500.15166850782293
 20
277.04579153234226
 40
1.666666666666667
 50
269.99999999999977
 51
330.00000000000881
  0
ARC
  8
_0-b_細線3
  6
CONTINUOUS
 62
    7
 10
503.03841985377107
 20
275.3791248656762
 40
1.666666666666667
 50
89.999999999999915
 51
150.00000000000915
  0
LINE
  8
_0-b_細線3
  6
CONTINUOUS
 62
    7
 10
499.37175318894356
 20
275.3791248656762
 11
500.15166850782293
 21
275.3791248656762
  0
ARC
  8
_0-b_細線3
  6
CONTINUOUS
 62
    7
 10
515.03841985193162
 20
273.71245819900923
 40
1.666666666666667
 50
0
 51
89.999999999999915
  0
ARC
  8
_0-b_細線3
  6
CONTINUOUS
 62
    7
 10
514.25850453305225
 20
277.04579153234226
 40
1.666666666666667
 50
209.99999999999051
 51
269.99999999999977
  0
ARC
  8
_0-b_細線3
  6
CONTINUOUS
 62
    7
 10
511.37175318710405
 20
275.3791248656762
 40
1.666666666666667
 50
29.999999999989889
 51
89.999999999984368
  0
LINE
  8
_0-b_細線3
  6
CONTINUOUS
 62
    7
 10
515.03841985193162
 20
275.3791248656762
 11
514.25850453305225
 21
275.3791248656762
  0
ARC
  8
_0-b_細線3
  6
CONTINUOUS
 62
    7
 10
498.53841985561007
 20
271.3791248656762
 40
0.8333333333333334
 50
179.99999999999983
 51
269.99999999999977
  0
LINE
  8
_0-b_細線3
  6
CONTINUOUS
 62
    7
 10
497.70508652227704
 20
273.71245819900923
 11
497.70508652227704
 21
271.3791248656762
  0
ARC
  8
_0-b_細線3
  6
CONTINUOUS
 62
    7
 10
515.87175318526511
 20
271.3791248656762
 40
0.8333333333333334
 50
269.99999999999977
 51
359.99999999999966
  0
LINE
  8
_0-b_細線3
  6
CONTINUOUS
 62
    7
 10
516.70508651859814
 20
273.71245819900923
 11
516.70508651859814
 21
271.3791248656762
  0
ARC
  8
_0-b_細線3
  6
CONTINUOUS
 62
    7
 10
502.70508652227704
 20
268.8791248656762
 40
1.666666666666667
 50
0
 51
89.999999999999915
  0
LINE
  8
_0-b_細線3
  6
CONTINUOUS
 62
    7
 10
502.70508652227704
 20
270.54579153234226
 11
498.53841985561007
 21
270.54579153234226
  0
ARC
  8
_0-b_細線3
  6
CONTINUOUS
 62
    7
 10
511.70508652227704
 20
268.8791248656762
 40
1.666666666666667
 50
89.999999999999915
 51
179.99999999999983
  0
LINE
  8
_0-b_細線3
  6
CONTINUOUS
 62
    7
 10
511.70508651859814
 20
270.54579153234226
 11
515.87175318526511
 21
270.54579153234226
  0
LINE
  8
_0-b_細線3
  6
CONTINUOUS
 62
    7
 10
511.37175318710405
 20
277.04579153234226
 11
503.03841985377107
 21
277.04579153234226
  0
LINE
  8
_0-b_細線3
  6
CONTINUOUS
 62
    7
 10
504.3717531871041
 20
243.71245819900923
 11
504.37175318894356
 21
268.8791248656762
  0
LINE
  8
_0-b_細線3
  6
CONTINUOUS
 62
    7
 10
510.03841985377107
 20
243.71245819900923
 11
510.03841985561053
 21
268.8791248656762
  0
LINE
  8
_0-b_細線3
  6
CONTINUOUS
 62
    7
 10
510.03841985377107
 20
243.71245819900923
 11
504.3717531871041
 21
243.71245819900923
  0
ARC
  8
_0-b_細線3
  6
CONTINUOUS
 62
    7
 10
442.70508652107105
 20
273.71245819900923
 40
1.666666666666667
 50
89.999999999999915
 51
179.99999999999983
  0
ARC
  8
_0-b_細線3
  6
CONTINUOUS
 62
    7
 10
443.48500183995043
 20
277.04579153234226
 40
1.666666666666667
 50
269.99999999999977
 51
330.00000000000881
  0
ARC
  8
_0-b_細線3
  6
CONTINUOUS
 62
    7
 10
446.37175318589857
 20
275.3791248656762
 40
1.666666666666667
 50
89.999999999999915
 51
150.00000000000915
  0
LINE
  8
_0-b_細線3
  6
CONTINUOUS
 62
    7
 10
442.70508652107105
 20
275.3791248656762
 11
443.48500183995043
 21
275.3791248656762
  0
ARC
  8
_0-b_細線3
  6
CONTINUOUS
 62
    7
 10
458.37175318405912
 20
273.71245819900923
 40
1.666666666666667
 50
0
 51
89.999999999999915
  0
ARC
  8
_0-b_細線3
  6
CONTINUOUS
 62
    7
 10
457.59183786518014
 20
277.04579153234226
 40
1.666666666666667
 50
209.99999999998269
 51
269.99999999999977
  0
ARC
  8
_0-b_細線3
  6
CONTINUOUS
 62
    7
 10
454.70508651923154
 20
275.3791248656762
 40
1.666666666666667
 50
29.999999999990862
 51
89.999999999984354
  0
LINE
  8
_0-b_細線3
  6
CONTINUOUS
 62
    7
 10
458.37175318405912
 20
275.3791248656762
 11
457.59183786518014
 21
275.3791248656762
  0
ARC
  8
_0-b_細線3
  6
CONTINUOUS
 62
    7
 10
441.87175318773757
 20
271.3791248656762
 40
0.8333333333333334
 50
179.99999999999983
 51
269.99999999999977
  0
LINE
  8
_0-b_細線3
  6
CONTINUOUS
 62
    7
 10
441.03841985440454
 20
273.71245819900923
 11
441.03841985440454
 21
271.3791248656762
  0
ARC
  8
_0-b_細線3
  6
CONTINUOUS
 62
    7
 10
459.20508651739254
 20
271.3791248656762
 40
0.8333333333333334
 50
269.99999999999977
 51
359.99999999999966
  0
LINE
  8
_0-b_細線3
  6
CONTINUOUS
 62
    7
 10
460.03841985072603
 20
273.71245819900923
 11
460.03841985072603
 21
271.3791248656762
  0
ARC
  8
_0-b_細線3
  6
CONTINUOUS
 62
    7
 10
446.03841985440454
 20
268.8791248656762
 40
1.666666666666667
 50
0
 51
89.999999999999915
  0
LINE
  8
_0-b_細線3
  6
CONTINUOUS
 62
    7
 10
446.03841985440454
 20
270.54579153234226
 11
441.87175318773757
 21
270.54579153234226
  0
ARC
  8
_0-b_細線3
  6
CONTINUOUS
 62
    7
 10
455.03841985440454
 20
268.8791248656762
 40
1.666666666666667
 50
89.999999999999915
 51
179.99999999999983
  0
LINE
  8
_0-b_細線3
  6
CONTINUOUS
 62
    7
 10
455.03841985072563
 20
270.54579153234226
 11
459.20508651739254
 21
270.54579153234226
  0
LINE
  8
_0-b_細線3
  6
CONTINUOUS
 62
    7
 10
454.70508651923154
 20
277.04579153234226
 11
446.37175318589857
 21
277.04579153234226
  0
LINE
  8
_0-b_細線3
  6
CONTINUOUS
 62
    7
 10
447.705086519232
 20
243.71245819900923
 11
447.70508652107105
 21
268.8791248656762
  0
LINE
  8
_0-b_細線3
  6
CONTINUOUS
 62
    7
 10
453.37175318589857
 20
243.71245819900923
 11
453.37175318773802
 21
268.8791248656762
  0
LINE
  8
_0-b_細線3
  6
CONTINUOUS
 62
    7
 10
453.37175318589857
 20
243.71245819900923
 11
447.705086519232
 21
243.71245819900923
  0
ARC
  8
_0-b_細線3
  6
CONTINUOUS
 62
    7
 10
414.37175318713457
 20
273.71245819900923
 40
1.666666666666667
 50
89.999999999999915
 51
179.99999999999983
  0
ARC
  8
_0-b_細線3
  6
CONTINUOUS
 62
    7
 10
415.15166850601389
 20
277.04579153234226
 40
1.666666666666667
 50
269.99999999999977
 51
330.00000000000881
  0
ARC
  8
_0-b_細線3
  6
CONTINUOUS
 62
    7
 10
418.03841985196209
 20
275.3791248656762
 40
1.666666666666667
 50
89.999999999999915
 51
150.00000000000915
  0
LINE
  8
_0-b_細線3
  6
CONTINUOUS
 62
    7
 10
414.37175318713457
 20
275.3791248656762
 11
415.15166850601389
 21
275.3791248656762
  0
ARC
  8
_0-b_細線3
  6
CONTINUOUS
 62
    7
 10
430.03841985012258
 20
273.71245819900923
 40
1.666666666666667
 50
0
 51
89.999999999999915
  0
ARC
  8
_0-b_細線3
  6
CONTINUOUS
 62
    7
 10
429.25850453124326
 20
277.04579153234226
 40
1.666666666666667
 50
209.99999999999051
 51
269.99999999999977
  0
ARC
  8
_0-b_細線3
  6
CONTINUOUS
 62
    7
 10
426.37175318529557
 20
275.3791248656762
 40
1.666666666666667
 50
29.999999999998682
 51
89.999999999999915
  0
LINE
  8
_0-b_細線3
  6
CONTINUOUS
 62
    7
 10
430.03841985012258
 20
275.3791248656762
 11
429.25850453124326
 21
275.3791248656762
  0
ARC
  8
_0-b_細線3
  6
CONTINUOUS
 62
    7
 10
413.53841985380149
 20
271.3791248656762
 40
0.8333333333333334
 50
179.99999999999983
 51
269.99999999999977
  0
LINE
  8
_0-b_細線3
  6
CONTINUOUS
 62
    7
 10
412.705086520468
 20
273.71245819900923
 11
412.705086520468
 21
271.3791248656762
  0
ARC
  8
_0-b_細線3
  6
CONTINUOUS
 62
    7
 10
430.87175318345606
 20
271.3791248656762
 40
0.8333333333333334
 50
269.99999999999977
 51
359.99999999999966
  0
LINE
  8
_0-b_細線3
  6
CONTINUOUS
 62
    7
 10
431.70508651678915
 20
273.71245819900923
 11
431.70508651678915
 21
271.3791248656762
  0
ARC
  8
_0-b_細線3
  6
CONTINUOUS
 62
    7
 10
417.705086520468
 20
268.8791248656762
 40
1.666666666666667
 50
0
 51
89.999999999999915
  0
LINE
  8
_0-b_細線3
  6
CONTINUOUS
 62
    7
 10
417.705086520468
 20
270.54579153234226
 11
413.53841985380149
 21
270.54579153234226
  0
ARC
  8
_0-b_細線3
  6
CONTINUOUS
 62
    7
 10
426.70508652046806
 20
268.8791248656762
 40
1.666666666666667
 50
89.999999999999915
 51
179.99999999999983
  0
LINE
  8
_0-b_細線3
  6
CONTINUOUS
 62
    7
 10
426.70508651678915
 20
270.54579153234226
 11
430.87175318345606
 21
270.54579153234226
  0
LINE
  8
_0-b_細線3
  6
CONTINUOUS
 62
    7
 10
426.37175318529557
 20
277.04579153234226
 11
418.03841985196209
 21
277.04579153234226
  0
LINE
  8
_0-b_細線3
  6
CONTINUOUS
 62
    7
 10
419.37175318529512
 20
243.71245819900923
 11
419.37175318713457
 21
268.8791248656762
  0
LINE
  8
_0-b_細線3
  6
CONTINUOUS
 62
    7
 10
425.03841985196203
 20
243.71245819900923
 11
425.03841985380149
 21
268.8791248656762
  0
LINE
  8
_0-b_細線3
  6
CONTINUOUS
 62
    7
 10
425.03841985196203
 20
243.71245819900923
 11
419.37175318529512
 21
243.71245819900923
  0
ARC
  8
_0-b_細線3
  6
CONTINUOUS
 62
    7
 10
386.03841985319804
 20
273.71245819900923
 40
1.666666666666667
 50
89.999999999999915
 51
179.99999999999983
  0
ARC
  8
_0-b_細線3
  6
CONTINUOUS
 62
    7
 10
386.81833517207741
 20
277.04579153234226
 40
1.666666666666667
 50
269.99999999999977
 51
330.00000000000881
  0
ARC
  8
_0-b_細線3
  6
CONTINUOUS
 62
    7
 10
389.70508651802561
 20
275.3791248656762
 40
1.666666666666667
 50
89.999999999999915
 51
150.00000000000915
  0
LINE
  8
_0-b_細線3
  6
CONTINUOUS
 62
    7
 10
386.03841985319804
 20
275.3791248656762
 11
386.81833517207741
 21
275.3791248656762
  0
ARC
  8
_0-b_細線3
  6
CONTINUOUS
 62
    7
 10
401.7050865161861
 20
273.71245819900923
 40
1.666666666666667
 50
0
 51
89.999999999999915
  0
ARC
  8
_0-b_細線3
  6
CONTINUOUS
 62
    7
 10
400.92517119730724
 20
277.04579153234226
 40
1.666666666666667
 50
209.99999999998269
 51
269.99999999999977
  0
ARC
  8
_0-b_細線3
  6
CONTINUOUS
 62
    7
 10
398.03841985135864
 20
275.3791248656762
 40
1.666666666666667
 50
29.999999999990862
 51
89.999999999984354
  0
LINE
  8
_0-b_細線3
  6
CONTINUOUS
 62
    7
 10
401.7050865161861
 20
275.3791248656762
 11
400.92517119730724
 21
275.3791248656762
  0
ARC
  8
_0-b_細線3
  6
CONTINUOUS
 62
    7
 10
385.20508651986506
 20
271.3791248656762
 40
0.8333333333333334
 50
179.99999999999983
 51
269.99999999999977
  0
LINE
  8
_0-b_細線3
  6
CONTINUOUS
 62
    7
 10
384.37175318653152
 20
273.71245819900923
 11
384.37175318653152
 21
271.3791248656762
  0
ARC
  8
_0-b_細線3
  6
CONTINUOUS
 62
    7
 10
402.53841984951964
 20
271.3791248656762
 40
0.8333333333333334
 50
269.99999999999977
 51
359.99999999999966
  0
LINE
  8
_0-b_細線3
  6
CONTINUOUS
 62
    7
 10
403.37175318285313
 20
273.71245819900923
 11
403.37175318285313
 21
271.3791248656762
  0
ARC
  8
_0-b_細線3
  6
CONTINUOUS
 62
    7
 10
389.37175318653152
 20
268.8791248656762
 40
1.666666666666667
 50
0
 51
89.999999999999915
  0
LINE
  8
_0-b_細線3
  6
CONTINUOUS
 62
    7
 10
389.37175318653152
 20
270.54579153234226
 11
385.20508651986506
 21
270.54579153234226
  0
ARC
  8
_0-b_細線3
  6
CONTINUOUS
 62
    7
 10
398.37175318653152
 20
268.8791248656762
 40
1.666666666666667
 50
89.999999999999915
 51
179.99999999999983
  0
LINE
  8
_0-b_細線3
  6
CONTINUOUS
 62
    7
 10
398.37175318285261
 20
270.54579153234226
 11
402.53841984951964
 21
270.54579153234226
  0
LINE
  8
_0-b_細線3
  6
CONTINUOUS
 62
    7
 10
398.03841985135864
 20
277.04579153234226
 11
389.70508651802561
 21
277.04579153234226
  0
LINE
  8
_0-b_細線3
  6
CONTINUOUS
 62
    7
 10
391.03841985135909
 20
243.71245819900923
 11
391.03841985319804
 21
268.8791248656762
  0
LINE
  8
_0-b_細線3
  6
CONTINUOUS
 62
    7
 10
396.70508651802555
 20
243.71245819900923
 11
396.70508651986501
 21
268.8791248656762
  0
LINE
  8
_0-b_細線3
  6
CONTINUOUS
 62
    7
 10
396.70508651802555
 20
243.71245819900923
 11
391.03841985135909
 21
243.71245819900923
  0
ARC
  8
_0-b_細線3
  6
CONTINUOUS
 62
    7
 10
584.37175319043558
 20
273.71245819900923
 40
1.666666666666667
 50
89.999999999999915
 51
179.99999999999983
  0
ARC
  8
_0-b_細線3
  6
CONTINUOUS
 62
    7
 10
585.1516685093145
 20
277.04579153234226
 40
1.666666666666667
 50
269.99999999999977
 51
330.00000000000881
  0
ARC
  8
_0-b_細線3
  6
CONTINUOUS
 62
    7
 10
588.03841985526265
 20
275.3791248656762
 40
1.666666666666667
 50
89.999999999999915
 51
150.00000000000915
  0
LINE
  8
_0-b_細線3
  6
CONTINUOUS
 62
    7
 10
584.37175319043558
 20
275.3791248656762
 11
585.1516685093145
 21
275.3791248656762
  0
ARC
  8
_0-b_細線3
  6
CONTINUOUS
 62
    7
 10
600.03841985342365
 20
273.71245819900923
 40
1.666666666666667
 50
0
 51
89.999999999999915
  0
ARC
  8
_0-b_細線3
  6
CONTINUOUS
 62
    7
 10
599.25850453454427
 20
277.04579153234226
 40
1.666666666666667
 50
209.99999999999051
 51
269.99999999999977
  0
ARC
  8
_0-b_細線3
  6
CONTINUOUS
 62
    7
 10
596.37175318859613
 20
275.3791248656762
 40
1.666666666666667
 50
29.999999999990862
 51
89.999999999999901
  0
LINE
  8
_0-b_細線3
  6
CONTINUOUS
 62
    7
 10
600.03841985342365
 20
275.3791248656762
 11
599.25850453454427
 21
275.3791248656762
  0
ARC
  8
_0-b_細線3
  6
CONTINUOUS
 62
    7
 10
583.53841985710255
 20
271.3791248656762
 40
0.8333333333333334
 50
179.99999999999983
 51
269.99999999999977
  0
LINE
  8
_0-b_細線3
  6
CONTINUOUS
 62
    7
 10
582.70508652376861
 20
273.71245819900923
 11
582.70508652376861
 21
271.3791248656762
  0
ARC
  8
_0-b_細線3
  6
CONTINUOUS
 62
    7
 10
600.87175318675713
 20
271.3791248656762
 40
0.8333333333333334
 50
269.99999999999977
 51
359.99999999999966
  0
LINE
  8
_0-b_細線3
  6
CONTINUOUS
 62
    7
 10
601.70508652009016
 20
273.71245819900923
 11
601.70508652009016
 21
271.3791248656762
  0
ARC
  8
_0-b_細線3
  6
CONTINUOUS
 62
    7
 10
587.70508652376861
 20
268.8791248656762
 40
1.666666666666667
 50
0
 51
89.999999999999915
  0
LINE
  8
_0-b_細線3
  6
CONTINUOUS
 62
    7
 10
587.70508652376861
 20
270.54579153234226
 11
583.53841985710255
 21
270.54579153234226
  0
ARC
  8
_0-b_細線3
  6
CONTINUOUS
 62
    7
 10
596.70508652376907
 20
268.8791248656762
 40
1.666666666666667
 50
89.999999999999915
 51
179.99999999999983
  0
LINE
  8
_0-b_細線3
  6
CONTINUOUS
 62
    7
 10
596.70508652009016
 20
270.54579153234226
 11
600.87175318675713
 21
270.54579153234226
  0
LINE
  8
_0-b_細線3
  6
CONTINUOUS
 62
    7
 10
596.37175318859613
 20
277.04579153234226
 11
588.03841985526265
 21
277.04579153234226
  0
LINE
  8
_0-b_細線3
  6
CONTINUOUS
 62
    7
 10
589.37175318859659
 20
243.71245819900923
 11
589.37175319043558
 21
268.8791248656762
  0
LINE
  8
_0-b_細線3
  6
CONTINUOUS
 62
    7
 10
595.0384198552631
 20
243.71245819900923
 11
595.03841985710255
 21
268.8791248656762
  0
LINE
  8
_0-b_細線3
  6
CONTINUOUS
 62
    7
 10
595.0384198552631
 20
243.71245819900923
 11
589.37175318859659
 21
243.71245819900923
  0
ARC
  8
_0-b_細線3
  6
CONTINUOUS
 62
    7
 10
612.70508652437184
 20
273.71245819900923
 40
1.666666666666667
 50
89.999999999999915
 51
179.99999999999983
  0
ARC
  8
_0-b_細線3
  6
CONTINUOUS
 62
    7
 10
613.48500184325121
 20
277.04579153234226
 40
1.666666666666667
 50
269.99999999999977
 51
330.00000000000881
  0
ARC
  8
_0-b_細線3
  6
CONTINUOUS
 62
    7
 10
616.37175318919913
 20
275.3791248656762
 40
1.666666666666667
 50
89.999999999999915
 51
150.00000000000523
  0
LINE
  8
_0-b_細線3
  6
CONTINUOUS
 62
    7
 10
612.70508652437184
 20
275.3791248656762
 11
613.48500184325121
 21
275.3791248656762
  0
ARC
  8
_0-b_細線3
  6
CONTINUOUS
 62
    7
 10
628.37175318736013
 20
273.71245819900923
 40
1.666666666666667
 50
0
 51
89.999999999999915
  0
ARC
  8
_0-b_細線3
  6
CONTINUOUS
 62
    7
 10
627.59183786848075
 20
277.04579153234226
 40
1.666666666666667
 50
209.99999999999051
 51
269.99999999999977
  0
ARC
  8
_0-b_細線3
  6
CONTINUOUS
 62
    7
 10
624.70508652253261
 20
275.3791248656762
 40
1.666666666666667
 50
29.999999999990862
 51
89.999999999992184
  0
LINE
  8
_0-b_細線3
  6
CONTINUOUS
 62
    7
 10
628.37175318736013
 20
275.3791248656762
 11
627.59183786848075
 21
275.3791248656762
  0
ARC
  8
_0-b_細線3
  6
CONTINUOUS
 62
    7
 10
611.87175319103858
 20
271.3791248656762
 40
0.8333333333333334
 50
179.99999999999983
 51
269.99999999999977
  0
LINE
  8
_0-b_細線3
  6
CONTINUOUS
 62
    7
 10
611.03841985770532
 20
273.71245819900923
 11
611.03841985770532
 21
271.3791248656762
  0
ARC
  8
_0-b_細線3
  6
CONTINUOUS
 62
    7
 10
629.20508652069338
 20
271.3791248656762
 40
0.8333333333333334
 50
269.99999999999977
 51
359.99999999999966
  0
LINE
  8
_0-b_細線3
  6
CONTINUOUS
 62
    7
 10
630.03841985402664
 20
273.71245819900923
 11
630.03841985402664
 21
271.3791248656762
  0
ARC
  8
_0-b_細線3
  6
CONTINUOUS
 62
    7
 10
616.03841985770532
 20
268.8791248656762
 40
1.666666666666667
 50
0
 51
89.999999999999915
  0
LINE
  8
_0-b_細線3
  6
CONTINUOUS
 62
    7
 10
616.03841985770532
 20
270.54579153234226
 11
611.87175319103858
 21
270.54579153234226
  0
ARC
  8
_0-b_細線3
  6
CONTINUOUS
 62
    7
 10
625.03841985770532
 20
268.8791248656762
 40
1.666666666666667
 50
89.999999999999915
 51
179.99999999999983
  0
LINE
  8
_0-b_細線3
  6
CONTINUOUS
 62
    7
 10
625.03841985402642
 20
270.54579153234226
 11
629.20508652069338
 21
270.54579153234226
  0
LINE
  8
_0-b_細線3
  6
CONTINUOUS
 62
    7
 10
624.70508652253261
 20
277.04579153234226
 11
616.37175318919913
 21
277.04579153234226
  0
LINE
  8
_0-b_細線3
  6
CONTINUOUS
 62
    7
 10
617.70508652253261
 20
243.71245819900923
 11
617.70508652437184
 21
268.8791248656762
  0
LINE
  8
_0-b_細線3
  6
CONTINUOUS
 62
    7
 10
623.37175318919935
 20
243.71245819900923
 11
623.37175319103881
 21
268.8791248656762
  0
LINE
  8
_0-b_細線3
  6
CONTINUOUS
 62
    7
 10
623.37175318919935
 20
243.71245819900923
 11
617.70508652253261
 21
243.71245819900923
  0
ARC
  8
_0-b_細線3
  6
CONTINUOUS
 62
    7
 10
357.70508651986455
 20
273.71245819900923
 40
1.666666666666667
 50
89.999999999999915
 51
179.99999999999983
  0
ARC
  8
_0-b_細線3
  6
CONTINUOUS
 62
    7
 10
358.48500183874393
 20
277.04579153234226
 40
1.666666666666667
 50
269.99999999999977
 51
330.00000000000881
  0
ARC
  8
_0-b_細線3
  6
CONTINUOUS
 62
    7
 10
361.37175318469212
 20
275.3791248656762
 40
1.666666666666667
 50
89.999999999999915
 51
150.00000000000915
  0
LINE
  8
_0-b_細線3
  6
CONTINUOUS
 62
    7
 10
357.70508651986455
 20
275.3791248656762
 11
358.48500183874393
 21
275.3791248656762
  0
ARC
  8
_0-b_細線3
  6
CONTINUOUS
 62
    7
 10
373.37175318285261
 20
273.71245819900923
 40
1.666666666666667
 50
0
 51
89.999999999999915
  0
ARC
  8
_0-b_細線3
  6
CONTINUOUS
 62
    7
 10
372.59183786397375
 20
277.04579153234226
 40
1.666666666666667
 50
209.99999999998269
 51
269.99999999999977
  0
ARC
  8
_0-b_細線3
  6
CONTINUOUS
 62
    7
 10
369.7050865180251
 20
275.3791248656762
 40
1.666666666666667
 50
29.999999999990862
 51
89.999999999984354
  0
LINE
  8
_0-b_細線3
  6
CONTINUOUS
 62
    7
 10
373.37175318285261
 20
275.3791248656762
 11
372.59183786397375
 21
275.3791248656762
  0
ARC
  8
_0-b_細線3
  6
CONTINUOUS
 62
    7
 10
356.87175318653152
 20
271.3791248656762
 40
0.8333333333333334
 50
179.99999999999983
 51
269.99999999999977
  0
LINE
  8
_0-b_細線3
  6
CONTINUOUS
 62
    7
 10
356.03841985319804
 20
273.71245819900923
 11
356.03841985319804
 21
271.3791248656762
  0
ARC
  8
_0-b_細線3
  6
CONTINUOUS
 62
    7
 10
374.2050865161861
 20
271.3791248656762
 40
0.8333333333333334
 50
269.99999999999977
 51
359.99999999999966
  0
LINE
  8
_0-b_細線3
  6
CONTINUOUS
 62
    7
 10
375.03841984951964
 20
273.71245819900923
 11
375.03841984951964
 21
271.3791248656762
  0
ARC
  8
_0-b_細線3
  6
CONTINUOUS
 62
    7
 10
361.03841985319804
 20
268.8791248656762
 40
1.666666666666667
 50
0
 51
89.999999999999915
  0
LINE
  8
_0-b_細線3
  6
CONTINUOUS
 62
    7
 10
361.03841985319804
 20
270.54579153234226
 11
356.87175318653152
 21
270.54579153234226
  0
ARC
  8
_0-b_細線3
  6
CONTINUOUS
 62
    7
 10
370.03841985319804
 20
268.8791248656762
 40
1.666666666666667
 50
89.999999999999915
 51
179.99999999999983
  0
LINE
  8
_0-b_細線3
  6
CONTINUOUS
 62
    7
 10
370.03841984951913
 20
270.54579153234226
 11
374.2050865161861
 21
270.54579153234226
  0
LINE
  8
_0-b_細線3
  6
CONTINUOUS
 62
    7
 10
369.7050865180251
 20
277.04579153234226
 11
361.37175318469212
 21
277.04579153234226
  0
LINE
  8
_0-b_細線3
  6
CONTINUOUS
 62
    7
 10
362.70508651802561
 20
243.71245819900923
 11
362.70508651986455
 21
268.8791248656762
  0
LINE
  8
_0-b_細線3
  6
CONTINUOUS
 62
    7
 10
368.37175318469207
 20
243.71245819900923
 11
368.37175318653152
 21
268.8791248656762
  0
LINE
  8
_0-b_細線3
  6
CONTINUOUS
 62
    7
 10
368.37175318469207
 20
243.71245819900923
 11
362.70508651802561
 21
243.71245819900923
  0
ARC
  8
_0-b_細線3
  6
CONTINUOUS
 62
    7
 10
641.03841985799158
 20
273.71245819900923
 40
1.666666666666667
 50
89.999999999999915
 51
179.99999999999983
  0
ARC
  8
_0-b_細線3
  6
CONTINUOUS
 62
    7
 10
641.81833517687096
 20
277.04579153234226
 40
1.666666666666667
 50
269.99999999999977
 51
330.00000000000881
  0
ARC
  8
_0-b_細線3
  6
CONTINUOUS
 62
    7
 10
644.70508652281865
 20
275.3791248656762
 40
1.666666666666667
 50
89.999999999999915
 51
150.00000000000134
  0
LINE
  8
_0-b_細線3
  6
CONTINUOUS
 62
    7
 10
641.03841985799158
 20
275.3791248656762
 11
641.81833517687096
 21
275.3791248656762
  0
ARC
  8
_0-b_細線3
  6
CONTINUOUS
 62
    7
 10
656.70508652097965
 20
273.71245819900923
 40
1.666666666666667
 50
0
 51
89.999999999999915
  0
ARC
  8
_0-b_細線3
  6
CONTINUOUS
 62
    7
 10
655.92517120210027
 20
277.04579153234226
 40
1.666666666666667
 50
209.99999999999051
 51
269.99999999999977
  0
ARC
  8
_0-b_細線3
  6
CONTINUOUS
 62
    7
 10
653.03841985615225
 20
275.3791248656762
 40
1.666666666666667
 50
29.999999999990862
 51
89.999999999984354
  0
LINE
  8
_0-b_細線3
  6
CONTINUOUS
 62
    7
 10
656.70508652097965
 20
275.3791248656762
 11
655.92517120210027
 21
275.3791248656762
  0
ARC
  8
_0-b_細線3
  6
CONTINUOUS
 62
    7
 10
640.2050865246581
 20
271.3791248656762
 40
0.8333333333333334
 50
179.99999999999983
 51
269.99999999999977
  0
LINE
  8
_0-b_細線3
  6
CONTINUOUS
 62
    7
 10
639.37175319132507
 20
273.71245819900923
 11
639.37175319132507
 21
271.3791248656762
  0
ARC
  8
_0-b_細線3
  6
CONTINUOUS
 62
    7
 10
657.53841985431325
 20
271.3791248656762
 40
0.8333333333333334
 50
269.99999999999977
 51
359.99999999999966
  0
LINE
  8
_0-b_細線3
  6
CONTINUOUS
 62
    7
 10
658.37175318764616
 20
273.71245819900923
 11
658.37175318764616
 21
271.3791248656762
  0
ARC
  8
_0-b_細線3
  6
CONTINUOUS
 62
    7
 10
644.37175319132507
 20
268.8791248656762
 40
1.666666666666667
 50
0
 51
89.999999999999915
  0
LINE
  8
_0-b_細線3
  6
CONTINUOUS
 62
    7
 10
644.37175319132507
 20
270.54579153234226
 11
640.2050865246581
 21
270.54579153234226
  0
ARC
  8
_0-b_細線3
  6
CONTINUOUS
 62
    7
 10
653.37175319132507
 20
268.8791248656762
 40
1.666666666666667
 50
89.999999999999915
 51
179.99999999999983
  0
LINE
  8
_0-b_細線3
  6
CONTINUOUS
 62
    7
 10
653.37175318764616
 20
270.54579153234226
 11
657.53841985431325
 21
270.54579153234226
  0
LINE
  8
_0-b_細線3
  6
CONTINUOUS
 62
    7
 10
653.03841985615225
 20
277.04579153234226
 11
644.70508652281865
 21
277.04579153234226
  0
LINE
  8
_0-b_細線3
  6
CONTINUOUS
 62
    7
 10
646.03841985615213
 20
243.71245819900923
 11
646.03841985799158
 21
268.8791248656762
  0
LINE
  8
_0-b_細線3
  6
CONTINUOUS
 62
    7
 10
651.7050865228191
 20
243.71245819900923
 11
651.70508652465855
 21
268.8791248656762
  0
LINE
  8
_0-b_細線3
  6
CONTINUOUS
 62
    7
 10
651.7050865228191
 20
243.71245819900923
 11
646.03841985615213
 21
243.71245819900923
  0
ARC
  8
_0-b_細線3
  6
CONTINUOUS
 62
    7
 10
669.37175319161111
 20
273.71245819900923
 40
1.666666666666667
 50
89.999999999999915
 51
179.99999999999983
  0
ARC
  8
_0-b_細線3
  6
CONTINUOUS
 62
    7
 10
670.15166851049048
 20
277.04579153234226
 40
1.666666666666667
 50
269.99999999999977
 51
330.00000000000881
  0
ARC
  8
_0-b_細線3
  6
CONTINUOUS
 62
    7
 10
673.0384198564384
 20
275.3791248656762
 40
1.666666666666667
 50
89.999999999999915
 51
150.00000000000523
  0
LINE
  8
_0-b_細線3
  6
CONTINUOUS
 62
    7
 10
669.37175319161111
 20
275.3791248656762
 11
670.15166851049048
 21
275.3791248656762
  0
ARC
  8
_0-b_細線3
  6
CONTINUOUS
 62
    7
 10
685.0384198545994
 20
273.71245819900923
 40
1.666666666666667
 50
0
 51
89.999999999999915
  0
ARC
  8
_0-b_細線3
  6
CONTINUOUS
 62
    7
 10
684.25850453572014
 20
277.04579153234226
 40
1.666666666666667
 50
209.99999999999051
 51
269.99999999999977
  0
ARC
  8
_0-b_細線3
  6
CONTINUOUS
 62
    7
 10
681.37175318977188
 20
275.3791248656762
 40
1.666666666666667
 50
29.999999999990862
 51
89.999999999992184
  0
LINE
  8
_0-b_細線3
  6
CONTINUOUS
 62
    7
 10
685.0384198545994
 20
275.3791248656762
 11
684.25850453572014
 21
275.3791248656762
  0
ARC
  8
_0-b_細線3
  6
CONTINUOUS
 62
    7
 10
668.53841985827785
 20
271.3791248656762
 40
0.8333333333333334
 50
179.99999999999983
 51
269.99999999999977
  0
LINE
  8
_0-b_細線3
  6
CONTINUOUS
 62
    7
 10
667.70508652494459
 20
273.71245819900923
 11
667.70508652494459
 21
271.3791248656762
  0
ARC
  8
_0-b_細線3
  6
CONTINUOUS
 62
    7
 10
685.87175318793265
 20
271.3791248656762
 40
0.8333333333333334
 50
269.99999999999977
 51
359.99999999999966
  0
LINE
  8
_0-b_細線3
  6
CONTINUOUS
 62
    7
 10
686.70508652126603
 20
273.71245819900923
 11
686.70508652126603
 21
271.3791248656762
  0
ARC
  8
_0-b_細線3
  6
CONTINUOUS
 62
    7
 10
672.70508652494459
 20
268.8791248656762
 40
1.666666666666667
 50
0
 51
89.999999999999915
  0
LINE
  8
_0-b_細線3
  6
CONTINUOUS
 62
    7
 10
672.70508652494459
 20
270.54579153234226
 11
668.53841985827785
 21
270.54579153234226
  0
ARC
  8
_0-b_細線3
  6
CONTINUOUS
 62
    7
 10
681.70508652494459
 20
268.8791248656762
 40
1.666666666666667
 50
89.999999999999915
 51
179.99999999999983
  0
LINE
  8
_0-b_細線3
  6
CONTINUOUS
 62
    7
 10
681.70508652126568
 20
270.54579153234226
 11
685.87175318793265
 21
270.54579153234226
  0
LINE
  8
_0-b_細線3
  6
CONTINUOUS
 62
    7
 10
681.37175318977188
 20
277.04579153234226
 11
673.0384198564384
 21
277.04579153234226
  0
LINE
  8
_0-b_細線3
  6
CONTINUOUS
 62
    7
 10
674.37175318977199
 20
243.71245819900923
 11
674.37175319161111
 21
268.8791248656762
  0
LINE
  8
_0-b_細線3
  6
CONTINUOUS
 62
    7
 10
680.03841985643862
 20
243.71245819900923
 11
680.03841985827808
 21
268.8791248656762
  0
LINE
  8
_0-b_細線3
  6
CONTINUOUS
 62
    7
 10
680.03841985643862
 20
243.71245819900923
 11
674.37175318977199
 21
243.71245819900923
  0
ARC
  8
_0-b_細線3
  6
CONTINUOUS
 62
    7
 10
697.70508652523063
 20
273.71245819900923
 40
1.666666666666667
 50
89.999999999999915
 51
179.99999999999983
  0
ARC
  8
_0-b_細線3
  6
CONTINUOUS
 62
    7
 10
698.48500184411012
 20
277.04579153234226
 40
1.666666666666667
 50
269.99999999999977
 51
330.00000000000881
  0
ARC
  8
_0-b_細線3
  6
CONTINUOUS
 62
    7
 10
701.37175319005814
 20
275.3791248656762
 40
1.666666666666667
 50
89.999999999999915
 51
150.00000000000915
  0
LINE
  8
_0-b_細線3
  6
CONTINUOUS
 62
    7
 10
697.70508652523063
 20
275.3791248656762
 11
698.48500184411012
 21
275.3791248656762
  0
ARC
  8
_0-b_細線3
  6
CONTINUOUS
 62
    7
 10
713.37175318821915
 20
273.71245819900923
 40
1.666666666666667
 50
0
 51
89.999999999999915
  0
ARC
  8
_0-b_細線3
  6
CONTINUOUS
 62
    7
 10
712.59183786933977
 20
277.04579153234226
 40
1.666666666666667
 50
209.99999999999051
 51
269.99999999999977
  0
ARC
  8
_0-b_細線3
  6
CONTINUOUS
 62
    7
 10
709.70508652339163
 20
275.3791248656762
 40
1.666666666666667
 50
29.999999999990862
 51
89.999999999999901
  0
LINE
  8
_0-b_細線3
  6
CONTINUOUS
 62
    7
 10
713.37175318821915
 20
275.3791248656762
 11
712.59183786933977
 21
275.3791248656762
  0
ARC
  8
_0-b_細線3
  6
CONTINUOUS
 62
    7
 10
696.8717531918976
 20
271.3791248656762
 40
0.8333333333333334
 50
179.99999999999983
 51
269.99999999999977
  0
LINE
  8
_0-b_細線3
  6
CONTINUOUS
 62
    7
 10
696.03841985856423
 20
273.71245819900923
 11
696.03841985856423
 21
271.3791248656762
  0
ARC
  8
_0-b_細線3
  6
CONTINUOUS
 62
    7
 10
714.20508652155218
 20
271.3791248656762
 40
0.8333333333333334
 50
269.99999999999977
 51
359.99999999999966
  0
LINE
  8
_0-b_細線3
  6
CONTINUOUS
 62
    7
 10
715.03841985488566
 20
273.71245819900923
 11
715.03841985488566
 21
271.3791248656762
  0
ARC
  8
_0-b_細線3
  6
CONTINUOUS
 62
    7
 10
701.03841985856423
 20
268.8791248656762
 40
1.666666666666667
 50
0
 51
89.999999999999915
  0
LINE
  8
_0-b_細線3
  6
CONTINUOUS
 62
    7
 10
701.03841985856423
 20
270.54579153234226
 11
696.8717531918976
 21
270.54579153234226
  0
ARC
  8
_0-b_細線3
  6
CONTINUOUS
 62
    7
 10
710.03841985856411
 20
268.8791248656762
 40
1.666666666666667
 50
89.999999999999915
 51
179.99999999999983
  0
LINE
  8
_0-b_細線3
  6
CONTINUOUS
 62
    7
 10
710.03841985488521
 20
270.54579153234226
 11
714.20508652155218
 21
270.54579153234226
  0
LINE
  8
_0-b_細線3
  6
CONTINUOUS
 62
    7
 10
709.70508652339163
 20
277.04579153234226
 11
701.37175319005814
 21
277.04579153234226
  0
LINE
  8
_0-b_細線3
  6
CONTINUOUS
 62
    7
 10
702.70508652339163
 20
243.71245819900923
 11
702.70508652523063
 21
268.8791248656762
  0
LINE
  8
_0-b_細線3
  6
CONTINUOUS
 62
    7
 10
708.37175319005826
 20
243.71245819900923
 11
708.37175319189771
 21
268.8791248656762
  0
LINE
  8
_0-b_細線3
  6
CONTINUOUS
 62
    7
 10
708.37175319005826
 20
243.71245819900923
 11
702.70508652339163
 21
243.71245819900923
  0
ARC
  8
_0-b_細線3
  6
CONTINUOUS
 62
    7
 10
345.03841984834452
 20
273.71245819900923
 40
1.666666666666667
 50
0
 51
89.999999999999915
  0
ARC
  8
_0-b_細線3
  6
CONTINUOUS
 62
    7
 10
344.25850452946514
 20
277.04579153234226
 40
1.666666666666667
 50
209.99999999999051
 51
269.99999999999977
  0
ARC
  8
_0-b_細線3
  6
CONTINUOUS
 62
    7
 10
341.37175318351746
 20
275.3791248656762
 40
1.666666666666667
 50
29.999999999998682
 51
89.999999999999915
  0
LINE
  8
_0-b_細線3
  6
CONTINUOUS
 62
    7
 10
345.03841984834452
 20
275.3791248656762
 11
344.25850452946514
 21
275.3791248656762
  0
ARC
  8
_0-b_細線3
  6
CONTINUOUS
 62
    7
 10
329.37175318535651
 20
273.71245819900923
 40
1.666666666666667
 50
89.999999999999915
 51
179.99999999999983
  0
ARC
  8
_0-b_細線3
  6
CONTINUOUS
 62
    7
 10
330.15166850423589
 20
277.04579153234226
 40
1.666666666666667
 50
269.99999999999977
 51
330.00000000000881
  0
ARC
  8
_0-b_細線3
  6
CONTINUOUS
 62
    7
 10
333.03841985018403
 20
275.3791248656762
 40
1.666666666666667
 50
90.000000000015632
 51
150.00000000000915
  0
LINE
  8
_0-b_細線3
  6
CONTINUOUS
 62
    7
 10
329.37175318535651
 20
275.3791248656762
 11
330.15166850423589
 21
275.3791248656762
  0
ARC
  8
_0-b_細線3
  6
CONTINUOUS
 62
    7
 10
345.871753181678
 20
271.3791248656762
 40
0.8333333333333334
 50
269.99999999999977
 51
359.99999999999966
  0
LINE
  8
_0-b_細線3
  6
CONTINUOUS
 62
    7
 10
346.70508651501103
 20
273.71245819900923
 11
346.70508651501103
 21
271.3791248656762
  0
ARC
  8
_0-b_細線3
  6
CONTINUOUS
 62
    7
 10
328.53841985202303
 20
271.3791248656762
 40
0.8333333333333334
 50
179.99999999999983
 51
269.99999999999977
  0
LINE
  8
_0-b_細線3
  6
CONTINUOUS
 62
    7
 10
327.70508651869
 20
273.71245819900923
 11
327.70508651869
 21
271.3791248656762
  0
ARC
  8
_0-b_細線3
  6
CONTINUOUS
 62
    7
 10
341.70508651501103
 20
268.8791248656762
 40
1.666666666666667
 50
89.999999999999915
 51
179.99999999999983
  0
LINE
  8
_0-b_細線3
  6
CONTINUOUS
 62
    7
 10
341.70508651501103
 20
270.54579153234226
 11
345.871753181678
 21
270.54579153234226
  0
ARC
  8
_0-b_細線3
  6
CONTINUOUS
 62
    7
 10
332.70508651501109
 20
268.8791248656762
 40
1.666666666666667
 50
0
 51
89.999999999999915
  0
LINE
  8
_0-b_細線3
  6
CONTINUOUS
 62
    7
 10
332.70508651869
 20
270.54579153234226
 11
328.53841985202303
 21
270.54579153234226
  0
LINE
  8
_0-b_細線3
  6
CONTINUOUS
 62
    7
 10
333.03841985018403
 20
277.04579153234226
 11
341.37175318351746
 21
277.04579153234226
  0
LINE
  8
_0-b_細線3
  6
CONTINUOUS
 62
    7
 10
340.03841985018397
 20
243.71245819900923
 11
340.03841984834452
 21
268.8791248656762
  0
LINE
  8
_0-b_細線3
  6
CONTINUOUS
 62
    7
 10
334.37175318351706
 20
243.71245819900923
 11
334.3717531816776
 21
268.8791248656762
  0
LINE
  8
_0-b_細線3
  6
CONTINUOUS
 62
    7
 10
334.37175318351706
 20
243.71245819900923
 11
340.03841985018397
 21
243.71245819900923
  0
ARC
  8
_0-b_細線3
  6
CONTINUOUS
 62
    7
 10
316.70508651472505
 20
273.71245819900923
 40
1.666666666666667
 50
0
 51
89.999999999999915
  0
ARC
  8
_0-b_細線3
  6
CONTINUOUS
 62
    7
 10
315.92517119584568
 20
277.04579153234226
 40
1.666666666666667
 50
209.99999999999051
 51
269.99999999999977
  0
ARC
  8
_0-b_細線3
  6
CONTINUOUS
 62
    7
 10
313.03841984989759
 20
275.3791248656762
 40
1.666666666666667
 50
29.999999999990862
 51
89.999999999999901
  0
LINE
  8
_0-b_細線3
  6
CONTINUOUS
 62
    7
 10
316.70508651472505
 20
275.3791248656762
 11
315.92517119584568
 21
275.3791248656762
  0
ARC
  8
_0-b_細線3
  6
CONTINUOUS
 62
    7
 10
301.03841985173659
 20
273.71245819900923
 40
1.666666666666667
 50
89.999999999999915
 51
179.99999999999983
  0
ARC
  8
_0-b_細線3
  6
CONTINUOUS
 62
    7
 10
301.81833517061636
 20
277.04579153234226
 40
1.666666666666667
 50
269.99999999999977
 51
330.00000000000881
  0
ARC
  8
_0-b_細線3
  6
CONTINUOUS
 62
    7
 10
304.70508651656451
 20
275.3791248656762
 40
1.666666666666667
 50
90.000000000015632
 51
150.00000000000915
  0
LINE
  8
_0-b_細線3
  6
CONTINUOUS
 62
    7
 10
301.03841985173659
 20
275.3791248656762
 11
301.81833517061636
 21
275.3791248656762
  0
ARC
  8
_0-b_細線3
  6
CONTINUOUS
 62
    7
 10
317.5384198480586
 20
271.3791248656762
 40
0.8333333333333334
 50
269.99999999999977
 51
359.99999999999966
  0
LINE
  8
_0-b_細線3
  6
CONTINUOUS
 62
    7
 10
318.37175318139157
 20
273.71245819900923
 11
318.37175318139157
 21
271.3791248656762
  0
ARC
  8
_0-b_細線3
  6
CONTINUOUS
 62
    7
 10
300.2050865184035
 20
271.3791248656762
 40
0.8333333333333334
 50
179.99999999999983
 51
269.99999999999977
  0
LINE
  8
_0-b_細線3
  6
CONTINUOUS
 62
    7
 10
299.37175318507047
 20
273.71245819900923
 11
299.37175318507047
 21
271.3791248656762
  0
ARC
  8
_0-b_細線3
  6
CONTINUOUS
 62
    7
 10
313.37175318139157
 20
268.8791248656762
 40
1.666666666666667
 50
89.999999999999915
 51
179.99999999999983
  0
LINE
  8
_0-b_細線3
  6
CONTINUOUS
 62
    7
 10
313.37175318139157
 20
270.54579153234226
 11
317.5384198480586
 21
270.54579153234226
  0
ARC
  8
_0-b_細線3
  6
CONTINUOUS
 62
    7
 10
304.37175318139157
 20
268.8791248656762
 40
1.666666666666667
 50
0
 51
89.999999999999915
  0
LINE
  8
_0-b_細線3
  6
CONTINUOUS
 62
    7
 10
304.37175318507047
 20
270.54579153234226
 11
300.2050865184035
 21
270.54579153234226
  0
LINE
  8
_0-b_細線3
  6
CONTINUOUS
 62
    7
 10
304.70508651656451
 20
277.04579153234226
 11
313.03841984989759
 21
277.04579153234226
  0
LINE
  8
_0-b_細線3
  6
CONTINUOUS
 62
    7
 10
311.70508651656451
 20
243.71245819900923
 11
311.70508651472505
 21
268.8791248656762
  0
LINE
  8
_0-b_細線3
  6
CONTINUOUS
 62
    7
 10
306.03841984989754
 20
243.71245819900923
 11
306.03841984805808
 21
268.8791248656762
  0
LINE
  8
_0-b_細線3
  6
CONTINUOUS
 62
    7
 10
306.03841984989754
 20
243.71245819900923
 11
311.70508651656451
 21
243.71245819900923
  0
ARC
  8
_0-b_細線3
  6
CONTINUOUS
 62
    7
 10
288.37175318110553
 20
273.71245819900923
 40
1.666666666666667
 50
0
 51
89.999999999999915
  0
ARC
  8
_0-b_細線3
  6
CONTINUOUS
 62
    7
 10
287.59183786222621
 20
277.04579153234226
 40
1.666666666666667
 50
209.99999999999051
 51
269.99999999999977
  0
ARC
  8
_0-b_細線3
  6
CONTINUOUS
 62
    7
 10
284.70508651627802
 20
275.3791248656762
 40
1.666666666666667
 50
29.999999999990862
 51
89.999999999999901
  0
LINE
  8
_0-b_細線3
  6
CONTINUOUS
 62
    7
 10
288.37175318110553
 20
275.3791248656762
 11
287.59183786222621
 21
275.3791248656762
  0
ARC
  8
_0-b_細線3
  6
CONTINUOUS
 62
    7
 10
272.70508651811701
 20
273.71245819900923
 40
1.666666666666667
 50
89.999999999999915
 51
179.99999999999983
  0
ARC
  8
_0-b_細線3
  6
CONTINUOUS
 62
    7
 10
273.48500183699639
 20
277.04579153234226
 40
1.666666666666667
 50
269.99999999999977
 51
330.00000000000881
  0
ARC
  8
_0-b_細線3
  6
CONTINUOUS
 62
    7
 10
276.37175318294453
 20
275.3791248656762
 40
1.666666666666667
 50
89.999999999999915
 51
150.00000000000915
  0
LINE
  8
_0-b_細線3
  6
CONTINUOUS
 62
    7
 10
272.70508651811701
 20
275.3791248656762
 11
273.48500183699639
 21
275.3791248656762
  0
ARC
  8
_0-b_細線3
  6
CONTINUOUS
 62
    7
 10
289.20508651443856
 20
271.3791248656762
 40
0.8333333333333334
 50
269.99999999999977
 51
359.99999999999966
  0
LINE
  8
_0-b_細線3
  6
CONTINUOUS
 62
    7
 10
290.0384198477721
 20
273.71245819900923
 11
290.0384198477721
 21
271.3791248656762
  0
ARC
  8
_0-b_細線3
  6
CONTINUOUS
 62
    7
 10
271.87175318478398
 20
271.3791248656762
 40
0.8333333333333334
 50
179.99999999999983
 51
269.99999999999977
  0
LINE
  8
_0-b_細線3
  6
CONTINUOUS
 62
    7
 10
271.0384198514505
 20
273.71245819900923
 11
271.0384198514505
 21
271.3791248656762
  0
ARC
  8
_0-b_細線3
  6
CONTINUOUS
 62
    7
 10
285.0384198477721
 20
268.8791248656762
 40
1.666666666666667
 50
89.999999999999915
 51
179.99999999999983
  0
LINE
  8
_0-b_細線3
  6
CONTINUOUS
 62
    7
 10
285.0384198477721
 20
270.54579153234226
 11
289.20508651443856
 21
270.54579153234226
  0
ARC
  8
_0-b_細線3
  6
CONTINUOUS
 62
    7
 10
276.03841984777205
 20
268.8791248656762
 40
1.666666666666667
 50
0
 51
89.999999999999915
  0
LINE
  8
_0-b_細線3
  6
CONTINUOUS
 62
    7
 10
276.03841985145095
 20
270.54579153234226
 11
271.87175318478398
 21
270.54579153234226
  0
LINE
  8
_0-b_細線3
  6
CONTINUOUS
 62
    7
 10
276.37175318294453
 20
277.04579153234226
 11
284.70508651627802
 21
277.04579153234226
  0
LINE
  8
_0-b_細線3
  6
CONTINUOUS
 62
    7
 10
283.37175318294453
 20
243.71245819900923
 11
283.37175318110553
 21
268.8791248656762
  0
LINE
  8
_0-b_細線3
  6
CONTINUOUS
 62
    7
 10
277.70508651627807
 20
243.71245819900923
 11
277.70508651443862
 21
268.8791248656762
  0
LINE
  8
_0-b_細線3
  6
CONTINUOUS
 62
    7
 10
277.70508651627807
 20
243.71245819900923
 11
283.37175318294453
 21
243.71245819900923
  0
ARC
  8
_0-b_細線3
  6
CONTINUOUS
 62
    7
 10
725.70508652551712
 20
273.71245819900923
 40
1.666666666666667
 50
89.999999999999915
 51
179.99999999999983
  0
ARC
  8
_0-b_細線3
  6
CONTINUOUS
 62
    7
 10
726.48500184439649
 20
277.04579153234226
 40
1.666666666666667
 50
269.99999999999977
 51
330.00000000000881
  0
ARC
  8
_0-b_細線3
  6
CONTINUOUS
 62
    7
 10
729.37175319034418
 20
275.3791248656762
 40
1.666666666666667
 50
89.999999999999915
 51
150.00000000000134
  0
LINE
  8
_0-b_細線3
  6
CONTINUOUS
 62
    7
 10
725.70508652551712
 20
275.3791248656762
 11
726.48500184439649
 21
275.3791248656762
  0
ARC
  8
_0-b_細線3
  6
CONTINUOUS
 62
    7
 10
741.37175318850518
 20
273.71245819900923
 40
1.666666666666667
 50
0
 51
89.999999999999915
  0
ARC
  8
_0-b_細線3
  6
CONTINUOUS
 62
    7
 10
740.59183786962581
 20
277.04579153234226
 40
1.666666666666667
 50
209.99999999999051
 51
269.99999999999977
  0
ARC
  8
_0-b_細線3
  6
CONTINUOUS
 62
    7
 10
737.70508652367766
 20
275.3791248656762
 40
1.666666666666667
 50
29.999999999990862
 51
89.999999999984354
  0
LINE
  8
_0-b_細線3
  6
CONTINUOUS
 62
    7
 10
741.37175318850518
 20
275.3791248656762
 11
740.59183786962581
 21
275.3791248656762
  0
ARC
  8
_0-b_細線3
  6
CONTINUOUS
 62
    7
 10
724.87175319218363
 20
271.3791248656762
 40
0.8333333333333334
 50
179.99999999999983
 51
269.99999999999977
  0
LINE
  8
_0-b_細線3
  6
CONTINUOUS
 62
    7
 10
724.0384198588506
 20
273.71245819900923
 11
724.0384198588506
 21
271.3791248656762
  0
ARC
  8
_0-b_細線3
  6
CONTINUOUS
 62
    7
 10
742.20508652183867
 20
271.3791248656762
 40
0.8333333333333334
 50
269.99999999999977
 51
359.99999999999966
  0
LINE
  8
_0-b_細線3
  6
CONTINUOUS
 62
    7
 10
743.0384198551717
 20
273.71245819900923
 11
743.0384198551717
 21
271.3791248656762
  0
ARC
  8
_0-b_細線3
  6
CONTINUOUS
 62
    7
 10
729.0384198588506
 20
268.8791248656762
 40
1.666666666666667
 50
0
 51
89.999999999999915
  0
LINE
  8
_0-b_細線3
  6
CONTINUOUS
 62
    7
 10
729.0384198588506
 20
270.54579153234226
 11
724.87175319218363
 21
270.54579153234226
  0
ARC
  8
_0-b_細線3
  6
CONTINUOUS
 62
    7
 10
738.0384198588506
 20
268.8791248656762
 40
1.666666666666667
 50
89.999999999999915
 51
179.99999999999983
  0
LINE
  8
_0-b_細線3
  6
CONTINUOUS
 62
    7
 10
738.0384198551717
 20
270.54579153234226
 11
742.20508652183867
 21
270.54579153234226
  0
LINE
  8
_0-b_細線3
  6
CONTINUOUS
 62
    7
 10
737.70508652367766
 20
277.04579153234226
 11
729.37175319034418
 21
277.04579153234226
  0
LINE
  8
_0-b_細線3
  6
CONTINUOUS
 62
    7
 10
730.70508652367766
 20
243.71245819900923
 11
730.70508652551712
 21
268.8791248656762
  0
LINE
  8
_0-b_細線3
  6
CONTINUOUS
 62
    7
 10
736.37175319034463
 20
243.71245819900923
 11
736.37175319218409
 21
268.8791248656762
  0
LINE
  8
_0-b_細線3
  6
CONTINUOUS
 62
    7
 10
736.37175319034463
 20
243.71245819900923
 11
730.70508652367766
 21
243.71245819900923
  0
ARC
  8
_0-b_細線3
  6
CONTINUOUS
 62
    7
 10
244.7050865192621
 20
273.71245819900923
 40
1.666666666666667
 50
89.999999999999915
 51
179.99999999999983
  0
ARC
  8
_0-b_細線3
  6
CONTINUOUS
 62
    7
 10
245.48500183814099
 20
277.04579153234226
 40
1.666666666666667
 50
269.99999999999977
 51
330.00000000000881
  0
ARC
  8
_0-b_細線3
  6
CONTINUOUS
 62
    7
 10
248.3717531840891
 20
275.3791248656762
 40
1.666666666666667
 50
89.999999999999915
 51
150.00000000000915
  0
LINE
  8
_0-b_細線3
  6
CONTINUOUS
 62
    7
 10
244.7050865192621
 20
275.3791248656762
 11
245.48500183814099
 21
275.3791248656762
  0
ARC
  8
_0-b_細線3
  6
CONTINUOUS
 62
    7
 10
260.37175318225013
 20
273.71245819900923
 40
1.666666666666667
 50
0
 51
89.999999999999915
  0
ARC
  8
_0-b_細線3
  6
CONTINUOUS
 62
    7
 10
259.59183786337121
 20
277.04579153234226
 40
1.666666666666667
 50
209.99999999999051
 51
269.99999999999977
  0
ARC
  8
_0-b_細線3
  6
CONTINUOUS
 62
    7
 10
256.70508651742307
 20
275.3791248656762
 40
1.666666666666667
 50
29.999999999990862
 51
89.999999999999901
  0
LINE
  8
_0-b_細線3
  6
CONTINUOUS
 62
    7
 10
260.37175318225013
 20
275.3791248656762
 11
259.59183786337121
 21
275.3791248656762
  0
ARC
  8
_0-b_細線3
  6
CONTINUOUS
 62
    7
 10
243.87175318592909
 20
271.3791248656762
 40
0.8333333333333334
 50
179.99999999999983
 51
269.99999999999977
  0
LINE
  8
_0-b_細線3
  6
CONTINUOUS
 62
    7
 10
243.0384198525951
 20
273.71245819900923
 11
243.0384198525951
 21
271.3791248656762
  0
ARC
  8
_0-b_細線3
  6
CONTINUOUS
 62
    7
 10
261.20508651558407
 20
271.3791248656762
 40
0.8333333333333334
 50
269.99999999999977
 51
359.99999999999966
  0
LINE
  8
_0-b_細線3
  6
CONTINUOUS
 62
    7
 10
262.0384198489171
 20
273.71245819900923
 11
262.0384198489171
 21
271.3791248656762
  0
ARC
  8
_0-b_細線3
  6
CONTINUOUS
 62
    7
 10
248.0384198525951
 20
268.8791248656762
 40
1.666666666666667
 50
0
 51
89.999999999999915
  0
LINE
  8
_0-b_細線3
  6
CONTINUOUS
 62
    7
 10
248.0384198525951
 20
270.54579153234226
 11
243.87175318592909
 21
270.54579153234226
  0
ARC
  8
_0-b_細線3
  6
CONTINUOUS
 62
    7
 10
257.03841985259601
 20
268.8791248656762
 40
1.666666666666667
 50
89.999999999999915
 51
179.99999999999983
  0
LINE
  8
_0-b_細線3
  6
CONTINUOUS
 62
    7
 10
257.0384198489171
 20
270.54579153234226
 11
261.20508651558407
 21
270.54579153234226
  0
LINE
  8
_0-b_細線3
  6
CONTINUOUS
 62
    7
 10
256.70508651742307
 20
277.04579153234226
 11
248.3717531840891
 21
277.04579153234226
  0
LINE
  8
_0-b_細線3
  6
CONTINUOUS
 62
    7
 10
249.70508651742307
 20
243.71245819900923
 11
249.7050865192621
 21
268.8791248656762
  0
LINE
  8
_0-b_細線3
  6
CONTINUOUS
 62
    7
 10
255.37175318408913
 20
243.71245819900923
 11
255.37175318592901
 21
268.8791248656762
  0
LINE
  8
_0-b_細線3
  6
CONTINUOUS
 62
    7
 10
255.37175318408913
 20
243.71245819900923
 11
249.70508651742307
 21
243.71245819900923
  0
LINE
  8
_0-d_寸法3
  6
CONTINUOUS
 62
    7
 10
563.87175318831009
 20
287.04579153234226
 11
563.87175318831009
 21
328.71245819900929
  0
LINE
  8
_0-d_寸法3
  6
CONTINUOUS
 62
    7
 10
563.87175318831009
 20
323.71245819900929
 11
573.53101145120081
 21
326.30064865003442
  0
LINE
  8
_0-d_寸法3
  6
CONTINUOUS
 62
    7
 10
563.87175318831009
 20
323.71245819900929
 11
573.53101145120081
 21
321.12426774798405
  0
LINE
  8
_0-d_寸法3
  6
CONTINUOUS
 62
    7
 10
592.20508652224657
 20
287.04579153234226
 11
592.20508652224657
 21
328.71245819900929
  0
LINE
  8
_0-d_寸法3
  6
CONTINUOUS
 62
    7
 10
592.20508652224657
 20
323.71245819900929
 11
582.54582825935586
 21
321.12426774798405
  0
LINE
  8
_0-d_寸法3
  6
CONTINUOUS
 62
    7
 10
592.20508652224657
 20
323.71245819900929
 11
582.54582825935586
 21
326.30064865003447
  0
LINE
  8
_0-d_寸法3
  6
CONTINUOUS
 62
    7
 10
563.87175318831009
 20
323.71245819900929
 11
592.20508652224657
 21
323.71245819900929
  0
TEXT
  8
_0-d_寸法3
 62
    7
 10
561.8824425626733
 20
308.71245819900923
 40
15
 41
1
 50
0
  1
(17)
  0
LINE
  8
_0-d_寸法3
  6
CONTINUOUS
 62
    7
 10
592.20508652224657
 20
323.71245819900929
 11
601.86434478513729
 21
326.30064865003442
  0
LINE
  8
_0-d_寸法3
  6
CONTINUOUS
 62
    7
 10
592.20508652224657
 20
323.71245819900929
 11
601.86434478513729
 21
321.12426774798399
  0
LINE
  8
_0-d_寸法3
  6
CONTINUOUS
 62
    7
 10
620.53841985618283
 20
287.04579153234226
 11
620.53841985618283
 21
328.71245819900929
  0
LINE
  8
_0-d_寸法3
  6
CONTINUOUS
 62
    7
 10
620.53841985618283
 20
323.71245819900929
 11
610.87916159329211
 21
321.12426774798405
  0
LINE
  8
_0-d_寸法3
  6
CONTINUOUS
 62
    7
 10
620.53841985618283
 20
323.71245819900929
 11
610.87916159329211
 21
326.30064865003447
  0
LINE
  8
_0-d_寸法3
  6
CONTINUOUS
 62
    7
 10
592.20508652224657
 20
323.71245819900929
 11
620.53841985618283
 21
323.71245819900929
  0
TEXT
  8
_0-d_寸法3
 62
    7
 10
592.2824425626734
 20
323.71245819900929
 40
15
 41
1
 50
0
  1
(17)
  0
LINE
  8
_0-d_寸法3
  6
CONTINUOUS
 62
    7
 10
375.0384198489171
 20
283.71245819900923
 11
375.0384198489171
 21
328.71245819900929
  0
LINE
  8
_0-d_寸法3
  6
CONTINUOUS
 62
    7
 10
375.0384198489171
 20
323.71245819900929
 11
365.37916158602633
 21
321.12426774798405
  0
LINE
  8
_0-d_寸法3
  6
CONTINUOUS
 62
    7
 10
375.0384198489171
 20
323.71245819900929
 11
365.37916158602638
 21
326.30064865003447
  0
LINE
  8
_0-d_寸法3
  6
CONTINUOUS
 62
    7
 10
384.37175318653203
 20
283.71245819900923
 11
384.37175318653203
 21
328.71245819900929
  0
LINE
  8
_0-d_寸法3
  6
CONTINUOUS
 62
    7
 10
335.66446416575013
 20
323.71245819900929
 11
384.37175318653203
 21
323.71245819900929
  0
TEXT
  8
_0-d_寸法3
 62
    7
 10
335.66446416575013
 20
308.71245819900923
 40
15
 41
1
 50
0
  1
(5.6)
  0
LINE
  8
_0-d_寸法3
  6
CONTINUOUS
 62
    7
 10
384.37175318653203
 20
323.71245819900929
 11
394.03101144942269
 21
326.30064865003442
  0
LINE
  8
_0-d_寸法3
  6
CONTINUOUS
 62
    7
 10
384.37175318653203
 20
323.71245819900929
 11
394.03101144942269
 21
321.12426774798405
  0
LINE
  8
_0-d_寸法3
  6
CONTINUOUS
 62
    7
 10
403.37175318285313
 20
283.71245819900923
 11
403.37175318285313
 21
328.71245819900929
  0
LINE
  8
_0-d_寸法3
  6
CONTINUOUS
 62
    7
 10
403.37175318285313
 20
323.71245819900929
 11
393.71249491996241
 21
321.12426774798405
  0
LINE
  8
_0-d_寸法3
  6
CONTINUOUS
 62
    7
 10
403.37175318285313
 20
323.71245819900929
 11
393.71249491996247
 21
326.30064865003447
  0
LINE
  8
_0-d_寸法3
  6
CONTINUOUS
 62
    7
 10
384.37175318653203
 20
323.71245819900929
 11
403.37175318285313
 21
323.71245819900929
  0
TEXT
  8
_0-d_寸法3
 62
    7
 10
375.10705675834259
 20
323.71245819900929
 40
15
 41
1
 50
0
  1
11.4
  0
LINE
  8
_0-d_寸法3
  6
CONTINUOUS
 62
    7
 10
470.6802327436111
 20
249.44822256251967
 11
435.32789101792565
 21
274.20219873221004
  0
LINE
  8
_0-d_寸法3
  6
CONTINUOUS
 62
    7
 10
439.42365123937066
 20
271.33431655045479
 11
436.83546078834547
 21
280.99357481334545
  0
LINE
  8
_0-d_寸法3
  6
CONTINUOUS
 62
    7
 10
439.42365123937066
 20
271.33431655045479
 11
442.01184169039584
 21
280.99357481334545
  0
LINE
  8
_0-d_寸法3
  6
CONTINUOUS
 62
    7
 10
470.68023274361121
 20
282.78155589585282
 11
435.32789101792565
 21
307.53553206554398
  0
LINE
  8
_0-d_寸法3
  6
CONTINUOUS
 62
    7
 10
439.42365123937066
 20
304.66764988378873
 11
442.01184169039578
 21
295.00839162089801
  0
LINE
  8
_0-d_寸法3
  6
CONTINUOUS
 62
    7
 10
439.42365123937066
 20
304.66764988378873
 11
436.83546078834536
 21
295.00839162089807
  0
LINE
  8
_0-d_寸法3
  6
CONTINUOUS
 62
    7
 10
439.42365123937066
 20
271.33431655045479
 11
439.42365123937066
 21
304.66764988378873
  0
TEXT
  8
_0-d_寸法3
 62
    7
 10
439.42365123937066
 20
280.50098321712176
 40
15
 41
1
 50
90
  1
20
  0
LINE
  8
_0-d_寸法3
  6
CONTINUOUS
 62
    7
 10
284.70508651983465
 20
233.71282320068715
 11
284.70508651983465
 21
173.23479796644875
  0
LINE
  8
_0-d_寸法3
  6
CONTINUOUS
 62
    7
 10
284.70508651983465
 20
178.23479796644875
 11
294.36434478272531
 21
180.82298841747388
  0
LINE
  8
_0-d_寸法3
  6
CONTINUOUS
 62
    7
 10
284.70508651983465
 20
178.23479796644875
 11
294.36434478272531
 21
175.64660751542348
  0
LINE
  8
_0-d_寸法3
  6
CONTINUOUS
 62
    7
 10
701.37175318650111
 20
233.71282320068715
 11
701.37175318650111
 21
173.23479796644875
  0
LINE
  8
_0-d_寸法3
  6
CONTINUOUS
 62
    7
 10
701.37175318650111
 20
178.23479796644875
 11
691.71249492361039
 21
175.64660751542348
  0
LINE
  8
_0-d_寸法3
  6
CONTINUOUS
 62
    7
 10
701.37175318650111
 20
178.23479796644875
 11
691.71249492361039
 21
180.82298841747394
  0
LINE
  8
_0-d_寸法3
  6
CONTINUOUS
 62
    7
 10
284.70508651983465
 20
178.23479796644875
 11
701.37175318650111
 21
178.23479796644875
  0
TEXT
  8
_0-d_寸法3
 62
    7
 10
481.78841985316808
 20
178.23479796644875
 40
15
 41
1
 50
0
  1
250
  0
LINE
  8
_0-a_極細3
  6
CONTINUOUS
 62
    7
 10
191.06501829934933
 20
188.59452436319046
 11
185.93471614946409
 21
202.68991367497938
  0
LINE
  8
_0-a_極細3
  6
CONTINUOUS
 62
    7
 10
241.05906097314579
 20
222.75353437422567
 11
246.18936312303055
 21
208.65814506243669
  0
LINE
  8
_0-a_極細3
  6
CONTINUOUS
 62
    7
 10
185.93471614946409
 20
202.68991367497938
 11
241.05906097314579
 21
222.75353437422567
  0
LINE
  8
_0-a_極細3
  6
CONTINUOUS
 62
    7
 10
191.06501829934933
 20
188.59452436319046
 11
246.18936312303055
 21
208.65814506243669
  0
LINE
  8
_0-a_極細3
  6
CENTER1
 62
    7
 10
183.54443383241403
 20
193.83858897905526
 11
247.57545431497974
 21
217.14397446409023
  0
LINE
  8
_0-a_極細3
  6
CONTINUOUS
 62
    7
 10
209.70508651983465
 20
163.71282320068715
 11
209.70508651983465
 21
207.798384549003
  0
LINE
  8
_0-a_極細3
  6
CONTINUOUS
 62
    7
 10
209.70508651983465
 20
207.798384549003
 11
194.70508651983465
 21
207.798384549003
  0
LINE
  8
_0-a_極細3
  6
CONTINUOUS
 62
    7
 10
194.70508651983465
 20
207.798384549003
 11
194.70508651983465
 21
163.71282320068715
  0
LINE
  8
_0-a_極細3
  6
CENTER1
 62
    7
 10
202.20508651983465
 20
155.43608291623423
 11
202.20508651983465
 21
212.07410471361257
  0
LINE
  8
_0-d_寸法3
  6
CONTINUOUS
 62
    7
 10
224.70508651983471
 20
238.71282320068715
 11
178.75505544124536
 21
238.71282320068715
  0
LINE
  8
_0-d_寸法3
  6
CONTINUOUS
 62
    7
 10
183.75505544124536
 20
238.71282320068715
 11
186.34324589227049
 21
229.05356493779647
  0
LINE
  8
_0-d_寸法3
  6
CONTINUOUS
 62
    7
 10
183.75505544124536
 20
238.71282320068715
 11
181.16686499022009
 21
229.05356493779649
  0
LINE
  8
_0-d_寸法3
  6
CONTINUOUS
 62
    7
 10
222.70508651983477
 20
200.37948986735373
 11
178.75505544124542
 21
200.37948986735373
  0
LINE
  8
_0-d_寸法3
  6
CONTINUOUS
 62
    7
 10
183.75505544124542
 20
200.37948986735364
 11
181.16686499022023
 21
210.03874813024436
  0
LINE
  8
_0-d_寸法3
  6
CONTINUOUS
 62
    7
 10
183.75505544124542
 20
200.37948986735364
 11
186.34324589227063
 21
210.03874813024436
  0
LINE
  8
_0-d_寸法3
  6
CONTINUOUS
 62
    7
 10
183.75505544124536
 20
238.71282320068715
 11
183.75505544124542
 21
200.37948986735364
  0
TEXT
  8
_0-d_寸法3
 62
    7
 10
183.75505544124536
 20
212.04615653402016
 40
15
 41
1
 50
90
  1
23
  0
LINE
  8
_0-d_寸法3
  6
CONTINUOUS
 62
    7
 10
234.70508651983451
 20
190.37948986735415
 11
234.70508651983437
 21
173.23479796644824
  0
LINE
  8
_0-d_寸法3
  6
CONTINUOUS
 62
    7
 10
234.70508651983437
 20
178.23479796644824
 11
244.36434478272503
 21
180.82298841747345
  0
LINE
  8
_0-d_寸法3
  6
CONTINUOUS
 62
    7
 10
234.70508651983437
 20
178.23479796644824
 11
244.36434478272503
 21
175.64660751542306
  0
LINE
  8
_0-d_寸法3
  6
CONTINUOUS
 62
    7
 10
284.70508651983448
 20
228.71282320068715
 11
284.70508651983391
 21
173.23479796644824
  0
LINE
  8
_0-d_寸法3
  6
CONTINUOUS
 62
    7
 10
284.70508651983408
 20
178.23479796644824
 11
275.04582825694331
 21
175.64660751542306
  0
LINE
  8
_0-d_寸法3
  6
CONTINUOUS
 62
    7
 10
284.70508651983408
 20
178.23479796644824
 11
275.04582825694342
 21
180.82298841747345
  0
LINE
  8
_0-d_寸法3
  6
CONTINUOUS
 62
    7
 10
234.70508651983437
 20
178.23479796644824
 11
284.70508651983408
 21
178.23479796644824
  0
TEXT
  8
_0-d_寸法3
 62
    7
 10
252.20508651983423
 20
178.23479796644824
 40
15
 41
1
 50
0
  1
30
  0
LINE
  8
_0-d_寸法3
  6
CONTINUOUS
 62
    7
 10
224.70508651983465
 20
277.04615653402067
 11
178.75505544124522
 21
277.04615653402061
  0
LINE
  8
_0-d_寸法3
  6
CONTINUOUS
 62
    7
 10
183.75505544124522
 20
277.04615653402061
 11
186.34324589227035
 21
267.38689827112989
  0
LINE
  8
_0-d_寸法3
  6
CONTINUOUS
 62
    7
 10
183.75505544124522
 20
277.04615653402061
 11
181.16686499021995
 21
267.38689827112995
  0
LINE
  8
_0-d_寸法3
  6
CONTINUOUS
 62
    7
 10
222.70508651983462
 20
238.71282320068715
 11
178.75505544124536
 21
238.71282320068715
  0
LINE
  8
_0-d_寸法3
  6
CONTINUOUS
 62
    7
 10
183.75505544124536
 20
238.71282320068715
 11
181.16686499022009
 21
248.37208146357781
  0
LINE
  8
_0-d_寸法3
  6
CONTINUOUS
 62
    7
 10
183.75505544124536
 20
238.71282320068715
 11
186.34324589227049
 21
248.37208146357781
  0
LINE
  8
_0-d_寸法3
  6
CONTINUOUS
 62
    7
 10
183.75505544124522
 20
277.04615653402061
 11
183.75505544124536
 21
238.71282320068715
  0
TEXT
  8
_0-d_寸法3
 62
    7
 10
183.75505544124522
 20
250.37948986735364
 40
15
 41
1
 50
90
  1
23
  0
LINE
  8
_0-a_極細3
  6
CONTINUOUS
 62
    7
 10
795.01182140698688
 20
188.59452436319046
 11
800.14212355687209
 21
202.68991367497938
  0
LINE
  8
_0-a_極細3
  6
CONTINUOUS
 62
    7
 10
745.01777873319031
 20
222.75353437422567
 11
739.88747658330556
 21
208.65814506243669
  0
LINE
  8
_0-a_極細3
  6
CONTINUOUS
 62
    7
 10
800.14212355687209
 20
202.68991367497938
 11
745.01777873319031
 21
222.75353437422567
  0
LINE
  8
_0-a_極細3
  6
CONTINUOUS
 62
    7
 10
795.01182140698688
 20
188.59452436319046
 11
739.88747658330556
 21
208.65814506243669
  0
LINE
  8
_0-a_極細3
  6
CENTER1
 62
    7
 10
802.53240587392213
 20
193.83858897905526
 11
738.50138539135628
 21
217.14397446409023
  0
LINE
  8
_0-a_極細3
  6
CONTINUOUS
 62
    7
 10
776.37175318650156
 20
163.71282320068715
 11
776.37175318650156
 21
207.798384549003
  0
LINE
  8
_0-a_極細3
  6
CONTINUOUS
 62
    7
 10
791.37175318650156
 20
207.798384549003
 11
791.37175318650156
 21
163.71282320068715
  0
LINE
  8
_0-a_極細3
  6
CENTER1
 62
    7
 10
783.87175318650156
 20
155.43608291623423
 11
783.87175318650156
 21
212.07410471361257
  0
LINE
  8
_0-d_寸法3
  6
CONTINUOUS
 62
    7
 10
751.37175318650168
 20
190.37948986735415
 11
751.37175318650179
 21
173.23479796644824
  0
LINE
  8
_0-d_寸法3
  6
CONTINUOUS
 62
    7
 10
751.37175318650179
 20
178.23479796644824
 11
741.71249492361108
 21
175.64660751542306
  0
LINE
  8
_0-d_寸法3
  6
CONTINUOUS
 62
    7
 10
751.37175318650179
 20
178.23479796644824
 11
741.71249492361108
 21
180.82298841747345
  0
LINE
  8
_0-d_寸法3
  6
CONTINUOUS
 62
    7
 10
701.37175318650168
 20
228.71282320068715
 11
701.37175318650202
 21
173.23479796644824
  0
LINE
  8
_0-d_寸法3
  6
CONTINUOUS
 62
    7
 10
701.37175318650202
 20
178.23479796644824
 11
711.03101144939274
 21
180.82298841747345
  0
LINE
  8
_0-d_寸法3
  6
CONTINUOUS
 62
    7
 10
701.37175318650202
 20
178.23479796644824
 11
711.03101144939274
 21
175.64660751542306
  0
LINE
  8
_0-d_寸法3
  6
CONTINUOUS
 62
    7
 10
751.37175318650179
 20
178.23479796644824
 11
701.37175318650202
 21
178.23479796644824
  0
TEXT
  8
_0-d_寸法3
 62
    7
 10
718.87175318650191
 20
178.23479796644818
 40
15
 41
1
 50
0.0000000000005428
  1
30
  0
LINE
  8
_0-a_極細3
  6
CONTINUOUS
 62
    7
 10
776.37175318650156
 20
207.798384549003
 11
791.37175318650156
 21
207.798384549003
  0
CIRCLE
  8
_0-a_極細3
  6
CONTINUOUS
 62
    7
 10
798.29977042776068
 20
213.29925830870525
 40
0.5530864197530718
  0
CIRCLE
  8
_0-a_極細3
  6
CONTINUOUS
 62
    7
 10
778.699770427761
 20
218.89925830870564
 40
0.5530864197530718
  0
TEXT
  8
_0-7_枠細線
 62
    5
 10
965.49999999999977
 20
70
 40
20
 41
0.5999999999999998
 50
0
  1
色については品番表参照のこと
  0
TEXT
  8
_0-7_枠細線
 62
    5
 10
443.11637221393426
 20
93.712458199009205
 40
25
 41
0.8
 50
0
  1
断面詳細図
  0
TEXT
  8
_0-7_枠細線
 62
    5
 10
558.06534196310224
 20
93.712458199009205
 40
20
 41
0.6
 50
0
  1
Ｓ＝１：３
  0
TEXT
  8
_0-7_枠細線
 62
    5
 10
1310
 20
67.5
 40
15
 41
0.6666666666666666
 50
0
  1
２００９年０１月３０日
  0
TEXT
  8
_0-7_枠細線
 62
    5
 10
965.50000000000011
 20
110
 40
20
 41
0.6
 50
0
  1
ＧＲＳ－２０Ｗ３００　ＳＥＴ
  0
LINE
  8
_0-0_計極細
  6
CONTINUOUS
 62
    2
 10
467.46031080882096
 20
604.12637075717817
 11
467.46031080882096
 21
609.72637075717842
  0
LINE
  8
_0-0_計極細
  6
CONTINUOUS
 62
    2
 10
467.46031080882096
 20
621.12637075717805
 11
467.46031080882096
 21
626.72637075717842
  0
LINE
  8
_0-0_計極細
  6
CONTINUOUS
 62
    2
 10
467.46031080882096
 20
643.72637075717478
 11
467.46031080882096
 21
638.12637075717453
  0
LINE
  8
_0-0_計極細
  6
CONTINUOUS
 62
    2
 10
467.46031080882096
 20
660.72637075717478
 11
467.46031080882096
 21
655.12637075717453
  0
LINE
  8
_0-0_計極細
  6
CONTINUOUS
 62
    2
 10
467.46031080882096
 20
677.72637075717569
 11
467.46031080882096
 21
672.12637075717623
  0
LINE
  8
_0-0_計極細
  6
CONTINUOUS
 62
    2
 10
467.46031080882096
 20
694.7263707571766
 11
467.46031080882096
 21
689.12637075717623
  0
LINE
  8
_0-0_計極細
  6
CONTINUOUS
 62
    2
 10
467.46031080882096
 20
711.7263707571766
 11
467.46031080882096
 21
706.12637075717714
  0
LINE
  8
_0-0_計極細
  6
CONTINUOUS
 62
    2
 10
467.46031080882096
 20
796.52637075717598
 11
467.46031080882096
 21
791.12637075717635
  0
LINE
  8
_0-0_計極細
  6
CONTINUOUS
 62
    2
 10
467.46031080882096
 20
519.32637075717696
 11
467.46031080882096
 21
524.7263707571766
  0
LINE
  8
_0-0_計極細
  6
CONTINUOUS
 62
    2
 10
467.46031080882096
 20
728.7263707571766
 11
467.46031080882096
 21
723.12637075717635
  0
LINE
  8
_0-0_計極細
  6
CONTINUOUS
 62
    2
 10
467.46031080882096
 20
745.72637075717478
 11
467.46031080882096
 21
740.12637075717532
  0
LINE
  8
_0-0_計極細
  6
CONTINUOUS
 62
    2
 10
467.46031080882096
 20
762.72637075717489
 11
467.46031080882096
 21
757.12637075717441
  0
LINE
  8
_0-0_計極細
  6
CONTINUOUS
 62
    2
 10
467.46031080882096
 20
779.72637075717307
 11
467.46031080882096
 21
774.12637075717362
  0
LINE
  8
_0-0_計極細
  6
CONTINUOUS
 62
    2
 10
467.46031080882096
 20
587.12637075717805
 11
467.46031080882096
 21
592.72637075717751
  0
LINE
  8
_0-0_計極細
  6
CONTINUOUS
 62
    2
 10
467.46031080882096
 20
570.12637075717805
 11
467.46031080882096
 21
575.72637075717842
  0
LINE
  8
_0-0_計極細
  6
CONTINUOUS
 62
    2
 10
467.46031080882096
 20
553.12637075717987
 11
467.46031080882096
 21
558.72637075717932
  0
LINE
  8
_0-0_計極細
  6
CONTINUOUS
 62
    2
 10
467.46031080882096
 20
536.12637075717987
 11
467.46031080882096
 21
541.72637075718035
  0
LINE
  8
_0-0_計極細
  6
CONTINUOUS
 62
    2
 10
729.46031080882096
 20
604.12637075717817
 11
729.46031080882096
 21
609.72637075717842
  0
LINE
  8
_0-0_計極細
  6
CONTINUOUS
 62
    2
 10
729.46031080882096
 20
621.12637075717805
 11
729.46031080882096
 21
626.72637075717842
  0
LINE
  8
_0-0_計極細
  6
CONTINUOUS
 62
    2
 10
729.46031080882096
 20
643.72637075717478
 11
729.46031080882096
 21
638.12637075717453
  0
LINE
  8
_0-0_計極細
  6
CONTINUOUS
 62
    2
 10
729.46031080882096
 20
660.72637075717478
 11
729.46031080882096
 21
655.12637075717453
  0
LINE
  8
_0-0_計極細
  6
CONTINUOUS
 62
    2
 10
729.46031080882096
 20
677.72637075717569
 11
729.46031080882096
 21
672.12637075717623
  0
LINE
  8
_0-0_計極細
  6
CONTINUOUS
 62
    2
 10
729.46031080882096
 20
796.52637075717598
 11
729.46031080882096
 21
791.12637075717635
  0
LINE
  8
_0-0_計極細
  6
CONTINUOUS
 62
    2
 10
729.46031080882096
 20
519.32637075717696
 11
729.46031080882096
 21
524.7263707571766
  0
LINE
  8
_0-0_計極細
  6
CONTINUOUS
 62
    2
 10
729.46031080882096
 20
728.7263707571766
 11
729.46031080882096
 21
723.12637075717635
  0
LINE
  8
_0-0_計極細
  6
CONTINUOUS
 62
    2
 10
729.46031080882096
 20
745.72637075717478
 11
729.46031080882096
 21
740.12637075717532
  0
LINE
  8
_0-0_計極細
  6
CONTINUOUS
 62
    2
 10
729.46031080882096
 20
762.72637075717489
 11
729.46031080882096
 21
757.12637075717441
  0
LINE
  8
_0-0_計極細
  6
CONTINUOUS
 62
    2
 10
729.46031080882096
 20
779.72637075717307
 11
729.46031080882096
 21
774.12637075717362
  0
LINE
  8
_0-0_計極細
  6
CONTINUOUS
 62
    2
 10
729.46031080882096
 20
587.12637075717805
 11
729.46031080882096
 21
592.72637075717751
  0
LINE
  8
_0-0_計極細
  6
CONTINUOUS
 62
    2
 10
729.46031080882096
 20
570.12637075717805
 11
729.46031080882096
 21
575.72637075717842
  0
LINE
  8
_0-0_計極細
  6
CONTINUOUS
 62
    2
 10
729.46031080882096
 20
553.12637075717987
 11
729.46031080882096
 21
558.72637075717932
  0
LINE
  8
_0-0_計極細
  6
CONTINUOUS
 62
    2
 10
729.46031080882096
 20
536.12637075717987
 11
729.46031080882096
 21
541.72637075718035
  0
LINE
  8
_0-7_枠細線
  6
CONTINUOUS
 62
    5
 10
1225.0000000000014
 20
794.95837512859055
 11
1225.0000000000014
 21
719.95837512859043
  0
TEXT
  8
_0-7_枠細線
 62
    5
 10
1174.0000000000027
 20
749.95837512859043
 40
15
 41
0.5999999999999999
 50
0
  1
９９９
  0
TEXT
  8
_0-7_枠細線
 62
    5
 10
1181.5000000000027
 20
774.95837512859055
 40
15
 41
0.8000000000000001
 50
0
  1
Ｌ
  0
LINE
  8
_0-7_枠細線
  6
CONTINUOUS
 62
    5
 10
1150.0000000000014
 20
794.95837512859055
 11
1150.0000000000014
 21
719.95837512859043
  0
TEXT
  8
_0-7_枠細線
 62
    5
 10
1094.5000000000014
 20
774.95837512859055
 40
15
 41
0.8000000000000001
 50
0
  1
種　別
  0
TEXT
  8
_0-7_枠細線
 62
    5
 10
1094.5000000000009
 20
749.95837512859043
 40
15
 41
0.8000000000000001
 50
0
  1
定尺品
  0
TEXT
  8
_0-7_枠細線
 62
    5
 10
1094.5000000000009
 20
724.95837512859043
 40
15
 41
0.8000000000000001
 50
0
  1
特寸品
  0
LINE
  8
_0-7_枠細線
  6
CONTINUOUS
 62
    5
 10
1075
 20
794.95837512859055
 11
1075
 21
719.95837512859043
  0
LINE
  8
_0-7_枠細線
  6
CONTINUOUS
 62
    5
 10
1300.000000000002
 20
794.95837512859055
 11
1300.000000000002
 21
719.95837512859043
  0
TEXT
  8
_0-7_枠細線
 62
    5
 10
1256.5000000000027
 20
774.95837512859055
 40
15
 41
0.8000000000000001
 50
0
  1
Ａ
  0
TEXT
  8
_0-7_枠細線
 62
    5
 10
1244.5000000000018
 20
749.95837512859043
 40
15
 41
0.5999999999999999
 50
0
  1
１４．５
  0
TEXT
  8
_0-7_枠細線
 62
    5
 10
1151.5000000000018
 20
724.95837512859043
 40
15
 41
0.5999999999999999
 50
0
  1
３０５～１３０５
  0
LINE
  8
_0-7_枠細線
  6
CONTINUOUS
 62
    5
 10
1375.0000000000023
 20
794.95837512859055
 11
1375.0000000000023
 21
719.95837512859043
  0
LINE
  8
_0-7_枠細線
  6
CONTINUOUS
 62
    5
 10
1075
 20
794.95837512859055
 11
1375.0000000000023
 21
794.95837512859055
  0
LINE
  8
_0-7_枠細線
  6
CONTINUOUS
 62
    5
 10
1075
 20
769.95837512859055
 11
1375.0000000000023
 21
769.95837512859055
  0
LINE
  8
_0-7_枠細線
  6
CONTINUOUS
 62
    5
 10
1075
 20
744.95837512859043
 11
1375.0000000000023
 21
744.95837512859043
  0
LINE
  8
_0-7_枠細線
  6
CONTINUOUS
 62
    5
 10
1075
 20
719.95837512859043
 11
1375.0000000000023
 21
719.95837512859043
  0
TEXT
  8
_0-7_枠細線
 62
    5
 10
1331.5000000000023
 20
774.95837512859055
 40
15
 41
0.8000000000000001
 50
0
  1
Ｂ
  0
TEXT
  8
_0-7_枠細線
 62
    5
 10
1328.5000000000023
 20
749.95837512859043
 40
15
 41
0.5999999999999999
 50
0
  1
９７
  0
TEXT
  8
_0-7_枠細線
 62
    5
 10
1163.0053911613957
 20
799.95837512859055
 40
17.5
 41
1
 50
0
  1
寸法表
  0
TEXT
  8
_0-7_枠細線
 62
    5
 10
1244.5000000000018
 20
724.95837512859043
 40
15
 41
0.5999999999999999
 50
0
  1
７～２０
  0
TEXT
  8
_0-7_枠細線
 62
    5
 10
1077.04820616962
 20
699.23280458415547
 40
15
 41
0.8000000000000001
 50
0
  1
※ 特寸品はAが20以下となるようBにて調整
  0
TEXT
  8
_0-7_枠細線
 62
    5
 10
1315.0000000000023
 20
724.95837512859043
 40
15
 41
0.5999999999999999
 50
0
  1
２７～９７
  0
LINE
  8
_0-a_極細3
  6
CENTER1
 62
    7
 10
749.49202781522854
 20
258.37912486567564
 11
233.05109407529449
 21
258.37912486567564
  0
LINE
  8
_0-b_細線3
  6
CONTINUOUS
 62
    7
 10
538.37175318862728
 20
247.54579153234209
 11
561.03841985529334
 21
247.54579153234209
  0
LINE
  8
_0-b_細線3
  6
CONTINUOUS
 62
    7
 10
510.03841985469035
 20
247.54579153234209
 11
532.70508652135732
 21
247.54579153234209
  0
LINE
  8
_0-b_細線3
  6
CONTINUOUS
 62
    7
 10
453.37175318681784
 20
247.54579153234209
 11
476.03841985348436
 21
247.54579153234209
  0
LINE
  8
_0-b_細線3
  6
CONTINUOUS
 62
    7
 10
425.03841985288182
 20
247.54579153234209
 11
447.70508651954833
 21
247.54579153234209
  0
LINE
  8
_0-b_細線3
  6
CONTINUOUS
 62
    7
 10
396.70508651894494
 20
247.54579153234209
 11
419.37175318561185
 21
247.54579153234209
  0
LINE
  8
_0-b_細線3
  6
CONTINUOUS
 62
    7
 10
566.70508652224589
 20
247.54579153234209
 11
589.37175318891286
 21
247.54579153234209
  0
LINE
  8
_0-b_細線3
  6
CONTINUOUS
 62
    7
 10
595.03841985618283
 20
247.54579153234209
 11
617.7050865228498
 21
247.54579153234209
  0
LINE
  8
_0-b_細線3
  6
CONTINUOUS
 62
    7
 10
368.37175318561145
 20
247.54579153234209
 11
391.03841985227837
 21
247.54579153234209
  0
LINE
  8
_0-b_細線3
  6
CONTINUOUS
 62
    7
 10
623.37175318980235
 20
247.54579153234209
 11
646.03841985646932
 21
247.54579153234209
  0
LINE
  8
_0-b_細線3
  6
CONTINUOUS
 62
    7
 10
651.70508652342187
 20
247.54579153234209
 11
674.37175319008884
 21
247.54579153234209
  0
LINE
  8
_0-b_細線3
  6
CONTINUOUS
 62
    7
 10
680.03841985704139
 20
247.54579153234209
 11
702.70508652370836
 21
247.54579153234209
  0
LINE
  8
_0-b_細線3
  6
CONTINUOUS
 62
    7
 10
362.70508651653336
 20
247.54579153234209
 11
340.03841984986684
 21
247.54579153234209
  0
LINE
  8
_0-b_細線3
  6
CONTINUOUS
 62
    7
 10
334.37175318291389
 20
247.54579153234209
 11
311.70508651624687
 21
247.54579153234209
  0
LINE
  8
_0-b_細線3
  6
CONTINUOUS
 62
    7
 10
306.03841984929431
 20
247.54579153234209
 11
283.37175318262734
 21
247.54579153234209
  0
LINE
  8
_0-b_細線3
  6
CONTINUOUS
 62
    7
 10
708.37175319066091
 20
247.54579153234209
 11
730.70508652399485
 21
247.54579153234209
  0
LINE
  8
_0-b_細線3
  6
CONTINUOUS
 62
    7
 10
277.70508651567479
 20
247.54579153234209
 11
255.37175318234176
 21
247.54579153234209
  0
LINE
  8
_0-b_細線3
  6
CONTINUOUS
 62
    7
 10
538.37175318862705
 20
269.21245819900861
 11
561.03841985529357
 21
269.21245819900861
  0
LINE
  8
_0-b_細線3
  6
CONTINUOUS
 62
    7
 10
510.03841985469052
 20
269.21245819900861
 11
532.70508652135709
 21
269.21245819900861
  0
LINE
  8
_0-b_細線3
  6
CONTINUOUS
 62
    7
 10
453.37175318681801
 20
269.21245819900861
 11
476.03841985348453
 21
269.21245819900861
  0
LINE
  8
_0-b_細線3
  6
CONTINUOUS
 62
    7
 10
425.03841985288204
 20
269.21245819900861
 11
447.70508651954856
 21
269.21245819900861
  0
LINE
  8
_0-b_細線3
  6
CONTINUOUS
 62
    7
 10
396.70508651894511
 20
269.21245819900861
 11
419.37175318561202
 21
269.21245819900861
  0
LINE
  8
_0-b_細線3
  6
CONTINUOUS
 62
    7
 10
566.70508652224612
 20
269.21245819900861
 11
589.37175318891309
 21
269.21245819900861
  0
LINE
  8
_0-b_細線3
  6
CONTINUOUS
 62
    7
 10
595.0384198561826
 20
269.21245819900861
 11
617.70508652284957
 21
269.21245819900861
  0
LINE
  8
_0-b_細線3
  6
CONTINUOUS
 62
    7
 10
368.37175318561157
 20
269.21245819900861
 11
391.03841985227859
 21
269.21245819900861
  0
LINE
  8
_0-b_細線3
  6
CONTINUOUS
 62
    7
 10
623.37175318980235
 20
269.21245819900861
 11
646.03841985646909
 21
269.21245819900861
  0
LINE
  8
_0-b_細線3
  6
CONTINUOUS
 62
    7
 10
651.7050865234221
 20
269.21245819900861
 11
674.37175319008884
 21
269.21245819900861
  0
LINE
  8
_0-b_細線3
  6
CONTINUOUS
 62
    7
 10
680.03841985704173
 20
269.21245819900861
 11
702.70508652370859
 21
269.21245819900861
  0
LINE
  8
_0-b_細線3
  6
CONTINUOUS
 62
    7
 10
362.70508651653353
 20
269.21245819900861
 11
340.03841984986707
 21
269.21245819900861
  0
LINE
  8
_0-b_細線3
  6
CONTINUOUS
 62
    7
 10
334.37175318291406
 20
269.21245819900861
 11
311.70508651624715
 21
269.21245819900861
  0
LINE
  8
_0-b_細線3
  6
CONTINUOUS
 62
    7
 10
306.0384198492946
 20
269.21245819900861
 11
283.37175318262757
 21
269.21245819900861
  0
LINE
  8
_0-b_細線3
  6
CONTINUOUS
 62
    7
 10
708.37175319066114
 20
269.21245819900861
 11
730.70508652399462
 21
269.21245819900861
  0
LINE
  8
_0-b_細線3
  6
CONTINUOUS
 62
    7
 10
277.70508651567502
 20
269.21245819900861
 11
255.37175318234154
 21
269.21245819900861
  0
ARC
  8
_0-b_細線3
  6
CONTINUOUS
 62
    7
 10
247.54383984983619
 20
247.87912486567603
 40
0.3333333333333334
 50
179.99999999999983
 51
269.99999999999977
  0
LINE
  8
_0-b_細線3
  6
CONTINUOUS
 62
    7
 10
249.7050865165032
 20
247.54579153234255
 11
247.54383984983619
 21
247.54579153234255
  0
ARC
  8
_0-b_細線3
  6
CONTINUOUS
 62
    7
 10
247.54383984983619
 20
268.87912486567558
 40
0.3333333333333334
 50
89.999999999999915
 51
179.99999999999983
  0
LINE
  8
_0-b_細線3
  6
CONTINUOUS
 62
    7
 10
249.7050865165032
 20
269.21245819900952
 11
247.54383984983619
 21
269.21245819900952
  0
LINE
  8
_0-b_細線3
  6
CONTINUOUS
 62
    7
 10
247.21050651650251
 20
257.54579153234255
 11
247.21050651650251
 21
247.87912486567603
  0
LINE
  8
_0-b_細線3
  6
CONTINUOUS
 62
    7
 10
247.21050651650251
 20
268.87912486567558
 11
247.21050651650251
 21
257.54579153234255
  0
LINE
  8
_0-b_細線3
  6
CONTINUOUS
 62
    7
 10
247.21050651650251
 20
258.37912486567564
 11
242.20297984983574
 21
258.37912486567564
  0
LINE
  8
_0-b_細線3
  6
CONTINUOUS
 62
    7
 10
247.21050651650251
 20
252.54579153234303
 11
242.2029598498367
 21
252.54579153234303
  0
ARC
  8
_0-b_細線3
  6
CONTINUOUS
 62
    7
 10
242.2029598498367
 20
252.87912486567606
 40
0.3333333333333334
 50
179.99999999999983
 51
269.99999999999977
  0
ARC
  8
_0-b_細線3
  6
CONTINUOUS
 62
    7
 10
254.79959318316935
 20
255.4622148656766
 40
12.929926666666667
 50
166.96197800000505
 51
193.03566999999961
  0
ARC
  8
_0-b_細線3
  6
CONTINUOUS
 62
    7
 10
242.2029598498367
 20
263.87912486567649
 40
0.3333333333333334
 50
89.999999999999915
 51
179.99999999999983
  0
ARC
  8
_0-b_細線3
  6
CONTINUOUS
 62
    7
 10
254.79959318316935
 20
261.29603153234245
 40
12.929926666666667
 50
166.96433000000002
 51
193.03802199999851
  0
LINE
  8
_0-b_細線3
  6
CONTINUOUS
 62
    7
 10
247.21050651650251
 20
264.21245819900952
 11
242.2029598498367
 21
264.21245819900952
  0
LINE
  8
_0-b_細線3
  6
CONTINUOUS
 62
    7
 10
241.86962651650276
 20
252.87912486567606
 11
241.86962651650276
 21
263.87912486567649
  0
ARC
  8
_0-b_細線3
  6
CONTINUOUS
 62
    7
 10
738.53299985649983
 20
247.87912486567603
 40
0.3333333333333334
 50
269.99999999999977
 51
359.99999999999966
  0
LINE
  8
_0-b_細線3
  6
CONTINUOUS
 62
    7
 10
736.37175318983282
 20
247.54579153234255
 11
738.53299985649983
 21
247.54579153234255
  0
ARC
  8
_0-b_細線3
  6
CONTINUOUS
 62
    7
 10
738.53299985649983
 20
268.87912486567558
 40
0.3333333333333334
 50
0
 51
89.999999999999915
  0
LINE
  8
_0-b_細線3
  6
CONTINUOUS
 62
    7
 10
736.37175318983282
 20
269.21245819900952
 11
738.53299985649983
 21
269.21245819900952
  0
LINE
  8
_0-b_細線3
  6
CONTINUOUS
 62
    7
 10
738.86633318983354
 20
257.54579153234255
 11
738.86633318983354
 21
247.87912486567603
  0
LINE
  8
_0-b_細線3
  6
CONTINUOUS
 62
    7
 10
738.86633318983354
 20
268.87912486567558
 11
738.86633318983354
 21
257.54579153234255
  0
LINE
  8
_0-b_細線3
  6
CONTINUOUS
 62
    7
 10
738.86633318983354
 20
258.37912486567564
 11
743.8738598565003
 21
258.37912486567564
  0
LINE
  8
_0-b_細線3
  6
CONTINUOUS
 62
    7
 10
738.86633318983354
 20
252.54579153234303
 11
743.87387985649934
 21
252.54579153234303
  0
ARC
  8
_0-b_細線3
  6
CONTINUOUS
 62
    7
 10
743.87387985649934
 20
252.87912486567606
 40
0.3333333333333334
 50
269.99999999999977
 51
359.99999999999966
  0
ARC
  8
_0-b_細線3
  6
CONTINUOUS
 62
    7
 10
731.2772465231667
 20
255.4622148656766
 40
12.929926666666667
 50
346.96432999999968
 51
13.038021999994573
  0
ARC
  8
_0-b_細線3
  6
CONTINUOUS
 62
    7
 10
743.87387985649934
 20
263.87912486567649
 40
0.3333333333333334
 50
0
 51
89.999999999999915
  0
ARC
  8
_0-b_細線3
  6
CONTINUOUS
 62
    7
 10
731.2772465231667
 20
261.29603153234245
 40
12.929926666666667
 50
346.96197800000073
 51
13.035669999999625
  0
LINE
  8
_0-b_細線3
  6
CONTINUOUS
 62
    7
 10
738.86633318983354
 20
264.21245819900952
 11
743.87387985649934
 21
264.21245819900952
  0
LINE
  8
_0-b_細線3
  6
CONTINUOUS
 62
    7
 10
744.20721318983328
 20
252.87912486567606
 11
744.20721318983328
 21
263.87912486567649
  0
LINE
  8
_0-7_枠細線
  6
CONTINUOUS
 62
    5
 10
1074.9999999999998
 20
480.00000000000028
 11
1074.9999999999998
 21
560.00000000000023
  0
TEXT
  8
_0-7_枠細線
 62
    5
 10
1097.4999999999998
 20
537.50000000000023
 40
15
 41
1
 50
0
  1
耐荷重
  0
TEXT
  8
_0-7_枠細線
 62
    5
 10
1089.9999999999998
 20
507.50000000000028
 40
15
 41
1
 50
0
  1
3.5kN/㎡
  0
TEXT
  8
_0-7_枠細線
 62
    5
 10
1082.4999999999998
 20
487.50000000000028
 40
15
 41
1
 50
0
  1
（歩道用）
  0
LINE
  8
_0-7_枠細線
  6
CONTINUOUS
 62
    5
 10
1164.9999999999998
 20
480.00000000000028
 11
1164.9999999999998
 21
560.00000000000023
  0
TEXT
  8
_0-7_枠細線
 62
    5
 10
1187.4999999999998
 20
537.50000000000023
 40
15
 41
1
 50
0
  1
蓋重量
  0
LINE
  8
_0-7_枠細線
  6
CONTINUOUS
 62
    5
 10
1254.9999999999998
 20
480.00000000000028
 11
1254.9999999999998
 21
560.00000000000023
  0
TEXT
  8
_0-7_枠細線
 62
    5
 10
1277.4999999999998
 20
537.50000000000023
 40
15
 41
1
 50
0
  1
枠重量
  0
LINE
  8
_0-7_枠細線
  6
CONTINUOUS
 62
    5
 10
1074.9999999999998
 20
530.00000000000023
 11
1344.9999999999998
 21
530.00000000000023
  0
LINE
  8
_0-7_枠細線
  6
CONTINUOUS
 62
    5
 10
1074.9999999999998
 20
560.00000000000023
 11
1344.9999999999998
 21
560.00000000000023
  0
LINE
  8
_0-7_枠細線
  6
CONTINUOUS
 62
    5
 10
1074.9999999999998
 20
480.00000000000028
 11
1344.9999999999998
 21
480.00000000000028
  0
LINE
  8
_0-7_枠細線
  6
CONTINUOUS
 62
    5
 10
1344.9999999999998
 20
480.00000000000028
 11
1344.9999999999998
 21
560.00000000000023
  0
TEXT
  8
_0-7_枠細線
 62
    5
 10
1269.9999999999998
 20
498.75000000000028
 40
15
 41
0.8000000000000001
 50
0
  1
2.4kg/ｍ組
  0
LINE
  8
_0-7_枠細線
  6
CONTINUOUS
 62
    5
 10
1074.9999999999995
 20
300.00000000000034
 11
1374.9999999999998
 21
300.00000000000034
  0
LINE
  8
_0-7_枠細線
  6
CONTINUOUS
 62
    5
 10
1074.9999999999995
 20
325.00000000000034
 11
1374.9999999999998
 21
325.00000000000034
  0
LINE
  8
_0-7_枠細線
  6
CONTINUOUS
 62
    5
 10
1074.9999999999995
 20
350.00000000000034
 11
1374.9999999999998
 21
350.00000000000034
  0
LINE
  8
_0-7_枠細線
  6
CONTINUOUS
 62
    5
 10
1074.9999999999995
 20
375.00000000000051
 11
1374.9999999999998
 21
375.00000000000051
  0
TEXT
  8
_0-7_枠細線
 62
    5
 10
1198
 20
380.00000000000051
 40
15
 41
0.5999999999999999
 50
0
  1
ライトグレー
  0
LINE
  8
_0-7_枠細線
  6
CONTINUOUS
 62
    5
 10
1074.9999999999995
 20
400.00000000000034
 11
1374.9999999999998
 21
400.00000000000034
  0
TEXT
  8
_0-7_枠細線
 62
    5
 10
1207
 20
405.00000000000028
 40
15
 41
0.5999999999999999
 50
0
  1
ベージュ
  0
LINE
  8
_0-7_枠細線
  6
CONTINUOUS
 62
    5
 10
1074.9999999999995
 20
425.00000000000028
 11
1374.9999999999998
 21
425.00000000000028
  0
TEXT
  8
_0-7_枠細線
 62
    5
 10
1219
 20
430.00000000000028
 40
15
 41
0.8000000000000001
 50
0
  1
色
  0
TEXT
  8
_0-7_枠細線
 62
    5
 10
1100.9999999999998
 20
430.00000000000028
 40
15
 41
0.8000000000000001
 50
0
  1
品　　番
  0
TEXT
  8
_0-7_枠細線
 62
    5
 10
1301
 20
430.00000000000028
 40
15
 41
0.8000000000000001
 50
0
  1
備　　考
  0
LINE
  8
_0-7_枠細線
  6
CONTINUOUS
 62
    5
 10
1074.9999999999995
 20
450.00000000000028
 11
1374.9999999999998
 21
450.00000000000028
  0
TEXT
  8
_0-7_枠細線
 62
    5
 10
1163.7499999999995
 20
455.00000000000028
 40
17.5
 41
1
 50
0
  1
品番表
  0
LINE
  8
_0-7_枠細線
  6
CONTINUOUS
 62
    5
 10
1074.9999999999995
 20
225.00000000000014
 11
1374.9999999999998
 21
225.00000000000014
  0
LINE
  8
_0-7_枠細線
  6
CONTINUOUS
 62
    5
 10
1074.9999999999995
 20
250.0000000000004
 11
1374.9999999999998
 21
250.0000000000004
  0
LINE
  8
_0-7_枠細線
  6
CONTINUOUS
 62
    5
 10
1074.9999999999995
 20
275.00000000000045
 11
1374.9999999999998
 21
275.00000000000045
  0
TEXT
  8
_0-7_枠細線
 62
    5
 10
1207.0000000000005
 20
355.00000000000051
 40
15
 41
0.5999999999999999
 50
0
  1
ホワイト
  0
TEXT
  8
_0-7_枠細線
 62
    5
 10
1211.4999999999998
 20
330.00000000000034
 40
15
 41
0.5999999999999999
 50
0
  1
ピンク
  0
TEXT
  8
_0-7_枠細線
 62
    5
 10
1211.4999999999998
 20
305.00000000000034
 40
15
 41
0.5999999999999999
 50
0
  1
ブルー
  0
TEXT
  8
_0-7_枠細線
 62
    5
 10
1197.9999999999995
 20
280.00000000000034
 40
15
 41
0.5999999999999999
 50
0
  1
ダークグレー
  0
TEXT
  8
_0-7_枠細線
 62
    5
 10
1079.9999999999998
 20
405.00000000000028
 40
15
 41
0.5
 50
0
  1
ＧＲＳ－２０Ｗ３００－Ｂ
  0
TEXT
  8
_0-7_枠細線
 62
    5
 10
1079.9999999999998
 20
380.00000000000034
 40
15
 41
0.5
 50
0
  1
ＧＲＳ－２０Ｗ３００－Ｇ
  0
TEXT
  8
_0-7_枠細線
 62
    5
 10
1079.9999999999998
 20
355.00000000000051
 40
15
 41
0.5
 50
0
  1
ＧＲＳ－２０Ｗ３００－Ｓ
  0
TEXT
  8
_0-7_枠細線
 62
    5
 10
1079.9999999999998
 20
330.00000000000034
 40
15
 41
0.5
 50
0
  1
ＧＲＳ－２０Ｗ３００－Ｐ
  0
TEXT
  8
_0-7_枠細線
 62
    5
 10
1079.9999999999998
 20
305.00000000000034
 40
15
 41
0.5
 50
0
  1
ＧＲＳ－２０Ｗ３００－Ａ
  0
TEXT
  8
_0-7_枠細線
 62
    5
 10
1079.9999999999998
 20
280.00000000000034
 40
15
 41
0.5
 50
0
  1
ＧＲＳ－２０Ｗ３００－Ｄ
  0
TEXT
  8
_0-7_枠細線
 62
    5
 10
1079.9999999999998
 20
255.00000000000043
 40
15
 41
0.5
 50
0
  1
ＧＲＳ－２０Ｗ３００－Ｍ
  0
TEXT
  8
_0-7_枠細線
 62
    5
 10
1211.4999999999998
 20
255.00000000000043
 40
15
 41
0.5999999999999999
 50
0
  1
ウッド
  0
TEXT
  8
_0-7_枠細線
 62
    5
 10
1185.9999999999998
 20
498.75000000000028
 40
15
 41
0.8000000000000001
 50
0
  1
3.6kg/ｍ
  0
LINE
  8
_0-7_枠細線
  6
CONTINUOUS
 62
    5
 10
1074.9999999999995
 20
199.99999999999986
 11
1374.9999999999998
 21
199.99999999999986
  0
TEXT
  8
_0-7_枠細線
 62
    5
 10
1207.0000000000005
 20
204.99999999999994
 40
15
 41
0.5999999999999999
 50
0
  1
ブラック
  0
TEXT
  8
_0-7_枠細線
 62
    5
 10
1079.9999999999998
 20
204.99999999999994
 40
15
 41
0.5
 50
0
  1
ＧＲＳ－２０Ｗ３００－Ｋ
  0
LINE
  8
_0-7_枠細線
  6
CONTINUOUS
 62
    5
 10
1374.9999999999998
 20
450.00000000000028
 11
1374.9999999999998
 21
199.99999999999986
  0
LINE
  8
_0-7_枠細線
  6
CONTINUOUS
 62
    5
 10
1274.9999999999995
 20
450.00000000000028
 11
1274.9999999999995
 21
199.99999999999986
  0
LINE
  8
_0-7_枠細線
  6
CONTINUOUS
 62
    5
 10
1175
 20
450.00000000000028
 11
1175
 21
199.99999999999986
  0
LINE
  8
_0-7_枠細線
  6
CONTINUOUS
 62
    5
 10
1074.9999999999995
 20
450.00000000000028
 11
1074.9999999999995
 21
199.99999999999986
  0
TEXT
  8
_0-7_枠細線
 62
    5
 10
1207
 20
230.00000000000017
 40
15
 41
0.5999999999999999
 50
0
  1
ブラウン
  0
TEXT
  8
_0-7_枠細線
 62
    5
 10
1079.9999999999998
 20
230.00000000000017
 40
15
 41
0.5
 50
0
  1
ＧＲＳ－２０Ｗ３００－Ｃ
  0
ARC
  8
_0-b_細線3
  6
CONTINUOUS
 62
    7
 10
471.03841985500708
 20
273.71245819900923
 40
1.666666666666667
 50
89.999999999999915
 51
179.99999999999983
  0
ARC
  8
_0-b_細線3
  6
CONTINUOUS
 62
    7
 10
471.8183351738864
 20
277.04579153234226
 40
1.666666666666667
 50
269.99999999999977
 51
330.00000000000881
  0
ARC
  8
_0-b_細線3
  6
CONTINUOUS
 62
    7
 10
474.70508651983459
 20
275.3791248656762
 40
1.666666666666667
 50
89.999999999999915
 51
150.00000000000915
  0
LINE
  8
_0-b_細線3
  6
CONTINUOUS
 62
    7
 10
471.03841985500708
 20
275.3791248656762
 11
471.8183351738864
 21
275.3791248656762
  0
ARC
  8
_0-b_細線3
  6
CONTINUOUS
 62
    7
 10
486.7050865179956
 20
273.71245819900923
 40
1.666666666666667
 50
0
 51
89.999999999999915
  0
ARC
  8
_0-b_細線3
  6
CONTINUOUS
 62
    7
 10
485.92517119911622
 20
277.04579153234226
 40
1.666666666666667
 50
209.99999999999051
 51
269.99999999999977
  0
ARC
  8
_0-b_細線3
  6
CONTINUOUS
 62
    7
 10
483.03841985316808
 20
275.3791248656762
 40
1.666666666666667
 50
29.999999999990862
 51
89.999999999999901
  0
LINE
  8
_0-b_細線3
  6
CONTINUOUS
 62
    7
 10
486.7050865179956
 20
275.3791248656762
 11
485.92517119911622
 21
275.3791248656762
  0
ARC
  8
_0-b_細線3
  6
CONTINUOUS
 62
    7
 10
470.20508652167399
 20
271.3791248656762
 40
0.8333333333333334
 50
179.99999999999983
 51
269.99999999999977
  0
LINE
  8
_0-b_細線3
  6
CONTINUOUS
 62
    7
 10
469.37175318834051
 20
273.71245819900923
 11
469.37175318834051
 21
271.3791248656762
  0
ARC
  8
_0-b_細線3
  6
CONTINUOUS
 62
    7
 10
487.53841985132908
 20
271.3791248656762
 40
0.8333333333333334
 50
269.99999999999977
 51
359.99999999999966
  0
LINE
  8
_0-b_細線3
  6
CONTINUOUS
 62
    7
 10
488.37175318466211
 20
273.71245819900923
 11
488.37175318466211
 21
271.3791248656762
  0
ARC
  8
_0-b_細線3
  6
CONTINUOUS
 62
    7
 10
474.37175318834051
 20
268.8791248656762
 40
1.666666666666667
 50
0
 51
89.999999999999915
  0
LINE
  8
_0-b_細線3
  6
CONTINUOUS
 62
    7
 10
474.37175318834051
 20
270.54579153234226
 11
470.20508652167399
 21
270.54579153234226
  0
ARC
  8
_0-b_細線3
  6
CONTINUOUS
 62
    7
 10
483.37175318834056
 20
268.8791248656762
 40
1.666666666666667
 50
89.999999999999915
 51
179.99999999999983
  0
LINE
  8
_0-b_細線3
  6
CONTINUOUS
 62
    7
 10
483.37175318466166
 20
270.54579153234226
 11
487.53841985132908
 21
270.54579153234226
  0
LINE
  8
_0-b_細線3
  6
CONTINUOUS
 62
    7
 10
483.03841985316808
 20
277.04579153234226
 11
474.70508651983459
 21
277.04579153234226
  0
LINE
  8
_0-b_細線3
  6
CONTINUOUS
 62
    7
 10
476.03841985316808
 20
243.71245819900923
 11
476.03841985500708
 21
268.8791248656762
  0
LINE
  8
_0-b_細線3
  6
CONTINUOUS
 62
    7
 10
481.70508651983454
 20
243.71245819900923
 11
481.70508652167399
 21
268.8791248656762
  0
LINE
  8
_0-b_細線3
  6
CONTINUOUS
 62
    7
 10
481.70508651983454
 20
243.71245819900923
 11
476.03841985316808
 21
243.71245819900923
  0
LINE
  8
_0-b_細線3
  6
CONTINUOUS
 62
    7
 10
496.95508651983505
 20
277.37952696535478
 11
496.95508651983505
 21
244.04619363202085
  0
LINE
  8
_0-b_細線3
  6
CONTINUOUS
 62
    7
 10
489.12175318650105
 20
244.04619363202085
 11
489.12175318650105
 21
277.37952696535478
  0
LINE
  8
_0-b_細線3
  6
CONTINUOUS
 62
    7
 10
496.95508651983505
 20
244.04619363202085
 11
489.12175318650105
 21
244.04619363202085
  0
LINE
  8
_0-b_細線3
  6
CONTINUOUS
 62
    7
 10
489.12175318650105
 20
277.37952696535478
 11
496.95508651983505
 21
277.37952696535478
  0
LINE
  8
_0-b_細線3
  6
DASHED2
 62
    7
 10
489.12175318650105
 20
249.04619363202085
 11
496.95508651983505
 21
249.04619363202085
  0
LINE
  8
_0-b_細線3
  6
DASHED2
 62
    7
 10
489.12175318650105
 20
272.37952696535478
 11
496.95508651983505
 21
272.37952696535478
  0
LINE
  8
_0-b_細線3
  6
CONTINUOUS
 62
    7
 10
481.70508652169838
 20
269.21245819900861
 11
489.12175318650105
 21
269.21245819900861
  0
LINE
  8
_0-b_細線3
  6
CONTINUOUS
 62
    7
 10
496.95508651983505
 20
269.21245819900861
 11
504.37175318742106
 21
269.21245819900861
  0
LINE
  8
_0-b_細線3
  6
CONTINUOUS
 62
    7
 10
481.70508652075432
 20
247.54579153234209
 11
489.12175318650105
 21
247.54579153234209
  0
LINE
  8
_0-b_細線3
  6
CONTINUOUS
 62
    7
 10
496.95508651983505
 20
247.54579153234209
 11
504.37175318735996
 21
247.54579153234209
  0
LINE
  8
_0-7_枠細線
  6
CONTINUOUS
 62
    5
 10
1425
 20
942.50000000000068
 11
890
 21
942.50000000000068
  0
TEXT
  8
_0-7_枠細線
 62
    5
 10
895
 20
945.00000000000068
 40
12.5
 41
1
 50
0
  1
記号
  0
TEXT
  8
_0-7_枠細線
 62
    5
 10
996.875
 20
945.00000000000068
 40
12.5
 41
1
 50
0
  1
訂　 正　 記　 事
  0
TEXT
  8
_0-7_枠細線
 62
    5
 10
1181.25
 20
945.00000000000068
 40
12.5
 41
1
 50
0
  1
訂 正 年 月 日
  0
TEXT
  8
_0-7_枠細線
 62
    5
 10
1306.25
 20
945.00000000000068
 40
12.5
 41
1
 50
0
  1
備　　　　　考
  0
LINE
  8
_0-7_枠細線
  6
CONTINUOUS
 62
    5
 10
1425
 20
925.00000000000068
 11
890
 21
925.00000000000068
  0
TEXT
  8
_0-7_枠細線
 62
    5
 10
938.85037037037023
 20
927.50000000000068
 40
12.5
 41
1
 50
0
  1
品番・色記号変更
  0
TEXT
  8
_0-7_枠細線
 62
    5
 10
1180
 20
927.50000000000068
 40
12.5
 41
0.7199999999999999
 50
0
  1
２０１３．０３．１３
  0
LINE
  8
_0-7_枠細線
  6
CONTINUOUS
 62
    5
 10
1425
 20
907.50000000000068
 11
890
 21
907.50000000000068
  0
LINE
  8
_0-7_枠細線
  6
CONTINUOUS
 62
    5
 10
1425
 20
890.00000000000068
 11
890
 21
890.00000000000068
  0
TEXT
  8
_0-7_枠細線
 62
    5
 10
938.85037037037023
 20
910.00000000000068
 40
12.5
 41
1
 50
0
  1
クロスバーピッチ変更
  0
TEXT
  8
_0-7_枠細線
 62
    5
 10
938.85037037037023
 20
892.50000000000068
 40
12.5
 41
1
 50
0
  1
取外具形状変更
  0
TEXT
  8
_0-7_枠細線
 62
    5
 10
1180
 20
910.00000000000068
 40
12.5
 41
0.7199999999999999
 50
0
  1
２０１５．１１．２０
  0
LINE
  8
_0-7_枠細線
  6
CONTINUOUS
 62
    5
 10
915
 20
908.94233397174753
 11
907.5
 21
923.94233397174753
  0
LINE
  8
_0-7_枠細線
  6
CONTINUOUS
 62
    5
 10
900
 20
908.94233397174753
 11
915
 21
908.94233397174753
  0
LINE
  8
_0-7_枠細線
  6
CONTINUOUS
 62
    5
 10
907.5
 20
923.94233397174753
 11
900
 21
908.94233397174753
  0
TEXT
  8
_0-7_枠細線
 62
    5
 10
902.36515126814822
 20
908.63533172636721
 40
12.5
 41
0.8
 50
0
  1
１
  0
TEXT
  8
_0-7_枠細線
 62
    5
 10
902.36515126814822
 20
891.13533172636721
 40
12.5
 41
0.8
 50
0
  1
２
  0
LINE
  8
_0-7_枠細線
  6
CONTINUOUS
 62
    5
 10
1425
 20
872.50000000000068
 11
890
 21
872.50000000000068
  0
LINE
  8
_0-7_枠細線
  6
CONTINUOUS
 62
    5
 10
907.5
 20
906.44233397174753
 11
900
 21
891.44233397174753
  0
LINE
  8
_0-7_枠細線
  6
CONTINUOUS
 62
    5
 10
900
 20
891.44233397174753
 11
915
 21
891.44233397174753
  0
LINE
  8
_0-7_枠細線
  6
CONTINUOUS
 62
    5
 10
915
 20
891.44233397174753
 11
907.5
 21
906.44233397174753
  0
TEXT
  8
_0-7_枠細線
 62
    5
 10
902.36515126814822
 20
873.39465008156617
 40
12.5
 41
0.8
 50
0
  1
３
  0
TEXT
  8
_0-7_枠細線
 62
    5
 10
1180
 20
875.00000000000068
 40
12.5
 41
0.7199999999999999
 50
0
  1
２０１７．０４．０１
  0
LINE
  8
_0-7_枠細線
  6
CONTINUOUS
 62
    5
 10
915
 20
856.44233397174753
 11
907.5
 21
871.44233397174753
  0
LINE
  8
_0-7_枠細線
  6
CONTINUOUS
 62
    5
 10
900
 20
856.44233397174753
 11
915
 21
856.44233397174753
  0
LINE
  8
_0-7_枠細線
  6
CONTINUOUS
 62
    5
 10
907.5
 20
871.44233397174753
 11
900
 21
856.44233397174753
  0
TEXT
  8
_0-7_枠細線
 62
    5
 10
1180
 20
857.50000000000068
 40
12.5
 41
0.7199999999999999
 50
0
  1
２０１７．０４．０１
  0
TEXT
  8
_0-7_枠細線
 62
    5
 10
938.85037037037023
 20
857.50000000000068
 40
12.5
 41
1
 50
0
  1
ブラウン色（Ｃ）追加
  0
LINE
  8
_0-7_枠細線
  6
CONTINUOUS
 62
    5
 10
1425
 20
855.00000000000068
 11
890
 21
855.00000000000068
  0
LINE
  8
_0-7_枠細線
  6
CONTINUOUS
 62
    5
 10
907.5
 20
888.94233397174753
 11
900
 21
873.94233397174753
  0
LINE
  8
_0-7_枠細線
  6
CONTINUOUS
 62
    5
 10
900
 20
873.94233397174753
 11
915
 21
873.94233397174753
  0
LINE
  8
_0-7_枠細線
  6
CONTINUOUS
 62
    5
 10
915
 20
873.94233397174753
 11
907.5
 21
888.94233397174753
  0
TEXT
  8
_0-7_枠細線
 62
    5
 10
902.36515126814822
 20
855.49351400689773
 40
12.5
 41
0.8
 50
0
  1
４
  0
TEXT
  8
_0-7_枠細線
 62
    5
 10
938.85037037037023
 20
875.00000000000068
 40
12.5
 41
1
 50
0
  1
取外具形状変更
  0
TEXT
  8
_0-7_枠細線
 62
    5
 10
1180
 20
892.50000000000068
 40
12.5
 41
0.7199999999999999
 50
0
  1
２０１５．１１．２０
  0
LINE
  8
_0-7_枠細線
  6
CONTINUOUS
 62
    5
 10
1068.5276246655549
 20
230.5760412212731
 11
1061.0276246655549
 21
245.5760412212731
  0
LINE
  8
_0-7_枠細線
  6
CONTINUOUS
 62
    5
 10
1053.5276246655549
 20
230.5760412212731
 11
1068.5276246655549
 21
230.5760412212731
  0
LINE
  8
_0-7_枠細線
  6
CONTINUOUS
 62
    5
 10
1061.0276246655549
 20
245.5760412212731
 11
1053.5276246655549
 21
230.5760412212731
  0
TEXT
  8
_0-7_枠細線
 62
    5
 10
1055.8927759337028
 20
229.62722125642316
 40
12.5
 41
0.8
 50
0
  1
４
  0
LINE
  8
_0-b_細線3
  6
CONTINUOUS
 62
    7
 10
234.70508651983465
 20
258.71282320068713
 11
234.70508651983465
 21
200.37948986735387
  0
LINE
  8
_0-b_細線3
  6
CONTINUOUS
 62
    7
 10
234.70508651983465
 20
200.37948986735387
 11
230.87175318650125
 21
200.37948986735387
  0
LINE
  8
_0-b_細線3
  6
CONTINUOUS
 62
    7
 10
230.87175318650125
 20
200.37948986735387
 11
230.87175318650125
 21
258.71282320068713
  0
LINE
  8
_0-b_細線3
  6
CONTINUOUS
 62
    7
 10
230.87175318650125
 20
258.71282320068713
 11
234.70508651983465
 21
258.71282320068713
  0
LINE
  8
_0-a_極細3
  6
CONTINUOUS
 62
    7
 10
230.87175318650125
 20
232.0461565340205
 11
234.70508651983465
 21
232.0461565340205
  0
LINE
  8
_0-a_極細3
  6
CONTINUOUS
 62
    7
 10
230.87175318650125
 20
235.37948986735387
 11
234.70508651983465
 21
235.37948986735387
  0
LINE
  8
_0-a_極細3
  6
CONTINUOUS
 62
    7
 10
230.87175318650125
 20
228.71282320068715
 11
234.70508651983465
 21
228.71282320068715
  0
LINE
  8
_0-a_極細3
  6
CONTINUOUS
 62
    7
 10
230.87175318650125
 20
238.71282320068715
 11
234.70508651983465
 21
238.71282320068715
  0
LINE
  8
_0-a_極細3
  6
CONTINUOUS
 62
    7
 10
234.70508651983465
 20
205.37948986735387
 11
230.87175318650125
 21
205.37948986735387
  0
LINE
  8
_0-a_極細3
  6
CONTINUOUS
 62
    7
 10
230.87175318650125
 20
255.37948986735387
 11
234.70508651983465
 21
255.37948986735387
  0
LINE
  8
_0-b_細線3
  6
CONTINUOUS
 62
    7
 10
751.37175318650168
 20
258.71282320068713
 11
751.37175318650168
 21
200.37948986735387
  0
LINE
  8
_0-b_細線3
  6
CONTINUOUS
 62
    7
 10
751.37175318650168
 20
200.37948986735387
 11
755.20508651983494
 21
200.37948986735387
  0
LINE
  8
_0-b_細線3
  6
CONTINUOUS
 62
    7
 10
755.20508651983494
 20
200.37948986735387
 11
755.20508651983494
 21
258.71282320068713
  0
LINE
  8
_0-b_細線3
  6
CONTINUOUS
 62
    7
 10
755.20508651983494
 20
258.71282320068713
 11
751.37175318650168
 21
258.71282320068713
  0
LINE
  8
_0-a_極細3
  6
CONTINUOUS
 62
    7
 10
755.20508651983494
 20
232.0461565340205
 11
751.37175318650168
 21
232.0461565340205
  0
LINE
  8
_0-a_極細3
  6
CONTINUOUS
 62
    7
 10
755.20508651983494
 20
235.37948986735387
 11
751.37175318650168
 21
235.37948986735387
  0
LINE
  8
_0-a_極細3
  6
CONTINUOUS
 62
    7
 10
755.20508651983494
 20
228.71282320068715
 11
751.37175318650168
 21
228.71282320068715
  0
LINE
  8
_0-a_極細3
  6
CONTINUOUS
 62
    7
 10
755.20508651983494
 20
238.71282320068715
 11
751.37175318650168
 21
238.71282320068715
  0
LINE
  8
_0-a_極細3
  6
CONTINUOUS
 62
    7
 10
751.37175318650168
 20
205.37948986735387
 11
755.20508651983494
 21
205.37948986735387
  0
LINE
  8
_0-a_極細3
  6
CONTINUOUS
 62
    7
 10
755.20508651983494
 20
255.37948986735387
 11
751.37175318650168
 21
255.37948986735387
  0
LINE
  8
_0-7_枠細線
  6
CONTINUOUS
 62
    5
 10
773.13580336045732
 20
248.04614500062706
 11
765.6358033604572
 21
263.04614500062701
  0
LINE
  8
_0-7_枠細線
  6
CONTINUOUS
 62
    5
 10
758.1358033604572
 20
248.04614500062706
 11
773.13580336045732
 21
248.04614500062706
  0
LINE
  8
_0-7_枠細線
  6
CONTINUOUS
 62
    5
 10
765.6358033604572
 20
263.04614500062701
 11
758.1358033604572
 21
248.04614500062706
  0
TEXT
  8
_0-7_枠細線
 62
    5
 10
760.50095462860543
 20
247.09732503577712
 40
12.5
 41
0.8
 50
0
  1
５
  0
LINE
  8
_0-7_枠細線
  6
CONTINUOUS
 62
    5
 10
915
 20
838.94233397174753
 11
907.5
 21
853.94233397174753
  0
LINE
  8
_0-7_枠細線
  6
CONTINUOUS
 62
    5
 10
900
 20
838.94233397174753
 11
915
 21
838.94233397174753
  0
LINE
  8
_0-7_枠細線
  6
CONTINUOUS
 62
    5
 10
907.5
 20
853.94233397174753
 11
900
 21
838.94233397174753
  0
LINE
  8
_0-7_枠細線
  6
CONTINUOUS
 62
    5
 10
1425
 20
837.50000000000068
 11
890
 21
837.50000000000068
  0
TEXT
  8
_0-7_枠細線
 62
    5
 10
902.36515126814822
 20
837.99351400689773
 40
12.5
 41
0.8
 50
0
  1
５
  0
TEXT
  8
_0-7_枠細線
 62
    5
 10
1180
 20
840.00000000000068
 40
12.5
 41
0.7199999999999999
 50
0
  1
２０１９．０９．０１
  0
LINE
  8
_0-7_枠細線
  6
CONTINUOUS
 62
    5
 10
1275
 20
837.50000000000102
 11
1275
 21
959.99999999999989
  0
LINE
  8
_0-7_枠細線
  6
CONTINUOUS
 62
    5
 10
1175
 20
837.50000000000068
 11
1175
 21
959.99999999999989
  0
LINE
  8
_0-7_枠細線
  6
CONTINUOUS
 62
    5
 10
925
 20
837.50000000000068
 11
925
 21
959.99999999999989
  0
LINE
  8
_0-7_枠細線
  6
CONTINUOUS
 62
    5
 10
890
 20
837.50000000000068
 11
890
 21
959.99999999999989
  0
ARC
  8
_0-0_計極細
  6
CONTINUOUS
 62
    2
 10
864.90653196550613
 20
787.92637075717653
 40
11.295514677412786
 50
138.39585046827571
 51
221.60414953172395
  0
ARC
  8
_0-0_計極細
  6
CONTINUOUS
 62
    2
 10
848.01408965213568
 20
772.92637075717471
 40
11.295514677412786
 50
318.39585046827381
 51
41.60414953172549
  0
ARC
  8
_0-0_計極細
  6
CONTINUOUS
 62
    2
 10
864.90653196550647
 20
507.92637075717641
 40
11.295514677412786
 50
138.39585046827415
 51
221.60414953172548
  0
ARC
  8
_0-0_計極細
  6
CONTINUOUS
 62
    2
 10
848.01408965213568
 20
492.92637075717465
 40
11.295514677412786
 50
318.39585046827534
 51
41.604149531723962
  0
LINE
  8
_0-5_寸法線
  6
CONTINUOUS
 62
    7
 10
866.4603108088204
 20
795.42637075717653
 11
946.46031080881914
 21
795.42637075717653
  0
LINE
  8
_0-5_寸法線
  6
CONTINUOUS
 62
    7
 10
941.46031080881914
 20
795.42637075717653
 11
944.04850125984422
 21
785.7671124942857
  0
LINE
  8
_0-5_寸法線
  6
CONTINUOUS
 62
    7
 10
941.46031080881914
 20
795.42637075717653
 11
938.87212035779385
 21
785.7671124942857
  0
LINE
  8
_0-5_寸法線
  6
CONTINUOUS
 62
    7
 10
866.46031080881994
 20
485.42637075717278
 11
946.46031080881994
 21
485.42637075717278
  0
LINE
  8
_0-5_寸法線
  6
CONTINUOUS
 62
    7
 10
941.46031080881994
 20
485.42637075717278
 11
938.87212035779487
 21
495.08562902006349
  0
LINE
  8
_0-5_寸法線
  6
CONTINUOUS
 62
    7
 10
941.46031080881994
 20
485.42637075717278
 11
944.04850125984524
 21
495.08562902006349
  0
LINE
  8
_0-5_寸法線
  6
CONTINUOUS
 62
    7
 10
941.46031080881914
 20
795.42637075717653
 11
941.46031080881994
 21
485.42637075717278
  0
TEXT
  8
_0-5_寸法線
 62
    7
 10
941.46031080881994
 20
629.17637075717471
 40
15
 41
1
 50
90
  1
310
  0
LINE
  8
_0-1_計細線
  6
CONTINUOUS
 62
    3
 10
834.96031080882085
 20
765.42637075717653
 11
856.4603108088204
 21
765.42637075717653
  0
LINE
  8
_0-1_計細線
  6
CONTINUOUS
 62
    3
 10
834.96031080882085
 20
515.42637075717732
 11
856.46031080882096
 21
515.42637075717732
  0
ARC
  8
_0-0_計極細
  6
CONTINUOUS
 62
    2
 10
238.90653196550517
 20
787.92637075717653
 40
11.295514677412786
 50
138.39585046827494
 51
221.60414953172469
  0
ARC
  8
_0-0_計極細
  6
CONTINUOUS
 62
    2
 10
222.01408965213474
 20
772.92637075717471
 40
11.295514677412786
 50
318.39585046827381
 51
41.604149531724723
  0
ARC
  8
_0-0_計極細
  6
CONTINUOUS
 62
    2
 10
238.90653196550559
 20
507.92637075717641
 40
11.295514677412786
 50
138.39585046827494
 51
221.60414953172469
  0
ARC
  8
_0-0_計極細
  6
CONTINUOUS
 62
    2
 10
222.01408965213523
 20
492.92637075717465
 40
11.295514677412786
 50
318.39585046827381
 51
41.604149531724723
  0
LINE
  8
_0-5_寸法線
  6
CONTINUOUS
 62
    7
 10
220.46031080881932
 20
795.42637075717653
 11
175.46031080882443
 21
795.42637075717653
  0
LINE
  8
_0-5_寸法線
  6
CONTINUOUS
 62
    7
 10
180.46031080882443
 20
795.42637075717653
 11
183.04850125984956
 21
785.7671124942857
  0
LINE
  8
_0-5_寸法線
  6
CONTINUOUS
 62
    7
 10
180.46031080882443
 20
795.42637075717653
 11
177.87212035779916
 21
785.7671124942857
  0
LINE
  8
_0-5_寸法線
  6
CONTINUOUS
 62
    7
 10
220.46031080882173
 20
765.42637075717653
 11
175.46031080882449
 21
765.42637075717653
  0
LINE
  8
_0-5_寸法線
  6
CONTINUOUS
 62
    7
 10
180.46031080882449
 20
765.42637075717653
 11
177.8721203577993
 21
775.08562902006713
  0
LINE
  8
_0-5_寸法線
  6
CONTINUOUS
 62
    7
 10
180.46031080882449
 20
765.42637075717653
 11
183.0485012598497
 21
775.08562902006713
  0
LINE
  8
_0-5_寸法線
  6
CONTINUOUS
 62
    7
 10
180.46031080882443
 20
795.42637075717653
 11
180.46031080882449
 21
765.42637075717653
  0
TEXT
  8
_0-5_寸法線
 62
    7
 10
180.46031080882429
 20
772.92637075717653
 40
15
 41
1
 50
90
  1
30
  0
LINE
  8
_0-5_寸法線
  6
CONTINUOUS
 62
    7
 10
180.46031080882449
 20
765.42637075717653
 11
183.0485012598497
 21
755.7671124942857
  0
LINE
  8
_0-5_寸法線
  6
CONTINUOUS
 62
    7
 10
180.46031080882449
 20
765.42637075717653
 11
177.8721203577993
 21
755.7671124942857
  0
LINE
  8
_0-5_寸法線
  6
CONTINUOUS
 62
    7
 10
220.46031080881994
 20
515.42637075717641
 11
175.460310808825
 21
515.42637075717641
  0
LINE
  8
_0-5_寸法線
  6
CONTINUOUS
 62
    7
 10
180.460310808825
 20
515.42637075717641
 11
177.87212035779973
 21
525.08562902006713
  0
LINE
  8
_0-5_寸法線
  6
CONTINUOUS
 62
    7
 10
180.460310808825
 20
515.42637075717641
 11
183.04850125985013
 21
525.08562902006713
  0
LINE
  8
_0-5_寸法線
  6
CONTINUOUS
 62
    7
 10
180.46031080882449
 20
765.42637075717653
 11
180.460310808825
 21
515.42637075717641
  0
TEXT
  8
_0-5_寸法線
 62
    7
 10
180.46031080882472
 20
629.17637075717641
 40
15
 41
1
 50
90
  1
250
  0
LINE
  8
_0-5_寸法線
  6
CONTINUOUS
 62
    7
 10
180.460310808825
 20
515.42637075717641
 11
183.04850125985013
 21
505.7671124942857
  0
LINE
  8
_0-5_寸法線
  6
CONTINUOUS
 62
    7
 10
180.460310808825
 20
515.42637075717641
 11
177.87212035779973
 21
505.76711249428575
  0
LINE
  8
_0-5_寸法線
  6
CONTINUOUS
 62
    7
 10
220.460310808825
 20
485.4263707571792
 11
175.460310808825
 21
485.4263707571792
  0
LINE
  8
_0-5_寸法線
  6
CONTINUOUS
 62
    7
 10
180.460310808825
 20
485.4263707571792
 11
177.87212035779973
 21
495.08562902006986
  0
LINE
  8
_0-5_寸法線
  6
CONTINUOUS
 62
    7
 10
180.460310808825
 20
485.4263707571792
 11
183.04850125985013
 21
495.08562902006986
  0
LINE
  8
_0-5_寸法線
  6
CONTINUOUS
 62
    7
 10
180.460310808825
 20
515.42637075717641
 11
180.460310808825
 21
485.4263707571792
  0
TEXT
  8
_0-5_寸法線
 62
    7
 10
180.460310808825
 20
492.92637075717732
 40
15
 41
1
 50
90
  1
30
  0
LINE
  8
_0-1_計細線
  6
CONTINUOUS
 62
    3
 10
230.46031080881994
 20
515.42637075717732
 11
251.96031080882085
 21
515.42637075717732
  0
LINE
  8
_0-1_計細線
  6
CONTINUOUS
 62
    3
 10
230.46031080881946
 20
765.42637075717653
 11
251.96031080882085
 21
765.42637075717653
  0
LINE
  8
_0-1_計細線
  6
CONTINUOUS
 62
    3
 10
251.96031080882085
 20
575.2263707571766
 11
834.96031080882085
 21
575.2263707571766
  0
LINE
  8
_0-1_計細線
  6
CONTINUOUS
 62
    3
 10
251.96031080882085
 20
586.62637075717817
 11
834.96031080882085
 21
586.62637075717817
  0
LINE
  8
_0-1_計細線
  6
CONTINUOUS
 62
    3
 10
251.96031080882085
 20
575.2263707571766
 11
251.96031080882085
 21
586.62637075717817
  0
LINE
  8
_0-1_計細線
  6
CONTINUOUS
 62
    3
 10
834.96031080882085
 20
575.2263707571766
 11
834.96031080882085
 21
586.62637075717817
  0
LINE
  8
_0-0_計極細
  6
CONTINUOUS
 62
    2
 10
251.96031080882085
 20
583.42637075717732
 11
834.96031080882085
 21
583.42637075717732
  0
LINE
  8
_0-0_計極細
  6
CONTINUOUS
 62
    2
 10
251.96031080882085
 20
578.42637075717732
 11
834.96031080882085
 21
578.42637075717732
  0
LINE
  8
_0-1_計細線
  6
CONTINUOUS
 62
    3
 10
251.96031080882085
 20
592.22637075717842
 11
834.96031080882085
 21
592.22637075717842
  0
LINE
  8
_0-1_計細線
  6
CONTINUOUS
 62
    3
 10
251.96031080882085
 20
603.62637075717805
 11
834.96031080882085
 21
603.62637075717805
  0
LINE
  8
_0-1_計細線
  6
CONTINUOUS
 62
    3
 10
251.96031080882085
 20
592.22637075717842
 11
251.96031080882085
 21
603.62637075717805
  0
LINE
  8
_0-1_計細線
  6
CONTINUOUS
 62
    3
 10
834.96031080882085
 20
592.22637075717842
 11
834.96031080882085
 21
603.62637075717805
  0
LINE
  8
_0-0_計極細
  6
CONTINUOUS
 62
    2
 10
251.96031080882085
 20
600.42637075717732
 11
834.96031080882085
 21
600.42637075717732
  0
LINE
  8
_0-0_計極細
  6
CONTINUOUS
 62
    2
 10
251.96031080882085
 20
595.42637075717732
 11
834.96031080882085
 21
595.42637075717732
  0
LINE
  8
_0-1_計細線
  6
CONTINUOUS
 62
    3
 10
251.96031080882085
 20
609.22637075717842
 11
834.96031080882085
 21
609.22637075717842
  0
LINE
  8
_0-1_計細線
  6
CONTINUOUS
 62
    3
 10
251.96031080882085
 20
620.62637075717907
 11
834.96031080882085
 21
620.62637075717907
  0
LINE
  8
_0-1_計細線
  6
CONTINUOUS
 62
    3
 10
251.96031080882085
 20
609.22637075717842
 11
251.96031080882085
 21
620.62637075717907
  0
LINE
  8
_0-1_計細線
  6
CONTINUOUS
 62
    3
 10
834.96031080882085
 20
609.22637075717842
 11
834.96031080882085
 21
620.62637075717907
  0
LINE
  8
_0-0_計極細
  6
CONTINUOUS
 62
    2
 10
251.96031080882085
 20
617.42637075717914
 11
834.96031080882085
 21
617.42637075717914
  0
LINE
  8
_0-0_計極細
  6
CONTINUOUS
 62
    2
 10
251.96031080882085
 20
612.42637075717914
 11
834.96031080882085
 21
612.42637075717914
  0
LINE
  8
_0-0_計極細
  6
CENTER2
 62
    2
 10
236.07171127180209
 20
640.42637075717732
 11
851.00504460517868
 21
640.42637075717732
  0
LINE
  8
_0-1_計細線
  6
CONTINUOUS
 62
    3
 10
251.96031080882085
 20
705.62637075717635
 11
834.96031080882085
 21
705.62637075717635
  0
LINE
  8
_0-1_計細線
  6
CONTINUOUS
 62
    3
 10
251.96031080882085
 20
694.2263707571758
 11
834.96031080882085
 21
694.2263707571758
  0
LINE
  8
_0-1_計細線
  6
CONTINUOUS
 62
    3
 10
251.96031080882085
 20
705.62637075717635
 11
251.96031080882085
 21
694.2263707571758
  0
LINE
  8
_0-1_計細線
  6
CONTINUOUS
 62
    3
 10
834.96031080882085
 20
705.62637075717635
 11
834.96031080882085
 21
694.2263707571758
  0
LINE
  8
_0-0_計極細
  6
CONTINUOUS
 62
    2
 10
251.96031080882085
 20
697.4263707571755
 11
834.96031080882085
 21
697.4263707571755
  0
LINE
  8
_0-0_計極細
  6
CONTINUOUS
 62
    2
 10
251.96031080882085
 20
702.4263707571755
 11
834.96031080882085
 21
702.4263707571755
  0
LINE
  8
_0-1_計細線
  6
CONTINUOUS
 62
    3
 10
251.96031080882085
 20
671.62637075717623
 11
834.96031080882085
 21
671.62637075717623
  0
LINE
  8
_0-1_計細線
  6
CONTINUOUS
 62
    3
 10
251.96031080882085
 20
660.22637075717569
 11
834.96031080882085
 21
660.22637075717569
  0
LINE
  8
_0-1_計細線
  6
CONTINUOUS
 62
    3
 10
251.96031080882085
 20
671.62637075717623
 11
251.96031080882085
 21
660.22637075717569
  0
LINE
  8
_0-1_計細線
  6
CONTINUOUS
 62
    3
 10
834.96031080882085
 20
671.62637075717623
 11
834.96031080882085
 21
660.22637075717569
  0
LINE
  8
_0-0_計極細
  6
CONTINUOUS
 62
    2
 10
251.96031080882085
 20
663.4263707571755
 11
834.96031080882085
 21
663.4263707571755
  0
LINE
  8
_0-0_計極細
  6
CONTINUOUS
 62
    2
 10
251.96031080882085
 20
668.4263707571755
 11
834.96031080882085
 21
668.4263707571755
  0
LINE
  8
_0-1_計細線
  6
CONTINUOUS
 62
    3
 10
251.96031080882085
 20
688.62637075717714
 11
834.96031080882085
 21
688.62637075717714
  0
LINE
  8
_0-1_計細線
  6
CONTINUOUS
 62
    3
 10
251.96031080882085
 20
677.2263707571766
 11
834.96031080882085
 21
677.2263707571766
  0
LINE
  8
_0-1_計細線
  6
CONTINUOUS
 62
    3
 10
251.96031080882085
 20
688.62637075717714
 11
251.96031080882085
 21
677.2263707571766
  0
LINE
  8
_0-1_計細線
  6
CONTINUOUS
 62
    3
 10
834.96031080882085
 20
688.62637075717714
 11
834.96031080882085
 21
677.2263707571766
  0
LINE
  8
_0-0_計極細
  6
CONTINUOUS
 62
    2
 10
251.96031080882085
 20
680.42637075717732
 11
834.96031080882085
 21
680.42637075717732
  0
LINE
  8
_0-0_計極細
  6
CONTINUOUS
 62
    2
 10
251.96031080882085
 20
685.42637075717732
 11
834.96031080882085
 21
685.42637075717732
  0
LINE
  8
_0-1_計細線
  6
CONTINUOUS
 62
    3
 10
251.96031080882085
 20
773.62637075717635
 11
834.96031080882085
 21
773.62637075717635
  0
LINE
  8
_0-1_計細線
  6
CONTINUOUS
 62
    3
 10
251.96031080882085
 20
762.2263707571766
 11
834.96031080882085
 21
762.2263707571766
  0
LINE
  8
_0-1_計細線
  6
CONTINUOUS
 62
    3
 10
251.96031080882085
 20
773.62637075717635
 11
251.96031080882085
 21
762.2263707571766
  0
LINE
  8
_0-1_計細線
  6
CONTINUOUS
 62
    3
 10
834.96031080882085
 20
773.62637075717635
 11
834.96031080882085
 21
762.2263707571766
  0
LINE
  8
_0-0_計極細
  6
CONTINUOUS
 62
    2
 10
251.96031080882085
 20
765.42637075717732
 11
834.96031080882085
 21
765.42637075717732
  0
LINE
  8
_0-0_計極細
  6
CONTINUOUS
 62
    2
 10
251.96031080882085
 20
770.42637075717732
 11
834.96031080882085
 21
770.42637075717732
  0
LINE
  8
_0-1_計細線
  6
CONTINUOUS
 62
    3
 10
251.96031080882085
 20
507.22637075717665
 11
834.96031080882085
 21
507.22637075717665
  0
LINE
  8
_0-1_計細線
  6
CONTINUOUS
 62
    3
 10
251.96031080882085
 20
518.62637075717635
 11
834.96031080882085
 21
518.62637075717635
  0
LINE
  8
_0-1_計細線
  6
CONTINUOUS
 62
    3
 10
251.96031080882085
 20
507.22637075717665
 11
251.96031080882085
 21
518.62637075717635
  0
LINE
  8
_0-1_計細線
  6
CONTINUOUS
 62
    3
 10
834.96031080882085
 20
507.22637075717665
 11
834.96031080882085
 21
518.62637075717635
  0
LINE
  8
_0-0_計極細
  6
CONTINUOUS
 62
    2
 10
251.96031080882085
 20
515.42637075717732
 11
834.96031080882085
 21
515.42637075717732
  0
LINE
  8
_0-0_計極細
  6
CONTINUOUS
 62
    2
 10
251.96031080882085
 20
510.42637075717732
 11
834.96031080882085
 21
510.42637075717732
  0
LINE
  8
_0-1_計細線
  6
CONTINUOUS
 62
    3
 10
251.96031080882085
 20
790.42637075717732
 11
834.96031080882085
 21
790.42637075717732
  0
LINE
  8
_0-1_計細線
  6
CONTINUOUS
 62
    3
 10
251.96031080882085
 20
779.02637075717598
 11
834.96031080882085
 21
779.02637075717598
  0
LINE
  8
_0-1_計細線
  6
CONTINUOUS
 62
    3
 10
251.96031080882085
 20
790.42637075717732
 11
251.96031080882085
 21
779.02637075717598
  0
LINE
  8
_0-1_計細線
  6
CONTINUOUS
 62
    3
 10
834.96031080882085
 20
790.42637075717732
 11
834.96031080882085
 21
779.02637075717598
  0
LINE
  8
_0-0_計極細
  6
CONTINUOUS
 62
    2
 10
251.96031080882085
 20
782.22637075717671
 11
834.96031080882085
 21
782.22637075717671
  0
LINE
  8
_0-0_計極細
  6
CONTINUOUS
 62
    2
 10
251.96031080882085
 20
787.22637075717671
 11
834.96031080882085
 21
787.22637075717671
  0
LINE
  8
_0-1_計細線
  6
CONTINUOUS
 62
    3
 10
251.96031080882085
 20
490.42637075717732
 11
834.96031080882085
 21
490.42637075717732
  0
LINE
  8
_0-1_計細線
  6
CONTINUOUS
 62
    3
 10
251.96031080882085
 20
501.82637075717793
 11
834.96031080882085
 21
501.82637075717793
  0
LINE
  8
_0-1_計細線
  6
CONTINUOUS
 62
    3
 10
251.96031080882085
 20
490.42637075717732
 11
251.96031080882085
 21
501.82637075717793
  0
LINE
  8
_0-1_計細線
  6
CONTINUOUS
 62
    3
 10
834.96031080882085
 20
490.42637075717732
 11
834.96031080882085
 21
501.82637075717793
  0
LINE
  8
_0-0_計極細
  6
CONTINUOUS
 62
    2
 10
251.96031080882085
 20
498.62637075717805
 11
834.96031080882085
 21
498.62637075717805
  0
LINE
  8
_0-0_計極細
  6
CONTINUOUS
 62
    2
 10
251.96031080882085
 20
493.62637075717805
 11
834.96031080882085
 21
493.62637075717805
  0
LINE
  8
_0-1_計細線
  6
CONTINUOUS
 62
    3
 10
251.96031080882085
 20
722.62637075717532
 11
834.96031080882085
 21
722.62637075717532
  0
LINE
  8
_0-1_計細線
  6
CONTINUOUS
 62
    3
 10
251.96031080882085
 20
711.22637075717478
 11
834.96031080882085
 21
711.22637075717478
  0
LINE
  8
_0-1_計細線
  6
CONTINUOUS
 62
    3
 10
251.96031080882085
 20
722.62637075717532
 11
251.96031080882085
 21
711.22637075717478
  0
LINE
  8
_0-1_計細線
  6
CONTINUOUS
 62
    3
 10
834.96031080882085
 20
722.62637075717532
 11
834.96031080882085
 21
711.22637075717478
  0
LINE
  8
_0-0_計極細
  6
CONTINUOUS
 62
    2
 10
251.96031080882085
 20
714.42637075717562
 11
834.96031080882085
 21
714.42637075717562
  0
LINE
  8
_0-0_計極細
  6
CONTINUOUS
 62
    2
 10
251.96031080882085
 20
719.42637075717562
 11
834.96031080882085
 21
719.42637075717562
  0
LINE
  8
_0-1_計細線
  6
CONTINUOUS
 62
    3
 10
251.96031080882085
 20
739.62637075717441
 11
834.96031080882085
 21
739.62637075717441
  0
LINE
  8
_0-1_計細線
  6
CONTINUOUS
 62
    3
 10
251.96031080882085
 20
728.22637075717398
 11
834.96031080882085
 21
728.22637075717398
  0
LINE
  8
_0-1_計細線
  6
CONTINUOUS
 62
    3
 10
251.96031080882085
 20
739.62637075717441
 11
251.96031080882085
 21
728.22637075717398
  0
LINE
  8
_0-1_計細線
  6
CONTINUOUS
 62
    3
 10
834.96031080882085
 20
739.62637075717441
 11
834.96031080882085
 21
728.22637075717398
  0
LINE
  8
_0-0_計極細
  6
CONTINUOUS
 62
    2
 10
251.96031080882085
 20
731.4263707571738
 11
834.96031080882085
 21
731.4263707571738
  0
LINE
  8
_0-0_計極細
  6
CONTINUOUS
 62
    2
 10
251.96031080882085
 20
736.4263707571738
 11
834.96031080882085
 21
736.4263707571738
  0
LINE
  8
_0-1_計細線
  6
CONTINUOUS
 62
    3
 10
251.96031080882085
 20
756.62637075717362
 11
834.96031080882085
 21
756.62637075717362
  0
LINE
  8
_0-1_計細線
  6
CONTINUOUS
 62
    3
 10
251.96031080882085
 20
745.22637075717296
 11
834.96031080882085
 21
745.22637075717296
  0
LINE
  8
_0-1_計細線
  6
CONTINUOUS
 62
    3
 10
251.96031080882085
 20
756.62637075717362
 11
251.96031080882085
 21
745.22637075717296
  0
LINE
  8
_0-1_計細線
  6
CONTINUOUS
 62
    3
 10
834.96031080882085
 20
756.62637075717362
 11
834.96031080882085
 21
745.22637075717296
  0
LINE
  8
_0-0_計極細
  6
CONTINUOUS
 62
    2
 10
251.96031080882085
 20
748.4263707571738
 11
834.96031080882085
 21
748.4263707571738
  0
LINE
  8
_0-0_計極細
  6
CONTINUOUS
 62
    2
 10
251.96031080882085
 20
753.4263707571738
 11
834.96031080882085
 21
753.4263707571738
  0
LINE
  8
_0-1_計細線
  6
CONTINUOUS
 62
    3
 10
251.96031080882085
 20
558.22637075717842
 11
834.96031080882085
 21
558.22637075717842
  0
LINE
  8
_0-1_計細線
  6
CONTINUOUS
 62
    3
 10
251.96031080882085
 20
569.62637075717896
 11
834.96031080882085
 21
569.62637075717896
  0
LINE
  8
_0-1_計細線
  6
CONTINUOUS
 62
    3
 10
251.96031080882085
 20
558.22637075717842
 11
251.96031080882085
 21
569.62637075717896
  0
LINE
  8
_0-1_計細線
  6
CONTINUOUS
 62
    3
 10
834.96031080882085
 20
558.22637075717842
 11
834.96031080882085
 21
569.62637075717896
  0
LINE
  8
_0-0_計極細
  6
CONTINUOUS
 62
    2
 10
251.96031080882085
 20
566.42637075717914
 11
834.96031080882085
 21
566.42637075717914
  0
LINE
  8
_0-0_計極細
  6
CONTINUOUS
 62
    2
 10
251.96031080882085
 20
561.42637075717914
 11
834.96031080882085
 21
561.42637075717914
  0
LINE
  8
_0-1_計細線
  6
CONTINUOUS
 62
    3
 10
251.96031080882085
 20
541.22637075717932
 11
834.96031080882085
 21
541.22637075717932
  0
LINE
  8
_0-1_計細線
  6
CONTINUOUS
 62
    3
 10
251.96031080882085
 20
552.62637075717987
 11
834.96031080882085
 21
552.62637075717987
  0
LINE
  8
_0-1_計細線
  6
CONTINUOUS
 62
    3
 10
251.96031080882085
 20
541.22637075717932
 11
251.96031080882085
 21
552.62637075717987
  0
LINE
  8
_0-1_計細線
  6
CONTINUOUS
 62
    3
 10
834.96031080882085
 20
541.22637075717932
 11
834.96031080882085
 21
552.62637075717987
  0
LINE
  8
_0-0_計極細
  6
CONTINUOUS
 62
    2
 10
251.96031080882085
 20
549.42637075717914
 11
834.96031080882085
 21
549.42637075717914
  0
LINE
  8
_0-0_計極細
  6
CONTINUOUS
 62
    2
 10
251.96031080882085
 20
544.42637075717914
 11
834.96031080882085
 21
544.42637075717914
  0
LINE
  8
_0-1_計細線
  6
CONTINUOUS
 62
    3
 10
251.96031080882085
 20
524.22637075718035
 11
834.96031080882085
 21
524.22637075718035
  0
LINE
  8
_0-1_計細線
  6
CONTINUOUS
 62
    3
 10
251.96031080882085
 20
535.62637075718078
 11
834.96031080882085
 21
535.62637075718078
  0
LINE
  8
_0-1_計細線
  6
CONTINUOUS
 62
    3
 10
251.96031080882085
 20
524.22637075718035
 11
251.96031080882085
 21
535.62637075718078
  0
LINE
  8
_0-1_計細線
  6
CONTINUOUS
 62
    3
 10
834.96031080882085
 20
524.22637075718035
 11
834.96031080882085
 21
535.62637075718078
  0
LINE
  8
_0-0_計極細
  6
CONTINUOUS
 62
    2
 10
251.96031080882085
 20
532.42637075718096
 11
834.96031080882085
 21
532.42637075718096
  0
LINE
  8
_0-0_計極細
  6
CONTINUOUS
 62
    2
 10
251.96031080882085
 20
527.42637075718096
 11
834.96031080882085
 21
527.42637075718096
  0
LINE
  8
_0-1_計細線
  6
CONTINUOUS
 62
    3
 10
230.46031080881946
 20
795.42637075717653
 11
856.4603108088204
 21
795.42637075717653
  0
LINE
  8
_0-1_計細線
  6
CONTINUOUS
 62
    3
 10
856.46031080882096
 20
485.42637075717732
 11
230.46031080881994
 21
485.42637075717732
  0
LINE
  8
_0-1_計細線
  6
CONTINUOUS
 62
    3
 10
228.54609511044691
 20
792.42637075717653
 11
854.54609511044794
 21
792.42637075717653
  0
LINE
  8
_0-1_計細線
  6
CONTINUOUS
 62
    3
 10
858.37452650719524
 20
488.42637075717732
 11
232.3745265071959
 21
488.42637075717732
  0
LINE
  8
_0-0_計極細
  6
CONTINUOUS
 62
    2
 10
260.46031080882102
 20
586.62637075717817
 11
260.46031080882102
 21
592.22637075717842
  0
LINE
  8
_0-0_計極細
  6
CONTINUOUS
 62
    2
 10
273.46031080882113
 20
586.62637075717817
 11
273.46031080882113
 21
592.22637075717842
  0
LINE
  8
_0-0_計極細
  6
CONTINUOUS
 62
    2
 10
260.46031080882102
 20
603.62637075717805
 11
260.46031080882102
 21
609.22637075717842
  0
LINE
  8
_0-0_計極細
  6
CONTINUOUS
 62
    2
 10
273.46031080882113
 20
603.62637075717805
 11
273.46031080882113
 21
609.22637075717842
  0
LINE
  8
_0-0_計極細
  6
CONTINUOUS
 62
    2
 10
260.46031080882102
 20
626.22637075717478
 11
260.46031080882102
 21
620.62637075717453
  0
LINE
  8
_0-0_計極細
  6
CONTINUOUS
 62
    2
 10
273.46031080882113
 20
626.22637075717478
 11
273.46031080882113
 21
620.62637075717453
  0
LINE
  8
_0-0_計極細
  6
CONTINUOUS
 62
    2
 10
260.46031080882102
 20
643.22637075717478
 11
260.46031080882102
 21
637.62637075717441
  0
LINE
  8
_0-0_計極細
  6
CONTINUOUS
 62
    2
 10
273.46031080882113
 20
643.22637075717478
 11
273.46031080882113
 21
637.62637075717441
  0
LINE
  8
_0-0_計極細
  6
CONTINUOUS
 62
    2
 10
260.46031080882102
 20
660.22637075717569
 11
260.46031080882102
 21
654.62637075717623
  0
LINE
  8
_0-0_計極細
  6
CONTINUOUS
 62
    2
 10
273.46031080882113
 20
660.22637075717569
 11
273.46031080882113
 21
654.62637075717623
  0
LINE
  8
_0-0_計極細
  6
CONTINUOUS
 62
    2
 10
260.46031080882102
 20
677.2263707571766
 11
260.46031080882102
 21
671.62637075717623
  0
LINE
  8
_0-0_計極細
  6
CONTINUOUS
 62
    2
 10
273.46031080882113
 20
677.2263707571766
 11
273.46031080882113
 21
671.62637075717623
  0
LINE
  8
_0-0_計極細
  6
CONTINUOUS
 62
    2
 10
260.46031080882102
 20
694.2263707571766
 11
260.46031080882102
 21
688.62637075717714
  0
LINE
  8
_0-0_計極細
  6
CONTINUOUS
 62
    2
 10
273.46031080882113
 20
694.2263707571766
 11
273.46031080882113
 21
688.62637075717714
  0
LINE
  8
_0-0_計極細
  6
CONTINUOUS
 62
    2
 10
260.46031080882102
 20
779.02637075717598
 11
260.46031080882102
 21
773.62637075717635
  0
LINE
  8
_0-0_計極細
  6
CONTINUOUS
 62
    2
 10
273.46031080882113
 20
779.02637075717598
 11
273.46031080882113
 21
773.62637075717635
  0
LINE
  8
_0-0_計極細
  6
CONTINUOUS
 62
    2
 10
260.46031080882102
 20
501.82637075717702
 11
260.46031080882102
 21
507.22637075717665
  0
LINE
  8
_0-0_計極細
  6
CONTINUOUS
 62
    2
 10
273.46031080882113
 20
501.82637075717702
 11
273.46031080882113
 21
507.22637075717665
  0
LINE
  8
_0-0_計極細
  6
CENTER1
 62
    2
 10
266.96031080882096
 20
799.17709018163816
 11
266.96031080882096
 21
482.66854701616478
  0
LINE
  8
_0-0_計極細
  6
CONTINUOUS
 62
    2
 10
260.46031080882102
 20
711.2263707571766
 11
260.46031080882102
 21
705.62637075717635
  0
LINE
  8
_0-0_計極細
  6
CONTINUOUS
 62
    2
 10
273.46031080882113
 20
711.2263707571766
 11
273.46031080882113
 21
705.62637075717635
  0
LINE
  8
_0-0_計極細
  6
CONTINUOUS
 62
    2
 10
260.46031080882102
 20
728.22637075717478
 11
260.46031080882102
 21
722.62637075717532
  0
LINE
  8
_0-0_計極細
  6
CONTINUOUS
 62
    2
 10
273.46031080882113
 20
728.22637075717478
 11
273.46031080882113
 21
722.62637075717532
  0
LINE
  8
_0-0_計極細
  6
CONTINUOUS
 62
    2
 10
260.46031080882102
 20
745.22637075717489
 11
260.46031080882102
 21
739.62637075717441
  0
LINE
  8
_0-0_計極細
  6
CONTINUOUS
 62
    2
 10
273.46031080882113
 20
745.22637075717489
 11
273.46031080882113
 21
739.62637075717441
  0
LINE
  8
_0-0_計極細
  6
CONTINUOUS
 62
    2
 10
260.46031080882102
 20
762.22637075717307
 11
260.46031080882102
 21
756.62637075717362
  0
LINE
  8
_0-0_計極細
  6
CONTINUOUS
 62
    2
 10
273.46031080882113
 20
762.22637075717307
 11
273.46031080882113
 21
756.62637075717362
  0
LINE
  8
_0-0_計極細
  6
CONTINUOUS
 62
    2
 10
260.46031080882102
 20
569.62637075717805
 11
260.46031080882102
 21
575.22637075717751
  0
LINE
  8
_0-0_計極細
  6
CONTINUOUS
 62
    2
 10
273.46031080882113
 20
569.62637075717805
 11
273.46031080882113
 21
575.22637075717751
  0
LINE
  8
_0-0_計極細
  6
CONTINUOUS
 62
    2
 10
260.46031080882102
 20
552.62637075717805
 11
260.46031080882102
 21
558.22637075717842
  0
LINE
  8
_0-0_計極細
  6
CONTINUOUS
 62
    2
 10
273.46031080882113
 20
552.62637075717805
 11
273.46031080882113
 21
558.22637075717842
  0
LINE
  8
_0-0_計極細
  6
CONTINUOUS
 62
    2
 10
260.46031080882102
 20
535.62637075717987
 11
260.46031080882102
 21
541.22637075717932
  0
LINE
  8
_0-0_計極細
  6
CONTINUOUS
 62
    2
 10
273.46031080882113
 20
535.62637075717987
 11
273.46031080882113
 21
541.22637075717932
  0
LINE
  8
_0-0_計極細
  6
CONTINUOUS
 62
    2
 10
260.46031080882102
 20
518.62637075717987
 11
260.46031080882102
 21
524.22637075718035
  0
LINE
  8
_0-0_計極細
  6
CONTINUOUS
 62
    2
 10
273.46031080882113
 20
518.62637075717987
 11
273.46031080882113
 21
524.22637075718035
  0
LINE
  8
_0-0_計極細
  6
CONTINUOUS
 62
    2
 10
357.46031080882096
 20
586.62637075717817
 11
357.46031080882096
 21
592.22637075717842
  0
LINE
  8
_0-0_計極細
  6
CONTINUOUS
 62
    2
 10
370.46031080882096
 20
586.62637075717817
 11
370.46031080882096
 21
592.22637075717842
  0
LINE
  8
_0-0_計極細
  6
CONTINUOUS
 62
    2
 10
357.46031080882096
 20
603.62637075717805
 11
357.46031080882096
 21
609.22637075717842
  0
LINE
  8
_0-0_計極細
  6
CONTINUOUS
 62
    2
 10
370.46031080882096
 20
603.62637075717805
 11
370.46031080882096
 21
609.22637075717842
  0
LINE
  8
_0-0_計極細
  6
CONTINUOUS
 62
    2
 10
357.46031080882096
 20
626.22637075717478
 11
357.46031080882096
 21
620.62637075717453
  0
LINE
  8
_0-0_計極細
  6
CONTINUOUS
 62
    2
 10
370.46031080882096
 20
626.22637075717478
 11
370.46031080882096
 21
620.62637075717453
  0
LINE
  8
_0-0_計極細
  6
CONTINUOUS
 62
    2
 10
357.46031080882096
 20
660.22637075717569
 11
357.46031080882096
 21
654.62637075717623
  0
LINE
  8
_0-0_計極細
  6
CONTINUOUS
 62
    2
 10
370.46031080882096
 20
660.22637075717569
 11
370.46031080882096
 21
654.62637075717623
  0
LINE
  8
_0-0_計極細
  6
CONTINUOUS
 62
    2
 10
357.46031080882096
 20
677.2263707571766
 11
357.46031080882096
 21
671.62637075717623
  0
LINE
  8
_0-0_計極細
  6
CONTINUOUS
 62
    2
 10
370.46031080882096
 20
677.2263707571766
 11
370.46031080882096
 21
671.62637075717623
  0
LINE
  8
_0-0_計極細
  6
CONTINUOUS
 62
    2
 10
357.46031080882096
 20
694.2263707571766
 11
357.46031080882096
 21
688.62637075717714
  0
LINE
  8
_0-0_計極細
  6
CONTINUOUS
 62
    2
 10
370.46031080882096
 20
694.2263707571766
 11
370.46031080882096
 21
688.62637075717714
  0
LINE
  8
_0-0_計極細
  6
CONTINUOUS
 62
    2
 10
357.46031080882096
 20
779.02637075717598
 11
357.46031080882096
 21
773.62637075717635
  0
LINE
  8
_0-0_計極細
  6
CONTINUOUS
 62
    2
 10
370.46031080882096
 20
779.02637075717598
 11
370.46031080882096
 21
773.62637075717635
  0
LINE
  8
_0-0_計極細
  6
CONTINUOUS
 62
    2
 10
357.46031080882096
 20
501.82637075717702
 11
357.46031080882096
 21
507.22637075717665
  0
LINE
  8
_0-0_計極細
  6
CONTINUOUS
 62
    2
 10
370.46031080882096
 20
501.82637075717702
 11
370.46031080882096
 21
507.22637075717665
  0
LINE
  8
_0-0_計極細
  6
CENTER1
 62
    2
 10
363.96031080882096
 20
799.17709018163816
 11
363.96031080882096
 21
482.66854701616478
  0
LINE
  8
_0-0_計極細
  6
CONTINUOUS
 62
    2
 10
357.46031080882096
 20
711.2263707571766
 11
357.46031080882096
 21
705.62637075717635
  0
LINE
  8
_0-0_計極細
  6
CONTINUOUS
 62
    2
 10
370.46031080882096
 20
711.2263707571766
 11
370.46031080882096
 21
705.62637075717635
  0
LINE
  8
_0-0_計極細
  6
CONTINUOUS
 62
    2
 10
357.46031080882096
 20
728.22637075717478
 11
357.46031080882096
 21
722.62637075717532
  0
LINE
  8
_0-0_計極細
  6
CONTINUOUS
 62
    2
 10
370.46031080882096
 20
728.22637075717478
 11
370.46031080882096
 21
722.62637075717532
  0
LINE
  8
_0-0_計極細
  6
CONTINUOUS
 62
    2
 10
357.46031080882096
 20
745.22637075717489
 11
357.46031080882096
 21
739.62637075717441
  0
LINE
  8
_0-0_計極細
  6
CONTINUOUS
 62
    2
 10
370.46031080882096
 20
745.22637075717489
 11
370.46031080882096
 21
739.62637075717441
  0
LINE
  8
_0-0_計極細
  6
CONTINUOUS
 62
    2
 10
357.46031080882096
 20
762.22637075717307
 11
357.46031080882096
 21
756.62637075717362
  0
LINE
  8
_0-0_計極細
  6
CONTINUOUS
 62
    2
 10
370.46031080882096
 20
762.22637075717307
 11
370.46031080882096
 21
756.62637075717362
  0
LINE
  8
_0-0_計極細
  6
CONTINUOUS
 62
    2
 10
357.46031080882096
 20
569.62637075717805
 11
357.46031080882096
 21
575.22637075717751
  0
LINE
  8
_0-0_計極細
  6
CONTINUOUS
 62
    2
 10
370.46031080882096
 20
569.62637075717805
 11
370.46031080882096
 21
575.22637075717751
  0
LINE
  8
_0-0_計極細
  6
CONTINUOUS
 62
    2
 10
357.46031080882096
 20
552.62637075717805
 11
357.46031080882096
 21
558.22637075717842
  0
LINE
  8
_0-0_計極細
  6
CONTINUOUS
 62
    2
 10
370.46031080882096
 20
552.62637075717805
 11
370.46031080882096
 21
558.22637075717842
  0
LINE
  8
_0-0_計極細
  6
CONTINUOUS
 62
    2
 10
357.46031080882096
 20
535.62637075717987
 11
357.46031080882096
 21
541.22637075717932
  0
LINE
  8
_0-0_計極細
  6
CONTINUOUS
 62
    2
 10
370.46031080882096
 20
535.62637075717987
 11
370.46031080882096
 21
541.22637075717932
  0
LINE
  8
_0-0_計極細
  6
CONTINUOUS
 62
    2
 10
357.46031080882096
 20
518.62637075717987
 11
357.46031080882096
 21
524.22637075718035
  0
LINE
  8
_0-0_計極細
  6
CONTINUOUS
 62
    2
 10
370.46031080882096
 20
518.62637075717987
 11
370.46031080882096
 21
524.22637075718035
  0
LINE
  8
_0-0_計極細
  6
CONTINUOUS
 62
    2
 10
454.46031080882102
 20
586.62637075717817
 11
454.46031080882102
 21
592.22637075717842
  0
LINE
  8
_0-0_計極細
  6
CONTINUOUS
 62
    2
 10
454.46031080882102
 20
603.62637075717805
 11
454.46031080882102
 21
609.22637075717842
  0
LINE
  8
_0-0_計極細
  6
CONTINUOUS
 62
    2
 10
454.46031080882102
 20
626.22637075717478
 11
454.46031080882102
 21
620.62637075717453
  0
LINE
  8
_0-0_計極細
  6
CONTINUOUS
 62
    2
 10
454.46031080882102
 20
643.22637075717478
 11
454.46031080882102
 21
637.62637075717441
  0
LINE
  8
_0-0_計極細
  6
CONTINUOUS
 62
    2
 10
454.46031080882102
 20
660.22637075717569
 11
454.46031080882102
 21
654.62637075717623
  0
LINE
  8
_0-0_計極細
  6
CONTINUOUS
 62
    2
 10
454.46031080882102
 20
677.2263707571766
 11
454.46031080882102
 21
671.62637075717623
  0
LINE
  8
_0-0_計極細
  6
CONTINUOUS
 62
    2
 10
454.46031080882102
 20
694.2263707571766
 11
454.46031080882102
 21
688.62637075717714
  0
LINE
  8
_0-0_計極細
  6
CONTINUOUS
 62
    2
 10
454.46031080882102
 20
779.02637075717598
 11
454.46031080882102
 21
773.62637075717635
  0
LINE
  8
_0-0_計極細
  6
CONTINUOUS
 62
    2
 10
454.46031080882102
 20
501.82637075717702
 11
454.46031080882102
 21
507.22637075717665
  0
LINE
  8
_0-0_計極細
  6
CENTER1
 62
    2
 10
460.96031080882096
 20
799.17709018163816
 11
460.96031080882096
 21
482.66854701616478
  0
LINE
  8
_0-0_計極細
  6
CONTINUOUS
 62
    2
 10
454.46031080882102
 20
711.2263707571766
 11
454.46031080882102
 21
705.62637075717635
  0
LINE
  8
_0-0_計極細
  6
CONTINUOUS
 62
    2
 10
454.46031080882102
 20
728.22637075717478
 11
454.46031080882102
 21
722.62637075717532
  0
LINE
  8
_0-0_計極細
  6
CONTINUOUS
 62
    2
 10
454.46031080882102
 20
745.22637075717489
 11
454.46031080882102
 21
739.62637075717441
  0
LINE
  8
_0-0_計極細
  6
CONTINUOUS
 62
    2
 10
454.46031080882102
 20
762.22637075717307
 11
454.46031080882102
 21
756.62637075717362
  0
LINE
  8
_0-0_計極細
  6
CONTINUOUS
 62
    2
 10
454.46031080882102
 20
569.62637075717805
 11
454.46031080882102
 21
575.22637075717751
  0
LINE
  8
_0-0_計極細
  6
CONTINUOUS
 62
    2
 10
454.46031080882102
 20
552.62637075717805
 11
454.46031080882102
 21
558.22637075717842
  0
LINE
  8
_0-0_計極細
  6
CONTINUOUS
 62
    2
 10
454.46031080882102
 20
535.62637075717987
 11
454.46031080882102
 21
541.22637075717932
  0
LINE
  8
_0-0_計極細
  6
CONTINUOUS
 62
    2
 10
454.46031080882102
 20
518.62637075717987
 11
454.46031080882102
 21
524.22637075718035
  0
LINE
  8
_0-0_計極細
  6
CONTINUOUS
 62
    2
 10
551.46031080882074
 20
586.62637075717817
 11
551.46031080882074
 21
592.22637075717842
  0
LINE
  8
_0-0_計極細
  6
CONTINUOUS
 62
    2
 10
564.46031080882096
 20
586.62637075717817
 11
564.46031080882096
 21
592.22637075717842
  0
LINE
  8
_0-0_計極細
  6
CONTINUOUS
 62
    2
 10
551.46031080882074
 20
603.62637075717805
 11
551.46031080882074
 21
609.22637075717842
  0
LINE
  8
_0-0_計極細
  6
CONTINUOUS
 62
    2
 10
564.46031080882096
 20
603.62637075717805
 11
564.46031080882096
 21
609.22637075717842
  0
LINE
  8
_0-0_計極細
  6
CONTINUOUS
 62
    2
 10
551.46031080882074
 20
626.22637075717478
 11
551.46031080882074
 21
620.62637075717453
  0
LINE
  8
_0-0_計極細
  6
CONTINUOUS
 62
    2
 10
564.46031080882096
 20
626.22637075717478
 11
564.46031080882096
 21
620.62637075717453
  0
LINE
  8
_0-0_計極細
  6
CONTINUOUS
 62
    2
 10
551.46031080882074
 20
643.22637075717478
 11
551.46031080882074
 21
637.62637075717441
  0
LINE
  8
_0-0_計極細
  6
CONTINUOUS
 62
    2
 10
564.46031080882096
 20
643.22637075717478
 11
564.46031080882096
 21
637.62637075717441
  0
LINE
  8
_0-0_計極細
  6
CONTINUOUS
 62
    2
 10
551.46031080882074
 20
660.22637075717569
 11
551.46031080882074
 21
654.62637075717623
  0
LINE
  8
_0-0_計極細
  6
CONTINUOUS
 62
    2
 10
564.46031080882096
 20
660.22637075717569
 11
564.46031080882096
 21
654.62637075717623
  0
LINE
  8
_0-0_計極細
  6
CONTINUOUS
 62
    2
 10
551.46031080882074
 20
677.2263707571766
 11
551.46031080882074
 21
671.62637075717623
  0
LINE
  8
_0-0_計極細
  6
CONTINUOUS
 62
    2
 10
564.46031080882096
 20
677.2263707571766
 11
564.46031080882096
 21
671.62637075717623
  0
LINE
  8
_0-0_計極細
  6
CONTINUOUS
 62
    2
 10
551.46031080882074
 20
694.2263707571766
 11
551.46031080882074
 21
688.62637075717714
  0
LINE
  8
_0-0_計極細
  6
CONTINUOUS
 62
    2
 10
564.46031080882096
 20
694.2263707571766
 11
564.46031080882096
 21
688.62637075717714
  0
LINE
  8
_0-0_計極細
  6
CONTINUOUS
 62
    2
 10
551.46031080882074
 20
779.02637075717598
 11
551.46031080882074
 21
773.62637075717635
  0
LINE
  8
_0-0_計極細
  6
CONTINUOUS
 62
    2
 10
564.46031080882096
 20
779.02637075717598
 11
564.46031080882096
 21
773.62637075717635
  0
LINE
  8
_0-0_計極細
  6
CONTINUOUS
 62
    2
 10
551.46031080882074
 20
501.82637075717702
 11
551.46031080882074
 21
507.22637075717665
  0
LINE
  8
_0-0_計極細
  6
CONTINUOUS
 62
    2
 10
564.46031080882096
 20
501.82637075717702
 11
564.46031080882096
 21
507.22637075717665
  0
LINE
  8
_0-0_計極細
  6
CENTER1
 62
    2
 10
557.96031080882108
 20
799.17709018163816
 11
557.96031080882108
 21
482.66854701616478
  0
LINE
  8
_0-0_計極細
  6
CONTINUOUS
 62
    2
 10
551.46031080882074
 20
711.2263707571766
 11
551.46031080882074
 21
705.62637075717635
  0
LINE
  8
_0-0_計極細
  6
CONTINUOUS
 62
    2
 10
564.46031080882096
 20
711.2263707571766
 11
564.46031080882096
 21
705.62637075717635
  0
LINE
  8
_0-0_計極細
  6
CONTINUOUS
 62
    2
 10
551.46031080882074
 20
728.22637075717478
 11
551.46031080882074
 21
722.62637075717532
  0
LINE
  8
_0-0_計極細
  6
CONTINUOUS
 62
    2
 10
564.46031080882096
 20
728.22637075717478
 11
564.46031080882096
 21
722.62637075717532
  0
LINE
  8
_0-0_計極細
  6
CONTINUOUS
 62
    2
 10
551.46031080882074
 20
745.22637075717489
 11
551.46031080882074
 21
739.62637075717441
  0
LINE
  8
_0-0_計極細
  6
CONTINUOUS
 62
    2
 10
564.46031080882096
 20
745.22637075717489
 11
564.46031080882096
 21
739.62637075717441
  0
LINE
  8
_0-0_計極細
  6
CONTINUOUS
 62
    2
 10
551.46031080882074
 20
762.22637075717307
 11
551.46031080882074
 21
756.62637075717362
  0
LINE
  8
_0-0_計極細
  6
CONTINUOUS
 62
    2
 10
564.46031080882096
 20
762.22637075717307
 11
564.46031080882096
 21
756.62637075717362
  0
LINE
  8
_0-0_計極細
  6
CONTINUOUS
 62
    2
 10
551.46031080882074
 20
569.62637075717805
 11
551.46031080882074
 21
575.22637075717751
  0
LINE
  8
_0-0_計極細
  6
CONTINUOUS
 62
    2
 10
564.46031080882096
 20
569.62637075717805
 11
564.46031080882096
 21
575.22637075717751
  0
LINE
  8
_0-0_計極細
  6
CONTINUOUS
 62
    2
 10
551.46031080882074
 20
552.62637075717805
 11
551.46031080882074
 21
558.22637075717842
  0
LINE
  8
_0-0_計極細
  6
CONTINUOUS
 62
    2
 10
564.46031080882096
 20
552.62637075717805
 11
564.46031080882096
 21
558.22637075717842
  0
LINE
  8
_0-0_計極細
  6
CONTINUOUS
 62
    2
 10
551.46031080882074
 20
535.62637075717987
 11
551.46031080882074
 21
541.22637075717932
  0
LINE
  8
_0-0_計極細
  6
CONTINUOUS
 62
    2
 10
564.46031080882096
 20
535.62637075717987
 11
564.46031080882096
 21
541.22637075717932
  0
LINE
  8
_0-0_計極細
  6
CONTINUOUS
 62
    2
 10
551.46031080882074
 20
518.62637075717987
 11
551.46031080882074
 21
524.22637075718035
  0
LINE
  8
_0-0_計極細
  6
CONTINUOUS
 62
    2
 10
564.46031080882096
 20
518.62637075717987
 11
564.46031080882096
 21
524.22637075718035
  0
LINE
  8
_0-5_寸法線
  6
CONTINUOUS
 62
    7
 10
605.65801808330093
 20
530.23771793436765
 11
610.65801808543654
 21
521.57746389775627
  0
LINE
  8
_0-5_寸法線
  6
CONTINUOUS
 62
    7
 10
605.65801808330093
 20
530.23771793436765
 11
605.65801808576691
 21
520.23771793436765
  0
LINE
  8
_0-5_寸法線
  6
CONTINUOUS
 62
    7
 10
605.65801808330093
 20
530.23771793436765
 11
629.01550122639514
 21
443.06640419339254
  0
LINE
  8
_0-5_寸法線
  6
CONTINUOUS
 62
    7
 10
629.01550122639514
 20
443.06640419339254
 11
761.01550122639526
 21
443.06640419339254
  0
TEXT
  8
_0-5_寸法線
 62
    7
 10
629.01550122639514
 20
443.06640419339254
 40
15
 41
0.8000000000000001
 50
0
  1
セーフティグレーチング
  0
TEXT
  8
_0-5_寸法線
 62
    7
 10
629.10751156960418
 20
428.06640419339254
 40
15
 41
0.8000000000000001
 50
0
  1
ＧＲＳ－２０Ｗ３００
  0
LINE
  8
_0-0_計極細
  6
CONTINUOUS
 62
    2
 10
813.46031080882085
 20
586.62637075717817
 11
813.46031080882085
 21
592.22637075717842
  0
LINE
  8
_0-0_計極細
  6
CONTINUOUS
 62
    2
 10
826.46031080882096
 20
586.62637075717817
 11
826.46031080882096
 21
592.22637075717842
  0
LINE
  8
_0-0_計極細
  6
CONTINUOUS
 62
    2
 10
813.46031080882085
 20
603.62637075717805
 11
813.46031080882085
 21
609.22637075717842
  0
LINE
  8
_0-0_計極細
  6
CONTINUOUS
 62
    2
 10
826.46031080882096
 20
603.62637075717805
 11
826.46031080882096
 21
609.22637075717842
  0
LINE
  8
_0-0_計極細
  6
CONTINUOUS
 62
    2
 10
813.46031080882085
 20
626.22637075717478
 11
813.46031080882085
 21
620.62637075717453
  0
LINE
  8
_0-0_計極細
  6
CONTINUOUS
 62
    2
 10
826.46031080882096
 20
626.22637075717478
 11
826.46031080882096
 21
620.62637075717453
  0
LINE
  8
_0-0_計極細
  6
CONTINUOUS
 62
    2
 10
813.46031080882085
 20
643.22637075717478
 11
813.46031080882085
 21
637.62637075717441
  0
LINE
  8
_0-0_計極細
  6
CONTINUOUS
 62
    2
 10
826.46031080882096
 20
643.22637075717478
 11
826.46031080882096
 21
637.62637075717441
  0
LINE
  8
_0-0_計極細
  6
CONTINUOUS
 62
    2
 10
813.46031080882085
 20
660.22637075717569
 11
813.46031080882085
 21
654.62637075717623
  0
LINE
  8
_0-0_計極細
  6
CONTINUOUS
 62
    2
 10
826.46031080882096
 20
660.22637075717569
 11
826.46031080882096
 21
654.62637075717623
  0
LINE
  8
_0-0_計極細
  6
CONTINUOUS
 62
    2
 10
813.46031080882085
 20
677.2263707571766
 11
813.46031080882085
 21
671.62637075717623
  0
LINE
  8
_0-0_計極細
  6
CONTINUOUS
 62
    2
 10
826.46031080882096
 20
677.2263707571766
 11
826.46031080882096
 21
671.62637075717623
  0
LINE
  8
_0-0_計極細
  6
CONTINUOUS
 62
    2
 10
813.46031080882085
 20
694.2263707571766
 11
813.46031080882085
 21
688.62637075717714
  0
LINE
  8
_0-0_計極細
  6
CONTINUOUS
 62
    2
 10
826.46031080882096
 20
694.2263707571766
 11
826.46031080882096
 21
688.62637075717714
  0
LINE
  8
_0-0_計極細
  6
CONTINUOUS
 62
    2
 10
813.46031080882085
 20
779.02637075717598
 11
813.46031080882085
 21
773.62637075717635
  0
LINE
  8
_0-0_計極細
  6
CONTINUOUS
 62
    2
 10
826.46031080882096
 20
779.02637075717598
 11
826.46031080882096
 21
773.62637075717635
  0
LINE
  8
_0-0_計極細
  6
CONTINUOUS
 62
    2
 10
813.46031080882085
 20
501.82637075717702
 11
813.46031080882085
 21
507.22637075717665
  0
LINE
  8
_0-0_計極細
  6
CONTINUOUS
 62
    2
 10
826.46031080882096
 20
501.82637075717702
 11
826.46031080882096
 21
507.22637075717665
  0
LINE
  8
_0-0_計極細
  6
CENTER1
 62
    2
 10
819.96031080882085
 20
799.17709018163816
 11
819.96031080882085
 21
482.66854701616478
  0
LINE
  8
_0-0_計極細
  6
CONTINUOUS
 62
    2
 10
813.46031080882085
 20
711.2263707571766
 11
813.46031080882085
 21
705.62637075717635
  0
LINE
  8
_0-0_計極細
  6
CONTINUOUS
 62
    2
 10
826.46031080882096
 20
711.2263707571766
 11
826.46031080882096
 21
705.62637075717635
  0
LINE
  8
_0-0_計極細
  6
CONTINUOUS
 62
    2
 10
813.46031080882085
 20
728.22637075717478
 11
813.46031080882085
 21
722.62637075717532
  0
LINE
  8
_0-0_計極細
  6
CONTINUOUS
 62
    2
 10
826.46031080882096
 20
728.22637075717478
 11
826.46031080882096
 21
722.62637075717532
  0
LINE
  8
_0-0_計極細
  6
CONTINUOUS
 62
    2
 10
813.46031080882085
 20
745.22637075717489
 11
813.46031080882085
 21
739.62637075717441
  0
LINE
  8
_0-0_計極細
  6
CONTINUOUS
 62
    2
 10
826.46031080882096
 20
745.22637075717489
 11
826.46031080882096
 21
739.62637075717441
  0
LINE
  8
_0-0_計極細
  6
CONTINUOUS
 62
    2
 10
813.46031080882085
 20
762.22637075717307
 11
813.46031080882085
 21
756.62637075717362
  0
LINE
  8
_0-0_計極細
  6
CONTINUOUS
 62
    2
 10
826.46031080882096
 20
762.22637075717307
 11
826.46031080882096
 21
756.62637075717362
  0
LINE
  8
_0-0_計極細
  6
CONTINUOUS
 62
    2
 10
813.46031080882085
 20
569.62637075717805
 11
813.46031080882085
 21
575.22637075717751
  0
LINE
  8
_0-0_計極細
  6
CONTINUOUS
 62
    2
 10
826.46031080882096
 20
569.62637075717805
 11
826.46031080882096
 21
575.22637075717751
  0
LINE
  8
_0-0_計極細
  6
CONTINUOUS
 62
    2
 10
813.46031080882085
 20
552.62637075717805
 11
813.46031080882085
 21
558.22637075717842
  0
LINE
  8
_0-0_計極細
  6
CONTINUOUS
 62
    2
 10
826.46031080882096
 20
552.62637075717805
 11
826.46031080882096
 21
558.22637075717842
  0
LINE
  8
_0-0_計極細
  6
CONTINUOUS
 62
    2
 10
813.46031080882085
 20
535.62637075717987
 11
813.46031080882085
 21
541.22637075717932
  0
LINE
  8
_0-0_計極細
  6
CONTINUOUS
 62
    2
 10
826.46031080882096
 20
535.62637075717987
 11
826.46031080882096
 21
541.22637075717932
  0
LINE
  8
_0-0_計極細
  6
CONTINUOUS
 62
    2
 10
813.46031080882085
 20
518.62637075717987
 11
813.46031080882085
 21
524.22637075718035
  0
LINE
  8
_0-0_計極細
  6
CONTINUOUS
 62
    2
 10
826.46031080882096
 20
518.62637075717987
 11
826.46031080882096
 21
524.22637075718035
  0
LINE
  8
_0-0_計極細
  6
CONTINUOUS
 62
    2
 10
716.46031080882085
 20
586.62637075717817
 11
716.46031080882085
 21
592.22637075717842
  0
LINE
  8
_0-0_計極細
  6
CONTINUOUS
 62
    2
 10
716.46031080882085
 20
603.62637075717805
 11
716.46031080882085
 21
609.22637075717842
  0
LINE
  8
_0-0_計極細
  6
CONTINUOUS
 62
    2
 10
716.46031080882085
 20
626.22637075717478
 11
716.46031080882085
 21
620.62637075717453
  0
LINE
  8
_0-0_計極細
  6
CONTINUOUS
 62
    2
 10
716.46031080882085
 20
643.22637075717478
 11
716.46031080882085
 21
637.62637075717441
  0
LINE
  8
_0-0_計極細
  6
CONTINUOUS
 62
    2
 10
716.46031080882085
 20
660.22637075717569
 11
716.46031080882085
 21
654.62637075717623
  0
LINE
  8
_0-0_計極細
  6
CONTINUOUS
 62
    2
 10
716.46031080882085
 20
677.2263707571766
 11
716.46031080882085
 21
671.62637075717623
  0
LINE
  8
_0-0_計極細
  6
CONTINUOUS
 62
    2
 10
729.46031080882096
 20
677.2263707571766
 11
729.46031080882096
 21
671.62637075717623
  0
LINE
  8
_0-0_計極細
  6
CONTINUOUS
 62
    2
 10
716.46031080882085
 20
694.2263707571766
 11
716.46031080882085
 21
688.62637075717714
  0
LINE
  8
_0-0_計極細
  6
CONTINUOUS
 62
    2
 10
729.46031080882096
 20
694.2263707571766
 11
729.46031080882096
 21
688.62637075717714
  0
LINE
  8
_0-0_計極細
  6
CONTINUOUS
 62
    2
 10
716.46031080882085
 20
779.02637075717598
 11
716.46031080882085
 21
773.62637075717635
  0
LINE
  8
_0-0_計極細
  6
CONTINUOUS
 62
    2
 10
716.46031080882085
 20
501.82637075717702
 11
716.46031080882085
 21
507.22637075717665
  0
LINE
  8
_0-0_計極細
  6
CENTER1
 62
    2
 10
722.96031080882085
 20
799.17709018163816
 11
722.96031080882085
 21
482.66854701616478
  0
LINE
  8
_0-0_計極細
  6
CONTINUOUS
 62
    2
 10
716.46031080882085
 20
711.2263707571766
 11
716.46031080882085
 21
705.62637075717635
  0
LINE
  8
_0-0_計極細
  6
CONTINUOUS
 62
    2
 10
716.46031080882085
 20
728.22637075717478
 11
716.46031080882085
 21
722.62637075717532
  0
LINE
  8
_0-0_計極細
  6
CONTINUOUS
 62
    2
 10
716.46031080882085
 20
745.22637075717489
 11
716.46031080882085
 21
739.62637075717441
  0
LINE
  8
_0-0_計極細
  6
CONTINUOUS
 62
    2
 10
716.46031080882085
 20
762.22637075717307
 11
716.46031080882085
 21
756.62637075717362
  0
LINE
  8
_0-0_計極細
  6
CONTINUOUS
 62
    2
 10
716.46031080882085
 20
569.62637075717805
 11
716.46031080882085
 21
575.22637075717751
  0
LINE
  8
_0-0_計極細
  6
CONTINUOUS
 62
    2
 10
716.46031080882085
 20
552.62637075717805
 11
716.46031080882085
 21
558.22637075717842
  0
LINE
  8
_0-0_計極細
  6
CONTINUOUS
 62
    2
 10
716.46031080882085
 20
535.62637075717987
 11
716.46031080882085
 21
541.22637075717932
  0
LINE
  8
_0-0_計極細
  6
CONTINUOUS
 62
    2
 10
716.46031080882085
 20
518.62637075717987
 11
716.46031080882085
 21
524.22637075718035
  0
LINE
  8
_0-0_計極細
  6
CONTINUOUS
 62
    2
 10
619.46031080882085
 20
586.62637075717817
 11
619.46031080882085
 21
592.22637075717842
  0
LINE
  8
_0-0_計極細
  6
CONTINUOUS
 62
    2
 10
632.46031080882085
 20
586.62637075717817
 11
632.46031080882085
 21
592.22637075717842
  0
LINE
  8
_0-0_計極細
  6
CONTINUOUS
 62
    2
 10
619.46031080882085
 20
603.62637075717805
 11
619.46031080882085
 21
609.22637075717842
  0
LINE
  8
_0-0_計極細
  6
CONTINUOUS
 62
    2
 10
632.46031080882085
 20
603.62637075717805
 11
632.46031080882085
 21
609.22637075717842
  0
LINE
  8
_0-0_計極細
  6
CONTINUOUS
 62
    2
 10
619.46031080882085
 20
626.22637075717478
 11
619.46031080882085
 21
620.62637075717453
  0
LINE
  8
_0-0_計極細
  6
CONTINUOUS
 62
    2
 10
632.46031080882085
 20
626.22637075717478
 11
632.46031080882085
 21
620.62637075717453
  0
LINE
  8
_0-0_計極細
  6
CONTINUOUS
 62
    2
 10
619.46031080882085
 20
643.22637075717478
 11
619.46031080882085
 21
637.62637075717441
  0
LINE
  8
_0-0_計極細
  6
CONTINUOUS
 62
    2
 10
632.46031080882085
 20
643.22637075717478
 11
632.46031080882085
 21
637.62637075717441
  0
LINE
  8
_0-0_計極細
  6
CONTINUOUS
 62
    2
 10
619.46031080882085
 20
660.22637075717569
 11
619.46031080882085
 21
654.62637075717623
  0
LINE
  8
_0-0_計極細
  6
CONTINUOUS
 62
    2
 10
632.46031080882085
 20
660.22637075717569
 11
632.46031080882085
 21
654.62637075717623
  0
LINE
  8
_0-0_計極細
  6
CONTINUOUS
 62
    2
 10
619.46031080882085
 20
677.2263707571766
 11
619.46031080882085
 21
671.62637075717623
  0
LINE
  8
_0-0_計極細
  6
CONTINUOUS
 62
    2
 10
632.46031080882085
 20
677.2263707571766
 11
632.46031080882085
 21
671.62637075717623
  0
LINE
  8
_0-0_計極細
  6
CONTINUOUS
 62
    2
 10
619.46031080882085
 20
694.2263707571766
 11
619.46031080882085
 21
688.62637075717714
  0
LINE
  8
_0-0_計極細
  6
CONTINUOUS
 62
    2
 10
632.46031080882085
 20
694.2263707571766
 11
632.46031080882085
 21
688.62637075717714
  0
LINE
  8
_0-0_計極細
  6
CONTINUOUS
 62
    2
 10
619.46031080882085
 20
779.02637075717598
 11
619.46031080882085
 21
773.62637075717635
  0
LINE
  8
_0-0_計極細
  6
CONTINUOUS
 62
    2
 10
632.46031080882085
 20
779.02637075717598
 11
632.46031080882085
 21
773.62637075717635
  0
LINE
  8
_0-0_計極細
  6
CONTINUOUS
 62
    2
 10
619.46031080882085
 20
501.82637075717702
 11
619.46031080882085
 21
507.22637075717665
  0
LINE
  8
_0-0_計極細
  6
CONTINUOUS
 62
    2
 10
632.46031080882085
 20
501.82637075717702
 11
632.46031080882085
 21
507.22637075717665
  0
LINE
  8
_0-0_計極細
  6
CENTER1
 62
    2
 10
625.96031080882085
 20
799.17709018163816
 11
625.96031080882085
 21
482.66854701616478
  0
LINE
  8
_0-0_計極細
  6
CONTINUOUS
 62
    2
 10
619.46031080882085
 20
711.2263707571766
 11
619.46031080882085
 21
705.62637075717635
  0
LINE
  8
_0-0_計極細
  6
CONTINUOUS
 62
    2
 10
632.46031080882085
 20
711.2263707571766
 11
632.46031080882085
 21
705.62637075717635
  0
LINE
  8
_0-0_計極細
  6
CONTINUOUS
 62
    2
 10
619.46031080882085
 20
728.22637075717478
 11
619.46031080882085
 21
722.62637075717532
  0
LINE
  8
_0-0_計極細
  6
CONTINUOUS
 62
    2
 10
632.46031080882085
 20
728.22637075717478
 11
632.46031080882085
 21
722.62637075717532
  0
LINE
  8
_0-0_計極細
  6
CONTINUOUS
 62
    2
 10
619.46031080882085
 20
745.22637075717489
 11
619.46031080882085
 21
739.62637075717441
  0
LINE
  8
_0-0_計極細
  6
CONTINUOUS
 62
    2
 10
632.46031080882085
 20
745.22637075717489
 11
632.46031080882085
 21
739.62637075717441
  0
LINE
  8
_0-0_計極細
  6
CONTINUOUS
 62
    2
 10
619.46031080882085
 20
762.22637075717307
 11
619.46031080882085
 21
756.62637075717362
  0
LINE
  8
_0-0_計極細
  6
CONTINUOUS
 62
    2
 10
632.46031080882085
 20
762.22637075717307
 11
632.46031080882085
 21
756.62637075717362
  0
LINE
  8
_0-0_計極細
  6
CONTINUOUS
 62
    2
 10
619.46031080882085
 20
569.62637075717805
 11
619.46031080882085
 21
575.22637075717751
  0
LINE
  8
_0-0_計極細
  6
CONTINUOUS
 62
    2
 10
632.46031080882085
 20
569.62637075717805
 11
632.46031080882085
 21
575.22637075717751
  0
LINE
  8
_0-0_計極細
  6
CONTINUOUS
 62
    2
 10
619.46031080882085
 20
552.62637075717805
 11
619.46031080882085
 21
558.22637075717842
  0
LINE
  8
_0-0_計極細
  6
CONTINUOUS
 62
    2
 10
632.46031080882085
 20
552.62637075717805
 11
632.46031080882085
 21
558.22637075717842
  0
LINE
  8
_0-0_計極細
  6
CONTINUOUS
 62
    2
 10
619.46031080882085
 20
535.62637075717987
 11
619.46031080882085
 21
541.22637075717932
  0
LINE
  8
_0-0_計極細
  6
CONTINUOUS
 62
    2
 10
632.46031080882085
 20
535.62637075717987
 11
632.46031080882085
 21
541.22637075717932
  0
LINE
  8
_0-0_計極細
  6
CONTINUOUS
 62
    2
 10
619.46031080882085
 20
518.62637075717987
 11
619.46031080882085
 21
524.22637075718035
  0
LINE
  8
_0-0_計極細
  6
CONTINUOUS
 62
    2
 10
632.46031080882085
 20
518.62637075717987
 11
632.46031080882085
 21
524.22637075718035
  0
LINE
  8
_0-5_寸法線
  6
CONTINUOUS
 62
    7
 10
251.96031080882108
 20
805.4263707571755
 11
251.96031080882236
 21
885.4263707571755
  0
LINE
  8
_0-5_寸法線
  6
CONTINUOUS
 62
    7
 10
251.96031080882221
 20
880.4263707571755
 11
259.20475450599031
 21
882.36751359544439
  0
LINE
  8
_0-5_寸法線
  6
CONTINUOUS
 62
    7
 10
251.96031080882221
 20
880.4263707571755
 11
259.20475450599031
 21
878.48522791890673
  0
LINE
  8
_0-5_寸法線
  6
CONTINUOUS
 62
    7
 10
834.96031080882108
 20
805.4263707571755
 11
834.96031080882233
 21
885.4263707571755
  0
LINE
  8
_0-5_寸法線
  6
CONTINUOUS
 62
    7
 10
834.96031080882233
 20
880.4263707571755
 11
827.71586711165423
 21
878.48522791890673
  0
LINE
  8
_0-5_寸法線
  6
CONTINUOUS
 62
    7
 10
834.96031080882233
 20
880.4263707571755
 11
827.71586711165423
 21
882.36751359544439
  0
LINE
  8
_0-5_寸法線
  6
CONTINUOUS
 62
    7
 10
251.96031080882221
 20
880.4263707571755
 11
834.96031080882233
 21
880.4263707571755
  0
TEXT
  8
_0-5_寸法線
 62
    7
 10
535.96031080882233
 20
880.4263707571755
 40
15
 41
1
 50
0
  1
Ｌ
  0
LINE
  8
_0-5_寸法線
  6
CONTINUOUS
 62
    7
 10
251.96031080882094
 20
805.42637075717653
 11
251.96031080882085
 21
850.4263707571755
  0
LINE
  8
_0-5_寸法線
  6
CONTINUOUS
 62
    7
 10
251.96031080882085
 20
845.4263707571755
 11
261.61956907171151
 21
848.0145612082008
  0
LINE
  8
_0-5_寸法線
  6
CONTINUOUS
 62
    7
 10
251.96031080882085
 20
845.4263707571755
 11
261.61956907171151
 21
842.83818030615043
  0
LINE
  8
_0-5_寸法線
  6
CONTINUOUS
 62
    7
 10
266.96031080882096
 20
805.42637075717653
 11
266.96031080882096
 21
850.4263707571755
  0
LINE
  8
_0-5_寸法線
  6
CONTINUOUS
 62
    7
 10
266.96031080882096
 20
845.4263707571755
 11
257.30105254593025
 21
842.83818030615043
  0
LINE
  8
_0-5_寸法線
  6
CONTINUOUS
 62
    7
 10
266.96031080882096
 20
845.4263707571755
 11
257.30105254593025
 21
848.0145612082008
  0
LINE
  8
_0-5_寸法線
  6
CONTINUOUS
 62
    7
 10
251.96031080882085
 20
845.4263707571755
 11
266.96031080882096
 21
845.4263707571755
  0
TEXT
  8
_0-5_寸法線
 62
    7
 10
251.96031080882094
 20
845.4263707571755
 40
15
 41
1
 50
0
  1
Ａ
  0
LINE
  8
_0-5_寸法線
  6
CONTINUOUS
 62
    7
 10
363.96031080881846
 20
805.42637075717653
 11
363.96031080881846
 21
850.4263707571755
  0
LINE
  8
_0-5_寸法線
  6
CONTINUOUS
 62
    7
 10
363.96031080881846
 20
845.4263707571755
 11
373.61956907170912
 21
848.0145612082008
  0
LINE
  8
_0-5_寸法線
  6
CONTINUOUS
 62
    7
 10
363.96031080881846
 20
845.4263707571755
 11
373.61956907170912
 21
842.83818030615043
  0
LINE
  8
_0-5_寸法線
  6
CONTINUOUS
 62
    7
 10
460.96031080881852
 20
805.42637075717653
 11
460.96031080881852
 21
850.4263707571755
  0
LINE
  8
_0-5_寸法線
  6
CONTINUOUS
 62
    7
 10
460.96031080881852
 20
845.4263707571755
 11
451.30105254592775
 21
842.83818030615043
  0
LINE
  8
_0-5_寸法線
  6
CONTINUOUS
 62
    7
 10
460.96031080881852
 20
845.4263707571755
 11
451.30105254592786
 21
848.0145612082008
  0
LINE
  8
_0-5_寸法線
  6
CONTINUOUS
 62
    7
 10
363.96031080881846
 20
845.4263707571755
 11
460.96031080881852
 21
845.4263707571755
  0
TEXT
  8
_0-5_寸法線
 62
    7
 10
404.96031080881846
 20
845.4263707571755
 40
15
 41
1
 50
0
  1
97
  0
LINE
  8
_0-5_寸法線
  6
CONTINUOUS
 62
    7
 10
460.96031080881852
 20
845.4263707571755
 11
470.61956907170924
 21
848.0145612082008
  0
LINE
  8
_0-5_寸法線
  6
CONTINUOUS
 62
    7
 10
460.96031080881852
 20
845.4263707571755
 11
470.61956907170918
 21
842.83818030615021
  0
LINE
  8
_0-5_寸法線
  6
CONTINUOUS
 62
    7
 10
557.96031080881846
 20
805.42637075717653
 11
557.96031080881846
 21
850.4263707571755
  0
LINE
  8
_0-5_寸法線
  6
CONTINUOUS
 62
    7
 10
557.96031080881846
 20
845.4263707571755
 11
548.30105254592786
 21
842.83818030615043
  0
LINE
  8
_0-5_寸法線
  6
CONTINUOUS
 62
    7
 10
557.96031080881846
 20
845.4263707571755
 11
548.30105254592786
 21
848.0145612082008
  0
LINE
  8
_0-5_寸法線
  6
CONTINUOUS
 62
    7
 10
460.96031080881852
 20
845.4263707571755
 11
557.96031080881846
 21
845.4263707571755
  0
TEXT
  8
_0-5_寸法線
 62
    7
 10
501.96031080881852
 20
845.4263707571755
 40
15
 41
1
 50
0
  1
97
  0
LINE
  8
_0-5_寸法線
  6
CONTINUOUS
 62
    7
 10
819.96031080882085
 20
805.42637075717653
 11
819.96031080882085
 21
850.4263707571755
  0
LINE
  8
_0-5_寸法線
  6
CONTINUOUS
 62
    7
 10
819.96031080882085
 20
845.4263707571755
 11
829.61956907171157
 21
848.0145612082008
  0
LINE
  8
_0-5_寸法線
  6
CONTINUOUS
 62
    7
 10
819.96031080882085
 20
845.4263707571755
 11
829.61956907171157
 21
842.83818030615043
  0
LINE
  8
_0-5_寸法線
  6
CONTINUOUS
 62
    7
 10
834.96031080882085
 20
805.42637075717653
 11
834.96031080882085
 21
850.4263707571755
  0
LINE
  8
_0-5_寸法線
  6
CONTINUOUS
 62
    7
 10
834.96031080882085
 20
845.4263707571755
 11
825.30105254593025
 21
842.83818030615043
  0
LINE
  8
_0-5_寸法線
  6
CONTINUOUS
 62
    7
 10
834.96031080882085
 20
845.4263707571755
 11
825.30105254593025
 21
848.0145612082008
  0
LINE
  8
_0-5_寸法線
  6
CONTINUOUS
 62
    7
 10
819.96031080882085
 20
845.4263707571755
 11
834.96031080882085
 21
845.4263707571755
  0
TEXT
  8
_0-5_寸法線
 62
    7
 10
819.96031080882074
 20
845.4263707571755
 40
15
 41
1
 50
0
  1
Ａ
  0
LINE
  8
_0-5_寸法線
  6
CONTINUOUS
 62
    7
 10
557.96031080882108
 20
805.42637075717653
 11
557.96031080882108
 21
850.42637075717494
  0
LINE
  8
_0-5_寸法線
  6
CONTINUOUS
 62
    7
 10
557.96031080882108
 20
845.42637075717494
 11
567.61956907171179
 21
848.01456120820012
  0
LINE
  8
_0-5_寸法線
  6
CONTINUOUS
 62
    7
 10
557.96031080882108
 20
845.42637075717494
 11
567.61956907171179
 21
842.83818030614964
  0
LINE
  8
_0-5_寸法線
  6
CONTINUOUS
 62
    7
 10
625.96031080882085
 20
805.42637075717653
 11
625.96031080882096
 21
850.42637075717494
  0
LINE
  8
_0-5_寸法線
  6
CONTINUOUS
 62
    7
 10
625.96031080882096
 20
845.42637075717494
 11
616.30105254593025
 21
842.83818030614964
  0
LINE
  8
_0-5_寸法線
  6
CONTINUOUS
 62
    7
 10
625.96031080882096
 20
845.42637075717494
 11
616.30105254593025
 21
848.01456120820012
  0
LINE
  8
_0-5_寸法線
  6
CONTINUOUS
 62
    7
 10
557.96031080882108
 20
845.42637075717494
 11
625.96031080882096
 21
845.42637075717494
  0
TEXT
  8
_0-5_寸法線
 62
    7
 10
584.46031080882096
 20
845.42637075717494
 40
15
 41
1
 50
0
  1
Ｂ
  0
LINE
  8
_0-7_枠細線
  6
CONTINUOUS
 62
    5
 10
399.2526014874278
 20
848.04700560157755
 11
391.7526014874278
 21
863.04700560157755
  0
LINE
  8
_0-7_枠細線
  6
CONTINUOUS
 62
    5
 10
384.2526014874278
 20
848.04700560157755
 11
399.2526014874278
 21
848.04700560157755
  0
LINE
  8
_0-7_枠細線
  6
CONTINUOUS
 62
    5
 10
391.7526014874278
 20
863.04700560157755
 11
384.2526014874278
 21
848.04700560157755
  0
TEXT
  8
_0-7_枠細線
 62
    5
 10
386.61775275557596
 20
847.74000335619689
 40
12.5
 41
0.8
 50
0
  1
１
  0
LINE
  8
_0-1_計細線
  6
CONTINUOUS
 62
    3
 10
318.96031080882051
 20
638.07637075717741
 11
377.96031080882051
 21
638.07637075717741
  0
LINE
  8
_0-1_計細線
  6
CONTINUOUS
 62
    3
 10
377.96031080882051
 20
642.77637075717723
 11
318.96031080882051
 21
642.77637075717723
  0
LINE
  8
_0-1_計細線
  6
CONTINUOUS
 62
    3
 10
318.96031080882051
 20
642.77637075717723
 11
318.96031080882051
 21
638.07637075717741
  0
LINE
  8
_0-1_計細線
  6
CONTINUOUS
 62
    3
 10
367.96031080882051
 20
642.77637075717723
 11
367.96031080882051
 21
638.07637075717741
  0
LINE
  8
_0-1_計細線
  6
CONTINUOUS
 62
    3
 10
375.96031080882051
 20
642.77637075717723
 11
375.96031080882051
 21
638.07637075717741
  0
LINE
  8
_0-1_計細線
  6
CONTINUOUS
 62
    3
 10
377.96031080882051
 20
642.77637075717723
 11
377.96031080882051
 21
638.07637075717741
  0
LINE
  8
_0-1_計細線
  6
CONTINUOUS
 62
    3
 10
373.96031080882051
 20
642.77637075717723
 11
373.96031080882051
 21
638.07637075717741
  0
LINE
  8
_0-1_計細線
  6
CONTINUOUS
 62
    3
 10
371.96031080882051
 20
642.77637075717723
 11
371.96031080882051
 21
638.07637075717741
  0
LINE
  8
_0-1_計細線
  6
CONTINUOUS
 62
    3
 10
369.96031080882057
 20
642.77637075717723
 11
369.96031080882057
 21
638.07637075717741
  0
LINE
  8
_0-0_計極細
  6
CONTINUOUS
 62
    2
 10
357.46031080882096
 20
643.22637075717478
 11
357.46031080882096
 21
642.77637075717723
  0
LINE
  8
_0-0_計極細
  6
CONTINUOUS
 62
    2
 10
357.46031080882096
 20
638.07637075717741
 11
357.46031080882096
 21
637.62637075717441
  0
LINE
  8
_0-0_計極細
  6
CONTINUOUS
 62
    2
 10
370.46031080882096
 20
643.22637075717478
 11
370.46031080882096
 21
642.77637075717723
  0
LINE
  8
_0-0_計極細
  6
CONTINUOUS
 62
    2
 10
370.46031080882096
 20
638.07637075717741
 11
370.46031080882096
 21
637.62637075717441
  0
TEXT
  8
_0-5_寸法線
 62
    7
 10
395.67816199889603
 20
426.29800198642414
 40
15
 41
0.8000000000000001
 50
0
  1
(標準付属)
  0
LINE
  8
_0-5_寸法線
  6
CONTINUOUS
 62
    7
 10
337.25893211712344
 20
639.14510969143919
 11
342.25893211712338
 21
630.48485565359476
  0
LINE
  8
_0-5_寸法線
  6
CONTINUOUS
 62
    7
 10
337.25893211712344
 20
639.14510969143919
 11
337.25893211712338
 21
629.14510969143919
  0
LINE
  8
_0-5_寸法線
  6
CONTINUOUS
 62
    7
 10
337.25893211712344
 20
639.14510969143919
 11
389.75991391765973
 21
443.20877816458517
  0
LINE
  8
_0-5_寸法線
  6
CONTINUOUS
 62
    7
 10
389.75991391765973
 20
443.20877816458517
 11
449.75991391765973
 21
443.20877816458517
  0
TEXT
  8
_0-5_寸法線
 62
    7
 10
389.75991391765973
 20
443.20877816458517
 40
15
 41
0.8000000000000001
 50
0
  1
取　外　具
  0
TEXT
  8
_0-7_枠細線
 62
    5
 10
392.28228142472511
 20
461.39280199036415
 40
12.5
 41
0.8
 50
0
  1
２
  0
LINE
  8
_0-7_枠細線
  6
CONTINUOUS
 62
    5
 10
404.91713015657695
 20
461.69980423574464
 11
397.41713015657695
 21
476.69980423574464
  0
LINE
  8
_0-7_枠細線
  6
CONTINUOUS
 62
    5
 10
389.91713015657695
 20
461.69980423574464
 11
404.91713015657695
 21
461.69980423574464
  0
LINE
  8
_0-7_枠細線
  6
CONTINUOUS
 62
    5
 10
397.41713015657695
 20
476.69980423574464
 11
389.91713015657695
 21
461.69980423574464
  0
LINE
  8
_0-5_寸法線
  6
CONTINUOUS
 62
    7
 10
479.45047979634666
 20
487.40137075717769
 11
484.4504798074712
 21
478.741116725756
  0
LINE
  8
_0-5_寸法線
  6
CONTINUOUS
 62
    7
 10
479.45047979634666
 20
487.40137075717769
 11
479.45047980919213
 21
477.40137075717769
  0
LINE
  8
_0-5_寸法線
  6
CONTINUOUS
 62
    7
 10
479.45047979634666
 20
487.40137075717769
 11
491.29184935381261
 21
443.20877816458517
  0
LINE
  8
_0-5_寸法線
  6
CONTINUOUS
 62
    7
 10
491.29184935381261
 20
443.20877816458517
 11
599.29184935381261
 21
443.20877816458517
  0
TEXT
  8
_0-5_寸法線
 62
    7
 10
491.29184935381261
 20
443.80877816458508
 40
15
 41
0.8000000000000001
 50
0
  1
ＳＵＳアングル受枠
  0
TEXT
  8
_0-5_寸法線
 62
    7
 10
491.29184935381261
 20
428.20877816458517
 40
15
 41
0.8000000000000001
 50
0
  1
ＧＳＬ－２０
  0
LINE
  8
_0-1_計細線
  6
CONTINUOUS
 62
    3
 10
251.96031080882085
 20
626.22637075717478
 11
834.96031080882085
 21
626.22637075717478
  0
LINE
  8
_0-1_計細線
  6
CONTINUOUS
 62
    3
 10
834.96031080882085
 20
637.62637075717441
 11
834.96031080882085
 21
626.22637075717478
  0
LINE
  8
_0-0_計極細
  6
CONTINUOUS
 62
    2
 10
251.96031080882085
 20
629.4263707571746
 11
834.96031080882085
 21
629.4263707571746
  0
LINE
  8
_0-0_計極細
  6
CONTINUOUS
 62
    2
 10
251.96031080882085
 20
634.4263707571746
 11
834.96031080882085
 21
634.4263707571746
  0
LINE
  8
_0-1_計細線
  6
CONTINUOUS
 62
    3
 10
251.96031080882085
 20
637.62637075717441
 11
834.96031080882085
 21
637.62637075717441
  0
LINE
  8
_0-1_計細線
  6
CONTINUOUS
 62
    3
 10
251.96031080882085
 20
637.62637075717441
 11
251.96031080882085
 21
626.22637075717478
  0
LINE
  8
_0-1_計細線
  6
CONTINUOUS
 62
    3
 10
251.96031080882085
 20
654.62637075717623
 11
834.96031080882085
 21
654.62637075717623
  0
LINE
  8
_0-1_計細線
  6
CONTINUOUS
 62
    3
 10
834.96031080882085
 20
654.62637075717623
 11
834.96031080882085
 21
643.22637075717478
  0
LINE
  8
_0-0_計極細
  6
CONTINUOUS
 62
    2
 10
251.96031080882085
 20
646.42637075717562
 11
834.96031080882085
 21
646.42637075717562
  0
LINE
  8
_0-0_計極細
  6
CONTINUOUS
 62
    2
 10
251.96031080882085
 20
651.42637075717562
 11
834.96031080882085
 21
651.42637075717562
  0
LINE
  8
_0-1_計細線
  6
CONTINUOUS
 62
    3
 10
251.96031080882085
 20
654.62637075717623
 11
251.96031080882085
 21
643.22637075717478
  0
LINE
  8
_0-1_計細線
  6
CONTINUOUS
 62
    3
 10
251.96031080882085
 20
643.22637075717478
 11
834.96031080882085
 21
643.22637075717478
  0
LINE
  8
_0-7_枠細線
  6
CONTINUOUS
 62
    5
 10
423.63111407127337
 20
461.69980423574464
 11
416.13111407127337
 21
476.69980423574464
  0
LINE
  8
_0-7_枠細線
  6
CONTINUOUS
 62
    5
 10
408.63111407127337
 20
461.69980423574464
 11
423.63111407127337
 21
461.69980423574464
  0
LINE
  8
_0-7_枠細線
  6
CONTINUOUS
 62
    5
 10
416.13111407127337
 20
476.69980423574464
 11
408.63111407127337
 21
461.69980423574464
  0
TEXT
  8
_0-7_枠細線
 62
    5
 10
410.99626533942143
 20
461.15212034556328
 40
12.5
 41
0.8
 50
0
  1
３
  0
LINE
  8
_0-9_枠極太
  6
CONTINUOUS
 62
    5
 10
60
 20
60
 11
60
 21
960
  0
LINE
  8
_0-9_枠極太
  6
CONTINUOUS
 62
    5
 10
60
 20
960
 11
1425
 21
960
  0
LINE
  8
_0-9_枠極太
  6
CONTINUOUS
 62
    5
 10
1425
 20
960
 11
1425
 21
60
  0
LINE
  8
_0-9_枠極太
  6
CONTINUOUS
 62
    5
 10
1425
 20
60
 11
60
 21
60
  0
TEXT
  8
_0-7_枠細線
 62
    5
 10
938.85037037037023
 20
840.00000000000068
 40
12.5
 41
1
 50
0
  1
アンカー材質･厚み変更
  0
LINE
  8
_0-5_寸法線
  6
CONTINUOUS
 62
    7
 10
906.46031080881914
 20
795.42637075717653
 11
903.87212035779385
 21
805.08562902006713
  0
LINE
  8
_0-5_寸法線
  6
CONTINUOUS
 62
    7
 10
906.46031080881914
 20
795.42637075717653
 11
909.04850125984422
 21
805.08562902006713
  0
LINE
  8
_0-5_寸法線
  6
CONTINUOUS
 62
    7
 10
866.4603108088204
 20
792.42637075717653
 11
911.46031080881914
 21
792.42637075717653
  0
CIRCLE
  8
_0-5_寸法線
  6
CONTINUOUS
 62
    1
 10
906.46031080881914
 20
792.42637075717653
 40
1.5000000000000002
  0
LINE
  8
_0-5_寸法線
  6
CONTINUOUS
 62
    7
 10
906.46031080881914
 20
820.42637075717653
 11
906.46031080881914
 21
792.42637075717653
  0
TEXT
  8
_0-5_寸法線
 62
    7
 10
906.46031080881914
 20
808.94437838551983
 40
15
 41
1
 50
90
  1
3
  0
LINE
  8
_0-5_寸法線
  6
CONTINUOUS
 62
    7
 10
866.4603108088204
 20
790.42637075717732
 11
911.46031080881914
 21
790.42637075717732
  0
LINE
  8
_0-5_寸法線
  6
CONTINUOUS
 62
    7
 10
906.46031080881914
 20
792.42637075717653
 11
906.46031080881914
 21
790.42637075717732
  0
TEXT
  8
_0-5_寸法線
 62
    7
 10
926.51018041426244
 20
784.98249438499124
 40
15
 41
1
 50
90
  1
2
  0
LINE
  8
_0-5_寸法線
  6
CONTINUOUS
 62
    7
 10
906.46031080881914
 20
790.42637075717732
 11
909.04850125984422
 21
780.76711249428672
  0
LINE
  8
_0-5_寸法線
  6
CONTINUOUS
 62
    7
 10
906.46031080881914
 20
790.42637075717732
 11
903.87212035779385
 21
780.76711249428672
  0
LINE
  8
_0-5_寸法線
  6
CONTINUOUS
 62
    7
 10
866.46031080882096
 20
490.42637075717732
 11
911.46031080881994
 21
490.42637075717732
  0
LINE
  8
_0-5_寸法線
  6
CONTINUOUS
 62
    7
 10
906.46031080881994
 20
490.42637075717732
 11
903.87212035779487
 21
500.08562902006804
  0
LINE
  8
_0-5_寸法線
  6
CONTINUOUS
 62
    7
 10
906.46031080881994
 20
490.42637075717732
 11
909.04850125984524
 21
500.0856290200681
  0
LINE
  8
_0-5_寸法線
  6
CONTINUOUS
 62
    7
 10
906.46031080881914
 20
790.42637075717732
 11
906.46031080881994
 21
490.42637075717732
  0
TEXT
  8
_0-5_寸法線
 62
    7
 10
906.46031080881994
 20
629.17637075717732
 40
15
 41
1
 50
90
  1
300
  0
LINE
  8
_0-5_寸法線
  6
CONTINUOUS
 62
    7
 10
866.46031080882096
 20
488.42637075717732
 11
911.46031080881994
 21
488.42637075717732
  0
CIRCLE
  8
_0-5_寸法線
  6
CONTINUOUS
 62
    1
 10
906.46031080881994
 20
488.42637075717732
 40
1.5000000000000002
  0
LINE
  8
_0-5_寸法線
  6
CONTINUOUS
 62
    7
 10
906.46031080881994
 20
490.42637075717732
 11
906.46031080881994
 21
488.42637075717732
  0
TEXT
  8
_0-5_寸法線
 62
    7
 10
926.35604292362132
 20
488.99605114428715
 40
15
 41
1
 50
90
  1
2
  0
LINE
  8
_0-5_寸法線
  6
CONTINUOUS
 62
    7
 10
906.46031080881994
 20
485.42637075717278
 11
909.04850125984524
 21
475.76711249428206
  0
LINE
  8
_0-5_寸法線
  6
CONTINUOUS
 62
    7
 10
906.46031080881994
 20
485.42637075717278
 11
903.87212035779476
 21
475.76711249428217
  0
LINE
  8
_0-5_寸法線
  6
CONTINUOUS
 62
    7
 10
906.46031080881994
 20
488.42637075717732
 11
906.46031080881994
 21
460.42637075717278
  0
TEXT
  8
_0-5_寸法線
 62
    7
 10
906.46031080881994
 20
462.83513894393786
 40
15
 41
1
 50
90
  1
3
  0
LINE
  8
_0-d_寸法3
  6
CONTINUOUS
 62
    7
 10
234.70508651983465
 20
352.04615486567627
 11
225.04582825694393
 21
349.45796441465114
  0
LINE
  8
_0-d_寸法3
  6
CONTINUOUS
 62
    7
 10
234.70508651983465
 20
352.04615486567627
 11
225.04582825694399
 21
354.63434531670151
  0
LINE
  8
_0-d_寸法3
  6
CONTINUOUS
 62
    7
 10
239.70508651983465
 20
281.21282320068713
 11
239.70508651983465
 21
357.04615486567627
  0
CIRCLE
  8
_0-d_寸法3
  6
CONTINUOUS
 62
    1
 10
239.70508651983465
 20
352.04615486567627
 40
1.5000000000000002
  0
LINE
  8
_0-d_寸法3
  6
CONTINUOUS
 62
    7
 10
209.70508651983465
 20
352.04615486567627
 11
239.70508651983465
 21
352.04615486567627
  0
TEXT
  8
_0-d_寸法3
 62
    7
 10
213.56041857591137
 20
352.04615486567627
 40
15
 41
1
 50
0
  1
3
  0
LINE
  8
_0-d_寸法3
  6
CONTINUOUS
 62
    7
 10
243.03841985316765
 20
278.71282153234279
 11
243.03841985316808
 21
357.04615486567627
  0
LINE
  8
_0-d_寸法3
  6
CONTINUOUS
 62
    7
 10
239.70508651983465
 20
352.04615486567627
 11
243.03841985316808
 21
352.04615486567627
  0
TEXT
  8
_0-d_寸法3
 62
    7
 10
237.62175318650108
 20
352.04615486567627
 40
15
 41
1
 50
0
  1
2
  0
LINE
  8
_0-d_寸法3
  6
CONTINUOUS
 62
    7
 10
243.03841985316808
 20
352.04615486567627
 11
252.69767811605874
 21
354.63434531670146
  0
LINE
  8
_0-d_寸法3
  6
CONTINUOUS
 62
    7
 10
243.03841985316808
 20
352.04615486567627
 11
252.69767811605874
 21
349.45796441465114
  0
LINE
  8
_0-d_寸法3
  6
CONTINUOUS
 62
    7
 10
743.03841985316831
 20
278.71282153234279
 11
743.03841985316831
 21
357.04615486567627
  0
LINE
  8
_0-d_寸法3
  6
CONTINUOUS
 62
    7
 10
743.03841985316831
 20
352.04615486567627
 11
733.37916159027759
 21
349.45796441465114
  0
LINE
  8
_0-d_寸法3
  6
CONTINUOUS
 62
    7
 10
743.03841985316831
 20
352.04615486567627
 11
733.37916159027759
 21
354.63434531670151
  0
LINE
  8
_0-d_寸法3
  6
CONTINUOUS
 62
    7
 10
243.03841985316808
 20
352.04615486567627
 11
743.03841985316831
 21
352.04615486567627
  0
TEXT
  8
_0-d_寸法3
 62
    7
 10
481.78841985316808
 20
352.04615486567627
 40
15
 41
1
 50
0
  1
300
  0
LINE
  8
_0-d_寸法3
  6
CONTINUOUS
 62
    7
 10
746.37175318650134
 20
281.21282320068713
 11
746.37175318650168
 21
357.04615486567627
  0
CIRCLE
  8
_0-d_寸法3
  6
CONTINUOUS
 62
    1
 10
746.37175318650168
 20
352.04615486567627
 40
1.5000000000000002
  0
LINE
  8
_0-d_寸法3
  6
CONTINUOUS
 62
    7
 10
743.03841985316831
 20
352.04615486567627
 11
746.37175318650168
 21
352.04615486567627
  0
TEXT
  8
_0-d_寸法3
 62
    7
 10
740.95508651983505
 20
352.04615486567627
 40
15
 41
1
 50
0
  1
2
  0
LINE
  8
_0-d_寸法3
  6
CONTINUOUS
 62
    7
 10
751.37175318650168
 20
352.04615486567627
 11
761.03101144939228
 21
354.6343453167014
  0
LINE
  8
_0-d_寸法3
  6
CONTINUOUS
 62
    7
 10
751.37175318650168
 20
352.04615486567627
 11
761.03101144939228
 21
349.45796441465109
  0
LINE
  8
_0-d_寸法3
  6
CONTINUOUS
 62
    7
 10
746.37175318650168
 20
352.04615486567627
 11
776.37175318650168
 21
352.04615486567627
  0
TEXT
  8
_0-d_寸法3
 62
    7
 10
764.81995273116911
 20
352.04615486567627
 40
15
 41
1
 50
0
  1
3
  0
ENDSEC
  0
EOF
