  0
SECTION
  2
HEADER
  9
$ACADVER
  1
AC1009
  9
$INSBASE
 10
0
 20
0
 30
0
  9
$EXTMIN
 10
0
 20
0
  9
$EXTMAX
 10
1485
 20
1050
  9
$LIMMIN
 10
0
 20
0
  9
$LIMMAX
 10
1485
 20
1050
  9
$LTSCALE
 40
5
  0
ENDSEC
  0
SECTION
  2
TABLES
  0
TABLE
  2
LTYPE
 70
     9
  0
LTYPE
  2
CONTINUOUS
 70
    64
  3
実線
 72
    65
 73
     0
 40
0.0
  0
LTYPE
  2
DASHED1
 70
    64
  3
--  --  --  --  --  --  --  --  
 72
    65
 73
     2
 40
2.5
 49
1.25
 49
-1.25
  0
LTYPE
  2
DASHED2
 70
    64
  3
----    ----    ----    ----    
 72
    65
 73
     2
 40
5.0
 49
2.5
 49
-2.5
  0
LTYPE
  2
DASHED3
 70
    64
  3
------  ------  ------  ------  
 72
    65
 73
     2
 40
5.0
 49
3.75
 49
-1.25
  0
LTYPE
  2
CENTER1
 70
    64
  3
----- - ----- - ----- - ----- - 
 72
    65
 73
     4
 40
10.0
 49
6.25
 49
-1.25
 49
1.25
 49
-1.25
  0
LTYPE
  2
CENTER2
 70
    64
  3
----------  --  ----------  --  
 72
    65
 73
     4
 40
20.0
 49
12.5
 49
-2.5
 49
2.5
 49
-2.5
  0
LTYPE
  2
PHANTOM1
 70
    64
  3
--- - - --- - - --- - - --- - - 
 72
    65
 73
     6
 40
10.0
 49
3.25
 49
-1.25
 49
1.25
 49
-1.25
 49
1.25
 49
-1.25
  0
LTYPE
  2
PHANTOM2
 70
    64
  3
--------  -  -  --------  -  -  
 72
    65
 73
     6
 40
20.0
 49
10.0
 49
-2.5
 49
1.25
 49
-2.5
 49
1.25
 49
-2.5
  0
LTYPE
  2
DOT
 70
    64
  3
-   -   -   -   -   -   -   -   
 72
    65
 73
     2
 40
2.5
 49
0.625
 49
-1.875
  0
LTYPE
  2
DUMMY
 70
    64
  3
ダミー
 72
    65
 73
     0
 40
0.0
  0
LTYPE
  2
RAND1
 70
    64
  3
ランダム線1
 72
    65
 73
     4
 40
10.0
 49
1.0
 49
-2.0
 49
3.0
 49
-4.0
  0
LTYPE
  2
RAND2
 70
    64
  3
ランダム線2
 72
    65
 73
     4
 40
14.0
 49
2.0
 49
-3.0
 49
4.0
 49
-5.0
  0
LTYPE
  2
RAND3
 70
    64
  3
ランダム線3
 72
    65
 73
     4
 40
18.0
 49
3.0
 49
-4.0
 49
5.0
 49
-6.0
  0
LTYPE
  2
RAND4
 70
    64
  3
ランダム線4
 72
    65
 73
     4
 40
22.0
 49
4.0
 49
-5.0
 49
6.0
 49
-7.0
  0
LTYPE
  2
RAND5
 70
    64
  3
ランダム線5
 72
    65
 73
     4
 40
26.0
 49
5.0
 49
-6.0
 49
7.0
 49
-8.0
  0
LTYPE
  2
LONG1
 70
    64
  3
----------  --  ----------  --  
 72
    65
 73
     4
 40
40.0
 49
32.5
 49
-2.5
 49
2.5
 49
-2.5
  0
LTYPE
  2
LONG2
 70
    64
  3
--------  -  -  --------  -  -  
 72
    65
 73
     6
 40
40.0
 49
30.0
 49
-2.5
 49
1.25
 49
-2.5
 49
1.25
 49
-2.5
  0
LTYPE
  2
LONG3
 70
    64
  3
+++++++++++++++..+++++++++++++++
 72
    65
 73
     2
 40
40.0
 49
37.5
 49
-2.5
  0
LTYPE
  2
LONG4
 70
    64
  3
+++++++++++++++..+++++++++++++++
 72
    65
 73
     2
 40
80.0
 49
75.0
 49
-5.0
  0
LTYPE
  2
LONG5
 70
    64
  3
----------  --  ----------  --  
 72
    65
 73
     4
 40
60.0
 49
37.5
 49
-7.5
 49
7.5
 49
-7.5
  0
LTYPE
  2
dashed
 70
   64
  3
-------   -------------   ------
 72
   65
 73
    2
 40
7.5
 49
6
 49
-1.5
  0
LTYPE
  2
dashed_spaced
 70
   64
  3
----        --------        ----
 72
   65
 73
    2
 40
12
 49
6
 49
-6
  0
LTYPE
  2
long_dashed_dotted
 70
   64
  3
------------- --- --------------
 72
   65
 73
    4
 40
15.25
 49
12
 49
-1.5
 49
0.25
 49
-1.5
  0
LTYPE
  2
long_dashed_double-dotted
 70
   64
  3
----------- --- --- ------------
 72
   65
 73
    6
 40
17
 49
12
 49
-1.5
 49
0.25
 49
-1.5
 49
0.25
 49
-1.5
  0
LTYPE
  2
long_dashed_triplicate-dotted
 70
   64
  3
--------- --- --- --- ----------
 72
   65
 73
    8
 40
18.75
 49
12
 49
-1.5
 49
0.25
 49
-1.5
 49
0.25
 49
-1.5
 49
0.25
 49
-1.5
  0
LTYPE
  2
dotted
 70
   64
  3
   -       -       -       -    
 72
   65
 73
    2
 40
1.75
 49
0.25
 49
-1.5
  0
LTYPE
  2
chain
 70
   64
  3
-------------- -- --------------
 72
   65
 73
    4
 40
18.5
 49
12
 49
-1.5
 49
3.5
 49
-1.5
  0
LTYPE
  2
chain_double_dash
 70
   64
  3
------------ -- -- -------------
 72
   65
 73
    6
 40
23.5
 49
12
 49
-1.5
 49
3.5
 49
-1.5
 49
3.5
 49
-1.5
  0
LTYPE
  2
dashed_dotted
 70
   64
  3
-----------     -     ----------
 72
   65
 73
    4
 40
9.25
 49
6
 49
-1.5
 49
0.25
 49
-1.5
  0
LTYPE
  2
double-dashed_dotted
 70
   64
  3
------   -----------   -   -----
 72
   65
 73
    6
 40
16.75
 49
6
 49
-1.5
 49
6
 49
-1.5
 49
0.25
 49
-1.5
  0
LTYPE
  2
dashed_double-dotted
 70
   64
  3
---------    -    -    ---------
 72
   65
 73
    6
 40
11
 49
6
 49
-1.5
 49
0.25
 49
-1.5
 49
0.25
 49
-1.5
  0
LTYPE
  2
double-dashed_double-dotted
 70
   64
  3
-----   ---------   -   -   ----
 72
   65
 73
    8
 40
18.5
 49
6
 49
-1.5
 49
6
 49
-1.5
 49
0.25
 49
-1.5
 49
0.25
 49
-1.5
  0
LTYPE
  2
dashed_triplicate-dotted
 70
   64
  3
-------    -    -    -    ------
 72
   65
 73
    8
 40
12.75
 49
6
 49
-1.5
 49
0.25
 49
-1.5
 49
0.25
 49
-1.5
 49
0.25
 49
-1.5
  0
LTYPE
  2
double-dashed_triplicate-dotted
 70
   64
  3
-----  ---------  -  -  -  -----
 72
   65
 73
   10
 40
20.25
 49
6
 49
-1.5
 49
6
 49
-1.5
 49
0.25
 49
-1.5
 49
0.25
 49
-1.5
 49
0.25
 49
-1.5
  0
LTYPE
  2
undefined
 70
   64
  3
--------------------------------
 72
   65
 73
    0
 40
0
  0
ENDTAB
  0
TABLE
  2
STYLE
  5
3
100
AcDbSymbolTable
 70
     1
  0
STYLE
  5
10
100
AcDbSymbolTableRecord
100
AcDbTextStyleTableRecord
  2
STANDARD
 70
     0
 40
0.0
 41
1.0
 50
0.0
 71
     0
 42
0.2
  3
txt
  4
bigfont.shx
  0
STYLE
  5
26
100
AcDbSymbolTableRecord
100
AcDbTextStyleTableRecord
  2
TATEGAKI
 70
    68
 40
0.0
 41
1.0
 50
0.0
 71
     0
 42
1.0
  3
txt
  4
bigfont.shx
  0
ENDTAB
  0
TABLE
  2
LAYER
 70
   10
  0
LAYER
  2
_0-0_計極細
 70
   64
 62
    7
  6
CONTINUOUS
  0
LAYER
  2
_0-1_計細線
 70
   64
 62
    7
  6
CONTINUOUS
  0
LAYER
  2
_0-5_寸法線
 70
   64
 62
    7
  6
CONTINUOUS
  0
LAYER
  2
_0-7_枠細線
 70
   64
 62
    7
  6
CONTINUOUS
  0
LAYER
  2
_0-8_枠中線
 70
   64
 62
    7
  6
CONTINUOUS
  0
LAYER
  2
_0-9_枠極太
 70
   64
 62
    7
  6
CONTINUOUS
  0
LAYER
  2
_0-a_極細3
 70
   64
 62
    7
  6
CONTINUOUS
  0
LAYER
  2
_0-b_細線3
 70
   64
 62
    7
  6
CONTINUOUS
  0
LAYER
  2
_0-d_寸法3
 70
   64
 62
    7
  6
CONTINUOUS
  0
LAYER
  2
ADD_LINE
 70
   64
 62
    7
  6
CONTINUOUS
  0
ENDTAB
  0
ENDSEC
  0
SECTION
  2
BLOCKS
  0
ENDSEC
  0
SECTION
  2
ENTITIES
  0
LINE
  8
_0-7_枠細線
  6
CONTINUOUS
 62
    5
 10
1185
 20
180
 11
1185
 21
100
  0
TEXT
  8
_0-7_枠細線
 62
    5
 10
937.5
 20
97.5
 40
17.5
 41
1
 50
0
  1
備考
  7
TATEGAKI
  0
TEXT
  8
_0-7_枠細線
 62
    5
 10
937.5
 20
137.5
 40
17.5
 41
1
 50
0
  1
品番
  7
TATEGAKI
  0
TEXT
  8
_0-7_枠細線
 62
    5
 10
937.5
 20
177.5
 40
17.5
 41
1
 50
0
  1
品名
  7
TATEGAKI
  0
LINE
  8
_0-7_枠細線
  6
CONTINUOUS
 62
    5
 10
1185
 20
140
 11
925
 21
140
  0
LINE
  8
_0-7_枠細線
  6
CONTINUOUS
 62
    5
 10
950
 20
180
 11
950
 21
60
  0
LINE
  8
_0-8_枠中線
  6
CONTINUOUS
 62
    5
 10
1425
 20
180
 11
925
 21
180
  0
LINE
  8
_0-8_枠中線
  6
CONTINUOUS
 62
    5
 10
925
 20
180
 11
925
 21
60
  0
LINE
  8
_0-7_枠細線
  6
CONTINUOUS
 62
    5
 10
1245
 20
180
 11
1245
 21
60
  0
TEXT
  8
_0-7_枠細線
 62
    5
 10
1192.5
 20
160
 40
15
 41
1
 50
0
  1
縮　尺
  0
TEXT
  8
_0-7_枠細線
 62
    5
 10
1194
 20
117.5
 40
20
 41
0.7
 50
0
  1
１：５
  0
LINE
  8
_0-7_枠細線
  6
CONTINUOUS
 62
    5
 10
1185
 20
155
 11
1245
 21
155
  0
LINE
  8
_0-7_枠細線
  6
CONTINUOUS
 62
    5
 10
1245
 20
100
 11
925
 21
100
  0
LINE
  8
_0-7_枠細線
  6
CONTINUOUS
 62
    5
 10
1425
 20
90
 11
1245
 21
90
  0
LINE
  8
_0-7_枠細線
  6
CONTINUOUS
 62
    5
 10
1245
 20
120
 11
1425
 21
120
  0
LINE
  8
_0-7_枠細線
  6
CONTINUOUS
 62
    5
 10
1425
 20
140
 11
1245
 21
140
  0
TEXT
  8
_0-7_枠細線
 62
    5
 10
1255
 20
147.5
 40
25
 41
0.8
 50
0
  1
株式会社シマブン
  0
TEXT
  8
_0-7_枠細線
 62
    5
 10
1252.5
 20
60
 40
15
 41
1
 50
0
  1
年月日
  0
TEXT
  8
_0-7_枠細線
 62
    5
 10
1252.5
 20
75
 40
15
 41
1
 50
0
  1
作　成
  0
TEXT
  8
_0-7_枠細線
 62
    5
 10
1250
 20
95
 40
20
 41
1
 50
0
  1
島 英
  0
TEXT
  8
_0-7_枠細線
 62
    5
 10
1256.25
 20
122.5
 40
15
 41
1
 50
0
  1
承 認
  0
LINE
  8
_0-7_枠細線
  6
CONTINUOUS
 62
    5
 10
1305
 20
140
 11
1305
 21
60
  0
TEXT
  8
_0-7_枠細線
 62
    5
 10
1315
 20
95
 40
20
 41
1
 50
0
  1
隠塚
  0
TEXT
  8
_0-7_枠細線
 62
    5
 10
1316.25
 20
122.5
 40
15
 41
1
 50
0
  1
検 図
  0
LINE
  8
_0-7_枠細線
  6
CONTINUOUS
 62
    5
 10
1365
 20
140
 11
1365
 21
90
  0
TEXT
  8
_0-7_枠細線
 62
    5
 10
1375
 20
95
 40
20
 41
1
 50
0
  1
藤戸
  0
TEXT
  8
_0-7_枠細線
 62
    5
 10
1376.25
 20
122.5
 40
15
 41
1
 50
0
  1
設 計
  0
TEXT
  8
_0-7_枠細線
 62
    5
 10
965.50000000000011
 20
150
 40
20
 41
0.6
 50
0
  1
セーフティグレーチングＨ２５タイプ
  0
LINE
  8
_0-a_極細3
  6
CENTER1
 62
    7
 10
493.0754906479404
 20
227.52662871355932
 11
493.0754906479404
 21
299.30996204689893
  0
LINE
  8
_0-a_極細3
  6
CONTINUOUS
 62
    7
 10
293.07549064793989
 20
232.04579153234243
 11
293.07549064793989
 21
163.71245819900892
  0
LINE
  8
_0-a_極細3
  6
CONTINUOUS
 62
    7
 10
376.40882398127337
 20
163.71245819900892
 11
293.07549064793989
 21
163.71245819900892
  0
LINE
  8
_0-a_極細3
  6
CONTINUOUS
 62
    7
 10
293.07549064793989
 20
232.04579153234243
 11
262.23107683615876
 21
232.04579153234243
  0
LINE
  8
_0-a_極細3
  6
CONTINUOUS
 62
    7
 10
376.40882398127337
 20
163.71245819900892
 11
376.40882398127337
 21
137.47085790423
  0
LINE
  8
_0-a_極細3
  6
CONTINUOUS
 62
    7
 10
338.98684941628358
 20
137.4708580206667
 11
365.22844959462623
 21
163.71245819900892
  0
LINE
  8
_0-a_極細3
  6
CONTINUOUS
 62
    7
 10
268.2761715176423
 20
137.47085824067989
 11
294.51777147597141
 21
163.71245819900892
  0
LINE
  8
_0-a_極細3
  6
CONTINUOUS
 62
    7
 10
262.23107683615876
 20
202.1364416778512
 11
292.14042669064997
 21
232.04579153234243
  0
LINE
  8
_0-a_極細3
  6
CONTINUOUS
 62
    7
 10
331.9157816264194
 20
137.47085804266831
 11
358.15738178276047
 21
163.71245819900892
  0
LINE
  8
_0-a_極細3
  6
CONTINUOUS
 62
    7
 10
262.23107683615876
 20
138.49683137106211
 11
293.07549064793989
 21
169.34124518284321
  0
LINE
  8
_0-a_極細3
  6
CONTINUOUS
 62
    7
 10
262.23107683615876
 20
209.20750948971698
 11
285.06935887878427
 21
232.04579153234243
  0
LINE
  8
_0-a_極細3
  6
CONTINUOUS
 62
    7
 10
324.84471383655568
 20
137.47085806466941
 11
351.08631397089516
 21
163.71245819900892
  0
LINE
  8
_0-a_極細3
  6
CONTINUOUS
 62
    7
 10
262.23107683615876
 20
145.56789918292736
 11
293.07549064793989
 21
176.41231299470903
  0
LINE
  8
_0-a_極細3
  6
CONTINUOUS
 62
    7
 10
262.23107683615876
 20
216.27857730158226
 11
277.99829106691891
 21
232.04579153234243
  0
CIRCLE
  8
_0-a_極細3
  6
CONTINUOUS
 62
    7
 10
280.12696467932597
 20
247.24920194900224
 40
0.5530864197530718
  0
CIRCLE
  8
_0-a_極細3
  6
CONTINUOUS
 62
    7
 10
269.79610048179552
 20
237.29364639344695
 40
0.5530864197530718
  0
CIRCLE
  8
_0-a_極細3
  6
CONTINUOUS
 62
    7
 10
280.40350788920279
 20
238.36031306011358
 40
0.5530864197530718
  0
CIRCLE
  8
_0-a_極細3
  6
CONTINUOUS
 62
    7
 10
293.02573011142499
 20
240.31586861566907
 40
0.5530864197530718
  0
CIRCLE
  8
_0-a_極細3
  6
CONTINUOUS
 62
    7
 10
321.47017455586888
 20
252.04920194900222
 40
0.5530864197530718
  0
CIRCLE
  8
_0-a_極細3
  6
CONTINUOUS
 62
    7
 10
346.35906344475757
 20
262.00475750455769
 40
0.5530864197530718
  0
CIRCLE
  8
_0-a_極細3
  6
CONTINUOUS
 62
    7
 10
352.04795233364644
 20
245.82697972678005
 40
0.5530864197530718
  0
CIRCLE
  8
_0-a_極細3
  6
CONTINUOUS
 62
    7
 10
327.15906344475775
 20
245.29364639344675
 40
0.5530864197530718
  0
CIRCLE
  8
_0-a_極細3
  6
CONTINUOUS
 62
    7
 10
315.42573011142463
 20
260.22697972677986
 40
0.5530864197530718
  0
CIRCLE
  8
_0-a_極細3
  6
CONTINUOUS
 62
    7
 10
299.97017455586933
 20
233.06031306011337
 40
0.5530864197530718
  0
CIRCLE
  8
_0-a_極細3
  6
CONTINUOUS
 62
    7
 10
320.41461900031322
 20
231.8158686156691
 40
0.5530864197530718
  0
CIRCLE
  8
_0-a_極細3
  6
CONTINUOUS
 62
    7
 10
345.48128566697983
 20
228.08253528233575
 40
0.5530864197530718
  0
CIRCLE
  8
_0-a_極細3
  6
CONTINUOUS
 62
    7
 10
332.85906344475757
 20
222.39364639344686
 40
0.5530864197530718
  0
CIRCLE
  8
_0-a_極細3
  6
CONTINUOUS
 62
    7
 10
318.1035078892026
 20
208.88253528233571
 40
0.5530864197530718
  0
CIRCLE
  8
_0-a_極細3
  6
CONTINUOUS
 62
    7
 10
345.48128566697983
 20
216.17142417122494
 40
0.5530864197530718
  0
CIRCLE
  8
_0-a_極細3
  6
CONTINUOUS
 62
    7
 10
304.37017455586897
 20
189.06031306011408
 40
0.5530864197530718
  0
CIRCLE
  8
_0-a_極細3
  6
CONTINUOUS
 62
    7
 10
298.6812856669801
 20
171.10475750455834
 40
0.5530864197530718
  0
CIRCLE
  8
_0-a_極細3
  6
CONTINUOUS
 62
    7
 10
307.39239677809138
 20
177.86031306011381
 40
0.5530864197530718
  0
CIRCLE
  8
_0-a_極細3
  6
CONTINUOUS
 62
    7
 10
313.6146190003135
 20
169.32697972678051
 40
0.5530864197530718
  0
CIRCLE
  8
_0-a_極細3
  6
CONTINUOUS
 62
    7
 10
352.91461900031322
 20
187.21586861566962
 40
0.5530864197530718
  0
CIRCLE
  8
_0-a_極細3
  6
CONTINUOUS
 62
    7
 10
341.71461900031341
 20
181.70475750455822
 40
0.5530864197530718
  0
CIRCLE
  8
_0-a_極細3
  6
CONTINUOUS
 62
    7
 10
347.93684122253558
 20
179.21586861566965
 40
0.5530864197530718
  0
CIRCLE
  8
_0-a_極細3
  6
CONTINUOUS
 62
    7
 10
344.38128566697992
 20
169.97142417122512
 40
0.5530864197530718
  0
CIRCLE
  8
_0-a_極細3
  6
CONTINUOUS
 62
    7
 10
364.29239677809102
 20
171.03809083789173
 40
0.5530864197530718
  0
CIRCLE
  8
_0-a_極細3
  6
CONTINUOUS
 62
    7
 10
377.27017455586861
 20
174.23809083789195
 40
0.5530864197530718
  0
CIRCLE
  8
_0-a_極細3
  6
CONTINUOUS
 62
    7
 10
390.95906344475748
 20
159.30475750455855
 40
0.5530864197530718
  0
CIRCLE
  8
_0-a_極細3
  6
CONTINUOUS
 62
    7
 10
384.02573011142408
 20
144.37142417122516
 40
0.5530864197530718
  0
CIRCLE
  8
_0-a_極細3
  6
CONTINUOUS
 62
    7
 10
367.35906344475757
 20
187.98623898603972
 40
0.5530864197530718
  0
CIRCLE
  8
_0-a_極細3
  6
CONTINUOUS
 62
    7
 10
382.11461900031304
 20
222.11957231937291
 40
0.5530864197530718
  0
CIRCLE
  8
_0-a_極細3
  6
CONTINUOUS
 62
    7
 10
397.22573011142396
 20
212.16401676381764
 40
0.5530864197530718
  0
CIRCLE
  8
_0-a_極細3
  6
CONTINUOUS
 62
    7
 10
397.7590634447572
 20
194.20846120826184
 40
0.5530864197530718
  0
CIRCLE
  8
_0-a_極細3
  6
CONTINUOUS
 62
    7
 10
362.51461900031313
 20
223.94179454159524
 40
0.5530864197530718
  0
CIRCLE
  8
_0-a_極細3
  6
CONTINUOUS
 62
    7
 10
342.22573011142435
 20
245.9257451588789
 40
1.825531472681392
  0
CIRCLE
  8
_0-a_極細3
  6
CONTINUOUS
 62
    7
 10
290.46361040998931
 20
252.85535943357687
 40
1.825531472681392
  0
CIRCLE
  8
_0-a_極細3
  6
CONTINUOUS
 62
    7
 10
339.40350788920227
 20
212.99241182554596
 40
1.825531472681392
  0
CIRCLE
  8
_0-a_極細3
  6
CONTINUOUS
 62
    7
 10
317.00350788920218
 20
223.12574515887917
 40
1.825531472681392
  0
CIRCLE
  8
_0-a_極細3
  6
CONTINUOUS
 62
    7
 10
297.40350788920227
 20
185.12574515887962
 40
1.825531472681392
  0
CIRCLE
  8
_0-a_極細3
  6
CONTINUOUS
 62
    7
 10
350.60350788920169
 20
172.3257451588799
 40
1.825531472681392
  0
CIRCLE
  8
_0-a_極細3
  6
CONTINUOUS
 62
    7
 10
386.58128566697934
 20
168.72574515887999
 40
1.825531472681392
  0
CIRCLE
  8
_0-a_極細3
  6
CONTINUOUS
 62
    7
 10
391.38128566697901
 20
150.05907849221344
 40
1.825531472681392
  0
LINE
  8
_0-a_極細3
  6
CONTINUOUS
 62
    7
 10
351.40882398127337
 20
285.37912486567564
 11
351.40882398127337
 21
273.71245819900889
  0
LINE
  8
_0-a_極細3
  6
CONTINUOUS
 62
    7
 10
351.40882398127337
 20
285.37912486567564
 11
262.23107683615876
 21
285.37912486567564
  0
LINE
  8
_0-a_極細3
  6
CONTINUOUS
 62
    7
 10
359.74215731460686
 20
273.71245819900889
 11
262.23107683615876
 21
273.71245819900889
  0
LINE
  8
_0-a_極細3
  6
CONTINUOUS
 62
    7
 10
359.74215731460686
 20
285.37912486567564
 11
351.40882398127337
 21
285.37912486567564
  0
LINE
  8
_0-a_極細3
  6
CONTINUOUS
 62
    7
 10
359.74215731460686
 20
284.54579153234238
 11
359.74215731460686
 21
285.37912486567564
  0
LINE
  8
_0-a_極細3
  6
CONTINUOUS
 62
    7
 10
359.54406705824732
 20
273.71245819900889
 11
359.7421573146064
 21
273.91054845536826
  0
LINE
  8
_0-a_極細3
  6
CONTINUOUS
 62
    7
 10
355.30142637112817
 20
273.71245819900889
 11
359.74215731460686
 21
278.15318914248758
  0
LINE
  8
_0-a_極細3
  6
CONTINUOUS
 62
    7
 10
351.40882398127337
 20
274.06249649627364
 11
359.74215731460686
 21
282.3958298296069
  0
LINE
  8
_0-a_極細3
  6
CONTINUOUS
 62
    7
 10
351.40882398127337
 20
278.30513718339273
 11
358.48281166355605
 21
285.37912486567564
  0
LINE
  8
_0-a_極細3
  6
CONTINUOUS
 62
    7
 10
351.40882398127337
 20
282.54777787051205
 11
354.24017097643696
 21
285.37912486567564
  0
LINE
  8
_0-a_極細3
  6
CONTINUOUS
 62
    7
 10
359.74215731460686
 20
283.0981579934172
 11
357.46119044234842
 21
285.37912486567564
  0
LINE
  8
_0-a_極細3
  6
CONTINUOUS
 62
    7
 10
359.74215731460686
 20
278.85551730629788
 11
353.21854975522888
 21
285.37912486567564
  0
LINE
  8
_0-a_極細3
  6
CONTINUOUS
 62
    7
 10
351.40882398127337
 20
282.94620995251205
 11
359.74215731460686
 21
274.61287661917856
  0
LINE
  8
_0-a_極細3
  6
CONTINUOUS
 62
    7
 10
351.40882398127337
 20
278.70356926539273
 11
356.39993504765675
 21
273.71245819900889
  0
LINE
  8
_0-a_極細3
  6
CONTINUOUS
 62
    7
 10
351.40882398127337
 20
274.46092857827341
 11
352.15729436053772
 21
273.71245819900889
  0
LINE
  8
_0-a_極細3
  6
CONTINUOUS
 62
    7
 10
342.57350430364278
 20
273.71245819288163
 11
351.40882398127337
 21
282.54777787051205
  0
LINE
  8
_0-a_極細3
  6
CONTINUOUS
 62
    7
 10
321.36030085333527
 20
273.71245817817032
 11
333.02696754084059
 21
285.37912486567564
  0
LINE
  8
_0-a_極細3
  6
CONTINUOUS
 62
    7
 10
300.14709740302737
 20
273.71245816345902
 11
311.81376410524376
 21
285.37912486567564
  0
LINE
  8
_0-a_極細3
  6
CONTINUOUS
 62
    7
 10
278.93389395271953
 20
273.71245814874771
 11
290.60056066964739
 21
285.37912486567564
  0
LINE
  8
_0-a_極細3
  6
CONTINUOUS
 62
    7
 10
262.23107683615876
 20
278.22284446778315
 11
269.38735723405102
 21
285.37912486567564
  0
LINE
  8
_0-a_極細3
  6
DASHED2
 62
    7
 10
331.966902578489
 20
273.71245818552609
 11
343.63356925863877
 21
285.37912486567586
  0
LINE
  8
_0-a_極細3
  6
DASHED2
 62
    7
 10
310.7536991281811
 20
273.71245817081478
 11
322.42036582304246
 21
285.37912486567564
  0
LINE
  8
_0-a_極細3
  6
DASHED2
 62
    7
 10
289.54049567787365
 20
273.71245815610348
 11
301.20716238744563
 21
285.37912486567564
  0
LINE
  8
_0-a_極細3
  6
DASHED2
 62
    7
 10
268.32729222756575
 20
273.71245814139218
 11
279.99395895184921
 21
285.37912486567564
  0
CIRCLE
  8
_0-a_極細3
  6
CONTINUOUS
 62
    7
 10
269.79610048179552
 20
266.91339947986637
 40
0.5530864197530718
  0
CIRCLE
  8
_0-a_極細3
  6
CONTINUOUS
 62
    7
 10
284.84795233364707
 20
266.3603130601133
 40
0.5530864197530718
  0
CIRCLE
  8
_0-a_極細3
  6
CONTINUOUS
 62
    7
 10
330.1812856669801
 20
260.40475750455778
 40
0.5530864197530718
  0
CIRCLE
  8
_0-a_極細3
  6
CONTINUOUS
 62
    7
 10
329.42573011142463
 20
264.72574515887879
 40
1.825531472681392
  0
CIRCLE
  8
_0-a_極細3
  6
CONTINUOUS
 62
    7
 10
270.26653086891002
 20
253.7479673811012
 40
1.825531472681392
  0
LINE
  8
_0-a_極細3
  6
CONTINUOUS
 62
    7
 10
408.90882398127337
 20
238.71245819900892
 11
409.74215731460686
 21
238.71245819900892
  0
LINE
  8
_0-a_極細3
  6
CONTINUOUS
 62
    7
 10
409.74215731460686
 20
238.71245819900892
 11
409.74215731460686
 21
137.47085790423
  0
ARC
  8
_0-b_細線3
  6
CONTINUOUS
 62
    7
 10
364.74215731460686
 20
243.71245819900892
 40
5
 50
179.99999999999983
 51
269.99999999999977
  0
LINE
  8
_0-b_細線3
  6
CONTINUOUS
 62
    7
 10
359.74215731460686
 20
243.71245819900892
 11
359.74215731460686
 21
284.54579153234238
  0
LINE
  8
_0-b_細線3
  6
CONTINUOUS
 62
    7
 10
364.74215731460686
 20
238.71245819900892
 11
408.90882398127337
 21
238.71245819900892
  0
LINE
  8
_0-b_細線3
  6
CONTINUOUS
 62
    7
 10
409.74215731460686
 20
239.54579153234243
 11
408.90882398127337
 21
238.71245819900892
  0
LINE
  8
_0-b_細線3
  6
CONTINUOUS
 62
    7
 10
409.74215731460686
 20
242.87912486567566
 11
409.74215731460686
 21
239.54579153234243
  0
LINE
  8
_0-b_細線3
  6
CONTINUOUS
 62
    7
 10
408.90882398127337
 20
243.71245819900892
 11
409.74215731460686
 21
242.87912486567566
  0
LINE
  8
_0-b_細線3
  6
CONTINUOUS
 62
    7
 10
364.74215731460686
 20
243.71245819900892
 11
408.90882398127337
 21
243.71245819900892
  0
LINE
  8
_0-b_細線3
  6
CONTINUOUS
 62
    7
 10
360.57549064793989
 20
285.37912486567564
 11
359.74215731460686
 21
284.54579153234238
  0
LINE
  8
_0-b_細線3
  6
CONTINUOUS
 62
    7
 10
363.90882398127337
 20
285.37912486567564
 11
360.57549064793989
 21
285.37912486567564
  0
LINE
  8
_0-b_細線3
  6
CONTINUOUS
 62
    7
 10
364.74215731460686
 20
284.54579153234238
 11
363.90882398127337
 21
285.37912486567564
  0
LINE
  8
_0-b_細線3
  6
CONTINUOUS
 62
    7
 10
364.74215731460686
 20
243.71245819900892
 11
364.74215731460686
 21
284.54579153234238
  0
CIRCLE
  8
_0-a_極細3
  6
CONTINUOUS
 62
    7
 10
402.85472316697792
 20
222.72574515887953
 40
1.825531472681392
  0
CIRCLE
  8
_0-a_極細3
  6
CONTINUOUS
 62
    7
 10
401.86276714846082
 20
168.01586861566983
 40
0.5530864197530718
  0
CIRCLE
  8
_0-a_極細3
  6
CONTINUOUS
 62
    7
 10
403.1961004817947
 20
145.35979758249971
 40
0.5530864197530718
  0
CIRCLE
  8
_0-a_極細3
  6
CONTINUOUS
 62
    7
 10
390.82573011141972
 20
203.6146340477687
 40
1.825531472681392
  0
LINE
  8
_0-a_極細3
  6
CONTINUOUS
 62
    7
 10
693.07549064794057
 20
232.04579153234243
 11
693.07549064794057
 21
163.71245819900892
  0
LINE
  8
_0-a_極細3
  6
CONTINUOUS
 62
    7
 10
609.74215731460708
 20
163.71245819900892
 11
693.07549064794057
 21
163.71245819900892
  0
LINE
  8
_0-a_極細3
  6
CONTINUOUS
 62
    7
 10
693.07549064794057
 20
232.04579153234243
 11
723.91990445972169
 21
232.04579153234243
  0
LINE
  8
_0-a_極細3
  6
CONTINUOUS
 62
    7
 10
609.74215731460708
 20
163.71245819900892
 11
609.74215731460708
 21
137.47085790423
  0
LINE
  8
_0-a_極細3
  6
CONTINUOUS
 62
    7
 10
701.36549306253346
 20
137.47085790423
 11
723.91990450126241
 21
160.02526934295901
  0
LINE
  8
_0-a_極細3
  6
CONTINUOUS
 62
    7
 10
630.65481494387859
 20
137.47085790423
 11
656.89641523865748
 21
163.71245819900892
  0
LINE
  8
_0-a_極細3
  6
CONTINUOUS
 62
    7
 10
693.07549064794057
 20
199.89153360829158
 11
723.9199044604776
 21
230.73594742082847
  0
LINE
  8
_0-a_極細3
  6
CONTINUOUS
 62
    7
 10
694.2944252506677
 20
137.47085790423
 11
723.91990449718378
 21
167.09633715074617
  0
LINE
  8
_0-a_極細3
  6
CONTINUOUS
 62
    7
 10
623.58374713201283
 20
137.47085790423
 11
649.82534742679218
 21
163.71245819900892
  0
LINE
  8
_0-a_極細3
  6
CONTINUOUS
 62
    7
 10
693.07549064794057
 20
206.96260142015731
 11
718.15868058057504
 21
232.04579135279204
  0
LINE
  8
_0-a_極細3
  6
CONTINUOUS
 62
    7
 10
687.2233574388024
 20
137.47085790423
 11
723.91990449310515
 21
174.16740495853276
  0
LINE
  8
_0-a_極細3
  6
CONTINUOUS
 62
    7
 10
616.51267932014753
 20
137.47085790423
 11
642.75427961492642
 21
163.71245819900892
  0
LINE
  8
_0-a_極細3
  6
CONTINUOUS
 62
    7
 10
693.07549064794057
 20
214.03366923202265
 11
711.08761281932584
 21
232.04579140340812
  0
CIRCLE
  8
_0-a_極細3
  6
CONTINUOUS
 62
    7
 10
596.14795233364475
 20
222.56679454159524
 40
0.5530864197530718
  0
CIRCLE
  8
_0-a_極細3
  6
CONTINUOUS
 62
    7
 10
606.10350788920005
 20
227.36679454159517
 40
0.5530864197530718
  0
CIRCLE
  8
_0-a_極細3
  6
CONTINUOUS
 62
    7
 10
602.01461900031154
 20
202.38901676381758
 40
0.5530864197530718
  0
CIRCLE
  8
_0-a_極細3
  6
CONTINUOUS
 62
    7
 10
619.54795233364439
 20
185.36679454159568
 40
0.5530864197530718
  0
CIRCLE
  8
_0-a_極細3
  6
CONTINUOUS
 62
    7
 10
601.71461900031136
 20
162.06679454159593
 40
0.5530864197530718
  0
CIRCLE
  8
_0-a_極細3
  6
CONTINUOUS
 62
    7
 10
592.38128566697833
 20
144.20012787492908
 40
0.5530864197530718
  0
CIRCLE
  8
_0-a_極細3
  6
CONTINUOUS
 62
    7
 10
603.84795233364457
 20
174.06679454159544
 40
0.5530864197530718
  0
CIRCLE
  8
_0-a_極細3
  6
CONTINUOUS
 62
    7
 10
617.7146190003109
 20
169.26679454159569
 40
0.5530864197530718
  0
CIRCLE
  8
_0-a_極細3
  6
CONTINUOUS
 62
    7
 10
644.64795233364384
 20
169.53346120826211
 40
0.5530864197530718
  0
CIRCLE
  8
_0-a_極細3
  6
CONTINUOUS
 62
    7
 10
632.6479523336443
 20
178.60012787492877
 40
0.5530864197530718
  0
CIRCLE
  8
_0-a_極細3
  6
CONTINUOUS
 62
    7
 10
643.84795233364412
 20
184.20012787492865
 40
0.5530864197530718
  0
CIRCLE
  8
_0-a_極細3
  6
CONTINUOUS
 62
    7
 10
634.35906344475507
 20
258.2223500971503
 40
0.5530864197530718
  0
CIRCLE
  8
_0-a_極細3
  6
CONTINUOUS
 62
    7
 10
631.87017455586647
 20
238.48901676381723
 40
0.5530864197530718
  0
CIRCLE
  8
_0-a_極細3
  6
CONTINUOUS
 62
    7
 10
652.40350788919943
 20
237.77790565270601
 40
0.5530864197530718
  0
CIRCLE
  8
_0-a_極細3
  6
CONTINUOUS
 62
    7
 10
640.80350788919941
 20
223.77790565270624
 40
0.5530864197530718
  0
CIRCLE
  8
_0-a_極細3
  6
CONTINUOUS
 62
    7
 10
680.00350788919877
 20
170.57790565270687
 40
0.5530864197530718
  0
CIRCLE
  8
_0-a_極細3
  6
CONTINUOUS
 62
    7
 10
687.20350788919905
 20
184.57790565270685
 40
0.5530864197530718
  0
CIRCLE
  8
_0-a_極細3
  6
CONTINUOUS
 62
    7
 10
685.60350788919914
 20
205.37790565270657
 40
0.5530864197530718
  0
CIRCLE
  8
_0-a_極細3
  6
CONTINUOUS
 62
    7
 10
667.60350788919925
 20
226.57790565270616
 40
0.5530864197530718
  0
CIRCLE
  8
_0-a_極細3
  6
CONTINUOUS
 62
    7
 10
684.40350788919886
 20
246.17790565270585
 40
0.5530864197530718
  0
CIRCLE
  8
_0-a_極細3
  6
CONTINUOUS
 62
    7
 10
681.60350788919914
 20
219.37790565270635
 40
0.5530864197530718
  0
CIRCLE
  8
_0-a_極細3
  6
CONTINUOUS
 62
    7
 10
711.20350788919859
 20
240.57790565270594
 40
0.5530864197530718
  0
CIRCLE
  8
_0-a_極細3
  6
CONTINUOUS
 62
    7
 10
706.40350788919841
 20
254.34796738110109
 40
1.825531472681392
  0
CIRCLE
  8
_0-a_極細3
  6
CONTINUOUS
 62
    7
 10
690.75906344475425
 20
238.88130071443464
 40
1.825531472681392
  0
CIRCLE
  8
_0-a_極細3
  6
CONTINUOUS
 62
    7
 10
635.33684122253271
 20
245.4590784922122
 40
1.825531472681392
  0
CIRCLE
  8
_0-a_極細3
  6
CONTINUOUS
 62
    7
 10
667.33684122253226
 20
213.45907849221263
 40
1.825531472681392
  0
CIRCLE
  8
_0-a_極細3
  6
CONTINUOUS
 62
    7
 10
596.94239677808946
 20
168.90907849221293
 40
1.825531472681392
  0
CIRCLE
  8
_0-a_極細3
  6
CONTINUOUS
 62
    7
 10
607.16461900031118
 20
198.77574515887972
 40
1.825531472681392
  0
CIRCLE
  8
_0-a_極細3
  6
CONTINUOUS
 62
    7
 10
642.36461900031054
 20
176.37574515887962
 40
1.825531472681392
  0
CIRCLE
  8
_0-a_極細3
  6
CONTINUOUS
 62
    7
 10
688.62981163559425
 20
166.18869276691038
 40
1.825531472681392
  0
CIRCLE
  8
_0-a_極細3
  6
CONTINUOUS
 62
    7
 10
637.96461900031045
 20
219.57574515887922
 40
1.825531472681392
  0
CIRCLE
  8
_0-a_極細3
  6
CONTINUOUS
 62
    7
 10
590.49856961759542
 20
214.15253975184274
 40
0.5530864197530718
  0
CIRCLE
  8
_0-a_極細3
  6
CONTINUOUS
 62
    7
 10
590.69856961759615
 20
190.19698419628747
 40
0.5530864197530718
  0
LINE
  8
_0-a_極細3
  6
CONTINUOUS
 62
    7
 10
634.74215731460708
 20
285.37912486567564
 11
634.74215731460708
 21
273.71245819900889
  0
LINE
  8
_0-a_極細3
  6
CONTINUOUS
 62
    7
 10
634.74215731460708
 20
285.37912486567564
 11
723.91990445972169
 21
285.37912486567564
  0
LINE
  8
_0-a_極細3
  6
CONTINUOUS
 62
    7
 10
626.4088239812736
 20
273.71245819900889
 11
723.91990445972169
 21
273.71245819900889
  0
LINE
  8
_0-a_極細3
  6
CONTINUOUS
 62
    7
 10
626.4088239812736
 20
285.37912486567564
 11
634.74215731460708
 21
285.37912486567564
  0
LINE
  8
_0-a_極細3
  6
CONTINUOUS
 62
    7
 10
626.4088239812736
 20
284.54579153234238
 11
626.4088239812736
 21
285.37912486567564
  0
LINE
  8
_0-a_極細3
  6
CONTINUOUS
 62
    7
 10
634.74215731460663
 20
277.38154447973363
 11
631.07307103388212
 21
273.71245819900889
  0
LINE
  8
_0-a_極細3
  6
CONTINUOUS
 62
    7
 10
634.74215731460663
 20
281.62418516685295
 11
626.83043034676302
 21
273.71245819900889
  0
LINE
  8
_0-a_極細3
  6
CONTINUOUS
 62
    7
 10
626.4088239812736
 20
277.53349252063902
 11
634.25445632631045
 21
285.37912486567564
  0
LINE
  8
_0-a_極細3
  6
CONTINUOUS
 62
    7
 10
626.4088239812736
 20
281.77613320775833
 11
630.0118156391909
 21
285.37912486567564
  0
LINE
  8
_0-a_極細3
  6
CONTINUOUS
 62
    7
 10
634.74215731460708
 20
283.86980265617024
 11
633.23283510510146
 21
285.37912486567564
  0
LINE
  8
_0-a_極細3
  6
CONTINUOUS
 62
    7
 10
634.74215731460708
 20
279.62716196905092
 11
628.99019441798237
 21
285.37912486567564
  0
LINE
  8
_0-a_極細3
  6
CONTINUOUS
 62
    7
 10
634.74215731460708
 20
275.3845212819316
 11
626.4088239812736
 21
283.71785461526486
  0
LINE
  8
_0-a_極細3
  6
CONTINUOUS
 62
    7
 10
632.17157971041024
 20
273.71245819900889
 11
626.4088239812736
 21
279.47521392814576
  0
LINE
  8
_0-a_極細3
  6
CONTINUOUS
 62
    7
 10
627.92893902329115
 20
273.71245819900889
 11
626.4088239812736
 21
275.23257324102644
  0
LINE
  8
_0-a_極細3
  6
CONTINUOUS
 62
    7
 10
703.19796271491032
 20
273.71245819900889
 11
714.86462875478765
 21
285.37912423888667
  0
LINE
  8
_0-a_極細3
  6
CONTINUOUS
 62
    7
 10
681.98475927931349
 20
273.71245819900912
 11
693.65142548513995
 21
285.37912440483512
  0
LINE
  8
_0-a_極細3
  6
CONTINUOUS
 62
    7
 10
660.77155584371712
 20
273.71245819900889
 11
672.43822221549181
 21
285.37912457078357
  0
LINE
  8
_0-a_極細3
  6
CONTINUOUS
 62
    7
 10
639.55835240812075
 20
273.71245819900889
 11
651.22501894584411
 21
285.37912473673225
  0
LINE
  8
_0-a_極細3
  6
DASHED2
 62
    7
 10
713.80456443270862
 20
273.71245819900912
 11
723.91990445972169
 21
283.82779822602231
  0
LINE
  8
_0-a_極細3
  6
DASHED2
 62
    7
 10
692.59136099711168
 20
273.71245819900889
 11
704.25802711996414
 21
285.37912432186079
  0
LINE
  8
_0-a_極細3
  6
DASHED2
 62
    7
 10
671.37815756151542
 20
273.71245819900889
 11
683.04482385031588
 21
285.37912448780946
  0
LINE
  8
_0-a_極細3
  6
DASHED2
 62
    7
 10
650.16495412591894
 20
273.71245819900889
 11
661.83162058066773
 21
285.37912465375791
  0
LINE
  8
_0-a_極細3
  6
DASHED2
 62
    7
 10
634.74215731460663
 20
279.50286482329318
 11
640.61841731102004
 21
285.37912481970636
  0
CIRCLE
  8
_0-a_極細3
  6
CONTINUOUS
 62
    7
 10
715.20350788919859
 20
262.31123898603903
 40
0.5530864197530718
  0
CIRCLE
  8
_0-a_極細3
  6
CONTINUOUS
 62
    7
 10
698.40350788919886
 20
262.31123898603903
 40
0.5530864197530718
  0
CIRCLE
  8
_0-a_極細3
  6
CONTINUOUS
 62
    7
 10
671.60350788919914
 20
265.11123898603898
 40
0.5530864197530718
  0
CIRCLE
  8
_0-a_極細3
  6
CONTINUOUS
 62
    7
 10
682.93684122253228
 20
263.19241182554526
 40
1.825531472681392
  0
CIRCLE
  8
_0-a_極細3
  6
CONTINUOUS
 62
    7
 10
667.60350788919925
 20
257.24457231937265
 40
0.5530864197530718
  0
CIRCLE
  8
_0-a_極細3
  6
CONTINUOUS
 62
    7
 10
667.73684122253246
 20
250.9257451588789
 40
1.825531472681392
  0
CIRCLE
  8
_0-a_極細3
  6
CONTINUOUS
 62
    7
 10
646.40350788919932
 20
263.24457231937242
 40
0.5530864197530718
  0
LINE
  8
_0-a_極細3
  6
CONTINUOUS
 62
    7
 10
577.24215731460663
 20
238.71245819900892
 11
576.4088239812736
 21
238.71245819900892
  0
LINE
  8
_0-a_極細3
  6
CONTINUOUS
 62
    7
 10
576.4088239812736
 20
238.71245819900892
 11
576.4088239812736
 21
137.47085790423
  0
ARC
  8
_0-b_細線3
  6
CONTINUOUS
 62
    7
 10
621.4088239812736
 20
243.71245819900892
 40
5
 50
269.99999999999977
 51
359.99999999999966
  0
LINE
  8
_0-b_細線3
  6
CONTINUOUS
 62
    7
 10
626.4088239812736
 20
243.71245819900892
 11
626.4088239812736
 21
284.54579153234238
  0
LINE
  8
_0-b_細線3
  6
CONTINUOUS
 62
    7
 10
621.4088239812736
 20
238.71245819900892
 11
577.24215731460663
 21
238.71245819900892
  0
LINE
  8
_0-b_細線3
  6
CONTINUOUS
 62
    7
 10
576.4088239812736
 20
239.54579153234243
 11
577.24215731460663
 21
238.71245819900892
  0
LINE
  8
_0-b_細線3
  6
CONTINUOUS
 62
    7
 10
576.4088239812736
 20
242.87912486567566
 11
576.4088239812736
 21
239.54579153234243
  0
LINE
  8
_0-b_細線3
  6
CONTINUOUS
 62
    7
 10
577.24215731460663
 20
243.71245819900892
 11
576.4088239812736
 21
242.87912486567566
  0
LINE
  8
_0-b_細線3
  6
CONTINUOUS
 62
    7
 10
621.4088239812736
 20
243.71245819900892
 11
577.24215731460663
 21
243.71245819900892
  0
LINE
  8
_0-b_細線3
  6
CONTINUOUS
 62
    7
 10
625.57549064794057
 20
285.37912486567564
 11
626.4088239812736
 21
284.54579153234238
  0
LINE
  8
_0-b_細線3
  6
CONTINUOUS
 62
    7
 10
622.24215731460708
 20
285.37912486567564
 11
625.57549064794057
 21
285.37912486567564
  0
LINE
  8
_0-b_細線3
  6
CONTINUOUS
 62
    7
 10
621.4088239812736
 20
284.54579153234238
 11
622.24215731460708
 21
285.37912486567564
  0
LINE
  8
_0-b_細線3
  6
CONTINUOUS
 62
    7
 10
621.4088239812736
 20
243.71245819900892
 11
621.4088239812736
 21
284.54579153234238
  0
CIRCLE
  8
_0-a_極細3
  6
CONTINUOUS
 62
    7
 10
582.39321982335696
 20
198.65568343048437
 40
0.5530864197530718
  0
CIRCLE
  8
_0-a_極細3
  6
CONTINUOUS
 62
    7
 10
583.69980418549676
 20
159.4001278749289
 40
0.5530864197530718
  0
CIRCLE
  8
_0-a_極細3
  6
CONTINUOUS
 62
    7
 10
583.06091529660716
 20
225.3535229366575
 40
1.825531472681392
  0
CIRCLE
  8
_0-a_極細3
  6
CONTINUOUS
 62
    7
 10
586.00906344475516
 20
152.73130071443495
 40
1.825531472681392
  0
LINE
  8
_0-d_寸法3
  6
CONTINUOUS
 62
    7
 10
359.74215731460686
 20
290.37912486567564
 11
359.74215731460686
 21
400.37912319733107
  0
LINE
  8
_0-d_寸法3
  6
CONTINUOUS
 62
    7
 10
359.74215731460686
 20
395.37912319733107
 11
369.40141557749757
 21
397.96731364835631
  0
LINE
  8
_0-d_寸法3
  6
CONTINUOUS
 62
    7
 10
359.74215731460686
 20
395.37912319733107
 11
369.40141557749757
 21
392.79093274630588
  0
LINE
  8
_0-d_寸法3
  6
CONTINUOUS
 62
    7
 10
626.4088239812736
 20
290.37912486567564
 11
626.4088239812736
 21
400.37912319733107
  0
LINE
  8
_0-d_寸法3
  6
CONTINUOUS
 62
    7
 10
626.4088239812736
 20
395.37912319733107
 11
616.74956571838288
 21
392.79093274630588
  0
LINE
  8
_0-d_寸法3
  6
CONTINUOUS
 62
    7
 10
626.4088239812736
 20
395.37912319733107
 11
616.74956571838288
 21
397.96731364835637
  0
LINE
  8
_0-d_寸法3
  6
CONTINUOUS
 62
    7
 10
359.74215731460686
 20
395.37912319733107
 11
626.4088239812736
 21
395.37912319733107
  0
TEXT
  8
_0-d_寸法3
 62
    7
 10
481.8254906479404
 20
395.37912319733107
 40
15
 41
1
 50
0
  1
160
  0
LINE
  8
_0-d_寸法3
  6
CONTINUOUS
 62
    7
 10
415.57549064429219
 20
292.04579153234215
 11
415.57549064429219
 21
337.04579153234215
  0
LINE
  8
_0-d_寸法3
  6
CONTINUOUS
 62
    7
 10
415.57549064429219
 20
332.04579153234215
 11
405.91623238140141
 21
329.45760108131702
  0
LINE
  8
_0-d_寸法3
  6
CONTINUOUS
 62
    7
 10
415.57549064429219
 20
332.04579153234215
 11
405.91623238140153
 21
334.63398198336739
  0
LINE
  8
_0-d_寸法3
  6
CONTINUOUS
 62
    7
 10
425.5754906485738
 20
292.04579153234215
 11
425.5754906485738
 21
337.04579153234215
  0
LINE
  8
_0-d_寸法3
  6
CONTINUOUS
 62
    7
 10
391.20153496112522
 20
332.04579153234215
 11
425.5754906485738
 21
332.04579153234215
  0
TEXT
  8
_0-d_寸法3
 62
    7
 10
391.20153496112522
 20
317.04579153234215
 40
15
 41
1
 50
0
  1
(6)
  0
LINE
  8
_0-d_寸法3
  6
CONTINUOUS
 62
    7
 10
425.5754906485738
 20
332.04579153234215
 11
435.23474891146452
 21
334.63398198336733
  0
LINE
  8
_0-d_寸法3
  6
CONTINUOUS
 62
    7
 10
425.5754906485738
 20
332.04579153234215
 11
435.23474891146452
 21
329.45760108131702
  0
LINE
  8
_0-d_寸法3
  6
CONTINUOUS
 62
    7
 10
444.5754906448949
 20
292.04579153234215
 11
444.5754906448949
 21
337.04579153234215
  0
LINE
  8
_0-d_寸法3
  6
CONTINUOUS
 62
    7
 10
444.5754906448949
 20
332.04579153234215
 11
434.91623238200418
 21
329.45760108131702
  0
LINE
  8
_0-d_寸法3
  6
CONTINUOUS
 62
    7
 10
444.5754906448949
 20
332.04579153234215
 11
434.91623238200424
 21
334.63398198336739
  0
LINE
  8
_0-d_寸法3
  6
CONTINUOUS
 62
    7
 10
425.5754906485738
 20
332.04579153234215
 11
444.5754906448949
 21
332.04579153234215
  0
TEXT
  8
_0-d_寸法3
 62
    7
 10
416.31079422038448
 20
332.04579153234215
 40
15
 41
1
 50
0
  1
11.4
  0
LINE
  8
_0-d_寸法3
  6
CONTINUOUS
 62
    7
 10
522.07549064854334
 20
295.37912486567564
 11
522.07549064854334
 21
337.04579153234215
  0
LINE
  8
_0-d_寸法3
  6
CONTINUOUS
 62
    7
 10
522.07549064854334
 20
332.04579153234215
 11
531.73474891143405
 21
334.63398198336733
  0
LINE
  8
_0-d_寸法3
  6
CONTINUOUS
 62
    7
 10
522.07549064854334
 20
332.04579153234215
 11
531.73474891143405
 21
329.45760108131702
  0
LINE
  8
_0-d_寸法3
  6
CONTINUOUS
 62
    7
 10
551.07549064914633
 20
295.37912486567564
 11
551.07549064914633
 21
337.04579153234215
  0
LINE
  8
_0-d_寸法3
  6
CONTINUOUS
 62
    7
 10
551.07549064914633
 20
332.04579153234215
 11
541.41623238625561
 21
329.45760108131702
  0
LINE
  8
_0-d_寸法3
  6
CONTINUOUS
 62
    7
 10
551.07549064914633
 20
332.04579153234215
 11
541.41623238625561
 21
334.63398198336739
  0
LINE
  8
_0-d_寸法3
  6
CONTINUOUS
 62
    7
 10
522.07549064854334
 20
332.04579153234215
 11
551.07549064914633
 21
332.04579153234215
  0
TEXT
  8
_0-d_寸法3
 62
    7
 10
510.52931273890232
 20
317.04579153234215
 40
15
 41
1
 50
0
  1
(17.4)
  0
LINE
  8
_0-d_寸法3
  6
CONTINUOUS
 62
    7
 10
551.07549064914633
 20
332.04579153234215
 11
560.73474891203705
 21
334.63398198336728
  0
LINE
  8
_0-d_寸法3
  6
CONTINUOUS
 62
    7
 10
551.07549064914633
 20
332.04579153234215
 11
560.73474891203705
 21
329.45760108131697
  0
LINE
  8
_0-d_寸法3
  6
CONTINUOUS
 62
    7
 10
580.07549064974955
 20
295.37912486567564
 11
580.07549064974955
 21
337.04579153234215
  0
LINE
  8
_0-d_寸法3
  6
CONTINUOUS
 62
    7
 10
580.07549064974955
 20
332.04579153234215
 11
570.41623238685884
 21
329.45760108131702
  0
LINE
  8
_0-d_寸法3
  6
CONTINUOUS
 62
    7
 10
580.07549064974955
 20
332.04579153234215
 11
570.41623238685884
 21
334.63398198336739
  0
LINE
  8
_0-d_寸法3
  6
CONTINUOUS
 62
    7
 10
551.07549064914633
 20
332.04579153234215
 11
580.07549064974955
 21
332.04579153234215
  0
TEXT
  8
_0-d_寸法3
 62
    7
 10
547.59597940556887
 20
332.04579153234215
 40
15
 41
1
 50
0
  1
(17.4)
  0
ARC
  8
_0-b_細線3
  6
CONTINUOUS
 62
    7
 10
369.74215731403433
 20
282.04579153234215
 40
1.666666666666667
 50
89.999999999999915
 51
179.99999999999983
  0
ARC
  8
_0-b_細線3
  6
CONTINUOUS
 62
    7
 10
370.52207263291348
 20
285.37912486567564
 40
1.666666666666667
 50
269.99999999999977
 51
329.99999999999523
  0
ARC
  8
_0-b_細線3
  6
CONTINUOUS
 62
    7
 10
373.40882397886162
 20
283.71245819900912
 40
1.666666666666667
 50
89.999999999999915
 51
150.00000000000915
  0
LINE
  8
_0-b_細線3
  6
CONTINUOUS
 62
    7
 10
369.74215731403433
 20
283.71245819900912
 11
370.52207263291348
 21
283.71245819900912
  0
ARC
  8
_0-b_細線3
  6
CONTINUOUS
 62
    7
 10
385.40882397702239
 20
282.04579153234215
 40
1.666666666666667
 50
0
 51
89.999999999999915
  0
ARC
  8
_0-b_細線3
  6
CONTINUOUS
 62
    7
 10
384.6289086581433
 20
285.37912486567564
 40
1.666666666666667
 50
210.00000000000014
 51
269.99999999999977
  0
ARC
  8
_0-b_細線3
  6
CONTINUOUS
 62
    7
 10
381.74215731219488
 20
283.71245819900912
 40
1.666666666666667
 50
29.999999999990862
 51
89.999999999992184
  0
LINE
  8
_0-b_細線3
  6
CONTINUOUS
 62
    7
 10
385.40882397702239
 20
283.71245819900912
 11
384.6289086581433
 21
283.71245819900912
  0
ARC
  8
_0-b_細線3
  6
CONTINUOUS
 62
    7
 10
368.90882398070113
 20
279.71245819900912
 40
0.8333333333333334
 50
179.99999999999983
 51
269.99999999999977
  0
LINE
  8
_0-b_細線3
  6
CONTINUOUS
 62
    7
 10
368.07549064736759
 20
282.04579153234215
 11
368.07549064736759
 21
279.71245819900912
  0
ARC
  8
_0-b_細線3
  6
CONTINUOUS
 62
    7
 10
386.24215731035588
 20
279.71245819900912
 40
0.8333333333333334
 50
269.99999999999977
 51
359.99999999999966
  0
LINE
  8
_0-b_細線3
  6
CONTINUOUS
 62
    7
 10
387.07549064368919
 20
282.04579153234215
 11
387.07549064368919
 21
279.71245819900912
  0
ARC
  8
_0-b_細線3
  6
CONTINUOUS
 62
    7
 10
373.07549064736759
 20
277.21245819900912
 40
1.666666666666667
 50
0
 51
89.999999999999915
  0
LINE
  8
_0-b_細線3
  6
CONTINUOUS
 62
    7
 10
373.07549064736759
 20
278.87912486567564
 11
368.90882398070113
 21
278.87912486567564
  0
ARC
  8
_0-b_細線3
  6
CONTINUOUS
 62
    7
 10
382.07549064736781
 20
277.21245819900912
 40
1.666666666666667
 50
89.999999999999915
 51
179.99999999999983
  0
LINE
  8
_0-b_細線3
  6
CONTINUOUS
 62
    7
 10
382.07549064368891
 20
278.87912486567564
 11
386.24215731035588
 21
278.87912486567564
  0
LINE
  8
_0-b_細線3
  6
CONTINUOUS
 62
    7
 10
381.74215731219488
 20
285.37912486567564
 11
373.40882397886162
 21
285.37912486567564
  0
LINE
  8
_0-b_細線3
  6
CONTINUOUS
 62
    7
 10
374.7421573121951
 20
243.71245819900892
 11
374.74215731403433
 21
277.21245819900912
  0
LINE
  8
_0-b_細線3
  6
CONTINUOUS
 62
    7
 10
380.40882397886162
 20
243.71245819900892
 11
380.40882398070107
 21
277.21245819900912
  0
LINE
  8
_0-b_細線3
  6
CONTINUOUS
 62
    7
 10
380.40882397886162
 20
243.71245819900892
 11
374.7421573121951
 21
243.71245819900892
  0
ARC
  8
_0-b_細線3
  6
CONTINUOUS
 62
    7
 10
398.24215731463738
 20
282.04579153234215
 40
1.666666666666667
 50
89.999999999999915
 51
179.99999999999983
  0
ARC
  8
_0-b_細線3
  6
CONTINUOUS
 62
    7
 10
399.02207263351647
 20
285.37912486567564
 40
1.666666666666667
 50
269.99999999999977
 51
329.99999999999915
  0
ARC
  8
_0-b_細線3
  6
CONTINUOUS
 62
    7
 10
401.90882397946467
 20
283.71245819900912
 40
1.666666666666667
 50
89.999999999999915
 51
150.00000000000523
  0
LINE
  8
_0-b_細線3
  6
CONTINUOUS
 62
    7
 10
398.24215731463738
 20
283.71245819900912
 11
399.02207263351647
 21
283.71245819900912
  0
ARC
  8
_0-b_細線3
  6
CONTINUOUS
 62
    7
 10
413.90882397762539
 20
282.04579153234215
 40
1.666666666666667
 50
0
 51
89.999999999999915
  0
ARC
  8
_0-b_細線3
  6
CONTINUOUS
 62
    7
 10
413.1289086587463
 20
285.37912486567564
 40
1.666666666666667
 50
210.00000000000014
 51
269.99999999999977
  0
ARC
  8
_0-b_細線3
  6
CONTINUOUS
 62
    7
 10
410.24215731279787
 20
283.71245819900912
 40
1.666666666666667
 50
29.999999999990862
 51
89.999999999992184
  0
LINE
  8
_0-b_細線3
  6
CONTINUOUS
 62
    7
 10
413.90882397762539
 20
283.71245819900912
 11
413.1289086587463
 21
283.71245819900912
  0
ARC
  8
_0-b_細線3
  6
CONTINUOUS
 62
    7
 10
397.40882398130407
 20
279.71245819900912
 40
0.8333333333333334
 50
179.99999999999983
 51
269.99999999999977
  0
LINE
  8
_0-b_細線3
  6
CONTINUOUS
 62
    7
 10
396.57549064797058
 20
282.04579153234215
 11
396.57549064797058
 21
279.71245819900912
  0
ARC
  8
_0-b_細線3
  6
CONTINUOUS
 62
    7
 10
414.74215731095865
 20
279.71245819900912
 40
0.8333333333333334
 50
269.99999999999977
 51
359.99999999999966
  0
LINE
  8
_0-b_細線3
  6
CONTINUOUS
 62
    7
 10
415.57549064429219
 20
282.04579153234215
 11
415.57549064429219
 21
279.71245819900912
  0
ARC
  8
_0-b_細線3
  6
CONTINUOUS
 62
    7
 10
401.57549064797058
 20
277.21245819900912
 40
1.666666666666667
 50
0
 51
89.999999999999915
  0
LINE
  8
_0-b_細線3
  6
CONTINUOUS
 62
    7
 10
401.57549064797058
 20
278.87912486567564
 11
397.40882398130407
 21
278.87912486567564
  0
ARC
  8
_0-b_細線3
  6
CONTINUOUS
 62
    7
 10
410.57549064797087
 20
277.21245819900912
 40
1.666666666666667
 50
89.999999999999915
 51
179.99999999999983
  0
LINE
  8
_0-b_細線3
  6
CONTINUOUS
 62
    7
 10
410.57549064429196
 20
278.87912486567564
 11
414.74215731095865
 21
278.87912486567564
  0
LINE
  8
_0-b_細線3
  6
CONTINUOUS
 62
    7
 10
410.24215731279787
 20
285.37912486567564
 11
401.90882397946467
 21
285.37912486567564
  0
LINE
  8
_0-b_細線3
  6
CONTINUOUS
 62
    7
 10
403.24215731279816
 20
243.71245819900892
 11
403.24215731463738
 21
277.21245819900912
  0
LINE
  8
_0-b_細線3
  6
CONTINUOUS
 62
    7
 10
408.90882397946461
 20
243.71245819900892
 11
408.90882398130407
 21
277.21245819900912
  0
LINE
  8
_0-b_細線3
  6
CONTINUOUS
 62
    7
 10
408.90882397946461
 20
243.71245819900892
 11
403.24215731279816
 21
243.71245819900892
  0
ARC
  8
_0-b_細線3
  6
CONTINUOUS
 62
    7
 10
427.24215731524032
 20
282.04579153234215
 40
1.666666666666667
 50
89.999999999999915
 51
179.99999999999983
  0
ARC
  8
_0-b_細線3
  6
CONTINUOUS
 62
    7
 10
428.0220726341197
 20
285.37912486567564
 40
1.666666666666667
 50
269.99999999999977
 51
329.99999999999136
  0
ARC
  8
_0-b_細線3
  6
CONTINUOUS
 62
    7
 10
430.90882398006761
 20
283.71245819900912
 40
1.666666666666667
 50
89.999999999999915
 51
150.00000000000915
  0
LINE
  8
_0-b_細線3
  6
CONTINUOUS
 62
    7
 10
427.24215731524032
 20
283.71245819900912
 11
428.0220726341197
 21
283.71245819900912
  0
ARC
  8
_0-b_細線3
  6
CONTINUOUS
 62
    7
 10
442.90882397822838
 20
282.04579153234215
 40
1.666666666666667
 50
0
 51
89.999999999999915
  0
ARC
  8
_0-b_細線3
  6
CONTINUOUS
 62
    7
 10
442.12890865934901
 20
285.37912486567564
 40
1.666666666666667
 50
210.00000000000404
 51
269.99999999999977
  0
ARC
  8
_0-b_細線3
  6
CONTINUOUS
 62
    7
 10
439.24215731340109
 20
283.71245819900912
 40
1.666666666666667
 50
29.999999999994774
 51
89.999999999999915
  0
LINE
  8
_0-b_細線3
  6
CONTINUOUS
 62
    7
 10
442.90882397822838
 20
283.71245819900912
 11
442.12890865934901
 21
283.71245819900912
  0
ARC
  8
_0-b_細線3
  6
CONTINUOUS
 62
    7
 10
426.40882398190712
 20
279.71245819900912
 40
0.8333333333333334
 50
179.99999999999983
 51
269.99999999999977
  0
LINE
  8
_0-b_細線3
  6
CONTINUOUS
 62
    7
 10
425.5754906485738
 20
282.04579153234215
 11
425.5754906485738
 21
279.71245819900912
  0
ARC
  8
_0-b_細線3
  6
CONTINUOUS
 62
    7
 10
443.7421573115617
 20
279.71245819900912
 40
0.8333333333333334
 50
269.99999999999977
 51
359.99999999999966
  0
LINE
  8
_0-b_細線3
  6
CONTINUOUS
 62
    7
 10
444.5754906448949
 20
282.04579153234215
 11
444.5754906448949
 21
279.71245819900912
  0
ARC
  8
_0-b_細線3
  6
CONTINUOUS
 62
    7
 10
430.5754906485738
 20
277.21245819900912
 40
1.666666666666667
 50
0
 51
89.999999999999915
  0
LINE
  8
_0-b_細線3
  6
CONTINUOUS
 62
    7
 10
430.5754906485738
 20
278.87912486567564
 11
426.40882398190712
 21
278.87912486567564
  0
ARC
  8
_0-b_細線3
  6
CONTINUOUS
 62
    7
 10
439.5754906485738
 20
277.21245819900912
 40
1.666666666666667
 50
89.999999999999915
 51
179.99999999999983
  0
LINE
  8
_0-b_細線3
  6
CONTINUOUS
 62
    7
 10
439.5754906448949
 20
278.87912486567564
 11
443.7421573115617
 21
278.87912486567564
  0
LINE
  8
_0-b_細線3
  6
CONTINUOUS
 62
    7
 10
439.24215731340109
 20
285.37912486567564
 11
430.90882398006761
 21
285.37912486567564
  0
LINE
  8
_0-b_細線3
  6
CONTINUOUS
 62
    7
 10
432.24215731340087
 20
243.71245819900892
 11
432.24215731524032
 21
277.21245819900912
  0
LINE
  8
_0-b_細線3
  6
CONTINUOUS
 62
    7
 10
437.90882398006784
 20
243.71245819900892
 11
437.90882398190729
 21
277.21245819900912
  0
LINE
  8
_0-b_細線3
  6
CONTINUOUS
 62
    7
 10
437.90882398006784
 20
243.71245819900892
 11
432.24215731340087
 21
243.71245819900892
  0
ARC
  8
_0-b_細線3
  6
CONTINUOUS
 62
    7
 10
456.24215731584337
 20
282.04579153234215
 40
1.666666666666667
 50
89.999999999999915
 51
179.99999999999983
  0
ARC
  8
_0-b_細線3
  6
CONTINUOUS
 62
    7
 10
457.02207263472246
 20
285.37912486567564
 40
1.666666666666667
 50
269.99999999999977
 51
329.99999999999523
  0
ARC
  8
_0-b_細線3
  6
CONTINUOUS
 62
    7
 10
459.90882398067066
 20
283.71245819900912
 40
1.666666666666667
 50
89.999999999999915
 51
150.00000000000915
  0
LINE
  8
_0-b_細線3
  6
CONTINUOUS
 62
    7
 10
456.24215731584337
 20
283.71245819900912
 11
457.02207263472246
 21
283.71245819900912
  0
ARC
  8
_0-b_細線3
  6
CONTINUOUS
 62
    7
 10
471.90882397883144
 20
282.04579153234215
 40
1.666666666666667
 50
0
 51
89.999999999999915
  0
ARC
  8
_0-b_細線3
  6
CONTINUOUS
 62
    7
 10
471.12890865995223
 20
285.37912486567564
 40
1.666666666666667
 50
210.00000000000014
 51
269.99999999999977
  0
ARC
  8
_0-b_細線3
  6
CONTINUOUS
 62
    7
 10
468.24215731400386
 20
283.71245819900912
 40
1.666666666666667
 50
29.999999999990862
 51
89.999999999992184
  0
LINE
  8
_0-b_細線3
  6
CONTINUOUS
 62
    7
 10
471.90882397883144
 20
283.71245819900912
 11
471.12890865995223
 21
283.71245819900912
  0
ARC
  8
_0-b_細線3
  6
CONTINUOUS
 62
    7
 10
455.40882398250983
 20
279.71245819900912
 40
0.8333333333333334
 50
179.99999999999983
 51
269.99999999999977
  0
LINE
  8
_0-b_細線3
  6
CONTINUOUS
 62
    7
 10
454.57549064917657
 20
282.04579153234215
 11
454.57549064917657
 21
279.71245819900912
  0
ARC
  8
_0-b_細線3
  6
CONTINUOUS
 62
    7
 10
472.74215731216464
 20
279.71245819900912
 40
0.8333333333333334
 50
269.99999999999977
 51
359.99999999999966
  0
LINE
  8
_0-b_細線3
  6
CONTINUOUS
 62
    7
 10
473.57549064549812
 20
282.04579153234215
 11
473.57549064549812
 21
279.71245819900912
  0
ARC
  8
_0-b_細線3
  6
CONTINUOUS
 62
    7
 10
459.57549064917657
 20
277.21245819900912
 40
1.666666666666667
 50
0
 51
89.999999999999915
  0
LINE
  8
_0-b_細線3
  6
CONTINUOUS
 62
    7
 10
459.57549064917657
 20
278.87912486567564
 11
455.40882398250983
 21
278.87912486567564
  0
ARC
  8
_0-b_細線3
  6
CONTINUOUS
 62
    7
 10
468.57549064917686
 20
277.21245819900912
 40
1.666666666666667
 50
89.999999999999915
 51
179.99999999999983
  0
LINE
  8
_0-b_細線3
  6
CONTINUOUS
 62
    7
 10
468.57549064549795
 20
278.87912486567564
 11
472.74215731216464
 21
278.87912486567564
  0
LINE
  8
_0-b_細線3
  6
CONTINUOUS
 62
    7
 10
468.24215731400386
 20
285.37912486567564
 11
459.90882398067066
 21
285.37912486567564
  0
LINE
  8
_0-b_細線3
  6
CONTINUOUS
 62
    7
 10
461.24215731400409
 20
243.71245819900892
 11
461.24215731584337
 21
277.21245819900912
  0
LINE
  8
_0-b_細線3
  6
CONTINUOUS
 62
    7
 10
466.9088239806706
 20
243.71245819900892
 11
466.90882398251006
 21
277.21245819900912
  0
LINE
  8
_0-b_細線3
  6
CONTINUOUS
 62
    7
 10
466.9088239806706
 20
243.71245819900892
 11
461.24215731400409
 21
243.71245819900892
  0
ARC
  8
_0-b_細線3
  6
CONTINUOUS
 62
    7
 10
514.2421573170493
 20
282.04579153234215
 40
1.666666666666667
 50
89.999999999999915
 51
179.99999999999983
  0
ARC
  8
_0-b_細線3
  6
CONTINUOUS
 62
    7
 10
515.02207263592845
 20
285.37912486567564
 40
1.666666666666667
 50
269.99999999999977
 51
329.99999999999915
  0
ARC
  8
_0-b_細線3
  6
CONTINUOUS
 62
    7
 10
517.90882398187659
 20
283.71245819900912
 40
1.666666666666667
 50
89.999999999999915
 51
150.00000000000523
  0
LINE
  8
_0-b_細線3
  6
CONTINUOUS
 62
    7
 10
514.2421573170493
 20
283.71245819900912
 11
515.02207263592845
 21
283.71245819900912
  0
ARC
  8
_0-b_細線3
  6
CONTINUOUS
 62
    7
 10
529.90882398003737
 20
282.04579153234215
 40
1.666666666666667
 50
0
 51
89.999999999999915
  0
ARC
  8
_0-b_細線3
  6
CONTINUOUS
 62
    7
 10
529.12890866115799
 20
285.37912486567564
 40
1.666666666666667
 50
210.00000000000404
 51
269.99999999999977
  0
ARC
  8
_0-b_細線3
  6
CONTINUOUS
 62
    7
 10
526.24215731520985
 20
283.71245819900912
 40
1.666666666666667
 50
29.999999999990862
 51
89.999999999992184
  0
LINE
  8
_0-b_細線3
  6
CONTINUOUS
 62
    7
 10
529.90882398003737
 20
283.71245819900912
 11
529.12890866115799
 21
283.71245819900912
  0
ARC
  8
_0-b_細線3
  6
CONTINUOUS
 62
    7
 10
513.40882398371582
 20
279.71245819900912
 40
0.8333333333333334
 50
179.99999999999983
 51
269.99999999999977
  0
LINE
  8
_0-b_細線3
  6
CONTINUOUS
 62
    7
 10
512.57549065038256
 20
282.04579153234215
 11
512.57549065038256
 21
279.71245819900912
  0
ARC
  8
_0-b_細線3
  6
CONTINUOUS
 62
    7
 10
530.74215731337063
 20
279.71245819900912
 40
0.8333333333333334
 50
269.99999999999977
 51
359.99999999999966
  0
LINE
  8
_0-b_細線3
  6
CONTINUOUS
 62
    7
 10
531.57549064670388
 20
282.04579153234215
 11
531.57549064670388
 21
279.71245819900912
  0
ARC
  8
_0-b_細線3
  6
CONTINUOUS
 62
    7
 10
517.57549065038256
 20
277.21245819900912
 40
1.666666666666667
 50
0
 51
89.999999999999915
  0
LINE
  8
_0-b_細線3
  6
CONTINUOUS
 62
    7
 10
517.57549065038256
 20
278.87912486567564
 11
513.40882398371582
 21
278.87912486567564
  0
ARC
  8
_0-b_細線3
  6
CONTINUOUS
 62
    7
 10
526.57549065038279
 20
277.21245819900912
 40
1.666666666666667
 50
89.999999999999915
 51
179.99999999999983
  0
LINE
  8
_0-b_細線3
  6
CONTINUOUS
 62
    7
 10
526.57549064670388
 20
278.87912486567564
 11
530.74215731337063
 21
278.87912486567564
  0
LINE
  8
_0-b_細線3
  6
CONTINUOUS
 62
    7
 10
526.24215731520985
 20
285.37912486567564
 11
517.90882398187659
 21
285.37912486567564
  0
LINE
  8
_0-b_細線3
  6
CONTINUOUS
 62
    7
 10
519.24215731520985
 20
243.71245819900892
 11
519.2421573170493
 21
277.21245819900912
  0
LINE
  8
_0-b_細線3
  6
CONTINUOUS
 62
    7
 10
524.90882398187659
 20
243.71245819900892
 11
524.90882398371605
 21
277.21245819900912
  0
LINE
  8
_0-b_細線3
  6
CONTINUOUS
 62
    7
 10
524.90882398187659
 20
243.71245819900892
 11
519.24215731520985
 21
243.71245819900892
  0
ARC
  8
_0-b_細線3
  6
CONTINUOUS
 62
    7
 10
543.2421573176523
 20
282.04579153234215
 40
1.666666666666667
 50
89.999999999999915
 51
179.99999999999983
  0
ARC
  8
_0-b_細線3
  6
CONTINUOUS
 62
    7
 10
544.02207263653145
 20
285.37912486567564
 40
1.666666666666667
 50
269.99999999999977
 51
329.99999999999523
  0
ARC
  8
_0-b_細線3
  6
CONTINUOUS
 62
    7
 10
546.90882398247959
 20
283.71245819900912
 40
1.666666666666667
 50
89.999999999999915
 51
150.00000000000915
  0
LINE
  8
_0-b_細線3
  6
CONTINUOUS
 62
    7
 10
543.2421573176523
 20
283.71245819900912
 11
544.02207263653145
 21
283.71245819900912
  0
ARC
  8
_0-b_細線3
  6
CONTINUOUS
 62
    7
 10
558.90882398064014
 20
282.04579153234215
 40
1.666666666666667
 50
0
 51
89.999999999999915
  0
ARC
  8
_0-b_細線3
  6
CONTINUOUS
 62
    7
 10
558.12890866176099
 20
285.37912486567564
 40
1.666666666666667
 50
210.00000000000014
 51
269.99999999999977
  0
ARC
  8
_0-b_細線3
  6
CONTINUOUS
 62
    7
 10
555.24215731581285
 20
283.71245819900912
 40
1.666666666666667
 50
29.999999999994774
 51
89.999999999999915
  0
LINE
  8
_0-b_細線3
  6
CONTINUOUS
 62
    7
 10
558.90882398064014
 20
283.71245819900912
 11
558.12890866176099
 21
283.71245819900912
  0
ARC
  8
_0-b_細線3
  6
CONTINUOUS
 62
    7
 10
542.40882398431904
 20
279.71245819900912
 40
0.8333333333333334
 50
179.99999999999983
 51
269.99999999999977
  0
LINE
  8
_0-b_細線3
  6
CONTINUOUS
 62
    7
 10
541.57549065098556
 20
282.04579153234215
 11
541.57549065098556
 21
279.71245819900912
  0
ARC
  8
_0-b_細線3
  6
CONTINUOUS
 62
    7
 10
559.74215731397362
 20
279.71245819900912
 40
0.8333333333333334
 50
269.99999999999977
 51
359.99999999999966
  0
LINE
  8
_0-b_細線3
  6
CONTINUOUS
 62
    7
 10
560.57549064730688
 20
282.04579153234215
 11
560.57549064730688
 21
279.71245819900912
  0
ARC
  8
_0-b_細線3
  6
CONTINUOUS
 62
    7
 10
546.57549065098556
 20
277.21245819900912
 40
1.666666666666667
 50
0
 51
89.999999999999915
  0
LINE
  8
_0-b_細線3
  6
CONTINUOUS
 62
    7
 10
546.57549065098556
 20
278.87912486567564
 11
542.40882398431904
 21
278.87912486567564
  0
ARC
  8
_0-b_細線3
  6
CONTINUOUS
 62
    7
 10
555.57549065098578
 20
277.21245819900912
 40
1.666666666666667
 50
89.999999999999915
 51
179.99999999999983
  0
LINE
  8
_0-b_細線3
  6
CONTINUOUS
 62
    7
 10
555.57549064730688
 20
278.87912486567564
 11
559.74215731397362
 21
278.87912486567564
  0
LINE
  8
_0-b_細線3
  6
CONTINUOUS
 62
    7
 10
555.24215731581285
 20
285.37912486567564
 11
546.90882398247959
 21
285.37912486567564
  0
LINE
  8
_0-b_細線3
  6
CONTINUOUS
 62
    7
 10
548.24215731581285
 20
243.71245819900892
 11
548.2421573176523
 21
277.21245819900912
  0
LINE
  8
_0-b_細線3
  6
CONTINUOUS
 62
    7
 10
553.90882398247959
 20
243.71245819900892
 11
553.90882398431904
 21
277.21245819900912
  0
LINE
  8
_0-b_細線3
  6
CONTINUOUS
 62
    7
 10
553.90882398247959
 20
243.71245819900892
 11
548.24215731581285
 21
243.71245819900892
  0
ARC
  8
_0-b_細線3
  6
CONTINUOUS
 62
    7
 10
572.24215731825552
 20
282.04579153234215
 40
1.666666666666667
 50
89.999999999999915
 51
179.99999999999983
  0
ARC
  8
_0-b_細線3
  6
CONTINUOUS
 62
    7
 10
573.02207263713444
 20
285.37912486567564
 40
1.666666666666667
 50
269.99999999999977
 51
329.99999999999523
  0
ARC
  8
_0-b_細線3
  6
CONTINUOUS
 62
    7
 10
575.90882398308258
 20
283.71245819900912
 40
1.666666666666667
 50
89.999999999999915
 51
150.00000000000915
  0
LINE
  8
_0-b_細線3
  6
CONTINUOUS
 62
    7
 10
572.24215731825552
 20
283.71245819900912
 11
573.02207263713444
 21
283.71245819900912
  0
ARC
  8
_0-b_細線3
  6
CONTINUOUS
 62
    7
 10
587.90882398124359
 20
282.04579153234215
 40
1.666666666666667
 50
0
 51
89.999999999999915
  0
ARC
  8
_0-b_細線3
  6
CONTINUOUS
 62
    7
 10
587.12890866236376
 20
285.37912486567564
 40
1.666666666666667
 50
210.00000000000404
 51
269.99999999999977
  0
ARC
  8
_0-b_細線3
  6
CONTINUOUS
 62
    7
 10
584.24215731641561
 20
283.71245819900912
 40
1.666666666666667
 50
29.999999999990862
 51
89.999999999968722
  0
LINE
  8
_0-b_細線3
  6
CONTINUOUS
 62
    7
 10
587.90882398124359
 20
283.71245819900912
 11
587.12890866236376
 21
283.71245819900912
  0
ARC
  8
_0-b_細線3
  6
CONTINUOUS
 62
    7
 10
571.40882398492158
 20
279.71245819900912
 40
0.8333333333333334
 50
179.99999999999983
 51
269.99999999999977
  0
LINE
  8
_0-b_細線3
  6
CONTINUOUS
 62
    7
 10
570.57549065158855
 20
282.04579153234215
 11
570.57549065158855
 21
279.71245819900912
  0
ARC
  8
_0-b_細線3
  6
CONTINUOUS
 62
    7
 10
588.74215731457662
 20
279.71245819900912
 40
0.8333333333333334
 50
269.99999999999977
 51
359.99999999999966
  0
LINE
  8
_0-b_細線3
  6
CONTINUOUS
 62
    7
 10
589.57549064790965
 20
282.04579153234215
 11
589.57549064790965
 21
279.71245819900912
  0
ARC
  8
_0-b_細線3
  6
CONTINUOUS
 62
    7
 10
575.57549065158855
 20
277.21245819900912
 40
1.666666666666667
 50
0
 51
89.999999999999915
  0
LINE
  8
_0-b_細線3
  6
CONTINUOUS
 62
    7
 10
575.57549065158855
 20
278.87912486567564
 11
571.40882398492158
 21
278.87912486567564
  0
ARC
  8
_0-b_細線3
  6
CONTINUOUS
 62
    7
 10
584.57549065158855
 20
277.21245819900912
 40
1.666666666666667
 50
89.999999999999915
 51
179.99999999999983
  0
LINE
  8
_0-b_細線3
  6
CONTINUOUS
 62
    7
 10
584.57549064790965
 20
278.87912486567564
 11
588.74215731457662
 21
278.87912486567564
  0
LINE
  8
_0-b_細線3
  6
CONTINUOUS
 62
    7
 10
584.24215731641561
 20
285.37912486567564
 11
575.90882398308258
 21
285.37912486567564
  0
LINE
  8
_0-b_細線3
  6
CONTINUOUS
 62
    7
 10
577.24215731641561
 20
243.71245819900892
 11
577.24215731825552
 21
277.21245819900912
  0
LINE
  8
_0-b_細線3
  6
CONTINUOUS
 62
    7
 10
582.90882398308258
 20
243.71245819900892
 11
582.90882398492249
 21
277.21245819900912
  0
LINE
  8
_0-b_細線3
  6
CONTINUOUS
 62
    7
 10
582.90882398308258
 20
243.71245819900892
 11
577.24215731641561
 21
243.71245819900892
  0
ARC
  8
_0-b_細線3
  6
CONTINUOUS
 62
    7
 10
600.74215731885852
 20
282.04579153234215
 40
1.666666666666667
 50
89.999999999999915
 51
179.99999999999983
  0
ARC
  8
_0-b_細線3
  6
CONTINUOUS
 62
    7
 10
601.52207263773744
 20
285.37912486567564
 40
1.666666666666667
 50
269.99999999999977
 51
329.99999999999523
  0
ARC
  8
_0-b_細線3
  6
CONTINUOUS
 62
    7
 10
604.40882398368558
 20
283.71245819900912
 40
1.666666666666667
 50
89.999999999999915
 51
150.00000000000915
  0
LINE
  8
_0-b_細線3
  6
CONTINUOUS
 62
    7
 10
600.74215731885852
 20
283.71245819900912
 11
601.52207263773744
 21
283.71245819900912
  0
ARC
  8
_0-b_細線3
  6
CONTINUOUS
 62
    7
 10
616.40882398184658
 20
282.04579153234215
 40
1.666666666666667
 50
0
 51
89.999999999999915
  0
ARC
  8
_0-b_細線3
  6
CONTINUOUS
 62
    7
 10
615.62890866296675
 20
285.37912486567564
 40
1.666666666666667
 50
210.00000000000404
 51
269.99999999999977
  0
ARC
  8
_0-b_細線3
  6
CONTINUOUS
 62
    7
 10
612.74215731701861
 20
283.71245819900912
 40
1.666666666666667
 50
29.999999999990862
 51
89.999999999999901
  0
LINE
  8
_0-b_細線3
  6
CONTINUOUS
 62
    7
 10
616.40882398184658
 20
283.71245819900912
 11
615.62890866296675
 21
283.71245819900912
  0
ARC
  8
_0-b_細線3
  6
CONTINUOUS
 62
    7
 10
599.90882398552458
 20
279.71245819900912
 40
0.8333333333333334
 50
179.99999999999983
 51
269.99999999999977
  0
LINE
  8
_0-b_細線3
  6
CONTINUOUS
 62
    7
 10
599.07549065219155
 20
282.04579153234215
 11
599.07549065219155
 21
279.71245819900912
  0
ARC
  8
_0-b_細線3
  6
CONTINUOUS
 62
    7
 10
617.24215731517961
 20
279.71245819900912
 40
0.8333333333333334
 50
269.99999999999977
 51
359.99999999999966
  0
LINE
  8
_0-b_細線3
  6
CONTINUOUS
 62
    7
 10
618.07549064851264
 20
282.04579153234215
 11
618.07549064851264
 21
279.71245819900912
  0
ARC
  8
_0-b_細線3
  6
CONTINUOUS
 62
    7
 10
604.07549065219155
 20
277.21245819900912
 40
1.666666666666667
 50
0
 51
89.999999999999915
  0
LINE
  8
_0-b_細線3
  6
CONTINUOUS
 62
    7
 10
604.07549065219155
 20
278.87912486567564
 11
599.90882398552458
 21
278.87912486567564
  0
ARC
  8
_0-b_細線3
  6
CONTINUOUS
 62
    7
 10
613.07549065219155
 20
277.21245819900912
 40
1.666666666666667
 50
89.999999999999915
 51
179.99999999999983
  0
LINE
  8
_0-b_細線3
  6
CONTINUOUS
 62
    7
 10
613.07549064851264
 20
278.87912486567564
 11
617.24215731517961
 21
278.87912486567564
  0
LINE
  8
_0-b_細線3
  6
CONTINUOUS
 62
    7
 10
612.74215731701861
 20
285.37912486567564
 11
604.40882398368558
 21
285.37912486567564
  0
LINE
  8
_0-b_細線3
  6
CONTINUOUS
 62
    7
 10
605.74215731701861
 20
243.71245819900892
 11
605.74215731885852
 21
277.21245819900912
  0
LINE
  8
_0-b_細線3
  6
CONTINUOUS
 62
    7
 10
611.40882398368558
 20
243.71245819900892
 11
611.40882398552549
 21
277.21245819900912
  0
LINE
  8
_0-b_細線3
  6
CONTINUOUS
 62
    7
 10
611.40882398368558
 20
243.71245819900892
 11
605.74215731701861
 21
243.71245819900892
  0
LINE
  8
_0-d_寸法3
  6
CONTINUOUS
 62
    7
 10
484.88397020505045
 20
249.44822256251942
 11
449.74366551634978
 21
274.0537288005338
  0
LINE
  8
_0-d_寸法3
  6
CONTINUOUS
 62
    7
 10
453.83942573779478
 20
271.18584661877856
 11
451.2512352867696
 21
280.84510488166922
  0
LINE
  8
_0-d_寸法3
  6
CONTINUOUS
 62
    7
 10
453.83942573779478
 20
271.18584661877856
 11
456.42761618881997
 21
280.84510488166922
  0
LINE
  8
_0-d_寸法3
  6
CONTINUOUS
 62
    7
 10
484.88397020505045
 20
291.11488922918613
 11
449.74366551634978
 21
315.72039546720043
  0
LINE
  8
_0-d_寸法3
  6
CONTINUOUS
 62
    7
 10
453.83942573779478
 20
312.85251328544518
 11
456.42761618881991
 21
303.19325502255447
  0
LINE
  8
_0-d_寸法3
  6
CONTINUOUS
 62
    7
 10
453.83942573779478
 20
312.85251328544518
 11
451.25123528676954
 21
303.19325502255452
  0
LINE
  8
_0-d_寸法3
  6
CONTINUOUS
 62
    7
 10
453.83942573779478
 20
271.18584661877856
 11
453.83942573779478
 21
312.85251328544518
  0
TEXT
  8
_0-d_寸法3
 62
    7
 10
453.83942573779478
 20
284.51917995211181
 40
15
 41
1
 50
90
  1
25
  0
LINE
  8
_0-d_寸法3
  6
CONTINUOUS
 62
    7
 10
409.74215731460686
 20
233.71245819900892
 11
409.74215731460686
 21
173.23443296477052
  0
LINE
  8
_0-d_寸法3
  6
CONTINUOUS
 62
    7
 10
409.74215731460686
 20
178.23443296477052
 11
419.40141557749757
 21
180.8226234157957
  0
LINE
  8
_0-d_寸法3
  6
CONTINUOUS
 62
    7
 10
409.74215731460686
 20
178.23443296477052
 11
419.40141557749757
 21
175.64624251374525
  0
LINE
  8
_0-d_寸法3
  6
CONTINUOUS
 62
    7
 10
576.4088239812736
 20
233.71245819900892
 11
576.4088239812736
 21
173.23443296477052
  0
LINE
  8
_0-d_寸法3
  6
CONTINUOUS
 62
    7
 10
576.4088239812736
 20
178.23443296477052
 11
566.74956571838288
 21
175.64624251374534
  0
LINE
  8
_0-d_寸法3
  6
CONTINUOUS
 62
    7
 10
576.4088239812736
 20
178.23443296477052
 11
566.74956571838288
 21
180.82262341579579
  0
LINE
  8
_0-d_寸法3
  6
CONTINUOUS
 62
    7
 10
409.74215731460686
 20
178.23443296477052
 11
576.4088239812736
 21
178.23443296477052
  0
TEXT
  8
_0-d_寸法3
 62
    7
 10
481.8254906479404
 20
178.23443296477052
 40
15
 41
1
 50
0
  1
100
  0
LINE
  8
_0-a_極細3
  6
CONTINUOUS
 62
    7
 10
316.10208909412154
 20
188.59415936151251
 11
310.97178694423633
 21
202.68954867330109
  0
LINE
  8
_0-a_極細3
  6
CONTINUOUS
 62
    7
 10
366.09613176791805
 20
222.75316937254729
 11
371.22643391780281
 21
208.65778006075871
  0
LINE
  8
_0-a_極細3
  6
CONTINUOUS
 62
    7
 10
310.97178694423633
 20
202.68954867330109
 11
366.09613176791805
 21
222.75316937254732
  0
LINE
  8
_0-a_極細3
  6
CONTINUOUS
 62
    7
 10
316.10208909412154
 20
188.59415936151251
 11
371.22643391780281
 21
208.65778006075871
  0
LINE
  8
_0-a_極細3
  6
CENTER1
 62
    7
 10
308.58150462718618
 20
193.83822397737688
 11
372.61252510975191
 21
217.14360946241226
  0
LINE
  8
_0-a_極細3
  6
CONTINUOUS
 62
    7
 10
334.74215731460686
 20
163.71245819900892
 11
334.74215731460686
 21
207.798019547325
  0
LINE
  8
_0-a_極細3
  6
CONTINUOUS
 62
    7
 10
334.74215731460686
 20
207.798019547325
 11
319.74215731460686
 21
207.798019547325
  0
LINE
  8
_0-a_極細3
  6
CONTINUOUS
 62
    7
 10
319.74215731460686
 20
207.798019547325
 11
319.74215731460686
 21
163.71245819900892
  0
LINE
  8
_0-a_極細3
  6
CENTER1
 62
    7
 10
327.24215731460686
 20
155.43571791455611
 11
327.24215731460686
 21
212.07373971193454
  0
LINE
  8
_0-d_寸法3
  6
CONTINUOUS
 62
    7
 10
349.74215731460708
 20
238.71245819900884
 11
303.79212623601757
 21
238.71245819900884
  0
LINE
  8
_0-d_寸法3
  6
CONTINUOUS
 62
    7
 10
308.79212623601757
 20
238.71245819900881
 11
311.38031668704275
 21
229.05319993611812
  0
LINE
  8
_0-d_寸法3
  6
CONTINUOUS
 62
    7
 10
308.79212623601757
 20
238.71245819900881
 11
306.20393578499232
 21
229.05319993611812
  0
LINE
  8
_0-d_寸法3
  6
CONTINUOUS
 62
    7
 10
347.74215731460708
 20
200.37912486567549
 11
303.79212623601779
 21
200.37912486567549
  0
LINE
  8
_0-d_寸法3
  6
CONTINUOUS
 62
    7
 10
308.79212623601779
 20
200.37912486567541
 11
306.20393578499261
 21
210.03838312856612
  0
LINE
  8
_0-d_寸法3
  6
CONTINUOUS
 62
    7
 10
308.79212623601779
 20
200.37912486567541
 11
311.38031668704298
 21
210.03838312856612
  0
LINE
  8
_0-d_寸法3
  6
CONTINUOUS
 62
    7
 10
308.79212623601757
 20
238.71245819900881
 11
308.79212623601779
 21
200.37912486567541
  0
TEXT
  8
_0-d_寸法3
 62
    7
 10
308.79212623601757
 20
212.04579153234215
 40
15
 41
1
 50
90
  1
23
  0
LINE
  8
_0-d_寸法3
  6
CONTINUOUS
 62
    7
 10
359.74215731460674
 20
190.37912486567564
 11
359.74215731460663
 21
173.23443296477024
  0
LINE
  8
_0-d_寸法3
  6
CONTINUOUS
 62
    7
 10
359.74215731460669
 20
178.23443296477024
 11
369.40141557749735
 21
180.8226234157955
  0
LINE
  8
_0-d_寸法3
  6
CONTINUOUS
 62
    7
 10
359.74215731460669
 20
178.23443296477024
 11
369.40141557749735
 21
175.64624251374511
  0
LINE
  8
_0-d_寸法3
  6
CONTINUOUS
 62
    7
 10
409.74215731460674
 20
228.71245819900892
 11
409.74215731460617
 21
173.23443296477024
  0
LINE
  8
_0-d_寸法3
  6
CONTINUOUS
 62
    7
 10
409.74215731460617
 20
178.23443296477024
 11
400.08289905171551
 21
175.64624251374511
  0
LINE
  8
_0-d_寸法3
  6
CONTINUOUS
 62
    7
 10
409.74215731460617
 20
178.23443296477024
 11
400.08289905171551
 21
180.8226234157955
  0
LINE
  8
_0-d_寸法3
  6
CONTINUOUS
 62
    7
 10
359.74215731460669
 20
178.23443296477024
 11
409.74215731460617
 21
178.23443296477024
  0
TEXT
  8
_0-d_寸法3
 62
    7
 10
377.2421573146064
 20
178.23443296477024
 40
15
 41
1
 50
0
  1
30
  0
LINE
  8
_0-d_寸法3
  6
CONTINUOUS
 62
    7
 10
349.74215731460686
 20
285.37912486567564
 11
303.79212623601757
 21
285.37912486567575
  0
LINE
  8
_0-d_寸法3
  6
CONTINUOUS
 62
    7
 10
308.79212623601757
 20
285.37912486567575
 11
311.38031668704286
 21
275.71986660278515
  0
LINE
  8
_0-d_寸法3
  6
CONTINUOUS
 62
    7
 10
308.79212623601757
 20
285.37912486567575
 11
306.20393578499238
 21
275.71986660278515
  0
LINE
  8
_0-d_寸法3
  6
CONTINUOUS
 62
    7
 10
347.74215731460686
 20
238.71245819900903
 11
303.79212623601757
 21
238.71245819900912
  0
LINE
  8
_0-d_寸法3
  6
CONTINUOUS
 62
    7
 10
308.79212623601757
 20
238.71245819900912
 11
306.20393578499238
 21
248.37171646189984
  0
LINE
  8
_0-d_寸法3
  6
CONTINUOUS
 62
    7
 10
308.79212623601757
 20
238.71245819900912
 11
311.38031668704286
 21
248.37171646189984
  0
LINE
  8
_0-d_寸法3
  6
CONTINUOUS
 62
    7
 10
308.79212623601757
 20
285.37912486567575
 11
308.79212623601757
 21
238.71245819900912
  0
TEXT
  8
_0-d_寸法3
 62
    7
 10
308.79212623601757
 20
254.54579153234246
 40
15
 41
1
 50
90
  1
28
  0
LINE
  8
_0-a_極細3
  6
CONTINUOUS
 62
    7
 10
670.04889220175892
 20
188.59415936151251
 11
675.17919435164413
 21
202.68954867330109
  0
LINE
  8
_0-a_極細3
  6
CONTINUOUS
 62
    7
 10
620.05484952796269
 20
222.75316937254729
 11
614.92454737807793
 21
208.65778006075871
  0
LINE
  8
_0-a_極細3
  6
CONTINUOUS
 62
    7
 10
675.17919435164413
 20
202.68954867330109
 11
620.05484952796269
 21
222.75316937254732
  0
LINE
  8
_0-a_極細3
  6
CONTINUOUS
 62
    7
 10
670.04889220175892
 20
188.59415936151251
 11
614.92454737807793
 21
208.65778006075871
  0
LINE
  8
_0-a_極細3
  6
CENTER1
 62
    7
 10
677.56947666869439
 20
193.83822397737688
 11
613.53845618612831
 21
217.14360946241226
  0
LINE
  8
_0-a_極細3
  6
CONTINUOUS
 62
    7
 10
651.4088239812736
 20
163.71245819900892
 11
651.4088239812736
 21
207.798019547325
  0
LINE
  8
_0-a_極細3
  6
CONTINUOUS
 62
    7
 10
666.4088239812736
 20
207.798019547325
 11
666.4088239812736
 21
163.71245819900892
  0
LINE
  8
_0-a_極細3
  6
CENTER1
 62
    7
 10
658.9088239812736
 20
155.43571791455611
 11
658.9088239812736
 21
212.07373971193454
  0
LINE
  8
_0-d_寸法3
  6
CONTINUOUS
 62
    7
 10
626.40882398127383
 20
190.37912486567564
 11
626.40882398127417
 21
173.23443296477024
  0
LINE
  8
_0-d_寸法3
  6
CONTINUOUS
 62
    7
 10
626.40882398127405
 20
178.23443296477024
 11
616.74956571838334
 21
175.64624251374511
  0
LINE
  8
_0-d_寸法3
  6
CONTINUOUS
 62
    7
 10
626.40882398127405
 20
178.23443296477024
 11
616.74956571838334
 21
180.8226234157955
  0
LINE
  8
_0-d_寸法3
  6
CONTINUOUS
 62
    7
 10
576.40882398127371
 20
228.71245819900892
 11
576.40882398127462
 21
173.23443296477024
  0
LINE
  8
_0-d_寸法3
  6
CONTINUOUS
 62
    7
 10
576.40882398127451
 20
178.23443296477024
 11
586.06808224416523
 21
180.8226234157955
  0
LINE
  8
_0-d_寸法3
  6
CONTINUOUS
 62
    7
 10
576.40882398127451
 20
178.23443296477024
 11
586.06808224416523
 21
175.64624251374511
  0
LINE
  8
_0-d_寸法3
  6
CONTINUOUS
 62
    7
 10
626.40882398127405
 20
178.23443296477024
 11
576.40882398127451
 21
178.23443296477024
  0
TEXT
  8
_0-d_寸法3
 62
    7
 10
593.90882398127405
 20
178.23443296477024
 40
15
 41
1
 50
0.0000000000002714
  1
30
  0
LINE
  8
_0-a_極細3
  6
CONTINUOUS
 62
    7
 10
651.4088239812736
 20
207.798019547325
 11
666.4088239812736
 21
207.798019547325
  0
CIRCLE
  8
_0-a_極細3
  6
CONTINUOUS
 62
    7
 10
673.57387825957085
 20
214.08901676381862
 40
0.5530864197530718
  0
CIRCLE
  8
_0-a_極細3
  6
CONTINUOUS
 62
    7
 10
653.97387825957139
 20
219.68901676381853
 40
0.5530864197530718
  0
TEXT
  8
_0-7_枠細線
 62
    5
 10
965.50000000000011
 20
70
 40
20
 41
0.5999999999999998
 50
0
  1
色については品番表参照のこと
  0
TEXT
  8
_0-7_枠細線
 62
    5
 10
443.15344300870657
 20
93.712093197331043
 40
25
 41
0.8
 50
0
  1
断面詳細図
  0
TEXT
  8
_0-7_枠細線
 62
    5
 10
558.10241275787462
 20
93.712093197331043
 40
20
 41
0.6
 50
0
  1
Ｓ＝１：３
  0
TEXT
  8
_0-7_枠細線
 62
    5
 10
1310
 20
67.5
 40
15
 41
0.6666666666666666
 50
0
  1
２００９年０１月３０日
  0
TEXT
  8
_0-7_枠細線
 62
    5
 10
965.50000000000011
 20
110
 40
20
 41
0.6
 50
0
  1
ＧＲＳ－２５Ｗ１５０　ＳＥＴ
  0
LINE
  8
_0-7_枠細線
  6
CONTINUOUS
 62
    5
 10
1225.0000000000014
 20
794.95837512859055
 11
1225.0000000000014
 21
719.95837512859043
  0
TEXT
  8
_0-7_枠細線
 62
    5
 10
1174.0000000000027
 20
749.95837512859043
 40
15
 41
0.5999999999999999
 50
0
  1
９９９
  0
TEXT
  8
_0-7_枠細線
 62
    5
 10
1181.5000000000027
 20
774.95837512859055
 40
15
 41
0.8000000000000001
 50
0
  1
Ｌ
  0
LINE
  8
_0-7_枠細線
  6
CONTINUOUS
 62
    5
 10
1150.0000000000014
 20
794.95837512859055
 11
1150.0000000000014
 21
719.95837512859043
  0
TEXT
  8
_0-7_枠細線
 62
    5
 10
1094.5000000000014
 20
774.95837512859055
 40
15
 41
0.8000000000000001
 50
0
  1
種　別
  0
TEXT
  8
_0-7_枠細線
 62
    5
 10
1094.5000000000009
 20
749.95837512859043
 40
15
 41
0.8000000000000001
 50
0
  1
定尺品
  0
TEXT
  8
_0-7_枠細線
 62
    5
 10
1094.5000000000009
 20
724.95837512859043
 40
15
 41
0.8000000000000001
 50
0
  1
特寸品
  0
LINE
  8
_0-7_枠細線
  6
CONTINUOUS
 62
    5
 10
1075
 20
794.95837512859055
 11
1075
 21
719.95837512859043
  0
LINE
  8
_0-7_枠細線
  6
CONTINUOUS
 62
    5
 10
1300.000000000002
 20
794.95837512859055
 11
1300.000000000002
 21
719.95837512859043
  0
TEXT
  8
_0-7_枠細線
 62
    5
 10
1256.5000000000027
 20
774.95837512859055
 40
15
 41
0.8000000000000001
 50
0
  1
Ａ
  0
TEXT
  8
_0-7_枠細線
 62
    5
 10
1244.5000000000018
 20
749.95837512859043
 40
15
 41
0.5999999999999999
 50
0
  1
１４．５
  0
TEXT
  8
_0-7_枠細線
 62
    5
 10
1151.5000000000018
 20
724.95837512859043
 40
15
 41
0.5999999999999999
 50
0
  1
３０５～１３０５
  0
LINE
  8
_0-7_枠細線
  6
CONTINUOUS
 62
    5
 10
1375.0000000000023
 20
794.95837512859055
 11
1375.0000000000023
 21
719.95837512859043
  0
LINE
  8
_0-7_枠細線
  6
CONTINUOUS
 62
    5
 10
1075
 20
794.95837512859055
 11
1375.0000000000023
 21
794.95837512859055
  0
LINE
  8
_0-7_枠細線
  6
CONTINUOUS
 62
    5
 10
1075
 20
769.95837512859055
 11
1375.0000000000023
 21
769.95837512859055
  0
LINE
  8
_0-7_枠細線
  6
CONTINUOUS
 62
    5
 10
1075
 20
744.95837512859043
 11
1375.0000000000023
 21
744.95837512859043
  0
LINE
  8
_0-7_枠細線
  6
CONTINUOUS
 62
    5
 10
1075
 20
719.95837512859043
 11
1375.0000000000023
 21
719.95837512859043
  0
TEXT
  8
_0-7_枠細線
 62
    5
 10
1331.5000000000023
 20
774.95837512859055
 40
15
 41
0.8000000000000001
 50
0
  1
Ｂ
  0
TEXT
  8
_0-7_枠細線
 62
    5
 10
1328.5000000000023
 20
749.95837512859043
 40
15
 41
0.5999999999999999
 50
0
  1
９７
  0
TEXT
  8
_0-7_枠細線
 62
    5
 10
1163.0053911613957
 20
799.95837512859055
 40
17.5
 41
1
 50
0
  1
寸法表
  0
TEXT
  8
_0-7_枠細線
 62
    5
 10
1244.5000000000018
 20
724.95837512859043
 40
15
 41
0.5999999999999999
 50
0
  1
７～２０
  0
TEXT
  8
_0-7_枠細線
 62
    5
 10
1077.04820616962
 20
699.23280458415547
 40
15
 41
0.8000000000000001
 50
0
  1
※ 特寸品はAが20以下となるようBにて調整
  0
TEXT
  8
_0-7_枠細線
 62
    5
 10
1077.4591206157011
 20
679.15385359249603
 40
15
 41
0.7666666666666667
 50
0
  1
※ Ｌの最小は角形(ます状)の場合のみ150mmまで対応可能
  0
TEXT
  8
_0-7_枠細線
 62
    5
 10
1315.0000000000023
 20
724.95837512859043
 40
15
 41
0.5999999999999999
 50
0
  1
２７～９７
  0
LINE
  8
_0-a_極細3
  6
CENTER1
 62
    7
 10
624.5290986100008
 20
266.71245819900895
 11
358.08816487006629
 21
266.71245819900895
  0
LINE
  8
_0-b_細線3
  6
CONTINUOUS
 62
    7
 10
380.40882397978135
 20
255.87912486567561
 11
403.2421573131146
 21
255.87912486567561
  0
LINE
  8
_0-b_細線3
  6
CONTINUOUS
 62
    7
 10
582.90882398400208
 20
255.87912486567561
 11
605.74215731733602
 21
255.87912486567561
  0
LINE
  8
_0-b_細線3
  6
CONTINUOUS
 62
    7
 10
408.90882398038434
 20
255.87912486567561
 11
432.24215731371783
 21
255.87912486567561
  0
LINE
  8
_0-b_細線3
  6
CONTINUOUS
 62
    7
 10
437.90882398098756
 20
255.87912486567561
 11
461.24215731432088
 21
255.87912486567561
  0
LINE
  8
_0-b_細線3
  6
CONTINUOUS
 62
    7
 10
466.90882398159033
 20
255.87912486567561
 11
490.24215731492359
 21
255.87912486567561
  0
LINE
  8
_0-b_細線3
  6
CONTINUOUS
 62
    7
 10
524.90882398279632
 20
255.87912486567561
 11
548.24215731612958
 21
255.87912486567561
  0
LINE
  8
_0-b_細線3
  6
CONTINUOUS
 62
    7
 10
553.90882398339932
 20
255.87912486567561
 11
577.24215731673303
 21
255.87912486567561
  0
LINE
  8
_0-b_細線3
  6
CONTINUOUS
 62
    7
 10
380.40882397978135
 20
277.54579153234209
 11
403.2421573131146
 21
277.54579153234209
  0
LINE
  8
_0-b_細線3
  6
CONTINUOUS
 62
    7
 10
582.90882398400208
 20
277.54579153234209
 11
605.74215731733602
 21
277.54579153234209
  0
LINE
  8
_0-b_細線3
  6
CONTINUOUS
 62
    7
 10
408.90882398038434
 20
277.54579153234209
 11
432.24215731371783
 21
277.54579153234209
  0
LINE
  8
_0-b_細線3
  6
CONTINUOUS
 62
    7
 10
437.90882398098756
 20
277.54579153234209
 11
461.24215731432088
 21
277.54579153234209
  0
LINE
  8
_0-b_細線3
  6
CONTINUOUS
 62
    7
 10
466.90882398159033
 20
277.54579153234209
 11
490.24215731492359
 21
277.54579153234209
  0
LINE
  8
_0-b_細線3
  6
CONTINUOUS
 62
    7
 10
524.90882398279632
 20
277.54579153234209
 11
548.24215731612958
 21
277.54579153234209
  0
LINE
  8
_0-b_細線3
  6
CONTINUOUS
 62
    7
 10
553.90882398339932
 20
277.54579153234209
 11
577.24215731673303
 21
277.54579153234209
  0
ARC
  8
_0-b_細線3
  6
CONTINUOUS
 62
    7
 10
372.58091064460837
 20
256.21245819900935
 40
0.3333333333333334
 50
179.99999999999983
 51
269.99999999999977
  0
LINE
  8
_0-b_細線3
  6
CONTINUOUS
 62
    7
 10
374.74215731127538
 20
255.87912486567589
 11
372.58091064460837
 21
255.87912486567589
  0
ARC
  8
_0-b_細線3
  6
CONTINUOUS
 62
    7
 10
372.58091064460837
 20
277.21245819900895
 40
0.3333333333333334
 50
89.999999999999915
 51
179.99999999999983
  0
LINE
  8
_0-b_細線3
  6
CONTINUOUS
 62
    7
 10
374.74215731127538
 20
277.54579153234289
 11
372.58091064460837
 21
277.54579153234289
  0
LINE
  8
_0-b_細線3
  6
CONTINUOUS
 62
    7
 10
372.24757731127465
 20
265.87912486567592
 11
372.24757731127465
 21
256.21245819900935
  0
LINE
  8
_0-b_細線3
  6
CONTINUOUS
 62
    7
 10
372.24757731127465
 20
277.21245819900895
 11
372.24757731127465
 21
265.87912486567592
  0
LINE
  8
_0-b_細線3
  6
CONTINUOUS
 62
    7
 10
372.24757731127465
 20
266.71245819900895
 11
367.24005064460789
 21
266.71245819900895
  0
LINE
  8
_0-b_細線3
  6
CONTINUOUS
 62
    7
 10
372.24757731127465
 20
260.87912486567637
 11
367.24003064460885
 21
260.87912486567637
  0
ARC
  8
_0-b_細線3
  6
CONTINUOUS
 62
    7
 10
367.24003064460885
 20
261.2124581990094
 40
0.3333333333333334
 50
179.99999999999983
 51
269.99999999999977
  0
ARC
  8
_0-b_細線3
  6
CONTINUOUS
 62
    7
 10
379.8366639779415
 20
263.79554819900994
 40
12.929926666666667
 50
166.96197800000505
 51
193.03566999999961
  0
ARC
  8
_0-b_細線3
  6
CONTINUOUS
 62
    7
 10
367.24003064460885
 20
272.21245819900986
 40
0.3333333333333334
 50
89.999999999999915
 51
179.99999999999983
  0
ARC
  8
_0-b_細線3
  6
CONTINUOUS
 62
    7
 10
379.8366639779415
 20
269.62936486567577
 40
12.929926666666667
 50
166.96433000000002
 51
193.03802199999851
  0
LINE
  8
_0-b_細線3
  6
CONTINUOUS
 62
    7
 10
372.24757731127465
 20
272.54579153234289
 11
367.24003064460885
 21
272.54579153234289
  0
LINE
  8
_0-b_細線3
  6
CONTINUOUS
 62
    7
 10
366.90669731127491
 20
261.2124581990094
 11
366.90669731127491
 21
272.21245819900986
  0
ARC
  8
_0-b_細線3
  6
CONTINUOUS
 62
    7
 10
613.57007065127232
 20
256.21245819900935
 40
0.3333333333333334
 50
269.99999999999977
 51
359.99999999999966
  0
LINE
  8
_0-b_細線3
  6
CONTINUOUS
 62
    7
 10
611.40882398460531
 20
255.87912486567589
 11
613.57007065127232
 21
255.87912486567589
  0
ARC
  8
_0-b_細線3
  6
CONTINUOUS
 62
    7
 10
613.57007065127232
 20
277.21245819900895
 40
0.3333333333333334
 50
0
 51
89.999999999999915
  0
LINE
  8
_0-b_細線3
  6
CONTINUOUS
 62
    7
 10
611.40882398460531
 20
277.54579153234289
 11
613.57007065127232
 21
277.54579153234289
  0
LINE
  8
_0-b_細線3
  6
CONTINUOUS
 62
    7
 10
613.90340398460603
 20
265.87912486567592
 11
613.90340398460603
 21
256.21245819900935
  0
LINE
  8
_0-b_細線3
  6
CONTINUOUS
 62
    7
 10
613.90340398460603
 20
277.21245819900895
 11
613.90340398460603
 21
265.87912486567592
  0
LINE
  8
_0-b_細線3
  6
CONTINUOUS
 62
    7
 10
613.90340398460603
 20
266.71245819900895
 11
618.91093065127279
 21
266.71245819900895
  0
LINE
  8
_0-b_細線3
  6
CONTINUOUS
 62
    7
 10
613.90340398460603
 20
260.87912486567637
 11
618.91095065127183
 21
260.87912486567637
  0
ARC
  8
_0-b_細線3
  6
CONTINUOUS
 62
    7
 10
618.91095065127183
 20
261.2124581990094
 40
0.3333333333333334
 50
269.99999999999977
 51
359.99999999999966
  0
ARC
  8
_0-b_細線3
  6
CONTINUOUS
 62
    7
 10
606.31431731793919
 20
263.79554819900994
 40
12.929926666666667
 50
346.96432999999968
 51
13.038021999994573
  0
ARC
  8
_0-b_細線3
  6
CONTINUOUS
 62
    7
 10
618.91095065127183
 20
272.21245819900986
 40
0.3333333333333334
 50
0
 51
89.999999999999915
  0
ARC
  8
_0-b_細線3
  6
CONTINUOUS
 62
    7
 10
606.31431731793919
 20
269.62936486567577
 40
12.929926666666667
 50
346.96197800000073
 51
13.035669999999625
  0
LINE
  8
_0-b_細線3
  6
CONTINUOUS
 62
    7
 10
613.90340398460603
 20
272.54579153234289
 11
618.91095065127183
 21
272.54579153234289
  0
LINE
  8
_0-b_細線3
  6
CONTINUOUS
 62
    7
 10
619.24428398460577
 20
261.2124581990094
 11
619.24428398460577
 21
272.21245819900986
  0
LINE
  8
_0-7_枠細線
  6
CONTINUOUS
 62
    5
 10
1075
 20
480.00000000000034
 11
1075
 21
560.00000000000034
  0
TEXT
  8
_0-7_枠細線
 62
    5
 10
1097.5
 20
537.50000000000034
 40
15
 41
1
 50
0
  1
耐荷重
  0
TEXT
  8
_0-7_枠細線
 62
    5
 10
1090
 20
507.50000000000034
 40
15
 41
1
 50
0
  1
3.5kN/㎡
  0
TEXT
  8
_0-7_枠細線
 62
    5
 10
1082.5
 20
487.50000000000034
 40
15
 41
1
 50
0
  1
（歩道用）
  0
LINE
  8
_0-7_枠細線
  6
CONTINUOUS
 62
    5
 10
1165
 20
480.00000000000034
 11
1165
 21
560.00000000000034
  0
TEXT
  8
_0-7_枠細線
 62
    5
 10
1187.5
 20
537.50000000000034
 40
15
 41
1
 50
0
  1
蓋重量
  0
LINE
  8
_0-7_枠細線
  6
CONTINUOUS
 62
    5
 10
1255
 20
480.00000000000034
 11
1255
 21
560.00000000000034
  0
TEXT
  8
_0-7_枠細線
 62
    5
 10
1277.5
 20
537.50000000000034
 40
15
 41
1
 50
0
  1
枠重量
  0
LINE
  8
_0-7_枠細線
  6
CONTINUOUS
 62
    5
 10
1075
 20
530.00000000000034
 11
1345
 21
530.00000000000034
  0
LINE
  8
_0-7_枠細線
  6
CONTINUOUS
 62
    5
 10
1075
 20
560.00000000000034
 11
1345
 21
560.00000000000034
  0
LINE
  8
_0-7_枠細線
  6
CONTINUOUS
 62
    5
 10
1075
 20
480.00000000000034
 11
1345
 21
480.00000000000034
  0
LINE
  8
_0-7_枠細線
  6
CONTINUOUS
 62
    5
 10
1345
 20
480.00000000000034
 11
1345
 21
560.00000000000034
  0
TEXT
  8
_0-7_枠細線
 62
    5
 10
1270
 20
498.75000000000034
 40
15
 41
0.8000000000000001
 50
0
  1
2.6kg/ｍ組
  0
LINE
  8
_0-7_枠細線
  6
CONTINUOUS
 62
    5
 10
1074.9999999999998
 20
300.00000000000045
 11
1375
 21
300.00000000000045
  0
LINE
  8
_0-7_枠細線
  6
CONTINUOUS
 62
    5
 10
1074.9999999999998
 20
325.00000000000051
 11
1375
 21
325.00000000000051
  0
LINE
  8
_0-7_枠細線
  6
CONTINUOUS
 62
    5
 10
1074.9999999999998
 20
350.00000000000051
 11
1375
 21
350.00000000000051
  0
LINE
  8
_0-7_枠細線
  6
CONTINUOUS
 62
    5
 10
1074.9999999999998
 20
375.00000000000057
 11
1375
 21
375.00000000000057
  0
TEXT
  8
_0-7_枠細線
 62
    5
 10
1198.0000000000002
 20
380.00000000000057
 40
15
 41
0.5999999999999999
 50
0
  1
ライトグレー
  0
LINE
  8
_0-7_枠細線
  6
CONTINUOUS
 62
    5
 10
1074.9999999999998
 20
400.00000000000051
 11
1375
 21
400.00000000000051
  0
TEXT
  8
_0-7_枠細線
 62
    5
 10
1207.0000000000002
 20
405.00000000000034
 40
15
 41
0.5999999999999999
 50
0
  1
ベージュ
  0
LINE
  8
_0-7_枠細線
  6
CONTINUOUS
 62
    5
 10
1074.9999999999998
 20
425.00000000000034
 11
1375
 21
425.00000000000034
  0
TEXT
  8
_0-7_枠細線
 62
    5
 10
1219.0000000000005
 20
430.00000000000034
 40
15
 41
0.8000000000000001
 50
0
  1
色
  0
TEXT
  8
_0-7_枠細線
 62
    5
 10
1101
 20
430.00000000000034
 40
15
 41
0.8000000000000001
 50
0
  1
品　　番
  0
TEXT
  8
_0-7_枠細線
 62
    5
 10
1301
 20
430.00000000000034
 40
15
 41
0.8000000000000001
 50
0
  1
備　　考
  0
LINE
  8
_0-7_枠細線
  6
CONTINUOUS
 62
    5
 10
1074.9999999999998
 20
450.00000000000034
 11
1375
 21
450.00000000000034
  0
TEXT
  8
_0-7_枠細線
 62
    5
 10
1163.7499999999998
 20
455.00000000000034
 40
17.5
 41
1
 50
0
  1
品番表
  0
LINE
  8
_0-7_枠細線
  6
CONTINUOUS
 62
    5
 10
1074.9999999999998
 20
225.00000000000026
 11
1375
 21
225.00000000000026
  0
LINE
  8
_0-7_枠細線
  6
CONTINUOUS
 62
    5
 10
1074.9999999999998
 20
250.00000000000051
 11
1375
 21
250.00000000000051
  0
LINE
  8
_0-7_枠細線
  6
CONTINUOUS
 62
    5
 10
1074.9999999999998
 20
275.00000000000057
 11
1375
 21
275.00000000000057
  0
TEXT
  8
_0-7_枠細線
 62
    5
 10
1207.0000000000007
 20
355.00000000000057
 40
15
 41
0.5999999999999999
 50
0
  1
ホワイト
  0
TEXT
  8
_0-7_枠細線
 62
    5
 10
1211.5
 20
330.00000000000051
 40
15
 41
0.5999999999999999
 50
0
  1
ピンク
  0
TEXT
  8
_0-7_枠細線
 62
    5
 10
1211.5
 20
305.00000000000045
 40
15
 41
0.5999999999999999
 50
0
  1
ブルー
  0
TEXT
  8
_0-7_枠細線
 62
    5
 10
1197.9999999999998
 20
280.00000000000045
 40
15
 41
0.5999999999999999
 50
0
  1
ダークグレー
  0
TEXT
  8
_0-7_枠細線
 62
    5
 10
1080
 20
405.00000000000034
 40
15
 41
0.5
 50
0
  1
ＧＲＳ－２５Ｗ１５０－Ｂ
  0
TEXT
  8
_0-7_枠細線
 62
    5
 10
1080
 20
380.00000000000051
 40
15
 41
0.5
 50
0
  1
ＧＲＳ－２５Ｗ１５０－Ｇ
  0
TEXT
  8
_0-7_枠細線
 62
    5
 10
1080
 20
355.00000000000057
 40
15
 41
0.5
 50
0
  1
ＧＲＳ－２５Ｗ１５０－Ｓ
  0
TEXT
  8
_0-7_枠細線
 62
    5
 10
1080
 20
330.00000000000051
 40
15
 41
0.5
 50
0
  1
ＧＲＳ－２５Ｗ１５０－Ｐ
  0
TEXT
  8
_0-7_枠細線
 62
    5
 10
1080
 20
305.00000000000045
 40
15
 41
0.5
 50
0
  1
ＧＲＳ－２５Ｗ１５０－Ａ
  0
TEXT
  8
_0-7_枠細線
 62
    5
 10
1080
 20
280.00000000000045
 40
15
 41
0.5
 50
0
  1
ＧＲＳ－２５Ｗ１５０－Ｄ
  0
TEXT
  8
_0-7_枠細線
 62
    5
 10
1080
 20
255.00000000000057
 40
15
 41
0.5
 50
0
  1
ＧＲＳ－２５Ｗ１５０－Ｍ
  0
TEXT
  8
_0-7_枠細線
 62
    5
 10
1211.5
 20
255.00000000000057
 40
15
 41
0.5999999999999999
 50
0
  1
ウッド
  0
TEXT
  8
_0-7_枠細線
 62
    5
 10
1186
 20
498.75000000000034
 40
15
 41
0.8000000000000001
 50
0
  1
2.0kg/ｍ
  0
LINE
  8
_0-7_枠細線
  6
CONTINUOUS
 62
    5
 10
1074.9999999999998
 20
200
 11
1375
 21
200
  0
TEXT
  8
_0-7_枠細線
 62
    5
 10
1207.0000000000007
 20
205.00000000000003
 40
15
 41
0.5999999999999999
 50
0
  1
ブラック
  0
TEXT
  8
_0-7_枠細線
 62
    5
 10
1080
 20
205.00000000000003
 40
15
 41
0.5
 50
0
  1
ＧＲＳ－２５Ｗ１５０－Ｋ
  0
LINE
  8
_0-7_枠細線
  6
CONTINUOUS
 62
    5
 10
1375
 20
450.00000000000034
 11
1375
 21
200
  0
LINE
  8
_0-7_枠細線
  6
CONTINUOUS
 62
    5
 10
1274.9999999999998
 20
450.00000000000034
 11
1274.9999999999998
 21
200
  0
LINE
  8
_0-7_枠細線
  6
CONTINUOUS
 62
    5
 10
1175.0000000000002
 20
450.00000000000034
 11
1175.0000000000002
 21
200
  0
LINE
  8
_0-7_枠細線
  6
CONTINUOUS
 62
    5
 10
1074.9999999999998
 20
450.00000000000034
 11
1074.9999999999998
 21
200
  0
ARC
  8
_0-b_細線3
  6
CONTINUOUS
 62
    7
 10
485.24215731644608
 20
282.04579153234215
 40
1.666666666666667
 50
89.999999999999915
 51
179.99999999999983
  0
ARC
  8
_0-b_細線3
  6
CONTINUOUS
 62
    7
 10
486.02207263532546
 20
285.37912486567564
 40
1.666666666666667
 50
269.99999999999977
 51
329.99999999999523
  0
ARC
  8
_0-b_細線3
  6
CONTINUOUS
 62
    7
 10
488.90882398127337
 20
283.71245819900912
 40
1.666666666666667
 50
89.999999999999915
 51
150.00000000000523
  0
LINE
  8
_0-b_細線3
  6
CONTINUOUS
 62
    7
 10
485.24215731644608
 20
283.71245819900912
 11
486.02207263532546
 21
283.71245819900912
  0
ARC
  8
_0-b_細線3
  6
CONTINUOUS
 62
    7
 10
500.90882397943437
 20
282.04579153234215
 40
1.666666666666667
 50
0
 51
89.999999999999915
  0
ARC
  8
_0-b_細線3
  6
CONTINUOUS
 62
    7
 10
500.12890866055528
 20
285.37912486567564
 40
1.666666666666667
 50
210.00000000000014
 51
269.99999999999977
  0
ARC
  8
_0-b_細線3
  6
CONTINUOUS
 62
    7
 10
497.24215731460686
 20
283.71245819900912
 40
1.666666666666667
 50
29.999999999990862
 51
89.999999999992184
  0
LINE
  8
_0-b_細線3
  6
CONTINUOUS
 62
    7
 10
500.90882397943437
 20
283.71245819900912
 11
500.12890866055528
 21
283.71245819900912
  0
ARC
  8
_0-b_細線3
  6
CONTINUOUS
 62
    7
 10
484.40882398311288
 20
279.71245819900912
 40
0.8333333333333334
 50
179.99999999999983
 51
269.99999999999977
  0
LINE
  8
_0-b_細線3
  6
CONTINUOUS
 62
    7
 10
483.57549064977957
 20
282.04579153234215
 11
483.57549064977957
 21
279.71245819900912
  0
ARC
  8
_0-b_細線3
  6
CONTINUOUS
 62
    7
 10
501.74215731276786
 20
279.71245819900912
 40
0.8333333333333334
 50
269.99999999999977
 51
359.99999999999966
  0
LINE
  8
_0-b_細線3
  6
CONTINUOUS
 62
    7
 10
502.57549064610117
 20
282.04579153234215
 11
502.57549064610117
 21
279.71245819900912
  0
ARC
  8
_0-b_細線3
  6
CONTINUOUS
 62
    7
 10
488.57549064977957
 20
277.21245819900912
 40
1.666666666666667
 50
0
 51
89.999999999999915
  0
LINE
  8
_0-b_細線3
  6
CONTINUOUS
 62
    7
 10
488.57549064977957
 20
278.87912486567564
 11
484.40882398311288
 21
278.87912486567564
  0
ARC
  8
_0-b_細線3
  6
CONTINUOUS
 62
    7
 10
497.57549064977957
 20
277.21245819900912
 40
1.666666666666667
 50
89.999999999999915
 51
179.99999999999983
  0
LINE
  8
_0-b_細線3
  6
CONTINUOUS
 62
    7
 10
497.57549064610066
 20
278.87912486567564
 11
501.74215731276786
 21
278.87912486567564
  0
LINE
  8
_0-b_細線3
  6
CONTINUOUS
 62
    7
 10
497.24215731460686
 20
285.37912486567564
 11
488.90882398127337
 21
285.37912486567564
  0
LINE
  8
_0-b_細線3
  6
CONTINUOUS
 62
    7
 10
490.24215731460714
 20
243.71245819900892
 11
490.24215731644608
 21
277.21245819900912
  0
LINE
  8
_0-b_細線3
  6
CONTINUOUS
 62
    7
 10
495.9088239812736
 20
243.71245819900892
 11
495.90882398311305
 21
277.21245819900912
  0
LINE
  8
_0-b_細線3
  6
CONTINUOUS
 62
    7
 10
495.9088239812736
 20
243.71245819900892
 11
490.24215731460714
 21
243.71245819900892
  0
LINE
  8
_0-b_細線3
  6
CONTINUOUS
 62
    7
 10
511.45508652013609
 20
285.71286029868787
 11
511.45508652013609
 21
252.3795269653539
  0
LINE
  8
_0-b_細線3
  6
CONTINUOUS
 62
    7
 10
503.62175318680215
 20
252.3795269653539
 11
503.62175318680215
 21
285.71286029868787
  0
LINE
  8
_0-b_細線3
  6
CONTINUOUS
 62
    7
 10
511.45508652013609
 20
252.3795269653539
 11
503.62175318680215
 21
252.3795269653539
  0
LINE
  8
_0-b_細線3
  6
CONTINUOUS
 62
    7
 10
503.62175318680215
 20
285.71286029868787
 11
511.45508652013609
 21
285.71286029868787
  0
LINE
  8
_0-b_細線3
  6
DASHED2
 62
    7
 10
503.62175318680215
 20
257.37952696535388
 11
511.45508652013609
 21
257.37952696535388
  0
LINE
  8
_0-b_細線3
  6
DASHED2
 62
    7
 10
503.62175318680215
 20
280.71286029868787
 11
511.45508652013609
 21
280.71286029868787
  0
LINE
  8
_0-b_細線3
  6
CONTINUOUS
 62
    7
 10
495.90882398313141
 20
277.54579153234209
 11
503.62175318680215
 21
277.54579153234209
  0
LINE
  8
_0-b_細線3
  6
CONTINUOUS
 62
    7
 10
511.45508652013609
 20
277.54579153234209
 11
519.24215731552658
 21
277.54579153234209
  0
LINE
  8
_0-b_細線3
  6
CONTINUOUS
 62
    7
 10
511.45508652013609
 20
255.87912486567561
 11
519.24215731552658
 21
255.87912486567561
  0
LINE
  8
_0-b_細線3
  6
CONTINUOUS
 62
    7
 10
495.90882398192349
 20
255.87912486567561
 11
503.62175318680215
 21
255.87912486567561
  0
TEXT
  8
_0-7_枠細線
 62
    5
 10
1080
 20
230.00000000000028
 40
15
 41
0.5
 50
0
  1
ＧＲＳ－２５Ｗ１５０－Ｃ
  0
TEXT
  8
_0-7_枠細線
 62
    5
 10
1207.0000000000002
 20
230.00000000000028
 40
15
 41
0.5999999999999999
 50
0
  1
ブラウン
  0
LINE
  8
_0-7_枠細線
  6
CONTINUOUS
 62
    5
 10
1425
 20
942.5
 11
890
 21
942.5
  0
TEXT
  8
_0-7_枠細線
 62
    5
 10
895
 20
945
 40
12.5
 41
1
 50
0
  1
記号
  0
TEXT
  8
_0-7_枠細線
 62
    5
 10
996.875
 20
945
 40
12.5
 41
1
 50
0
  1
訂　 正　 記　 事
  0
TEXT
  8
_0-7_枠細線
 62
    5
 10
1181.25
 20
945
 40
12.5
 41
1
 50
0
  1
訂 正 年 月 日
  0
TEXT
  8
_0-7_枠細線
 62
    5
 10
1306.25
 20
945
 40
12.5
 41
1
 50
0
  1
備　　　　　考
  0
LINE
  8
_0-7_枠細線
  6
CONTINUOUS
 62
    5
 10
1425
 20
925
 11
890
 21
925
  0
TEXT
  8
_0-7_枠細線
 62
    5
 10
938.85037037037023
 20
927.5
 40
12.5
 41
1
 50
0
  1
品番・色記号変更
  0
TEXT
  8
_0-7_枠細線
 62
    5
 10
1180
 20
927.5
 40
12.5
 41
0.7199999999999999
 50
0
  1
２０１３．０３．１３
  0
LINE
  8
_0-7_枠細線
  6
CONTINUOUS
 62
    5
 10
1425
 20
907.5
 11
890
 21
907.5
  0
LINE
  8
_0-7_枠細線
  6
CONTINUOUS
 62
    5
 10
1425
 20
890
 11
890
 21
890
  0
TEXT
  8
_0-7_枠細線
 62
    5
 10
938.85037037037023
 20
910
 40
12.5
 41
1
 50
0
  1
クロスバーピッチ変更
  0
TEXT
  8
_0-7_枠細線
 62
    5
 10
938.85037037037023
 20
892.5
 40
12.5
 41
1
 50
0
  1
取外具形状変更
  0
TEXT
  8
_0-7_枠細線
 62
    5
 10
1180
 20
910
 40
12.5
 41
0.7199999999999999
 50
0
  1
２０１５．１１．２０
  0
LINE
  8
_0-7_枠細線
  6
CONTINUOUS
 62
    5
 10
915
 20
908.94233397174685
 11
907.5
 21
923.94233397174685
  0
LINE
  8
_0-7_枠細線
  6
CONTINUOUS
 62
    5
 10
900
 20
908.94233397174685
 11
915
 21
908.94233397174685
  0
LINE
  8
_0-7_枠細線
  6
CONTINUOUS
 62
    5
 10
907.5
 20
923.94233397174685
 11
900
 21
908.94233397174685
  0
TEXT
  8
_0-7_枠細線
 62
    5
 10
902.36515126814822
 20
908.63533172636664
 40
12.5
 41
0.8
 50
0
  1
１
  0
TEXT
  8
_0-7_枠細線
 62
    5
 10
902.36515126814822
 20
891.13533172636664
 40
12.5
 41
0.8
 50
0
  1
２
  0
LINE
  8
_0-7_枠細線
  6
CONTINUOUS
 62
    5
 10
1425
 20
872.5
 11
890
 21
872.5
  0
LINE
  8
_0-7_枠細線
  6
CONTINUOUS
 62
    5
 10
907.5
 20
906.44233397174685
 11
900
 21
891.44233397174685
  0
LINE
  8
_0-7_枠細線
  6
CONTINUOUS
 62
    5
 10
900
 20
891.44233397174685
 11
915
 21
891.44233397174685
  0
LINE
  8
_0-7_枠細線
  6
CONTINUOUS
 62
    5
 10
915
 20
891.44233397174685
 11
907.5
 21
906.44233397174685
  0
TEXT
  8
_0-7_枠細線
 62
    5
 10
902.36515126814822
 20
873.39465008156549
 40
12.5
 41
0.8
 50
0
  1
３
  0
TEXT
  8
_0-7_枠細線
 62
    5
 10
1180
 20
875
 40
12.5
 41
0.7199999999999999
 50
0
  1
２０１７．０４．０１
  0
LINE
  8
_0-7_枠細線
  6
CONTINUOUS
 62
    5
 10
915
 20
856.44233397174685
 11
907.5
 21
871.44233397174685
  0
LINE
  8
_0-7_枠細線
  6
CONTINUOUS
 62
    5
 10
900
 20
856.44233397174685
 11
915
 21
856.44233397174685
  0
LINE
  8
_0-7_枠細線
  6
CONTINUOUS
 62
    5
 10
907.5
 20
871.44233397174685
 11
900
 21
856.44233397174685
  0
TEXT
  8
_0-7_枠細線
 62
    5
 10
1180
 20
857.5
 40
12.5
 41
0.7199999999999999
 50
0
  1
２０１７．０４．０１
  0
TEXT
  8
_0-7_枠細線
 62
    5
 10
938.85037037037023
 20
857.5
 40
12.5
 41
1
 50
0
  1
ブラウン色（Ｃ）追加
  0
LINE
  8
_0-7_枠細線
  6
CONTINUOUS
 62
    5
 10
1425
 20
855
 11
890
 21
855
  0
LINE
  8
_0-7_枠細線
  6
CONTINUOUS
 62
    5
 10
907.5
 20
888.94233397174685
 11
900
 21
873.94233397174685
  0
LINE
  8
_0-7_枠細線
  6
CONTINUOUS
 62
    5
 10
900
 20
873.94233397174685
 11
915
 21
873.94233397174685
  0
LINE
  8
_0-7_枠細線
  6
CONTINUOUS
 62
    5
 10
915
 20
873.94233397174685
 11
907.5
 21
888.94233397174685
  0
TEXT
  8
_0-7_枠細線
 62
    5
 10
902.36515126814822
 20
855.49351400689704
 40
12.5
 41
0.8
 50
0
  1
４
  0
TEXT
  8
_0-7_枠細線
 62
    5
 10
938.85037037037023
 20
875
 40
12.5
 41
1
 50
0
  1
取外具形状変更
  0
TEXT
  8
_0-7_枠細線
 62
    5
 10
1180
 20
892.5
 40
12.5
 41
0.7199999999999999
 50
0
  1
２０１５．１１．２０
  0
LINE
  8
_0-7_枠細線
  6
CONTINUOUS
 62
    5
 10
1068.5276246655549
 20
230.5760412212729
 11
1061.0276246655549
 21
245.5760412212729
  0
LINE
  8
_0-7_枠細線
  6
CONTINUOUS
 62
    5
 10
1053.5276246655549
 20
230.5760412212729
 11
1068.5276246655549
 21
230.5760412212729
  0
LINE
  8
_0-7_枠細線
  6
CONTINUOUS
 62
    5
 10
1061.0276246655549
 20
245.5760412212729
 11
1053.5276246655549
 21
230.5760412212729
  0
TEXT
  8
_0-7_枠細線
 62
    5
 10
1055.892775933703
 20
229.62722125642301
 40
12.5
 41
0.8
 50
0
  1
４
  0
LINE
  8
_0-9_枠極太
  6
CONTINUOUS
 62
    5
 10
60
 20
60
 11
60
 21
960
  0
LINE
  8
_0-9_枠極太
  6
CONTINUOUS
 62
    5
 10
60
 20
960
 11
1425
 21
960
  0
LINE
  8
_0-9_枠極太
  6
CONTINUOUS
 62
    5
 10
1425
 20
960
 11
1425
 21
60
  0
LINE
  8
_0-9_枠極太
  6
CONTINUOUS
 62
    5
 10
1425
 20
60
 11
60
 21
60
  0
LINE
  8
_0-7_枠細線
  6
CONTINUOUS
 62
    5
 10
915
 20
838.94233397174685
 11
907.5
 21
853.94233397174685
  0
LINE
  8
_0-7_枠細線
  6
CONTINUOUS
 62
    5
 10
900
 20
838.94233397174685
 11
915
 21
838.94233397174685
  0
LINE
  8
_0-7_枠細線
  6
CONTINUOUS
 62
    5
 10
907.5
 20
853.94233397174685
 11
900
 21
838.94233397174685
  0
LINE
  8
_0-7_枠細線
  6
CONTINUOUS
 62
    5
 10
1425
 20
837.5
 11
890
 21
837.5
  0
TEXT
  8
_0-7_枠細線
 62
    5
 10
902.36515126814822
 20
837.99351400689704
 40
12.5
 41
0.8
 50
0
  1
５
  0
TEXT
  8
_0-7_枠細線
 62
    5
 10
1180
 20
840
 40
12.5
 41
0.7199999999999999
 50
0
  1
２０１９．０９．０１
  0
LINE
  8
_0-7_枠細線
  6
CONTINUOUS
 62
    5
 10
1275
 20
837.5
 11
1275
 21
959.99999999999909
  0
LINE
  8
_0-7_枠細線
  6
CONTINUOUS
 62
    5
 10
1175
 20
837.5
 11
1175
 21
959.99999999999909
  0
LINE
  8
_0-7_枠細線
  6
CONTINUOUS
 62
    5
 10
925
 20
837.5
 11
925
 21
959.99999999999909
  0
LINE
  8
_0-7_枠細線
  6
CONTINUOUS
 62
    5
 10
890
 20
837.5
 11
890
 21
959.99999999999909
  0
LINE
  8
_0-b_細線3
  6
CONTINUOUS
 62
    7
 10
359.74215731460686
 20
258.71245819900895
 11
359.74215731460686
 21
200.37912486567564
  0
LINE
  8
_0-b_細線3
  6
CONTINUOUS
 62
    7
 10
359.74215731460686
 20
200.37912486567564
 11
355.90882398127354
 21
200.37912486567564
  0
LINE
  8
_0-b_細線3
  6
CONTINUOUS
 62
    7
 10
355.90882398127354
 20
200.37912486567564
 11
355.90882398127354
 21
258.71245819900895
  0
LINE
  8
_0-b_細線3
  6
CONTINUOUS
 62
    7
 10
355.90882398127354
 20
258.71245819900895
 11
359.74215731460686
 21
258.71245819900895
  0
LINE
  8
_0-a_極細3
  6
CONTINUOUS
 62
    7
 10
355.90882398127354
 20
232.04579153234232
 11
359.74215731460686
 21
232.04579153234232
  0
LINE
  8
_0-a_極細3
  6
CONTINUOUS
 62
    7
 10
355.90882398127354
 20
235.37912486567566
 11
359.74215731460686
 21
235.37912486567566
  0
LINE
  8
_0-a_極細3
  6
CONTINUOUS
 62
    7
 10
355.90882398127354
 20
228.71245819900892
 11
359.74215731460686
 21
228.71245819900892
  0
LINE
  8
_0-a_極細3
  6
CONTINUOUS
 62
    7
 10
355.90882398127354
 20
238.71245819900892
 11
359.74215731460686
 21
238.71245819900892
  0
LINE
  8
_0-a_極細3
  6
CONTINUOUS
 62
    7
 10
359.74215731460686
 20
205.37912486567566
 11
355.90882398127354
 21
205.37912486567566
  0
LINE
  8
_0-a_極細3
  6
CONTINUOUS
 62
    7
 10
355.90882398127354
 20
255.37912486567566
 11
359.74215731460686
 21
255.37912486567566
  0
LINE
  8
_0-b_細線3
  6
CONTINUOUS
 62
    7
 10
626.40882398127383
 20
258.71245819900895
 11
626.40882398127383
 21
200.37912486567564
  0
LINE
  8
_0-b_細線3
  6
CONTINUOUS
 62
    7
 10
626.40882398127383
 20
200.37912486567564
 11
630.2421573146072
 21
200.37912486567564
  0
LINE
  8
_0-b_細線3
  6
CONTINUOUS
 62
    7
 10
630.2421573146072
 20
200.37912486567564
 11
630.2421573146072
 21
258.71245819900895
  0
LINE
  8
_0-b_細線3
  6
CONTINUOUS
 62
    7
 10
630.2421573146072
 20
258.71245819900895
 11
626.40882398127383
 21
258.71245819900895
  0
LINE
  8
_0-a_極細3
  6
CONTINUOUS
 62
    7
 10
630.2421573146072
 20
232.04579153234232
 11
626.40882398127383
 21
232.04579153234232
  0
LINE
  8
_0-a_極細3
  6
CONTINUOUS
 62
    7
 10
630.2421573146072
 20
235.37912486567566
 11
626.40882398127383
 21
235.37912486567566
  0
LINE
  8
_0-a_極細3
  6
CONTINUOUS
 62
    7
 10
630.2421573146072
 20
228.71245819900892
 11
626.40882398127383
 21
228.71245819900892
  0
LINE
  8
_0-a_極細3
  6
CONTINUOUS
 62
    7
 10
630.2421573146072
 20
238.71245819900892
 11
626.40882398127383
 21
238.71245819900892
  0
LINE
  8
_0-a_極細3
  6
CONTINUOUS
 62
    7
 10
626.40882398127383
 20
205.37912486567566
 11
630.2421573146072
 21
205.37912486567566
  0
LINE
  8
_0-a_極細3
  6
CONTINUOUS
 62
    7
 10
630.2421573146072
 20
255.37912486567566
 11
626.40882398127383
 21
255.37912486567566
  0
LINE
  8
_0-7_枠細線
  6
CONTINUOUS
 62
    5
 10
648.17287415522958
 20
248.04577999894886
 11
640.67287415522958
 21
263.04577999894883
  0
LINE
  8
_0-7_枠細線
  6
CONTINUOUS
 62
    5
 10
633.17287415522947
 20
248.04577999894886
 11
648.17287415522958
 21
248.04577999894886
  0
LINE
  8
_0-7_枠細線
  6
CONTINUOUS
 62
    5
 10
640.67287415522958
 20
263.04577999894883
 11
633.17287415522947
 21
248.04577999894886
  0
TEXT
  8
_0-7_枠細線
 62
    5
 10
635.53802542337758
 20
247.09696003409891
 40
12.5
 41
0.8
 50
0
  1
５
  0
ARC
  8
_0-0_計極細
  6
CONTINUOUS
 62
    2
 10
204.60950240667813
 20
717.60000000000093
 40
11.295514677412786
 50
138.39585046827494
 51
221.60414953172469
  0
ARC
  8
_0-0_計極細
  6
CONTINUOUS
 62
    2
 10
187.71706009330771
 20
702.59999999999945
 40
11.295514677412786
 50
318.39585046827381
 51
41.604149531724723
  0
ARC
  8
_0-0_計極細
  6
CONTINUOUS
 62
    2
 10
204.60950240667813
 20
587.59999999999945
 40
11.295514677412786
 50
138.39585046827494
 51
221.60414953172469
  0
ARC
  8
_0-0_計極細
  6
CONTINUOUS
 62
    2
 10
187.71706009330771
 20
572.59999999999809
 40
11.295514677412786
 50
318.39585046827381
 51
41.604149531724723
  0
LINE
  8
_0-5_寸法線
  6
CONTINUOUS
 62
    7
 10
186.16328124999228
 20
725.10000000000093
 11
141.16328124999725
 21
725.10000000000093
  0
LINE
  8
_0-5_寸法線
  6
CONTINUOUS
 62
    7
 10
146.16328124999725
 20
725.10000000000093
 11
148.75147170102238
 21
715.4407417371101
  0
LINE
  8
_0-5_寸法線
  6
CONTINUOUS
 62
    7
 10
146.16328124999725
 20
725.10000000000093
 11
143.57509079897198
 21
715.4407417371101
  0
LINE
  8
_0-5_寸法線
  6
CONTINUOUS
 62
    7
 10
186.1632812499947
 20
695.10000000000093
 11
141.16328124999745
 21
695.10000000000093
  0
LINE
  8
_0-5_寸法線
  6
CONTINUOUS
 62
    7
 10
146.16328124999745
 20
695.10000000000093
 11
143.57509079897227
 21
704.75925826289154
  0
LINE
  8
_0-5_寸法線
  6
CONTINUOUS
 62
    7
 10
146.16328124999745
 20
695.10000000000093
 11
148.75147170102267
 21
704.75925826289154
  0
LINE
  8
_0-5_寸法線
  6
CONTINUOUS
 62
    7
 10
146.16328124999725
 20
725.10000000000093
 11
146.16328124999745
 21
695.10000000000093
  0
TEXT
  8
_0-5_寸法線
 62
    7
 10
146.16328124999725
 20
702.60000000000093
 40
15
 41
1
 50
90
  1
30
  0
LINE
  8
_0-5_寸法線
  6
CONTINUOUS
 62
    7
 10
146.16328124999745
 20
695.10000000000093
 11
148.75147170102267
 21
685.4407417371101
  0
LINE
  8
_0-5_寸法線
  6
CONTINUOUS
 62
    7
 10
146.16328124999745
 20
695.10000000000093
 11
143.57509079897227
 21
685.4407417371101
  0
LINE
  8
_0-5_寸法線
  6
CONTINUOUS
 62
    7
 10
186.16328124999242
 20
595.09999999999945
 11
141.16328124999745
 21
595.09999999999945
  0
LINE
  8
_0-5_寸法線
  6
CONTINUOUS
 62
    7
 10
146.16328124999745
 20
595.09999999999945
 11
143.57509079897227
 21
604.75925826289017
  0
LINE
  8
_0-5_寸法線
  6
CONTINUOUS
 62
    7
 10
146.16328124999745
 20
595.09999999999945
 11
148.75147170102267
 21
604.75925826289017
  0
LINE
  8
_0-5_寸法線
  6
CONTINUOUS
 62
    7
 10
146.16328124999745
 20
695.10000000000093
 11
146.16328124999745
 21
595.09999999999945
  0
TEXT
  8
_0-5_寸法線
 62
    7
 10
146.1632812499974
 20
633.85000000000036
 40
15
 41
1
 50
89.999999999999815
  1
100
  0
LINE
  8
_0-5_寸法線
  6
CONTINUOUS
 62
    7
 10
146.16328124999745
 20
595.09999999999945
 11
148.75147170102267
 21
585.44074173710874
  0
LINE
  8
_0-5_寸法線
  6
CONTINUOUS
 62
    7
 10
146.16328124999745
 20
595.09999999999945
 11
143.57509079897227
 21
585.44074173710874
  0
LINE
  8
_0-5_寸法線
  6
CONTINUOUS
 62
    7
 10
186.16328124999745
 20
565.10000000000264
 11
141.16328124999745
 21
565.10000000000264
  0
LINE
  8
_0-5_寸法線
  6
CONTINUOUS
 62
    7
 10
146.16328124999745
 20
565.10000000000264
 11
143.57509079897227
 21
574.75925826289335
  0
LINE
  8
_0-5_寸法線
  6
CONTINUOUS
 62
    7
 10
146.16328124999745
 20
565.10000000000264
 11
148.75147170102267
 21
574.75925826289335
  0
LINE
  8
_0-5_寸法線
  6
CONTINUOUS
 62
    7
 10
146.16328124999745
 20
595.09999999999945
 11
146.16328124999745
 21
565.10000000000264
  0
TEXT
  8
_0-5_寸法線
 62
    7
 10
146.16328124999745
 20
572.60000000000082
 40
15
 41
1
 50
90
  1
30
  0
LINE
  8
_0-1_計細線
  6
CONTINUOUS
 62
    3
 10
196.16328124999242
 20
695.10000000000093
 11
217.66328124999362
 21
695.10000000000093
  0
LINE
  8
_0-1_計細線
  6
CONTINUOUS
 62
    3
 10
196.16328124999242
 20
595.10000000000082
 11
217.66328124999362
 21
595.10000000000082
  0
ARC
  8
_0-0_計極細
  6
CONTINUOUS
 62
    2
 10
830.60950240667876
 20
717.60000000000093
 40
11.295514677412786
 50
138.39585046827415
 51
221.60414953172548
  0
ARC
  8
_0-0_計極細
  6
CONTINUOUS
 62
    2
 10
813.71706009330853
 20
702.59999999999945
 40
11.295514677412786
 50
318.39585046827534
 51
41.604149531723962
  0
ARC
  8
_0-0_計極細
  6
CONTINUOUS
 62
    2
 10
830.60950240667876
 20
587.59999999999945
 40
11.295514677412786
 50
138.39585046827415
 51
221.60414953172548
  0
ARC
  8
_0-0_計極細
  6
CONTINUOUS
 62
    2
 10
813.71706009330853
 20
572.59999999999809
 40
11.295514677412786
 50
318.39585046827534
 51
41.604149531723962
  0
LINE
  8
_0-1_計細線
  6
CONTINUOUS
 62
    3
 10
800.66328124999359
 20
595.10000000000082
 11
822.16328124999359
 21
595.10000000000082
  0
LINE
  8
_0-1_計細線
  6
CONTINUOUS
 62
    3
 10
800.66328124999359
 20
695.10000000000093
 11
822.16328124999359
 21
695.10000000000093
  0
LINE
  8
_0-1_計細線
  6
CONTINUOUS
 62
    3
 10
217.66328124999362
 20
720.10000000000093
 11
800.66328124999359
 21
720.10000000000093
  0
LINE
  8
_0-1_計細線
  6
CONTINUOUS
 62
    3
 10
217.66328124999362
 20
708.70000000000027
 11
800.66328124999359
 21
708.70000000000027
  0
LINE
  8
_0-1_計細線
  6
CONTINUOUS
 62
    3
 10
217.66328124999362
 20
720.10000000000093
 11
217.66328124999362
 21
708.70000000000027
  0
LINE
  8
_0-1_計細線
  6
CONTINUOUS
 62
    3
 10
800.66328124999359
 20
720.10000000000093
 11
800.66328124999359
 21
708.70000000000027
  0
LINE
  8
_0-0_計極細
  6
CONTINUOUS
 62
    2
 10
217.66328124999362
 20
711.90000000000055
 11
800.66328124999359
 21
711.90000000000055
  0
LINE
  8
_0-0_計極細
  6
CONTINUOUS
 62
    2
 10
217.66328124999362
 20
716.90000000000055
 11
800.66328124999359
 21
716.90000000000055
  0
LINE
  8
_0-1_計細線
  6
CONTINUOUS
 62
    3
 10
217.66328124999362
 20
703.00000000000091
 11
800.66328124999359
 21
703.00000000000091
  0
LINE
  8
_0-1_計細線
  6
CONTINUOUS
 62
    3
 10
217.66328124999362
 20
691.60000000000036
 11
800.66328124999359
 21
691.60000000000036
  0
LINE
  8
_0-1_計細線
  6
CONTINUOUS
 62
    3
 10
217.66328124999362
 20
703.00000000000091
 11
217.66328124999362
 21
691.60000000000036
  0
LINE
  8
_0-1_計細線
  6
CONTINUOUS
 62
    3
 10
800.66328124999359
 20
703.00000000000091
 11
800.66328124999359
 21
691.60000000000036
  0
LINE
  8
_0-0_計極細
  6
CONTINUOUS
 62
    2
 10
217.66328124999362
 20
694.80000000000064
 11
800.66328124999359
 21
694.80000000000064
  0
LINE
  8
_0-0_計極細
  6
CONTINUOUS
 62
    2
 10
217.66328124999362
 20
699.80000000000064
 11
800.66328124999359
 21
699.80000000000064
  0
LINE
  8
_0-1_計細線
  6
CONTINUOUS
 62
    3
 10
217.66328124999362
 20
685.59999999999991
 11
800.66328124999359
 21
685.59999999999991
  0
LINE
  8
_0-1_計細線
  6
CONTINUOUS
 62
    3
 10
217.66328124999362
 20
674.19999999999948
 11
800.66328124999359
 21
674.19999999999948
  0
LINE
  8
_0-1_計細線
  6
CONTINUOUS
 62
    3
 10
217.66328124999362
 20
685.59999999999991
 11
217.66328124999362
 21
674.19999999999948
  0
LINE
  8
_0-1_計細線
  6
CONTINUOUS
 62
    3
 10
800.66328124999359
 20
685.59999999999991
 11
800.66328124999359
 21
674.19999999999948
  0
LINE
  8
_0-0_計極細
  6
CONTINUOUS
 62
    2
 10
217.66328124999362
 20
677.40000000000009
 11
800.66328124999359
 21
677.40000000000009
  0
LINE
  8
_0-0_計極細
  6
CONTINUOUS
 62
    2
 10
217.66328124999362
 20
682.40000000000009
 11
800.66328124999359
 21
682.40000000000009
  0
LINE
  8
_0-1_計細線
  6
CONTINUOUS
 62
    3
 10
217.66328124999362
 20
570.10000000000082
 11
800.66328124999359
 21
570.10000000000082
  0
LINE
  8
_0-1_計細線
  6
CONTINUOUS
 62
    3
 10
217.66328124999362
 20
581.50000000000136
 11
800.66328124999359
 21
581.50000000000136
  0
LINE
  8
_0-1_計細線
  6
CONTINUOUS
 62
    3
 10
217.66328124999362
 20
570.10000000000082
 11
217.66328124999362
 21
581.50000000000136
  0
LINE
  8
_0-1_計細線
  6
CONTINUOUS
 62
    3
 10
800.66328124999359
 20
570.10000000000082
 11
800.66328124999359
 21
581.50000000000136
  0
LINE
  8
_0-0_計極細
  6
CONTINUOUS
 62
    2
 10
217.66328124999362
 20
578.30000000000109
 11
800.66328124999359
 21
578.30000000000109
  0
LINE
  8
_0-0_計極細
  6
CONTINUOUS
 62
    2
 10
217.66328124999362
 20
573.30000000000109
 11
800.66328124999359
 21
573.30000000000109
  0
LINE
  8
_0-1_計細線
  6
CONTINUOUS
 62
    3
 10
217.66328124999362
 20
587.20000000000073
 11
800.66328124999359
 21
587.20000000000073
  0
LINE
  8
_0-1_計細線
  6
CONTINUOUS
 62
    3
 10
217.66328124999362
 20
598.60000000000127
 11
800.66328124999359
 21
598.60000000000127
  0
LINE
  8
_0-1_計細線
  6
CONTINUOUS
 62
    3
 10
217.66328124999362
 20
587.20000000000073
 11
217.66328124999362
 21
598.60000000000127
  0
LINE
  8
_0-1_計細線
  6
CONTINUOUS
 62
    3
 10
800.66328124999359
 20
587.20000000000073
 11
800.66328124999359
 21
598.60000000000127
  0
LINE
  8
_0-0_計極細
  6
CONTINUOUS
 62
    2
 10
217.66328124999362
 20
595.400000000001
 11
800.66328124999359
 21
595.400000000001
  0
LINE
  8
_0-0_計極細
  6
CONTINUOUS
 62
    2
 10
217.66328124999362
 20
590.400000000001
 11
800.66328124999359
 21
590.400000000001
  0
LINE
  8
_0-1_計細線
  6
CONTINUOUS
 62
    3
 10
217.66328124999362
 20
604.60000000000173
 11
800.66328124999359
 21
604.60000000000173
  0
LINE
  8
_0-1_計細線
  6
CONTINUOUS
 62
    3
 10
217.66328124999362
 20
616.00000000000227
 11
800.66328124999359
 21
616.00000000000227
  0
LINE
  8
_0-1_計細線
  6
CONTINUOUS
 62
    3
 10
217.66328124999362
 20
604.60000000000173
 11
217.66328124999362
 21
616.00000000000227
  0
LINE
  8
_0-1_計細線
  6
CONTINUOUS
 62
    3
 10
800.66328124999359
 20
604.60000000000173
 11
800.66328124999359
 21
616.00000000000227
  0
LINE
  8
_0-0_計極細
  6
CONTINUOUS
 62
    2
 10
217.66328124999362
 20
612.80000000000155
 11
800.66328124999359
 21
612.80000000000155
  0
LINE
  8
_0-0_計極細
  6
CONTINUOUS
 62
    2
 10
217.66328124999362
 20
607.80000000000155
 11
800.66328124999359
 21
607.80000000000155
  0
LINE
  8
_0-1_計細線
  6
CONTINUOUS
 62
    3
 10
217.66328124999362
 20
622.00000000000227
 11
800.66328124999359
 21
622.00000000000227
  0
LINE
  8
_0-1_計細線
  6
CONTINUOUS
 62
    3
 10
217.66328124999362
 20
633.40000000000282
 11
800.66328124999359
 21
633.40000000000282
  0
LINE
  8
_0-1_計細線
  6
CONTINUOUS
 62
    3
 10
217.66328124999362
 20
622.00000000000227
 11
217.66328124999362
 21
633.40000000000282
  0
LINE
  8
_0-1_計細線
  6
CONTINUOUS
 62
    3
 10
800.66328124999359
 20
622.00000000000227
 11
800.66328124999359
 21
633.40000000000282
  0
LINE
  8
_0-0_計極細
  6
CONTINUOUS
 62
    2
 10
217.66328124999362
 20
630.20000000000255
 11
800.66328124999359
 21
630.20000000000255
  0
LINE
  8
_0-0_計極細
  6
CONTINUOUS
 62
    2
 10
217.66328124999362
 20
625.20000000000255
 11
800.66328124999359
 21
625.20000000000255
  0
LINE
  8
_0-0_計極細
  6
CENTER2
 62
    2
 10
201.77468171297483
 20
645.10000000000093
 11
816.70801504635153
 21
645.10000000000093
  0
LINE
  8
_0-1_計細線
  6
CONTINUOUS
 62
    3
 10
196.16328124999242
 20
725.10000000000093
 11
822.16328124999359
 21
725.10000000000093
  0
LINE
  8
_0-1_計細線
  6
CONTINUOUS
 62
    3
 10
822.16328124999359
 20
565.10000000000082
 11
196.16328124999242
 21
565.10000000000082
  0
LINE
  8
_0-1_計細線
  6
CONTINUOUS
 62
    3
 10
194.24906555161988
 20
722.10000000000082
 11
820.24906555162102
 21
722.10000000000082
  0
LINE
  8
_0-1_計細線
  6
CONTINUOUS
 62
    3
 10
824.07749694836809
 20
568.10000000000082
 11
198.07749694836843
 21
568.10000000000082
  0
LINE
  8
_0-5_寸法線
  6
CONTINUOUS
 62
    7
 10
830.16328124999404
 20
725.10000000000093
 11
910.16328124999279
 21
725.10000000000093
  0
LINE
  8
_0-5_寸法線
  6
CONTINUOUS
 62
    7
 10
905.16328124999279
 20
725.10000000000093
 11
907.75147170101786
 21
715.4407417371101
  0
LINE
  8
_0-5_寸法線
  6
CONTINUOUS
 62
    7
 10
905.16328124999279
 20
725.10000000000093
 11
902.57509079896749
 21
715.4407417371101
  0
LINE
  8
_0-5_寸法線
  6
CONTINUOUS
 62
    7
 10
830.16328124999313
 20
565.09999999999582
 11
910.16328124999313
 21
565.09999999999582
  0
LINE
  8
_0-5_寸法線
  6
CONTINUOUS
 62
    7
 10
905.16328124999313
 20
565.09999999999582
 11
902.57509079896806
 21
574.75925826288653
  0
LINE
  8
_0-5_寸法線
  6
CONTINUOUS
 62
    7
 10
905.16328124999313
 20
565.09999999999582
 11
907.75147170101832
 21
574.75925826288653
  0
LINE
  8
_0-5_寸法線
  6
CONTINUOUS
 62
    7
 10
905.16328124999279
 20
725.10000000000093
 11
905.16328124999313
 21
565.09999999999582
  0
TEXT
  8
_0-5_寸法線
 62
    7
 10
905.16328124999313
 20
633.84999999999854
 40
15
 41
1
 50
90
  1
160
  0
LINE
  8
_0-0_計極細
  6
CONTINUOUS
 62
    2
 10
226.1632812499937
 20
708.70000000000027
 11
226.1632812499937
 21
703
  0
LINE
  8
_0-0_計極細
  6
CONTINUOUS
 62
    2
 10
239.16328124999367
 20
708.70000000000027
 11
239.16328124999367
 21
703
  0
LINE
  8
_0-0_計極細
  6
CONTINUOUS
 62
    2
 10
226.1632812499937
 20
691.60000000000036
 11
226.1632812499937
 21
685.59999999999991
  0
LINE
  8
_0-0_計極細
  6
CONTINUOUS
 62
    2
 10
239.16328124999367
 20
691.60000000000036
 11
239.16328124999367
 21
685.59999999999991
  0
LINE
  8
_0-0_計極細
  6
CONTINUOUS
 62
    2
 10
226.1632812499937
 20
674.19999999999948
 11
226.1632812499937
 21
668.19999999999936
  0
LINE
  8
_0-0_計極細
  6
CONTINUOUS
 62
    2
 10
239.16328124999367
 20
674.19999999999948
 11
239.16328124999367
 21
668.19999999999936
  0
LINE
  8
_0-0_計極細
  6
CONTINUOUS
 62
    2
 10
226.1632812499937
 20
656.79999999999882
 11
226.1632812499937
 21
650.79999999999882
  0
LINE
  8
_0-0_計極細
  6
CONTINUOUS
 62
    2
 10
239.16328124999367
 20
656.79999999999882
 11
239.16328124999367
 21
650.79999999999882
  0
LINE
  8
_0-0_計極細
  6
CONTINUOUS
 62
    2
 10
226.1632812499937
 20
639.39999999999827
 11
226.1632812499937
 21
633.39999999999827
  0
LINE
  8
_0-0_計極細
  6
CONTINUOUS
 62
    2
 10
239.16328124999367
 20
639.39999999999827
 11
239.16328124999367
 21
633.39999999999827
  0
LINE
  8
_0-0_計極細
  6
CONTINUOUS
 62
    2
 10
226.1632812499937
 20
581.50000000000136
 11
226.1632812499937
 21
587.20000000000164
  0
LINE
  8
_0-0_計極細
  6
CONTINUOUS
 62
    2
 10
239.16328124999367
 20
581.50000000000136
 11
239.16328124999367
 21
587.20000000000164
  0
LINE
  8
_0-0_計極細
  6
CONTINUOUS
 62
    2
 10
226.1632812499937
 20
598.60000000000127
 11
226.1632812499937
 21
604.60000000000173
  0
LINE
  8
_0-0_計極細
  6
CONTINUOUS
 62
    2
 10
239.16328124999367
 20
598.60000000000127
 11
239.16328124999367
 21
604.60000000000173
  0
LINE
  8
_0-0_計極細
  6
CONTINUOUS
 62
    2
 10
226.1632812499937
 20
616.00000000000227
 11
226.1632812499937
 21
622.00000000000227
  0
LINE
  8
_0-0_計極細
  6
CONTINUOUS
 62
    2
 10
239.16328124999367
 20
616.00000000000227
 11
239.16328124999367
 21
622.00000000000227
  0
LINE
  8
_0-0_計極細
  6
CENTER1
 62
    2
 10
232.66328124999376
 20
728.85071942446302
 11
232.66328124999376
 21
562.34217625898827
  0
LINE
  8
_0-0_計極細
  6
CONTINUOUS
 62
    2
 10
779.16328124999382
 20
708.70000000000027
 11
779.16328124999382
 21
703
  0
LINE
  8
_0-0_計極細
  6
CONTINUOUS
 62
    2
 10
792.16328124999382
 20
708.70000000000027
 11
792.16328124999382
 21
703
  0
LINE
  8
_0-0_計極細
  6
CONTINUOUS
 62
    2
 10
779.16328124999382
 20
691.60000000000036
 11
779.16328124999382
 21
685.59999999999991
  0
LINE
  8
_0-0_計極細
  6
CONTINUOUS
 62
    2
 10
792.16328124999382
 20
691.60000000000036
 11
792.16328124999382
 21
685.59999999999991
  0
LINE
  8
_0-0_計極細
  6
CONTINUOUS
 62
    2
 10
779.16328124999382
 20
674.19999999999948
 11
779.16328124999382
 21
668.19999999999936
  0
LINE
  8
_0-0_計極細
  6
CONTINUOUS
 62
    2
 10
792.16328124999382
 20
674.19999999999948
 11
792.16328124999382
 21
668.19999999999936
  0
LINE
  8
_0-0_計極細
  6
CONTINUOUS
 62
    2
 10
779.16328124999382
 20
656.79999999999882
 11
779.16328124999382
 21
650.79999999999882
  0
LINE
  8
_0-0_計極細
  6
CONTINUOUS
 62
    2
 10
792.16328124999382
 20
656.79999999999882
 11
792.16328124999382
 21
650.79999999999882
  0
LINE
  8
_0-0_計極細
  6
CONTINUOUS
 62
    2
 10
779.16328124999382
 20
639.39999999999827
 11
779.16328124999382
 21
633.39999999999827
  0
LINE
  8
_0-0_計極細
  6
CONTINUOUS
 62
    2
 10
792.16328124999382
 20
639.39999999999827
 11
792.16328124999382
 21
633.39999999999827
  0
LINE
  8
_0-0_計極細
  6
CONTINUOUS
 62
    2
 10
779.16328124999382
 20
581.50000000000136
 11
779.16328124999382
 21
587.20000000000164
  0
LINE
  8
_0-0_計極細
  6
CONTINUOUS
 62
    2
 10
792.16328124999382
 20
581.50000000000136
 11
792.16328124999382
 21
587.20000000000164
  0
LINE
  8
_0-0_計極細
  6
CONTINUOUS
 62
    2
 10
779.16328124999382
 20
598.60000000000127
 11
779.16328124999382
 21
604.60000000000173
  0
LINE
  8
_0-0_計極細
  6
CONTINUOUS
 62
    2
 10
792.16328124999382
 20
598.60000000000127
 11
792.16328124999382
 21
604.60000000000173
  0
LINE
  8
_0-0_計極細
  6
CONTINUOUS
 62
    2
 10
779.16328124999382
 20
616.00000000000227
 11
779.16328124999382
 21
622.00000000000227
  0
LINE
  8
_0-0_計極細
  6
CONTINUOUS
 62
    2
 10
792.16328124999382
 20
616.00000000000227
 11
792.16328124999382
 21
622.00000000000227
  0
LINE
  8
_0-0_計極細
  6
CENTER1
 62
    2
 10
785.6632812499937
 20
728.85071942446302
 11
785.6632812499937
 21
562.34217625898827
  0
LINE
  8
_0-0_計極細
  6
CONTINUOUS
 62
    2
 10
323.1632812499937
 20
708.70000000000027
 11
323.1632812499937
 21
703
  0
LINE
  8
_0-0_計極細
  6
CONTINUOUS
 62
    2
 10
336.1632812499937
 20
708.70000000000027
 11
336.1632812499937
 21
703
  0
LINE
  8
_0-0_計極細
  6
CONTINUOUS
 62
    2
 10
323.1632812499937
 20
691.60000000000036
 11
323.1632812499937
 21
685.59999999999991
  0
LINE
  8
_0-0_計極細
  6
CONTINUOUS
 62
    2
 10
336.1632812499937
 20
691.60000000000036
 11
336.1632812499937
 21
685.59999999999991
  0
LINE
  8
_0-0_計極細
  6
CONTINUOUS
 62
    2
 10
323.1632812499937
 20
674.19999999999948
 11
323.1632812499937
 21
668.19999999999936
  0
LINE
  8
_0-0_計極細
  6
CONTINUOUS
 62
    2
 10
336.1632812499937
 20
674.19999999999948
 11
336.1632812499937
 21
668.19999999999936
  0
LINE
  8
_0-0_計極細
  6
CONTINUOUS
 62
    2
 10
323.1632812499937
 20
639.39999999999827
 11
323.1632812499937
 21
633.39999999999827
  0
LINE
  8
_0-0_計極細
  6
CONTINUOUS
 62
    2
 10
336.1632812499937
 20
639.39999999999827
 11
336.1632812499937
 21
633.39999999999827
  0
LINE
  8
_0-0_計極細
  6
CONTINUOUS
 62
    2
 10
323.1632812499937
 20
581.50000000000136
 11
323.1632812499937
 21
587.20000000000164
  0
LINE
  8
_0-0_計極細
  6
CONTINUOUS
 62
    2
 10
336.1632812499937
 20
581.50000000000136
 11
336.1632812499937
 21
587.20000000000164
  0
LINE
  8
_0-0_計極細
  6
CONTINUOUS
 62
    2
 10
323.1632812499937
 20
598.60000000000127
 11
323.1632812499937
 21
604.60000000000173
  0
LINE
  8
_0-0_計極細
  6
CONTINUOUS
 62
    2
 10
336.1632812499937
 20
598.60000000000127
 11
336.1632812499937
 21
604.60000000000173
  0
LINE
  8
_0-0_計極細
  6
CONTINUOUS
 62
    2
 10
323.1632812499937
 20
616.00000000000227
 11
323.1632812499937
 21
622.00000000000227
  0
LINE
  8
_0-0_計極細
  6
CONTINUOUS
 62
    2
 10
336.1632812499937
 20
616.00000000000227
 11
336.1632812499937
 21
622.00000000000227
  0
LINE
  8
_0-0_計極細
  6
CENTER1
 62
    2
 10
329.6632812499937
 20
728.85071942446302
 11
329.6632812499937
 21
562.34217625898827
  0
LINE
  8
_0-0_計極細
  6
CONTINUOUS
 62
    2
 10
420.16328124999376
 20
708.70000000000027
 11
420.16328124999376
 21
703
  0
LINE
  8
_0-0_計極細
  6
CONTINUOUS
 62
    2
 10
433.1632812499937
 20
708.70000000000027
 11
433.1632812499937
 21
703
  0
LINE
  8
_0-0_計極細
  6
CONTINUOUS
 62
    2
 10
420.16328124999376
 20
691.60000000000036
 11
420.16328124999376
 21
685.59999999999991
  0
LINE
  8
_0-0_計極細
  6
CONTINUOUS
 62
    2
 10
433.1632812499937
 20
691.60000000000036
 11
433.1632812499937
 21
685.59999999999991
  0
LINE
  8
_0-0_計極細
  6
CONTINUOUS
 62
    2
 10
420.16328124999376
 20
674.19999999999948
 11
420.16328124999376
 21
668.19999999999936
  0
LINE
  8
_0-0_計極細
  6
CONTINUOUS
 62
    2
 10
433.1632812499937
 20
674.19999999999948
 11
433.1632812499937
 21
668.19999999999936
  0
LINE
  8
_0-0_計極細
  6
CONTINUOUS
 62
    2
 10
420.16328124999376
 20
656.79999999999882
 11
420.16328124999376
 21
650.79999999999882
  0
LINE
  8
_0-0_計極細
  6
CONTINUOUS
 62
    2
 10
433.1632812499937
 20
656.79999999999882
 11
433.1632812499937
 21
650.79999999999882
  0
LINE
  8
_0-0_計極細
  6
CONTINUOUS
 62
    2
 10
420.16328124999376
 20
639.39999999999827
 11
420.16328124999376
 21
633.39999999999827
  0
LINE
  8
_0-0_計極細
  6
CONTINUOUS
 62
    2
 10
433.1632812499937
 20
639.39999999999827
 11
433.1632812499937
 21
633.39999999999827
  0
LINE
  8
_0-0_計極細
  6
CONTINUOUS
 62
    2
 10
420.16328124999376
 20
581.50000000000136
 11
420.16328124999376
 21
587.20000000000164
  0
LINE
  8
_0-0_計極細
  6
CONTINUOUS
 62
    2
 10
433.1632812499937
 20
581.50000000000136
 11
433.1632812499937
 21
587.20000000000164
  0
LINE
  8
_0-0_計極細
  6
CONTINUOUS
 62
    2
 10
420.16328124999376
 20
598.60000000000127
 11
420.16328124999376
 21
604.60000000000173
  0
LINE
  8
_0-0_計極細
  6
CONTINUOUS
 62
    2
 10
433.1632812499937
 20
598.60000000000127
 11
433.1632812499937
 21
604.60000000000173
  0
LINE
  8
_0-0_計極細
  6
CONTINUOUS
 62
    2
 10
420.16328124999376
 20
616.00000000000227
 11
420.16328124999376
 21
622.00000000000227
  0
LINE
  8
_0-0_計極細
  6
CONTINUOUS
 62
    2
 10
433.1632812499937
 20
616.00000000000227
 11
433.1632812499937
 21
622.00000000000227
  0
LINE
  8
_0-0_計極細
  6
CENTER1
 62
    2
 10
426.66328124999376
 20
728.85071942446302
 11
426.66328124999376
 21
562.34217625898827
  0
LINE
  8
_0-0_計極細
  6
CONTINUOUS
 62
    2
 10
682.16328124999382
 20
708.70000000000027
 11
682.16328124999382
 21
703
  0
LINE
  8
_0-0_計極細
  6
CONTINUOUS
 62
    2
 10
695.16328124999382
 20
708.70000000000027
 11
695.16328124999382
 21
703
  0
LINE
  8
_0-0_計極細
  6
CONTINUOUS
 62
    2
 10
682.16328124999382
 20
691.60000000000036
 11
682.16328124999382
 21
685.59999999999991
  0
LINE
  8
_0-0_計極細
  6
CONTINUOUS
 62
    2
 10
695.16328124999382
 20
691.60000000000036
 11
695.16328124999382
 21
685.59999999999991
  0
LINE
  8
_0-0_計極細
  6
CONTINUOUS
 62
    2
 10
682.16328124999382
 20
674.19999999999948
 11
682.16328124999382
 21
668.19999999999936
  0
LINE
  8
_0-0_計極細
  6
CONTINUOUS
 62
    2
 10
695.16328124999382
 20
674.19999999999948
 11
695.16328124999382
 21
668.19999999999936
  0
LINE
  8
_0-0_計極細
  6
CONTINUOUS
 62
    2
 10
682.16328124999382
 20
656.79999999999882
 11
682.16328124999382
 21
650.79999999999882
  0
LINE
  8
_0-0_計極細
  6
CONTINUOUS
 62
    2
 10
695.16328124999382
 20
656.79999999999882
 11
695.16328124999382
 21
650.79999999999882
  0
LINE
  8
_0-0_計極細
  6
CONTINUOUS
 62
    2
 10
682.16328124999382
 20
639.39999999999827
 11
682.16328124999382
 21
633.39999999999827
  0
LINE
  8
_0-0_計極細
  6
CONTINUOUS
 62
    2
 10
695.16328124999382
 20
639.39999999999827
 11
695.16328124999382
 21
633.39999999999827
  0
LINE
  8
_0-0_計極細
  6
CONTINUOUS
 62
    2
 10
682.16328124999382
 20
581.50000000000136
 11
682.16328124999382
 21
587.20000000000164
  0
LINE
  8
_0-0_計極細
  6
CONTINUOUS
 62
    2
 10
695.16328124999382
 20
581.50000000000136
 11
695.16328124999382
 21
587.20000000000164
  0
LINE
  8
_0-0_計極細
  6
CONTINUOUS
 62
    2
 10
682.16328124999382
 20
598.60000000000127
 11
682.16328124999382
 21
604.60000000000173
  0
LINE
  8
_0-0_計極細
  6
CONTINUOUS
 62
    2
 10
695.16328124999382
 20
598.60000000000127
 11
695.16328124999382
 21
604.60000000000173
  0
LINE
  8
_0-0_計極細
  6
CONTINUOUS
 62
    2
 10
682.16328124999382
 20
616.00000000000227
 11
682.16328124999382
 21
622.00000000000227
  0
LINE
  8
_0-0_計極細
  6
CONTINUOUS
 62
    2
 10
695.16328124999382
 20
616.00000000000227
 11
695.16328124999382
 21
622.00000000000227
  0
LINE
  8
_0-0_計極細
  6
CENTER1
 62
    2
 10
688.6632812499937
 20
728.85071942446302
 11
688.6632812499937
 21
562.34217625898827
  0
LINE
  8
_0-0_計極細
  6
CONTINUOUS
 62
    2
 10
585.16328124999347
 20
708.70000000000027
 11
585.16328124999347
 21
703
  0
LINE
  8
_0-0_計極細
  6
CONTINUOUS
 62
    2
 10
598.1632812499937
 20
708.70000000000027
 11
598.1632812499937
 21
703
  0
LINE
  8
_0-0_計極細
  6
CONTINUOUS
 62
    2
 10
585.16328124999347
 20
691.60000000000036
 11
585.16328124999347
 21
685.59999999999991
  0
LINE
  8
_0-0_計極細
  6
CONTINUOUS
 62
    2
 10
598.1632812499937
 20
691.60000000000036
 11
598.1632812499937
 21
685.59999999999991
  0
LINE
  8
_0-0_計極細
  6
CONTINUOUS
 62
    2
 10
585.16328124999347
 20
674.19999999999948
 11
585.16328124999347
 21
668.19999999999936
  0
LINE
  8
_0-0_計極細
  6
CONTINUOUS
 62
    2
 10
598.1632812499937
 20
674.19999999999948
 11
598.1632812499937
 21
668.19999999999936
  0
LINE
  8
_0-0_計極細
  6
CONTINUOUS
 62
    2
 10
585.16328124999347
 20
656.79999999999882
 11
585.16328124999347
 21
650.79999999999882
  0
LINE
  8
_0-0_計極細
  6
CONTINUOUS
 62
    2
 10
598.1632812499937
 20
656.79999999999882
 11
598.1632812499937
 21
650.79999999999882
  0
LINE
  8
_0-0_計極細
  6
CONTINUOUS
 62
    2
 10
585.16328124999347
 20
639.39999999999827
 11
585.16328124999347
 21
633.39999999999827
  0
LINE
  8
_0-0_計極細
  6
CONTINUOUS
 62
    2
 10
598.1632812499937
 20
639.39999999999827
 11
598.1632812499937
 21
633.39999999999827
  0
LINE
  8
_0-0_計極細
  6
CONTINUOUS
 62
    2
 10
585.16328124999347
 20
581.50000000000136
 11
585.16328124999347
 21
587.20000000000164
  0
LINE
  8
_0-0_計極細
  6
CONTINUOUS
 62
    2
 10
598.1632812499937
 20
581.50000000000136
 11
598.1632812499937
 21
587.20000000000164
  0
LINE
  8
_0-0_計極細
  6
CONTINUOUS
 62
    2
 10
585.16328124999347
 20
598.60000000000127
 11
585.16328124999347
 21
604.60000000000173
  0
LINE
  8
_0-0_計極細
  6
CONTINUOUS
 62
    2
 10
598.1632812499937
 20
598.60000000000127
 11
598.1632812499937
 21
604.60000000000173
  0
LINE
  8
_0-0_計極細
  6
CONTINUOUS
 62
    2
 10
585.16328124999347
 20
616.00000000000227
 11
585.16328124999347
 21
622.00000000000227
  0
LINE
  8
_0-0_計極細
  6
CONTINUOUS
 62
    2
 10
598.1632812499937
 20
616.00000000000227
 11
598.1632812499937
 21
622.00000000000227
  0
LINE
  8
_0-0_計極細
  6
CENTER1
 62
    2
 10
591.6632812499937
 20
728.85071942446302
 11
591.6632812499937
 21
562.34217625898827
  0
LINE
  8
_0-0_計極細
  6
CONTINUOUS
 62
    2
 10
517.1632812499937
 20
708.70000000000027
 11
517.1632812499937
 21
703
  0
LINE
  8
_0-0_計極細
  6
CONTINUOUS
 62
    2
 10
530.16328124999382
 20
708.70000000000027
 11
530.16328124999382
 21
703
  0
LINE
  8
_0-0_計極細
  6
CONTINUOUS
 62
    2
 10
517.1632812499937
 20
691.60000000000036
 11
517.1632812499937
 21
685.59999999999991
  0
LINE
  8
_0-0_計極細
  6
CONTINUOUS
 62
    2
 10
530.16328124999382
 20
691.60000000000036
 11
530.16328124999382
 21
685.59999999999991
  0
LINE
  8
_0-0_計極細
  6
CONTINUOUS
 62
    2
 10
517.1632812499937
 20
674.19999999999948
 11
517.1632812499937
 21
668.19999999999936
  0
LINE
  8
_0-0_計極細
  6
CONTINUOUS
 62
    2
 10
530.16328124999382
 20
674.19999999999948
 11
530.16328124999382
 21
668.19999999999936
  0
LINE
  8
_0-0_計極細
  6
CONTINUOUS
 62
    2
 10
517.1632812499937
 20
656.79999999999882
 11
517.1632812499937
 21
650.79999999999882
  0
LINE
  8
_0-0_計極細
  6
CONTINUOUS
 62
    2
 10
530.16328124999382
 20
656.79999999999882
 11
530.16328124999382
 21
650.79999999999882
  0
LINE
  8
_0-0_計極細
  6
CONTINUOUS
 62
    2
 10
517.1632812499937
 20
639.39999999999827
 11
517.1632812499937
 21
633.39999999999827
  0
LINE
  8
_0-0_計極細
  6
CONTINUOUS
 62
    2
 10
530.16328124999382
 20
639.39999999999827
 11
530.16328124999382
 21
633.39999999999827
  0
LINE
  8
_0-0_計極細
  6
CONTINUOUS
 62
    2
 10
517.1632812499937
 20
581.50000000000136
 11
517.1632812499937
 21
587.20000000000164
  0
LINE
  8
_0-0_計極細
  6
CONTINUOUS
 62
    2
 10
530.16328124999382
 20
581.50000000000136
 11
530.16328124999382
 21
587.20000000000164
  0
LINE
  8
_0-0_計極細
  6
CONTINUOUS
 62
    2
 10
517.1632812499937
 20
598.60000000000127
 11
517.1632812499937
 21
604.60000000000173
  0
LINE
  8
_0-0_計極細
  6
CONTINUOUS
 62
    2
 10
530.16328124999382
 20
598.60000000000127
 11
530.16328124999382
 21
604.60000000000173
  0
LINE
  8
_0-0_計極細
  6
CONTINUOUS
 62
    2
 10
517.1632812499937
 20
616.00000000000227
 11
517.1632812499937
 21
622.00000000000227
  0
LINE
  8
_0-0_計極細
  6
CONTINUOUS
 62
    2
 10
530.16328124999382
 20
616.00000000000227
 11
530.16328124999382
 21
622.00000000000227
  0
LINE
  8
_0-0_計極細
  6
CENTER1
 62
    2
 10
523.6632812499937
 20
728.85071942446302
 11
523.6632812499937
 21
562.34217625898827
  0
LINE
  8
_0-5_寸法線
  6
CONTINUOUS
 62
    7
 10
329.6632812499937
 20
735.10000000000093
 11
329.66328124999387
 21
780.099999999999
  0
LINE
  8
_0-5_寸法線
  6
CONTINUOUS
 62
    7
 10
329.66328124999387
 20
775.099999999999
 11
339.32253951288453
 21
777.68819045102418
  0
LINE
  8
_0-5_寸法線
  6
CONTINUOUS
 62
    7
 10
329.66328124999387
 20
775.099999999999
 11
339.32253951288453
 21
772.51180954897393
  0
LINE
  8
_0-5_寸法線
  6
CONTINUOUS
 62
    7
 10
426.66328124999376
 20
735.10000000000093
 11
426.66328124999382
 21
780.099999999999
  0
LINE
  8
_0-5_寸法線
  6
CONTINUOUS
 62
    7
 10
426.66328124999382
 20
775.099999999999
 11
417.0040229871031
 21
772.51180954897393
  0
LINE
  8
_0-5_寸法線
  6
CONTINUOUS
 62
    7
 10
426.66328124999382
 20
775.099999999999
 11
417.00402298710316
 21
777.68819045102418
  0
LINE
  8
_0-5_寸法線
  6
CONTINUOUS
 62
    7
 10
329.66328124999387
 20
775.099999999999
 11
426.66328124999382
 21
775.099999999999
  0
TEXT
  8
_0-5_寸法線
 62
    7
 10
370.66328124999382
 20
775.099999999999
 40
15
 41
1
 50
0
  1
97
  0
LINE
  8
_0-5_寸法線
  6
CONTINUOUS
 62
    7
 10
426.66328124999382
 20
775.099999999999
 11
436.32253951288448
 21
777.68819045102418
  0
LINE
  8
_0-5_寸法線
  6
CONTINUOUS
 62
    7
 10
426.66328124999382
 20
775.099999999999
 11
436.32253951288448
 21
772.51180954897382
  0
LINE
  8
_0-5_寸法線
  6
CONTINUOUS
 62
    7
 10
523.6632812499937
 20
735.10000000000093
 11
523.66328124999382
 21
780.099999999999
  0
LINE
  8
_0-5_寸法線
  6
CONTINUOUS
 62
    7
 10
523.66328124999382
 20
775.099999999999
 11
514.0040229871031
 21
772.51180954897393
  0
LINE
  8
_0-5_寸法線
  6
CONTINUOUS
 62
    7
 10
523.66328124999382
 20
775.099999999999
 11
514.0040229871031
 21
777.68819045102418
  0
LINE
  8
_0-5_寸法線
  6
CONTINUOUS
 62
    7
 10
426.66328124999382
 20
775.099999999999
 11
523.66328124999382
 21
775.099999999999
  0
TEXT
  8
_0-5_寸法線
 62
    7
 10
467.66328124999382
 20
775.099999999999
 40
15
 41
1
 50
0
  1
97
  0
LINE
  8
_0-5_寸法線
  6
CONTINUOUS
 62
    7
 10
523.66328124999382
 20
775.099999999999
 11
533.32253951288453
 21
777.68819045102418
  0
LINE
  8
_0-5_寸法線
  6
CONTINUOUS
 62
    7
 10
523.66328124999382
 20
775.099999999999
 11
533.32253951288453
 21
772.51180954897382
  0
LINE
  8
_0-5_寸法線
  6
CONTINUOUS
 62
    7
 10
591.6632812499937
 20
735.10000000000093
 11
591.66328124999382
 21
780.099999999999
  0
LINE
  8
_0-5_寸法線
  6
CONTINUOUS
 62
    7
 10
591.66328124999382
 20
775.099999999999
 11
582.0040229871031
 21
772.51180954897393
  0
LINE
  8
_0-5_寸法線
  6
CONTINUOUS
 62
    7
 10
591.66328124999382
 20
775.099999999999
 11
582.0040229871031
 21
777.68819045102418
  0
LINE
  8
_0-5_寸法線
  6
CONTINUOUS
 62
    7
 10
523.66328124999382
 20
775.099999999999
 11
591.66328124999382
 21
775.099999999999
  0
TEXT
  8
_0-5_寸法線
 62
    7
 10
550.16328124999382
 20
775.099999999999
 40
15
 41
1
 50
0
  1
Ｂ
  0
LINE
  8
_0-5_寸法線
  6
CONTINUOUS
 62
    7
 10
217.66328124999376
 20
735.099999999999
 11
217.66328124999504
 21
815.099999999999
  0
LINE
  8
_0-5_寸法線
  6
CONTINUOUS
 62
    7
 10
217.66328124999495
 20
810.099999999999
 11
227.3225395128857
 21
812.68819045102418
  0
LINE
  8
_0-5_寸法線
  6
CONTINUOUS
 62
    7
 10
217.66328124999495
 20
810.099999999999
 11
227.3225395128857
 21
807.51180954897393
  0
LINE
  8
_0-5_寸法線
  6
CONTINUOUS
 62
    7
 10
798.6632812499937
 20
735.099999999999
 11
798.66328124999518
 21
815.099999999999
  0
LINE
  8
_0-5_寸法線
  6
CONTINUOUS
 62
    7
 10
798.66328124999495
 20
810.099999999999
 11
789.00402298710435
 21
807.51180954897393
  0
LINE
  8
_0-5_寸法線
  6
CONTINUOUS
 62
    7
 10
798.66328124999495
 20
810.099999999999
 11
789.00402298710435
 21
812.68819045102418
  0
LINE
  8
_0-5_寸法線
  6
CONTINUOUS
 62
    7
 10
217.66328124999495
 20
810.099999999999
 11
798.66328124999495
 21
810.099999999999
  0
TEXT
  8
_0-5_寸法線
 62
    7
 10
500.66328124999529
 20
810.099999999999
 40
15
 41
1
 50
0
  1
Ｌ
  0
LINE
  8
_0-5_寸法線
  6
CONTINUOUS
 62
    7
 10
217.66328124999362
 20
735.09999999999991
 11
217.66328124999362
 21
780.099999999999
  0
LINE
  8
_0-5_寸法線
  6
CONTINUOUS
 62
    7
 10
217.66328124999362
 20
775.099999999999
 11
227.32253951288428
 21
777.68819045102418
  0
LINE
  8
_0-5_寸法線
  6
CONTINUOUS
 62
    7
 10
217.66328124999362
 20
775.099999999999
 11
227.32253951288428
 21
772.51180954897393
  0
LINE
  8
_0-5_寸法線
  6
CONTINUOUS
 62
    7
 10
232.66328124999376
 20
735.09999999999991
 11
232.66328124999376
 21
780.099999999999
  0
LINE
  8
_0-5_寸法線
  6
CONTINUOUS
 62
    7
 10
232.66328124999376
 20
775.099999999999
 11
223.00402298710304
 21
772.51180954897393
  0
LINE
  8
_0-5_寸法線
  6
CONTINUOUS
 62
    7
 10
232.66328124999376
 20
775.099999999999
 11
223.0040229871031
 21
777.68819045102418
  0
LINE
  8
_0-5_寸法線
  6
CONTINUOUS
 62
    7
 10
217.66328124999362
 20
775.099999999999
 11
232.66328124999376
 21
775.099999999999
  0
TEXT
  8
_0-5_寸法線
 62
    7
 10
217.66328124999362
 20
775.099999999999
 40
15
 41
1
 50
0
  1
Ａ
  0
LINE
  8
_0-5_寸法線
  6
CONTINUOUS
 62
    7
 10
783.6632812499937
 20
735.09999999999991
 11
783.6632812499937
 21
780.099999999999
  0
LINE
  8
_0-5_寸法線
  6
CONTINUOUS
 62
    7
 10
783.6632812499937
 20
775.099999999999
 11
793.32253951288453
 21
777.68819045102418
  0
LINE
  8
_0-5_寸法線
  6
CONTINUOUS
 62
    7
 10
783.6632812499937
 20
775.099999999999
 11
793.32253951288453
 21
772.51180954897393
  0
LINE
  8
_0-5_寸法線
  6
CONTINUOUS
 62
    7
 10
798.6632812499937
 20
735.09999999999991
 11
798.6632812499937
 21
780.099999999999
  0
LINE
  8
_0-5_寸法線
  6
CONTINUOUS
 62
    7
 10
798.6632812499937
 20
775.099999999999
 11
789.00402298710287
 21
772.51180954897393
  0
LINE
  8
_0-5_寸法線
  6
CONTINUOUS
 62
    7
 10
798.6632812499937
 20
775.099999999999
 11
789.00402298710287
 21
777.68819045102418
  0
LINE
  8
_0-5_寸法線
  6
CONTINUOUS
 62
    7
 10
783.6632812499937
 20
775.099999999999
 11
798.6632812499937
 21
775.099999999999
  0
TEXT
  8
_0-5_寸法線
 62
    7
 10
783.6632812499937
 20
775.099999999999
 40
15
 41
1
 50
0
  1
Ａ
  0
LINE
  8
_0-5_寸法線
  6
CONTINUOUS
 62
    7
 10
408.80300057114283
 20
567.07500000000118
 11
413.80300058226732
 21
558.4147459685795
  0
LINE
  8
_0-5_寸法線
  6
CONTINUOUS
 62
    7
 10
408.80300057114283
 20
567.07500000000118
 11
408.80300058398831
 21
557.07500000000118
  0
LINE
  8
_0-5_寸法線
  6
CONTINUOUS
 62
    7
 10
408.80300057114283
 20
567.07500000000118
 11
420.64437012860873
 21
522.88240740740866
  0
LINE
  8
_0-5_寸法線
  6
CONTINUOUS
 62
    7
 10
420.64437012860873
 20
522.88240740740866
 11
528.64437012860867
 21
522.88240740740866
  0
TEXT
  8
_0-5_寸法線
 62
    7
 10
420.64437012860873
 20
523.48240740740857
 40
15
 41
0.8000000000000001
 50
0
  1
ＳＵＳアングル受枠
  0
LINE
  8
_0-7_枠細線
  6
CONTINUOUS
 62
    5
 10
361.32314860838102
 20
778.48965769304198
 11
353.82314860838102
 21
793.48965769304198
  0
LINE
  8
_0-7_枠細線
  6
CONTINUOUS
 62
    5
 10
346.32314860838102
 20
778.48965769304198
 11
361.32314860838102
 21
778.48965769304198
  0
LINE
  8
_0-7_枠細線
  6
CONTINUOUS
 62
    5
 10
353.82314860838102
 20
793.48965769304198
 11
346.32314860838102
 21
778.48965769304198
  0
TEXT
  8
_0-7_枠細線
 62
    5
 10
348.68829987652907
 20
778.18265544766155
 40
12.5
 41
0.8
 50
0
  1
１
  0
LINE
  8
_0-5_寸法線
  6
CONTINUOUS
 62
    7
 10
557.58582171398575
 20
610.05372114838337
 11
562.58582170188379
 21
601.39346710355187
  0
LINE
  8
_0-5_寸法線
  6
CONTINUOUS
 62
    7
 10
557.58582171398575
 20
610.05372114838337
 11
557.58582170001159
 21
600.05372114838337
  0
LINE
  8
_0-5_寸法線
  6
CONTINUOUS
 62
    7
 10
557.58582171398575
 20
610.05372114838337
 11
580.9433047034795
 21
522.88240740740866
  0
LINE
  8
_0-5_寸法線
  6
CONTINUOUS
 62
    7
 10
580.9433047034795
 20
522.88240740740866
 11
712.94330470347961
 21
522.88240740740866
  0
TEXT
  8
_0-5_寸法線
 62
    7
 10
580.9433047034795
 20
522.88240740740866
 40
15
 41
0.8000000000000001
 50
0
  1
セーフティグレーチング
  0
TEXT
  8
_0-5_寸法線
 62
    7
 10
420.64437012860873
 20
507.88240740740866
 40
15
 41
0.8000000000000001
 50
0
  1
ＧＳＬ－２５
  0
TEXT
  8
_0-5_寸法線
 62
    7
 10
580.9433047034795
 20
507.88240740740866
 40
15
 41
0.8000000000000001
 50
0
  1
ＧＲＳ－２５Ｗ１５０
  0
LINE
  8
_0-1_計細線
  6
CONTINUOUS
 62
    3
 10
217.66328124999362
 20
668.19999999999936
 11
800.66328124999359
 21
668.19999999999936
  0
LINE
  8
_0-1_計細線
  6
CONTINUOUS
 62
    3
 10
800.66328124999359
 20
668.19999999999936
 11
800.66328124999359
 21
656.79999999999882
  0
LINE
  8
_0-0_計極細
  6
CONTINUOUS
 62
    2
 10
217.66328124999362
 20
659.99999999999909
 11
800.66328124999359
 21
659.99999999999909
  0
LINE
  8
_0-0_計極細
  6
CONTINUOUS
 62
    2
 10
217.66328124999362
 20
664.99999999999909
 11
800.66328124999359
 21
664.99999999999909
  0
LINE
  8
_0-1_計細線
  6
CONTINUOUS
 62
    3
 10
217.66328124999362
 20
639.39999999999827
 11
800.66328124999359
 21
639.39999999999827
  0
LINE
  8
_0-1_計細線
  6
CONTINUOUS
 62
    3
 10
800.66328124999359
 20
650.79999999999882
 11
800.66328124999359
 21
639.39999999999827
  0
LINE
  8
_0-0_計極細
  6
CONTINUOUS
 62
    2
 10
217.66328124999362
 20
642.59999999999866
 11
800.66328124999359
 21
642.59999999999866
  0
LINE
  8
_0-0_計極細
  6
CONTINUOUS
 62
    2
 10
217.66328124999362
 20
647.59999999999866
 11
800.66328124999359
 21
647.59999999999866
  0
LINE
  8
_0-1_計細線
  6
CONTINUOUS
 62
    3
 10
217.66328124999362
 20
668.19999999999936
 11
217.66328124999362
 21
656.79999999999882
  0
LINE
  8
_0-1_計細線
  6
CONTINUOUS
 62
    3
 10
217.66328124999362
 20
656.79999999999882
 11
800.66328124999359
 21
656.79999999999882
  0
LINE
  8
_0-1_計細線
  6
CONTINUOUS
 62
    3
 10
217.66328124999362
 20
650.79999999999882
 11
800.66328124999359
 21
650.79999999999882
  0
LINE
  8
_0-1_計細線
  6
CONTINUOUS
 62
    3
 10
217.66328124999362
 20
650.79999999999882
 11
217.66328124999362
 21
639.39999999999827
  0
LINE
  8
_0-1_計細線
  6
CONTINUOUS
 62
    3
 10
284.66328124999325
 20
651.45000000000118
 11
343.66328124999325
 21
651.45000000000118
  0
LINE
  8
_0-1_計細線
  6
CONTINUOUS
 62
    3
 10
343.66328124999325
 20
656.15000000000111
 11
284.66328124999325
 21
656.15000000000111
  0
LINE
  8
_0-1_計細線
  6
CONTINUOUS
 62
    3
 10
284.66328124999325
 20
656.15000000000111
 11
284.66328124999325
 21
651.45000000000118
  0
LINE
  8
_0-1_計細線
  6
CONTINUOUS
 62
    3
 10
333.66328124999325
 20
656.15000000000111
 11
333.66328124999325
 21
651.45000000000118
  0
LINE
  8
_0-1_計細線
  6
CONTINUOUS
 62
    3
 10
341.66328124999325
 20
656.15000000000111
 11
341.66328124999325
 21
651.45000000000118
  0
LINE
  8
_0-1_計細線
  6
CONTINUOUS
 62
    3
 10
343.66328124999325
 20
656.15000000000111
 11
343.66328124999325
 21
651.45000000000118
  0
LINE
  8
_0-1_計細線
  6
CONTINUOUS
 62
    3
 10
339.6632812499933
 20
656.15000000000111
 11
339.6632812499933
 21
651.45000000000118
  0
LINE
  8
_0-1_計細線
  6
CONTINUOUS
 62
    3
 10
337.66328124999325
 20
656.15000000000111
 11
337.66328124999325
 21
651.45000000000118
  0
LINE
  8
_0-1_計細線
  6
CONTINUOUS
 62
    3
 10
335.66328124999325
 20
656.15000000000111
 11
335.66328124999325
 21
651.45000000000118
  0
LINE
  8
_0-0_計極細
  6
CONTINUOUS
 62
    2
 10
323.1632812499937
 20
656.79999999999882
 11
323.1632812499937
 21
656.15000000000111
  0
LINE
  8
_0-0_計極細
  6
CONTINUOUS
 62
    2
 10
323.1632812499937
 20
651.45000000000118
 11
323.1632812499937
 21
650.79999999999882
  0
LINE
  8
_0-0_計極細
  6
CONTINUOUS
 62
    2
 10
336.1632812499937
 20
656.79999999999882
 11
336.1632812499937
 21
656.15000000000111
  0
LINE
  8
_0-0_計極細
  6
CONTINUOUS
 62
    2
 10
336.1632812499937
 20
651.45000000000118
 11
336.1632812499937
 21
650.79999999999882
  0
LINE
  8
_0-5_寸法線
  6
CONTINUOUS
 62
    7
 10
296.74670171242951
 20
652.67214538582823
 11
301.74670171656589
 21
644.01189135037203
  0
LINE
  8
_0-5_寸法線
  6
CONTINUOUS
 62
    7
 10
296.74670171242951
 20
652.67214538582823
 11
296.74670171720584
 21
642.67214538582823
  0
LINE
  8
_0-5_寸法線
  6
CONTINUOUS
 62
    7
 10
296.74670171242951
 20
652.67214538582823
 11
331.52375725603633
 21
522.88240740740866
  0
LINE
  8
_0-5_寸法線
  6
CONTINUOUS
 62
    7
 10
331.52375725603633
 20
522.88240740740866
 11
391.52375725603633
 21
522.88240740740866
  0
TEXT
  8
_0-5_寸法線
 62
    7
 10
331.52375725603633
 20
522.88240740740866
 40
15
 41
0.8000000000000001
 50
0
  1
取　外　具
  0
TEXT
  8
_0-5_寸法線
 62
    7
 10
331.52375725603633
 20
507.88240740740866
 40
15
 41
0.8000000000000001
 50
0
  1
(標準付属)
  0
TEXT
  8
_0-7_枠細線
 62
    5
 10
335.25127456396581
 20
539.94445117000623
 40
12.5
 41
0.8
 50
0
  1
２
  0
LINE
  8
_0-7_枠細線
  6
CONTINUOUS
 62
    5
 10
347.88612329581775
 20
540.25145341538655
 11
340.38612329581775
 21
555.25145341538655
  0
LINE
  8
_0-7_枠細線
  6
CONTINUOUS
 62
    5
 10
332.88612329581775
 20
540.25145341538655
 11
347.88612329581775
 21
540.25145341538655
  0
LINE
  8
_0-7_枠細線
  6
CONTINUOUS
 62
    5
 10
340.38612329581775
 20
555.25145341538655
 11
332.88612329581775
 21
540.25145341538655
  0
LINE
  8
_0-7_枠細線
  6
CONTINUOUS
 62
    5
 10
366.60010721051412
 20
540.25145341538655
 11
359.10010721051412
 21
555.25145341538655
  0
LINE
  8
_0-7_枠細線
  6
CONTINUOUS
 62
    5
 10
351.60010721051412
 20
540.25145341538655
 11
366.60010721051412
 21
540.25145341538655
  0
LINE
  8
_0-7_枠細線
  6
CONTINUOUS
 62
    5
 10
359.10010721051412
 20
555.25145341538655
 11
351.60010721051412
 21
540.25145341538655
  0
TEXT
  8
_0-7_枠細線
 62
    5
 10
353.96525847866224
 20
539.70376952520519
 40
12.5
 41
0.8
 50
0
  1
３
  0
TEXT
  8
_0-7_枠細線
 62
    5
 10
938.85037037037023
 20
840
 40
12.5
 41
1
 50
0
  1
アンカー材質･厚み変更
  0
LINE
  8
_0-5_寸法線
  6
CONTINUOUS
 62
    7
 10
870.16328124999279
 20
725.10000000000093
 11
867.57509079896749
 21
734.75925826289154
  0
LINE
  8
_0-5_寸法線
  6
CONTINUOUS
 62
    7
 10
870.16328124999279
 20
725.10000000000093
 11
872.75147170101786
 21
734.75925826289154
  0
LINE
  8
_0-5_寸法線
  6
CONTINUOUS
 62
    7
 10
830.16328124999404
 20
722.10000000000082
 11
875.16328124999279
 21
722.10000000000082
  0
CIRCLE
  8
_0-5_寸法線
  6
CONTINUOUS
 62
    1
 10
870.16328124999279
 20
722.10000000000082
 40
1.5000000000000002
  0
LINE
  8
_0-5_寸法線
  6
CONTINUOUS
 62
    7
 10
870.16328124999279
 20
750.10000000000093
 11
870.16328124999279
 21
722.10000000000082
  0
TEXT
  8
_0-5_寸法線
 62
    7
 10
870.16328124999279
 20
738.59602765666978
 40
15
 41
1
 50
90
  1
3
  0
LINE
  8
_0-5_寸法線
  6
CONTINUOUS
 62
    7
 10
830.16328124999404
 20
720.10000000000173
 11
875.16328124999279
 21
720.10000000000173
  0
LINE
  8
_0-5_寸法線
  6
CONTINUOUS
 62
    7
 10
870.16328124999279
 20
722.10000000000082
 11
870.16328124999279
 21
720.10000000000173
  0
TEXT
  8
_0-5_寸法線
 62
    7
 10
890.31955393099452
 20
715.23014195328926
 40
15
 41
1
 50
90
  1
2
  0
LINE
  8
_0-5_寸法線
  6
CONTINUOUS
 62
    7
 10
870.16328124999279
 20
720.10000000000173
 11
872.75147170101786
 21
710.44074173711113
  0
LINE
  8
_0-5_寸法線
  6
CONTINUOUS
 62
    7
 10
870.16328124999279
 20
720.10000000000173
 11
867.57509079896749
 21
710.44074173711113
  0
LINE
  8
_0-5_寸法線
  6
CONTINUOUS
 62
    7
 10
830.16328124999404
 20
570.09999999999991
 11
875.16328124999313
 21
570.09999999999991
  0
LINE
  8
_0-5_寸法線
  6
CONTINUOUS
 62
    7
 10
870.16328124999313
 20
570.09999999999991
 11
867.57509079896806
 21
579.75925826289063
  0
LINE
  8
_0-5_寸法線
  6
CONTINUOUS
 62
    7
 10
870.16328124999313
 20
570.09999999999991
 11
872.75147170101832
 21
579.75925826289063
  0
LINE
  8
_0-5_寸法線
  6
CONTINUOUS
 62
    7
 10
870.16328124999279
 20
720.10000000000173
 11
870.16328124999313
 21
570.09999999999991
  0
TEXT
  8
_0-5_寸法線
 62
    7
 10
870.16328124999313
 20
633.85000000000082
 40
15
 41
1
 50
90
  1
150
  0
LINE
  8
_0-5_寸法線
  6
CONTINUOUS
 62
    7
 10
830.16328124999404
 20
568.10000000000082
 11
875.16328124999313
 21
568.10000000000082
  0
CIRCLE
  8
_0-5_寸法線
  6
CONTINUOUS
 62
    1
 10
870.16328124999313
 20
568.10000000000082
 40
1.5000000000000002
  0
LINE
  8
_0-5_寸法線
  6
CONTINUOUS
 62
    7
 10
870.16328124999313
 20
570.09999999999991
 11
870.16328124999313
 21
568.10000000000082
  0
TEXT
  8
_0-5_寸法線
 62
    7
 10
890.38805948239099
 20
567.13690834446572
 40
15
 41
1
 50
90
  1
2
  0
LINE
  8
_0-5_寸法線
  6
CONTINUOUS
 62
    7
 10
870.16328124999313
 20
565.09999999999582
 11
872.75147170101832
 21
555.4407417371051
  0
LINE
  8
_0-5_寸法線
  6
CONTINUOUS
 62
    7
 10
870.16328124999313
 20
565.09999999999582
 11
867.57509079896795
 21
555.4407417371051
  0
LINE
  8
_0-5_寸法線
  6
CONTINUOUS
 62
    7
 10
870.16328124999313
 20
568.10000000000082
 11
870.16328124999313
 21
540.09999999999582
  0
TEXT
  8
_0-5_寸法線
 62
    7
 10
870.16328124999313
 20
542.64753159818588
 40
15
 41
1
 50
90
  1
3
  0
LINE
  8
_0-d_寸法3
  6
CONTINUOUS
 62
    7
 10
359.74215731460686
 20
360.37912319733107
 11
350.08289905171614
 21
357.79093274630588
  0
LINE
  8
_0-d_寸法3
  6
CONTINUOUS
 62
    7
 10
359.74215731460686
 20
360.37912319733107
 11
350.08289905171625
 21
362.96731364835631
  0
LINE
  8
_0-d_寸法3
  6
CONTINUOUS
 62
    7
 10
364.74215731460686
 20
289.54579153234238
 11
364.74215731460686
 21
365.37912319733107
  0
CIRCLE
  8
_0-d_寸法3
  6
CONTINUOUS
 62
    1
 10
364.74215731460686
 20
360.37912319733107
 40
1.5000000000000002
  0
LINE
  8
_0-d_寸法3
  6
CONTINUOUS
 62
    7
 10
334.74215731460686
 20
360.37912319733107
 11
364.74215731460686
 21
360.37912319733107
  0
TEXT
  8
_0-d_寸法3
 62
    7
 10
338.59748937068366
 20
360.37912319733107
 40
15
 41
1
 50
0
  1
3
  0
LINE
  8
_0-d_寸法3
  6
CONTINUOUS
 62
    7
 10
368.07549064793994
 20
287.04578986399781
 11
368.0754906479404
 21
365.37912319733107
  0
LINE
  8
_0-d_寸法3
  6
CONTINUOUS
 62
    7
 10
364.74215731460686
 20
360.37912319733107
 11
368.0754906479404
 21
360.37912319733107
  0
TEXT
  8
_0-d_寸法3
 62
    7
 10
362.65882398127337
 20
360.37912319733107
 40
15
 41
1
 50
0
  1
2
  0
LINE
  8
_0-d_寸法3
  6
CONTINUOUS
 62
    7
 10
368.0754906479404
 20
360.37912319733107
 11
377.73474891083106
 21
362.96731364835631
  0
LINE
  8
_0-d_寸法3
  6
CONTINUOUS
 62
    7
 10
368.0754906479404
 20
360.37912319733107
 11
377.73474891083106
 21
357.79093274630588
  0
LINE
  8
_0-d_寸法3
  6
CONTINUOUS
 62
    7
 10
618.07549064794057
 20
287.04578986399781
 11
618.07549064794057
 21
365.37912319733107
  0
LINE
  8
_0-d_寸法3
  6
CONTINUOUS
 62
    7
 10
618.07549064794057
 20
360.37912319733107
 11
608.41623238504985
 21
357.79093274630588
  0
LINE
  8
_0-d_寸法3
  6
CONTINUOUS
 62
    7
 10
618.07549064794057
 20
360.37912319733107
 11
608.41623238504985
 21
362.96731364835631
  0
LINE
  8
_0-d_寸法3
  6
CONTINUOUS
 62
    7
 10
368.0754906479404
 20
360.37912319733107
 11
618.07549064794057
 21
360.37912319733107
  0
TEXT
  8
_0-d_寸法3
 62
    7
 10
481.8254906479404
 20
360.37912319733107
 40
15
 41
1
 50
0
  1
150
  0
LINE
  8
_0-d_寸法3
  6
CONTINUOUS
 62
    7
 10
621.4088239812736
 20
289.54579153234238
 11
621.4088239812736
 21
365.37912319733107
  0
CIRCLE
  8
_0-d_寸法3
  6
CONTINUOUS
 62
    1
 10
621.4088239812736
 20
360.37912319733107
 40
1.5000000000000002
  0
LINE
  8
_0-d_寸法3
  6
CONTINUOUS
 62
    7
 10
618.07549064794057
 20
360.37912319733107
 11
621.4088239812736
 21
360.37912319733107
  0
TEXT
  8
_0-d_寸法3
 62
    7
 10
615.99215731460754
 20
360.37912319733107
 40
15
 41
1
 50
0
  1
2
  0
LINE
  8
_0-d_寸法3
  6
CONTINUOUS
 62
    7
 10
626.4088239812736
 20
360.37912319733107
 11
636.06808224416432
 21
362.96731364835625
  0
LINE
  8
_0-d_寸法3
  6
CONTINUOUS
 62
    7
 10
626.4088239812736
 20
360.37912319733107
 11
636.06808224416432
 21
357.79093274630583
  0
LINE
  8
_0-d_寸法3
  6
CONTINUOUS
 62
    7
 10
621.4088239812736
 20
360.37912319733107
 11
651.4088239812736
 21
360.37912319733107
  0
TEXT
  8
_0-d_寸法3
 62
    7
 10
639.99513121259565
 20
360.37912319733107
 40
15
 41
1
 50
0
  1
3
  0
ENDSEC
  0
EOF
