  0
SECTION
  2
HEADER
  9
$ACADVER
  1
AC1009
  9
$INSBASE
 10
0
 20
0
 30
0
  9
$EXTMIN
 10
0
 20
0
  9
$EXTMAX
 10
1485
 20
1050
  9
$LIMMIN
 10
0
 20
0
  9
$LIMMAX
 10
1485
 20
1050
  9
$LTSCALE
 40
5
  0
ENDSEC
  0
SECTION
  2
TABLES
  0
TABLE
  2
LTYPE
 70
     9
  0
LTYPE
  2
CONTINUOUS
 70
    64
  3
実線
 72
    65
 73
     0
 40
0.0
  0
LTYPE
  2
DASHED1
 70
    64
  3
--  --  --  --  --  --  --  --  
 72
    65
 73
     2
 40
2.5
 49
1.25
 49
-1.25
  0
LTYPE
  2
DASHED2
 70
    64
  3
----    ----    ----    ----    
 72
    65
 73
     2
 40
5.0
 49
2.5
 49
-2.5
  0
LTYPE
  2
DASHED3
 70
    64
  3
------  ------  ------  ------  
 72
    65
 73
     2
 40
5.0
 49
3.75
 49
-1.25
  0
LTYPE
  2
CENTER1
 70
    64
  3
----- - ----- - ----- - ----- - 
 72
    65
 73
     4
 40
10.0
 49
6.25
 49
-1.25
 49
1.25
 49
-1.25
  0
LTYPE
  2
CENTER2
 70
    64
  3
----------  --  ----------  --  
 72
    65
 73
     4
 40
20.0
 49
12.5
 49
-2.5
 49
2.5
 49
-2.5
  0
LTYPE
  2
PHANTOM1
 70
    64
  3
--- - - --- - - --- - - --- - - 
 72
    65
 73
     6
 40
10.0
 49
3.25
 49
-1.25
 49
1.25
 49
-1.25
 49
1.25
 49
-1.25
  0
LTYPE
  2
PHANTOM2
 70
    64
  3
--------  -  -  --------  -  -  
 72
    65
 73
     6
 40
20.0
 49
10.0
 49
-2.5
 49
1.25
 49
-2.5
 49
1.25
 49
-2.5
  0
LTYPE
  2
DOT
 70
    64
  3
-   -   -   -   -   -   -   -   
 72
    65
 73
     2
 40
2.5
 49
0.625
 49
-1.875
  0
LTYPE
  2
DUMMY
 70
    64
  3
ダミー
 72
    65
 73
     0
 40
0.0
  0
LTYPE
  2
RAND1
 70
    64
  3
ランダム線1
 72
    65
 73
     4
 40
10.0
 49
1.0
 49
-2.0
 49
3.0
 49
-4.0
  0
LTYPE
  2
RAND2
 70
    64
  3
ランダム線2
 72
    65
 73
     4
 40
14.0
 49
2.0
 49
-3.0
 49
4.0
 49
-5.0
  0
LTYPE
  2
RAND3
 70
    64
  3
ランダム線3
 72
    65
 73
     4
 40
18.0
 49
3.0
 49
-4.0
 49
5.0
 49
-6.0
  0
LTYPE
  2
RAND4
 70
    64
  3
ランダム線4
 72
    65
 73
     4
 40
22.0
 49
4.0
 49
-5.0
 49
6.0
 49
-7.0
  0
LTYPE
  2
RAND5
 70
    64
  3
ランダム線5
 72
    65
 73
     4
 40
26.0
 49
5.0
 49
-6.0
 49
7.0
 49
-8.0
  0
LTYPE
  2
LONG1
 70
    64
  3
----------  --  ----------  --  
 72
    65
 73
     4
 40
40.0
 49
32.5
 49
-2.5
 49
2.5
 49
-2.5
  0
LTYPE
  2
LONG2
 70
    64
  3
--------  -  -  --------  -  -  
 72
    65
 73
     6
 40
40.0
 49
30.0
 49
-2.5
 49
1.25
 49
-2.5
 49
1.25
 49
-2.5
  0
LTYPE
  2
LONG3
 70
    64
  3
+++++++++++++++..+++++++++++++++
 72
    65
 73
     2
 40
40.0
 49
37.5
 49
-2.5
  0
LTYPE
  2
LONG4
 70
    64
  3
+++++++++++++++..+++++++++++++++
 72
    65
 73
     2
 40
80.0
 49
75.0
 49
-5.0
  0
LTYPE
  2
LONG5
 70
    64
  3
----------  --  ----------  --  
 72
    65
 73
     4
 40
60.0
 49
37.5
 49
-7.5
 49
7.5
 49
-7.5
  0
LTYPE
  2
dashed
 70
   64
  3
-------   -------------   ------
 72
   65
 73
    2
 40
7.5
 49
6
 49
-1.5
  0
LTYPE
  2
dashed_spaced
 70
   64
  3
----        --------        ----
 72
   65
 73
    2
 40
12
 49
6
 49
-6
  0
LTYPE
  2
long_dashed_dotted
 70
   64
  3
------------- --- --------------
 72
   65
 73
    4
 40
15.25
 49
12
 49
-1.5
 49
0.25
 49
-1.5
  0
LTYPE
  2
long_dashed_double-dotted
 70
   64
  3
----------- --- --- ------------
 72
   65
 73
    6
 40
17
 49
12
 49
-1.5
 49
0.25
 49
-1.5
 49
0.25
 49
-1.5
  0
LTYPE
  2
long_dashed_triplicate-dotted
 70
   64
  3
--------- --- --- --- ----------
 72
   65
 73
    8
 40
18.75
 49
12
 49
-1.5
 49
0.25
 49
-1.5
 49
0.25
 49
-1.5
 49
0.25
 49
-1.5
  0
LTYPE
  2
dotted
 70
   64
  3
   -       -       -       -    
 72
   65
 73
    2
 40
1.75
 49
0.25
 49
-1.5
  0
LTYPE
  2
chain
 70
   64
  3
-------------- -- --------------
 72
   65
 73
    4
 40
18.5
 49
12
 49
-1.5
 49
3.5
 49
-1.5
  0
LTYPE
  2
chain_double_dash
 70
   64
  3
------------ -- -- -------------
 72
   65
 73
    6
 40
23.5
 49
12
 49
-1.5
 49
3.5
 49
-1.5
 49
3.5
 49
-1.5
  0
LTYPE
  2
dashed_dotted
 70
   64
  3
-----------     -     ----------
 72
   65
 73
    4
 40
9.25
 49
6
 49
-1.5
 49
0.25
 49
-1.5
  0
LTYPE
  2
double-dashed_dotted
 70
   64
  3
------   -----------   -   -----
 72
   65
 73
    6
 40
16.75
 49
6
 49
-1.5
 49
6
 49
-1.5
 49
0.25
 49
-1.5
  0
LTYPE
  2
dashed_double-dotted
 70
   64
  3
---------    -    -    ---------
 72
   65
 73
    6
 40
11
 49
6
 49
-1.5
 49
0.25
 49
-1.5
 49
0.25
 49
-1.5
  0
LTYPE
  2
double-dashed_double-dotted
 70
   64
  3
-----   ---------   -   -   ----
 72
   65
 73
    8
 40
18.5
 49
6
 49
-1.5
 49
6
 49
-1.5
 49
0.25
 49
-1.5
 49
0.25
 49
-1.5
  0
LTYPE
  2
dashed_triplicate-dotted
 70
   64
  3
-------    -    -    -    ------
 72
   65
 73
    8
 40
12.75
 49
6
 49
-1.5
 49
0.25
 49
-1.5
 49
0.25
 49
-1.5
 49
0.25
 49
-1.5
  0
LTYPE
  2
double-dashed_triplicate-dotted
 70
   64
  3
-----  ---------  -  -  -  -----
 72
   65
 73
   10
 40
20.25
 49
6
 49
-1.5
 49
6
 49
-1.5
 49
0.25
 49
-1.5
 49
0.25
 49
-1.5
 49
0.25
 49
-1.5
  0
LTYPE
  2
undefined
 70
   64
  3
--------------------------------
 72
   65
 73
    0
 40
0
  0
ENDTAB
  0
TABLE
  2
STYLE
  5
3
100
AcDbSymbolTable
 70
     1
  0
STYLE
  5
10
100
AcDbSymbolTableRecord
100
AcDbTextStyleTableRecord
  2
STANDARD
 70
     0
 40
0.0
 41
1.0
 50
0.0
 71
     0
 42
0.2
  3
txt
  4
bigfont.shx
  0
STYLE
  5
26
100
AcDbSymbolTableRecord
100
AcDbTextStyleTableRecord
  2
TATEGAKI
 70
    68
 40
0.0
 41
1.0
 50
0.0
 71
     0
 42
1.0
  3
txt
  4
bigfont.shx
  0
ENDTAB
  0
TABLE
  2
LAYER
 70
   10
  0
LAYER
  2
_0-0_計極細
 70
   64
 62
    7
  6
CONTINUOUS
  0
LAYER
  2
_0-1_計細線
 70
   64
 62
    7
  6
CONTINUOUS
  0
LAYER
  2
_0-5_寸法線
 70
   64
 62
    7
  6
CONTINUOUS
  0
LAYER
  2
_0-7_枠細線
 70
   64
 62
    7
  6
CONTINUOUS
  0
LAYER
  2
_0-8_枠中線
 70
   64
 62
    7
  6
CONTINUOUS
  0
LAYER
  2
_0-9_枠極太
 70
   64
 62
    7
  6
CONTINUOUS
  0
LAYER
  2
_0-a_極細3
 70
   64
 62
    7
  6
CONTINUOUS
  0
LAYER
  2
_0-b_細線3
 70
   64
 62
    7
  6
CONTINUOUS
  0
LAYER
  2
_0-d_寸法3
 70
   64
 62
    7
  6
CONTINUOUS
  0
LAYER
  2
ADD_LINE
 70
   64
 62
    7
  6
CONTINUOUS
  0
ENDTAB
  0
ENDSEC
  0
SECTION
  2
BLOCKS
  0
ENDSEC
  0
SECTION
  2
ENTITIES
  0
LINE
  8
_0-7_枠細線
  6
CONTINUOUS
 62
    5
 10
1185
 20
180
 11
1185
 21
100
  0
TEXT
  8
_0-7_枠細線
 62
    5
 10
937.5
 20
97.5
 40
17.5
 41
1
 50
0
  1
備考
  7
TATEGAKI
  0
TEXT
  8
_0-7_枠細線
 62
    5
 10
937.5
 20
137.5
 40
17.5
 41
1
 50
0
  1
品番
  7
TATEGAKI
  0
TEXT
  8
_0-7_枠細線
 62
    5
 10
937.5
 20
177.5
 40
17.5
 41
1
 50
0
  1
品名
  7
TATEGAKI
  0
LINE
  8
_0-7_枠細線
  6
CONTINUOUS
 62
    5
 10
1185
 20
140
 11
925
 21
140
  0
LINE
  8
_0-7_枠細線
  6
CONTINUOUS
 62
    5
 10
950
 20
180
 11
950
 21
60
  0
LINE
  8
_0-8_枠中線
  6
CONTINUOUS
 62
    5
 10
1425
 20
180
 11
925
 21
180
  0
LINE
  8
_0-8_枠中線
  6
CONTINUOUS
 62
    5
 10
925
 20
180
 11
925
 21
60
  0
LINE
  8
_0-7_枠細線
  6
CONTINUOUS
 62
    5
 10
1245
 20
180
 11
1245
 21
60
  0
TEXT
  8
_0-7_枠細線
 62
    5
 10
1192.5
 20
160
 40
15
 41
1
 50
0
  1
縮　尺
  0
TEXT
  8
_0-7_枠細線
 62
    5
 10
1194
 20
117.5
 40
20
 41
0.7
 50
0
  1
１：５
  0
LINE
  8
_0-7_枠細線
  6
CONTINUOUS
 62
    5
 10
1185
 20
155
 11
1245
 21
155
  0
LINE
  8
_0-7_枠細線
  6
CONTINUOUS
 62
    5
 10
1245
 20
100
 11
925
 21
100
  0
LINE
  8
_0-7_枠細線
  6
CONTINUOUS
 62
    5
 10
1425
 20
90
 11
1245
 21
90
  0
LINE
  8
_0-7_枠細線
  6
CONTINUOUS
 62
    5
 10
1245
 20
120
 11
1425
 21
120
  0
LINE
  8
_0-7_枠細線
  6
CONTINUOUS
 62
    5
 10
1425
 20
140
 11
1245
 21
140
  0
TEXT
  8
_0-7_枠細線
 62
    5
 10
1255
 20
147.5
 40
25
 41
0.8
 50
0
  1
株式会社シマブン
  0
TEXT
  8
_0-7_枠細線
 62
    5
 10
1252.5
 20
60
 40
15
 41
1
 50
0
  1
年月日
  0
TEXT
  8
_0-7_枠細線
 62
    5
 10
1252.5
 20
75
 40
15
 41
1
 50
0
  1
作　成
  0
TEXT
  8
_0-7_枠細線
 62
    5
 10
1250
 20
95
 40
20
 41
1
 50
0
  1
島 英
  0
TEXT
  8
_0-7_枠細線
 62
    5
 10
1256.25
 20
122.5
 40
15
 41
1
 50
0
  1
承 認
  0
LINE
  8
_0-7_枠細線
  6
CONTINUOUS
 62
    5
 10
1305
 20
140
 11
1305
 21
60
  0
TEXT
  8
_0-7_枠細線
 62
    5
 10
1315
 20
95
 40
20
 41
1
 50
0
  1
隠塚
  0
TEXT
  8
_0-7_枠細線
 62
    5
 10
1316.25
 20
122.5
 40
15
 41
1
 50
0
  1
検 図
  0
LINE
  8
_0-7_枠細線
  6
CONTINUOUS
 62
    5
 10
1365
 20
140
 11
1365
 21
90
  0
TEXT
  8
_0-7_枠細線
 62
    5
 10
1375
 20
95
 40
20
 41
1
 50
0
  1
藤戸
  0
TEXT
  8
_0-7_枠細線
 62
    5
 10
1376.25
 20
122.5
 40
15
 41
1
 50
0
  1
設 計
  0
TEXT
  8
_0-7_枠細線
 62
    5
 10
965.50000000000011
 20
150
 40
20
 41
0.6
 50
0
  1
セーフティグレーチングＨ２５タイプ
  0
LINE
  8
_0-a_極細3
  6
CENTER1
 62
    7
 10
493.07549064794057
 20
227.52662871355963
 11
493.07549064794057
 21
299.30996204689927
  0
LINE
  8
_0-a_極細3
  6
CONTINUOUS
 62
    7
 10
209.74215731460689
 20
232.04579153234275
 11
209.74215731460689
 21
163.71245819900921
  0
LINE
  8
_0-a_極細3
  6
CONTINUOUS
 62
    7
 10
293.07549064794034
 20
163.71245819900921
 11
209.74215731460689
 21
163.71245819900921
  0
LINE
  8
_0-a_極細3
  6
CONTINUOUS
 62
    7
 10
209.74215731460689
 20
232.04579153234275
 11
178.89774350282579
 21
232.04579153234275
  0
LINE
  8
_0-a_極細3
  6
CONTINUOUS
 62
    7
 10
293.07549064794034
 20
163.71245819900921
 11
293.07549064794034
 21
137.47085790423034
  0
LINE
  8
_0-a_極細3
  6
CONTINUOUS
 62
    7
 10
255.6535160829506
 20
137.47085802066707
 11
281.8951162612932
 21
163.71245819900921
  0
LINE
  8
_0-a_極細3
  6
CONTINUOUS
 62
    7
 10
184.9428381843093
 20
137.47085824068017
 11
211.18443814263833
 21
163.71245819900921
  0
LINE
  8
_0-a_極細3
  6
CONTINUOUS
 62
    7
 10
178.89774350282579
 20
202.13644167785148
 11
208.80709335731694
 21
232.04579153234275
  0
LINE
  8
_0-a_極細3
  6
CONTINUOUS
 62
    7
 10
248.58244829308637
 20
137.4708580426686
 11
274.82404844942749
 21
163.71245819900921
  0
LINE
  8
_0-a_極細3
  6
CONTINUOUS
 62
    7
 10
178.89774350282579
 20
138.4968313710624
 11
209.74215731460689
 21
169.34124518284349
  0
LINE
  8
_0-a_極細3
  6
CONTINUOUS
 62
    7
 10
178.89774350282579
 20
209.2075094897173
 11
201.73602554545118
 21
232.04579153234275
  0
LINE
  8
_0-a_極細3
  6
CONTINUOUS
 62
    7
 10
241.51138050322265
 20
137.47085806466976
 11
267.75298063756213
 21
163.71245819900921
  0
LINE
  8
_0-a_極細3
  6
CONTINUOUS
 62
    7
 10
178.89774350282579
 20
145.5678991829277
 11
209.74215731460689
 21
176.41231299470931
  0
LINE
  8
_0-a_極細3
  6
CONTINUOUS
 62
    7
 10
178.89774350282579
 20
216.27857730158257
 11
194.66495773358588
 21
232.04579153234275
  0
CIRCLE
  8
_0-a_極細3
  6
CONTINUOUS
 62
    7
 10
196.79363134599299
 20
247.24920194900278
 40
0.5530864197530718
  0
CIRCLE
  8
_0-a_極細3
  6
CONTINUOUS
 62
    7
 10
186.46276714846252
 20
237.29364639344752
 40
0.5530864197530718
  0
CIRCLE
  8
_0-a_極細3
  6
CONTINUOUS
 62
    7
 10
197.0701745558697
 20
238.36031306011409
 40
0.5530864197530718
  0
CIRCLE
  8
_0-a_極細3
  6
CONTINUOUS
 62
    7
 10
209.69239677809199
 20
240.31586861566939
 40
0.5530864197530718
  0
CIRCLE
  8
_0-a_極細3
  6
CONTINUOUS
 62
    7
 10
238.13684122253591
 20
252.04920194900254
 40
0.5530864197530718
  0
CIRCLE
  8
_0-a_極細3
  6
CONTINUOUS
 62
    7
 10
263.02573011142454
 20
262.00475750455826
 40
0.5530864197530718
  0
CIRCLE
  8
_0-a_極細3
  6
CONTINUOUS
 62
    7
 10
268.71461900031341
 20
245.82697972678034
 40
0.5530864197530718
  0
CIRCLE
  8
_0-a_極細3
  6
CONTINUOUS
 62
    7
 10
243.82573011142469
 20
245.29364639344706
 40
0.5530864197530718
  0
CIRCLE
  8
_0-a_極細3
  6
CONTINUOUS
 62
    7
 10
232.09239677809165
 20
260.22697972677997
 40
0.5530864197530718
  0
CIRCLE
  8
_0-a_極細3
  6
CONTINUOUS
 62
    7
 10
216.63684122253628
 20
233.06031306011391
 40
0.5530864197530718
  0
CIRCLE
  8
_0-a_極細3
  6
CONTINUOUS
 62
    7
 10
237.08128566698022
 20
231.81586861566942
 40
0.5530864197530718
  0
CIRCLE
  8
_0-a_極細3
  6
CONTINUOUS
 62
    7
 10
262.1479523336468
 20
228.08253528233581
 40
0.5530864197530718
  0
CIRCLE
  8
_0-a_極細3
  6
CONTINUOUS
 62
    7
 10
249.52573011142454
 20
222.39364639344697
 40
0.5530864197530718
  0
CIRCLE
  8
_0-a_極細3
  6
CONTINUOUS
 62
    7
 10
234.77017455586952
 20
208.88253528233602
 40
0.5530864197530718
  0
CIRCLE
  8
_0-a_極細3
  6
CONTINUOUS
 62
    7
 10
262.1479523336468
 20
216.17142417122523
 40
0.5530864197530718
  0
CIRCLE
  8
_0-a_極細3
  6
CONTINUOUS
 62
    7
 10
221.03684122253597
 20
189.06031306011391
 40
0.5530864197530718
  0
CIRCLE
  8
_0-a_極細3
  6
CONTINUOUS
 62
    7
 10
215.34795233364704
 20
171.10475750455862
 40
0.5530864197530718
  0
CIRCLE
  8
_0-a_極細3
  6
CONTINUOUS
 62
    7
 10
224.05906344475829
 20
177.86031306011409
 40
0.5530864197530718
  0
CIRCLE
  8
_0-a_極細3
  6
CONTINUOUS
 62
    7
 10
230.28128566698044
 20
169.32697972678127
 40
0.5530864197530718
  0
CIRCLE
  8
_0-a_極細3
  6
CONTINUOUS
 62
    7
 10
269.58128566698019
 20
187.2158686156699
 40
0.5530864197530718
  0
CIRCLE
  8
_0-a_極細3
  6
CONTINUOUS
 62
    7
 10
258.38128566698038
 20
181.70475750455898
 40
0.5530864197530718
  0
CIRCLE
  8
_0-a_極細3
  6
CONTINUOUS
 62
    7
 10
264.60350788920255
 20
179.21586861566993
 40
0.5530864197530718
  0
CIRCLE
  8
_0-a_極細3
  6
CONTINUOUS
 62
    7
 10
261.04795233364689
 20
169.97142417122546
 40
0.5530864197530718
  0
CIRCLE
  8
_0-a_極細3
  6
CONTINUOUS
 62
    7
 10
280.95906344475793
 20
171.03809083789201
 40
0.5530864197530718
  0
CIRCLE
  8
_0-a_極細3
  6
CONTINUOUS
 62
    7
 10
293.93684122253558
 20
174.2380908378918
 40
0.5530864197530718
  0
CIRCLE
  8
_0-a_極細3
  6
CONTINUOUS
 62
    7
 10
307.6257301114245
 20
159.30475750455889
 40
0.5530864197530718
  0
CIRCLE
  8
_0-a_極細3
  6
CONTINUOUS
 62
    7
 10
300.69239677809105
 20
144.37142417122595
 40
0.5530864197530718
  0
CIRCLE
  8
_0-a_極細3
  6
CONTINUOUS
 62
    7
 10
284.02573011142454
 20
187.98623898604006
 40
0.5530864197530718
  0
CIRCLE
  8
_0-a_極細3
  6
CONTINUOUS
 62
    7
 10
298.78128566698001
 20
222.11957231937322
 40
0.5530864197530718
  0
CIRCLE
  8
_0-a_極細3
  6
CONTINUOUS
 62
    7
 10
313.89239677809087
 20
212.16401676381793
 40
0.5530864197530718
  0
CIRCLE
  8
_0-a_極細3
  6
CONTINUOUS
 62
    7
 10
314.42573011142417
 20
194.20846120826269
 40
0.5530864197530718
  0
CIRCLE
  8
_0-a_極細3
  6
CONTINUOUS
 62
    7
 10
279.18128566698016
 20
223.9417945415953
 40
0.5530864197530718
  0
CIRCLE
  8
_0-a_極細3
  6
CONTINUOUS
 62
    7
 10
258.89239677809132
 20
245.92574515887918
 40
1.825531472681392
  0
CIRCLE
  8
_0-a_極細3
  6
CONTINUOUS
 62
    7
 10
207.13027707665631
 20
252.85535943357718
 40
1.825531472681392
  0
CIRCLE
  8
_0-a_極細3
  6
CONTINUOUS
 62
    7
 10
256.07017455586924
 20
212.99241182554624
 40
1.825531472681392
  0
CIRCLE
  8
_0-a_極細3
  6
CONTINUOUS
 62
    7
 10
233.67017455586918
 20
223.12574515887945
 40
1.825531472681392
  0
CIRCLE
  8
_0-a_極細3
  6
CONTINUOUS
 62
    7
 10
214.07017455586924
 20
185.12574515887991
 40
1.825531472681392
  0
CIRCLE
  8
_0-a_極細3
  6
CONTINUOUS
 62
    7
 10
267.27017455586861
 20
172.32574515887976
 40
1.825531472681392
  0
CIRCLE
  8
_0-a_極細3
  6
CONTINUOUS
 62
    7
 10
303.24795233364625
 20
168.72574515888033
 40
1.825531472681392
  0
CIRCLE
  8
_0-a_極細3
  6
CONTINUOUS
 62
    7
 10
308.04795233364598
 20
150.05907849221373
 40
1.825531472681392
  0
LINE
  8
_0-a_極細3
  6
CONTINUOUS
 62
    7
 10
268.07549064794034
 20
285.3791248656762
 11
268.07549064794034
 21
273.71245819900923
  0
LINE
  8
_0-a_極細3
  6
CONTINUOUS
 62
    7
 10
268.07549064794034
 20
285.3791248656762
 11
178.89774350282579
 21
285.3791248656762
  0
LINE
  8
_0-a_極細3
  6
CONTINUOUS
 62
    7
 10
276.40882398127388
 20
273.71245819900923
 11
178.89774350282579
 21
273.71245819900923
  0
LINE
  8
_0-a_極細3
  6
CONTINUOUS
 62
    7
 10
276.40882398127388
 20
285.3791248656762
 11
268.07549064794034
 21
285.3791248656762
  0
LINE
  8
_0-a_極細3
  6
CONTINUOUS
 62
    7
 10
276.40882398127388
 20
284.54579153234272
 11
276.40882398127388
 21
285.3791248656762
  0
LINE
  8
_0-a_極細3
  6
CONTINUOUS
 62
    7
 10
276.21073372491423
 20
273.71245819900923
 11
276.40882398127337
 21
273.91054845536837
  0
LINE
  8
_0-a_極細3
  6
CONTINUOUS
 62
    7
 10
271.96809303779514
 20
273.71245819900923
 11
276.40882398127388
 21
278.15318914248792
  0
LINE
  8
_0-a_極細3
  6
CONTINUOUS
 62
    7
 10
268.07549064794034
 20
274.06249649627398
 11
276.40882398127388
 21
282.39582982960746
  0
LINE
  8
_0-a_極細3
  6
CONTINUOUS
 62
    7
 10
268.07549064794034
 20
278.30513718339307
 11
275.14947833022302
 21
285.3791248656762
  0
LINE
  8
_0-a_極細3
  6
CONTINUOUS
 62
    7
 10
268.07549064794034
 20
282.54777787051262
 11
270.90683764310398
 21
285.3791248656762
  0
LINE
  8
_0-a_極細3
  6
CONTINUOUS
 62
    7
 10
276.40882398127388
 20
283.09815799341777
 11
274.12785710901545
 21
285.3791248656762
  0
LINE
  8
_0-a_極細3
  6
CONTINUOUS
 62
    7
 10
276.40882398127388
 20
278.85551730629822
 11
269.88521642189585
 21
285.3791248656762
  0
LINE
  8
_0-a_極細3
  6
CONTINUOUS
 62
    7
 10
268.07549064794034
 20
282.94620995251262
 11
276.40882398127388
 21
274.61287661917868
  0
LINE
  8
_0-a_極細3
  6
CONTINUOUS
 62
    7
 10
268.07549064794034
 20
278.70356926539307
 11
273.06660171432372
 21
273.71245819900923
  0
LINE
  8
_0-a_極細3
  6
CONTINUOUS
 62
    7
 10
268.07549064794034
 20
274.46092857827352
 11
268.82396102720463
 21
273.71245819900923
  0
LINE
  8
_0-a_極細3
  6
CONTINUOUS
 62
    7
 10
259.24017097030969
 20
273.71245819288197
 11
268.07549064794034
 21
282.54777787051262
  0
LINE
  8
_0-a_極細3
  6
CONTINUOUS
 62
    7
 10
238.0269675200023
 20
273.71245817817089
 11
249.69363420750753
 21
285.3791248656762
  0
LINE
  8
_0-a_極細3
  6
CONTINUOUS
 62
    7
 10
216.81376406969434
 20
273.71245816345936
 11
228.48043077191079
 21
285.3791248656762
  0
LINE
  8
_0-a_極細3
  6
CONTINUOUS
 62
    7
 10
195.60056061938644
 20
273.71245814874783
 11
207.26722733631433
 21
285.3791248656762
  0
LINE
  8
_0-a_極細3
  6
CONTINUOUS
 62
    7
 10
178.89774350282579
 20
278.22284446778349
 11
186.05402390071802
 21
285.3791248656762
  0
LINE
  8
_0-a_極細3
  6
DASHED2
 62
    7
 10
248.633569245156
 20
273.71245818552643
 11
260.30023592530574
 21
285.3791248656762
  0
LINE
  8
_0-a_極細3
  6
DASHED2
 62
    7
 10
227.42036579484804
 20
273.7124581708149
 11
239.08703248970937
 21
285.3791248656762
  0
LINE
  8
_0-a_極細3
  6
DASHED2
 62
    7
 10
206.20716234454065
 20
273.71245815610382
 11
217.87382905411255
 21
285.3791248656762
  0
LINE
  8
_0-a_極細3
  6
DASHED2
 62
    7
 10
184.99395889423269
 20
273.71245814139274
 11
196.66062561851618
 21
285.3791248656762
  0
CIRCLE
  8
_0-a_極細3
  6
CONTINUOUS
 62
    7
 10
186.46276714846252
 20
266.91339947986671
 40
0.5530864197530718
  0
CIRCLE
  8
_0-a_極細3
  6
CONTINUOUS
 62
    7
 10
201.51461900031407
 20
266.36031306011364
 40
0.5530864197530718
  0
CIRCLE
  8
_0-a_極細3
  6
CONTINUOUS
 62
    7
 10
246.8479523336471
 20
260.40475750455789
 40
0.5530864197530718
  0
CIRCLE
  8
_0-a_極細3
  6
CONTINUOUS
 62
    7
 10
246.09239677809157
 20
264.72574515887936
 40
1.825531472681392
  0
CIRCLE
  8
_0-a_極細3
  6
CONTINUOUS
 62
    7
 10
186.93319753557694
 20
253.74796738110126
 40
1.825531472681392
  0
LINE
  8
_0-a_極細3
  6
CONTINUOUS
 62
    7
 10
325.5754906479404
 20
238.71245819900923
 11
326.40882398127383
 21
238.71245819900923
  0
LINE
  8
_0-a_極細3
  6
CONTINUOUS
 62
    7
 10
326.40882398127383
 20
238.71245819900923
 11
326.40882398127383
 21
137.47085790423034
  0
ARC
  8
_0-b_細線3
  6
CONTINUOUS
 62
    7
 10
281.40882398127388
 20
243.71245819900923
 40
5
 50
179.99999999999983
 51
269.99999999999977
  0
LINE
  8
_0-b_細線3
  6
CONTINUOUS
 62
    7
 10
276.40882398127388
 20
243.71245819900923
 11
276.40882398127388
 21
284.54579153234272
  0
LINE
  8
_0-b_細線3
  6
CONTINUOUS
 62
    7
 10
281.40882398127388
 20
238.71245819900923
 11
325.5754906479404
 21
238.71245819900923
  0
LINE
  8
_0-b_細線3
  6
CONTINUOUS
 62
    7
 10
326.40882398127383
 20
239.54579153234275
 11
325.5754906479404
 21
238.71245819900923
  0
LINE
  8
_0-b_細線3
  6
CONTINUOUS
 62
    7
 10
326.40882398127383
 20
242.8791248656762
 11
326.40882398127383
 21
239.54579153234275
  0
LINE
  8
_0-b_細線3
  6
CONTINUOUS
 62
    7
 10
325.5754906479404
 20
243.71245819900923
 11
326.40882398127383
 21
242.8791248656762
  0
LINE
  8
_0-b_細線3
  6
CONTINUOUS
 62
    7
 10
281.40882398127388
 20
243.71245819900923
 11
325.5754906479404
 21
243.71245819900923
  0
LINE
  8
_0-b_細線3
  6
CONTINUOUS
 62
    7
 10
277.24215731460686
 20
285.3791248656762
 11
276.40882398127388
 21
284.54579153234272
  0
LINE
  8
_0-b_細線3
  6
CONTINUOUS
 62
    7
 10
280.57549064794034
 20
285.3791248656762
 11
277.24215731460686
 21
285.3791248656762
  0
LINE
  8
_0-b_細線3
  6
CONTINUOUS
 62
    7
 10
281.40882398127388
 20
284.54579153234272
 11
280.57549064794034
 21
285.3791248656762
  0
LINE
  8
_0-b_細線3
  6
CONTINUOUS
 62
    7
 10
281.40882398127388
 20
243.71245819900923
 11
281.40882398127388
 21
284.54579153234272
  0
CIRCLE
  8
_0-a_極細3
  6
CONTINUOUS
 62
    7
 10
319.52138983364489
 20
222.72574515887982
 40
1.825531472681392
  0
CIRCLE
  8
_0-a_極細3
  6
CONTINUOUS
 62
    7
 10
318.52943381512773
 20
168.01586861567017
 40
0.5530864197530718
  0
CIRCLE
  8
_0-a_極細3
  6
CONTINUOUS
 62
    7
 10
319.86276714846167
 20
145.35979758250008
 40
0.5530864197530718
  0
CIRCLE
  8
_0-a_極細3
  6
CONTINUOUS
 62
    7
 10
307.49239677808674
 20
203.61463404776899
 40
1.825531472681392
  0
LINE
  8
_0-a_極細3
  6
CONTINUOUS
 62
    7
 10
776.40882398127417
 20
232.04579153234275
 11
776.40882398127417
 21
163.71245819900921
  0
LINE
  8
_0-a_極細3
  6
CONTINUOUS
 62
    7
 10
693.07549064794057
 20
163.71245819900921
 11
776.40882398127417
 21
163.71245819900921
  0
LINE
  8
_0-a_極細3
  6
CONTINUOUS
 62
    7
 10
776.40882398127417
 20
232.04579153234275
 11
807.25323779305529
 21
232.04579153234275
  0
LINE
  8
_0-a_極細3
  6
CONTINUOUS
 62
    7
 10
693.07549064794057
 20
163.71245819900921
 11
693.07549064794057
 21
137.47085790423034
  0
LINE
  8
_0-a_極細3
  6
CONTINUOUS
 62
    7
 10
784.69882639586694
 20
137.47085790423034
 11
807.25323783459601
 21
160.02526934295929
  0
LINE
  8
_0-a_極細3
  6
CONTINUOUS
 62
    7
 10
713.98814827721208
 20
137.47085790423034
 11
740.22974857199097
 21
163.71245819900921
  0
LINE
  8
_0-a_極細3
  6
CONTINUOUS
 62
    7
 10
776.40882398127417
 20
199.89153360829192
 11
807.25323779381097
 21
230.73594742082878
  0
LINE
  8
_0-a_極細3
  6
CONTINUOUS
 62
    7
 10
777.62775858400119
 20
137.47085790423034
 11
807.25323783051738
 21
167.09633715074602
  0
LINE
  8
_0-a_極細3
  6
CONTINUOUS
 62
    7
 10
706.91708046534632
 20
137.47085790423034
 11
733.15868076012566
 21
163.71245819900921
  0
LINE
  8
_0-a_極細3
  6
CONTINUOUS
 62
    7
 10
776.40882398127417
 20
206.96260142015763
 11
801.49201391390864
 21
232.04579135279258
  0
LINE
  8
_0-a_極細3
  6
CONTINUOUS
 62
    7
 10
770.55669077213588
 20
137.47085790423034
 11
807.25323782643864
 21
174.1674049585331
  0
LINE
  8
_0-a_極細3
  6
CONTINUOUS
 62
    7
 10
699.84601265348101
 20
137.47085790423034
 11
726.08761294826036
 21
163.71245819900921
  0
LINE
  8
_0-a_極細3
  6
CONTINUOUS
 62
    7
 10
776.40882398127417
 20
214.03366923202296
 11
794.42094615265944
 21
232.04579140340869
  0
CIRCLE
  8
_0-a_極細3
  6
CONTINUOUS
 62
    7
 10
679.48128566697835
 20
222.5667945415953
 40
0.5530864197530718
  0
CIRCLE
  8
_0-a_極細3
  6
CONTINUOUS
 62
    7
 10
689.43684122253353
 20
227.36679454159548
 40
0.5530864197530718
  0
CIRCLE
  8
_0-a_極細3
  6
CONTINUOUS
 62
    7
 10
685.34795233364503
 20
202.38901676381786
 40
0.5530864197530718
  0
CIRCLE
  8
_0-a_極細3
  6
CONTINUOUS
 62
    7
 10
702.88128566697787
 20
185.36679454159554
 40
0.5530864197530718
  0
CIRCLE
  8
_0-a_極細3
  6
CONTINUOUS
 62
    7
 10
685.04795233364484
 20
162.06679454159627
 40
0.5530864197530718
  0
CIRCLE
  8
_0-a_極細3
  6
CONTINUOUS
 62
    7
 10
675.71461900031181
 20
144.20012787492942
 40
0.5530864197530718
  0
CIRCLE
  8
_0-a_極細3
  6
CONTINUOUS
 62
    7
 10
687.18128566697817
 20
174.06679454159621
 40
0.5530864197530718
  0
CIRCLE
  8
_0-a_極細3
  6
CONTINUOUS
 62
    7
 10
701.04795233364439
 20
169.26679454159603
 40
0.5530864197530718
  0
CIRCLE
  8
_0-a_極細3
  6
CONTINUOUS
 62
    7
 10
727.98128566697778
 20
169.53346120826245
 40
0.5530864197530718
  0
CIRCLE
  8
_0-a_極細3
  6
CONTINUOUS
 62
    7
 10
715.98128566697778
 20
178.60012787492906
 40
0.5530864197530718
  0
CIRCLE
  8
_0-a_極細3
  6
CONTINUOUS
 62
    7
 10
727.1812856669776
 20
184.20012787492942
 40
0.5530864197530718
  0
CIRCLE
  8
_0-a_極細3
  6
CONTINUOUS
 62
    7
 10
717.69239677808855
 20
258.22235009715041
 40
0.5530864197530718
  0
CIRCLE
  8
_0-a_極細3
  6
CONTINUOUS
 62
    7
 10
715.20350788919995
 20
238.48901676381774
 40
0.5530864197530718
  0
CIRCLE
  8
_0-a_極細3
  6
CONTINUOUS
 62
    7
 10
735.7368412225328
 20
237.77790565270607
 40
0.5530864197530718
  0
CIRCLE
  8
_0-a_極細3
  6
CONTINUOUS
 62
    7
 10
724.13684122253289
 20
223.77790565270655
 40
0.5530864197530718
  0
CIRCLE
  8
_0-a_極細3
  6
CONTINUOUS
 62
    7
 10
763.33684122253271
 20
170.57790565270722
 40
0.5530864197530718
  0
CIRCLE
  8
_0-a_極細3
  6
CONTINUOUS
 62
    7
 10
770.53684122253253
 20
184.57790565270713
 40
0.5530864197530718
  0
CIRCLE
  8
_0-a_極細3
  6
CONTINUOUS
 62
    7
 10
768.93684122253262
 20
205.37790565270643
 40
0.5530864197530718
  0
CIRCLE
  8
_0-a_極細3
  6
CONTINUOUS
 62
    7
 10
750.93684122253262
 20
226.57790565270628
 40
0.5530864197530718
  0
CIRCLE
  8
_0-a_極細3
  6
CONTINUOUS
 62
    7
 10
767.73684122253246
 20
246.17790565270616
 40
0.5530864197530718
  0
CIRCLE
  8
_0-a_極細3
  6
CONTINUOUS
 62
    7
 10
764.93684122253273
 20
219.37790565270646
 40
0.5530864197530718
  0
CIRCLE
  8
_0-a_極細3
  6
CONTINUOUS
 62
    7
 10
794.53684122253208
 20
240.57790565270625
 40
0.5530864197530718
  0
CIRCLE
  8
_0-a_極細3
  6
CONTINUOUS
 62
    7
 10
789.73684122253189
 20
254.34796738110165
 40
1.825531472681392
  0
CIRCLE
  8
_0-a_極細3
  6
CONTINUOUS
 62
    7
 10
774.09239677808785
 20
238.88130071443496
 40
1.825531472681392
  0
CIRCLE
  8
_0-a_極細3
  6
CONTINUOUS
 62
    7
 10
718.6701745558662
 20
245.45907849221251
 40
1.825531472681392
  0
CIRCLE
  8
_0-a_極細3
  6
CONTINUOUS
 62
    7
 10
750.67017455586574
 20
213.45907849221294
 40
1.825531472681392
  0
CIRCLE
  8
_0-a_極細3
  6
CONTINUOUS
 62
    7
 10
680.27573011142294
 20
168.90907849221364
 40
1.825531472681392
  0
CIRCLE
  8
_0-a_極細3
  6
CONTINUOUS
 62
    7
 10
690.49795233364466
 20
198.77574515887957
 40
1.825531472681392
  0
CIRCLE
  8
_0-a_極細3
  6
CONTINUOUS
 62
    7
 10
725.69795233364403
 20
176.37574515887991
 40
1.825531472681392
  0
CIRCLE
  8
_0-a_極細3
  6
CONTINUOUS
 62
    7
 10
771.96314496892785
 20
166.18869276691021
 40
1.825531472681392
  0
CIRCLE
  8
_0-a_極細3
  6
CONTINUOUS
 62
    7
 10
721.29795233364393
 20
219.57574515887973
 40
1.825531472681392
  0
CIRCLE
  8
_0-a_極細3
  6
CONTINUOUS
 62
    7
 10
673.83190295092891
 20
214.15253975184353
 40
0.5530864197530718
  0
CIRCLE
  8
_0-a_極細3
  6
CONTINUOUS
 62
    7
 10
674.03190295092963
 20
190.19698419628781
 40
0.5530864197530718
  0
LINE
  8
_0-a_極細3
  6
CONTINUOUS
 62
    7
 10
718.07549064794057
 20
285.3791248656762
 11
718.07549064794057
 21
273.71245819900923
  0
LINE
  8
_0-a_極細3
  6
CONTINUOUS
 62
    7
 10
718.07549064794057
 20
285.3791248656762
 11
807.25323779305529
 21
285.3791248656762
  0
LINE
  8
_0-a_極細3
  6
CONTINUOUS
 62
    7
 10
709.7421573146072
 20
273.71245819900923
 11
807.25323779305529
 21
273.71245819900923
  0
LINE
  8
_0-a_極細3
  6
CONTINUOUS
 62
    7
 10
709.7421573146072
 20
285.3791248656762
 11
718.07549064794057
 21
285.3791248656762
  0
LINE
  8
_0-a_極細3
  6
CONTINUOUS
 62
    7
 10
709.7421573146072
 20
284.54579153234272
 11
709.7421573146072
 21
285.3791248656762
  0
LINE
  8
_0-a_極細3
  6
CONTINUOUS
 62
    7
 10
718.07549064794057
 20
277.38154447973375
 11
714.4064043672156
 21
273.71245819900923
  0
LINE
  8
_0-a_極細3
  6
CONTINUOUS
 62
    7
 10
718.07549064794057
 20
281.62418516685329
 11
710.16376368009662
 21
273.71245819900923
  0
LINE
  8
_0-a_極細3
  6
CONTINUOUS
 62
    7
 10
709.7421573146072
 20
277.53349252063936
 11
717.58778965964393
 21
285.3791248656762
  0
LINE
  8
_0-a_極細3
  6
CONTINUOUS
 62
    7
 10
709.7421573146072
 20
281.7761332077589
 11
713.3451489725245
 21
285.3791248656762
  0
LINE
  8
_0-a_極細3
  6
CONTINUOUS
 62
    7
 10
718.07549064794057
 20
283.86980265617058
 11
716.56616843843494
 21
285.3791248656762
  0
LINE
  8
_0-a_極細3
  6
CONTINUOUS
 62
    7
 10
718.07549064794057
 20
279.62716196905149
 11
712.32352775131585
 21
285.3791248656762
  0
LINE
  8
_0-a_極細3
  6
CONTINUOUS
 62
    7
 10
718.07549064794057
 20
275.38452128193194
 11
709.7421573146072
 21
283.71785461526542
  0
LINE
  8
_0-a_極細3
  6
CONTINUOUS
 62
    7
 10
715.50491304374373
 20
273.71245819900923
 11
709.7421573146072
 21
279.47521392814633
  0
LINE
  8
_0-a_極細3
  6
CONTINUOUS
 62
    7
 10
711.26227235662463
 20
273.71245819900923
 11
709.7421573146072
 21
275.23257324102678
  0
LINE
  8
_0-a_極細3
  6
CONTINUOUS
 62
    7
 10
786.5312960482438
 20
273.71245819900923
 11
798.19796208812124
 21
285.37912423888702
  0
LINE
  8
_0-a_極細3
  6
CONTINUOUS
 62
    7
 10
765.31809261264698
 20
273.71245819900923
 11
776.98475881847344
 21
285.37912440483524
  0
LINE
  8
_0-a_極細3
  6
CONTINUOUS
 62
    7
 10
744.10488917705061
 20
273.71245819900923
 11
755.7715555488254
 21
285.37912457078392
  0
LINE
  8
_0-a_極細3
  6
CONTINUOUS
 62
    7
 10
722.89168574145424
 20
273.71245819900923
 11
734.5583522791776
 21
285.37912473673259
  0
LINE
  8
_0-a_極細3
  6
DASHED2
 62
    7
 10
797.13789776604199
 20
273.71245819900923
 11
807.25323779305529
 21
283.82779822602242
  0
LINE
  8
_0-a_極細3
  6
DASHED2
 62
    7
 10
775.92469433044528
 20
273.71245819900923
 11
787.59136045329751
 21
285.37912432186113
  0
LINE
  8
_0-a_極細3
  6
DASHED2
 62
    7
 10
754.71149089484879
 20
273.71245819900923
 11
766.37815718364936
 21
285.3791244878098
  0
LINE
  8
_0-a_極細3
  6
DASHED2
 62
    7
 10
733.49828745925254
 20
273.71245819900923
 11
745.16495391400122
 21
285.37912465375848
  0
LINE
  8
_0-a_極細3
  6
DASHED2
 62
    7
 10
718.07549064794057
 20
279.50286482329375
 11
723.95175064435352
 21
285.3791248197067
  0
CIRCLE
  8
_0-a_極細3
  6
CONTINUOUS
 62
    7
 10
798.53684122253208
 20
262.31123898603937
 40
0.5530864197530718
  0
CIRCLE
  8
_0-a_極細3
  6
CONTINUOUS
 62
    7
 10
781.73684122253235
 20
262.31123898603937
 40
0.5530864197530718
  0
CIRCLE
  8
_0-a_極細3
  6
CONTINUOUS
 62
    7
 10
754.93684122253273
 20
265.1112389860391
 40
0.5530864197530718
  0
CIRCLE
  8
_0-a_極細3
  6
CONTINUOUS
 62
    7
 10
766.27017455586565
 20
263.19241182554561
 40
1.825531472681392
  0
CIRCLE
  8
_0-a_極細3
  6
CONTINUOUS
 62
    7
 10
750.93684122253262
 20
257.24457231937322
 40
0.5530864197530718
  0
CIRCLE
  8
_0-a_極細3
  6
CONTINUOUS
 62
    7
 10
751.07017455586583
 20
250.92574515887918
 40
1.825531472681392
  0
CIRCLE
  8
_0-a_極細3
  6
CONTINUOUS
 62
    7
 10
729.73684122253292
 20
263.24457231937276
 40
0.5530864197530718
  0
LINE
  8
_0-a_極細3
  6
CONTINUOUS
 62
    7
 10
660.57549064794011
 20
238.71245819900923
 11
659.7421573146072
 21
238.71245819900923
  0
LINE
  8
_0-a_極細3
  6
CONTINUOUS
 62
    7
 10
659.7421573146072
 20
238.71245819900923
 11
659.7421573146072
 21
137.47085790423034
  0
ARC
  8
_0-b_細線3
  6
CONTINUOUS
 62
    7
 10
704.7421573146072
 20
243.71245819900923
 40
5
 50
269.99999999999977
 51
359.99999999999966
  0
LINE
  8
_0-b_細線3
  6
CONTINUOUS
 62
    7
 10
709.7421573146072
 20
243.71245819900923
 11
709.7421573146072
 21
284.54579153234272
  0
LINE
  8
_0-b_細線3
  6
CONTINUOUS
 62
    7
 10
704.7421573146072
 20
238.71245819900923
 11
660.57549064794011
 21
238.71245819900923
  0
LINE
  8
_0-b_細線3
  6
CONTINUOUS
 62
    7
 10
659.7421573146072
 20
239.54579153234275
 11
660.57549064794011
 21
238.71245819900923
  0
LINE
  8
_0-b_細線3
  6
CONTINUOUS
 62
    7
 10
659.7421573146072
 20
242.8791248656762
 11
659.7421573146072
 21
239.54579153234275
  0
LINE
  8
_0-b_細線3
  6
CONTINUOUS
 62
    7
 10
660.57549064794011
 20
243.71245819900923
 11
659.7421573146072
 21
242.8791248656762
  0
LINE
  8
_0-b_細線3
  6
CONTINUOUS
 62
    7
 10
704.7421573146072
 20
243.71245819900923
 11
660.57549064794011
 21
243.71245819900923
  0
LINE
  8
_0-b_細線3
  6
CONTINUOUS
 62
    7
 10
708.90882398127405
 20
285.3791248656762
 11
709.7421573146072
 21
284.54579153234272
  0
LINE
  8
_0-b_細線3
  6
CONTINUOUS
 62
    7
 10
705.57549064794057
 20
285.3791248656762
 11
708.90882398127405
 21
285.3791248656762
  0
LINE
  8
_0-b_細線3
  6
CONTINUOUS
 62
    7
 10
704.7421573146072
 20
284.54579153234272
 11
705.57549064794057
 21
285.3791248656762
  0
LINE
  8
_0-b_細線3
  6
CONTINUOUS
 62
    7
 10
704.7421573146072
 20
243.71245819900923
 11
704.7421573146072
 21
284.54579153234272
  0
CIRCLE
  8
_0-a_極細3
  6
CONTINUOUS
 62
    7
 10
665.72655315669056
 20
198.65568343048471
 40
0.5530864197530718
  0
CIRCLE
  8
_0-a_極細3
  6
CONTINUOUS
 62
    7
 10
667.03313751883024
 20
159.40012787492924
 40
0.5530864197530718
  0
CIRCLE
  8
_0-a_極細3
  6
CONTINUOUS
 62
    7
 10
666.39424862994065
 20
225.35352293665801
 40
1.825531472681392
  0
CIRCLE
  8
_0-a_極細3
  6
CONTINUOUS
 62
    7
 10
669.34239677808864
 20
152.73130071443532
 40
1.825531472681392
  0
LINE
  8
_0-d_寸法3
  6
CONTINUOUS
 62
    7
 10
276.40882398127388
 20
290.3791248656762
 11
276.40882398127388
 21
400.37912319733147
  0
LINE
  8
_0-d_寸法3
  6
CONTINUOUS
 62
    7
 10
276.40882398127388
 20
395.37912319733147
 11
286.06808224416454
 21
397.96731364835665
  0
LINE
  8
_0-d_寸法3
  6
CONTINUOUS
 62
    7
 10
276.40882398127388
 20
395.37912319733147
 11
286.06808224416454
 21
392.79093274630623
  0
LINE
  8
_0-d_寸法3
  6
CONTINUOUS
 62
    7
 10
709.7421573146072
 20
290.3791248656762
 11
709.74215731460754
 21
400.37912319733147
  0
LINE
  8
_0-d_寸法3
  6
CONTINUOUS
 62
    7
 10
709.74215731460754
 20
395.37912319733147
 11
700.08289905171682
 21
392.79093274630623
  0
LINE
  8
_0-d_寸法3
  6
CONTINUOUS
 62
    7
 10
709.74215731460754
 20
395.37912319733147
 11
700.08289905171682
 21
397.96731364835665
  0
LINE
  8
_0-d_寸法3
  6
CONTINUOUS
 62
    7
 10
276.40882398127388
 20
395.37912319733147
 11
709.74215731460754
 21
395.37912319733147
  0
TEXT
  8
_0-d_寸法3
 62
    7
 10
481.82549064794057
 20
395.37912319733147
 40
15
 41
1
 50
0
  1
260
  0
LINE
  8
_0-d_寸法3
  6
CONTINUOUS
 62
    7
 10
578.0754906497491
 20
295.37912486567575
 11
578.0754906497491
 21
337.04579153234226
  0
LINE
  8
_0-d_寸法3
  6
CONTINUOUS
 62
    7
 10
578.0754906497491
 20
332.04579153234226
 11
587.73474891263982
 21
334.63398198336745
  0
LINE
  8
_0-d_寸法3
  6
CONTINUOUS
 62
    7
 10
578.0754906497491
 20
332.04579153234226
 11
587.73474891263982
 21
329.45760108131708
  0
LINE
  8
_0-d_寸法3
  6
CONTINUOUS
 62
    7
 10
606.40882398368558
 20
295.37912486567575
 11
606.40882398368558
 21
337.04579153234226
  0
LINE
  8
_0-d_寸法3
  6
CONTINUOUS
 62
    7
 10
606.40882398368558
 20
332.04579153234226
 11
596.74956572079486
 21
329.45760108131708
  0
LINE
  8
_0-d_寸法3
  6
CONTINUOUS
 62
    7
 10
606.40882398368558
 20
332.04579153234226
 11
596.74956572079486
 21
334.63398198336756
  0
LINE
  8
_0-d_寸法3
  6
CONTINUOUS
 62
    7
 10
578.0754906497491
 20
332.04579153234226
 11
606.40882398368558
 21
332.04579153234226
  0
TEXT
  8
_0-d_寸法3
 62
    7
 10
576.08618002411276
 20
317.04579153234226
 40
15
 41
1
 50
0
  1
(17)
  0
LINE
  8
_0-d_寸法3
  6
CONTINUOUS
 62
    7
 10
606.40882398368558
 20
332.04579153234226
 11
616.0680822465763
 21
334.63398198336739
  0
LINE
  8
_0-d_寸法3
  6
CONTINUOUS
 62
    7
 10
606.40882398368558
 20
332.04579153234226
 11
616.0680822465763
 21
329.45760108131702
  0
LINE
  8
_0-d_寸法3
  6
CONTINUOUS
 62
    7
 10
634.74215731762206
 20
295.37912486567575
 11
634.74215731762206
 21
337.04579153234226
  0
LINE
  8
_0-d_寸法3
  6
CONTINUOUS
 62
    7
 10
634.74215731762206
 20
332.04579153234226
 11
625.08289905473134
 21
329.45760108131708
  0
LINE
  8
_0-d_寸法3
  6
CONTINUOUS
 62
    7
 10
634.74215731762206
 20
332.04579153234226
 11
625.08289905473134
 21
334.63398198336756
  0
LINE
  8
_0-d_寸法3
  6
CONTINUOUS
 62
    7
 10
606.40882398368558
 20
332.04579153234226
 11
634.74215731762206
 21
332.04579153234226
  0
TEXT
  8
_0-d_寸法3
 62
    7
 10
606.48618002411285
 20
332.04579153234226
 40
15
 41
1
 50
0
  1
(17)
  0
LINE
  8
_0-d_寸法3
  6
CONTINUOUS
 62
    7
 10
389.24215731035565
 20
292.04579153234226
 11
389.24215731035565
 21
337.04579153234226
  0
LINE
  8
_0-d_寸法3
  6
CONTINUOUS
 62
    7
 10
389.24215731035565
 20
332.04579153234226
 11
379.58289904746493
 21
329.45760108131708
  0
LINE
  8
_0-d_寸法3
  6
CONTINUOUS
 62
    7
 10
389.24215731035565
 20
332.04579153234226
 11
379.58289904746499
 21
334.63398198336756
  0
LINE
  8
_0-d_寸法3
  6
CONTINUOUS
 62
    7
 10
398.57549064797064
 20
292.04579153234226
 11
398.57549064797064
 21
337.04579153234226
  0
LINE
  8
_0-d_寸法3
  6
CONTINUOUS
 62
    7
 10
349.86820162718868
 20
332.04579153234226
 11
398.57549064797064
 21
332.04579153234226
  0
TEXT
  8
_0-d_寸法3
 62
    7
 10
349.86820162718868
 20
317.04579153234226
 40
15
 41
1
 50
0
  1
(5.6)
  0
LINE
  8
_0-d_寸法3
  6
CONTINUOUS
 62
    7
 10
398.57549064797064
 20
332.04579153234226
 11
408.2347489108613
 21
334.63398198336745
  0
LINE
  8
_0-d_寸法3
  6
CONTINUOUS
 62
    7
 10
398.57549064797064
 20
332.04579153234226
 11
408.2347489108613
 21
329.45760108131708
  0
LINE
  8
_0-d_寸法3
  6
CONTINUOUS
 62
    7
 10
417.57549064429168
 20
292.04579153234226
 11
417.57549064429168
 21
337.04579153234226
  0
LINE
  8
_0-d_寸法3
  6
CONTINUOUS
 62
    7
 10
417.57549064429168
 20
332.04579153234226
 11
407.91623238140096
 21
329.45760108131708
  0
LINE
  8
_0-d_寸法3
  6
CONTINUOUS
 62
    7
 10
417.57549064429168
 20
332.04579153234226
 11
407.91623238140107
 21
334.63398198336756
  0
LINE
  8
_0-d_寸法3
  6
CONTINUOUS
 62
    7
 10
398.57549064797064
 20
332.04579153234226
 11
417.57549064429168
 21
332.04579153234226
  0
TEXT
  8
_0-d_寸法3
 62
    7
 10
389.31079421978126
 20
332.04579153234226
 40
15
 41
1
 50
0
  1
11.4
  0
ARC
  8
_0-b_細線3
  6
CONTINUOUS
 62
    7
 10
570.24215731825507
 20
282.04579153234226
 40
1.666666666666667
 50
89.999999999999915
 51
179.99999999999983
  0
ARC
  8
_0-b_細線3
  6
CONTINUOUS
 62
    7
 10
571.02207263713444
 20
285.37912486567575
 40
1.666666666666667
 50
269.99999999999977
 51
329.99999999999523
  0
ARC
  8
_0-b_細線3
  6
CONTINUOUS
 62
    7
 10
573.90882398308258
 20
283.71245819900923
 40
1.666666666666667
 50
89.999999999999915
 51
150.00000000000915
  0
LINE
  8
_0-b_細線3
  6
CONTINUOUS
 62
    7
 10
570.24215731825507
 20
283.71245819900923
 11
571.02207263713444
 21
283.71245819900923
  0
ARC
  8
_0-b_細線3
  6
CONTINUOUS
 62
    7
 10
585.90882398124359
 20
282.04579153234226
 40
1.666666666666667
 50
0
 51
89.999999999999915
  0
ARC
  8
_0-b_細線3
  6
CONTINUOUS
 62
    7
 10
585.12890866236421
 20
285.37912486567575
 40
1.666666666666667
 50
210.00000000000404
 51
269.99999999999977
  0
ARC
  8
_0-b_細線3
  6
CONTINUOUS
 62
    7
 10
582.24215731641607
 20
283.71245819900923
 40
1.666666666666667
 50
29.999999999990862
 51
89.999999999999901
  0
LINE
  8
_0-b_細線3
  6
CONTINUOUS
 62
    7
 10
585.90882398124359
 20
283.71245819900923
 11
585.12890866236421
 21
283.71245819900923
  0
ARC
  8
_0-b_細線3
  6
CONTINUOUS
 62
    7
 10
569.40882398492204
 20
279.71245819900923
 40
0.8333333333333334
 50
179.99999999999983
 51
269.99999999999977
  0
LINE
  8
_0-b_細線3
  6
CONTINUOUS
 62
    7
 10
568.57549065158855
 20
282.04579153234226
 11
568.57549065158855
 21
279.71245819900923
  0
ARC
  8
_0-b_細線3
  6
CONTINUOUS
 62
    7
 10
586.74215731457662
 20
279.71245819900923
 40
0.8333333333333334
 50
269.99999999999977
 51
359.99999999999966
  0
LINE
  8
_0-b_細線3
  6
CONTINUOUS
 62
    7
 10
587.5754906479101
 20
282.04579153234226
 11
587.5754906479101
 21
279.71245819900923
  0
ARC
  8
_0-b_細線3
  6
CONTINUOUS
 62
    7
 10
573.57549065158855
 20
277.21245819900923
 40
1.666666666666667
 50
0
 51
89.999999999999915
  0
LINE
  8
_0-b_細線3
  6
CONTINUOUS
 62
    7
 10
573.57549065158855
 20
278.87912486567575
 11
569.40882398492204
 21
278.87912486567575
  0
ARC
  8
_0-b_細線3
  6
CONTINUOUS
 62
    7
 10
582.57549065158855
 20
277.21245819900923
 40
1.666666666666667
 50
89.999999999999915
 51
179.99999999999983
  0
LINE
  8
_0-b_細線3
  6
CONTINUOUS
 62
    7
 10
582.57549064790965
 20
278.87912486567575
 11
586.74215731457662
 21
278.87912486567575
  0
LINE
  8
_0-b_細線3
  6
CONTINUOUS
 62
    7
 10
582.24215731641607
 20
285.37912486567575
 11
573.90882398308258
 21
285.37912486567575
  0
LINE
  8
_0-b_細線3
  6
CONTINUOUS
 62
    7
 10
575.24215731641607
 20
243.71245819900923
 11
575.24215731825507
 21
277.21245819900923
  0
LINE
  8
_0-b_細線3
  6
CONTINUOUS
 62
    7
 10
580.90882398308258
 20
243.71245819900923
 11
580.90882398492204
 21
277.21245819900923
  0
LINE
  8
_0-b_細線3
  6
CONTINUOUS
 62
    7
 10
580.90882398308258
 20
243.71245819900923
 11
575.24215731641607
 21
243.71245819900923
  0
ARC
  8
_0-b_細線3
  6
CONTINUOUS
 62
    7
 10
541.90882398431904
 20
282.04579153234226
 40
1.666666666666667
 50
89.999999999999915
 51
179.99999999999983
  0
ARC
  8
_0-b_細線3
  6
CONTINUOUS
 62
    7
 10
542.68873930319819
 20
285.37912486567575
 40
1.666666666666667
 50
269.99999999999977
 51
329.99999999999523
  0
ARC
  8
_0-b_細線3
  6
CONTINUOUS
 62
    7
 10
545.57549064914633
 20
283.71245819900923
 40
1.666666666666667
 50
89.999999999999915
 51
150.00000000000915
  0
LINE
  8
_0-b_細線3
  6
CONTINUOUS
 62
    7
 10
541.90882398431904
 20
283.71245819900923
 11
542.68873930319819
 21
283.71245819900923
  0
ARC
  8
_0-b_細線3
  6
CONTINUOUS
 62
    7
 10
557.57549064730688
 20
282.04579153234226
 40
1.666666666666667
 50
0
 51
89.999999999999915
  0
ARC
  8
_0-b_細線3
  6
CONTINUOUS
 62
    7
 10
556.79557532842773
 20
285.37912486567575
 40
1.666666666666667
 50
210.00000000000014
 51
269.99999999999977
  0
ARC
  8
_0-b_細線3
  6
CONTINUOUS
 62
    7
 10
553.90882398247959
 20
283.71245819900923
 40
1.666666666666667
 50
29.999999999994774
 51
89.999999999999915
  0
LINE
  8
_0-b_細線3
  6
CONTINUOUS
 62
    7
 10
557.57549064730688
 20
283.71245819900923
 11
556.79557532842773
 21
283.71245819900923
  0
ARC
  8
_0-b_細線3
  6
CONTINUOUS
 62
    7
 10
541.07549065098578
 20
279.71245819900923
 40
0.8333333333333334
 50
179.99999999999983
 51
269.99999999999977
  0
LINE
  8
_0-b_細線3
  6
CONTINUOUS
 62
    7
 10
540.2421573176523
 20
282.04579153234226
 11
540.2421573176523
 21
279.71245819900923
  0
ARC
  8
_0-b_細線3
  6
CONTINUOUS
 62
    7
 10
558.40882398064036
 20
279.71245819900923
 40
0.8333333333333334
 50
269.99999999999977
 51
359.99999999999966
  0
LINE
  8
_0-b_細線3
  6
CONTINUOUS
 62
    7
 10
559.24215731397362
 20
282.04579153234226
 11
559.24215731397362
 21
279.71245819900923
  0
ARC
  8
_0-b_細線3
  6
CONTINUOUS
 62
    7
 10
545.2421573176523
 20
277.21245819900923
 40
1.666666666666667
 50
0
 51
89.999999999999915
  0
LINE
  8
_0-b_細線3
  6
CONTINUOUS
 62
    7
 10
545.2421573176523
 20
278.87912486567575
 11
541.07549065098578
 21
278.87912486567575
  0
ARC
  8
_0-b_細線3
  6
CONTINUOUS
 62
    7
 10
554.24215731765253
 20
277.21245819900923
 40
1.666666666666667
 50
89.999999999999915
 51
179.99999999999983
  0
LINE
  8
_0-b_細線3
  6
CONTINUOUS
 62
    7
 10
554.24215731397362
 20
278.87912486567575
 11
558.40882398064036
 21
278.87912486567575
  0
LINE
  8
_0-b_細線3
  6
CONTINUOUS
 62
    7
 10
553.90882398247959
 20
285.37912486567575
 11
545.57549064914633
 21
285.37912486567575
  0
LINE
  8
_0-b_細線3
  6
CONTINUOUS
 62
    7
 10
546.90882398247959
 20
243.71245819900923
 11
546.90882398431904
 21
277.21245819900923
  0
LINE
  8
_0-b_細線3
  6
CONTINUOUS
 62
    7
 10
552.57549064914633
 20
243.71245819900923
 11
552.57549065098578
 21
277.21245819900923
  0
LINE
  8
_0-b_細線3
  6
CONTINUOUS
 62
    7
 10
552.57549064914633
 20
243.71245819900923
 11
546.90882398247959
 21
243.71245819900923
  0
ARC
  8
_0-b_細線3
  6
CONTINUOUS
 62
    7
 10
513.57549065038256
 20
282.04579153234226
 40
1.666666666666667
 50
89.999999999999915
 51
179.99999999999983
  0
ARC
  8
_0-b_細線3
  6
CONTINUOUS
 62
    7
 10
514.35540596926194
 20
285.37912486567575
 40
1.666666666666667
 50
269.99999999999977
 51
329.99999999999523
  0
ARC
  8
_0-b_細線3
  6
CONTINUOUS
 62
    7
 10
517.24215731521008
 20
283.71245819900923
 40
1.666666666666667
 50
89.999999999999915
 51
150.00000000000915
  0
LINE
  8
_0-b_細線3
  6
CONTINUOUS
 62
    7
 10
513.57549065038256
 20
283.71245819900923
 11
514.35540596926194
 21
283.71245819900923
  0
ARC
  8
_0-b_細線3
  6
CONTINUOUS
 62
    7
 10
529.24215731337063
 20
282.04579153234226
 40
1.666666666666667
 50
0
 51
89.999999999999915
  0
ARC
  8
_0-b_細線3
  6
CONTINUOUS
 62
    7
 10
528.46224199449125
 20
285.37912486567575
 40
1.666666666666667
 50
210.00000000000404
 51
269.99999999999977
  0
ARC
  8
_0-b_細線3
  6
CONTINUOUS
 62
    7
 10
525.57549064854311
 20
283.71245819900923
 40
1.666666666666667
 50
29.999999999990862
 51
89.999999999984354
  0
LINE
  8
_0-b_細線3
  6
CONTINUOUS
 62
    7
 10
529.24215731337063
 20
283.71245819900923
 11
528.46224199449125
 21
283.71245819900923
  0
ARC
  8
_0-b_細線3
  6
CONTINUOUS
 62
    7
 10
512.74215731704908
 20
279.71245819900923
 40
0.8333333333333334
 50
179.99999999999983
 51
269.99999999999977
  0
LINE
  8
_0-b_細線3
  6
CONTINUOUS
 62
    7
 10
511.90882398371605
 20
282.04579153234226
 11
511.90882398371605
 21
279.71245819900923
  0
ARC
  8
_0-b_細線3
  6
CONTINUOUS
 62
    7
 10
530.07549064670411
 20
279.71245819900923
 40
0.8333333333333334
 50
269.99999999999977
 51
359.99999999999966
  0
LINE
  8
_0-b_細線3
  6
CONTINUOUS
 62
    7
 10
530.90882398003714
 20
282.04579153234226
 11
530.90882398003714
 21
279.71245819900923
  0
ARC
  8
_0-b_細線3
  6
CONTINUOUS
 62
    7
 10
516.90882398371605
 20
277.21245819900923
 40
1.666666666666667
 50
0
 51
89.999999999999915
  0
LINE
  8
_0-b_細線3
  6
CONTINUOUS
 62
    7
 10
516.90882398371605
 20
278.87912486567575
 11
512.74215731704908
 21
278.87912486567575
  0
ARC
  8
_0-b_細線3
  6
CONTINUOUS
 62
    7
 10
525.90882398371605
 20
277.21245819900923
 40
1.666666666666667
 50
89.999999999999915
 51
179.99999999999983
  0
LINE
  8
_0-b_細線3
  6
CONTINUOUS
 62
    7
 10
525.90882398003714
 20
278.87912486567575
 11
530.07549064670411
 21
278.87912486567575
  0
LINE
  8
_0-b_細線3
  6
CONTINUOUS
 62
    7
 10
525.57549064854311
 20
285.37912486567575
 11
517.24215731521008
 21
285.37912486567575
  0
LINE
  8
_0-b_細線3
  6
CONTINUOUS
 62
    7
 10
518.57549064854311
 20
243.71245819900923
 11
518.57549065038256
 21
277.21245819900923
  0
LINE
  8
_0-b_細線3
  6
CONTINUOUS
 62
    7
 10
524.24215731521008
 20
243.71245819900923
 11
524.24215731704953
 21
277.21245819900923
  0
LINE
  8
_0-b_細線3
  6
CONTINUOUS
 62
    7
 10
524.24215731521008
 20
243.71245819900923
 11
518.57549064854311
 21
243.71245819900923
  0
ARC
  8
_0-b_細線3
  6
CONTINUOUS
 62
    7
 10
456.90882398251006
 20
282.04579153234226
 40
1.666666666666667
 50
89.999999999999915
 51
179.99999999999983
  0
ARC
  8
_0-b_細線3
  6
CONTINUOUS
 62
    7
 10
457.68873930138943
 20
285.37912486567575
 40
1.666666666666667
 50
269.99999999999977
 51
329.99999999999523
  0
ARC
  8
_0-b_細線3
  6
CONTINUOUS
 62
    7
 10
460.57549064733763
 20
283.71245819900923
 40
1.666666666666667
 50
89.999999999999915
 51
150.00000000000915
  0
LINE
  8
_0-b_細線3
  6
CONTINUOUS
 62
    7
 10
456.90882398251006
 20
283.71245819900923
 11
457.68873930138943
 21
283.71245819900923
  0
ARC
  8
_0-b_細線3
  6
CONTINUOUS
 62
    7
 10
472.57549064549812
 20
282.04579153234226
 40
1.666666666666667
 50
0
 51
89.999999999999915
  0
ARC
  8
_0-b_細線3
  6
CONTINUOUS
 62
    7
 10
471.79557532661926
 20
285.37912486567575
 40
1.666666666666667
 50
209.99999999999622
 51
269.99999999999977
  0
ARC
  8
_0-b_細線3
  6
CONTINUOUS
 62
    7
 10
468.9088239806706
 20
283.71245819900923
 40
1.666666666666667
 50
29.999999999990862
 51
89.999999999984354
  0
LINE
  8
_0-b_細線3
  6
CONTINUOUS
 62
    7
 10
472.57549064549812
 20
283.71245819900923
 11
471.79557532661926
 21
283.71245819900923
  0
ARC
  8
_0-b_細線3
  6
CONTINUOUS
 62
    7
 10
456.07549064917663
 20
279.71245819900923
 40
0.8333333333333334
 50
179.99999999999983
 51
269.99999999999977
  0
LINE
  8
_0-b_細線3
  6
CONTINUOUS
 62
    7
 10
455.24215731584354
 20
282.04579153234226
 11
455.24215731584354
 21
279.71245819900923
  0
ARC
  8
_0-b_細線3
  6
CONTINUOUS
 62
    7
 10
473.40882397883161
 20
279.71245819900923
 40
0.8333333333333334
 50
269.99999999999977
 51
359.99999999999966
  0
LINE
  8
_0-b_細線3
  6
CONTINUOUS
 62
    7
 10
474.24215731216515
 20
282.04579153234226
 11
474.24215731216515
 21
279.71245819900923
  0
ARC
  8
_0-b_細線3
  6
CONTINUOUS
 62
    7
 10
460.24215731584354
 20
277.21245819900923
 40
1.666666666666667
 50
0
 51
89.999999999999915
  0
LINE
  8
_0-b_細線3
  6
CONTINUOUS
 62
    7
 10
460.24215731584354
 20
278.87912486567575
 11
456.07549064917663
 21
278.87912486567575
  0
ARC
  8
_0-b_細線3
  6
CONTINUOUS
 62
    7
 10
469.24215731584354
 20
277.21245819900923
 40
1.666666666666667
 50
89.999999999999915
 51
179.99999999999983
  0
LINE
  8
_0-b_細線3
  6
CONTINUOUS
 62
    7
 10
469.24215731216464
 20
278.87912486567575
 11
473.40882397883161
 21
278.87912486567575
  0
LINE
  8
_0-b_細線3
  6
CONTINUOUS
 62
    7
 10
468.9088239806706
 20
285.37912486567575
 11
460.57549064733763
 21
285.37912486567575
  0
LINE
  8
_0-b_細線3
  6
CONTINUOUS
 62
    7
 10
461.90882398067112
 20
243.71245819900923
 11
461.90882398251006
 21
277.21245819900923
  0
LINE
  8
_0-b_細線3
  6
CONTINUOUS
 62
    7
 10
467.57549064733757
 20
243.71245819900923
 11
467.57549064917703
 21
277.21245819900923
  0
LINE
  8
_0-b_細線3
  6
CONTINUOUS
 62
    7
 10
467.57549064733757
 20
243.71245819900923
 11
461.90882398067112
 21
243.71245819900923
  0
ARC
  8
_0-b_細線3
  6
CONTINUOUS
 62
    7
 10
428.57549064857358
 20
282.04579153234226
 40
1.666666666666667
 50
89.999999999999915
 51
179.99999999999983
  0
ARC
  8
_0-b_細線3
  6
CONTINUOUS
 62
    7
 10
429.35540596745295
 20
285.37912486567575
 40
1.666666666666667
 50
269.99999999999977
 51
329.99999999999523
  0
ARC
  8
_0-b_細線3
  6
CONTINUOUS
 62
    7
 10
432.24215731340109
 20
283.71245819900923
 40
1.666666666666667
 50
89.999999999999915
 51
150.00000000000915
  0
LINE
  8
_0-b_細線3
  6
CONTINUOUS
 62
    7
 10
428.57549064857358
 20
283.71245819900923
 11
429.35540596745295
 21
283.71245819900923
  0
ARC
  8
_0-b_細線3
  6
CONTINUOUS
 62
    7
 10
444.24215731156164
 20
282.04579153234226
 40
1.666666666666667
 50
0
 51
89.999999999999915
  0
ARC
  8
_0-b_細線3
  6
CONTINUOUS
 62
    7
 10
443.46224199268227
 20
285.37912486567575
 40
1.666666666666667
 50
210.00000000000404
 51
269.99999999999977
  0
ARC
  8
_0-b_細線3
  6
CONTINUOUS
 62
    7
 10
440.57549064673458
 20
283.71245819900923
 40
1.666666666666667
 50
29.999999999998682
 51
89.999999999999915
  0
LINE
  8
_0-b_細線3
  6
CONTINUOUS
 62
    7
 10
444.24215731156164
 20
283.71245819900923
 11
443.46224199268227
 21
283.71245819900923
  0
ARC
  8
_0-b_細線3
  6
CONTINUOUS
 62
    7
 10
427.7421573152406
 20
279.71245819900923
 40
0.8333333333333334
 50
179.99999999999983
 51
269.99999999999977
  0
LINE
  8
_0-b_細線3
  6
CONTINUOUS
 62
    7
 10
426.90882398190706
 20
282.04579153234226
 11
426.90882398190706
 21
279.71245819900923
  0
ARC
  8
_0-b_細線3
  6
CONTINUOUS
 62
    7
 10
445.07549064489518
 20
279.71245819900923
 40
0.8333333333333334
 50
269.99999999999977
 51
359.99999999999966
  0
LINE
  8
_0-b_細線3
  6
CONTINUOUS
 62
    7
 10
445.90882397822816
 20
282.04579153234226
 11
445.90882397822816
 21
279.71245819900923
  0
ARC
  8
_0-b_細線3
  6
CONTINUOUS
 62
    7
 10
431.90882398190706
 20
277.21245819900923
 40
1.666666666666667
 50
0
 51
89.999999999999915
  0
LINE
  8
_0-b_細線3
  6
CONTINUOUS
 62
    7
 10
431.90882398190706
 20
278.87912486567575
 11
427.7421573152406
 21
278.87912486567575
  0
ARC
  8
_0-b_細線3
  6
CONTINUOUS
 62
    7
 10
440.90882398190706
 20
277.21245819900923
 40
1.666666666666667
 50
89.999999999999915
 51
179.99999999999983
  0
LINE
  8
_0-b_細線3
  6
CONTINUOUS
 62
    7
 10
440.90882397822816
 20
278.87912486567575
 11
445.07549064489518
 21
278.87912486567575
  0
LINE
  8
_0-b_細線3
  6
CONTINUOUS
 62
    7
 10
440.57549064673458
 20
285.37912486567575
 11
432.24215731340109
 21
285.37912486567575
  0
LINE
  8
_0-b_細線3
  6
CONTINUOUS
 62
    7
 10
433.57549064673412
 20
243.71245819900923
 11
433.57549064857358
 21
277.21245819900923
  0
LINE
  8
_0-b_細線3
  6
CONTINUOUS
 62
    7
 10
439.24215731340109
 20
243.71245819900923
 11
439.24215731524055
 21
277.21245819900923
  0
LINE
  8
_0-b_細線3
  6
CONTINUOUS
 62
    7
 10
439.24215731340109
 20
243.71245819900923
 11
433.57549064673412
 21
243.71245819900923
  0
ARC
  8
_0-b_細線3
  6
CONTINUOUS
 62
    7
 10
400.2421573146371
 20
282.04579153234226
 40
1.666666666666667
 50
89.999999999999915
 51
179.99999999999983
  0
ARC
  8
_0-b_細線3
  6
CONTINUOUS
 62
    7
 10
401.02207263351653
 20
285.37912486567575
 40
1.666666666666667
 50
269.99999999999977
 51
329.99999999999523
  0
ARC
  8
_0-b_細線3
  6
CONTINUOUS
 62
    7
 10
403.90882397946461
 20
283.71245819900923
 40
1.666666666666667
 50
89.999999999999915
 51
150.00000000000915
  0
LINE
  8
_0-b_細線3
  6
CONTINUOUS
 62
    7
 10
400.2421573146371
 20
283.71245819900923
 11
401.02207263351653
 21
283.71245819900923
  0
ARC
  8
_0-b_細線3
  6
CONTINUOUS
 62
    7
 10
415.90882397762522
 20
282.04579153234226
 40
1.666666666666667
 50
0
 51
89.999999999999915
  0
ARC
  8
_0-b_細線3
  6
CONTINUOUS
 62
    7
 10
415.12890865874624
 20
285.37912486567575
 40
1.666666666666667
 50
209.99999999999622
 51
269.99999999999977
  0
ARC
  8
_0-b_細線3
  6
CONTINUOUS
 62
    7
 10
412.2421573127977
 20
283.71245819900923
 40
1.666666666666667
 50
29.999999999990862
 51
89.999999999984354
  0
LINE
  8
_0-b_細線3
  6
CONTINUOUS
 62
    7
 10
415.90882397762522
 20
283.71245819900923
 11
415.12890865874624
 21
283.71245819900923
  0
ARC
  8
_0-b_細線3
  6
CONTINUOUS
 62
    7
 10
399.40882398130412
 20
279.71245819900923
 40
0.8333333333333334
 50
179.99999999999983
 51
269.99999999999977
  0
LINE
  8
_0-b_細線3
  6
CONTINUOUS
 62
    7
 10
398.57549064797064
 20
282.04579153234226
 11
398.57549064797064
 21
279.71245819900923
  0
ARC
  8
_0-b_細線3
  6
CONTINUOUS
 62
    7
 10
416.7421573109587
 20
279.71245819900923
 40
0.8333333333333334
 50
269.99999999999977
 51
359.99999999999966
  0
LINE
  8
_0-b_細線3
  6
CONTINUOUS
 62
    7
 10
417.57549064429213
 20
282.04579153234226
 11
417.57549064429213
 21
279.71245819900923
  0
ARC
  8
_0-b_細線3
  6
CONTINUOUS
 62
    7
 10
403.57549064797064
 20
277.21245819900923
 40
1.666666666666667
 50
0
 51
89.999999999999915
  0
LINE
  8
_0-b_細線3
  6
CONTINUOUS
 62
    7
 10
403.57549064797064
 20
278.87912486567575
 11
399.40882398130412
 21
278.87912486567575
  0
ARC
  8
_0-b_細線3
  6
CONTINUOUS
 62
    7
 10
412.57549064797058
 20
277.21245819900923
 40
1.666666666666667
 50
89.999999999999915
 51
179.99999999999983
  0
LINE
  8
_0-b_細線3
  6
CONTINUOUS
 62
    7
 10
412.57549064429168
 20
278.87912486567575
 11
416.7421573109587
 21
278.87912486567575
  0
LINE
  8
_0-b_細線3
  6
CONTINUOUS
 62
    7
 10
412.2421573127977
 20
285.37912486567575
 11
403.90882397946461
 21
285.37912486567575
  0
LINE
  8
_0-b_細線3
  6
CONTINUOUS
 62
    7
 10
405.2421573127981
 20
243.71245819900923
 11
405.2421573146371
 21
277.21245819900923
  0
LINE
  8
_0-b_細線3
  6
CONTINUOUS
 62
    7
 10
410.90882397946467
 20
243.71245819900923
 11
410.90882398130412
 21
277.21245819900923
  0
LINE
  8
_0-b_細線3
  6
CONTINUOUS
 62
    7
 10
410.90882397946467
 20
243.71245819900923
 11
405.2421573127981
 21
243.71245819900923
  0
ARC
  8
_0-b_細線3
  6
CONTINUOUS
 62
    7
 10
598.57549065219155
 20
282.04579153234226
 40
1.666666666666667
 50
89.999999999999915
 51
179.99999999999983
  0
ARC
  8
_0-b_細線3
  6
CONTINUOUS
 62
    7
 10
599.35540597107092
 20
285.37912486567575
 40
1.666666666666667
 50
269.99999999999977
 51
329.99999999999523
  0
ARC
  8
_0-b_細線3
  6
CONTINUOUS
 62
    7
 10
602.24215731701861
 20
283.71245819900923
 40
1.666666666666667
 50
89.999999999999915
 51
150.00000000000134
  0
LINE
  8
_0-b_細線3
  6
CONTINUOUS
 62
    7
 10
598.57549065219155
 20
283.71245819900923
 11
599.35540597107092
 21
283.71245819900923
  0
ARC
  8
_0-b_細線3
  6
CONTINUOUS
 62
    7
 10
614.24215731517961
 20
282.04579153234226
 40
1.666666666666667
 50
0
 51
89.999999999999915
  0
ARC
  8
_0-b_細線3
  6
CONTINUOUS
 62
    7
 10
613.46224199630069
 20
285.37912486567575
 40
1.666666666666667
 50
210.00000000000404
 51
269.99999999999977
  0
ARC
  8
_0-b_細線3
  6
CONTINUOUS
 62
    7
 10
610.57549065035255
 20
283.71245819900923
 40
1.666666666666667
 50
29.999999999990862
 51
89.999999999999901
  0
LINE
  8
_0-b_細線3
  6
CONTINUOUS
 62
    7
 10
614.24215731517961
 20
283.71245819900923
 11
613.46224199630069
 21
283.71245819900923
  0
ARC
  8
_0-b_細線3
  6
CONTINUOUS
 62
    7
 10
597.74215731885852
 20
279.71245819900923
 40
0.8333333333333334
 50
179.99999999999983
 51
269.99999999999977
  0
LINE
  8
_0-b_細線3
  6
CONTINUOUS
 62
    7
 10
596.90882398552503
 20
282.04579153234226
 11
596.90882398552503
 21
279.71245819900923
  0
ARC
  8
_0-b_細線3
  6
CONTINUOUS
 62
    7
 10
615.0754906485131
 20
279.71245819900923
 40
0.8333333333333334
 50
269.99999999999977
 51
359.99999999999966
  0
LINE
  8
_0-b_細線3
  6
CONTINUOUS
 62
    7
 10
615.90882398184658
 20
282.04579153234226
 11
615.90882398184658
 21
279.71245819900923
  0
ARC
  8
_0-b_細線3
  6
CONTINUOUS
 62
    7
 10
601.90882398552503
 20
277.21245819900923
 40
1.666666666666667
 50
0
 51
89.999999999999915
  0
LINE
  8
_0-b_細線3
  6
CONTINUOUS
 62
    7
 10
601.90882398552503
 20
278.87912486567575
 11
597.74215731885852
 21
278.87912486567575
  0
ARC
  8
_0-b_細線3
  6
CONTINUOUS
 62
    7
 10
610.90882398552503
 20
277.21245819900923
 40
1.666666666666667
 50
89.999999999999915
 51
179.99999999999983
  0
LINE
  8
_0-b_細線3
  6
CONTINUOUS
 62
    7
 10
610.90882398184613
 20
278.87912486567575
 11
615.0754906485131
 21
278.87912486567575
  0
LINE
  8
_0-b_細線3
  6
CONTINUOUS
 62
    7
 10
610.57549065035255
 20
285.37912486567575
 11
602.24215731701861
 21
285.37912486567575
  0
LINE
  8
_0-b_細線3
  6
CONTINUOUS
 62
    7
 10
603.57549065035255
 20
243.71245819900923
 11
603.57549065219155
 21
277.21245819900923
  0
LINE
  8
_0-b_細線3
  6
CONTINUOUS
 62
    7
 10
609.24215731701906
 20
243.71245819900923
 11
609.24215731885852
 21
277.21245819900923
  0
LINE
  8
_0-b_細線3
  6
CONTINUOUS
 62
    7
 10
609.24215731701906
 20
243.71245819900923
 11
603.57549065035255
 21
243.71245819900923
  0
ARC
  8
_0-b_細線3
  6
CONTINUOUS
 62
    7
 10
626.90882398612803
 20
282.04579153234226
 40
1.666666666666667
 50
89.999999999999915
 51
179.99999999999983
  0
ARC
  8
_0-b_細線3
  6
CONTINUOUS
 62
    7
 10
627.6887393050074
 20
285.37912486567575
 40
1.666666666666667
 50
269.99999999999977
 51
329.99999999999523
  0
ARC
  8
_0-b_細線3
  6
CONTINUOUS
 62
    7
 10
630.57549065095509
 20
283.71245819900923
 40
1.666666666666667
 50
89.999999999999915
 51
150.00000000000134
  0
LINE
  8
_0-b_細線3
  6
CONTINUOUS
 62
    7
 10
626.90882398612803
 20
283.71245819900923
 11
627.6887393050074
 21
283.71245819900923
  0
ARC
  8
_0-b_細線3
  6
CONTINUOUS
 62
    7
 10
642.57549064911609
 20
282.04579153234226
 40
1.666666666666667
 50
0
 51
89.999999999999915
  0
ARC
  8
_0-b_細線3
  6
CONTINUOUS
 62
    7
 10
641.79557533023672
 20
285.37912486567575
 40
1.666666666666667
 50
210.00000000000404
 51
269.99999999999977
  0
ARC
  8
_0-b_細線3
  6
CONTINUOUS
 62
    7
 10
638.90882398428857
 20
283.71245819900923
 40
1.666666666666667
 50
29.999999999990862
 51
89.999999999984354
  0
LINE
  8
_0-b_細線3
  6
CONTINUOUS
 62
    7
 10
642.57549064911609
 20
283.71245819900923
 11
641.79557533023672
 21
283.71245819900923
  0
ARC
  8
_0-b_細線3
  6
CONTINUOUS
 62
    7
 10
626.07549065279454
 20
279.71245819900923
 40
0.8333333333333334
 50
179.99999999999983
 51
269.99999999999977
  0
LINE
  8
_0-b_細線3
  6
CONTINUOUS
 62
    7
 10
625.24215731946151
 20
282.04579153234226
 11
625.24215731946151
 21
279.71245819900923
  0
ARC
  8
_0-b_細線3
  6
CONTINUOUS
 62
    7
 10
643.40882398244958
 20
279.71245819900923
 40
0.8333333333333334
 50
269.99999999999977
 51
359.99999999999966
  0
LINE
  8
_0-b_細線3
  6
CONTINUOUS
 62
    7
 10
644.24215731578261
 20
282.04579153234226
 11
644.24215731578261
 21
279.71245819900923
  0
ARC
  8
_0-b_細線3
  6
CONTINUOUS
 62
    7
 10
630.24215731946151
 20
277.21245819900923
 40
1.666666666666667
 50
0
 51
89.999999999999915
  0
LINE
  8
_0-b_細線3
  6
CONTINUOUS
 62
    7
 10
630.24215731946151
 20
278.87912486567575
 11
626.07549065279454
 21
278.87912486567575
  0
ARC
  8
_0-b_細線3
  6
CONTINUOUS
 62
    7
 10
639.24215731946151
 20
277.21245819900923
 40
1.666666666666667
 50
89.999999999999915
 51
179.99999999999983
  0
LINE
  8
_0-b_細線3
  6
CONTINUOUS
 62
    7
 10
639.24215731578261
 20
278.87912486567575
 11
643.40882398244958
 21
278.87912486567575
  0
LINE
  8
_0-b_細線3
  6
CONTINUOUS
 62
    7
 10
638.90882398428857
 20
285.37912486567575
 11
630.57549065095509
 21
285.37912486567575
  0
LINE
  8
_0-b_細線3
  6
CONTINUOUS
 62
    7
 10
631.90882398428857
 20
243.71245819900923
 11
631.90882398612803
 21
277.21245819900923
  0
LINE
  8
_0-b_細線3
  6
CONTINUOUS
 62
    7
 10
637.57549065095554
 20
243.71245819900923
 11
637.575490652795
 21
277.21245819900923
  0
LINE
  8
_0-b_細線3
  6
CONTINUOUS
 62
    7
 10
637.57549065095554
 20
243.71245819900923
 11
631.90882398428857
 21
243.71245819900923
  0
ARC
  8
_0-b_細線3
  6
CONTINUOUS
 62
    7
 10
655.24215732006451
 20
282.04579153234226
 40
1.666666666666667
 50
89.999999999999915
 51
179.99999999999983
  0
ARC
  8
_0-b_細線3
  6
CONTINUOUS
 62
    7
 10
656.02207263894343
 20
285.37912486567575
 40
1.666666666666667
 50
269.99999999999977
 51
329.99999999999523
  0
ARC
  8
_0-b_細線3
  6
CONTINUOUS
 62
    7
 10
658.90882398489157
 20
283.71245819900923
 40
1.666666666666667
 50
89.999999999999915
 51
150.00000000000915
  0
LINE
  8
_0-b_細線3
  6
CONTINUOUS
 62
    7
 10
655.24215732006451
 20
283.71245819900923
 11
656.02207263894343
 21
283.71245819900923
  0
ARC
  8
_0-b_細線3
  6
CONTINUOUS
 62
    7
 10
670.90882398305257
 20
282.04579153234226
 40
1.666666666666667
 50
0
 51
89.999999999999915
  0
ARC
  8
_0-b_細線3
  6
CONTINUOUS
 62
    7
 10
670.1289086641732
 20
285.37912486567575
 40
1.666666666666667
 50
210.00000000000404
 51
269.99999999999977
  0
ARC
  8
_0-b_細線3
  6
CONTINUOUS
 62
    7
 10
667.24215731822505
 20
283.71245819900923
 40
1.666666666666667
 50
29.999999999990862
 51
89.999999999984354
  0
LINE
  8
_0-b_細線3
  6
CONTINUOUS
 62
    7
 10
670.90882398305257
 20
283.71245819900923
 11
670.1289086641732
 21
283.71245819900923
  0
ARC
  8
_0-b_細線3
  6
CONTINUOUS
 62
    7
 10
654.40882398673114
 20
279.71245819900923
 40
0.8333333333333334
 50
179.99999999999983
 51
269.99999999999977
  0
LINE
  8
_0-b_細線3
  6
CONTINUOUS
 62
    7
 10
653.57549065339754
 20
282.04579153234226
 11
653.57549065339754
 21
279.71245819900923
  0
ARC
  8
_0-b_細線3
  6
CONTINUOUS
 62
    7
 10
671.74215731638571
 20
279.71245819900923
 40
0.8333333333333334
 50
269.99999999999977
 51
359.99999999999966
  0
LINE
  8
_0-b_細線3
  6
CONTINUOUS
 62
    7
 10
672.57549064971909
 20
282.04579153234226
 11
672.57549064971909
 21
279.71245819900923
  0
ARC
  8
_0-b_細線3
  6
CONTINUOUS
 62
    7
 10
658.57549065339754
 20
277.21245819900923
 40
1.666666666666667
 50
0
 51
89.999999999999915
  0
LINE
  8
_0-b_細線3
  6
CONTINUOUS
 62
    7
 10
658.57549065339754
 20
278.87912486567575
 11
654.40882398673114
 21
278.87912486567575
  0
ARC
  8
_0-b_細線3
  6
CONTINUOUS
 62
    7
 10
667.57549065339754
 20
277.21245819900923
 40
1.666666666666667
 50
89.999999999999915
 51
179.99999999999983
  0
LINE
  8
_0-b_細線3
  6
CONTINUOUS
 62
    7
 10
667.57549064971863
 20
278.87912486567575
 11
671.74215731638571
 21
278.87912486567575
  0
LINE
  8
_0-b_細線3
  6
CONTINUOUS
 62
    7
 10
667.24215731822505
 20
285.37912486567575
 11
658.90882398489157
 21
285.37912486567575
  0
LINE
  8
_0-b_細線3
  6
CONTINUOUS
 62
    7
 10
660.24215731822505
 20
243.71245819900923
 11
660.24215732006451
 21
277.21245819900923
  0
LINE
  8
_0-b_細線3
  6
CONTINUOUS
 62
    7
 10
665.90882398489157
 20
243.71245819900923
 11
665.90882398673148
 21
277.21245819900923
  0
LINE
  8
_0-b_細線3
  6
CONTINUOUS
 62
    7
 10
665.90882398489157
 20
243.71245819900923
 11
660.24215731822505
 21
243.71245819900923
  0
ARC
  8
_0-b_細線3
  6
CONTINUOUS
 62
    7
 10
371.90882398038434
 20
282.04579153234226
 40
1.666666666666667
 50
89.999999999999915
 51
179.99999999999983
  0
ARC
  8
_0-b_細線3
  6
CONTINUOUS
 62
    7
 10
372.68873929926372
 20
285.37912486567575
 40
1.666666666666667
 50
269.99999999999977
 51
329.99999999999523
  0
ARC
  8
_0-b_細線3
  6
CONTINUOUS
 62
    7
 10
375.57549064521191
 20
283.71245819900923
 40
1.666666666666667
 50
89.999999999999915
 51
150.00000000000915
  0
LINE
  8
_0-b_細線3
  6
CONTINUOUS
 62
    7
 10
371.90882398038434
 20
283.71245819900923
 11
372.68873929926372
 21
283.71245819900923
  0
ARC
  8
_0-b_細線3
  6
CONTINUOUS
 62
    7
 10
387.5754906433724
 20
282.04579153234226
 40
1.666666666666667
 50
0
 51
89.999999999999915
  0
ARC
  8
_0-b_細線3
  6
CONTINUOUS
 62
    7
 10
386.79557532449348
 20
285.37912486567575
 40
1.666666666666667
 50
209.99999999999622
 51
269.99999999999977
  0
ARC
  8
_0-b_細線3
  6
CONTINUOUS
 62
    7
 10
383.90882397854489
 20
283.71245819900923
 40
1.666666666666667
 50
29.999999999990862
 51
89.999999999984354
  0
LINE
  8
_0-b_細線3
  6
CONTINUOUS
 62
    7
 10
387.5754906433724
 20
283.71245819900923
 11
386.79557532449348
 21
283.71245819900923
  0
ARC
  8
_0-b_細線3
  6
CONTINUOUS
 62
    7
 10
371.07549064705131
 20
279.71245819900923
 40
0.8333333333333334
 50
179.99999999999983
 51
269.99999999999977
  0
LINE
  8
_0-b_細線3
  6
CONTINUOUS
 62
    7
 10
370.24215731371783
 20
282.04579153234226
 11
370.24215731371783
 21
279.71245819900923
  0
ARC
  8
_0-b_細線3
  6
CONTINUOUS
 62
    7
 10
388.40882397670589
 20
279.71245819900923
 40
0.8333333333333334
 50
269.99999999999977
 51
359.99999999999966
  0
LINE
  8
_0-b_細線3
  6
CONTINUOUS
 62
    7
 10
389.24215731003937
 20
282.04579153234226
 11
389.24215731003937
 21
279.71245819900923
  0
ARC
  8
_0-b_細線3
  6
CONTINUOUS
 62
    7
 10
375.24215731371783
 20
277.21245819900923
 40
1.666666666666667
 50
0
 51
89.999999999999915
  0
LINE
  8
_0-b_細線3
  6
CONTINUOUS
 62
    7
 10
375.24215731371783
 20
278.87912486567575
 11
371.07549064705131
 21
278.87912486567575
  0
ARC
  8
_0-b_細線3
  6
CONTINUOUS
 62
    7
 10
384.24215731371788
 20
277.21245819900923
 40
1.666666666666667
 50
89.999999999999915
 51
179.99999999999983
  0
LINE
  8
_0-b_細線3
  6
CONTINUOUS
 62
    7
 10
384.24215731003898
 20
278.87912486567575
 11
388.40882397670589
 21
278.87912486567575
  0
LINE
  8
_0-b_細線3
  6
CONTINUOUS
 62
    7
 10
383.90882397854489
 20
285.37912486567575
 11
375.57549064521191
 21
285.37912486567575
  0
LINE
  8
_0-b_細線3
  6
CONTINUOUS
 62
    7
 10
376.90882397854534
 20
243.71245819900923
 11
376.90882398038434
 21
277.21245819900923
  0
LINE
  8
_0-b_細線3
  6
CONTINUOUS
 62
    7
 10
382.57549064521186
 20
243.71245819900923
 11
382.57549064705131
 21
277.21245819900923
  0
LINE
  8
_0-b_細線3
  6
CONTINUOUS
 62
    7
 10
382.57549064521186
 20
243.71245819900923
 11
376.90882397854534
 21
243.71245819900923
  0
ARC
  8
_0-b_細線3
  6
CONTINUOUS
 62
    7
 10
343.57549064613158
 20
282.04579153234226
 40
1.666666666666667
 50
89.999999999999915
 51
179.99999999999983
  0
ARC
  8
_0-b_細線3
  6
CONTINUOUS
 62
    7
 10
344.35540596501096
 20
285.37912486567575
 40
1.666666666666667
 50
269.99999999999977
 51
329.99999999999523
  0
ARC
  8
_0-b_細線3
  6
CONTINUOUS
 62
    7
 10
347.2421573109591
 20
283.71245819900923
 40
1.666666666666667
 50
89.999999999999915
 51
150.00000000000915
  0
LINE
  8
_0-b_細線3
  6
CONTINUOUS
 62
    7
 10
343.57549064613158
 20
283.71245819900923
 11
344.35540596501096
 21
283.71245819900923
  0
ARC
  8
_0-b_細線3
  6
CONTINUOUS
 62
    7
 10
359.24215730911965
 20
282.04579153234226
 40
1.666666666666667
 50
0
 51
89.999999999999915
  0
ARC
  8
_0-b_細線3
  6
CONTINUOUS
 62
    7
 10
358.46224199024073
 20
285.37912486567575
 40
1.666666666666667
 50
209.99999999999622
 51
269.99999999999977
  0
ARC
  8
_0-b_細線3
  6
CONTINUOUS
 62
    7
 10
355.57549064429219
 20
283.71245819900923
 40
1.666666666666667
 50
29.999999999990862
 51
89.999999999984354
  0
LINE
  8
_0-b_細線3
  6
CONTINUOUS
 62
    7
 10
359.24215730911965
 20
283.71245819900923
 11
358.46224199024073
 21
283.71245819900923
  0
ARC
  8
_0-b_細線3
  6
CONTINUOUS
 62
    7
 10
342.74215731279861
 20
279.71245819900923
 40
0.8333333333333334
 50
179.99999999999983
 51
269.99999999999977
  0
LINE
  8
_0-b_細線3
  6
CONTINUOUS
 62
    7
 10
341.90882397946507
 20
282.04579153234226
 11
341.90882397946507
 21
279.71245819900923
  0
ARC
  8
_0-b_細線3
  6
CONTINUOUS
 62
    7
 10
360.07549064245319
 20
279.71245819900923
 40
0.8333333333333334
 50
269.99999999999977
 51
359.99999999999966
  0
LINE
  8
_0-b_細線3
  6
CONTINUOUS
 62
    7
 10
360.90882397578662
 20
282.04579153234226
 11
360.90882397578662
 21
279.71245819900923
  0
ARC
  8
_0-b_細線3
  6
CONTINUOUS
 62
    7
 10
346.90882397946507
 20
277.21245819900923
 40
1.666666666666667
 50
0
 51
89.999999999999915
  0
LINE
  8
_0-b_細線3
  6
CONTINUOUS
 62
    7
 10
346.90882397946507
 20
278.87912486567575
 11
342.74215731279861
 21
278.87912486567575
  0
ARC
  8
_0-b_細線3
  6
CONTINUOUS
 62
    7
 10
355.90882397946507
 20
277.21245819900923
 40
1.666666666666667
 50
89.999999999999915
 51
179.99999999999983
  0
LINE
  8
_0-b_細線3
  6
CONTINUOUS
 62
    7
 10
355.90882397578616
 20
278.87912486567575
 11
360.07549064245319
 21
278.87912486567575
  0
LINE
  8
_0-b_細線3
  6
CONTINUOUS
 62
    7
 10
355.57549064429219
 20
285.37912486567575
 11
347.2421573109591
 21
285.37912486567575
  0
LINE
  8
_0-b_細線3
  6
CONTINUOUS
 62
    7
 10
348.57549064429259
 20
243.71245819900923
 11
348.57549064613158
 21
277.21245819900923
  0
LINE
  8
_0-b_細線3
  6
CONTINUOUS
 62
    7
 10
354.2421573109591
 20
243.71245819900923
 11
354.24215731279855
 21
277.21245819900923
  0
LINE
  8
_0-b_細線3
  6
CONTINUOUS
 62
    7
 10
354.2421573109591
 20
243.71245819900923
 11
348.57549064429259
 21
243.71245819900923
  0
ARC
  8
_0-b_細線3
  6
CONTINUOUS
 62
    7
 10
315.24215731187883
 20
282.04579153234226
 40
1.666666666666667
 50
89.999999999999915
 51
179.99999999999983
  0
ARC
  8
_0-b_細線3
  6
CONTINUOUS
 62
    7
 10
316.02207263075826
 20
285.37912486567575
 40
1.666666666666667
 50
269.99999999999977
 51
329.99999999999523
  0
ARC
  8
_0-b_細線3
  6
CONTINUOUS
 62
    7
 10
318.90882397670634
 20
283.71245819900923
 40
1.666666666666667
 50
89.999999999999915
 51
150.00000000000915
  0
LINE
  8
_0-b_細線3
  6
CONTINUOUS
 62
    7
 10
315.24215731187883
 20
283.71245819900923
 11
316.02207263075826
 21
283.71245819900923
  0
ARC
  8
_0-b_細線3
  6
CONTINUOUS
 62
    7
 10
330.90882397486689
 20
282.04579153234226
 40
1.666666666666667
 50
0
 51
89.999999999999915
  0
ARC
  8
_0-b_細線3
  6
CONTINUOUS
 62
    7
 10
330.12890865598797
 20
285.37912486567575
 40
1.666666666666667
 50
209.99999999999622
 51
269.99999999999977
  0
ARC
  8
_0-b_細線3
  6
CONTINUOUS
 62
    7
 10
327.24215731003937
 20
283.71245819900923
 40
1.666666666666667
 50
29.999999999990862
 51
89.999999999984354
  0
LINE
  8
_0-b_細線3
  6
CONTINUOUS
 62
    7
 10
330.90882397486689
 20
283.71245819900923
 11
330.12890865598797
 21
283.71245819900923
  0
ARC
  8
_0-b_細線3
  6
CONTINUOUS
 62
    7
 10
314.4088239785458
 20
279.71245819900923
 40
0.8333333333333334
 50
179.99999999999983
 51
269.99999999999977
  0
LINE
  8
_0-b_細線3
  6
CONTINUOUS
 62
    7
 10
313.57549064521237
 20
282.04579153234226
 11
313.57549064521237
 21
279.71245819900923
  0
ARC
  8
_0-b_細線3
  6
CONTINUOUS
 62
    7
 10
331.74215730820038
 20
279.71245819900923
 40
0.8333333333333334
 50
269.99999999999977
 51
359.99999999999966
  0
LINE
  8
_0-b_細線3
  6
CONTINUOUS
 62
    7
 10
332.57549064153386
 20
282.04579153234226
 11
332.57549064153386
 21
279.71245819900923
  0
ARC
  8
_0-b_細線3
  6
CONTINUOUS
 62
    7
 10
318.57549064521237
 20
277.21245819900923
 40
1.666666666666667
 50
0
 51
89.999999999999915
  0
LINE
  8
_0-b_細線3
  6
CONTINUOUS
 62
    7
 10
318.57549064521237
 20
278.87912486567575
 11
314.4088239785458
 21
278.87912486567575
  0
ARC
  8
_0-b_細線3
  6
CONTINUOUS
 62
    7
 10
327.57549064521237
 20
277.21245819900923
 40
1.666666666666667
 50
89.999999999999915
 51
179.99999999999983
  0
LINE
  8
_0-b_細線3
  6
CONTINUOUS
 62
    7
 10
327.57549064153346
 20
278.87912486567575
 11
331.74215730820038
 21
278.87912486567575
  0
LINE
  8
_0-b_細線3
  6
CONTINUOUS
 62
    7
 10
327.24215731003937
 20
285.37912486567575
 11
318.90882397670634
 21
285.37912486567575
  0
LINE
  8
_0-b_細線3
  6
CONTINUOUS
 62
    7
 10
320.24215731003983
 20
243.71245819900923
 11
320.24215731187888
 21
277.21245819900923
  0
LINE
  8
_0-b_細線3
  6
CONTINUOUS
 62
    7
 10
325.90882397670634
 20
243.71245819900923
 11
325.9088239785458
 21
277.21245819900923
  0
LINE
  8
_0-b_細線3
  6
CONTINUOUS
 62
    7
 10
325.90882397670634
 20
243.71245819900923
 11
320.24215731003983
 21
243.71245819900923
  0
ARC
  8
_0-b_細線3
  6
CONTINUOUS
 62
    7
 10
286.40882398070107
 20
282.04579153234226
 40
1.666666666666667
 50
89.999999999999915
 51
179.99999999999983
  0
ARC
  8
_0-b_細線3
  6
CONTINUOUS
 62
    7
 10
287.18873929957999
 20
285.37912486567575
 40
1.666666666666667
 50
269.99999999999977
 51
329.99999999999523
  0
ARC
  8
_0-b_細線3
  6
CONTINUOUS
 62
    7
 10
290.07549064552819
 20
283.71245819900923
 40
1.666666666666667
 50
89.999999999999915
 51
150.00000000000915
  0
LINE
  8
_0-b_細線3
  6
CONTINUOUS
 62
    7
 10
286.40882398070107
 20
283.71245819900923
 11
287.18873929957999
 21
283.71245819900923
  0
ARC
  8
_0-b_細線3
  6
CONTINUOUS
 62
    7
 10
302.07549064368919
 20
282.04579153234226
 40
1.666666666666667
 50
0
 51
89.999999999999915
  0
ARC
  8
_0-b_細線3
  6
CONTINUOUS
 62
    7
 10
301.29557532480976
 20
285.37912486567575
 40
1.666666666666667
 50
210.00000000000404
 51
269.99999999999977
  0
ARC
  8
_0-b_細線3
  6
CONTINUOUS
 62
    7
 10
298.40882397886162
 20
283.71245819900923
 40
1.666666666666667
 50
29.999999999990862
 51
89.999999999999901
  0
LINE
  8
_0-b_細線3
  6
CONTINUOUS
 62
    7
 10
302.07549064368919
 20
283.71245819900923
 11
301.29557532480976
 21
283.71245819900923
  0
ARC
  8
_0-b_細線3
  6
CONTINUOUS
 62
    7
 10
285.57549064736759
 20
279.71245819900923
 40
0.8333333333333334
 50
179.99999999999983
 51
269.99999999999977
  0
LINE
  8
_0-b_細線3
  6
CONTINUOUS
 62
    7
 10
284.7421573140341
 20
282.04579153234226
 11
284.7421573140341
 21
279.71245819900923
  0
ARC
  8
_0-b_細線3
  6
CONTINUOUS
 62
    7
 10
302.90882397702262
 20
279.71245819900923
 40
0.8333333333333334
 50
269.99999999999977
 51
359.99999999999966
  0
LINE
  8
_0-b_細線3
  6
CONTINUOUS
 62
    7
 10
303.74215731035565
 20
282.04579153234226
 11
303.74215731035565
 21
279.71245819900923
  0
ARC
  8
_0-b_細線3
  6
CONTINUOUS
 62
    7
 10
289.7421573140341
 20
277.21245819900923
 40
1.666666666666667
 50
0
 51
89.999999999999915
  0
LINE
  8
_0-b_細線3
  6
CONTINUOUS
 62
    7
 10
289.7421573140341
 20
278.87912486567575
 11
285.57549064736759
 21
278.87912486567575
  0
ARC
  8
_0-b_細線3
  6
CONTINUOUS
 62
    7
 10
298.74215731403456
 20
277.21245819900923
 40
1.666666666666667
 50
89.999999999999915
 51
179.99999999999983
  0
LINE
  8
_0-b_細線3
  6
CONTINUOUS
 62
    7
 10
298.74215731035565
 20
278.87912486567575
 11
302.90882397702262
 21
278.87912486567575
  0
LINE
  8
_0-b_細線3
  6
CONTINUOUS
 62
    7
 10
298.40882397886162
 20
285.37912486567575
 11
290.07549064552819
 21
285.37912486567575
  0
LINE
  8
_0-b_細線3
  6
CONTINUOUS
 62
    7
 10
291.40882397886162
 20
243.71245819900923
 11
291.40882398070107
 21
277.21245819900923
  0
LINE
  8
_0-b_細線3
  6
CONTINUOUS
 62
    7
 10
297.07549064552813
 20
243.71245819900923
 11
297.07549064736759
 21
277.21245819900923
  0
LINE
  8
_0-b_細線3
  6
CONTINUOUS
 62
    7
 10
297.07549064552813
 20
243.71245819900923
 11
291.40882397886162
 21
243.71245819900923
  0
ARC
  8
_0-b_細線3
  6
CONTINUOUS
 62
    7
 10
684.07549065219155
 20
282.04579153234226
 40
1.666666666666667
 50
89.999999999999915
 51
179.99999999999983
  0
ARC
  8
_0-b_細線3
  6
CONTINUOUS
 62
    7
 10
684.85540597107092
 20
285.37912486567575
 40
1.666666666666667
 50
269.99999999999977
 51
329.99999999999523
  0
ARC
  8
_0-b_細線3
  6
CONTINUOUS
 62
    7
 10
687.74215731701861
 20
283.71245819900923
 40
1.666666666666667
 50
89.999999999999915
 51
150.00000000000134
  0
LINE
  8
_0-b_細線3
  6
CONTINUOUS
 62
    7
 10
684.07549065219155
 20
283.71245819900923
 11
684.85540597107092
 21
283.71245819900923
  0
ARC
  8
_0-b_細線3
  6
CONTINUOUS
 62
    7
 10
699.74215731517961
 20
282.04579153234226
 40
1.666666666666667
 50
0
 51
89.999999999999915
  0
ARC
  8
_0-b_細線3
  6
CONTINUOUS
 62
    7
 10
698.96224199630024
 20
285.37912486567575
 40
1.666666666666667
 50
210.00000000000404
 51
269.99999999999977
  0
ARC
  8
_0-b_細線3
  6
CONTINUOUS
 62
    7
 10
696.07549065035209
 20
283.71245819900923
 40
1.666666666666667
 50
29.999999999990862
 51
89.999999999999901
  0
LINE
  8
_0-b_細線3
  6
CONTINUOUS
 62
    7
 10
699.74215731517961
 20
283.71245819900923
 11
698.96224199630024
 21
283.71245819900923
  0
ARC
  8
_0-b_細線3
  6
CONTINUOUS
 62
    7
 10
683.24215731885818
 20
279.71245819900923
 40
0.8333333333333334
 50
179.99999999999983
 51
269.99999999999977
  0
LINE
  8
_0-b_細線3
  6
CONTINUOUS
 62
    7
 10
682.40882398552503
 20
282.04579153234226
 11
682.40882398552503
 21
279.71245819900923
  0
ARC
  8
_0-b_細線3
  6
CONTINUOUS
 62
    7
 10
700.5754906485131
 20
279.71245819900923
 40
0.8333333333333334
 50
269.99999999999977
 51
359.99999999999966
  0
LINE
  8
_0-b_細線3
  6
CONTINUOUS
 62
    7
 10
701.40882398184613
 20
282.04579153234226
 11
701.40882398184613
 21
279.71245819900923
  0
ARC
  8
_0-b_細線3
  6
CONTINUOUS
 62
    7
 10
687.40882398552503
 20
277.21245819900923
 40
1.666666666666667
 50
0
 51
89.999999999999915
  0
LINE
  8
_0-b_細線3
  6
CONTINUOUS
 62
    7
 10
687.40882398552503
 20
278.87912486567575
 11
683.24215731885818
 21
278.87912486567575
  0
ARC
  8
_0-b_細線3
  6
CONTINUOUS
 62
    7
 10
696.40882398552503
 20
277.21245819900923
 40
1.666666666666667
 50
89.999999999999915
 51
179.99999999999983
  0
LINE
  8
_0-b_細線3
  6
CONTINUOUS
 62
    7
 10
696.40882398184613
 20
278.87912486567575
 11
700.5754906485131
 21
278.87912486567575
  0
LINE
  8
_0-b_細線3
  6
CONTINUOUS
 62
    7
 10
696.07549065035209
 20
285.37912486567575
 11
687.74215731701861
 21
285.37912486567575
  0
LINE
  8
_0-b_細線3
  6
CONTINUOUS
 62
    7
 10
689.07549065035209
 20
243.71245819900923
 11
689.07549065219155
 21
277.21245819900923
  0
LINE
  8
_0-b_細線3
  6
CONTINUOUS
 62
    7
 10
694.74215731701906
 20
243.71245819900923
 11
694.74215731885852
 21
277.21245819900923
  0
LINE
  8
_0-b_細線3
  6
CONTINUOUS
 62
    7
 10
694.74215731701906
 20
243.71245819900923
 11
689.07549065035209
 21
243.71245819900923
  0
LINE
  8
_0-d_寸法3
  6
CONTINUOUS
 62
    7
 10
484.88397020505045
 20
249.4482225625197
 11
449.74366551634978
 21
274.05372880053392
  0
LINE
  8
_0-d_寸法3
  6
CONTINUOUS
 62
    7
 10
453.83942573779478
 20
271.18584661877867
 11
451.2512352867696
 21
280.84510488166933
  0
LINE
  8
_0-d_寸法3
  6
CONTINUOUS
 62
    7
 10
453.83942573779478
 20
271.18584661877867
 11
456.42761618881997
 21
280.84510488166933
  0
LINE
  8
_0-d_寸法3
  6
CONTINUOUS
 62
    7
 10
484.88397020505045
 20
291.1148892291867
 11
449.74366551634978
 21
315.72039546720089
  0
LINE
  8
_0-d_寸法3
  6
CONTINUOUS
 62
    7
 10
453.83942573779478
 20
312.85251328544564
 11
456.42761618881991
 21
303.19325502255492
  0
LINE
  8
_0-d_寸法3
  6
CONTINUOUS
 62
    7
 10
453.83942573779478
 20
312.85251328544564
 11
451.25123528676954
 21
303.19325502255498
  0
LINE
  8
_0-d_寸法3
  6
CONTINUOUS
 62
    7
 10
453.83942573779478
 20
271.18584661877867
 11
453.83942573779478
 21
312.85251328544564
  0
TEXT
  8
_0-d_寸法3
 62
    7
 10
453.83942573779478
 20
284.51917995211215
 40
15
 41
1
 50
90
  1
25
  0
LINE
  8
_0-d_寸法3
  6
CONTINUOUS
 62
    7
 10
326.40882398127383
 20
233.71245819900923
 11
326.40882398127383
 21
173.23443296477038
  0
LINE
  8
_0-d_寸法3
  6
CONTINUOUS
 62
    7
 10
326.40882398127383
 20
178.23443296477038
 11
336.06808224416449
 21
180.82262341579559
  0
LINE
  8
_0-d_寸法3
  6
CONTINUOUS
 62
    7
 10
326.40882398127383
 20
178.23443296477038
 11
336.06808224416449
 21
175.64624251374511
  0
LINE
  8
_0-d_寸法3
  6
CONTINUOUS
 62
    7
 10
659.7421573146072
 20
233.71245819900923
 11
659.7421573146072
 21
173.23443296477038
  0
LINE
  8
_0-d_寸法3
  6
CONTINUOUS
 62
    7
 10
659.7421573146072
 20
178.23443296477038
 11
650.08289905171637
 21
175.64624251374516
  0
LINE
  8
_0-d_寸法3
  6
CONTINUOUS
 62
    7
 10
659.7421573146072
 20
178.23443296477038
 11
650.08289905171637
 21
180.82262341579565
  0
LINE
  8
_0-d_寸法3
  6
CONTINUOUS
 62
    7
 10
326.40882398127383
 20
178.23443296477038
 11
659.7421573146072
 21
178.23443296477038
  0
TEXT
  8
_0-d_寸法3
 62
    7
 10
481.82549064794057
 20
178.23443296477038
 40
15
 41
1
 50
0
  1
200
  0
LINE
  8
_0-a_極細3
  6
CONTINUOUS
 62
    7
 10
232.76875576078851
 20
188.59415936151251
 11
227.63845361090333
 21
202.68954867330152
  0
LINE
  8
_0-a_極細3
  6
CONTINUOUS
 62
    7
 10
282.76279843458497
 20
222.75316937254775
 11
287.89310058446972
 21
208.65778006075882
  0
LINE
  8
_0-a_極細3
  6
CONTINUOUS
 62
    7
 10
227.63845361090333
 20
202.68954867330152
 11
282.76279843458497
 21
222.75316937254775
  0
LINE
  8
_0-a_極細3
  6
CONTINUOUS
 62
    7
 10
232.76875576078851
 20
188.59415936151251
 11
287.89310058446972
 21
208.65778006075882
  0
LINE
  8
_0-a_極細3
  6
CENTER1
 62
    7
 10
225.24817129385312
 20
193.83822397737731
 11
289.27919177641888
 21
217.14360946241231
  0
LINE
  8
_0-a_極細3
  6
CONTINUOUS
 62
    7
 10
251.40882398127388
 20
163.71245819900921
 11
251.40882398127388
 21
207.79801954732511
  0
LINE
  8
_0-a_極細3
  6
CONTINUOUS
 62
    7
 10
251.40882398127388
 20
207.79801954732511
 11
236.40882398127388
 21
207.79801954732511
  0
LINE
  8
_0-a_極細3
  6
CONTINUOUS
 62
    7
 10
236.40882398127388
 20
207.79801954732511
 11
236.40882398127388
 21
163.71245819900921
  0
LINE
  8
_0-a_極細3
  6
CENTER1
 62
    7
 10
243.90882398127388
 20
155.43571791455634
 11
243.90882398127388
 21
212.07373971193465
  0
LINE
  8
_0-d_寸法3
  6
CONTINUOUS
 62
    7
 10
266.40882398127405
 20
238.71245819900929
 11
220.45879290268459
 21
238.71245819900929
  0
LINE
  8
_0-d_寸法3
  6
CONTINUOUS
 62
    7
 10
225.45879290268459
 20
238.71245819900923
 11
228.04698335370972
 21
229.05319993611855
  0
LINE
  8
_0-d_寸法3
  6
CONTINUOUS
 62
    7
 10
225.45879290268459
 20
238.71245819900923
 11
222.87060245165932
 21
229.05319993611857
  0
LINE
  8
_0-d_寸法3
  6
CONTINUOUS
 62
    7
 10
264.40882398127405
 20
200.37912486567578
 11
220.45879290268473
 21
200.37912486567578
  0
LINE
  8
_0-d_寸法3
  6
CONTINUOUS
 62
    7
 10
225.45879290268473
 20
200.37912486567578
 11
222.87060245165952
 21
210.03838312856644
  0
LINE
  8
_0-d_寸法3
  6
CONTINUOUS
 62
    7
 10
225.45879290268473
 20
200.37912486567578
 11
228.04698335371
 21
210.03838312856644
  0
LINE
  8
_0-d_寸法3
  6
CONTINUOUS
 62
    7
 10
225.45879290268459
 20
238.71245819900923
 11
225.45879290268473
 21
200.37912486567578
  0
TEXT
  8
_0-d_寸法3
 62
    7
 10
225.45879290268459
 20
212.04579153234226
 40
15
 41
1
 50
90
  1
23
  0
LINE
  8
_0-d_寸法3
  6
CONTINUOUS
 62
    7
 10
276.40882398127371
 20
190.3791248656762
 11
276.4088239812736
 21
173.23443296477038
  0
LINE
  8
_0-d_寸法3
  6
CONTINUOUS
 62
    7
 10
276.4088239812736
 20
178.23443296477038
 11
286.06808224416426
 21
180.82262341579559
  0
LINE
  8
_0-d_寸法3
  6
CONTINUOUS
 62
    7
 10
276.4088239812736
 20
178.23443296477038
 11
286.06808224416426
 21
175.64624251374511
  0
LINE
  8
_0-d_寸法3
  6
CONTINUOUS
 62
    7
 10
326.40882398127371
 20
228.71245819900923
 11
326.40882398127309
 21
173.23443296477038
  0
LINE
  8
_0-d_寸法3
  6
CONTINUOUS
 62
    7
 10
326.40882398127314
 20
178.23443296477038
 11
316.74956571838243
 21
175.64624251374516
  0
LINE
  8
_0-d_寸法3
  6
CONTINUOUS
 62
    7
 10
326.40882398127314
 20
178.23443296477038
 11
316.74956571838254
 21
180.82262341579565
  0
LINE
  8
_0-d_寸法3
  6
CONTINUOUS
 62
    7
 10
276.4088239812736
 20
178.23443296477038
 11
326.40882398127314
 21
178.23443296477038
  0
TEXT
  8
_0-d_寸法3
 62
    7
 10
293.90882398127337
 20
178.23443296477038
 40
15
 41
1
 50
0
  1
30
  0
LINE
  8
_0-d_寸法3
  6
CONTINUOUS
 62
    7
 10
266.40882398127388
 20
285.37912486567586
 11
220.45879290268459
 21
285.37912486567626
  0
LINE
  8
_0-d_寸法3
  6
CONTINUOUS
 62
    7
 10
225.45879290268459
 20
285.3791248656762
 11
228.04698335370972
 21
275.71986660278554
  0
LINE
  8
_0-d_寸法3
  6
CONTINUOUS
 62
    7
 10
225.45879290268459
 20
285.3791248656762
 11
222.87060245165932
 21
275.71986660278554
  0
LINE
  8
_0-d_寸法3
  6
CONTINUOUS
 62
    7
 10
264.40882398127383
 20
238.71245819900929
 11
220.45879290268459
 21
238.71245819900929
  0
LINE
  8
_0-d_寸法3
  6
CONTINUOUS
 62
    7
 10
225.45879290268459
 20
238.71245819900923
 11
222.87060245165932
 21
248.37171646189995
  0
LINE
  8
_0-d_寸法3
  6
CONTINUOUS
 62
    7
 10
225.45879290268459
 20
238.71245819900923
 11
228.04698335370972
 21
248.37171646189995
  0
LINE
  8
_0-d_寸法3
  6
CONTINUOUS
 62
    7
 10
225.45879290268459
 20
285.3791248656762
 11
225.45879290268459
 21
238.71245819900923
  0
TEXT
  8
_0-d_寸法3
 62
    7
 10
225.45879290268459
 20
254.54579153234275
 40
15
 41
1
 50
90
  1
28
  0
LINE
  8
_0-a_極細3
  6
CONTINUOUS
 62
    7
 10
753.3822255350924
 20
188.59415936151251
 11
758.51252768497761
 21
202.68954867330152
  0
LINE
  8
_0-a_極細3
  6
CONTINUOUS
 62
    7
 10
703.38818286129617
 20
222.75316937254775
 11
698.25788071141142
 21
208.65778006075882
  0
LINE
  8
_0-a_極細3
  6
CONTINUOUS
 62
    7
 10
758.51252768497761
 20
202.68954867330152
 11
703.38818286129617
 21
222.75316937254775
  0
LINE
  8
_0-a_極細3
  6
CONTINUOUS
 62
    7
 10
753.3822255350924
 20
188.59415936151251
 11
698.25788071141142
 21
208.65778006075882
  0
LINE
  8
_0-a_極細3
  6
CENTER1
 62
    7
 10
760.90281000202776
 20
193.83822397737731
 11
696.87178951946225
 21
217.14360946241231
  0
LINE
  8
_0-a_極細3
  6
CONTINUOUS
 62
    7
 10
734.7421573146072
 20
163.71245819900921
 11
734.7421573146072
 21
207.79801954732511
  0
LINE
  8
_0-a_極細3
  6
CONTINUOUS
 62
    7
 10
749.7421573146072
 20
207.79801954732511
 11
749.7421573146072
 21
163.71245819900921
  0
LINE
  8
_0-a_極細3
  6
CENTER1
 62
    7
 10
742.2421573146072
 20
155.43571791455634
 11
742.2421573146072
 21
212.07373971193465
  0
LINE
  8
_0-d_寸法3
  6
CONTINUOUS
 62
    7
 10
709.74215731460754
 20
190.3791248656762
 11
709.74215731460754
 21
173.23443296477038
  0
LINE
  8
_0-d_寸法3
  6
CONTINUOUS
 62
    7
 10
709.74215731460754
 20
178.23443296477038
 11
700.08289905171682
 21
175.64624251374511
  0
LINE
  8
_0-d_寸法3
  6
CONTINUOUS
 62
    7
 10
709.74215731460754
 20
178.23443296477038
 11
700.08289905171682
 21
180.82262341579559
  0
LINE
  8
_0-d_寸法3
  6
CONTINUOUS
 62
    7
 10
659.74215731460754
 20
228.71245819900923
 11
659.74215731460754
 21
173.23443296477038
  0
LINE
  8
_0-d_寸法3
  6
CONTINUOUS
 62
    7
 10
659.74215731460754
 20
178.23443296477038
 11
669.40141557749826
 21
180.82262341579565
  0
LINE
  8
_0-d_寸法3
  6
CONTINUOUS
 62
    7
 10
659.74215731460754
 20
178.23443296477038
 11
669.40141557749826
 21
175.64624251374516
  0
LINE
  8
_0-d_寸法3
  6
CONTINUOUS
 62
    7
 10
709.74215731460754
 20
178.23443296477038
 11
659.74215731460754
 21
178.23443296477038
  0
TEXT
  8
_0-d_寸法3
 62
    7
 10
677.24215731460754
 20
178.23443296477038
 40
15
 41
1
 50
0
  1
30
  0
LINE
  8
_0-a_極細3
  6
CONTINUOUS
 62
    7
 10
734.7421573146072
 20
207.79801954732511
 11
749.7421573146072
 21
207.79801954732511
  0
CIRCLE
  8
_0-a_極細3
  6
CONTINUOUS
 62
    7
 10
756.43313751882988
 20
209.98037478850893
 40
0.5530864197530718
  0
CIRCLE
  8
_0-a_極細3
  6
CONTINUOUS
 62
    7
 10
736.83313751883009
 20
215.58037478850883
 40
0.5530864197530718
  0
TEXT
  8
_0-7_枠細線
 62
    5
 10
965.50000000000011
 20
70
 40
20
 41
0.5999999999999998
 50
0
  1
色については品番表参照のこと
  0
TEXT
  8
_0-7_枠細線
 62
    5
 10
443.15344300870657
 20
93.712093197330901
 40
25
 41
0.8
 50
0
  1
断面詳細図
  0
TEXT
  8
_0-7_枠細線
 62
    5
 10
558.10241275787462
 20
93.712093197330901
 40
20
 41
0.6
 50
0
  1
Ｓ＝１：３
  0
TEXT
  8
_0-7_枠細線
 62
    5
 10
1310
 20
67.5
 40
15
 41
0.6666666666666666
 50
0
  1
２００９年０１月３０日
  0
TEXT
  8
_0-7_枠細線
 62
    5
 10
965.50000000000011
 20
110
 40
20
 41
0.6
 50
0
  1
ＧＲＳ－２５Ｗ２５０　ＳＥＴ
  0
LINE
  8
_0-7_枠細線
  6
CONTINUOUS
 62
    5
 10
1225.0000000000014
 20
794.95837512859055
 11
1225.0000000000014
 21
719.95837512859043
  0
TEXT
  8
_0-7_枠細線
 62
    5
 10
1174.0000000000027
 20
749.95837512859043
 40
15
 41
0.5999999999999999
 50
0
  1
９９９
  0
TEXT
  8
_0-7_枠細線
 62
    5
 10
1181.5000000000027
 20
774.95837512859055
 40
15
 41
0.8000000000000001
 50
0
  1
Ｌ
  0
LINE
  8
_0-7_枠細線
  6
CONTINUOUS
 62
    5
 10
1150.0000000000014
 20
794.95837512859055
 11
1150.0000000000014
 21
719.95837512859043
  0
TEXT
  8
_0-7_枠細線
 62
    5
 10
1094.5000000000014
 20
774.95837512859055
 40
15
 41
0.8000000000000001
 50
0
  1
種　別
  0
TEXT
  8
_0-7_枠細線
 62
    5
 10
1094.5000000000009
 20
749.95837512859043
 40
15
 41
0.8000000000000001
 50
0
  1
定尺品
  0
TEXT
  8
_0-7_枠細線
 62
    5
 10
1094.5000000000009
 20
724.95837512859043
 40
15
 41
0.8000000000000001
 50
0
  1
特寸品
  0
LINE
  8
_0-7_枠細線
  6
CONTINUOUS
 62
    5
 10
1075
 20
794.95837512859055
 11
1075
 21
719.95837512859043
  0
LINE
  8
_0-7_枠細線
  6
CONTINUOUS
 62
    5
 10
1300.000000000002
 20
794.95837512859055
 11
1300.000000000002
 21
719.95837512859043
  0
TEXT
  8
_0-7_枠細線
 62
    5
 10
1256.5000000000027
 20
774.95837512859055
 40
15
 41
0.8000000000000001
 50
0
  1
Ａ
  0
TEXT
  8
_0-7_枠細線
 62
    5
 10
1244.5000000000018
 20
749.95837512859043
 40
15
 41
0.5999999999999999
 50
0
  1
１４．５
  0
TEXT
  8
_0-7_枠細線
 62
    5
 10
1151.5000000000018
 20
724.95837512859043
 40
15
 41
0.5999999999999999
 50
0
  1
３０５～１３０５
  0
LINE
  8
_0-7_枠細線
  6
CONTINUOUS
 62
    5
 10
1375.0000000000023
 20
794.95837512859055
 11
1375.0000000000023
 21
719.95837512859043
  0
LINE
  8
_0-7_枠細線
  6
CONTINUOUS
 62
    5
 10
1075
 20
794.95837512859055
 11
1375.0000000000023
 21
794.95837512859055
  0
LINE
  8
_0-7_枠細線
  6
CONTINUOUS
 62
    5
 10
1075
 20
769.95837512859055
 11
1375.0000000000023
 21
769.95837512859055
  0
LINE
  8
_0-7_枠細線
  6
CONTINUOUS
 62
    5
 10
1075
 20
744.95837512859043
 11
1375.0000000000023
 21
744.95837512859043
  0
LINE
  8
_0-7_枠細線
  6
CONTINUOUS
 62
    5
 10
1075
 20
719.95837512859043
 11
1375.0000000000023
 21
719.95837512859043
  0
TEXT
  8
_0-7_枠細線
 62
    5
 10
1331.5000000000023
 20
774.95837512859055
 40
15
 41
0.8000000000000001
 50
0
  1
Ｂ
  0
TEXT
  8
_0-7_枠細線
 62
    5
 10
1328.5000000000023
 20
749.95837512859043
 40
15
 41
0.5999999999999999
 50
0
  1
９７
  0
TEXT
  8
_0-7_枠細線
 62
    5
 10
1163.0053911613957
 20
799.95837512859055
 40
17.5
 41
1
 50
0
  1
寸法表
  0
TEXT
  8
_0-7_枠細線
 62
    5
 10
1244.5000000000018
 20
724.95837512859043
 40
15
 41
0.5999999999999999
 50
0
  1
７～２０
  0
TEXT
  8
_0-7_枠細線
 62
    5
 10
1077.04820616962
 20
699.23280458415547
 40
15
 41
0.8000000000000001
 50
0
  1
※ 特寸品はAが20以下となるようBにて調整
  0
LINE
  8
_0-0_計極細
  6
CONTINUOUS
 62
    2
 10
598.56549111290678
 20
634.300000000002
 11
598.56549111290678
 21
639.90000000000191
  0
LINE
  8
_0-0_計極細
  6
CONTINUOUS
 62
    2
 10
611.56549111290701
 20
634.300000000002
 11
611.56549111290701
 21
639.90000000000191
  0
LINE
  8
_0-0_計極細
  6
CONTINUOUS
 62
    2
 10
598.56549111290678
 20
656.89999999999827
 11
598.56549111290678
 21
651.29999999999791
  0
LINE
  8
_0-0_計極細
  6
CONTINUOUS
 62
    2
 10
611.56549111290701
 20
656.89999999999827
 11
611.56549111290701
 21
651.29999999999791
  0
LINE
  8
_0-0_計極細
  6
CONTINUOUS
 62
    2
 10
598.56549111290678
 20
673.89999999999918
 11
598.56549111290678
 21
668.29999999999882
  0
LINE
  8
_0-0_計極細
  6
CONTINUOUS
 62
    2
 10
611.56549111290701
 20
673.89999999999918
 11
611.56549111290701
 21
668.29999999999882
  0
LINE
  8
_0-0_計極細
  6
CONTINUOUS
 62
    2
 10
598.56549111290678
 20
690.89999999999964
 11
598.56549111290678
 21
685.29999999999973
  0
LINE
  8
_0-0_計極細
  6
CONTINUOUS
 62
    2
 10
611.56549111290701
 20
690.89999999999964
 11
611.56549111290701
 21
685.29999999999973
  0
LINE
  8
_0-0_計極細
  6
CONTINUOUS
 62
    2
 10
598.56549111290678
 20
776.20000000000027
 11
598.56549111290678
 21
770.3000000000003
  0
LINE
  8
_0-0_計極細
  6
CONTINUOUS
 62
    2
 10
611.56549111290701
 20
776.20000000000027
 11
611.56549111290701
 21
770.3000000000003
  0
LINE
  8
_0-0_計極細
  6
CONTINUOUS
 62
    2
 10
598.56549111290678
 20
549.00000000000136
 11
598.56549111290678
 21
554.90000000000146
  0
LINE
  8
_0-0_計極細
  6
CONTINUOUS
 62
    2
 10
611.56549111290701
 20
549.00000000000136
 11
611.56549111290701
 21
554.90000000000146
  0
LINE
  8
_0-0_計極細
  6
CENTER1
 62
    2
 10
605.06549111290701
 20
796.35071942446302
 11
605.06549111290701
 21
529.84217625898873
  0
LINE
  8
_0-0_計極細
  6
CONTINUOUS
 62
    2
 10
598.56549111290678
 20
707.90000000000009
 11
598.56549111290678
 21
702.30000000000018
  0
LINE
  8
_0-0_計極細
  6
CONTINUOUS
 62
    2
 10
611.56549111290701
 20
707.90000000000009
 11
611.56549111290701
 21
702.30000000000018
  0
LINE
  8
_0-0_計極細
  6
CONTINUOUS
 62
    2
 10
598.56549111290678
 20
724.90000000000111
 11
598.56549111290678
 21
719.30000000000064
  0
LINE
  8
_0-0_計極細
  6
CONTINUOUS
 62
    2
 10
611.56549111290701
 20
724.90000000000111
 11
611.56549111290701
 21
719.30000000000064
  0
LINE
  8
_0-0_計極細
  6
CONTINUOUS
 62
    2
 10
598.56549111290678
 20
741.90000000000191
 11
598.56549111290678
 21
736.30000000000155
  0
LINE
  8
_0-0_計極細
  6
CONTINUOUS
 62
    2
 10
611.56549111290701
 20
741.90000000000191
 11
611.56549111290701
 21
736.30000000000155
  0
LINE
  8
_0-0_計極細
  6
CONTINUOUS
 62
    2
 10
598.56549111290678
 20
758.90000000000236
 11
598.56549111290678
 21
753.30000000000257
  0
LINE
  8
_0-0_計極細
  6
CONTINUOUS
 62
    2
 10
611.56549111290701
 20
758.90000000000236
 11
611.56549111290701
 21
753.30000000000257
  0
LINE
  8
_0-0_計極細
  6
CONTINUOUS
 62
    2
 10
598.56549111290678
 20
617.30000000000155
 11
598.56549111290678
 21
622.90000000000146
  0
LINE
  8
_0-0_計極細
  6
CONTINUOUS
 62
    2
 10
611.56549111290701
 20
617.30000000000155
 11
611.56549111290701
 21
622.90000000000146
  0
LINE
  8
_0-0_計極細
  6
CONTINUOUS
 62
    2
 10
598.56549111290678
 20
600.30000000000064
 11
598.56549111290678
 21
605.900000000001
  0
LINE
  8
_0-0_計極細
  6
CONTINUOUS
 62
    2
 10
611.56549111290701
 20
600.30000000000064
 11
611.56549111290701
 21
605.900000000001
  0
LINE
  8
_0-0_計極細
  6
CONTINUOUS
 62
    2
 10
598.56549111290678
 20
583.29999999999973
 11
598.56549111290678
 21
588.90000000000009
  0
LINE
  8
_0-0_計極細
  6
CONTINUOUS
 62
    2
 10
611.56549111290701
 20
583.29999999999973
 11
611.56549111290701
 21
588.90000000000009
  0
LINE
  8
_0-0_計極細
  6
CONTINUOUS
 62
    2
 10
598.56549111290678
 20
566.29999999999927
 11
598.56549111290678
 21
571.89999999999918
  0
LINE
  8
_0-0_計極細
  6
CONTINUOUS
 62
    2
 10
611.56549111290701
 20
566.29999999999927
 11
611.56549111290701
 21
571.89999999999918
  0
LINE
  8
_0-0_計極細
  6
CONTINUOUS
 62
    2
 10
530.5654911129069
 20
634.300000000002
 11
530.5654911129069
 21
639.90000000000191
  0
LINE
  8
_0-0_計極細
  6
CONTINUOUS
 62
    2
 10
543.56549111290724
 20
634.300000000002
 11
543.56549111290724
 21
639.90000000000191
  0
LINE
  8
_0-0_計極細
  6
CONTINUOUS
 62
    2
 10
530.5654911129069
 20
656.89999999999827
 11
530.5654911129069
 21
651.29999999999791
  0
LINE
  8
_0-0_計極細
  6
CONTINUOUS
 62
    2
 10
543.56549111290724
 20
656.89999999999827
 11
543.56549111290724
 21
651.29999999999791
  0
LINE
  8
_0-0_計極細
  6
CONTINUOUS
 62
    2
 10
530.5654911129069
 20
673.89999999999918
 11
530.5654911129069
 21
668.29999999999882
  0
LINE
  8
_0-0_計極細
  6
CONTINUOUS
 62
    2
 10
543.56549111290724
 20
673.89999999999918
 11
543.56549111290724
 21
668.29999999999882
  0
LINE
  8
_0-0_計極細
  6
CONTINUOUS
 62
    2
 10
530.5654911129069
 20
690.89999999999964
 11
530.5654911129069
 21
685.29999999999973
  0
LINE
  8
_0-0_計極細
  6
CONTINUOUS
 62
    2
 10
543.56549111290724
 20
690.89999999999964
 11
543.56549111290724
 21
685.29999999999973
  0
LINE
  8
_0-0_計極細
  6
CONTINUOUS
 62
    2
 10
530.5654911129069
 20
776.20000000000027
 11
530.5654911129069
 21
770.3000000000003
  0
LINE
  8
_0-0_計極細
  6
CONTINUOUS
 62
    2
 10
543.56549111290724
 20
776.20000000000027
 11
543.56549111290724
 21
770.3000000000003
  0
LINE
  8
_0-0_計極細
  6
CONTINUOUS
 62
    2
 10
530.5654911129069
 20
549.00000000000136
 11
530.5654911129069
 21
554.90000000000146
  0
LINE
  8
_0-0_計極細
  6
CONTINUOUS
 62
    2
 10
543.56549111290724
 20
549.00000000000136
 11
543.56549111290724
 21
554.90000000000146
  0
LINE
  8
_0-0_計極細
  6
CENTER1
 62
    2
 10
537.06549111290713
 20
796.35071942446302
 11
537.06549111290713
 21
529.84217625898873
  0
LINE
  8
_0-0_計極細
  6
CONTINUOUS
 62
    2
 10
530.5654911129069
 20
707.90000000000009
 11
530.5654911129069
 21
702.30000000000018
  0
LINE
  8
_0-0_計極細
  6
CONTINUOUS
 62
    2
 10
543.56549111290724
 20
707.90000000000009
 11
543.56549111290724
 21
702.30000000000018
  0
LINE
  8
_0-0_計極細
  6
CONTINUOUS
 62
    2
 10
530.5654911129069
 20
724.90000000000111
 11
530.5654911129069
 21
719.30000000000064
  0
LINE
  8
_0-0_計極細
  6
CONTINUOUS
 62
    2
 10
543.56549111290724
 20
724.90000000000111
 11
543.56549111290724
 21
719.30000000000064
  0
LINE
  8
_0-0_計極細
  6
CONTINUOUS
 62
    2
 10
530.5654911129069
 20
741.90000000000191
 11
530.5654911129069
 21
736.30000000000155
  0
LINE
  8
_0-0_計極細
  6
CONTINUOUS
 62
    2
 10
543.56549111290724
 20
741.90000000000191
 11
543.56549111290724
 21
736.30000000000155
  0
LINE
  8
_0-0_計極細
  6
CONTINUOUS
 62
    2
 10
530.5654911129069
 20
758.90000000000236
 11
530.5654911129069
 21
753.30000000000257
  0
LINE
  8
_0-0_計極細
  6
CONTINUOUS
 62
    2
 10
543.56549111290724
 20
758.90000000000236
 11
543.56549111290724
 21
753.30000000000257
  0
LINE
  8
_0-0_計極細
  6
CONTINUOUS
 62
    2
 10
530.5654911129069
 20
617.30000000000155
 11
530.5654911129069
 21
622.90000000000146
  0
LINE
  8
_0-0_計極細
  6
CONTINUOUS
 62
    2
 10
543.56549111290724
 20
617.30000000000155
 11
543.56549111290724
 21
622.90000000000146
  0
LINE
  8
_0-0_計極細
  6
CONTINUOUS
 62
    2
 10
530.5654911129069
 20
600.30000000000064
 11
530.5654911129069
 21
605.900000000001
  0
LINE
  8
_0-0_計極細
  6
CONTINUOUS
 62
    2
 10
543.56549111290724
 20
600.30000000000064
 11
543.56549111290724
 21
605.900000000001
  0
LINE
  8
_0-0_計極細
  6
CONTINUOUS
 62
    2
 10
530.5654911129069
 20
583.29999999999973
 11
530.5654911129069
 21
588.90000000000009
  0
LINE
  8
_0-0_計極細
  6
CONTINUOUS
 62
    2
 10
543.56549111290724
 20
583.29999999999973
 11
543.56549111290724
 21
588.90000000000009
  0
LINE
  8
_0-0_計極細
  6
CONTINUOUS
 62
    2
 10
530.5654911129069
 20
566.29999999999927
 11
530.5654911129069
 21
571.89999999999918
  0
LINE
  8
_0-0_計極細
  6
CONTINUOUS
 62
    2
 10
543.56549111290724
 20
566.29999999999927
 11
543.56549111290724
 21
571.89999999999918
  0
TEXT
  8
_0-7_枠細線
 62
    5
 10
1315.0000000000023
 20
724.95837512859043
 40
15
 41
0.5999999999999999
 50
0
  1
２７～９７
  0
LINE
  8
_0-a_極細3
  6
CENTER1
 62
    7
 10
707.8624319433344
 20
266.71245819900906
 11
274.75483153673309
 21
266.71245819900906
  0
LINE
  8
_0-b_細線3
  6
CONTINUOUS
 62
    7
 10
552.57549065006606
 20
255.87912486567561
 11
575.24215731673303
 21
255.87912486567561
  0
LINE
  8
_0-b_細線3
  6
CONTINUOUS
 62
    7
 10
524.24215731612958
 20
255.87912486567561
 11
546.90882398279632
 21
255.87912486567561
  0
LINE
  8
_0-b_細線3
  6
CONTINUOUS
 62
    7
 10
467.57549064825707
 20
255.87912486567561
 11
490.24215731492359
 21
255.87912486567561
  0
LINE
  8
_0-b_細線3
  6
CONTINUOUS
 62
    7
 10
439.24215731432105
 20
255.87912486567561
 11
461.90882398098756
 21
255.87912486567561
  0
LINE
  8
_0-b_細線3
  6
CONTINUOUS
 62
    7
 10
410.90882398038417
 20
255.87912486567561
 11
433.57549064705108
 21
255.87912486567561
  0
LINE
  8
_0-b_細線3
  6
CONTINUOUS
 62
    7
 10
580.90882398400254
 20
255.87912486567561
 11
603.57549065066905
 21
255.87912486567561
  0
LINE
  8
_0-b_細線3
  6
CONTINUOUS
 62
    7
 10
609.24215731793902
 20
255.87912486567561
 11
631.90882398460553
 21
255.87912486567561
  0
LINE
  8
_0-b_細線3
  6
CONTINUOUS
 62
    7
 10
637.57549065187504
 20
255.87912486567561
 11
660.24215731854201
 21
255.87912486567561
  0
LINE
  8
_0-b_細線3
  6
CONTINUOUS
 62
    7
 10
382.57549064613136
 20
255.87912486567561
 11
405.24215731279838
 21
255.87912486567561
  0
LINE
  8
_0-b_細線3
  6
CONTINUOUS
 62
    7
 10
354.24215731187866
 20
255.87912486567561
 11
376.90882397854557
 21
255.87912486567561
  0
LINE
  8
_0-b_細線3
  6
CONTINUOUS
 62
    7
 10
325.90882397762584
 20
255.87912486567561
 11
348.57549064429287
 21
255.87912486567561
  0
LINE
  8
_0-b_細線3
  6
CONTINUOUS
 62
    7
 10
297.07549064305636
 20
255.87912486567561
 11
320.24215730972338
 21
255.87912486567561
  0
LINE
  8
_0-b_細線3
  6
CONTINUOUS
 62
    7
 10
665.90882398581152
 20
255.87912486567561
 11
689.07549065247849
 21
255.87912486567561
  0
LINE
  8
_0-b_細線3
  6
CONTINUOUS
 62
    7
 10
552.57549065006606
 20
277.54579153234209
 11
575.24215731673303
 21
277.54579153234209
  0
LINE
  8
_0-b_細線3
  6
CONTINUOUS
 62
    7
 10
524.24215731612958
 20
277.54579153234209
 11
546.90882398279632
 21
277.54579153234209
  0
LINE
  8
_0-b_細線3
  6
CONTINUOUS
 62
    7
 10
467.57549064825707
 20
277.54579153234209
 11
490.24215731492359
 21
277.54579153234209
  0
LINE
  8
_0-b_細線3
  6
CONTINUOUS
 62
    7
 10
439.24215731432105
 20
277.54579153234209
 11
461.90882398098756
 21
277.54579153234209
  0
LINE
  8
_0-b_細線3
  6
CONTINUOUS
 62
    7
 10
410.90882398038417
 20
277.54579153234209
 11
433.57549064705108
 21
277.54579153234209
  0
LINE
  8
_0-b_細線3
  6
CONTINUOUS
 62
    7
 10
580.90882398400254
 20
277.54579153234209
 11
603.57549065066905
 21
277.54579153234209
  0
LINE
  8
_0-b_細線3
  6
CONTINUOUS
 62
    7
 10
609.24215731793902
 20
277.54579153234209
 11
631.90882398460553
 21
277.54579153234209
  0
LINE
  8
_0-b_細線3
  6
CONTINUOUS
 62
    7
 10
637.57549065187504
 20
277.54579153234209
 11
660.24215731854201
 21
277.54579153234209
  0
LINE
  8
_0-b_細線3
  6
CONTINUOUS
 62
    7
 10
382.57549064613136
 20
277.54579153234209
 11
405.24215731279838
 21
277.54579153234209
  0
LINE
  8
_0-b_細線3
  6
CONTINUOUS
 62
    7
 10
354.24215731187866
 20
277.54579153234209
 11
376.90882397854557
 21
277.54579153234209
  0
LINE
  8
_0-b_細線3
  6
CONTINUOUS
 62
    7
 10
325.90882397762584
 20
277.54579153234209
 11
348.57549064429287
 21
277.54579153234209
  0
LINE
  8
_0-b_細線3
  6
CONTINUOUS
 62
    7
 10
297.07549064305636
 20
277.54579153234209
 11
320.24215730972338
 21
277.54579153234209
  0
LINE
  8
_0-b_細線3
  6
CONTINUOUS
 62
    7
 10
665.90882398581152
 20
277.54579153234209
 11
689.07549065247849
 21
277.54579153234209
  0
ARC
  8
_0-b_細線3
  6
CONTINUOUS
 62
    7
 10
289.24757731127499
 20
256.21245819900946
 40
0.3333333333333334
 50
179.99999999999983
 51
269.99999999999977
  0
LINE
  8
_0-b_細線3
  6
CONTINUOUS
 62
    7
 10
291.40882397794201
 20
255.87912486567603
 11
289.24757731127499
 21
255.87912486567603
  0
ARC
  8
_0-b_細線3
  6
CONTINUOUS
 62
    7
 10
289.24757731127499
 20
277.21245819900906
 40
0.3333333333333334
 50
89.999999999999915
 51
179.99999999999983
  0
LINE
  8
_0-b_細線3
  6
CONTINUOUS
 62
    7
 10
291.40882397794201
 20
277.54579153234306
 11
289.24757731127499
 21
277.54579153234306
  0
LINE
  8
_0-b_細線3
  6
CONTINUOUS
 62
    7
 10
288.91424397794128
 20
265.87912486567603
 11
288.91424397794128
 21
256.21245819900946
  0
LINE
  8
_0-b_細線3
  6
CONTINUOUS
 62
    7
 10
288.91424397794128
 20
277.21245819900906
 11
288.91424397794128
 21
265.87912486567603
  0
LINE
  8
_0-b_細線3
  6
CONTINUOUS
 62
    7
 10
288.91424397794128
 20
266.71245819900906
 11
283.90671731127452
 21
266.71245819900906
  0
LINE
  8
_0-b_細線3
  6
CONTINUOUS
 62
    7
 10
288.91424397794128
 20
260.87912486567649
 11
283.90669731127548
 21
260.87912486567649
  0
ARC
  8
_0-b_細線3
  6
CONTINUOUS
 62
    7
 10
283.90669731127548
 20
261.21245819900952
 40
0.3333333333333334
 50
179.99999999999983
 51
269.99999999999977
  0
ARC
  8
_0-b_細線3
  6
CONTINUOUS
 62
    7
 10
296.50333064460813
 20
263.79554819901006
 40
12.929926666666667
 50
166.96197800000505
 51
193.03566999999961
  0
ARC
  8
_0-b_細線3
  6
CONTINUOUS
 62
    7
 10
283.90669731127548
 20
272.21245819901003
 40
0.3333333333333334
 50
89.999999999999915
 51
179.99999999999983
  0
ARC
  8
_0-b_細線3
  6
CONTINUOUS
 62
    7
 10
296.50333064460813
 20
269.62936486567588
 40
12.929926666666667
 50
166.96433000000002
 51
193.03802199999851
  0
LINE
  8
_0-b_細線3
  6
CONTINUOUS
 62
    7
 10
288.91424397794128
 20
272.54579153234306
 11
283.90669731127548
 21
272.54579153234306
  0
LINE
  8
_0-b_細線3
  6
CONTINUOUS
 62
    7
 10
283.57336397794154
 20
261.21245819900952
 11
283.57336397794154
 21
272.21245819901003
  0
ARC
  8
_0-b_細線3
  6
CONTINUOUS
 62
    7
 10
696.90340398460626
 20
256.21245819900946
 40
0.3333333333333334
 50
269.99999999999977
 51
359.99999999999966
  0
LINE
  8
_0-b_細線3
  6
CONTINUOUS
 62
    7
 10
694.74215731793925
 20
255.87912486567603
 11
696.90340398460626
 21
255.87912486567603
  0
ARC
  8
_0-b_細線3
  6
CONTINUOUS
 62
    7
 10
696.90340398460626
 20
277.21245819900906
 40
0.3333333333333334
 50
0
 51
89.999999999999915
  0
LINE
  8
_0-b_細線3
  6
CONTINUOUS
 62
    7
 10
694.74215731793925
 20
277.54579153234306
 11
696.90340398460626
 21
277.54579153234306
  0
LINE
  8
_0-b_細線3
  6
CONTINUOUS
 62
    7
 10
697.23673731793997
 20
265.87912486567603
 11
697.23673731793997
 21
256.21245819900946
  0
LINE
  8
_0-b_細線3
  6
CONTINUOUS
 62
    7
 10
697.23673731793997
 20
277.21245819900906
 11
697.23673731793997
 21
265.87912486567603
  0
LINE
  8
_0-b_細線3
  6
CONTINUOUS
 62
    7
 10
697.23673731793997
 20
266.71245819900906
 11
702.24426398460662
 21
266.71245819900906
  0
LINE
  8
_0-b_細線3
  6
CONTINUOUS
 62
    7
 10
697.23673731793997
 20
260.87912486567649
 11
702.24428398460577
 21
260.87912486567649
  0
ARC
  8
_0-b_細線3
  6
CONTINUOUS
 62
    7
 10
702.24428398460577
 20
261.21245819900952
 40
0.3333333333333334
 50
269.99999999999977
 51
359.99999999999966
  0
ARC
  8
_0-b_細線3
  6
CONTINUOUS
 62
    7
 10
689.64765065127312
 20
263.79554819901006
 40
12.929926666666667
 50
346.96432999999968
 51
13.038021999994573
  0
ARC
  8
_0-b_細線3
  6
CONTINUOUS
 62
    7
 10
702.24428398460577
 20
272.21245819901003
 40
0.3333333333333334
 50
0
 51
89.999999999999915
  0
ARC
  8
_0-b_細線3
  6
CONTINUOUS
 62
    7
 10
689.64765065127312
 20
269.62936486567588
 40
12.929926666666667
 50
346.96197800000073
 51
13.035669999999625
  0
LINE
  8
_0-b_細線3
  6
CONTINUOUS
 62
    7
 10
697.23673731793997
 20
272.54579153234306
 11
702.24428398460577
 21
272.54579153234306
  0
LINE
  8
_0-b_細線3
  6
CONTINUOUS
 62
    7
 10
702.5776173179396
 20
261.21245819900952
 11
702.5776173179396
 21
272.21245819901003
  0
LINE
  8
_0-7_枠細線
  6
CONTINUOUS
 62
    5
 10
1075
 20
480.00000000000028
 11
1075
 21
560.00000000000023
  0
TEXT
  8
_0-7_枠細線
 62
    5
 10
1097.5
 20
537.50000000000023
 40
15
 41
1
 50
0
  1
耐荷重
  0
TEXT
  8
_0-7_枠細線
 62
    5
 10
1090
 20
507.50000000000028
 40
15
 41
1
 50
0
  1
3.5kN/㎡
  0
TEXT
  8
_0-7_枠細線
 62
    5
 10
1082.5
 20
487.50000000000028
 40
15
 41
1
 50
0
  1
（歩道用）
  0
LINE
  8
_0-7_枠細線
  6
CONTINUOUS
 62
    5
 10
1165
 20
480.00000000000028
 11
1165
 21
560.00000000000023
  0
TEXT
  8
_0-7_枠細線
 62
    5
 10
1187.5
 20
537.50000000000023
 40
15
 41
1
 50
0
  1
蓋重量
  0
LINE
  8
_0-7_枠細線
  6
CONTINUOUS
 62
    5
 10
1255
 20
480.00000000000028
 11
1255
 21
560.00000000000023
  0
TEXT
  8
_0-7_枠細線
 62
    5
 10
1277.5
 20
537.50000000000023
 40
15
 41
1
 50
0
  1
枠重量
  0
LINE
  8
_0-7_枠細線
  6
CONTINUOUS
 62
    5
 10
1075
 20
530.00000000000023
 11
1345
 21
530.00000000000023
  0
LINE
  8
_0-7_枠細線
  6
CONTINUOUS
 62
    5
 10
1075
 20
560.00000000000023
 11
1345
 21
560.00000000000023
  0
LINE
  8
_0-7_枠細線
  6
CONTINUOUS
 62
    5
 10
1075
 20
480.00000000000028
 11
1345
 21
480.00000000000028
  0
LINE
  8
_0-7_枠細線
  6
CONTINUOUS
 62
    5
 10
1345
 20
480.00000000000028
 11
1345
 21
560.00000000000023
  0
TEXT
  8
_0-7_枠細線
 62
    5
 10
1270
 20
498.75000000000028
 40
15
 41
0.8000000000000001
 50
0
  1
2.6kg/ｍ組
  0
LINE
  8
_0-7_枠細線
  6
CONTINUOUS
 62
    5
 10
1074.9999999999998
 20
300.00000000000034
 11
1375
 21
300.00000000000034
  0
LINE
  8
_0-7_枠細線
  6
CONTINUOUS
 62
    5
 10
1074.9999999999998
 20
325.00000000000034
 11
1375
 21
325.00000000000034
  0
LINE
  8
_0-7_枠細線
  6
CONTINUOUS
 62
    5
 10
1074.9999999999998
 20
350.00000000000034
 11
1375
 21
350.00000000000034
  0
LINE
  8
_0-7_枠細線
  6
CONTINUOUS
 62
    5
 10
1074.9999999999998
 20
375.00000000000051
 11
1375
 21
375.00000000000051
  0
TEXT
  8
_0-7_枠細線
 62
    5
 10
1198.0000000000002
 20
380.00000000000051
 40
15
 41
0.5999999999999999
 50
0
  1
ライトグレー
  0
LINE
  8
_0-7_枠細線
  6
CONTINUOUS
 62
    5
 10
1074.9999999999998
 20
400.00000000000034
 11
1375
 21
400.00000000000034
  0
TEXT
  8
_0-7_枠細線
 62
    5
 10
1207.0000000000002
 20
405.00000000000028
 40
15
 41
0.5999999999999999
 50
0
  1
ベージュ
  0
LINE
  8
_0-7_枠細線
  6
CONTINUOUS
 62
    5
 10
1074.9999999999998
 20
425.00000000000028
 11
1375
 21
425.00000000000028
  0
TEXT
  8
_0-7_枠細線
 62
    5
 10
1219.0000000000005
 20
430.00000000000028
 40
15
 41
0.8000000000000001
 50
0
  1
色
  0
TEXT
  8
_0-7_枠細線
 62
    5
 10
1101
 20
430.00000000000028
 40
15
 41
0.8000000000000001
 50
0
  1
品　　番
  0
TEXT
  8
_0-7_枠細線
 62
    5
 10
1301
 20
430.00000000000028
 40
15
 41
0.8000000000000001
 50
0
  1
備　　考
  0
LINE
  8
_0-7_枠細線
  6
CONTINUOUS
 62
    5
 10
1074.9999999999998
 20
450.00000000000028
 11
1375
 21
450.00000000000028
  0
TEXT
  8
_0-7_枠細線
 62
    5
 10
1163.7499999999998
 20
455.00000000000028
 40
17.5
 41
1
 50
0
  1
品番表
  0
LINE
  8
_0-7_枠細線
  6
CONTINUOUS
 62
    5
 10
1074.9999999999998
 20
225.00000000000014
 11
1375
 21
225.00000000000014
  0
LINE
  8
_0-7_枠細線
  6
CONTINUOUS
 62
    5
 10
1074.9999999999998
 20
250.0000000000004
 11
1375
 21
250.0000000000004
  0
LINE
  8
_0-7_枠細線
  6
CONTINUOUS
 62
    5
 10
1074.9999999999998
 20
275.00000000000045
 11
1375
 21
275.00000000000045
  0
TEXT
  8
_0-7_枠細線
 62
    5
 10
1207.0000000000007
 20
355.00000000000051
 40
15
 41
0.5999999999999999
 50
0
  1
ホワイト
  0
TEXT
  8
_0-7_枠細線
 62
    5
 10
1211.5
 20
330.00000000000034
 40
15
 41
0.5999999999999999
 50
0
  1
ピンク
  0
TEXT
  8
_0-7_枠細線
 62
    5
 10
1211.5
 20
305.00000000000034
 40
15
 41
0.5999999999999999
 50
0
  1
ブルー
  0
TEXT
  8
_0-7_枠細線
 62
    5
 10
1197.9999999999998
 20
280.00000000000034
 40
15
 41
0.5999999999999999
 50
0
  1
ダークグレー
  0
TEXT
  8
_0-7_枠細線
 62
    5
 10
1080
 20
405.00000000000028
 40
15
 41
0.5
 50
0
  1
ＧＲＳ－２５Ｗ２５０－Ｂ
  0
TEXT
  8
_0-7_枠細線
 62
    5
 10
1080
 20
380.00000000000034
 40
15
 41
0.5
 50
0
  1
ＧＲＳ－２５Ｗ２５０－Ｇ
  0
TEXT
  8
_0-7_枠細線
 62
    5
 10
1080
 20
355.00000000000051
 40
15
 41
0.5
 50
0
  1
ＧＲＳ－２５Ｗ２５０－Ｓ
  0
TEXT
  8
_0-7_枠細線
 62
    5
 10
1080
 20
330.00000000000034
 40
15
 41
0.5
 50
0
  1
ＧＲＳ－２５Ｗ２５０－Ｐ
  0
TEXT
  8
_0-7_枠細線
 62
    5
 10
1080
 20
305.00000000000034
 40
15
 41
0.5
 50
0
  1
ＧＲＳ－２５Ｗ２５０－Ａ
  0
TEXT
  8
_0-7_枠細線
 62
    5
 10
1080
 20
280.00000000000034
 40
15
 41
0.5
 50
0
  1
ＧＲＳ－２５Ｗ２５０－Ｄ
  0
TEXT
  8
_0-7_枠細線
 62
    5
 10
1080
 20
255.00000000000043
 40
15
 41
0.5
 50
0
  1
ＧＲＳ－２５Ｗ２５０－Ｍ
  0
TEXT
  8
_0-7_枠細線
 62
    5
 10
1211.5
 20
255.00000000000043
 40
15
 41
0.5999999999999999
 50
0
  1
ウッド
  0
TEXT
  8
_0-7_枠細線
 62
    5
 10
1186
 20
498.75000000000028
 40
15
 41
0.8000000000000001
 50
0
  1
3.3kg/ｍ
  0
LINE
  8
_0-7_枠細線
  6
CONTINUOUS
 62
    5
 10
1074.9999999999998
 20
199.99999999999986
 11
1375
 21
199.99999999999986
  0
TEXT
  8
_0-7_枠細線
 62
    5
 10
1207.0000000000007
 20
204.99999999999994
 40
15
 41
0.5999999999999999
 50
0
  1
ブラック
  0
TEXT
  8
_0-7_枠細線
 62
    5
 10
1080
 20
204.99999999999994
 40
15
 41
0.5
 50
0
  1
ＧＲＳ－２５Ｗ２５０－Ｋ
  0
LINE
  8
_0-7_枠細線
  6
CONTINUOUS
 62
    5
 10
1375
 20
450.00000000000028
 11
1375
 21
199.99999999999986
  0
LINE
  8
_0-7_枠細線
  6
CONTINUOUS
 62
    5
 10
1274.9999999999998
 20
450.00000000000028
 11
1274.9999999999998
 21
199.99999999999986
  0
LINE
  8
_0-7_枠細線
  6
CONTINUOUS
 62
    5
 10
1175.0000000000002
 20
450.00000000000028
 11
1175.0000000000002
 21
199.99999999999986
  0
LINE
  8
_0-7_枠細線
  6
CONTINUOUS
 62
    5
 10
1074.9999999999998
 20
450.00000000000028
 11
1074.9999999999998
 21
199.99999999999986
  0
TEXT
  8
_0-7_枠細線
 62
    5
 10
1080
 20
230.00000000000017
 40
15
 41
0.5
 50
0
  1
ＧＲＳ－２５Ｗ２５０－Ｃ
  0
TEXT
  8
_0-7_枠細線
 62
    5
 10
1207.0000000000002
 20
230.00000000000017
 40
15
 41
0.5999999999999999
 50
0
  1
ブラウン
  0
LINE
  8
_0-7_枠細線
  6
CONTINUOUS
 62
    5
 10
1425
 20
942.5
 11
890
 21
942.5
  0
TEXT
  8
_0-7_枠細線
 62
    5
 10
895
 20
945
 40
12.5
 41
1
 50
0
  1
記号
  0
TEXT
  8
_0-7_枠細線
 62
    5
 10
996.875
 20
945
 40
12.5
 41
1
 50
0
  1
訂　 正　 記　 事
  0
TEXT
  8
_0-7_枠細線
 62
    5
 10
1181.25
 20
945
 40
12.5
 41
1
 50
0
  1
訂 正 年 月 日
  0
TEXT
  8
_0-7_枠細線
 62
    5
 10
1306.25
 20
945
 40
12.5
 41
1
 50
0
  1
備　　　　　考
  0
LINE
  8
_0-7_枠細線
  6
CONTINUOUS
 62
    5
 10
1425
 20
925
 11
890
 21
925
  0
TEXT
  8
_0-7_枠細線
 62
    5
 10
938.85037037037023
 20
927.5
 40
12.5
 41
1
 50
0
  1
品番・色記号変更
  0
TEXT
  8
_0-7_枠細線
 62
    5
 10
1180
 20
927.5
 40
12.5
 41
0.7199999999999999
 50
0
  1
２０１３．０３．１３
  0
LINE
  8
_0-7_枠細線
  6
CONTINUOUS
 62
    5
 10
1425
 20
907.5
 11
890
 21
907.5
  0
LINE
  8
_0-7_枠細線
  6
CONTINUOUS
 62
    5
 10
1425
 20
890
 11
890
 21
890
  0
TEXT
  8
_0-7_枠細線
 62
    5
 10
938.85037037037023
 20
910
 40
12.5
 41
1
 50
0
  1
クロスバーピッチ変更
  0
TEXT
  8
_0-7_枠細線
 62
    5
 10
938.85037037037023
 20
892.5
 40
12.5
 41
1
 50
0
  1
取外具形状変更
  0
TEXT
  8
_0-7_枠細線
 62
    5
 10
1180
 20
910
 40
12.5
 41
0.7199999999999999
 50
0
  1
２０１５．１１．２０
  0
LINE
  8
_0-7_枠細線
  6
CONTINUOUS
 62
    5
 10
915
 20
908.94233397174685
 11
907.5
 21
923.94233397174685
  0
LINE
  8
_0-7_枠細線
  6
CONTINUOUS
 62
    5
 10
900
 20
908.94233397174685
 11
915
 21
908.94233397174685
  0
LINE
  8
_0-7_枠細線
  6
CONTINUOUS
 62
    5
 10
907.5
 20
923.94233397174685
 11
900
 21
908.94233397174685
  0
TEXT
  8
_0-7_枠細線
 62
    5
 10
902.36515126814822
 20
908.63533172636664
 40
12.5
 41
0.8
 50
0
  1
１
  0
TEXT
  8
_0-7_枠細線
 62
    5
 10
902.36515126814822
 20
891.13533172636664
 40
12.5
 41
0.8
 50
0
  1
２
  0
LINE
  8
_0-7_枠細線
  6
CONTINUOUS
 62
    5
 10
1425
 20
872.5
 11
890
 21
872.5
  0
LINE
  8
_0-7_枠細線
  6
CONTINUOUS
 62
    5
 10
907.5
 20
906.44233397174685
 11
900
 21
891.44233397174685
  0
LINE
  8
_0-7_枠細線
  6
CONTINUOUS
 62
    5
 10
900
 20
891.44233397174685
 11
915
 21
891.44233397174685
  0
LINE
  8
_0-7_枠細線
  6
CONTINUOUS
 62
    5
 10
915
 20
891.44233397174685
 11
907.5
 21
906.44233397174685
  0
TEXT
  8
_0-7_枠細線
 62
    5
 10
902.36515126814822
 20
873.39465008156549
 40
12.5
 41
0.8
 50
0
  1
３
  0
TEXT
  8
_0-7_枠細線
 62
    5
 10
1180
 20
875
 40
12.5
 41
0.7199999999999999
 50
0
  1
２０１７．０４．０１
  0
LINE
  8
_0-7_枠細線
  6
CONTINUOUS
 62
    5
 10
915
 20
856.44233397174685
 11
907.5
 21
871.44233397174685
  0
LINE
  8
_0-7_枠細線
  6
CONTINUOUS
 62
    5
 10
900
 20
856.44233397174685
 11
915
 21
856.44233397174685
  0
LINE
  8
_0-7_枠細線
  6
CONTINUOUS
 62
    5
 10
907.5
 20
871.44233397174685
 11
900
 21
856.44233397174685
  0
TEXT
  8
_0-7_枠細線
 62
    5
 10
1180
 20
857.5
 40
12.5
 41
0.7199999999999999
 50
0
  1
２０１７．０４．０１
  0
TEXT
  8
_0-7_枠細線
 62
    5
 10
938.85037037037023
 20
857.5
 40
12.5
 41
1
 50
0
  1
ブラウン色（Ｃ）追加
  0
LINE
  8
_0-7_枠細線
  6
CONTINUOUS
 62
    5
 10
1425
 20
855
 11
890
 21
855
  0
LINE
  8
_0-7_枠細線
  6
CONTINUOUS
 62
    5
 10
907.5
 20
888.94233397174685
 11
900
 21
873.94233397174685
  0
LINE
  8
_0-7_枠細線
  6
CONTINUOUS
 62
    5
 10
900
 20
873.94233397174685
 11
915
 21
873.94233397174685
  0
LINE
  8
_0-7_枠細線
  6
CONTINUOUS
 62
    5
 10
915
 20
873.94233397174685
 11
907.5
 21
888.94233397174685
  0
TEXT
  8
_0-7_枠細線
 62
    5
 10
902.36515126814822
 20
855.49351400689704
 40
12.5
 41
0.8
 50
0
  1
４
  0
TEXT
  8
_0-7_枠細線
 62
    5
 10
938.85037037037023
 20
875
 40
12.5
 41
1
 50
0
  1
取外具形状変更
  0
TEXT
  8
_0-7_枠細線
 62
    5
 10
1180
 20
892.5
 40
12.5
 41
0.7199999999999999
 50
0
  1
２０１５．１１．２０
  0
LINE
  8
_0-7_枠細線
  6
CONTINUOUS
 62
    5
 10
1068.5276246655549
 20
230.57604122127282
 11
1061.0276246655549
 21
245.57604122127282
  0
LINE
  8
_0-7_枠細線
  6
CONTINUOUS
 62
    5
 10
1053.5276246655549
 20
230.57604122127282
 11
1068.5276246655549
 21
230.57604122127282
  0
LINE
  8
_0-7_枠細線
  6
CONTINUOUS
 62
    5
 10
1061.0276246655549
 20
245.57604122127282
 11
1053.5276246655549
 21
230.57604122127282
  0
TEXT
  8
_0-7_枠細線
 62
    5
 10
1055.892775933703
 20
229.62722125642287
 40
12.5
 41
0.8
 50
0
  1
４
  0
ARC
  8
_0-b_細線3
  6
CONTINUOUS
 62
    7
 10
485.24215731644608
 20
282.04579153234226
 40
1.666666666666667
 50
89.999999999999915
 51
179.99999999999983
  0
ARC
  8
_0-b_細線3
  6
CONTINUOUS
 62
    7
 10
486.02207263532546
 20
285.37912486567575
 40
1.666666666666667
 50
269.99999999999977
 51
329.99999999999523
  0
ARC
  8
_0-b_細線3
  6
CONTINUOUS
 62
    7
 10
488.9088239812736
 20
283.71245819900923
 40
1.666666666666667
 50
89.999999999999915
 51
150.00000000000915
  0
LINE
  8
_0-b_細線3
  6
CONTINUOUS
 62
    7
 10
485.24215731644608
 20
283.71245819900923
 11
486.02207263532546
 21
283.71245819900923
  0
ARC
  8
_0-b_細線3
  6
CONTINUOUS
 62
    7
 10
500.9088239794346
 20
282.04579153234226
 40
1.666666666666667
 50
0
 51
89.999999999999915
  0
ARC
  8
_0-b_細線3
  6
CONTINUOUS
 62
    7
 10
500.12890866055528
 20
285.37912486567575
 40
1.666666666666667
 50
210.00000000000404
 51
269.99999999999977
  0
ARC
  8
_0-b_細線3
  6
CONTINUOUS
 62
    7
 10
497.24215731460708
 20
283.71245819900923
 40
1.666666666666667
 50
29.999999999990862
 51
89.999999999999901
  0
LINE
  8
_0-b_細線3
  6
CONTINUOUS
 62
    7
 10
500.9088239794346
 20
283.71245819900923
 11
500.12890866055528
 21
283.71245819900923
  0
ARC
  8
_0-b_細線3
  6
CONTINUOUS
 62
    7
 10
484.40882398311311
 20
279.71245819900923
 40
0.8333333333333334
 50
179.99999999999983
 51
269.99999999999977
  0
LINE
  8
_0-b_細線3
  6
CONTINUOUS
 62
    7
 10
483.57549064977957
 20
282.04579153234226
 11
483.57549064977957
 21
279.71245819900923
  0
ARC
  8
_0-b_細線3
  6
CONTINUOUS
 62
    7
 10
501.74215731276809
 20
279.71245819900923
 40
0.8333333333333334
 50
269.99999999999977
 51
359.99999999999966
  0
LINE
  8
_0-b_細線3
  6
CONTINUOUS
 62
    7
 10
502.57549064610117
 20
282.04579153234226
 11
502.57549064610117
 21
279.71245819900923
  0
ARC
  8
_0-b_細線3
  6
CONTINUOUS
 62
    7
 10
488.57549064977957
 20
277.21245819900923
 40
1.666666666666667
 50
0
 51
89.999999999999915
  0
LINE
  8
_0-b_細線3
  6
CONTINUOUS
 62
    7
 10
488.57549064977957
 20
278.87912486567575
 11
484.40882398311311
 21
278.87912486567575
  0
ARC
  8
_0-b_細線3
  6
CONTINUOUS
 62
    7
 10
497.57549064977957
 20
277.21245819900923
 40
1.666666666666667
 50
89.999999999999915
 51
179.99999999999983
  0
LINE
  8
_0-b_細線3
  6
CONTINUOUS
 62
    7
 10
497.57549064610066
 20
278.87912486567575
 11
501.74215731276809
 21
278.87912486567575
  0
LINE
  8
_0-b_細線3
  6
CONTINUOUS
 62
    7
 10
497.24215731460708
 20
285.37912486567575
 11
488.9088239812736
 21
285.37912486567575
  0
LINE
  8
_0-b_細線3
  6
CONTINUOUS
 62
    7
 10
490.24215731460714
 20
243.71245819900923
 11
490.24215731644608
 21
277.21245819900923
  0
LINE
  8
_0-b_細線3
  6
CONTINUOUS
 62
    7
 10
495.9088239812736
 20
243.71245819900923
 11
495.90882398311305
 21
277.21245819900923
  0
LINE
  8
_0-b_細線3
  6
CONTINUOUS
 62
    7
 10
495.9088239812736
 20
243.71245819900923
 11
490.24215731460714
 21
243.71245819900923
  0
LINE
  8
_0-b_細線3
  6
CONTINUOUS
 62
    7
 10
511.15882398249511
 20
285.41659776104683
 11
511.15882398249511
 21
252.08326442771289
  0
LINE
  8
_0-b_細線3
  6
CONTINUOUS
 62
    7
 10
503.32549064916117
 20
252.08326442771289
 11
503.32549064916117
 21
285.41659776104683
  0
LINE
  8
_0-b_細線3
  6
CONTINUOUS
 62
    7
 10
511.15882398249511
 20
252.08326442771289
 11
503.32549064916117
 21
252.08326442771289
  0
LINE
  8
_0-b_細線3
  6
CONTINUOUS
 62
    7
 10
503.32549064916117
 20
285.41659776104683
 11
511.15882398249511
 21
285.41659776104683
  0
LINE
  8
_0-b_細線3
  6
DASHED2
 62
    7
 10
503.32549064916117
 20
257.08326442771283
 11
511.15882398249511
 21
257.08326442771283
  0
LINE
  8
_0-b_細線3
  6
DASHED2
 62
    7
 10
503.32549064916117
 20
280.41659776104683
 11
511.15882398249511
 21
280.41659776104683
  0
LINE
  8
_0-b_細線3
  6
CONTINUOUS
 62
    7
 10
495.90882398313141
 20
277.54579153234209
 11
503.32549064916117
 21
277.54579153234209
  0
LINE
  8
_0-b_細線3
  6
CONTINUOUS
 62
    7
 10
511.15882398249511
 20
277.54579153234209
 11
518.57549064886007
 21
277.54579153234209
  0
LINE
  8
_0-b_細線3
  6
CONTINUOUS
 62
    7
 10
495.90882398192349
 20
255.87912486567561
 11
503.32549064916117
 21
255.87912486567561
  0
LINE
  8
_0-b_細線3
  6
CONTINUOUS
 62
    7
 10
511.15882398249511
 20
255.87912486567561
 11
518.57549064886007
 21
255.87912486567561
  0
LINE
  8
_0-9_枠極太
  6
CONTINUOUS
 62
    5
 10
60
 20
60
 11
60
 21
960
  0
LINE
  8
_0-9_枠極太
  6
CONTINUOUS
 62
    5
 10
60
 20
960
 11
1425
 21
960
  0
LINE
  8
_0-9_枠極太
  6
CONTINUOUS
 62
    5
 10
1425
 20
960
 11
1425
 21
60
  0
LINE
  8
_0-9_枠極太
  6
CONTINUOUS
 62
    5
 10
1425
 20
60
 11
60
 21
60
  0
LINE
  8
_0-7_枠細線
  6
CONTINUOUS
 62
    5
 10
915
 20
838.94233397174685
 11
907.5
 21
853.94233397174685
  0
LINE
  8
_0-7_枠細線
  6
CONTINUOUS
 62
    5
 10
900
 20
838.94233397174685
 11
915
 21
838.94233397174685
  0
LINE
  8
_0-7_枠細線
  6
CONTINUOUS
 62
    5
 10
907.5
 20
853.94233397174685
 11
900
 21
838.94233397174685
  0
LINE
  8
_0-7_枠細線
  6
CONTINUOUS
 62
    5
 10
1425
 20
837.5
 11
890
 21
837.5
  0
TEXT
  8
_0-7_枠細線
 62
    5
 10
902.36515126814822
 20
837.99351400689704
 40
12.5
 41
0.8
 50
0
  1
５
  0
TEXT
  8
_0-7_枠細線
 62
    5
 10
1180
 20
840
 40
12.5
 41
0.7199999999999999
 50
0
  1
２０１９．０９．０１
  0
LINE
  8
_0-7_枠細線
  6
CONTINUOUS
 62
    5
 10
1275
 20
837.5
 11
1275
 21
959.99999999999909
  0
LINE
  8
_0-7_枠細線
  6
CONTINUOUS
 62
    5
 10
1175
 20
837.5
 11
1175
 21
959.99999999999909
  0
LINE
  8
_0-7_枠細線
  6
CONTINUOUS
 62
    5
 10
925
 20
837.5
 11
925
 21
959.99999999999909
  0
LINE
  8
_0-7_枠細線
  6
CONTINUOUS
 62
    5
 10
890
 20
837.5
 11
890
 21
959.99999999999909
  0
LINE
  8
_0-b_細線3
  6
CONTINUOUS
 62
    7
 10
276.40882398127388
 20
258.71245819900923
 11
276.40882398127388
 21
200.37912486567598
  0
LINE
  8
_0-b_細線3
  6
CONTINUOUS
 62
    7
 10
276.40882398127388
 20
200.37912486567598
 11
272.57549064794046
 21
200.37912486567598
  0
LINE
  8
_0-b_細線3
  6
CONTINUOUS
 62
    7
 10
272.57549064794046
 20
200.37912486567598
 11
272.57549064794046
 21
258.71245819900923
  0
LINE
  8
_0-b_細線3
  6
CONTINUOUS
 62
    7
 10
272.57549064794046
 20
258.71245819900923
 11
276.40882398127388
 21
258.71245819900923
  0
LINE
  8
_0-a_極細3
  6
CONTINUOUS
 62
    7
 10
272.57549064794046
 20
232.04579153234263
 11
276.40882398127388
 21
232.04579153234263
  0
LINE
  8
_0-a_極細3
  6
CONTINUOUS
 62
    7
 10
272.57549064794046
 20
235.37912486567598
 11
276.40882398127388
 21
235.37912486567598
  0
LINE
  8
_0-a_極細3
  6
CONTINUOUS
 62
    7
 10
272.57549064794046
 20
228.71245819900923
 11
276.40882398127388
 21
228.71245819900923
  0
LINE
  8
_0-a_極細3
  6
CONTINUOUS
 62
    7
 10
272.57549064794046
 20
238.71245819900923
 11
276.40882398127388
 21
238.71245819900923
  0
LINE
  8
_0-a_極細3
  6
CONTINUOUS
 62
    7
 10
276.40882398127388
 20
205.37912486567598
 11
272.57549064794046
 21
205.37912486567598
  0
LINE
  8
_0-a_極細3
  6
CONTINUOUS
 62
    7
 10
272.57549064794046
 20
255.37912486567598
 11
276.40882398127388
 21
255.37912486567598
  0
LINE
  8
_0-b_細線3
  6
CONTINUOUS
 62
    7
 10
709.74215731460731
 20
258.71245819900923
 11
709.74215731460731
 21
200.37912486567598
  0
LINE
  8
_0-b_細線3
  6
CONTINUOUS
 62
    7
 10
709.74215731460731
 20
200.37912486567598
 11
713.57549064794068
 21
200.37912486567598
  0
LINE
  8
_0-b_細線3
  6
CONTINUOUS
 62
    7
 10
713.57549064794068
 20
200.37912486567598
 11
713.57549064794068
 21
258.71245819900923
  0
LINE
  8
_0-b_細線3
  6
CONTINUOUS
 62
    7
 10
713.57549064794068
 20
258.71245819900923
 11
709.74215731460731
 21
258.71245819900923
  0
LINE
  8
_0-a_極細3
  6
CONTINUOUS
 62
    7
 10
713.57549064794068
 20
232.04579153234263
 11
709.74215731460731
 21
232.04579153234263
  0
LINE
  8
_0-a_極細3
  6
CONTINUOUS
 62
    7
 10
713.57549064794068
 20
235.37912486567598
 11
709.74215731460731
 21
235.37912486567598
  0
LINE
  8
_0-a_極細3
  6
CONTINUOUS
 62
    7
 10
713.57549064794068
 20
228.71245819900923
 11
709.74215731460731
 21
228.71245819900923
  0
LINE
  8
_0-a_極細3
  6
CONTINUOUS
 62
    7
 10
713.57549064794068
 20
238.71245819900923
 11
709.74215731460731
 21
238.71245819900923
  0
LINE
  8
_0-a_極細3
  6
CONTINUOUS
 62
    7
 10
709.74215731460731
 20
205.37912486567598
 11
713.57549064794068
 21
205.37912486567598
  0
LINE
  8
_0-a_極細3
  6
CONTINUOUS
 62
    7
 10
713.57549064794068
 20
255.37912486567598
 11
709.74215731460731
 21
255.37912486567598
  0
LINE
  8
_0-7_枠細線
  6
CONTINUOUS
 62
    5
 10
731.50620748856295
 20
248.04577999894917
 11
724.00620748856295
 21
263.04577999894911
  0
LINE
  8
_0-7_枠細線
  6
CONTINUOUS
 62
    5
 10
716.50620748856295
 20
248.04577999894917
 11
731.50620748856295
 21
248.04577999894917
  0
LINE
  8
_0-7_枠細線
  6
CONTINUOUS
 62
    5
 10
724.00620748856295
 20
263.04577999894911
 11
716.50620748856295
 21
248.04577999894917
  0
TEXT
  8
_0-7_枠細線
 62
    5
 10
718.87135875671106
 20
247.09696003409925
 40
12.5
 41
0.8
 50
0
  1
５
  0
ARC
  8
_0-0_計極細
  6
CONTINUOUS
 62
    2
 10
218.01171226959156
 20
767.60000000000036
 40
11.295514677412786
 50
138.39585046827415
 51
221.60414953172548
  0
ARC
  8
_0-0_計極細
  6
CONTINUOUS
 62
    2
 10
201.11926995622113
 20
752.599999999999
 40
11.295514677412786
 50
318.39585046827381
 51
41.604149531723962
  0
ARC
  8
_0-0_計極細
  6
CONTINUOUS
 62
    2
 10
218.01171226959156
 20
537.60000000000036
 40
11.295514677412786
 50
138.39585046827415
 51
221.60414953172548
  0
ARC
  8
_0-0_計極細
  6
CONTINUOUS
 62
    2
 10
201.11926995622113
 20
522.599999999999
 40
11.295514677412786
 50
318.39585046827534
 51
41.604149531723962
  0
LINE
  8
_0-5_寸法線
  6
CONTINUOUS
 62
    7
 10
199.56549111290585
 20
775.10000000000048
 11
154.56549111291088
 21
775.10000000000048
  0
LINE
  8
_0-5_寸法線
  6
CONTINUOUS
 62
    7
 10
159.56549111291088
 20
775.10000000000048
 11
162.15368156393609
 21
765.44074173710965
  0
LINE
  8
_0-5_寸法線
  6
CONTINUOUS
 62
    7
 10
159.56549111291088
 20
775.10000000000048
 11
156.97730066188564
 21
765.44074173710965
  0
LINE
  8
_0-5_寸法線
  6
CONTINUOUS
 62
    7
 10
199.56549111290812
 20
745.10000000000036
 11
154.56549111291088
 21
745.10000000000036
  0
LINE
  8
_0-5_寸法線
  6
CONTINUOUS
 62
    7
 10
159.56549111291088
 20
745.10000000000036
 11
156.97730066188569
 21
754.75925826289108
  0
LINE
  8
_0-5_寸法線
  6
CONTINUOUS
 62
    7
 10
159.56549111291088
 20
745.10000000000036
 11
162.15368156393609
 21
754.75925826289108
  0
LINE
  8
_0-5_寸法線
  6
CONTINUOUS
 62
    7
 10
159.56549111291088
 20
775.10000000000048
 11
159.56549111291088
 21
745.10000000000036
  0
TEXT
  8
_0-5_寸法線
 62
    7
 10
159.56549111291088
 20
752.60000000000036
 40
15
 41
1
 50
90
  1
30
  0
LINE
  8
_0-5_寸法線
  6
CONTINUOUS
 62
    7
 10
159.56549111291088
 20
745.10000000000036
 11
162.15368156393609
 21
735.44074173710965
  0
LINE
  8
_0-5_寸法線
  6
CONTINUOUS
 62
    7
 10
159.56549111291088
 20
745.10000000000036
 11
156.97730066188569
 21
735.44074173710965
  0
LINE
  8
_0-5_寸法線
  6
CONTINUOUS
 62
    7
 10
199.56549111290585
 20
545.10000000000036
 11
154.56549111291088
 21
545.10000000000036
  0
LINE
  8
_0-5_寸法線
  6
CONTINUOUS
 62
    7
 10
159.56549111291088
 20
545.10000000000036
 11
156.97730066188569
 21
554.75925826289108
  0
LINE
  8
_0-5_寸法線
  6
CONTINUOUS
 62
    7
 10
159.56549111291088
 20
545.10000000000036
 11
162.15368156393609
 21
554.75925826289108
  0
LINE
  8
_0-5_寸法線
  6
CONTINUOUS
 62
    7
 10
159.56549111291088
 20
745.10000000000036
 11
159.56549111291088
 21
545.10000000000036
  0
TEXT
  8
_0-5_寸法線
 62
    7
 10
159.56549111291082
 20
633.85000000000036
 40
15
 41
1
 50
89.999999999999815
  1
200
  0
LINE
  8
_0-5_寸法線
  6
CONTINUOUS
 62
    7
 10
159.56549111291088
 20
545.10000000000036
 11
162.15368156393609
 21
535.44074173710965
  0
LINE
  8
_0-5_寸法線
  6
CONTINUOUS
 62
    7
 10
159.56549111291088
 20
545.10000000000036
 11
156.97730066188569
 21
535.44074173710965
  0
LINE
  8
_0-5_寸法線
  6
CONTINUOUS
 62
    7
 10
199.56549111291088
 20
515.10000000000355
 11
154.56549111291088
 21
515.10000000000355
  0
LINE
  8
_0-5_寸法線
  6
CONTINUOUS
 62
    7
 10
159.56549111291088
 20
515.10000000000355
 11
156.97730066188569
 21
524.75925826289426
  0
LINE
  8
_0-5_寸法線
  6
CONTINUOUS
 62
    7
 10
159.56549111291088
 20
515.10000000000355
 11
162.15368156393609
 21
524.75925826289426
  0
LINE
  8
_0-5_寸法線
  6
CONTINUOUS
 62
    7
 10
159.56549111291088
 20
545.10000000000036
 11
159.56549111291088
 21
515.10000000000355
  0
TEXT
  8
_0-5_寸法線
 62
    7
 10
159.56549111291088
 20
522.60000000000173
 40
15
 41
1
 50
90
  1
30
  0
LINE
  8
_0-1_計細線
  6
CONTINUOUS
 62
    3
 10
209.56549111290585
 20
745.10000000000036
 11
231.06549111290724
 21
745.10000000000036
  0
LINE
  8
_0-1_計細線
  6
CONTINUOUS
 62
    3
 10
209.56549111290585
 20
545.10000000000173
 11
231.06549111290724
 21
545.10000000000173
  0
ARC
  8
_0-0_計極細
  6
CONTINUOUS
 62
    2
 10
844.01171226959218
 20
767.60000000000036
 40
11.295514677412786
 50
138.39585046827415
 51
221.60414953172548
  0
ARC
  8
_0-0_計極細
  6
CONTINUOUS
 62
    2
 10
827.11926995622196
 20
752.599999999999
 40
11.295514677412786
 50
318.39585046827534
 51
41.604149531723962
  0
ARC
  8
_0-0_計極細
  6
CONTINUOUS
 62
    2
 10
844.01171226959218
 20
537.60000000000036
 40
11.295514677412786
 50
138.39585046827415
 51
221.60414953172548
  0
ARC
  8
_0-0_計極細
  6
CONTINUOUS
 62
    2
 10
827.11926995622196
 20
522.599999999999
 40
11.295514677412786
 50
318.39585046827534
 51
41.604149531723962
  0
LINE
  8
_0-1_計細線
  6
CONTINUOUS
 62
    3
 10
814.06549111290701
 20
545.10000000000173
 11
835.56549111290701
 21
545.10000000000173
  0
LINE
  8
_0-1_計細線
  6
CONTINUOUS
 62
    3
 10
814.06549111290701
 20
745.10000000000036
 11
835.56549111290701
 21
745.10000000000036
  0
LINE
  8
_0-1_計細線
  6
CONTINUOUS
 62
    3
 10
231.06549111290724
 20
605.40000000000146
 11
814.06549111290701
 21
605.40000000000146
  0
LINE
  8
_0-1_計細線
  6
CONTINUOUS
 62
    3
 10
231.06549111290724
 20
616.800000000002
 11
814.06549111290701
 21
616.800000000002
  0
LINE
  8
_0-1_計細線
  6
CONTINUOUS
 62
    3
 10
231.06549111290724
 20
605.40000000000146
 11
231.06549111290724
 21
616.800000000002
  0
LINE
  8
_0-1_計細線
  6
CONTINUOUS
 62
    3
 10
814.06549111290701
 20
605.40000000000146
 11
814.06549111290701
 21
616.800000000002
  0
LINE
  8
_0-0_計極細
  6
CONTINUOUS
 62
    2
 10
231.06549111290724
 20
613.60000000000173
 11
814.06549111290701
 21
613.60000000000173
  0
LINE
  8
_0-0_計極細
  6
CONTINUOUS
 62
    2
 10
231.06549111290724
 20
608.60000000000173
 11
814.06549111290701
 21
608.60000000000173
  0
LINE
  8
_0-1_計細線
  6
CONTINUOUS
 62
    3
 10
231.06549111290724
 20
622.40000000000191
 11
814.06549111290701
 21
622.40000000000191
  0
LINE
  8
_0-1_計細線
  6
CONTINUOUS
 62
    3
 10
231.06549111290724
 20
633.80000000000246
 11
814.06549111290701
 21
633.80000000000246
  0
LINE
  8
_0-1_計細線
  6
CONTINUOUS
 62
    3
 10
231.06549111290724
 20
622.40000000000191
 11
231.06549111290724
 21
633.80000000000246
  0
LINE
  8
_0-1_計細線
  6
CONTINUOUS
 62
    3
 10
814.06549111290701
 20
622.40000000000191
 11
814.06549111290701
 21
633.80000000000246
  0
LINE
  8
_0-0_計極細
  6
CONTINUOUS
 62
    2
 10
231.06549111290724
 20
630.60000000000264
 11
814.06549111290701
 21
630.60000000000264
  0
LINE
  8
_0-0_計極細
  6
CONTINUOUS
 62
    2
 10
231.06549111290724
 20
625.60000000000264
 11
814.06549111290701
 21
625.60000000000264
  0
LINE
  8
_0-1_計細線
  6
CONTINUOUS
 62
    3
 10
231.06549111290724
 20
684.80000000000018
 11
814.06549111290701
 21
684.80000000000018
  0
LINE
  8
_0-1_計細線
  6
CONTINUOUS
 62
    3
 10
231.06549111290724
 20
673.39999999999964
 11
814.06549111290701
 21
673.39999999999964
  0
LINE
  8
_0-1_計細線
  6
CONTINUOUS
 62
    3
 10
231.06549111290724
 20
684.80000000000018
 11
231.06549111290724
 21
673.39999999999964
  0
LINE
  8
_0-1_計細線
  6
CONTINUOUS
 62
    3
 10
814.06549111290701
 20
684.80000000000018
 11
814.06549111290701
 21
673.39999999999964
  0
LINE
  8
_0-0_計極細
  6
CONTINUOUS
 62
    2
 10
231.06549111290724
 20
676.59999999999991
 11
814.06549111290701
 21
676.59999999999991
  0
LINE
  8
_0-0_計極細
  6
CONTINUOUS
 62
    2
 10
231.06549111290724
 20
681.59999999999991
 11
814.06549111290701
 21
681.59999999999991
  0
LINE
  8
_0-0_計極細
  6
CENTER2
 62
    2
 10
215.17689157588848
 20
645.10000000000093
 11
830.11022490926496
 21
645.10000000000093
  0
LINE
  8
_0-1_計細線
  6
CONTINUOUS
 62
    3
 10
231.06549111290724
 20
752.80000000000075
 11
814.06549111290701
 21
752.80000000000075
  0
LINE
  8
_0-1_計細線
  6
CONTINUOUS
 62
    3
 10
231.06549111290724
 20
741.40000000000009
 11
814.06549111290701
 21
741.40000000000009
  0
LINE
  8
_0-1_計細線
  6
CONTINUOUS
 62
    3
 10
231.06549111290724
 20
752.80000000000075
 11
231.06549111290724
 21
741.40000000000009
  0
LINE
  8
_0-1_計細線
  6
CONTINUOUS
 62
    3
 10
814.06549111290701
 20
752.80000000000075
 11
814.06549111290701
 21
741.40000000000009
  0
LINE
  8
_0-0_計極細
  6
CONTINUOUS
 62
    2
 10
231.06549111290724
 20
744.60000000000036
 11
814.06549111290701
 21
744.60000000000036
  0
LINE
  8
_0-0_計極細
  6
CONTINUOUS
 62
    2
 10
231.06549111290724
 20
749.60000000000036
 11
814.06549111290701
 21
749.60000000000036
  0
LINE
  8
_0-1_計細線
  6
CONTINUOUS
 62
    3
 10
231.06549111290724
 20
770.10000000000093
 11
814.06549111290701
 21
770.10000000000093
  0
LINE
  8
_0-1_計細線
  6
CONTINUOUS
 62
    3
 10
231.06549111290724
 20
758.70000000000027
 11
814.06549111290701
 21
758.70000000000027
  0
LINE
  8
_0-1_計細線
  6
CONTINUOUS
 62
    3
 10
231.06549111290724
 20
770.10000000000093
 11
231.06549111290724
 21
758.70000000000027
  0
LINE
  8
_0-1_計細線
  6
CONTINUOUS
 62
    3
 10
814.06549111290701
 20
770.10000000000093
 11
814.06549111290701
 21
758.70000000000027
  0
LINE
  8
_0-0_計極細
  6
CONTINUOUS
 62
    2
 10
231.06549111290724
 20
761.90000000000055
 11
814.06549111290701
 21
761.90000000000055
  0
LINE
  8
_0-0_計極細
  6
CONTINUOUS
 62
    2
 10
231.06549111290724
 20
766.90000000000055
 11
814.06549111290701
 21
766.90000000000055
  0
LINE
  8
_0-1_計細線
  6
CONTINUOUS
 62
    3
 10
231.06549111290724
 20
537.400000000001
 11
814.06549111290701
 21
537.400000000001
  0
LINE
  8
_0-1_計細線
  6
CONTINUOUS
 62
    3
 10
231.06549111290724
 20
548.80000000000155
 11
814.06549111290701
 21
548.80000000000155
  0
LINE
  8
_0-1_計細線
  6
CONTINUOUS
 62
    3
 10
231.06549111290724
 20
537.400000000001
 11
231.06549111290724
 21
548.80000000000155
  0
LINE
  8
_0-1_計細線
  6
CONTINUOUS
 62
    3
 10
814.06549111290701
 20
537.400000000001
 11
814.06549111290701
 21
548.80000000000155
  0
LINE
  8
_0-0_計極細
  6
CONTINUOUS
 62
    2
 10
231.06549111290724
 20
545.60000000000127
 11
814.06549111290701
 21
545.60000000000127
  0
LINE
  8
_0-0_計極細
  6
CONTINUOUS
 62
    2
 10
231.06549111290724
 20
540.60000000000127
 11
814.06549111290701
 21
540.60000000000127
  0
LINE
  8
_0-1_計細線
  6
CONTINUOUS
 62
    3
 10
231.06549111290724
 20
520.10000000000082
 11
814.06549111290701
 21
520.10000000000082
  0
LINE
  8
_0-1_計細線
  6
CONTINUOUS
 62
    3
 10
231.06549111290724
 20
531.50000000000136
 11
814.06549111290701
 21
531.50000000000136
  0
LINE
  8
_0-1_計細線
  6
CONTINUOUS
 62
    3
 10
231.06549111290724
 20
520.10000000000082
 11
231.06549111290724
 21
531.50000000000136
  0
LINE
  8
_0-1_計細線
  6
CONTINUOUS
 62
    3
 10
814.06549111290701
 20
520.10000000000082
 11
814.06549111290701
 21
531.50000000000136
  0
LINE
  8
_0-0_計極細
  6
CONTINUOUS
 62
    2
 10
231.06549111290724
 20
528.30000000000109
 11
814.06549111290701
 21
528.30000000000109
  0
LINE
  8
_0-0_計極細
  6
CONTINUOUS
 62
    2
 10
231.06549111290724
 20
523.30000000000109
 11
814.06549111290701
 21
523.30000000000109
  0
LINE
  8
_0-1_計細線
  6
CONTINUOUS
 62
    3
 10
231.06549111290724
 20
701.80000000000064
 11
814.06549111290701
 21
701.80000000000064
  0
LINE
  8
_0-1_計細線
  6
CONTINUOUS
 62
    3
 10
231.06549111290724
 20
690.40000000000009
 11
814.06549111290701
 21
690.40000000000009
  0
LINE
  8
_0-1_計細線
  6
CONTINUOUS
 62
    3
 10
231.06549111290724
 20
701.80000000000064
 11
231.06549111290724
 21
690.40000000000009
  0
LINE
  8
_0-1_計細線
  6
CONTINUOUS
 62
    3
 10
814.06549111290701
 20
701.80000000000064
 11
814.06549111290701
 21
690.40000000000009
  0
LINE
  8
_0-0_計極細
  6
CONTINUOUS
 62
    2
 10
231.06549111290724
 20
693.60000000000082
 11
814.06549111290701
 21
693.60000000000082
  0
LINE
  8
_0-0_計極細
  6
CONTINUOUS
 62
    2
 10
231.06549111290724
 20
698.60000000000082
 11
814.06549111290701
 21
698.60000000000082
  0
LINE
  8
_0-1_計細線
  6
CONTINUOUS
 62
    3
 10
231.06549111290724
 20
718.80000000000155
 11
814.06549111290701
 21
718.80000000000155
  0
LINE
  8
_0-1_計細線
  6
CONTINUOUS
 62
    3
 10
231.06549111290724
 20
707.40000000000111
 11
814.06549111290701
 21
707.40000000000111
  0
LINE
  8
_0-1_計細線
  6
CONTINUOUS
 62
    3
 10
231.06549111290724
 20
718.80000000000155
 11
231.06549111290724
 21
707.40000000000111
  0
LINE
  8
_0-1_計細線
  6
CONTINUOUS
 62
    3
 10
814.06549111290701
 20
718.80000000000155
 11
814.06549111290701
 21
707.40000000000111
  0
LINE
  8
_0-0_計極細
  6
CONTINUOUS
 62
    2
 10
231.06549111290724
 20
710.60000000000127
 11
814.06549111290701
 21
710.60000000000127
  0
LINE
  8
_0-0_計極細
  6
CONTINUOUS
 62
    2
 10
231.06549111290724
 20
715.60000000000127
 11
814.06549111290701
 21
715.60000000000127
  0
LINE
  8
_0-1_計細線
  6
CONTINUOUS
 62
    3
 10
231.06549111290724
 20
735.80000000000257
 11
814.06549111290701
 21
735.80000000000257
  0
LINE
  8
_0-1_計細線
  6
CONTINUOUS
 62
    3
 10
231.06549111290724
 20
724.40000000000191
 11
814.06549111290701
 21
724.40000000000191
  0
LINE
  8
_0-1_計細線
  6
CONTINUOUS
 62
    3
 10
231.06549111290724
 20
735.80000000000257
 11
231.06549111290724
 21
724.40000000000191
  0
LINE
  8
_0-1_計細線
  6
CONTINUOUS
 62
    3
 10
814.06549111290701
 20
735.80000000000257
 11
814.06549111290701
 21
724.40000000000191
  0
LINE
  8
_0-0_計極細
  6
CONTINUOUS
 62
    2
 10
231.06549111290724
 20
727.60000000000173
 11
814.06549111290701
 21
727.60000000000173
  0
LINE
  8
_0-0_計極細
  6
CONTINUOUS
 62
    2
 10
231.06549111290724
 20
732.60000000000173
 11
814.06549111290701
 21
732.60000000000173
  0
LINE
  8
_0-1_計細線
  6
CONTINUOUS
 62
    3
 10
231.06549111290724
 20
588.400000000001
 11
814.06549111290701
 21
588.400000000001
  0
LINE
  8
_0-1_計細線
  6
CONTINUOUS
 62
    3
 10
231.06549111290724
 20
599.80000000000155
 11
814.06549111290701
 21
599.80000000000155
  0
LINE
  8
_0-1_計細線
  6
CONTINUOUS
 62
    3
 10
231.06549111290724
 20
588.400000000001
 11
231.06549111290724
 21
599.80000000000155
  0
LINE
  8
_0-1_計細線
  6
CONTINUOUS
 62
    3
 10
814.06549111290701
 20
588.400000000001
 11
814.06549111290701
 21
599.80000000000155
  0
LINE
  8
_0-0_計極細
  6
CONTINUOUS
 62
    2
 10
231.06549111290724
 20
596.60000000000082
 11
814.06549111290701
 21
596.60000000000082
  0
LINE
  8
_0-0_計極細
  6
CONTINUOUS
 62
    2
 10
231.06549111290724
 20
591.60000000000082
 11
814.06549111290701
 21
591.60000000000082
  0
LINE
  8
_0-1_計細線
  6
CONTINUOUS
 62
    3
 10
231.06549111290724
 20
571.40000000000009
 11
814.06549111290701
 21
571.40000000000009
  0
LINE
  8
_0-1_計細線
  6
CONTINUOUS
 62
    3
 10
231.06549111290724
 20
582.80000000000064
 11
814.06549111290701
 21
582.80000000000064
  0
LINE
  8
_0-1_計細線
  6
CONTINUOUS
 62
    3
 10
231.06549111290724
 20
571.40000000000009
 11
231.06549111290724
 21
582.80000000000064
  0
LINE
  8
_0-1_計細線
  6
CONTINUOUS
 62
    3
 10
814.06549111290701
 20
571.40000000000009
 11
814.06549111290701
 21
582.80000000000064
  0
LINE
  8
_0-0_計極細
  6
CONTINUOUS
 62
    2
 10
231.06549111290724
 20
579.60000000000036
 11
814.06549111290701
 21
579.60000000000036
  0
LINE
  8
_0-0_計極細
  6
CONTINUOUS
 62
    2
 10
231.06549111290724
 20
574.60000000000036
 11
814.06549111290701
 21
574.60000000000036
  0
LINE
  8
_0-1_計細線
  6
CONTINUOUS
 62
    3
 10
231.06549111290724
 20
554.39999999999918
 11
814.06549111290701
 21
554.39999999999918
  0
LINE
  8
_0-1_計細線
  6
CONTINUOUS
 62
    3
 10
231.06549111290724
 20
565.79999999999973
 11
814.06549111290701
 21
565.79999999999973
  0
LINE
  8
_0-1_計細線
  6
CONTINUOUS
 62
    3
 10
231.06549111290724
 20
554.39999999999918
 11
231.06549111290724
 21
565.79999999999973
  0
LINE
  8
_0-1_計細線
  6
CONTINUOUS
 62
    3
 10
814.06549111290701
 20
554.39999999999918
 11
814.06549111290701
 21
565.79999999999973
  0
LINE
  8
_0-0_計極細
  6
CONTINUOUS
 62
    2
 10
231.06549111290724
 20
562.59999999999991
 11
814.06549111290701
 21
562.59999999999991
  0
LINE
  8
_0-0_計極細
  6
CONTINUOUS
 62
    2
 10
231.06549111290724
 20
557.59999999999991
 11
814.06549111290701
 21
557.59999999999991
  0
LINE
  8
_0-1_計細線
  6
CONTINUOUS
 62
    3
 10
209.56549111290585
 20
775.10000000000048
 11
835.56549111290701
 21
775.10000000000048
  0
LINE
  8
_0-1_計細線
  6
CONTINUOUS
 62
    3
 10
835.56549111290701
 20
515.10000000000173
 11
209.56549111290585
 21
515.10000000000173
  0
LINE
  8
_0-1_計細線
  6
CONTINUOUS
 62
    3
 10
207.6512754145333
 20
772.10000000000036
 11
833.65127541453444
 21
772.10000000000036
  0
LINE
  8
_0-1_計細線
  6
CONTINUOUS
 62
    3
 10
837.47970681128152
 20
518.10000000000173
 11
211.47970681128214
 21
518.10000000000173
  0
LINE
  8
_0-5_寸法線
  6
CONTINUOUS
 62
    7
 10
843.56549111290747
 20
775.10000000000048
 11
923.56549111290622
 21
775.10000000000048
  0
LINE
  8
_0-5_寸法線
  6
CONTINUOUS
 62
    7
 10
918.56549111290622
 20
775.10000000000048
 11
921.15368156393129
 21
765.44074173710965
  0
LINE
  8
_0-5_寸法線
  6
CONTINUOUS
 62
    7
 10
918.56549111290622
 20
775.10000000000048
 11
915.97730066188092
 21
765.44074173710965
  0
LINE
  8
_0-5_寸法線
  6
CONTINUOUS
 62
    7
 10
843.56549111290656
 20
515.09999999999673
 11
923.56549111290656
 21
515.09999999999673
  0
LINE
  8
_0-5_寸法線
  6
CONTINUOUS
 62
    7
 10
918.56549111290656
 20
515.09999999999673
 11
915.97730066188149
 21
524.75925826288744
  0
LINE
  8
_0-5_寸法線
  6
CONTINUOUS
 62
    7
 10
918.56549111290656
 20
515.09999999999673
 11
921.15368156393174
 21
524.75925826288744
  0
LINE
  8
_0-5_寸法線
  6
CONTINUOUS
 62
    7
 10
918.56549111290622
 20
775.10000000000048
 11
918.56549111290656
 21
515.09999999999673
  0
TEXT
  8
_0-5_寸法線
 62
    7
 10
918.56549111290656
 20
633.84999999999854
 40
15
 41
1
 50
90
  1
260
  0
LINE
  8
_0-0_計極細
  6
CONTINUOUS
 62
    2
 10
239.56549111290727
 20
616.800000000002
 11
239.56549111290727
 21
622.40000000000191
  0
LINE
  8
_0-0_計極細
  6
CONTINUOUS
 62
    2
 10
252.56549111290724
 20
616.800000000002
 11
252.56549111290724
 21
622.40000000000191
  0
LINE
  8
_0-0_計極細
  6
CONTINUOUS
 62
    2
 10
239.56549111290727
 20
639.39999999999827
 11
239.56549111290727
 21
633.79999999999791
  0
LINE
  8
_0-0_計極細
  6
CONTINUOUS
 62
    2
 10
252.56549111290724
 20
639.39999999999827
 11
252.56549111290724
 21
633.79999999999791
  0
LINE
  8
_0-0_計極細
  6
CONTINUOUS
 62
    2
 10
239.56549111290727
 20
656.39999999999918
 11
239.56549111290727
 21
650.79999999999882
  0
LINE
  8
_0-0_計極細
  6
CONTINUOUS
 62
    2
 10
252.56549111290724
 20
656.39999999999918
 11
252.56549111290724
 21
650.79999999999882
  0
LINE
  8
_0-0_計極細
  6
CONTINUOUS
 62
    2
 10
239.56549111290727
 20
673.39999999999964
 11
239.56549111290727
 21
667.79999999999973
  0
LINE
  8
_0-0_計極細
  6
CONTINUOUS
 62
    2
 10
252.56549111290724
 20
673.39999999999964
 11
252.56549111290724
 21
667.79999999999973
  0
LINE
  8
_0-0_計極細
  6
CONTINUOUS
 62
    2
 10
239.56549111290727
 20
758.70000000000027
 11
239.56549111290727
 21
752.80000000000018
  0
LINE
  8
_0-0_計極細
  6
CONTINUOUS
 62
    2
 10
252.56549111290724
 20
758.70000000000027
 11
252.56549111290724
 21
752.80000000000018
  0
LINE
  8
_0-0_計極細
  6
CONTINUOUS
 62
    2
 10
239.56549111290727
 20
531.50000000000136
 11
239.56549111290727
 21
537.40000000000146
  0
LINE
  8
_0-0_計極細
  6
CONTINUOUS
 62
    2
 10
252.56549111290724
 20
531.50000000000136
 11
252.56549111290724
 21
537.40000000000146
  0
LINE
  8
_0-0_計極細
  6
CENTER1
 62
    2
 10
246.06549111290724
 20
778.85071942446302
 11
246.06549111290724
 21
512.34217625898873
  0
LINE
  8
_0-0_計極細
  6
CONTINUOUS
 62
    2
 10
239.56549111290727
 20
690.40000000000009
 11
239.56549111290727
 21
684.80000000000018
  0
LINE
  8
_0-0_計極細
  6
CONTINUOUS
 62
    2
 10
252.56549111290724
 20
690.40000000000009
 11
252.56549111290724
 21
684.80000000000018
  0
LINE
  8
_0-0_計極細
  6
CONTINUOUS
 62
    2
 10
239.56549111290727
 20
707.40000000000111
 11
239.56549111290727
 21
701.80000000000064
  0
LINE
  8
_0-0_計極細
  6
CONTINUOUS
 62
    2
 10
252.56549111290724
 20
707.40000000000111
 11
252.56549111290724
 21
701.80000000000064
  0
LINE
  8
_0-0_計極細
  6
CONTINUOUS
 62
    2
 10
239.56549111290727
 20
724.40000000000191
 11
239.56549111290727
 21
718.80000000000155
  0
LINE
  8
_0-0_計極細
  6
CONTINUOUS
 62
    2
 10
252.56549111290724
 20
724.40000000000191
 11
252.56549111290724
 21
718.80000000000155
  0
LINE
  8
_0-0_計極細
  6
CONTINUOUS
 62
    2
 10
239.56549111290727
 20
741.40000000000236
 11
239.56549111290727
 21
735.80000000000257
  0
LINE
  8
_0-0_計極細
  6
CONTINUOUS
 62
    2
 10
252.56549111290724
 20
741.40000000000236
 11
252.56549111290724
 21
735.80000000000257
  0
LINE
  8
_0-0_計極細
  6
CONTINUOUS
 62
    2
 10
239.56549111290727
 20
599.80000000000155
 11
239.56549111290727
 21
605.40000000000146
  0
LINE
  8
_0-0_計極細
  6
CONTINUOUS
 62
    2
 10
252.56549111290724
 20
599.80000000000155
 11
252.56549111290724
 21
605.40000000000146
  0
LINE
  8
_0-0_計極細
  6
CONTINUOUS
 62
    2
 10
239.56549111290727
 20
582.80000000000064
 11
239.56549111290727
 21
588.400000000001
  0
LINE
  8
_0-0_計極細
  6
CONTINUOUS
 62
    2
 10
252.56549111290724
 20
582.80000000000064
 11
252.56549111290724
 21
588.400000000001
  0
LINE
  8
_0-0_計極細
  6
CONTINUOUS
 62
    2
 10
239.56549111290727
 20
565.79999999999973
 11
239.56549111290727
 21
571.40000000000009
  0
LINE
  8
_0-0_計極細
  6
CONTINUOUS
 62
    2
 10
252.56549111290724
 20
565.79999999999973
 11
252.56549111290724
 21
571.40000000000009
  0
LINE
  8
_0-0_計極細
  6
CONTINUOUS
 62
    2
 10
239.56549111290727
 20
548.79999999999927
 11
239.56549111290727
 21
554.39999999999918
  0
LINE
  8
_0-0_計極細
  6
CONTINUOUS
 62
    2
 10
252.56549111290724
 20
548.79999999999927
 11
252.56549111290724
 21
554.39999999999918
  0
LINE
  8
_0-0_計極細
  6
CONTINUOUS
 62
    2
 10
792.56549111290713
 20
616.800000000002
 11
792.56549111290713
 21
622.40000000000191
  0
LINE
  8
_0-0_計極細
  6
CONTINUOUS
 62
    2
 10
805.56549111290701
 20
616.800000000002
 11
805.56549111290701
 21
622.40000000000191
  0
LINE
  8
_0-0_計極細
  6
CONTINUOUS
 62
    2
 10
792.56549111290713
 20
639.39999999999827
 11
792.56549111290713
 21
633.79999999999791
  0
LINE
  8
_0-0_計極細
  6
CONTINUOUS
 62
    2
 10
805.56549111290701
 20
639.39999999999827
 11
805.56549111290701
 21
633.79999999999791
  0
LINE
  8
_0-0_計極細
  6
CONTINUOUS
 62
    2
 10
792.56549111290713
 20
656.39999999999918
 11
792.56549111290713
 21
650.79999999999882
  0
LINE
  8
_0-0_計極細
  6
CONTINUOUS
 62
    2
 10
805.56549111290701
 20
656.39999999999918
 11
805.56549111290701
 21
650.79999999999882
  0
LINE
  8
_0-0_計極細
  6
CONTINUOUS
 62
    2
 10
792.56549111290713
 20
673.39999999999964
 11
792.56549111290713
 21
667.79999999999973
  0
LINE
  8
_0-0_計極細
  6
CONTINUOUS
 62
    2
 10
805.56549111290701
 20
673.39999999999964
 11
805.56549111290701
 21
667.79999999999973
  0
LINE
  8
_0-0_計極細
  6
CONTINUOUS
 62
    2
 10
792.56549111290713
 20
758.70000000000027
 11
792.56549111290713
 21
752.80000000000018
  0
LINE
  8
_0-0_計極細
  6
CONTINUOUS
 62
    2
 10
805.56549111290701
 20
758.70000000000027
 11
805.56549111290701
 21
752.80000000000018
  0
LINE
  8
_0-0_計極細
  6
CONTINUOUS
 62
    2
 10
792.56549111290713
 20
531.50000000000136
 11
792.56549111290713
 21
537.40000000000146
  0
LINE
  8
_0-0_計極細
  6
CONTINUOUS
 62
    2
 10
805.56549111290701
 20
531.50000000000136
 11
805.56549111290701
 21
537.40000000000146
  0
LINE
  8
_0-0_計極細
  6
CENTER1
 62
    2
 10
799.06549111290701
 20
778.85071942446302
 11
799.06549111290701
 21
512.34217625898873
  0
LINE
  8
_0-0_計極細
  6
CONTINUOUS
 62
    2
 10
792.56549111290713
 20
690.40000000000009
 11
792.56549111290713
 21
684.80000000000018
  0
LINE
  8
_0-0_計極細
  6
CONTINUOUS
 62
    2
 10
805.56549111290701
 20
690.40000000000009
 11
805.56549111290701
 21
684.80000000000018
  0
LINE
  8
_0-0_計極細
  6
CONTINUOUS
 62
    2
 10
792.56549111290713
 20
707.40000000000111
 11
792.56549111290713
 21
701.80000000000064
  0
LINE
  8
_0-0_計極細
  6
CONTINUOUS
 62
    2
 10
805.56549111290701
 20
707.40000000000111
 11
805.56549111290701
 21
701.80000000000064
  0
LINE
  8
_0-0_計極細
  6
CONTINUOUS
 62
    2
 10
792.56549111290713
 20
724.40000000000191
 11
792.56549111290713
 21
718.80000000000155
  0
LINE
  8
_0-0_計極細
  6
CONTINUOUS
 62
    2
 10
805.56549111290701
 20
724.40000000000191
 11
805.56549111290701
 21
718.80000000000155
  0
LINE
  8
_0-0_計極細
  6
CONTINUOUS
 62
    2
 10
792.56549111290713
 20
741.40000000000236
 11
792.56549111290713
 21
735.80000000000257
  0
LINE
  8
_0-0_計極細
  6
CONTINUOUS
 62
    2
 10
805.56549111290701
 20
741.40000000000236
 11
805.56549111290701
 21
735.80000000000257
  0
LINE
  8
_0-0_計極細
  6
CONTINUOUS
 62
    2
 10
792.56549111290713
 20
599.80000000000155
 11
792.56549111290713
 21
605.40000000000146
  0
LINE
  8
_0-0_計極細
  6
CONTINUOUS
 62
    2
 10
805.56549111290701
 20
599.80000000000155
 11
805.56549111290701
 21
605.40000000000146
  0
LINE
  8
_0-0_計極細
  6
CONTINUOUS
 62
    2
 10
792.56549111290713
 20
582.80000000000064
 11
792.56549111290713
 21
588.400000000001
  0
LINE
  8
_0-0_計極細
  6
CONTINUOUS
 62
    2
 10
805.56549111290701
 20
582.80000000000064
 11
805.56549111290701
 21
588.400000000001
  0
LINE
  8
_0-0_計極細
  6
CONTINUOUS
 62
    2
 10
792.56549111290713
 20
565.79999999999973
 11
792.56549111290713
 21
571.40000000000009
  0
LINE
  8
_0-0_計極細
  6
CONTINUOUS
 62
    2
 10
805.56549111290701
 20
565.79999999999973
 11
805.56549111290701
 21
571.40000000000009
  0
LINE
  8
_0-0_計極細
  6
CONTINUOUS
 62
    2
 10
792.56549111290713
 20
548.79999999999927
 11
792.56549111290713
 21
554.39999999999918
  0
LINE
  8
_0-0_計極細
  6
CONTINUOUS
 62
    2
 10
805.56549111290701
 20
548.79999999999927
 11
805.56549111290701
 21
554.39999999999918
  0
LINE
  8
_0-0_計極細
  6
CONTINUOUS
 62
    2
 10
336.56549111290724
 20
616.800000000002
 11
336.56549111290724
 21
622.40000000000191
  0
LINE
  8
_0-0_計極細
  6
CONTINUOUS
 62
    2
 10
349.56549111290724
 20
616.800000000002
 11
349.56549111290724
 21
622.40000000000191
  0
LINE
  8
_0-0_計極細
  6
CONTINUOUS
 62
    2
 10
336.56549111290724
 20
639.39999999999827
 11
336.56549111290724
 21
633.79999999999791
  0
LINE
  8
_0-0_計極細
  6
CONTINUOUS
 62
    2
 10
349.56549111290724
 20
639.39999999999827
 11
349.56549111290724
 21
633.79999999999791
  0
LINE
  8
_0-0_計極細
  6
CONTINUOUS
 62
    2
 10
336.56549111290724
 20
673.39999999999964
 11
336.56549111290724
 21
667.79999999999973
  0
LINE
  8
_0-0_計極細
  6
CONTINUOUS
 62
    2
 10
349.56549111290724
 20
673.39999999999964
 11
349.56549111290724
 21
667.79999999999973
  0
LINE
  8
_0-0_計極細
  6
CONTINUOUS
 62
    2
 10
336.56549111290724
 20
758.70000000000027
 11
336.56549111290724
 21
752.80000000000018
  0
LINE
  8
_0-0_計極細
  6
CONTINUOUS
 62
    2
 10
349.56549111290724
 20
758.70000000000027
 11
349.56549111290724
 21
752.80000000000018
  0
LINE
  8
_0-0_計極細
  6
CONTINUOUS
 62
    2
 10
336.56549111290724
 20
531.50000000000136
 11
336.56549111290724
 21
537.40000000000146
  0
LINE
  8
_0-0_計極細
  6
CONTINUOUS
 62
    2
 10
349.56549111290724
 20
531.50000000000136
 11
349.56549111290724
 21
537.40000000000146
  0
LINE
  8
_0-0_計極細
  6
CENTER1
 62
    2
 10
343.0654911129073
 20
778.85071942446302
 11
343.0654911129073
 21
512.34217625898873
  0
LINE
  8
_0-0_計極細
  6
CONTINUOUS
 62
    2
 10
336.56549111290724
 20
690.40000000000009
 11
336.56549111290724
 21
684.80000000000018
  0
LINE
  8
_0-0_計極細
  6
CONTINUOUS
 62
    2
 10
349.56549111290724
 20
690.40000000000009
 11
349.56549111290724
 21
684.80000000000018
  0
LINE
  8
_0-0_計極細
  6
CONTINUOUS
 62
    2
 10
336.56549111290724
 20
707.40000000000111
 11
336.56549111290724
 21
701.80000000000064
  0
LINE
  8
_0-0_計極細
  6
CONTINUOUS
 62
    2
 10
349.56549111290724
 20
707.40000000000111
 11
349.56549111290724
 21
701.80000000000064
  0
LINE
  8
_0-0_計極細
  6
CONTINUOUS
 62
    2
 10
336.56549111290724
 20
724.40000000000191
 11
336.56549111290724
 21
718.80000000000155
  0
LINE
  8
_0-0_計極細
  6
CONTINUOUS
 62
    2
 10
349.56549111290724
 20
724.40000000000191
 11
349.56549111290724
 21
718.80000000000155
  0
LINE
  8
_0-0_計極細
  6
CONTINUOUS
 62
    2
 10
336.56549111290724
 20
741.40000000000236
 11
336.56549111290724
 21
735.80000000000257
  0
LINE
  8
_0-0_計極細
  6
CONTINUOUS
 62
    2
 10
349.56549111290724
 20
741.40000000000236
 11
349.56549111290724
 21
735.80000000000257
  0
LINE
  8
_0-0_計極細
  6
CONTINUOUS
 62
    2
 10
336.56549111290724
 20
599.80000000000155
 11
336.56549111290724
 21
605.40000000000146
  0
LINE
  8
_0-0_計極細
  6
CONTINUOUS
 62
    2
 10
349.56549111290724
 20
599.80000000000155
 11
349.56549111290724
 21
605.40000000000146
  0
LINE
  8
_0-0_計極細
  6
CONTINUOUS
 62
    2
 10
336.56549111290724
 20
582.80000000000064
 11
336.56549111290724
 21
588.400000000001
  0
LINE
  8
_0-0_計極細
  6
CONTINUOUS
 62
    2
 10
349.56549111290724
 20
582.80000000000064
 11
349.56549111290724
 21
588.400000000001
  0
LINE
  8
_0-0_計極細
  6
CONTINUOUS
 62
    2
 10
336.56549111290724
 20
565.79999999999973
 11
336.56549111290724
 21
571.40000000000009
  0
LINE
  8
_0-0_計極細
  6
CONTINUOUS
 62
    2
 10
349.56549111290724
 20
565.79999999999973
 11
349.56549111290724
 21
571.40000000000009
  0
LINE
  8
_0-0_計極細
  6
CONTINUOUS
 62
    2
 10
336.56549111290724
 20
548.79999999999927
 11
336.56549111290724
 21
554.39999999999918
  0
LINE
  8
_0-0_計極細
  6
CONTINUOUS
 62
    2
 10
349.56549111290724
 20
548.79999999999927
 11
349.56549111290724
 21
554.39999999999918
  0
LINE
  8
_0-0_計極細
  6
CONTINUOUS
 62
    2
 10
433.56549111290718
 20
616.800000000002
 11
433.56549111290718
 21
622.40000000000191
  0
LINE
  8
_0-0_計極細
  6
CONTINUOUS
 62
    2
 10
446.56549111290713
 20
616.800000000002
 11
446.56549111290713
 21
622.40000000000191
  0
LINE
  8
_0-0_計極細
  6
CONTINUOUS
 62
    2
 10
433.56549111290718
 20
639.39999999999827
 11
433.56549111290718
 21
633.79999999999791
  0
LINE
  8
_0-0_計極細
  6
CONTINUOUS
 62
    2
 10
446.56549111290713
 20
639.39999999999827
 11
446.56549111290713
 21
633.79999999999791
  0
LINE
  8
_0-0_計極細
  6
CONTINUOUS
 62
    2
 10
433.56549111290718
 20
656.39999999999918
 11
433.56549111290718
 21
650.79999999999882
  0
LINE
  8
_0-0_計極細
  6
CONTINUOUS
 62
    2
 10
446.56549111290713
 20
656.39999999999918
 11
446.56549111290713
 21
650.79999999999882
  0
LINE
  8
_0-0_計極細
  6
CONTINUOUS
 62
    2
 10
433.56549111290718
 20
673.39999999999964
 11
433.56549111290718
 21
667.79999999999973
  0
LINE
  8
_0-0_計極細
  6
CONTINUOUS
 62
    2
 10
446.56549111290713
 20
673.39999999999964
 11
446.56549111290713
 21
667.79999999999973
  0
LINE
  8
_0-0_計極細
  6
CONTINUOUS
 62
    2
 10
433.56549111290718
 20
758.70000000000027
 11
433.56549111290718
 21
752.80000000000018
  0
LINE
  8
_0-0_計極細
  6
CONTINUOUS
 62
    2
 10
446.56549111290713
 20
758.70000000000027
 11
446.56549111290713
 21
752.80000000000018
  0
LINE
  8
_0-0_計極細
  6
CONTINUOUS
 62
    2
 10
433.56549111290718
 20
531.50000000000136
 11
433.56549111290718
 21
537.40000000000146
  0
LINE
  8
_0-0_計極細
  6
CONTINUOUS
 62
    2
 10
446.56549111290713
 20
531.50000000000136
 11
446.56549111290713
 21
537.40000000000146
  0
LINE
  8
_0-0_計極細
  6
CENTER1
 62
    2
 10
440.06549111290718
 20
778.85071942446302
 11
440.06549111290718
 21
512.34217625898873
  0
LINE
  8
_0-0_計極細
  6
CONTINUOUS
 62
    2
 10
433.56549111290718
 20
690.40000000000009
 11
433.56549111290718
 21
684.80000000000018
  0
LINE
  8
_0-0_計極細
  6
CONTINUOUS
 62
    2
 10
446.56549111290713
 20
690.40000000000009
 11
446.56549111290713
 21
684.80000000000018
  0
LINE
  8
_0-0_計極細
  6
CONTINUOUS
 62
    2
 10
433.56549111290718
 20
707.40000000000111
 11
433.56549111290718
 21
701.80000000000064
  0
LINE
  8
_0-0_計極細
  6
CONTINUOUS
 62
    2
 10
446.56549111290713
 20
707.40000000000111
 11
446.56549111290713
 21
701.80000000000064
  0
LINE
  8
_0-0_計極細
  6
CONTINUOUS
 62
    2
 10
433.56549111290718
 20
724.40000000000191
 11
433.56549111290718
 21
718.80000000000155
  0
LINE
  8
_0-0_計極細
  6
CONTINUOUS
 62
    2
 10
446.56549111290713
 20
724.40000000000191
 11
446.56549111290713
 21
718.80000000000155
  0
LINE
  8
_0-0_計極細
  6
CONTINUOUS
 62
    2
 10
433.56549111290718
 20
741.40000000000236
 11
433.56549111290718
 21
735.80000000000257
  0
LINE
  8
_0-0_計極細
  6
CONTINUOUS
 62
    2
 10
446.56549111290713
 20
741.40000000000236
 11
446.56549111290713
 21
735.80000000000257
  0
LINE
  8
_0-0_計極細
  6
CONTINUOUS
 62
    2
 10
433.56549111290718
 20
599.80000000000155
 11
433.56549111290718
 21
605.40000000000146
  0
LINE
  8
_0-0_計極細
  6
CONTINUOUS
 62
    2
 10
446.56549111290713
 20
599.80000000000155
 11
446.56549111290713
 21
605.40000000000146
  0
LINE
  8
_0-0_計極細
  6
CONTINUOUS
 62
    2
 10
433.56549111290718
 20
582.80000000000064
 11
433.56549111290718
 21
588.400000000001
  0
LINE
  8
_0-0_計極細
  6
CONTINUOUS
 62
    2
 10
446.56549111290713
 20
582.80000000000064
 11
446.56549111290713
 21
588.400000000001
  0
LINE
  8
_0-0_計極細
  6
CONTINUOUS
 62
    2
 10
433.56549111290718
 20
565.79999999999973
 11
433.56549111290718
 21
571.40000000000009
  0
LINE
  8
_0-0_計極細
  6
CONTINUOUS
 62
    2
 10
446.56549111290713
 20
565.79999999999973
 11
446.56549111290713
 21
571.40000000000009
  0
LINE
  8
_0-0_計極細
  6
CONTINUOUS
 62
    2
 10
433.56549111290718
 20
548.79999999999927
 11
433.56549111290718
 21
554.39999999999918
  0
LINE
  8
_0-0_計極細
  6
CONTINUOUS
 62
    2
 10
446.56549111290713
 20
548.79999999999927
 11
446.56549111290713
 21
554.39999999999918
  0
LINE
  8
_0-0_計極細
  6
CONTINUOUS
 62
    2
 10
695.56549111290701
 20
616.800000000002
 11
695.56549111290701
 21
622.40000000000191
  0
LINE
  8
_0-0_計極細
  6
CONTINUOUS
 62
    2
 10
708.56549111290701
 20
616.800000000002
 11
708.56549111290701
 21
622.40000000000191
  0
LINE
  8
_0-0_計極細
  6
CONTINUOUS
 62
    2
 10
695.56549111290701
 20
639.39999999999827
 11
695.56549111290701
 21
633.79999999999791
  0
LINE
  8
_0-0_計極細
  6
CONTINUOUS
 62
    2
 10
708.56549111290701
 20
639.39999999999827
 11
708.56549111290701
 21
633.79999999999791
  0
LINE
  8
_0-0_計極細
  6
CONTINUOUS
 62
    2
 10
695.56549111290701
 20
656.39999999999918
 11
695.56549111290701
 21
650.79999999999882
  0
LINE
  8
_0-0_計極細
  6
CONTINUOUS
 62
    2
 10
708.56549111290701
 20
656.39999999999918
 11
708.56549111290701
 21
650.79999999999882
  0
LINE
  8
_0-0_計極細
  6
CONTINUOUS
 62
    2
 10
695.56549111290701
 20
673.39999999999964
 11
695.56549111290701
 21
667.79999999999973
  0
LINE
  8
_0-0_計極細
  6
CONTINUOUS
 62
    2
 10
708.56549111290701
 20
673.39999999999964
 11
708.56549111290701
 21
667.79999999999973
  0
LINE
  8
_0-0_計極細
  6
CONTINUOUS
 62
    2
 10
695.56549111290701
 20
758.70000000000027
 11
695.56549111290701
 21
752.80000000000018
  0
LINE
  8
_0-0_計極細
  6
CONTINUOUS
 62
    2
 10
708.56549111290701
 20
758.70000000000027
 11
708.56549111290701
 21
752.80000000000018
  0
LINE
  8
_0-0_計極細
  6
CONTINUOUS
 62
    2
 10
695.56549111290701
 20
531.50000000000136
 11
695.56549111290701
 21
537.40000000000146
  0
LINE
  8
_0-0_計極細
  6
CONTINUOUS
 62
    2
 10
708.56549111290701
 20
531.50000000000136
 11
708.56549111290701
 21
537.40000000000146
  0
LINE
  8
_0-0_計極細
  6
CENTER1
 62
    2
 10
702.06549111290701
 20
778.85071942446302
 11
702.06549111290701
 21
512.34217625898873
  0
LINE
  8
_0-0_計極細
  6
CONTINUOUS
 62
    2
 10
695.56549111290701
 20
690.40000000000009
 11
695.56549111290701
 21
684.80000000000018
  0
LINE
  8
_0-0_計極細
  6
CONTINUOUS
 62
    2
 10
708.56549111290701
 20
690.40000000000009
 11
708.56549111290701
 21
684.80000000000018
  0
LINE
  8
_0-0_計極細
  6
CONTINUOUS
 62
    2
 10
695.56549111290701
 20
707.40000000000111
 11
695.56549111290701
 21
701.80000000000064
  0
LINE
  8
_0-0_計極細
  6
CONTINUOUS
 62
    2
 10
708.56549111290701
 20
707.40000000000111
 11
708.56549111290701
 21
701.80000000000064
  0
LINE
  8
_0-0_計極細
  6
CONTINUOUS
 62
    2
 10
695.56549111290701
 20
724.40000000000191
 11
695.56549111290701
 21
718.80000000000155
  0
LINE
  8
_0-0_計極細
  6
CONTINUOUS
 62
    2
 10
708.56549111290701
 20
724.40000000000191
 11
708.56549111290701
 21
718.80000000000155
  0
LINE
  8
_0-0_計極細
  6
CONTINUOUS
 62
    2
 10
695.56549111290701
 20
741.40000000000236
 11
695.56549111290701
 21
735.80000000000257
  0
LINE
  8
_0-0_計極細
  6
CONTINUOUS
 62
    2
 10
708.56549111290701
 20
741.40000000000236
 11
708.56549111290701
 21
735.80000000000257
  0
LINE
  8
_0-0_計極細
  6
CONTINUOUS
 62
    2
 10
695.56549111290701
 20
599.80000000000155
 11
695.56549111290701
 21
605.40000000000146
  0
LINE
  8
_0-0_計極細
  6
CONTINUOUS
 62
    2
 10
708.56549111290701
 20
599.80000000000155
 11
708.56549111290701
 21
605.40000000000146
  0
LINE
  8
_0-0_計極細
  6
CONTINUOUS
 62
    2
 10
695.56549111290701
 20
582.80000000000064
 11
695.56549111290701
 21
588.400000000001
  0
LINE
  8
_0-0_計極細
  6
CONTINUOUS
 62
    2
 10
708.56549111290701
 20
582.80000000000064
 11
708.56549111290701
 21
588.400000000001
  0
LINE
  8
_0-0_計極細
  6
CONTINUOUS
 62
    2
 10
695.56549111290701
 20
565.79999999999973
 11
695.56549111290701
 21
571.40000000000009
  0
LINE
  8
_0-0_計極細
  6
CONTINUOUS
 62
    2
 10
708.56549111290701
 20
565.79999999999973
 11
708.56549111290701
 21
571.40000000000009
  0
LINE
  8
_0-0_計極細
  6
CONTINUOUS
 62
    2
 10
695.56549111290701
 20
548.79999999999927
 11
695.56549111290701
 21
554.39999999999918
  0
LINE
  8
_0-0_計極細
  6
CONTINUOUS
 62
    2
 10
708.56549111290701
 20
548.79999999999927
 11
708.56549111290701
 21
554.39999999999918
  0
LINE
  8
_0-5_寸法線
  6
CONTINUOUS
 62
    7
 10
231.06549111290747
 20
785.099999999999
 11
231.06549111290875
 21
865.099999999999
  0
LINE
  8
_0-5_寸法線
  6
CONTINUOUS
 62
    7
 10
231.0654911129086
 20
860.099999999999
 11
238.30993481007667
 21
862.041142838268
  0
LINE
  8
_0-5_寸法線
  6
CONTINUOUS
 62
    7
 10
231.0654911129086
 20
860.099999999999
 11
238.30993481007667
 21
858.15885716173011
  0
LINE
  8
_0-5_寸法線
  6
CONTINUOUS
 62
    7
 10
812.06549111290713
 20
785.099999999999
 11
812.0654911129086
 21
865.099999999999
  0
LINE
  8
_0-5_寸法線
  6
CONTINUOUS
 62
    7
 10
812.06549111290838
 20
860.099999999999
 11
804.82104741574051
 21
858.15885716173011
  0
LINE
  8
_0-5_寸法線
  6
CONTINUOUS
 62
    7
 10
812.06549111290838
 20
860.099999999999
 11
804.82104741574051
 21
862.041142838268
  0
LINE
  8
_0-5_寸法線
  6
CONTINUOUS
 62
    7
 10
231.0654911129086
 20
860.099999999999
 11
812.06549111290838
 21
860.099999999999
  0
TEXT
  8
_0-5_寸法線
 62
    7
 10
514.06549111290849
 20
860.099999999999
 40
15
 41
1
 50
0
  1
Ｌ
  0
LINE
  8
_0-5_寸法線
  6
CONTINUOUS
 62
    7
 10
231.06549111290732
 20
785.09999999999991
 11
231.06549111290724
 21
830.099999999999
  0
LINE
  8
_0-5_寸法線
  6
CONTINUOUS
 62
    7
 10
231.06549111290724
 20
825.099999999999
 11
240.72474937579798
 21
827.68819045102418
  0
LINE
  8
_0-5_寸法線
  6
CONTINUOUS
 62
    7
 10
231.06549111290724
 20
825.099999999999
 11
240.72474937579798
 21
822.51180954897393
  0
LINE
  8
_0-5_寸法線
  6
CONTINUOUS
 62
    7
 10
246.06549111290732
 20
785.09999999999991
 11
246.06549111290724
 21
830.099999999999
  0
LINE
  8
_0-5_寸法線
  6
CONTINUOUS
 62
    7
 10
246.06549111290724
 20
825.099999999999
 11
236.40623285001652
 21
822.51180954897393
  0
LINE
  8
_0-5_寸法線
  6
CONTINUOUS
 62
    7
 10
246.06549111290724
 20
825.099999999999
 11
236.40623285001658
 21
827.68819045102418
  0
LINE
  8
_0-5_寸法線
  6
CONTINUOUS
 62
    7
 10
231.06549111290724
 20
825.099999999999
 11
246.06549111290724
 21
825.099999999999
  0
TEXT
  8
_0-5_寸法線
 62
    7
 10
231.06549111290724
 20
825.099999999999
 40
15
 41
1
 50
0
  1
Ａ
  0
LINE
  8
_0-5_寸法線
  6
CONTINUOUS
 62
    7
 10
797.06549111290713
 20
785.09999999999991
 11
797.06549111290713
 21
830.099999999999
  0
LINE
  8
_0-5_寸法線
  6
CONTINUOUS
 62
    7
 10
797.06549111290713
 20
825.099999999999
 11
806.72474937579773
 21
827.68819045102418
  0
LINE
  8
_0-5_寸法線
  6
CONTINUOUS
 62
    7
 10
797.06549111290713
 20
825.099999999999
 11
806.72474937579773
 21
822.51180954897393
  0
LINE
  8
_0-5_寸法線
  6
CONTINUOUS
 62
    7
 10
812.06549111290713
 20
785.09999999999991
 11
812.06549111290713
 21
830.099999999999
  0
LINE
  8
_0-5_寸法線
  6
CONTINUOUS
 62
    7
 10
812.06549111290713
 20
825.099999999999
 11
802.40623285001629
 21
822.51180954897393
  0
LINE
  8
_0-5_寸法線
  6
CONTINUOUS
 62
    7
 10
812.06549111290713
 20
825.099999999999
 11
802.40623285001629
 21
827.68819045102418
  0
LINE
  8
_0-5_寸法線
  6
CONTINUOUS
 62
    7
 10
797.06549111290713
 20
825.099999999999
 11
812.06549111290713
 21
825.099999999999
  0
TEXT
  8
_0-5_寸法線
 62
    7
 10
797.06549111290713
 20
825.099999999999
 40
15
 41
1
 50
0
  1
Ａ
  0
LINE
  8
_0-5_寸法線
  6
CONTINUOUS
 62
    7
 10
343.0654911129073
 20
785.10000000000048
 11
343.0654911129073
 21
830.099999999999
  0
LINE
  8
_0-5_寸法線
  6
CONTINUOUS
 62
    7
 10
343.0654911129073
 20
825.099999999999
 11
352.72474937579796
 21
827.68819045102418
  0
LINE
  8
_0-5_寸法線
  6
CONTINUOUS
 62
    7
 10
343.0654911129073
 20
825.099999999999
 11
352.72474937579796
 21
822.51180954897393
  0
LINE
  8
_0-5_寸法線
  6
CONTINUOUS
 62
    7
 10
440.06549111290718
 20
785.10000000000048
 11
440.06549111290724
 21
830.099999999999
  0
LINE
  8
_0-5_寸法線
  6
CONTINUOUS
 62
    7
 10
440.06549111290724
 20
825.099999999999
 11
430.40623285001658
 21
822.51180954897393
  0
LINE
  8
_0-5_寸法線
  6
CONTINUOUS
 62
    7
 10
440.06549111290724
 20
825.099999999999
 11
430.40623285001658
 21
827.68819045102418
  0
LINE
  8
_0-5_寸法線
  6
CONTINUOUS
 62
    7
 10
343.0654911129073
 20
825.099999999999
 11
440.06549111290724
 21
825.099999999999
  0
TEXT
  8
_0-5_寸法線
 62
    7
 10
384.0654911129073
 20
825.099999999999
 40
15
 41
1
 50
0
  1
97
  0
LINE
  8
_0-5_寸法線
  6
CONTINUOUS
 62
    7
 10
440.06549111290724
 20
825.099999999999
 11
449.72474937579796
 21
827.68819045102418
  0
LINE
  8
_0-5_寸法線
  6
CONTINUOUS
 62
    7
 10
440.06549111290724
 20
825.099999999999
 11
449.7247493757979
 21
822.51180954897382
  0
LINE
  8
_0-5_寸法線
  6
CONTINUOUS
 62
    7
 10
537.06549111290713
 20
785.10000000000048
 11
537.06549111290724
 21
830.099999999999
  0
LINE
  8
_0-5_寸法線
  6
CONTINUOUS
 62
    7
 10
537.06549111290724
 20
825.099999999999
 11
527.40623285001652
 21
822.51180954897393
  0
LINE
  8
_0-5_寸法線
  6
CONTINUOUS
 62
    7
 10
537.06549111290724
 20
825.099999999999
 11
527.40623285001652
 21
827.68819045102418
  0
LINE
  8
_0-5_寸法線
  6
CONTINUOUS
 62
    7
 10
440.06549111290724
 20
825.099999999999
 11
537.06549111290724
 21
825.099999999999
  0
TEXT
  8
_0-5_寸法線
 62
    7
 10
481.06549111290724
 20
825.099999999999
 40
15
 41
1
 50
0
  1
97
  0
LINE
  8
_0-5_寸法線
  6
CONTINUOUS
 62
    7
 10
537.06549111290724
 20
825.099999999999
 11
546.72474937579796
 21
827.68819045102418
  0
LINE
  8
_0-5_寸法線
  6
CONTINUOUS
 62
    7
 10
537.06549111290724
 20
825.099999999999
 11
546.72474937579796
 21
822.51180954897382
  0
LINE
  8
_0-5_寸法線
  6
CONTINUOUS
 62
    7
 10
605.06549111290701
 20
785.10000000000048
 11
605.06549111290713
 21
830.099999999999
  0
LINE
  8
_0-5_寸法線
  6
CONTINUOUS
 62
    7
 10
605.06549111290713
 20
825.099999999999
 11
595.40623285001641
 21
822.51180954897393
  0
LINE
  8
_0-5_寸法線
  6
CONTINUOUS
 62
    7
 10
605.06549111290713
 20
825.099999999999
 11
595.40623285001641
 21
827.68819045102418
  0
LINE
  8
_0-5_寸法線
  6
CONTINUOUS
 62
    7
 10
537.06549111290724
 20
825.099999999999
 11
605.06549111290713
 21
825.099999999999
  0
TEXT
  8
_0-5_寸法線
 62
    7
 10
563.56549111290724
 20
825.099999999999
 40
15
 41
1
 50
0
  1
Ｂ
  0
LINE
  8
_0-5_寸法線
  6
CONTINUOUS
 62
    7
 10
558.90506087376718
 20
559.89689244468263
 11
563.90506088064876
 21
551.23663841081134
  0
LINE
  8
_0-5_寸法線
  6
CONTINUOUS
 62
    7
 10
558.90506087376718
 20
559.89689244468263
 11
558.90506088171333
 21
549.89689244468263
  0
LINE
  8
_0-5_寸法線
  6
CONTINUOUS
 62
    7
 10
558.90506087376718
 20
559.89689244468263
 11
582.26254406806231
 21
472.72557870370798
  0
LINE
  8
_0-5_寸法線
  6
CONTINUOUS
 62
    7
 10
582.26254406806231
 20
472.72557870370798
 11
714.2625440680622
 21
472.72557870370798
  0
TEXT
  8
_0-5_寸法線
 62
    7
 10
582.26254406806231
 20
472.72557870370798
 40
15
 41
0.8000000000000001
 50
0
  1
セーフティグレーチング
  0
LINE
  8
_0-7_枠細線
  6
CONTINUOUS
 62
    5
 10
373.29236910249443
 20
828.27092351284034
 11
365.79236910249443
 21
843.27092351284034
  0
LINE
  8
_0-7_枠細線
  6
CONTINUOUS
 62
    5
 10
358.29236910249443
 20
828.27092351284034
 11
373.29236910249443
 21
828.27092351284034
  0
LINE
  8
_0-7_枠細線
  6
CONTINUOUS
 62
    5
 10
365.79236910249443
 20
843.27092351284034
 11
358.29236910249443
 21
828.27092351284034
  0
TEXT
  8
_0-7_枠細線
 62
    5
 10
360.65752037064249
 20
827.96392126745991
 40
12.5
 41
0.8
 50
0
  1
１
  0
TEXT
  8
_0-5_寸法線
 62
    7
 10
582.26254401686231
 20
457.72557870370798
 40
15
 41
0.8000000000000001
 50
0
  1
ＧＲＳ－２５Ｗ２５０
  0
LINE
  8
_0-1_計細線
  6
CONTINUOUS
 62
    3
 10
231.06549111290724
 20
667.79999999999973
 11
814.06549111290701
 21
667.79999999999973
  0
LINE
  8
_0-1_計細線
  6
CONTINUOUS
 62
    3
 10
814.06549111290701
 20
667.79999999999973
 11
814.06549111290701
 21
656.39999999999918
  0
LINE
  8
_0-0_計極細
  6
CONTINUOUS
 62
    2
 10
231.06549111290724
 20
659.59999999999911
 11
814.06549111290701
 21
659.59999999999911
  0
LINE
  8
_0-0_計極細
  6
CONTINUOUS
 62
    2
 10
231.06549111290724
 20
664.59999999999911
 11
814.06549111290701
 21
664.59999999999911
  0
LINE
  8
_0-1_計細線
  6
CONTINUOUS
 62
    3
 10
231.06549111290724
 20
639.39999999999827
 11
814.06549111290701
 21
639.39999999999827
  0
LINE
  8
_0-1_計細線
  6
CONTINUOUS
 62
    3
 10
814.06549111290701
 20
650.79999999999882
 11
814.06549111290701
 21
639.39999999999827
  0
LINE
  8
_0-0_計極細
  6
CONTINUOUS
 62
    2
 10
231.06549111290724
 20
642.59999999999866
 11
814.06549111290701
 21
642.59999999999866
  0
LINE
  8
_0-0_計極細
  6
CONTINUOUS
 62
    2
 10
231.06549111290724
 20
647.59999999999866
 11
814.06549111290701
 21
647.59999999999866
  0
LINE
  8
_0-1_計細線
  6
CONTINUOUS
 62
    3
 10
231.06549111290724
 20
656.39999999999918
 11
814.06549111290701
 21
656.39999999999918
  0
LINE
  8
_0-1_計細線
  6
CONTINUOUS
 62
    3
 10
231.06549111290724
 20
667.79999999999973
 11
231.06549111290724
 21
656.39999999999918
  0
LINE
  8
_0-1_計細線
  6
CONTINUOUS
 62
    3
 10
231.06549111290724
 20
650.79999999999882
 11
231.06549111290724
 21
639.39999999999827
  0
LINE
  8
_0-1_計細線
  6
CONTINUOUS
 62
    3
 10
231.06549111290724
 20
650.79999999999882
 11
814.06549111290701
 21
650.79999999999882
  0
LINE
  8
_0-1_計細線
  6
CONTINUOUS
 62
    3
 10
298.06549111290678
 20
651.24999999999909
 11
357.06549111290678
 21
651.24999999999909
  0
LINE
  8
_0-1_計細線
  6
CONTINUOUS
 62
    3
 10
357.06549111290678
 20
655.94999999999902
 11
298.06549111290678
 21
655.94999999999902
  0
LINE
  8
_0-1_計細線
  6
CONTINUOUS
 62
    3
 10
298.06549111290678
 20
655.94999999999902
 11
298.06549111290678
 21
651.24999999999909
  0
LINE
  8
_0-1_計細線
  6
CONTINUOUS
 62
    3
 10
347.06549111290678
 20
655.94999999999902
 11
347.06549111290678
 21
651.24999999999909
  0
LINE
  8
_0-1_計細線
  6
CONTINUOUS
 62
    3
 10
355.06549111290678
 20
655.94999999999902
 11
355.06549111290678
 21
651.24999999999909
  0
LINE
  8
_0-1_計細線
  6
CONTINUOUS
 62
    3
 10
357.06549111290678
 20
655.94999999999902
 11
357.06549111290678
 21
651.24999999999909
  0
LINE
  8
_0-1_計細線
  6
CONTINUOUS
 62
    3
 10
353.06549111290678
 20
655.94999999999902
 11
353.06549111290678
 21
651.24999999999909
  0
LINE
  8
_0-1_計細線
  6
CONTINUOUS
 62
    3
 10
351.06549111290684
 20
655.94999999999902
 11
351.06549111290684
 21
651.24999999999909
  0
LINE
  8
_0-1_計細線
  6
CONTINUOUS
 62
    3
 10
349.06549111290678
 20
655.94999999999902
 11
349.06549111290678
 21
651.24999999999909
  0
LINE
  8
_0-0_計極細
  6
CONTINUOUS
 62
    2
 10
336.56549111290724
 20
656.39999999999918
 11
336.56549111290724
 21
655.94999999999902
  0
LINE
  8
_0-0_計極細
  6
CONTINUOUS
 62
    2
 10
336.56549111290724
 20
651.24999999999909
 11
336.56549111290724
 21
650.79999999999882
  0
LINE
  8
_0-0_計極細
  6
CONTINUOUS
 62
    2
 10
349.56549111290724
 20
656.39999999999918
 11
349.56549111290724
 21
655.94999999999902
  0
LINE
  8
_0-0_計極細
  6
CONTINUOUS
 62
    2
 10
349.56549111290724
 20
651.24999999999909
 11
349.56549111290724
 21
650.79999999999882
  0
LINE
  8
_0-5_寸法線
  6
CONTINUOUS
 62
    7
 10
310.91929133997837
 20
652.70959394528472
 11
315.91929133263
 21
644.04933990319773
  0
LINE
  8
_0-5_寸法線
  6
CONTINUOUS
 62
    7
 10
310.91929133997837
 20
652.70959394528472
 11
310.91929133149324
 21
642.70959394528472
  0
LINE
  8
_0-5_寸法線
  6
CONTINUOUS
 62
    7
 10
310.91929133997837
 20
652.70959394528472
 11
359.14586271078497
 21
472.72557870370798
  0
LINE
  8
_0-5_寸法線
  6
CONTINUOUS
 62
    7
 10
359.14586271078497
 20
472.72557870370798
 11
419.14586271078497
 21
472.72557870370798
  0
TEXT
  8
_0-5_寸法線
 62
    7
 10
359.14586271078497
 20
472.72557870370798
 40
15
 41
0.8000000000000001
 50
0
  1
取　外　具
  0
TEXT
  8
_0-5_寸法線
 62
    7
 10
359.14586271078497
 20
457.72557870370798
 40
15
 41
0.8000000000000001
 50
0
  1
(標準付属)
  0
TEXT
  8
_0-7_枠細線
 62
    5
 10
363.77760690142446
 20
489.98126861190337
 40
12.5
 41
0.8
 50
0
  1
２
  0
LINE
  8
_0-7_枠細線
  6
CONTINUOUS
 62
    5
 10
376.41245563327629
 20
490.28827085728386
 11
368.91245563327629
 21
505.28827085728381
  0
LINE
  8
_0-7_枠細線
  6
CONTINUOUS
 62
    5
 10
361.41245563327629
 20
490.28827085728386
 11
376.41245563327629
 21
490.28827085728386
  0
LINE
  8
_0-7_枠細線
  6
CONTINUOUS
 62
    5
 10
368.91245563327629
 20
505.28827085728381
 11
361.41245563327629
 21
490.28827085728386
  0
LINE
  8
_0-7_枠細線
  6
CONTINUOUS
 62
    5
 10
395.12643954797278
 20
490.28827085728386
 11
387.62643954797278
 21
505.28827085728381
  0
LINE
  8
_0-7_枠細線
  6
CONTINUOUS
 62
    5
 10
380.12643954797278
 20
490.28827085728386
 11
395.12643954797278
 21
490.28827085728386
  0
LINE
  8
_0-7_枠細線
  6
CONTINUOUS
 62
    5
 10
387.62643954797278
 20
505.28827085728381
 11
380.12643954797278
 21
490.28827085728386
  0
TEXT
  8
_0-7_枠細線
 62
    5
 10
382.49159081612083
 20
489.7405869671025
 40
12.5
 41
0.8
 50
0
  1
３
  0
LINE
  8
_0-5_寸法線
  6
CONTINUOUS
 62
    7
 10
433.20521043405614
 20
517.07500000000209
 11
438.20521044518057
 21
508.41474596858041
  0
LINE
  8
_0-5_寸法線
  6
CONTINUOUS
 62
    7
 10
433.20521043405614
 20
517.07500000000209
 11
433.20521044690162
 21
507.07500000000209
  0
LINE
  8
_0-5_寸法線
  6
CONTINUOUS
 62
    7
 10
433.20521043405614
 20
517.07500000000209
 11
445.04657999152198
 21
472.88240740740957
  0
LINE
  8
_0-5_寸法線
  6
CONTINUOUS
 62
    7
 10
445.04657999152198
 20
472.88240740740957
 11
553.04657999152187
 21
472.88240740740957
  0
TEXT
  8
_0-5_寸法線
 62
    7
 10
445.04657999152198
 20
473.48240740740948
 40
15
 41
0.8000000000000001
 50
0
  1
ＳＵＳアングル受枠
  0
TEXT
  8
_0-5_寸法線
 62
    7
 10
445.04657999152198
 20
457.88240740740957
 40
15
 41
0.8000000000000001
 50
0
  1
ＧＳＬ－２５
  0
TEXT
  8
_0-7_枠細線
 62
    5
 10
938.85037037037023
 20
840
 40
12.5
 41
1
 50
0
  1
アンカー材質･厚み変更
  0
LINE
  8
_0-5_寸法線
  6
CONTINUOUS
 62
    7
 10
883.56549111290622
 20
775.10000000000048
 11
880.97730066188092
 21
784.75925826289108
  0
LINE
  8
_0-5_寸法線
  6
CONTINUOUS
 62
    7
 10
883.56549111290622
 20
775.10000000000048
 11
886.15368156393129
 21
784.75925826289108
  0
LINE
  8
_0-5_寸法線
  6
CONTINUOUS
 62
    7
 10
843.56549111290747
 20
772.10000000000036
 11
888.56549111290622
 21
772.10000000000036
  0
CIRCLE
  8
_0-5_寸法線
  6
CONTINUOUS
 62
    1
 10
883.56549111290622
 20
772.10000000000036
 40
1.5000000000000002
  0
LINE
  8
_0-5_寸法線
  6
CONTINUOUS
 62
    7
 10
883.56549111290622
 20
800.10000000000048
 11
883.56549111290622
 21
772.10000000000036
  0
TEXT
  8
_0-5_寸法線
 62
    7
 10
883.56549111290622
 20
788.92191835116932
 40
15
 41
1
 50
90
  1
3
  0
LINE
  8
_0-5_寸法線
  6
CONTINUOUS
 62
    7
 10
843.56549111290747
 20
770.10000000000127
 11
888.56549111290622
 21
770.10000000000127
  0
LINE
  8
_0-5_寸法線
  6
CONTINUOUS
 62
    7
 10
883.56549111290622
 20
772.10000000000036
 11
883.56549111290622
 21
770.10000000000127
  0
TEXT
  8
_0-5_寸法線
 62
    7
 10
904.95662130620531
 20
764.16879523201385
 40
15
 41
1
 50
90
  1
2
  0
LINE
  8
_0-5_寸法線
  6
CONTINUOUS
 62
    7
 10
883.56549111290622
 20
770.10000000000127
 11
886.15368156393129
 21
760.44074173711056
  0
LINE
  8
_0-5_寸法線
  6
CONTINUOUS
 62
    7
 10
883.56549111290622
 20
770.10000000000127
 11
880.97730066188092
 21
760.44074173711056
  0
LINE
  8
_0-5_寸法線
  6
CONTINUOUS
 62
    7
 10
843.56549111290747
 20
520.10000000000082
 11
888.56549111290656
 21
520.10000000000082
  0
LINE
  8
_0-5_寸法線
  6
CONTINUOUS
 62
    7
 10
883.56549111290656
 20
520.10000000000082
 11
880.97730066188149
 21
529.75925826289154
  0
LINE
  8
_0-5_寸法線
  6
CONTINUOUS
 62
    7
 10
883.56549111290656
 20
520.10000000000082
 11
886.15368156393174
 21
529.75925826289154
  0
LINE
  8
_0-5_寸法線
  6
CONTINUOUS
 62
    7
 10
883.56549111290622
 20
770.10000000000127
 11
883.56549111290656
 21
520.10000000000082
  0
TEXT
  8
_0-5_寸法線
 62
    7
 10
883.56549111290633
 20
633.85000000000127
 40
15
 41
1
 50
90
  1
250
  0
LINE
  8
_0-5_寸法線
  6
CONTINUOUS
 62
    7
 10
843.56549111290747
 20
518.10000000000173
 11
888.56549111290656
 21
518.10000000000173
  0
CIRCLE
  8
_0-5_寸法線
  6
CONTINUOUS
 62
    1
 10
883.56549111290656
 20
518.10000000000173
 40
1.5000000000000002
  0
LINE
  8
_0-5_寸法線
  6
CONTINUOUS
 62
    7
 10
883.56549111290656
 20
520.10000000000082
 11
883.56549111290656
 21
518.10000000000173
  0
TEXT
  8
_0-5_寸法線
 62
    7
 10
904.01124469693627
 20
518.10234729378578
 40
15
 41
1
 50
90
  1
2
  0
LINE
  8
_0-5_寸法線
  6
CONTINUOUS
 62
    7
 10
883.56549111290656
 20
515.09999999999673
 11
886.15368156393174
 21
505.44074173710607
  0
LINE
  8
_0-5_寸法線
  6
CONTINUOUS
 62
    7
 10
883.56549111290656
 20
515.09999999999673
 11
880.97730066188137
 21
505.44074173710612
  0
LINE
  8
_0-5_寸法線
  6
CONTINUOUS
 62
    7
 10
883.56549111290656
 20
518.10000000000173
 11
883.56549111290656
 21
490.09999999999678
  0
TEXT
  8
_0-5_寸法線
 62
    7
 10
883.56549111290656
 20
493.50336166527177
 40
15
 41
1
 50
90
  1
3
  0
LINE
  8
_0-d_寸法3
  6
CONTINUOUS
 62
    7
 10
276.40882398127388
 20
360.37912319733147
 11
266.74956571838311
 21
357.79093274630623
  0
LINE
  8
_0-d_寸法3
  6
CONTINUOUS
 62
    7
 10
276.40882398127388
 20
360.37912319733147
 11
266.74956571838322
 21
362.96731364835665
  0
LINE
  8
_0-d_寸法3
  6
CONTINUOUS
 62
    7
 10
281.40882398127388
 20
289.54579153234272
 11
281.40882398127388
 21
365.37912319733147
  0
CIRCLE
  8
_0-d_寸法3
  6
CONTINUOUS
 62
    1
 10
281.40882398127388
 20
360.37912319733147
 40
1.5000000000000002
  0
LINE
  8
_0-d_寸法3
  6
CONTINUOUS
 62
    7
 10
251.40882398127388
 20
360.37912319733147
 11
281.40882398127388
 21
360.37912319733147
  0
TEXT
  8
_0-d_寸法3
 62
    7
 10
255.2641560373506
 20
360.37912319733147
 40
15
 41
1
 50
0
  1
3
  0
LINE
  8
_0-d_寸法3
  6
CONTINUOUS
 62
    7
 10
284.74215731460686
 20
287.04578986399792
 11
284.74215731460737
 21
365.37912319733147
  0
LINE
  8
_0-d_寸法3
  6
CONTINUOUS
 62
    7
 10
281.40882398127388
 20
360.37912319733147
 11
284.74215731460731
 21
360.37912319733147
  0
TEXT
  8
_0-d_寸法3
 62
    7
 10
279.32549064794034
 20
360.37912319733147
 40
15
 41
1
 50
0
  1
2
  0
LINE
  8
_0-d_寸法3
  6
CONTINUOUS
 62
    7
 10
284.74215731460731
 20
360.37912319733147
 11
294.40141557749797
 21
362.96731364835659
  0
LINE
  8
_0-d_寸法3
  6
CONTINUOUS
 62
    7
 10
284.74215731460731
 20
360.37912319733147
 11
294.40141557749797
 21
357.79093274630623
  0
LINE
  8
_0-d_寸法3
  6
CONTINUOUS
 62
    7
 10
701.40882398127405
 20
287.04578986399792
 11
701.40882398127405
 21
365.37912319733147
  0
LINE
  8
_0-d_寸法3
  6
CONTINUOUS
 62
    7
 10
701.40882398127405
 20
360.37912319733147
 11
691.74956571838334
 21
357.79093274630623
  0
LINE
  8
_0-d_寸法3
  6
CONTINUOUS
 62
    7
 10
701.40882398127405
 20
360.37912319733147
 11
691.74956571838334
 21
362.96731364835665
  0
LINE
  8
_0-d_寸法3
  6
CONTINUOUS
 62
    7
 10
284.74215731460731
 20
360.37912319733147
 11
701.40882398127405
 21
360.37912319733147
  0
TEXT
  8
_0-d_寸法3
 62
    7
 10
481.8254906479408
 20
360.37912319733147
 40
15
 41
1
 50
0
  1
250
  0
LINE
  8
_0-d_寸法3
  6
CONTINUOUS
 62
    7
 10
704.7421573146072
 20
289.54579153234272
 11
704.74215731460754
 21
365.37912319733147
  0
CIRCLE
  8
_0-d_寸法3
  6
CONTINUOUS
 62
    1
 10
704.74215731460754
 20
360.37912319733147
 40
1.5000000000000002
  0
LINE
  8
_0-d_寸法3
  6
CONTINUOUS
 62
    7
 10
701.40882398127405
 20
360.37912319733147
 11
704.74215731460754
 21
360.37912319733147
  0
TEXT
  8
_0-d_寸法3
 62
    7
 10
699.32549064794102
 20
360.37912319733147
 40
15
 41
1
 50
0
  1
2
  0
LINE
  8
_0-d_寸法3
  6
CONTINUOUS
 62
    7
 10
709.74215731460754
 20
360.37912319733147
 11
719.40141557749826
 21
362.96731364835659
  0
LINE
  8
_0-d_寸法3
  6
CONTINUOUS
 62
    7
 10
709.74215731460754
 20
360.37912319733147
 11
719.40141557749826
 21
357.79093274630617
  0
LINE
  8
_0-d_寸法3
  6
CONTINUOUS
 62
    7
 10
704.74215731460754
 20
360.37912319733147
 11
734.74215731460754
 21
360.37912319733147
  0
TEXT
  8
_0-d_寸法3
 62
    7
 10
721.84128242392251
 20
360.37912319733147
 40
15
 41
1
 50
0
  1
3
  0
ENDSEC
  0
EOF
