  0
SECTION
  2
HEADER
  9
$ACADVER
  1
AC1009
  9
$INSBASE
 10
0
 20
0
 30
0
  9
$EXTMIN
 10
0
 20
0
  9
$EXTMAX
 10
594
 20
420
  9
$LIMMIN
 10
0
 20
0
  9
$LIMMAX
 10
594
 20
420
  9
$LTSCALE
 40
2
  0
ENDSEC
  0
SECTION
  2
TABLES
  0
TABLE
  2
LTYPE
 70
     9
  0
LTYPE
  2
CONTINUOUS
 70
    64
  3
実線
 72
    65
 73
     0
 40
0.0
  0
LTYPE
  2
DASHED1
 70
    64
  3
--  --  --  --  --  --  --  --  
 72
    65
 73
     2
 40
2.5
 49
1.25
 49
-1.25
  0
LTYPE
  2
DASHED2
 70
    64
  3
----    ----    ----    ----    
 72
    65
 73
     2
 40
5.0
 49
2.5
 49
-2.5
  0
LTYPE
  2
DASHED3
 70
    64
  3
------  ------  ------  ------  
 72
    65
 73
     2
 40
5.0
 49
3.75
 49
-1.25
  0
LTYPE
  2
CENTER1
 70
    64
  3
----- - ----- - ----- - ----- - 
 72
    65
 73
     4
 40
10.0
 49
6.25
 49
-1.25
 49
1.25
 49
-1.25
  0
LTYPE
  2
CENTER2
 70
    64
  3
----------  --  ----------  --  
 72
    65
 73
     4
 40
20.0
 49
12.5
 49
-2.5
 49
2.5
 49
-2.5
  0
LTYPE
  2
PHANTOM1
 70
    64
  3
--- - - --- - - --- - - --- - - 
 72
    65
 73
     6
 40
10.0
 49
3.25
 49
-1.25
 49
1.25
 49
-1.25
 49
1.25
 49
-1.25
  0
LTYPE
  2
PHANTOM2
 70
    64
  3
--------  -  -  --------  -  -  
 72
    65
 73
     6
 40
20.0
 49
10.0
 49
-2.5
 49
1.25
 49
-2.5
 49
1.25
 49
-2.5
  0
LTYPE
  2
DOT
 70
    64
  3
-   -   -   -   -   -   -   -   
 72
    65
 73
     2
 40
2.5
 49
0.625
 49
-1.875
  0
LTYPE
  2
DUMMY
 70
    64
  3
ダミー
 72
    65
 73
     0
 40
0.0
  0
LTYPE
  2
RAND1
 70
    64
  3
ランダム線1
 72
    65
 73
     4
 40
10.0
 49
1.0
 49
-2.0
 49
3.0
 49
-4.0
  0
LTYPE
  2
RAND2
 70
    64
  3
ランダム線2
 72
    65
 73
     4
 40
14.0
 49
2.0
 49
-3.0
 49
4.0
 49
-5.0
  0
LTYPE
  2
RAND3
 70
    64
  3
ランダム線3
 72
    65
 73
     4
 40
18.0
 49
3.0
 49
-4.0
 49
5.0
 49
-6.0
  0
LTYPE
  2
RAND4
 70
    64
  3
ランダム線4
 72
    65
 73
     4
 40
22.0
 49
4.0
 49
-5.0
 49
6.0
 49
-7.0
  0
LTYPE
  2
RAND5
 70
    64
  3
ランダム線5
 72
    65
 73
     4
 40
26.0
 49
5.0
 49
-6.0
 49
7.0
 49
-8.0
  0
LTYPE
  2
LONG1
 70
    64
  3
----------  --  ----------  --  
 72
    65
 73
     4
 40
40.0
 49
32.5
 49
-2.5
 49
2.5
 49
-2.5
  0
LTYPE
  2
LONG2
 70
    64
  3
--------  -  -  --------  -  -  
 72
    65
 73
     6
 40
40.0
 49
30.0
 49
-2.5
 49
1.25
 49
-2.5
 49
1.25
 49
-2.5
  0
LTYPE
  2
LONG3
 70
    64
  3
+++++++++++++++..+++++++++++++++
 72
    65
 73
     2
 40
40.0
 49
37.5
 49
-2.5
  0
LTYPE
  2
LONG4
 70
    64
  3
+++++++++++++++..+++++++++++++++
 72
    65
 73
     2
 40
80.0
 49
75.0
 49
-5.0
  0
LTYPE
  2
LONG5
 70
    64
  3
----------  --  ----------  --  
 72
    65
 73
     4
 40
60.0
 49
37.5
 49
-7.5
 49
7.5
 49
-7.5
  0
LTYPE
  2
dashed
 70
   64
  3
-------   -------------   ------
 72
   65
 73
    2
 40
7.5
 49
6
 49
-1.5
  0
LTYPE
  2
dashed_spaced
 70
   64
  3
----        --------        ----
 72
   65
 73
    2
 40
12
 49
6
 49
-6
  0
LTYPE
  2
long_dashed_dotted
 70
   64
  3
------------- --- --------------
 72
   65
 73
    4
 40
15.25
 49
12
 49
-1.5
 49
0.25
 49
-1.5
  0
LTYPE
  2
long_dashed_double-dotted
 70
   64
  3
----------- --- --- ------------
 72
   65
 73
    6
 40
17
 49
12
 49
-1.5
 49
0.25
 49
-1.5
 49
0.25
 49
-1.5
  0
LTYPE
  2
long_dashed_triplicate-dotted
 70
   64
  3
--------- --- --- --- ----------
 72
   65
 73
    8
 40
18.75
 49
12
 49
-1.5
 49
0.25
 49
-1.5
 49
0.25
 49
-1.5
 49
0.25
 49
-1.5
  0
LTYPE
  2
dotted
 70
   64
  3
   -       -       -       -    
 72
   65
 73
    2
 40
1.75
 49
0.25
 49
-1.5
  0
LTYPE
  2
chain
 70
   64
  3
-------------- -- --------------
 72
   65
 73
    4
 40
18.5
 49
12
 49
-1.5
 49
3.5
 49
-1.5
  0
LTYPE
  2
chain_double_dash
 70
   64
  3
------------ -- -- -------------
 72
   65
 73
    6
 40
23.5
 49
12
 49
-1.5
 49
3.5
 49
-1.5
 49
3.5
 49
-1.5
  0
LTYPE
  2
dashed_dotted
 70
   64
  3
-----------     -     ----------
 72
   65
 73
    4
 40
9.25
 49
6
 49
-1.5
 49
0.25
 49
-1.5
  0
LTYPE
  2
double-dashed_dotted
 70
   64
  3
------   -----------   -   -----
 72
   65
 73
    6
 40
16.75
 49
6
 49
-1.5
 49
6
 49
-1.5
 49
0.25
 49
-1.5
  0
LTYPE
  2
dashed_double-dotted
 70
   64
  3
---------    -    -    ---------
 72
   65
 73
    6
 40
11
 49
6
 49
-1.5
 49
0.25
 49
-1.5
 49
0.25
 49
-1.5
  0
LTYPE
  2
double-dashed_double-dotted
 70
   64
  3
-----   ---------   -   -   ----
 72
   65
 73
    8
 40
18.5
 49
6
 49
-1.5
 49
6
 49
-1.5
 49
0.25
 49
-1.5
 49
0.25
 49
-1.5
  0
LTYPE
  2
dashed_triplicate-dotted
 70
   64
  3
-------    -    -    -    ------
 72
   65
 73
    8
 40
12.75
 49
6
 49
-1.5
 49
0.25
 49
-1.5
 49
0.25
 49
-1.5
 49
0.25
 49
-1.5
  0
LTYPE
  2
double-dashed_triplicate-dotted
 70
   64
  3
-----  ---------  -  -  -  -----
 72
   65
 73
   10
 40
20.25
 49
6
 49
-1.5
 49
6
 49
-1.5
 49
0.25
 49
-1.5
 49
0.25
 49
-1.5
 49
0.25
 49
-1.5
  0
LTYPE
  2
undefined
 70
   64
  3
--------------------------------
 72
   65
 73
    0
 40
0
  0
ENDTAB
  0
TABLE
  2
STYLE
  5
3
100
AcDbSymbolTable
 70
     1
  0
STYLE
  5
10
100
AcDbSymbolTableRecord
100
AcDbTextStyleTableRecord
  2
STANDARD
 70
     0
 40
0.0
 41
1.0
 50
0.0
 71
     0
 42
0.2
  3
txt
  4
bigfont.shx
  0
STYLE
  5
26
100
AcDbSymbolTableRecord
100
AcDbTextStyleTableRecord
  2
TATEGAKI
 70
    68
 40
0.0
 41
1.0
 50
0.0
 71
     0
 42
1.0
  3
txt
  4
bigfont.shx
  0
ENDTAB
  0
TABLE
  2
LAYER
 70
    8
  0
LAYER
  2
_0-0_計極細
 70
   64
 62
    7
  6
CONTINUOUS
  0
LAYER
  2
_0-1_計細線
 70
   64
 62
    7
  6
CONTINUOUS
  0
LAYER
  2
_0-5_寸法線
 70
   64
 62
    7
  6
CONTINUOUS
  0
LAYER
  2
_0-7_枠細線
 70
   64
 62
    7
  6
CONTINUOUS
  0
LAYER
  2
_0-8_枠中線
 70
   64
 62
    7
  6
CONTINUOUS
  0
LAYER
  2
_0-e_極細6
 70
   64
 62
    7
  6
CONTINUOUS
  0
LAYER
  2
_1-1_寸法6
 70
   64
 62
    7
  6
CONTINUOUS
  0
LAYER
  2
ADD_LINE
 70
   64
 62
    7
  6
CONTINUOUS
  0
ENDTAB
  0
ENDSEC
  0
SECTION
  2
BLOCKS
  0
ENDSEC
  0
SECTION
  2
ENTITIES
  0
LINE
  8
_0-8_枠中線
  6
CONTINUOUS
 62
    5
 10
23.999999999999773
 20
384.00000000000006
 11
569.99999999999977
 21
384.00000000000091
  0
LINE
  8
_0-8_枠中線
  6
CONTINUOUS
 62
    5
 10
569.99999999999977
 20
384.00000000000091
 11
570.00000000000034
 21
24.000000000000909
  0
LINE
  8
_0-8_枠中線
  6
CONTINUOUS
 62
    5
 10
570.00000000000034
 20
24.000000000000909
 11
24.000000000000341
 21
24.000000000000028
  0
LINE
  8
_0-8_枠中線
  6
CONTINUOUS
 62
    5
 10
24.000000000000341
 20
24.000000000000028
 11
23.999999999999773
 21
384.00000000000006
  0
TEXT
  8
_0-7_枠細線
 62
    5
 10
502.00000000000074
 20
59
 40
10
 41
0.8
 50
0
  1
株式会社シマブン
  0
TEXT
  8
_0-7_枠細線
 62
    5
 10
477.60000000000053
 20
47
 40
8
 41
0.7
 50
0
  1
１：２
  0
TEXT
  8
_0-7_枠細線
 62
    5
 10
550.50000000000068
 20
49
 40
6
 41
1
 50
0
  1
設 計
  0
TEXT
  8
_0-7_枠細線
 62
    5
 10
550.00000000000068
 20
38
 40
8
 41
1
 50
0
  1
藤戸
  0
LINE
  8
_0-7_枠細線
  6
CONTINUOUS
 62
    5
 10
546.00000000000068
 20
56
 11
546.00000000000068
 21
36
  0
TEXT
  8
_0-7_枠細線
 62
    5
 10
526.50000000000068
 20
49
 40
6
 41
1
 50
0
  1
検 図
  0
LINE
  8
_0-7_枠細線
  6
CONTINUOUS
 62
    5
 10
522.00000000000068
 20
56
 11
522.00000000000068
 21
24
  0
TEXT
  8
_0-7_枠細線
 62
    5
 10
502.50000000000074
 20
49
 40
6
 41
1
 50
0
  1
承 認
  0
TEXT
  8
_0-7_枠細線
 62
    5
 10
501.00000000000074
 20
30
 40
6
 41
1
 50
0
  1
作　成
  0
TEXT
  8
_0-7_枠細線
 62
    5
 10
501.00000000000074
 20
24
 40
6
 41
1
 50
0
  1
年月日
  0
LINE
  8
_0-7_枠細線
  6
CONTINUOUS
 62
    5
 10
570.00000000000068
 20
56
 11
498.00000000000074
 21
56
  0
LINE
  8
_0-7_枠細線
  6
CONTINUOUS
 62
    5
 10
498.00000000000074
 20
48
 11
570.00000000000068
 21
48
  0
LINE
  8
_0-7_枠細線
  6
CONTINUOUS
 62
    5
 10
570.00000000000068
 20
36
 11
498.00000000000074
 21
36
  0
LINE
  8
_0-7_枠細線
  6
CONTINUOUS
 62
    5
 10
498.00000000000074
 20
40
 11
370.00000000000063
 21
40
  0
LINE
  8
_0-7_枠細線
  6
CONTINUOUS
 62
    5
 10
474.00000000000063
 20
62
 11
498.00000000000074
 21
62
  0
TEXT
  8
_0-7_枠細線
 62
    5
 10
477.00000000000063
 20
64
 40
6
 41
1
 50
0
  1
縮　尺
  0
LINE
  8
_0-7_枠細線
  6
CONTINUOUS
 62
    5
 10
498.00000000000074
 20
72
 11
498.00000000000074
 21
24
  0
LINE
  8
_0-8_枠中線
  6
CONTINUOUS
 62
    5
 10
370.00000000000063
 20
72
 11
370.00000000000063
 21
24
  0
LINE
  8
_0-8_枠中線
  6
CONTINUOUS
 62
    5
 10
570.00000000000068
 20
72
 11
370.00000000000063
 21
72
  0
LINE
  8
_0-7_枠細線
  6
CONTINUOUS
 62
    5
 10
380.00000000000063
 20
72
 11
380.00000000000063
 21
24
  0
LINE
  8
_0-7_枠細線
  6
CONTINUOUS
 62
    5
 10
474.00000000000063
 20
56
 11
370.00000000000063
 21
56
  0
TEXT
  8
_0-7_枠細線
 62
    5
 10
375.00000000000063
 20
71
 40
7
 41
1
 50
0
  1
品名
  7
TATEGAKI
  0
TEXT
  8
_0-7_枠細線
 62
    5
 10
375.00000000000063
 20
55
 40
7
 41
1
 50
0
  1
品番
  7
TATEGAKI
  0
LINE
  8
_0-7_枠細線
  6
CONTINUOUS
 62
    5
 10
474.00000000000063
 20
72
 11
474.00000000000063
 21
40
  0
TEXT
  8
_0-7_枠細線
 62
    5
 10
439.00000000000063
 20
39
 40
7
 41
1
 50
0
  1
備考
  7
TATEGAKI
  0
LINE
  8
_0-7_枠細線
  6
CONTINUOUS
 62
    5
 10
444.00000000000063
 20
40
 11
444.00000000000063
 21
24
  0
LINE
  8
_0-7_枠細線
  6
CONTINUOUS
 62
    5
 10
434.00000000000063
 20
40
 11
434.00000000000063
 21
24
  0
TEXT
  8
_0-7_枠細線
 62
    5
 10
375.00000000000063
 20
39
 40
7
 41
1
 50
0
  1
材質
  7
TATEGAKI
  0
TEXT
  8
_0-7_枠細線
 62
    5
 10
386.20000000000061
 20
60
 40
8
 41
0.8
 50
0
  1
かさ上げユニット　縦引き用
  0
TEXT
  8
_0-7_枠細線
 62
    5
 10
386.20000000000061
 20
28
 40
8
 41
0.8
 50
0
  1
ＰＶＣ
  0
TEXT
  8
_0-7_枠細線
 62
    5
 10
502.00000000000074
 20
38
 40
8
 41
1
 50
0
  1
隠塚
  0
TEXT
  8
_0-7_枠細線
 62
    5
 10
526.00000000000068
 20
38
 40
8
 41
1
 50
0
  1
渋田
  0
TEXT
  8
_0-7_枠細線
 62
    5
 10
524.00000000000068
 20
27
 40
6
 41
0.6666666666666666
 50
0
  1
２０１１年０４月２５日
  0
TEXT
  8
_0-7_枠細線
 62
    5
 10
386.20000000000067
 20
44
 40
8
 41
0.8
 50
0
  1
ＨＲＵＢ
  0
LINE
  8
_0-7_枠細線
  6
CONTINUOUS
 62
    5
 10
570
 20
377.00000000000091
 11
356
 21
377.00000000000091
  0
TEXT
  8
_0-7_枠細線
 62
    5
 10
358
 20
378.00000000000085
 40
5
 41
1
 50
0
  1
記号
  0
TEXT
  8
_0-7_枠細線
 62
    5
 10
398.75
 20
378.00000000000091
 40
5
 41
1
 50
0
  1
訂　 正　 記　 事
  0
TEXT
  8
_0-7_枠細線
 62
    5
 10
472.5
 20
378.00000000000091
 40
5
 41
1
 50
0
  1
訂 正 年 月 日
  0
TEXT
  8
_0-7_枠細線
 62
    5
 10
522.5
 20
378.00000000000091
 40
5
 41
1
 50
0
  1
備　　　　　考
  0
LINE
  8
_0-7_枠細線
  6
CONTINUOUS
 62
    5
 10
570
 20
370.00000000000091
 11
356
 21
370.00000000000091
  0
TEXT
  8
_0-7_枠細線
 62
    5
 10
472
 20
371.00000000000091
 40
5
 41
0.7199999999999999
 50
0
  1
２０１３．０３．１３
  0
TEXT
  8
_0-7_枠細線
 62
    5
 10
375.54014814814809
 20
371.00000000000091
 40
5
 41
1
 50
0
  1
品番変更
  0
LINE
  8
_0-7_枠細線
  6
CONTINUOUS
 62
    5
 10
570
 20
363.00000000000091
 11
356
 21
363.00000000000091
  0
LINE
  8
_0-7_枠細線
  6
CONTINUOUS
 62
    5
 10
366
 20
363.57693358869966
 11
363
 21
369.57693358869966
  0
LINE
  8
_0-7_枠細線
  6
CONTINUOUS
 62
    5
 10
360
 20
363.57693358869966
 11
366
 21
363.57693358869966
  0
LINE
  8
_0-7_枠細線
  6
CONTINUOUS
 62
    5
 10
363
 20
369.57693358869966
 11
360
 21
363.57693358869966
  0
TEXT
  8
_0-7_枠細線
 62
    5
 10
360.94606050725923
 20
363.45413269054751
 40
5
 41
0.8
 50
0
  1
１
  0
TEXT
  8
_0-7_枠細線
 62
    5
 10
472
 20
364.00000000000091
 40
5
 41
0.7199999999999999
 50
0
  1
２０１８．０１．２５
  0
LINE
  8
_0-7_枠細線
  6
CONTINUOUS
 62
    5
 10
570
 20
356.00000000000091
 11
356
 21
356.00000000000091
  0
LINE
  8
_0-7_枠細線
  6
CONTINUOUS
 62
    5
 10
366
 20
356.57693358869966
 11
363
 21
362.57693358869966
  0
LINE
  8
_0-7_枠細線
  6
CONTINUOUS
 62
    5
 10
360
 20
356.57693358869966
 11
366
 21
356.57693358869966
  0
LINE
  8
_0-7_枠細線
  6
CONTINUOUS
 62
    5
 10
363
 20
362.57693358869966
 11
360
 21
356.57693358869966
  0
TEXT
  8
_0-7_枠細線
 62
    5
 10
360.94606050725923
 20
356.45413269054751
 40
5
 41
0.8
 50
0
  1
２
  0
TEXT
  8
_0-7_枠細線
 62
    5
 10
472
 20
357.00000000000091
 40
5
 41
0.7199999999999999
 50
0
  1
２０１９．０４．０１
  0
TEXT
  8
_0-7_枠細線
 62
    5
 10
375.54014814814809
 20
364.00000000000091
 40
5
 41
1
 50
0
  1
品番追加
  0
TEXT
  8
_0-7_枠細線
 62
    5
 10
375.54014814814809
 20
357.00000000000091
 40
5
 41
1
 50
0
  1
品番追加
  0
LINE
  8
_0-0_計極細
  6
CENTER1
 62
    2
 10
178.86000000000035
 20
344.82213719940552
 11
178.86000000000035
 21
62.336602607327563
  0
LINE
  8
_0-5_寸法線
  6
CONTINUOUS
 62
    7
 10
134.36000000000035
 20
341.63033851471147
 11
134.36000000000035
 21
373.63033851471147
  0
LINE
  8
_0-5_寸法線
  6
CONTINUOUS
 62
    7
 10
134.36000000000035
 20
371.63033851471147
 11
138.22370330515662
 21
372.66561469512158
  0
LINE
  8
_0-5_寸法線
  6
CONTINUOUS
 62
    7
 10
134.36000000000035
 20
371.63033851471147
 11
138.22370330515662
 21
370.59506233430136
  0
LINE
  8
_0-5_寸法線
  6
CONTINUOUS
 62
    7
 10
223.36000000000035
 20
341.63033851471147
 11
223.36000000000035
 21
373.63033851471147
  0
LINE
  8
_0-5_寸法線
  6
CONTINUOUS
 62
    7
 10
223.36000000000035
 20
371.63033851471147
 11
219.49629669484409
 21
370.59506233430142
  0
LINE
  8
_0-5_寸法線
  6
CONTINUOUS
 62
    7
 10
223.36000000000035
 20
371.63033851471147
 11
219.49629669484409
 21
372.66561469512158
  0
LINE
  8
_0-5_寸法線
  6
CONTINUOUS
 62
    7
 10
134.36000000000035
 20
371.63033851471147
 11
223.36000000000035
 21
371.63033851471147
  0
TEXT
  8
_0-5_寸法線
 62
    7
 10
172.86000000000035
 20
371.63033851471147
 40
6
 41
1
 50
0
  1
φ89
  0
LINE
  8
_0-5_寸法線
  6
CONTINUOUS
 62
    7
 10
148.86000000000035
 20
65.630338514711468
 11
148.86000000000035
 21
33.630338514711468
  0
LINE
  8
_0-5_寸法線
  6
CONTINUOUS
 62
    7
 10
148.86000000000035
 20
35.630338514711468
 11
152.72370330515662
 21
36.665614695121548
  0
LINE
  8
_0-5_寸法線
  6
CONTINUOUS
 62
    7
 10
148.86000000000035
 20
35.630338514711468
 11
152.72370330515662
 21
34.595062334301389
  0
LINE
  8
_0-5_寸法線
  6
CONTINUOUS
 62
    7
 10
208.86000000000035
 20
65.630338514711468
 11
208.86000000000035
 21
33.630338514711468
  0
LINE
  8
_0-5_寸法線
  6
CONTINUOUS
 62
    7
 10
208.86000000000035
 20
35.630338514711468
 11
204.99629669484409
 21
34.595062334301389
  0
LINE
  8
_0-5_寸法線
  6
CONTINUOUS
 62
    7
 10
208.86000000000035
 20
35.630338514711468
 11
204.99629669484409
 21
36.665614695121576
  0
LINE
  8
_0-5_寸法線
  6
CONTINUOUS
 62
    7
 10
148.86000000000035
 20
35.630338514711468
 11
208.86000000000035
 21
35.630338514711468
  0
TEXT
  8
_0-5_寸法線
 62
    7
 10
172.86000000000035
 20
35.630338514711468
 40
6
 41
1
 50
0
  1
φ60
  0
LINE
  8
_0-5_寸法線
  6
CONTINUOUS
 62
    7
 10
130.36000000000035
 20
337.63033851471147
 11
94.360000000000355
 21
337.63033851471158
  0
LINE
  8
_0-5_寸法線
  6
CONTINUOUS
 62
    7
 10
96.360000000000355
 20
337.63033851471158
 11
97.395276180410406
 21
333.76663520955532
  0
LINE
  8
_0-5_寸法線
  6
CONTINUOUS
 62
    7
 10
96.360000000000355
 20
337.63033851471158
 11
95.324723819590247
 21
333.76663520955532
  0
LINE
  8
_0-5_寸法線
  6
CONTINUOUS
 62
    7
 10
144.86000000000035
 20
69.630338514711468
 11
94.360000000000809
 21
69.63033851471161
  0
LINE
  8
_0-5_寸法線
  6
CONTINUOUS
 62
    7
 10
96.360000000000809
 20
69.63033851471161
 11
95.324723819590702
 21
73.494041819867903
  0
LINE
  8
_0-5_寸法線
  6
CONTINUOUS
 62
    7
 10
96.360000000000809
 20
69.63033851471161
 11
97.395276180410889
 21
73.494041819867903
  0
LINE
  8
_0-5_寸法線
  6
CONTINUOUS
 62
    7
 10
96.360000000000355
 20
337.63033851471158
 11
96.360000000000809
 21
69.63033851471161
  0
TEXT
  8
_0-5_寸法線
 62
    7
 10
96.360000000000809
 20
199.13033851471158
 40
6
 41
1
 50
90
  1
268
  0
LINE
  8
_0-5_寸法線
  6
CONTINUOUS
 62
    7
 10
137.36000000000035
 20
341.63033851471147
 11
137.36000000000035
 21
359.63033851471147
  0
LINE
  8
_0-5_寸法線
  6
CONTINUOUS
 62
    7
 10
137.36000000000035
 20
357.63033851471147
 11
141.22370330515662
 21
358.66561469512158
  0
LINE
  8
_0-5_寸法線
  6
CONTINUOUS
 62
    7
 10
137.36000000000035
 20
357.63033851471147
 11
141.22370330515662
 21
356.59506233430136
  0
LINE
  8
_0-5_寸法線
  6
CONTINUOUS
 62
    7
 10
220.36000000000035
 20
341.63033851471147
 11
220.36000000000035
 21
359.63033851471147
  0
LINE
  8
_0-5_寸法線
  6
CONTINUOUS
 62
    7
 10
220.36000000000035
 20
357.63033851471147
 11
216.49629669484409
 21
356.59506233430142
  0
LINE
  8
_0-5_寸法線
  6
CONTINUOUS
 62
    7
 10
220.36000000000035
 20
357.63033851471147
 11
216.49629669484409
 21
358.66561469512158
  0
LINE
  8
_0-5_寸法線
  6
CONTINUOUS
 62
    7
 10
137.36000000000035
 20
357.63033851471147
 11
220.36000000000035
 21
357.63033851471147
  0
TEXT
  8
_0-5_寸法線
 62
    7
 10
172.86000000000035
 20
357.63033851471147
 40
6
 41
1
 50
0
  1
φ83
  0
LINE
  8
_0-5_寸法線
  6
CONTINUOUS
 62
    7
 10
150.86000000000035
 20
65.630338514711468
 11
150.86000000000035
 21
47.630338514711468
  0
LINE
  8
_0-5_寸法線
  6
CONTINUOUS
 62
    7
 10
150.86000000000035
 20
49.630338514711468
 11
154.72370330515662
 21
50.665614695121548
  0
LINE
  8
_0-5_寸法線
  6
CONTINUOUS
 62
    7
 10
150.86000000000035
 20
49.630338514711468
 11
154.72370330515662
 21
48.595062334301389
  0
LINE
  8
_0-5_寸法線
  6
CONTINUOUS
 62
    7
 10
206.86000000000035
 20
65.630338514711468
 11
206.86000000000035
 21
47.630338514711468
  0
LINE
  8
_0-5_寸法線
  6
CONTINUOUS
 62
    7
 10
206.86000000000035
 20
49.630338514711468
 11
202.99629669484409
 21
48.595062334301389
  0
LINE
  8
_0-5_寸法線
  6
CONTINUOUS
 62
    7
 10
206.86000000000035
 20
49.630338514711468
 11
202.99629669484409
 21
50.665614695121576
  0
LINE
  8
_0-5_寸法線
  6
CONTINUOUS
 62
    7
 10
150.86000000000035
 20
49.630338514711468
 11
206.86000000000035
 21
49.630338514711468
  0
TEXT
  8
_0-5_寸法線
 62
    7
 10
172.86000000000035
 20
49.630338514711468
 40
6
 41
1
 50
0
  1
φ56
  0
LINE
  8
_0-1_計細線
  6
CONTINUOUS
 62
    3
 10
223.36000000000058
 20
143.63033851471147
 11
223.36000000000035
 21
337.63033851471147
  0
LINE
  8
_0-1_計細線
  6
CONTINUOUS
 62
    3
 10
223.36000000000035
 20
337.63033851471147
 11
220.36000000000035
 21
337.63033851471147
  0
LINE
  8
_0-1_計細線
  6
CONTINUOUS
 62
    3
 10
220.36000000000035
 20
337.63033851471147
 11
220.36000000000058
 21
143.63033851471147
  0
LINE
  8
_0-1_計細線
  6
CONTINUOUS
 62
    3
 10
220.36000000000058
 20
143.63033851471147
 11
223.36000000000058
 21
143.63033851471147
  0
LINE
  8
_0-1_計細線
  6
CONTINUOUS
 62
    3
 10
134.36000000000035
 20
337.63033851471147
 11
178.86000000000035
 21
337.63033851471147
  0
LINE
  8
_0-1_計細線
  6
CONTINUOUS
 62
    3
 10
134.36000000000058
 20
183.63033851471147
 11
134.36000000000035
 21
337.63033851471147
  0
LINE
  8
_0-1_計細線
  6
CONTINUOUS
 62
    3
 10
130.36000000000035
 20
183.63033851471147
 11
130.36000000000035
 21
138.63033851471147
  0
LINE
  8
_0-1_計細線
  6
CONTINUOUS
 62
    3
 10
145.36000000000058
 20
93.630338514711468
 11
145.36000000000058
 21
120.39711028053324
  0
LINE
  8
_0-1_計細線
  6
CONTINUOUS
 62
    3
 10
145.36000000000081
 20
120.39711028053279
 11
135.51405675354431
 21
138.63033851471147
  0
LINE
  8
_0-1_計細線
  6
CONTINUOUS
 62
    3
 10
227.36000000000035
 20
183.63033851471147
 11
227.36000000000035
 21
138.63033851471147
  0
LINE
  8
_0-1_計細線
  6
CONTINUOUS
 62
    3
 10
223.66000000000054
 20
183.63033851471147
 11
223.01000000000045
 21
143.63033851471147
  0
LINE
  8
_0-1_計細線
  6
CONTINUOUS
 62
    3
 10
223.01000000000045
 20
143.63033851471147
 11
220.36000000000035
 21
143.63033851471147
  0
LINE
  8
_0-1_計細線
  6
CONTINUOUS
 62
    3
 10
209.11000000000035
 20
93.630338514711468
 11
208.61000000000035
 21
118.63033851471147
  0
LINE
  8
_0-1_計細線
  6
CONTINUOUS
 62
    3
 10
206.86000000000035
 20
118.63033851471147
 11
220.36000000000035
 21
143.63033851471147
  0
LINE
  8
_0-1_計細線
  6
CONTINUOUS
 62
    3
 10
208.61000000000035
 20
118.63033851471147
 11
206.86000000000035
 21
118.63033851471147
  0
LINE
  8
_0-1_計細線
  6
CONTINUOUS
 62
    3
 10
227.36000000000035
 20
138.63033851471147
 11
222.2059432464564
 21
138.63033851471147
  0
LINE
  8
_0-1_計細線
  6
CONTINUOUS
 62
    3
 10
212.36000000000035
 20
93.630338514711468
 11
212.36000000000035
 21
120.39711028053324
  0
LINE
  8
_0-1_計細線
  6
CONTINUOUS
 62
    3
 10
212.3599999999999
 20
120.39711028053279
 11
222.2059432464564
 21
138.63033851471147
  0
LINE
  8
_0-1_計細線
  6
CONTINUOUS
 62
    3
 10
223.66000000000054
 20
183.63033851471147
 11
227.36000000000035
 21
183.63033851471147
  0
LINE
  8
_0-1_計細線
  6
CONTINUOUS
 62
    3
 10
209.11000000000035
 20
93.630338514711468
 11
212.36000000000035
 21
93.630338514711468
  0
LINE
  8
_0-1_計細線
  6
CONTINUOUS
 62
    3
 10
178.86000000000035
 20
183.63033851471147
 11
130.36000000000035
 21
183.63033851471147
  0
LINE
  8
_0-1_計細線
  6
CONTINUOUS
 62
    3
 10
130.36000000000035
 20
138.63033851471147
 11
178.86000000000035
 21
138.63033851471147
  0
LINE
  8
_0-1_計細線
  6
CONTINUOUS
 62
    3
 10
178.86000000000035
 20
93.630338514711468
 11
145.36000000000058
 21
93.630338514711468
  0
LINE
  8
_0-0_計極細
  6
CONTINUOUS
 62
    2
 10
145.36000000000058
 20
120.39711028053341
 11
178.86000000000035
 21
120.39711028053341
  0
LINE
  8
_0-1_計細線
  6
CONTINUOUS
 62
    3
 10
208.86000000000035
 20
69.630338514711468
 11
206.86000000000035
 21
69.630338514711468
  0
LINE
  8
_0-1_計細線
  6
CONTINUOUS
 62
    3
 10
208.86000000000035
 20
118.63033851471147
 11
206.86000000000035
 21
118.63033851471147
  0
LINE
  8
_0-1_計細線
  6
CONTINUOUS
 62
    3
 10
206.86000000000035
 20
118.63033851471147
 11
206.86000000000035
 21
69.630338514711468
  0
LINE
  8
_0-1_計細線
  6
CONTINUOUS
 62
    3
 10
208.86000000000035
 20
69.630338514711468
 11
208.86000000000035
 21
118.63033851471147
  0
LINE
  8
_0-1_計細線
  6
CONTINUOUS
 62
    3
 10
148.86000000000035
 20
69.630338514711468
 11
178.86000000000035
 21
69.630338514711468
  0
LINE
  8
_0-1_計細線
  6
CONTINUOUS
 62
    3
 10
148.86000000000035
 20
69.630338514711468
 11
148.86000000000035
 21
93.630338514711468
  0
LINE
  8
_0-0_計極細
  6
CONTINUOUS
 62
    2
 10
227.36000000000035
 20
181.49197955977752
 11
225.22164104506641
 21
183.63033851471147
  0
LINE
  8
_0-0_計極細
  6
CONTINUOUS
 62
    2
 10
223.63974388802535
 20
182.38380854700637
 11
227.36000000000035
 21
178.66355243503131
  0
LINE
  8
_0-0_計極細
  6
CONTINUOUS
 62
    2
 10
223.59451688603059
 20
179.60060842425489
 11
227.36000000000035
 21
175.83512531028512
  0
LINE
  8
_0-0_計極細
  6
CONTINUOUS
 62
    2
 10
223.54928988403589
 20
176.81740830150341
 11
227.36000000000035
 21
173.00669818553894
  0
LINE
  8
_0-0_計極細
  6
CONTINUOUS
 62
    2
 10
223.50406288204118
 20
174.03420817875192
 11
227.36000000000035
 21
170.17827106079272
  0
LINE
  8
_0-0_計極細
  6
CONTINUOUS
 62
    2
 10
223.45883588004648
 20
171.25100805600044
 11
227.36000000000035
 21
167.34984393604654
  0
LINE
  8
_0-0_計極細
  6
CONTINUOUS
 62
    2
 10
223.41360887805172
 20
168.46780793324896
 11
227.36000000000035
 21
164.52141681130033
  0
LINE
  8
_0-0_計極細
  6
CONTINUOUS
 62
    2
 10
223.36838187605701
 20
165.68460781049748
 11
227.36000000000035
 21
161.69298968655414
  0
LINE
  8
_0-0_計極細
  6
CONTINUOUS
 62
    2
 10
223.32315487406231
 20
162.90140768774603
 11
227.36000000000035
 21
158.86456256180793
  0
LINE
  8
_0-0_計極細
  6
CONTINUOUS
 62
    2
 10
223.27792787206761
 20
160.11820756499452
 11
227.36000000000035
 21
156.03613543706174
  0
LINE
  8
_0-0_計極細
  6
CONTINUOUS
 62
    2
 10
223.23270087007285
 20
157.33500744224307
 11
227.36000000000035
 21
153.20770831231556
  0
LINE
  8
_0-0_計極細
  6
CONTINUOUS
 62
    2
 10
223.18747386807814
 20
154.55180731949159
 11
227.36000000000035
 21
150.37928118756935
  0
LINE
  8
_0-0_計極細
  6
CONTINUOUS
 62
    2
 10
223.14224686608344
 20
151.76860719674011
 11
227.36000000000035
 21
147.55085406282316
  0
LINE
  8
_0-0_計極細
  6
CONTINUOUS
 62
    2
 10
223.09701986408874
 20
148.98540707398863
 11
227.36000000000035
 21
144.72242693807698
  0
LINE
  8
_0-0_計極細
  6
CONTINUOUS
 62
    2
 10
223.05179286209398
 20
146.20220695123714
 11
227.36000000000035
 21
141.89399981333077
  0
LINE
  8
_0-0_計極細
  6
CONTINUOUS
 62
    2
 10
222.7952341738735
 20
143.63033851471147
 11
227.36000000000035
 21
139.06557268858455
  0
LINE
  8
_0-0_計極細
  6
CONTINUOUS
 62
    2
 10
220.22212714709678
 20
143.37501841674194
 11
224.96680704912728
 21
138.63033851471147
  0
LINE
  8
_0-0_計極細
  6
CONTINUOUS
 62
    2
 10
219.23034101244554
 20
141.538377426647
 11
222.18225221144297
 21
138.58646622764957
  0
LINE
  8
_0-0_計極細
  6
CONTINUOUS
 62
    2
 10
218.23855487779429
 20
139.7017364365521
 11
221.19046607679172
 21
136.74982523755463
  0
LINE
  8
_0-0_計極細
  6
CONTINUOUS
 62
    2
 10
217.24676874314304
 20
137.86509544645716
 11
220.19867994214047
 21
134.9131842474597
  0
LINE
  8
_0-0_計極細
  6
CONTINUOUS
 62
    2
 10
216.25498260849179
 20
136.02845445636223
 11
219.20689380748922
 21
133.07654325736473
  0
LINE
  8
_0-0_計極細
  6
CONTINUOUS
 62
    2
 10
215.26319647384048
 20
134.19181346626729
 11
218.21510767283797
 21
131.2399022672698
  0
LINE
  8
_0-0_計極細
  6
CONTINUOUS
 62
    2
 10
214.27141033918923
 20
132.35517247617236
 11
217.22332153818672
 21
129.40326127717486
  0
LINE
  8
_0-0_計極細
  6
CONTINUOUS
 62
    2
 10
213.27962420453798
 20
130.51853148607745
 11
216.23153540353547
 21
127.56662028707993
  0
LINE
  8
_0-0_計極細
  6
CONTINUOUS
 62
    2
 10
212.28783806988673
 20
128.68189049598251
 11
215.23974926888422
 21
125.72997929698498
  0
LINE
  8
_0-0_計極細
  6
CONTINUOUS
 62
    2
 10
211.29605193523548
 20
126.84524950588758
 11
214.24796313423298
 21
123.89333830689003
  0
LINE
  8
_0-0_計極細
  6
CONTINUOUS
 62
    2
 10
210.30426580058418
 20
125.00860851579264
 11
213.25617699958173
 21
122.05669731679509
  0
LINE
  8
_0-0_計極細
  6
CONTINUOUS
 62
    2
 10
209.31247966593293
 20
123.17196752569771
 11
212.36000000000035
 21
120.12444719163028
  0
LINE
  8
_0-0_計極細
  6
CONTINUOUS
 62
    2
 10
208.32069353128168
 20
121.33532653560279
 11
212.36000000000035
 21
117.29602006688408
  0
LINE
  8
_0-0_計極細
  6
CONTINUOUS
 62
    2
 10
212.36000000000035
 20
114.46759294213788
 11
208.61842337903249
 21
118.20916956310577
  0
LINE
  8
_0-0_計極細
  6
CONTINUOUS
 62
    2
 10
208.1972544274268
 20
118.63033851471147
 11
207.32890739663037
 21
119.49868554550785
  0
LINE
  8
_0-0_計極細
  6
CONTINUOUS
 62
    2
 10
208.67614638157829
 20
115.32301943581373
 11
212.36000000000035
 21
111.6391658173917
  0
LINE
  8
_0-0_計極細
  6
CONTINUOUS
 62
    2
 10
208.73386938412415
 20
112.43686930852171
 11
212.36000000000035
 21
108.8107386926455
  0
LINE
  8
_0-0_計極細
  6
CONTINUOUS
 62
    2
 10
208.79159238667
 20
109.55071918122967
 11
212.36000000000035
 21
105.9823115678993
  0
LINE
  8
_0-0_計極細
  6
CONTINUOUS
 62
    2
 10
208.84931538921586
 20
106.66456905393763
 11
212.36000000000035
 21
103.1538844431531
  0
LINE
  8
_0-0_計極細
  6
CONTINUOUS
 62
    2
 10
208.90703839176166
 20
103.7784189266456
 11
212.36000000000035
 21
100.3254573184069
  0
LINE
  8
_0-0_計極細
  6
CONTINUOUS
 62
    2
 10
208.96476139430752
 20
100.89226879935356
 11
212.36000000000035
 21
97.497030193660706
  0
LINE
  8
_0-0_計極細
  6
CONTINUOUS
 62
    2
 10
209.02248439685337
 20
98.006118672061518
 11
212.36000000000035
 21
94.668603068914507
  0
LINE
  8
_0-0_計極細
  6
CONTINUOUS
 62
    2
 10
209.08020739939917
 20
95.119968544769492
 11
210.56983742945721
 21
93.630338514711468
  0
LINE
  8
_0-5_寸法線
  6
CONTINUOUS
 62
    7
 10
110.36000000000035
 20
337.63033851471147
 11
111.39527618041041
 21
333.7666352095552
  0
LINE
  8
_0-5_寸法線
  6
CONTINUOUS
 62
    7
 10
110.36000000000035
 20
337.63033851471147
 11
109.32472381959025
 21
333.7666352095552
  0
LINE
  8
_0-5_寸法線
  6
CONTINUOUS
 62
    7
 10
126.36000000000035
 20
183.63033851471147
 11
108.36000000000081
 21
183.63033851471147
  0
LINE
  8
_0-5_寸法線
  6
CONTINUOUS
 62
    7
 10
110.36000000000081
 20
183.63033851471147
 11
109.3247238195907
 21
187.49404181986773
  0
LINE
  8
_0-5_寸法線
  6
CONTINUOUS
 62
    7
 10
110.36000000000081
 20
183.63033851471147
 11
111.39527618041089
 21
187.49404181986773
  0
LINE
  8
_0-5_寸法線
  6
CONTINUOUS
 62
    7
 10
110.36000000000035
 20
337.63033851471147
 11
110.36000000000081
 21
183.63033851471147
  0
TEXT
  8
_0-5_寸法線
 62
    7
 10
110.36000000000058
 20
256.13033851471147
 40
6
 41
1
 50
90
  1
154
  0
LINE
  8
_0-5_寸法線
  6
CONTINUOUS
 62
    7
 10
110.36000000000081
 20
183.63033851471147
 11
111.39527618041089
 21
179.7666352095552
  0
LINE
  8
_0-5_寸法線
  6
CONTINUOUS
 62
    7
 10
110.36000000000081
 20
183.63033851471147
 11
109.3247238195907
 21
179.7666352095552
  0
LINE
  8
_0-5_寸法線
  6
CONTINUOUS
 62
    7
 10
141.36000000000058
 20
93.630338514711482
 11
108.36000000000081
 21
93.630338514711468
  0
LINE
  8
_0-5_寸法線
  6
CONTINUOUS
 62
    7
 10
110.36000000000081
 20
93.630338514711468
 11
109.3247238195907
 21
97.494041819867746
  0
LINE
  8
_0-5_寸法線
  6
CONTINUOUS
 62
    7
 10
110.36000000000081
 20
93.630338514711468
 11
111.39527618041089
 21
97.494041819867746
  0
LINE
  8
_0-5_寸法線
  6
CONTINUOUS
 62
    7
 10
110.36000000000081
 20
183.63033851471147
 11
110.36000000000081
 21
93.630338514711468
  0
TEXT
  8
_0-5_寸法線
 62
    7
 10
110.36000000000081
 20
135.63033851471147
 40
6
 41
1
 50
90
  1
90
  0
LINE
  8
_0-5_寸法線
  6
CONTINUOUS
 62
    7
 10
110.36000000000081
 20
93.630338514711468
 11
111.39527618041089
 21
89.76663520955519
  0
LINE
  8
_0-5_寸法線
  6
CONTINUOUS
 62
    7
 10
110.36000000000081
 20
93.630338514711468
 11
109.3247238195907
 21
89.766635209555204
  0
LINE
  8
_0-5_寸法線
  6
CONTINUOUS
 62
    7
 10
110.36000000000081
 20
69.630338514711468
 11
109.32472381959073
 21
73.494041819867732
  0
LINE
  8
_0-5_寸法線
  6
CONTINUOUS
 62
    7
 10
110.36000000000081
 20
69.630338514711468
 11
111.39527618041092
 21
73.494041819867732
  0
LINE
  8
_0-5_寸法線
  6
CONTINUOUS
 62
    7
 10
110.36000000000081
 20
93.630338514711468
 11
110.36000000000081
 21
69.630338514711468
  0
TEXT
  8
_0-5_寸法線
 62
    7
 10
110.36000000000081
 20
78.630338514711468
 40
6
 41
1
 50
90
  1
24
  0
LINE
  8
_0-0_計極細
  6
CONTINUOUS
 62
    2
 10
206.86000000000035
 20
70.43269845948015
 11
208.86000000000035
 21
72.43269845948015
  0
LINE
  8
_0-0_計極細
  6
CONTINUOUS
 62
    2
 10
206.86000000000035
 20
73.261125584226306
 11
208.86000000000035
 21
75.261125584226306
  0
LINE
  8
_0-0_計極細
  6
CONTINUOUS
 62
    2
 10
206.86000000000035
 20
76.089552708972519
 11
208.86000000000035
 21
78.089552708972519
  0
LINE
  8
_0-0_計極細
  6
CONTINUOUS
 62
    2
 10
206.86000000000035
 20
78.917979833718704
 11
208.86000000000035
 21
80.917979833718704
  0
LINE
  8
_0-0_計極細
  6
CONTINUOUS
 62
    2
 10
206.86000000000035
 20
81.746406958464888
 11
208.86000000000035
 21
83.746406958464902
  0
LINE
  8
_0-0_計極細
  6
CONTINUOUS
 62
    2
 10
206.86000000000035
 20
84.574834083211073
 11
208.86000000000035
 21
86.574834083211073
  0
LINE
  8
_0-0_計極細
  6
CONTINUOUS
 62
    2
 10
206.86000000000035
 20
87.403261207957257
 11
208.86000000000035
 21
89.403261207957286
  0
LINE
  8
_0-0_計極細
  6
CONTINUOUS
 62
    2
 10
206.86000000000035
 20
90.231688332703456
 11
208.86000000000035
 21
92.231688332703456
  0
LINE
  8
_0-0_計極細
  6
CONTINUOUS
 62
    2
 10
206.86000000000035
 20
93.060115457449655
 11
208.86000000000035
 21
95.060115457449626
  0
LINE
  8
_0-0_計極細
  6
CONTINUOUS
 62
    2
 10
206.86000000000035
 20
95.888542582195839
 11
208.86000000000035
 21
97.888542582195839
  0
LINE
  8
_0-0_計極細
  6
CONTINUOUS
 62
    2
 10
206.86000000000035
 20
98.716969706942038
 11
208.86000000000035
 21
100.71696970694201
  0
LINE
  8
_0-0_計極細
  6
CONTINUOUS
 62
    2
 10
206.86000000000035
 20
101.54539683168821
 11
208.86000000000035
 21
103.54539683168821
  0
LINE
  8
_0-0_計極細
  6
CONTINUOUS
 62
    2
 10
206.86000000000035
 20
104.37382395643442
 11
208.86000000000035
 21
106.37382395643442
  0
LINE
  8
_0-0_計極細
  6
CONTINUOUS
 62
    2
 10
206.86000000000035
 20
107.20225108118059
 11
208.86000000000035
 21
109.20225108118059
  0
LINE
  8
_0-0_計極細
  6
CONTINUOUS
 62
    2
 10
206.86000000000035
 20
110.03067820592676
 11
208.86000000000035
 21
112.03067820592679
  0
LINE
  8
_0-0_計極細
  6
CONTINUOUS
 62
    2
 10
206.86000000000035
 20
112.85910533067297
 11
208.86000000000035
 21
114.85910533067297
  0
LINE
  8
_0-0_計極細
  6
CONTINUOUS
 62
    2
 10
206.86000000000035
 20
115.68753245541913
 11
208.86000000000035
 21
117.68753245541916
  0
LINE
  8
_0-0_計極細
  6
CONTINUOUS
 62
    2
 10
206.86000000000035
 20
118.51595958016534
 11
206.97437893454645
 21
118.63033851471147
  0
LINE
  8
_0-0_計極細
  6
CONTINUOUS
 62
    2
 10
220.66067043556177
 20
143.63033851471147
 11
223.36000000000058
 21
146.32966807915028
  0
LINE
  8
_0-0_計極細
  6
CONTINUOUS
 62
    2
 10
220.36000000000058
 20
146.15809520389649
 11
223.36000000000058
 21
149.15809520389649
  0
LINE
  8
_0-0_計極細
  6
CONTINUOUS
 62
    2
 10
220.36000000000058
 20
148.98652232864271
 11
223.36000000000058
 21
151.98652232864268
  0
LINE
  8
_0-0_計極細
  6
CONTINUOUS
 62
    2
 10
220.36000000000058
 20
151.81494945338886
 11
223.36000000000058
 21
154.81494945338886
  0
LINE
  8
_0-0_計極細
  6
CONTINUOUS
 62
    2
 10
220.36000000000058
 20
154.64337657813505
 11
223.36000000000058
 21
157.64337657813505
  0
LINE
  8
_0-0_計極細
  6
CONTINUOUS
 62
    2
 10
220.36000000000058
 20
157.47180370288123
 11
223.36000000000058
 21
160.47180370288126
  0
LINE
  8
_0-0_計極細
  6
CONTINUOUS
 62
    2
 10
220.36000000000058
 20
160.30023082762742
 11
223.36000000000058
 21
163.30023082762739
  0
LINE
  8
_0-0_計極細
  6
CONTINUOUS
 62
    2
 10
220.36000000000058
 20
163.1286579523736
 11
223.36000000000058
 21
166.1286579523736
  0
LINE
  8
_0-0_計極細
  6
CONTINUOUS
 62
    2
 10
220.36000000000058
 20
165.95708507711981
 11
223.36000000000058
 21
168.95708507711979
  0
LINE
  8
_0-0_計極細
  6
CONTINUOUS
 62
    2
 10
220.36000000000058
 20
168.78551220186597
 11
223.36000000000058
 21
171.78551220186597
  0
LINE
  8
_0-0_計極細
  6
CONTINUOUS
 62
    2
 10
220.36000000000058
 20
171.61393932661218
 11
223.36000000000058
 21
174.61393932661215
  0
LINE
  8
_0-0_計極細
  6
CONTINUOUS
 62
    2
 10
220.36000000000053
 20
174.44236645135834
 11
223.36000000000058
 21
177.44236645135834
  0
LINE
  8
_0-0_計極細
  6
CONTINUOUS
 62
    2
 10
220.36000000000053
 20
177.27079357610452
 11
223.36000000000053
 21
180.2707935761045
  0
LINE
  8
_0-0_計極細
  6
CONTINUOUS
 62
    2
 10
220.36000000000053
 20
180.09922070085071
 11
223.36000000000053
 21
183.09922070085071
  0
LINE
  8
_0-0_計極細
  6
CONTINUOUS
 62
    2
 10
220.36000000000053
 20
182.92764782559689
 11
223.36000000000053
 21
185.92764782559686
  0
LINE
  8
_0-0_計極細
  6
CONTINUOUS
 62
    2
 10
220.36000000000058
 20
185.75607495034308
 11
223.36000000000053
 21
188.75607495034308
  0
LINE
  8
_0-0_計極細
  6
CONTINUOUS
 62
    2
 10
220.36000000000053
 20
188.58450207508929
 11
223.36000000000053
 21
191.58450207508926
  0
LINE
  8
_0-0_計極細
  6
CONTINUOUS
 62
    2
 10
220.36000000000053
 20
191.41292919983542
 11
223.36000000000058
 21
194.41292919983545
  0
LINE
  8
_0-0_計極細
  6
CONTINUOUS
 62
    2
 10
220.36000000000047
 20
194.24135632458163
 11
223.36000000000053
 21
197.24135632458163
  0
LINE
  8
_0-0_計極細
  6
CONTINUOUS
 62
    2
 10
220.36000000000053
 20
197.06978344932782
 11
223.36000000000058
 21
200.06978344932784
  0
LINE
  8
_0-0_計極細
  6
CONTINUOUS
 62
    2
 10
220.36000000000053
 20
199.898210574074
 11
223.36000000000047
 21
202.89821057407397
  0
LINE
  8
_0-0_計極細
  6
CONTINUOUS
 62
    2
 10
220.36000000000047
 20
202.72663769882018
 11
223.36000000000047
 21
205.72663769882018
  0
LINE
  8
_0-0_計極細
  6
CONTINUOUS
 62
    2
 10
220.36000000000053
 20
205.5550648235664
 11
223.36000000000047
 21
208.55506482356637
  0
LINE
  8
_0-0_計極細
  6
CONTINUOUS
 62
    2
 10
220.36000000000047
 20
208.38349194831255
 11
223.36000000000047
 21
211.38349194831255
  0
LINE
  8
_0-0_計極細
  6
CONTINUOUS
 62
    2
 10
220.36000000000047
 20
211.21191907305874
 11
223.36000000000053
 21
214.21191907305874
  0
LINE
  8
_0-0_計極細
  6
CONTINUOUS
 62
    2
 10
220.36000000000047
 20
214.04034619780489
 11
223.36000000000047
 21
217.04034619780492
  0
LINE
  8
_0-0_計極細
  6
CONTINUOUS
 62
    2
 10
220.36000000000047
 20
216.86877332255111
 11
223.36000000000053
 21
219.86877332255111
  0
LINE
  8
_0-0_計極細
  6
CONTINUOUS
 62
    2
 10
220.36000000000047
 20
219.69720044729729
 11
223.36000000000047
 21
222.69720044729729
  0
LINE
  8
_0-0_計極細
  6
CONTINUOUS
 62
    2
 10
220.36000000000047
 20
222.52562757204348
 11
223.36000000000047
 21
225.52562757204345
  0
LINE
  8
_0-0_計極細
  6
CONTINUOUS
 62
    2
 10
220.36000000000047
 20
225.35405469678966
 11
223.36000000000047
 21
228.35405469678966
  0
LINE
  8
_0-0_計極細
  6
CONTINUOUS
 62
    2
 10
220.36000000000047
 20
228.18248182153582
 11
223.36000000000047
 21
231.18248182153584
  0
LINE
  8
_0-0_計極細
  6
CONTINUOUS
 62
    2
 10
220.36000000000047
 20
231.010908946282
 11
223.36000000000047
 21
234.01090894628203
  0
LINE
  8
_0-0_計極細
  6
CONTINUOUS
 62
    2
 10
220.36000000000047
 20
233.83933607102821
 11
223.36000000000047
 21
236.83933607102821
  0
LINE
  8
_0-0_計極細
  6
CONTINUOUS
 62
    2
 10
220.36000000000047
 20
236.6677631957744
 11
223.36000000000047
 21
239.66776319577443
  0
LINE
  8
_0-0_計極細
  6
CONTINUOUS
 62
    2
 10
220.36000000000047
 20
239.49619032052058
 11
223.36000000000047
 21
242.49619032052058
  0
LINE
  8
_0-0_計極細
  6
CONTINUOUS
 62
    2
 10
220.36000000000047
 20
242.32461744526677
 11
223.36000000000047
 21
245.32461744526677
  0
LINE
  8
_0-0_計極細
  6
CONTINUOUS
 62
    2
 10
220.36000000000047
 20
245.15304457001295
 11
223.36000000000047
 21
248.15304457001292
  0
LINE
  8
_0-0_計極細
  6
CONTINUOUS
 62
    2
 10
220.36000000000047
 20
247.98147169475914
 11
223.36000000000047
 21
250.98147169475914
  0
LINE
  8
_0-0_計極細
  6
CONTINUOUS
 62
    2
 10
220.36000000000047
 20
250.80989881950532
 11
223.36000000000047
 21
253.80989881950532
  0
LINE
  8
_0-0_計極細
  6
CONTINUOUS
 62
    2
 10
220.36000000000041
 20
253.63832594425148
 11
223.36000000000047
 21
256.63832594425151
  0
LINE
  8
_0-0_計極細
  6
CONTINUOUS
 62
    2
 10
220.36000000000047
 20
256.46675306899772
 11
223.36000000000047
 21
259.46675306899772
  0
LINE
  8
_0-0_計極細
  6
CONTINUOUS
 62
    2
 10
220.36000000000047
 20
259.29518019374387
 11
223.36000000000047
 21
262.29518019374387
  0
LINE
  8
_0-0_計極細
  6
CONTINUOUS
 62
    2
 10
220.36000000000047
 20
262.12360731849009
 11
223.36000000000047
 21
265.12360731849003
  0
LINE
  8
_0-0_計極細
  6
CONTINUOUS
 62
    2
 10
220.36000000000047
 20
264.95203444323624
 11
223.36000000000041
 21
267.95203444323624
  0
LINE
  8
_0-0_計極細
  6
CONTINUOUS
 62
    2
 10
220.36000000000041
 20
267.7804615679824
 11
223.36000000000047
 21
270.7804615679824
  0
LINE
  8
_0-0_計極細
  6
CONTINUOUS
 62
    2
 10
220.36000000000041
 20
270.60888869272861
 11
223.36000000000047
 21
273.60888869272861
  0
LINE
  8
_0-0_計極細
  6
CONTINUOUS
 62
    2
 10
220.36000000000041
 20
273.43731581747477
 11
223.36000000000041
 21
276.43731581747477
  0
LINE
  8
_0-0_計極細
  6
CONTINUOUS
 62
    2
 10
220.36000000000041
 20
276.26574294222098
 11
223.36000000000047
 21
279.26574294222098
  0
LINE
  8
_0-0_計極細
  6
CONTINUOUS
 62
    2
 10
220.36000000000041
 20
279.09417006696719
 11
223.36000000000047
 21
282.09417006696719
  0
LINE
  8
_0-0_計極細
  6
CONTINUOUS
 62
    2
 10
220.36000000000041
 20
281.92259719171335
 11
223.36000000000047
 21
284.92259719171335
  0
LINE
  8
_0-0_計極細
  6
CONTINUOUS
 62
    2
 10
220.36000000000041
 20
284.75102431645956
 11
223.36000000000041
 21
287.75102431645951
  0
LINE
  8
_0-0_計極細
  6
CONTINUOUS
 62
    2
 10
220.36000000000035
 20
287.57945144120566
 11
223.36000000000041
 21
290.57945144120572
  0
LINE
  8
_0-0_計極細
  6
CONTINUOUS
 62
    2
 10
220.36000000000035
 20
290.40787856595188
 11
223.36000000000041
 21
293.40787856595188
  0
LINE
  8
_0-0_計極細
  6
CONTINUOUS
 62
    2
 10
220.36000000000041
 20
293.23630569069809
 11
223.36000000000041
 21
296.23630569069809
  0
LINE
  8
_0-0_計極細
  6
CONTINUOUS
 62
    2
 10
220.36000000000035
 20
296.0647328154443
 11
223.36000000000047
 21
299.0647328154443
  0
LINE
  8
_0-0_計極細
  6
CONTINUOUS
 62
    2
 10
220.36000000000041
 20
298.89315994019046
 11
223.36000000000041
 21
301.89315994019046
  0
LINE
  8
_0-0_計極細
  6
CONTINUOUS
 62
    2
 10
220.36000000000041
 20
301.72158706493661
 11
223.36000000000035
 21
304.72158706493661
  0
LINE
  8
_0-0_計極細
  6
CONTINUOUS
 62
    2
 10
220.36000000000041
 20
304.55001418968283
 11
223.36000000000035
 21
307.55001418968283
  0
LINE
  8
_0-0_計極細
  6
CONTINUOUS
 62
    2
 10
220.36000000000035
 20
307.37844131442898
 11
223.36000000000035
 21
310.37844131442904
  0
LINE
  8
_0-0_計極細
  6
CONTINUOUS
 62
    2
 10
220.36000000000035
 20
310.2068684391752
 11
223.36000000000035
 21
313.2068684391752
  0
LINE
  8
_0-0_計極細
  6
CONTINUOUS
 62
    2
 10
220.36000000000035
 20
313.03529556392135
 11
223.36000000000041
 21
316.03529556392135
  0
LINE
  8
_0-0_計極細
  6
CONTINUOUS
 62
    2
 10
220.36000000000035
 20
315.86372268866756
 11
223.36000000000041
 21
318.86372268866756
  0
LINE
  8
_0-0_計極細
  6
CONTINUOUS
 62
    2
 10
220.36000000000035
 20
318.69214981341372
 11
223.36000000000035
 21
321.69214981341378
  0
LINE
  8
_0-0_計極細
  6
CONTINUOUS
 62
    2
 10
220.36000000000035
 20
321.52057693815993
 11
223.36000000000035
 21
324.52057693815999
  0
LINE
  8
_0-0_計極細
  6
CONTINUOUS
 62
    2
 10
220.36000000000041
 20
324.34900406290615
 11
223.36000000000035
 21
327.34900406290615
  0
LINE
  8
_0-0_計極細
  6
CONTINUOUS
 62
    2
 10
220.36000000000035
 20
327.1774311876523
 11
223.36000000000035
 21
330.1774311876523
  0
LINE
  8
_0-0_計極細
  6
CONTINUOUS
 62
    2
 10
220.3600000000003
 20
330.00585831239846
 11
223.36000000000035
 21
333.00585831239846
  0
LINE
  8
_0-0_計極細
  6
CONTINUOUS
 62
    2
 10
220.36000000000035
 20
332.83428543714467
 11
223.36000000000035
 21
335.83428543714467
  0
LINE
  8
_0-0_計極細
  6
CONTINUOUS
 62
    2
 10
220.36000000000035
 20
335.66271256189083
 11
222.32762595282099
 21
337.63033851471153
  0
LINE
  8
_0-5_寸法線
  6
CONTINUOUS
 62
    7
 10
227.36000000000035
 20
337.63033851471141
 11
249.3600000000003
 21
337.6303385147113
  0
LINE
  8
_0-5_寸法線
  6
CONTINUOUS
 62
    7
 10
247.3600000000003
 20
337.6303385147113
 11
248.39527618041038
 21
333.76663520955503
  0
LINE
  8
_0-5_寸法線
  6
CONTINUOUS
 62
    7
 10
247.3600000000003
 20
337.6303385147113
 11
246.32472381959022
 21
333.76663520955503
  0
LINE
  8
_0-5_寸法線
  6
CONTINUOUS
 62
    7
 10
231.36000000000035
 20
143.63033851471167
 11
249.36000000000024
 21
143.6303385147115
  0
LINE
  8
_0-5_寸法線
  6
CONTINUOUS
 62
    7
 10
247.36000000000024
 20
143.63033851471153
 11
246.32472381959016
 21
147.49404181986779
  0
LINE
  8
_0-5_寸法線
  6
CONTINUOUS
 62
    7
 10
247.36000000000024
 20
143.63033851471153
 11
248.39527618041032
 21
147.49404181986779
  0
LINE
  8
_0-5_寸法線
  6
CONTINUOUS
 62
    7
 10
247.3600000000003
 20
337.6303385147113
 11
247.36000000000024
 21
143.63033851471153
  0
TEXT
  8
_0-5_寸法線
 62
    7
 10
247.3600000000003
 20
236.13033851471141
 40
6
 41
1
 50
90
  1
194
  0
LINE
  8
_0-e_極細6
  6
CONTINUOUS
 62
    6
 10
475.32099499400545
 20
239.61162273444393
 11
470.68803513435353
 21
236.96865876999743
  0
LINE
  8
_0-e_極細6
  6
CONTINUOUS
 62
    6
 10
462.15575650000017
 20
236.49044873444376
 11
435.98000000000002
 21
236.49044873444376
  0
LINE
  8
_0-e_極細6
  6
CONTINUOUS
 62
    6
 10
449.51796149999996
 20
206.08427573444376
 11
449.02625050000006
 21
200.22256173444376
  0
LINE
  8
_0-e_極細6
  6
CONTINUOUS
 62
    6
 10
448.36191650000001
 20
199.61162273444373
 11
435.98000050000007
 21
199.61162273444373
  0
ARC
  8
_0-e_極細6
  6
CONTINUOUS
 62
    6
 10
448.36191650000001
 20
200.27828973444369
 40
0.6666670000000001
 50
269.99999999999977
 51
355.20495800000214
  0
ARC
  8
_0-e_極細6
  6
CONTINUOUS
 62
    6
 10
453.41734750000012
 20
211.94495573444377
 40
4.3333330000000014
 50
269.99999999999977
 51
358.07877599999955
  0
ARC
  8
_0-e_極細6
  6
CONTINUOUS
 62
    6
 10
451.17879450000009
 20
205.94495573444377
 40
1.6666669999999999
 50
89.999999999999915
 51
175.20495800000367
  0
ARC
  8
_0-e_極細6
  6
CONTINUOUS
 62
    6
 10
462.21171550000008
 20
235.49201573444378
 40
1.0000000000000002
 50
93.207912000008847
 51
178.07877600000302
  0
ARC
  8
_0-e_極細6
  6
CONTINUOUS
 62
    6
 10
459.45070450000003
 20
232.72420373444371
 40
1.0000000000000002
 50
97.104089999995963
 51
178.07877599999466
  0
ARC
  8
_0-e_極細6
  6
CONTINUOUS
 62
    6
 10
460.18843849999996
 20
234.83161973444368
 40
1.0000000000000002
 50
277.10409000000203
 51
358.07877599999961
  0
LINE
  8
_0-e_極細6
  6
CONTINUOUS
 62
    6
 10
461.21227750000014
 20
235.52554073444369
 11
461.18787650000002
 21
234.79809373444374
  0
LINE
  8
_0-e_極細6
  6
CONTINUOUS
 62
    6
 10
460.31211050000002
 20
233.83929673444371
 11
459.32703249999997
 21
233.71652673444379
  0
ARC
  8
_0-e_極細6
  6
CONTINUOUS
 62
    6
 10
457.34700850000013
 20
243.61162273444373
 40
0.333333
 50
6.3401919999862555
 51
89.999999999999915
  0
LINE
  8
_0-e_極細6
  6
CONTINUOUS
 62
    6
 10
479.31333350000011
 20
239.61162273444373
 11
478.64922093968244
 21
242.27828940111044
  0
LINE
  8
_0-e_極細6
  6
CONTINUOUS
 62
    6
 10
478.64922093968255
 20
242.27828973444369
 11
435.98000000000002
 21
242.27828973444369
  0
LINE
  8
_0-e_極細6
  6
CONTINUOUS
 62
    6
 10
457.34700850000013
 20
243.94495573444379
 11
435.98000000000002
 21
243.94495573444379
  0
LINE
  8
_0-e_極細6
  6
CONTINUOUS
 62
    6
 10
457.67830249999997
 20
243.64843373444367
 11
457.83054092751092
 21
242.27828973444369
  0
LINE
  8
_0-e_極細6
  6
CONTINUOUS
 62
    6
 10
453.41734750000012
 20
207.61162273444373
 11
435.98000000000002
 21
207.61162273444373
  0
LINE
  8
_0-e_極細6
  6
CONTINUOUS
 62
    6
 10
479.31333350000011
 20
239.61162273444373
 11
435.98000000000002
 21
239.61162273444373
  0
LINE
  8
_0-e_極細6
  6
CONTINUOUS
 62
    6
 10
470.68803513435353
 20
236.96865876999743
 11
462.15575650000017
 21
236.49044873444376
  0
LINE
  8
_0-e_極細6
  6
CONTINUOUS
 62
    6
 10
458.57647774707777
 20
236.49044873444373
 11
457.74824450000006
 21
211.79967973444369
  0
LINE
  8
_0-e_極細6
  6
CONTINUOUS
 62
    6
 10
470.68803513435353
 20
236.96865876999743
 11
435.98000000000002
 21
236.96865876999743
  0
LINE
  8
_0-e_極細6
  6
CONTINUOUS
 62
    6
 10
452.14666666666676
 20
248.94495640111037
 11
452.14666666666676
 21
243.94495573444379
  0
LINE
  8
_0-e_極細6
  6
CONTINUOUS
 62
    6
 10
435.98000000000002
 20
248.94495640111037
 11
452.14666666666676
 21
248.94495640111037
  0
LINE
  8
_0-e_極細6
  6
CONTINUOUS
 62
    6
 10
396.63900500599448
 20
239.61162273444393
 11
401.27196486564662
 21
236.96865876999743
  0
LINE
  8
_0-e_極細6
  6
CONTINUOUS
 62
    6
 10
409.80424349999998
 20
236.49044873444376
 11
435.98000000000002
 21
236.49044873444376
  0
LINE
  8
_0-e_極細6
  6
CONTINUOUS
 62
    6
 10
422.44203850000008
 20
206.08427573444376
 11
422.93374949999998
 21
200.22256173444376
  0
LINE
  8
_0-e_極細6
  6
CONTINUOUS
 62
    6
 10
423.59808350000003
 20
199.61162273444373
 11
435.97999950000008
 21
199.61162273444373
  0
ARC
  8
_0-e_極細6
  6
CONTINUOUS
 62
    6
 10
423.59808350000003
 20
200.27828973444369
 40
0.6666670000000001
 50
184.79504199999798
 51
269.99999999999977
  0
ARC
  8
_0-e_極細6
  6
CONTINUOUS
 62
    6
 10
418.54265250000003
 20
211.94495573444377
 40
4.3333330000000014
 50
181.92122399999971
 51
269.99999999999977
  0
ARC
  8
_0-e_極細6
  6
CONTINUOUS
 62
    6
 10
420.78120550000006
 20
205.94495573444377
 40
1.6666669999999999
 50
4.7950419999966618
 51
89.999999999999915
  0
ARC
  8
_0-e_極細6
  6
CONTINUOUS
 62
    6
 10
409.74828449999995
 20
235.49201573444378
 40
1.0000000000000002
 50
1.9212239999967617
 51
86.792087999997662
  0
ARC
  8
_0-e_極細6
  6
CONTINUOUS
 62
    6
 10
412.50929550000001
 20
232.72420373444371
 40
1.0000000000000002
 50
1.921224000005336
 51
82.895909999997571
  0
ARC
  8
_0-e_極細6
  6
CONTINUOUS
 62
    6
 10
411.77156149999996
 20
234.83161973444368
 40
1.0000000000000002
 50
181.92122400000008
 51
262.89591000000365
  0
LINE
  8
_0-e_極細6
  6
CONTINUOUS
 62
    6
 10
410.74772250000001
 20
235.52554073444369
 11
410.77212350000013
 21
234.79809373444374
  0
LINE
  8
_0-e_極細6
  6
CONTINUOUS
 62
    6
 10
411.64788950000002
 20
233.83929673444371
 11
412.63296750000006
 21
233.71652673444379
  0
ARC
  8
_0-e_極細6
  6
CONTINUOUS
 62
    6
 10
414.61299149999991
 20
243.61162273444373
 40
0.333333
 50
89.999999999999915
 51
173.65980800001375
  0
LINE
  8
_0-e_極細6
  6
CONTINUOUS
 62
    6
 10
392.64666650000004
 20
239.61162273444373
 11
393.3107790603176
 21
242.27828940111044
  0
LINE
  8
_0-e_極細6
  6
CONTINUOUS
 62
    6
 10
393.31077906031749
 20
242.27828973444369
 11
435.98000000000002
 21
242.27828973444369
  0
LINE
  8
_0-e_極細6
  6
CONTINUOUS
 62
    6
 10
414.61299149999991
 20
243.94495573444379
 11
435.98000000000002
 21
243.94495573444379
  0
LINE
  8
_0-e_極細6
  6
CONTINUOUS
 62
    6
 10
414.28169750000006
 20
243.64843373444367
 11
414.129459072489
 21
242.27828973444369
  0
LINE
  8
_0-e_極細6
  6
CONTINUOUS
 62
    6
 10
418.54265250000003
 20
207.61162273444373
 11
435.98000000000002
 21
207.61162273444373
  0
LINE
  8
_0-e_極細6
  6
CONTINUOUS
 62
    6
 10
392.64666650000004
 20
239.61162273444373
 11
435.98000000000002
 21
239.61162273444373
  0
LINE
  8
_0-e_極細6
  6
CONTINUOUS
 62
    6
 10
401.2719648656464
 20
236.96865876999743
 11
409.80424349999998
 21
236.49044873444376
  0
LINE
  8
_0-e_極細6
  6
CONTINUOUS
 62
    6
 10
413.38352225292215
 20
236.49044873444373
 11
414.21175549999998
 21
211.79967973444369
  0
LINE
  8
_0-e_極細6
  6
CONTINUOUS
 62
    6
 10
401.27196486564662
 20
236.96865876999743
 11
435.98000000000002
 21
236.96865876999743
  0
LINE
  8
_0-e_極細6
  6
CONTINUOUS
 62
    6
 10
419.81333333333328
 20
248.94495640111037
 11
419.81333333333328
 21
243.94495573444379
  0
LINE
  8
_0-e_極細6
  6
CONTINUOUS
 62
    6
 10
435.98000000000002
 20
248.94495640111037
 11
419.81333333333328
 21
248.94495640111037
  0
LINE
  8
_0-e_極細6
  6
CENTER1
 62
    6
 10
435.98000000000002
 20
335.76361787337402
 11
435.98000000000002
 21
196.55760844470402
  0
LINE
  8
_0-e_極細6
  6
CONTINUOUS
 62
    6
 10
450.81333333333339
 20
248.94495640111037
 11
450.81333333333339
 21
281.94495640111035
  0
LINE
  8
_0-e_極細6
  6
CONTINUOUS
 62
    6
 10
421.14666666666676
 20
248.94495640111037
 11
421.14666666666676
 21
281.94495640111035
  0
LINE
  8
_0-e_極細6
  6
CONTINUOUS
 62
    6
 10
458.64666666666665
 20
322.9356659249508
 11
458.64666666666665
 21
318.94495640111035
  0
LINE
  8
_0-e_極細6
  6
CONTINUOUS
 62
    6
 10
435.98000000000002
 20
318.94495640111035
 11
458.64666666666665
 21
318.94495640111035
  0
LINE
  8
_0-e_極細6
  6
CONTINUOUS
 62
    6
 10
435.98000000000002
 20
310.61162249042667
 11
453.6466660000001
 21
310.61162249042667
  0
LINE
  8
_0-e_極細6
  6
CONTINUOUS
 62
    6
 10
435.98000000000002
 20
309.16824681745277
 11
452.81333300000006
 21
309.16824681745277
  0
LINE
  8
_0-e_極細6
  6
CONTINUOUS
 62
    6
 10
453.6466660000001
 20
310.61162281745277
 11
453.6466660000001
 21
316.4848866648527
  0
LINE
  8
_0-e_極細6
  6
CONTINUOUS
 62
    6
 10
453.6466660000001
 20
313.15155333151932
 11
454.94666600000005
 21
313.15155333151932
  0
LINE
  8
_0-e_極細6
  6
CONTINUOUS
 62
    6
 10
454.94666600000005
 20
313.15155333151932
 11
454.94666600000005
 21
313.4633698174527
  0
LINE
  8
_0-e_極細6
  6
CONTINUOUS
 62
    6
 10
444.51245846751726
 20
313.15155333151932
 11
444.51245846751726
 21
316.4848866648527
  0
LINE
  8
_0-e_極細6
  6
CONTINUOUS
 62
    6
 10
445.85148462719576
 20
313.15155333151932
 11
445.85148462719576
 21
316.4848866648527
  0
LINE
  8
_0-e_極細6
  6
CONTINUOUS
 62
    6
 10
444.51245846751726
 20
313.15155333151932
 11
445.85148462719576
 21
313.15155333151932
  0
LINE
  8
_0-e_極細6
  6
CONTINUOUS
 62
    6
 10
435.98000000000002
 20
316.4848866648527
 11
454.94666600000005
 21
316.4848866648527
  0
LINE
  8
_0-e_極細6
  6
CONTINUOUS
 62
    6
 10
454.94666600000005
 20
317.82391048123731
 11
435.98000000000002
 21
317.82391048123731
  0
ARC
  8
_0-e_極細6
  6
CONTINUOUS
 62
    6
 10
450.1466660000001
 20
284.61162340111042
 40
2.6666669999999999
 50
269.99999999999977
 51
359.99999999999966
  0
ARC
  8
_0-e_極細6
  6
CONTINUOUS
 62
    6
 10
454.48000000000025
 20
309.16824681745277
 40
1.6666669999999999
 50
120.00000000000435
 51
179.99999999999983
  0
LINE
  8
_0-e_極細6
  6
CONTINUOUS
 62
    6
 10
454.94666600000005
 20
313.4633698174527
 11
454.94666600000005
 21
318.93546140111033
  0
LINE
  8
_0-e_極細6
  6
CONTINUOUS
 62
    6
 10
454.94666600000005
 20
318.70926840111036
 11
454.94666600000005
 21
318.94495640111035
  0
LINE
  8
_0-e_極細6
  6
CONTINUOUS
 62
    6
 10
452.81333300000006
 20
284.61162340111042
 11
452.81333300000006
 21
309.16824681745277
  0
LINE
  8
_0-e_極細6
  6
CONTINUOUS
 62
    6
 10
450.81333333333339
 20
281.94495640111035
 11
435.98000000000002
 21
281.94495640111035
  0
LINE
  8
_0-e_極細6
  6
CONTINUOUS
 62
    6
 10
435.98000000000002
 20
310.61162249042667
 11
418.31333399999994
 21
310.61162249042667
  0
LINE
  8
_0-e_極細6
  6
CONTINUOUS
 62
    6
 10
435.98000000000002
 20
309.16824681745277
 11
419.14666699999998
 21
309.16824681745277
  0
LINE
  8
_0-e_極細6
  6
CONTINUOUS
 62
    6
 10
418.31333399999994
 20
310.61162281745277
 11
418.31333399999994
 21
316.4848866648527
  0
LINE
  8
_0-e_極細6
  6
CONTINUOUS
 62
    6
 10
418.31333399999994
 20
313.15155333151932
 11
417.01333399999999
 21
313.15155333151932
  0
LINE
  8
_0-e_極細6
  6
CONTINUOUS
 62
    6
 10
417.01333399999999
 20
313.15155333151932
 11
417.01333399999999
 21
313.4633698174527
  0
LINE
  8
_0-e_極細6
  6
CONTINUOUS
 62
    6
 10
427.44754153248277
 20
313.15155333151932
 11
427.44754153248277
 21
316.4848866648527
  0
LINE
  8
_0-e_極細6
  6
CONTINUOUS
 62
    6
 10
426.10851537280428
 20
313.15155333151932
 11
426.10851537280428
 21
316.4848866648527
  0
LINE
  8
_0-e_極細6
  6
CONTINUOUS
 62
    6
 10
427.44754153248277
 20
313.15155333151932
 11
426.10851537280428
 21
313.15155333151932
  0
LINE
  8
_0-e_極細6
  6
CONTINUOUS
 62
    6
 10
435.98000000000002
 20
313.15155333151932
 11
435.31431465527146
 21
313.15155333151932
  0
LINE
  8
_0-e_極細6
  6
CONTINUOUS
 62
    6
 10
435.31431465527146
 20
313.15155333151932
 11
435.31431465527146
 21
316.4848866648527
  0
LINE
  8
_0-e_極細6
  6
CONTINUOUS
 62
    6
 10
435.98000000000002
 20
316.4848866648527
 11
417.01333399999999
 21
316.4848866648527
  0
LINE
  8
_0-e_極細6
  6
CONTINUOUS
 62
    6
 10
417.01333399999999
 20
317.82391048123731
 11
435.98000000000002
 21
317.82391048123731
  0
ARC
  8
_0-e_極細6
  6
CONTINUOUS
 62
    6
 10
421.81333399999994
 20
284.61162340111042
 40
2.6666669999999999
 50
179.99999999999983
 51
269.99999999999977
  0
ARC
  8
_0-e_極細6
  6
CONTINUOUS
 62
    6
 10
417.47999999999979
 20
309.16824681745277
 40
1.6666669999999999
 50
0
 51
59.999999999992284
  0
LINE
  8
_0-e_極細6
  6
CONTINUOUS
 62
    6
 10
417.01333399999999
 20
313.4633698174527
 11
417.01333399999999
 21
318.93546140111033
  0
LINE
  8
_0-e_極細6
  6
CONTINUOUS
 62
    6
 10
417.01333399999999
 20
318.70926840111036
 11
417.01333399999999
 21
318.94495640111035
  0
LINE
  8
_0-e_極細6
  6
CONTINUOUS
 62
    6
 10
419.14666699999998
 20
284.61162340111042
 11
419.14666699999998
 21
309.16824681745277
  0
LINE
  8
_0-e_極細6
  6
CONTINUOUS
 62
    6
 10
421.14666666666676
 20
281.94495640111035
 11
435.98000000000002
 21
281.94495640111035
  0
LINE
  8
_0-e_極細6
  6
CONTINUOUS
 62
    6
 10
462.64666666666665
 20
322.9356659249508
 11
462.64666666666665
 21
325.61162306777703
  0
LINE
  8
_0-e_極細6
  6
CONTINUOUS
 62
    6
 10
435.98000000000002
 20
313.15155333151932
 11
436.64568534472869
 21
313.15155333151932
  0
LINE
  8
_0-e_極細6
  6
CONTINUOUS
 62
    6
 10
436.64568534472869
 20
313.15155333151932
 11
436.64568534472869
 21
316.4848866648527
  0
ARC
  8
_0-e_極細6
  6
CONTINUOUS
 62
    6
 10
398.60693016648463
 20
324.95766265903285
 40
5.3197781642784427
 50
147.78755619840206
 51
210.2426082507333
  0
ARC
  8
_0-e_極細6
  6
CONTINUOUS
 62
    6
 10
389.4154122400239
 20
319.59891680985453
 40
5.3197781642784427
 50
327.78755619840121
 51
30.242608250734456
  0
LINE
  8
_0-e_極細6
  6
CONTINUOUS
 62
    6
 10
462.64666666666665
 20
325.61162306777703
 11
393.32750069911526
 21
325.61162306777703
  0
LINE
  8
_0-e_極細6
  6
CONTINUOUS
 62
    6
 10
462.64666666666665
 20
322.9356659249508
 11
393.68640489731922
 21
322.9356659249508
  0
LINE
  8
_0-e_極細6
  6
CONTINUOUS
 62
    6
 10
435.98000000000002
 20
318.94495640111035
 11
394.69484170739338
 21
318.94495640111035
  0
LINE
  8
_1-1_寸法6
  6
CONTINUOUS
 62
    7
 10
466.64666666666665
 20
325.61162306777697
 11
500.64922093968255
 21
325.61162306777669
  0
LINE
  8
_1-1_寸法6
  6
CONTINUOUS
 62
    7
 10
498.64922093968255
 20
325.61162306777669
 11
499.68449712009266
 21
321.74791976262043
  0
LINE
  8
_1-1_寸法6
  6
CONTINUOUS
 62
    7
 10
498.64922093968255
 20
325.61162306777669
 11
497.6139447592725
 21
321.74791976262043
  0
LINE
  8
_1-1_寸法6
  6
CONTINUOUS
 62
    7
 10
482.64922093968255
 20
242.27828973444366
 11
500.64922093968266
 21
242.27828973444349
  0
LINE
  8
_1-1_寸法6
  6
CONTINUOUS
 62
    7
 10
498.64922093968266
 20
242.27828973444352
 11
497.61394475927256
 21
246.14199303959978
  0
LINE
  8
_1-1_寸法6
  6
CONTINUOUS
 62
    7
 10
498.64922093968266
 20
242.27828973444352
 11
499.68449712009271
 21
246.14199303959978
  0
LINE
  8
_1-1_寸法6
  6
CONTINUOUS
 62
    7
 10
498.64922093968255
 20
325.61162306777669
 11
498.64922093968266
 21
242.27828973444352
  0
TEXT
  8
_1-1_寸法6
 62
    7
 10
498.64922093968255
 20
280.94495640111012
 40
6
 41
1
 50
90
  1
Ｈ
  0
LINE
  8
_0-5_寸法線
  6
CONTINUOUS
 62
    7
 10
423.6187397119345
 20
292.22060969328999
 11
419.75503640677823
 21
293.25588587370009
  0
LINE
  8
_0-5_寸法線
  6
CONTINUOUS
 62
    7
 10
423.6187397119345
 20
292.22060969328999
 11
420.79031258718834
 21
295.0490368180362
  0
LINE
  8
_0-5_寸法線
  6
CONTINUOUS
 62
    7
 10
423.6187397119345
 20
292.22060969328999
 11
405.6187397119345
 21
302.61291453870331
  0
LINE
  8
_0-5_寸法線
  6
CONTINUOUS
 62
    7
 10
405.6187397119345
 20
302.61291453870331
 11
363.6187397119345
 21
302.61291453870331
  0
TEXT
  8
_0-5_寸法線
 62
    7
 10
363.6187397119345
 20
302.61291453870331
 40
6
 41
1
 50
0
  1
縦引きトラップ
  0
LINE
  8
_0-5_寸法線
  6
CONTINUOUS
 62
    7
 10
425.77873971193458
 20
261.08810969328988
 11
421.91503640677831
 21
262.12338587369999
  0
LINE
  8
_0-5_寸法線
  6
CONTINUOUS
 62
    7
 10
425.77873971193458
 20
261.08810969328988
 11
422.95031258718842
 21
263.91653681803609
  0
LINE
  8
_0-5_寸法線
  6
CONTINUOUS
 62
    7
 10
425.77873971193458
 20
261.08810969328988
 11
405.8587397119345
 21
272.58892705554734
  0
LINE
  8
_0-5_寸法線
  6
CONTINUOUS
 62
    7
 10
405.8587397119345
 20
272.58892705554734
 11
330.85873971193456
 21
272.58892705554734
  0
TEXT
  8
_0-5_寸法線
 62
    7
 10
330.8587397119345
 20
272.58892705554734
 40
6
 41
1
 50
0
  1
かさ上げユニット 縦引き用
  0
LINE
  8
_0-5_寸法線
  6
CONTINUOUS
 62
    7
 10
419.94873971193465
 20
222.98810969328997
 11
417.12031258718844
 21
220.15968256854379
  0
LINE
  8
_0-5_寸法線
  6
CONTINUOUS
 62
    7
 10
419.94873971193465
 20
222.98810969328997
 11
416.08503640677839
 21
221.95283351287989
  0
LINE
  8
_0-5_寸法線
  6
CONTINUOUS
 62
    7
 10
419.94873971193465
 20
222.98810969328997
 11
396.72873971193462
 21
209.58203644270696
  0
LINE
  8
_0-5_寸法線
  6
CONTINUOUS
 62
    7
 10
396.72873971193462
 20
209.58203644270696
 11
351.72873971193468
 21
209.58203644270696
  0
TEXT
  8
_0-5_寸法線
 62
    7
 10
351.72873971193462
 20
209.58203644270696
 40
6
 41
1
 50
0
  1
防水マス 縦引き
  0
LINE
  8
_1-1_寸法6
  6
CONTINUOUS
 62
    7
 10
462.64666666666665
 20
318.94495640111029
 11
487.12666666666712
 21
318.94495640111006
  0
LINE
  8
_1-1_寸法6
  6
CONTINUOUS
 62
    7
 10
485.12666666666712
 20
318.94495640111006
 11
486.16194284707717
 21
315.0812530959538
  0
LINE
  8
_1-1_寸法6
  6
CONTINUOUS
 62
    7
 10
485.12666666666712
 20
318.94495640111006
 11
484.09139048625701
 21
315.0812530959538
  0
LINE
  8
_1-1_寸法6
  6
CONTINUOUS
 62
    7
 10
466.49566846126419
 20
325.61162306777697
 11
487.12666666666712
 21
325.6116230677768
  0
LINE
  8
_1-1_寸法6
  6
CONTINUOUS
 62
    7
 10
485.12666666666712
 20
325.6116230677768
 11
484.09139048625707
 21
329.47532637293307
  0
LINE
  8
_1-1_寸法6
  6
CONTINUOUS
 62
    7
 10
485.12666666666712
 20
325.6116230677768
 11
486.16194284707723
 21
329.47532637293307
  0
LINE
  8
_1-1_寸法6
  6
CONTINUOUS
 62
    7
 10
485.12666666666712
 20
308.94495640111006
 11
485.12666666666712
 21
335.6116230677768
  0
TEXT
  8
_1-1_寸法6
 62
    7
 10
485.12666666666712
 20
319.27828973444343
 40
6
 41
1
 50
90
  1
ｈ
  0
LINE
  8
_0-5_寸法線
  6
CONTINUOUS
 62
    7
 10
425.03318415637887
 20
324.55394302662336
 11
422.20475700325318
 21
327.38237012299004
  0
LINE
  8
_0-5_寸法線
  6
CONTINUOUS
 62
    7
 10
425.03318415637887
 20
324.55394302662336
 11
423.99790793720166
 21
328.417646321392
  0
LINE
  8
_0-5_寸法線
  6
CONTINUOUS
 62
    7
 10
425.03318415637887
 20
324.55394302662336
 11
416.94402456283569
 21
338.56477810851737
  0
LINE
  8
_0-5_寸法線
  6
CONTINUOUS
 62
    7
 10
416.94402456283569
 20
338.56477810851737
 11
368.94402456283575
 21
338.56477810851737
  0
TEXT
  8
_0-5_寸法線
 62
    7
 10
368.94402456283569
 20
338.56477810851737
 40
6
 41
1
 50
0
  1
排水ユニット本体
  0
LINE
  8
_0-7_枠細線
  6
CONTINUOUS
 62
    5
 10
570
 20
349.00000000000091
 11
356
 21
349.00000000000091
  0
LINE
  8
_0-7_枠細線
  6
CONTINUOUS
 62
    5
 10
366
 20
349.57693358869966
 11
363
 21
355.57693358869966
  0
LINE
  8
_0-7_枠細線
  6
CONTINUOUS
 62
    5
 10
360
 20
349.57693358869966
 11
366
 21
349.57693358869966
  0
LINE
  8
_0-7_枠細線
  6
CONTINUOUS
 62
    5
 10
363
 20
355.57693358869966
 11
360
 21
349.57693358869966
  0
TEXT
  8
_0-7_枠細線
 62
    5
 10
375.54014814814809
 20
350.00000000000091
 40
5
 41
1
 50
0
  1
品番追加
  0
LINE
  8
_0-7_枠細線
  6
CONTINUOUS
 62
    5
 10
356
 20
349.00000000000091
 11
356
 21
384.00000000000068
  0
LINE
  8
_0-7_枠細線
  6
CONTINUOUS
 62
    5
 10
370
 20
349.00000000000091
 11
370
 21
384.00000000000068
  0
LINE
  8
_0-7_枠細線
  6
CONTINUOUS
 62
    5
 10
470
 20
349.00000000000091
 11
470
 21
384.00000000000068
  0
LINE
  8
_0-7_枠細線
  6
CONTINUOUS
 62
    5
 10
510
 20
349.00000000000091
 11
510
 21
384.00000000000068
  0
TEXT
  8
_0-7_枠細線
 62
    5
 10
360.94606050725923
 20
349.45413269054751
 40
5
 41
0.8
 50
0
  1
３
  0
TEXT
  8
_0-7_枠細線
 62
    5
 10
472
 20
350.00000000000091
 40
5
 41
0.7199999999999999
 50
0
  1
２０２０．０７．０１
  0
TEXT
  8
_0-7_枠細線
 62
    5
 10
394.25546013710959
 20
172.94764463234489
 40
6
 41
0.8000000000000001
 50
0
  1
種　別
  0
TEXT
  8
_0-7_枠細線
 62
    5
 10
391.95546013710839
 20
182.94764463234489
 40
7
 41
1
 50
0
  1
かさ上げ寸法表
  0
TEXT
  8
_0-7_枠細線
 62
    5
 10
437.05546013710989
 20
172.94764463234489
 40
6
 41
0.8000000000000001
 50
0
  1
Ｈ
  0
TEXT
  8
_0-7_枠細線
 62
    5
 10
473.05546013710989
 20
172.94764463234489
 40
6
 41
0.8000000000000001
 50
0
  1
ｈ
  0
LINE
  8
_0-7_枠細線
  6
CONTINUOUS
 62
    5
 10
386.45546013710907
 20
180.94764463234489
 11
488.45546013710953
 21
180.94764463234489
  0
LINE
  8
_0-7_枠細線
  6
CONTINUOUS
 62
    5
 10
386.45546013710907
 20
170.94764463234489
 11
488.45546013710953
 21
170.94764463234489
  0
LINE
  8
_0-7_枠細線
  6
CONTINUOUS
 62
    5
 10
386.45546013710907
 20
160.94764463234489
 11
488.45546013710953
 21
160.94764463234489
  0
TEXT
  8
_0-7_枠細線
 62
    5
 10
471.55546013710989
 20
162.94764463234489
 40
6
 41
0.5999999999999999
 50
0
  1
３６.５
  0
TEXT
  8
_0-7_枠細線
 62
    5
 10
421.45546013710987
 20
162.94764463234489
 40
6
 41
0.5999999999999999
 50
0
  1
１６２.５～３１６.５
  0
TEXT
  8
_0-7_枠細線
 62
    5
 10
387.65546013710934
 20
162.94764463234489
 40
6
 41
0.7666666666666666
 50
0
  1
ＨＲＡタイプ
  0
LINE
  8
_0-7_枠細線
  6
CONTINUOUS
 62
    5
 10
386.45546013710907
 20
150.94764463234489
 11
488.45546013710964
 21
150.94764463234489
  0
TEXT
  8
_0-7_枠細線
 62
    5
 10
387.65546013710946
 20
152.94764463234489
 40
6
 41
0.7666666666666666
 50
0
  1
ＨＲＣタイプ
  0
TEXT
  8
_0-7_枠細線
 62
    5
 10
471.55546013710989
 20
152.94764463234489
 40
6
 41
0.5999999999999999
 50
0
  1
２６.５
  0
LINE
  8
_0-7_枠細線
  6
CONTINUOUS
 62
    5
 10
382.824191975443
 20
153.66746882193925
 11
379.824191975443
 21
159.66746882193925
  0
LINE
  8
_0-7_枠細線
  6
CONTINUOUS
 62
    5
 10
376.824191975443
 20
153.66746882193925
 11
382.824191975443
 21
153.66746882193925
  0
LINE
  8
_0-7_枠細線
  6
CONTINUOUS
 62
    5
 10
379.824191975443
 20
159.66746882193925
 11
376.824191975443
 21
153.66746882193925
  0
TEXT
  8
_0-7_枠細線
 62
    5
 10
377.7702524827024
 20
153.5446679237871
 40
5
 41
0.8
 50
0
  1
１
  0
TEXT
  8
_0-7_枠細線
 62
    5
 10
421.45546013710998
 20
152.94764463234489
 40
6
 41
0.5999999999999999
 50
0
  1
１５２.５～３０６.５
  0
LINE
  8
_0-7_枠細線
  6
CONTINUOUS
 62
    5
 10
386.45546013710907
 20
140.94764463234489
 11
488.45546013710964
 21
140.94764463234489
  0
TEXT
  8
_0-7_枠細線
 62
    5
 10
387.65546013710957
 20
142.94764463234489
 40
6
 41
0.7666666666666666
 50
0
  1
ＨＲＦタイプ
  0
TEXT
  8
_0-7_枠細線
 62
    5
 10
467.95546013710998
 20
142.94764463234489
 40
6
 41
0.5999999999999999
 50
0
  1
１００ 　
  0
LINE
  8
_0-7_枠細線
  6
CONTINUOUS
 62
    5
 10
386.45546013710907
 20
130.94764463234489
 11
488.45546013710953
 21
130.94764463234489
  0
TEXT
  8
_0-7_枠細線
 62
    5
 10
471.55546013710989
 20
132.94764463234489
 40
6
 41
0.5999999999999999
 50
0
  1
２０
  0
TEXT
  8
_0-7_枠細線
 62
    5
 10
426.85546013710984
 20
132.94764463234489
 40
6
 41
0.5999999999999999
 50
0
  1
１４６～３００
  0
TEXT
  8
_0-7_枠細線
 62
    5
 10
387.65546013710934
 20
132.94764463234489
 40
6
 41
0.7666666666666666
 50
0
  1
ＨＳＡタイプ
  0
LINE
  8
_0-7_枠細線
  6
CONTINUOUS
 62
    5
 10
386.45546013710907
 20
120.9476446323448
 11
488.45546013710953
 21
120.9476446323448
  0
TEXT
  8
_0-7_枠細線
 62
    5
 10
387.65546013710934
 20
122.9476446323448
 40
6
 41
0.7666666666666666
 50
0
  1
ＨＳＴタイプ
  0
TEXT
  8
_0-7_枠細線
 62
    5
 10
471.55546013710989
 20
122.9476446323448
 40
6
 41
0.5999999999999999
 50
0
  1
２１.５
  0
LINE
  8
_0-7_枠細線
  6
CONTINUOUS
 62
    5
 10
382.824191975443
 20
123.66746882193917
 11
379.824191975443
 21
129.66746882193917
  0
LINE
  8
_0-7_枠細線
  6
CONTINUOUS
 62
    5
 10
376.824191975443
 20
123.66746882193917
 11
382.824191975443
 21
123.66746882193917
  0
LINE
  8
_0-7_枠細線
  6
CONTINUOUS
 62
    5
 10
379.824191975443
 20
129.66746882193917
 11
376.824191975443
 21
123.66746882193917
  0
TEXT
  8
_0-7_枠細線
 62
    5
 10
377.7702524827024
 20
123.54466792378702
 40
5
 41
0.8
 50
0
  1
２
  0
TEXT
  8
_0-7_枠細線
 62
    5
 10
421.45546013710987
 20
122.9476446323448
 40
6
 41
0.5999999999999999
 50
0
  1
１４７.５～３０１.５
  0
LINE
  8
_0-7_枠細線
  6
CONTINUOUS
 62
    5
 10
386.45546013710907
 20
110.9476446323448
 11
488.45546013710964
 21
110.9476446323448
  0
TEXT
  8
_0-7_枠細線
 62
    5
 10
467.95546013710998
 20
112.9476446323448
 40
6
 41
0.5999999999999999
 50
0
  1
１００ 　
  0
TEXT
  8
_0-7_枠細線
 62
    5
 10
387.65546013710957
 20
112.9476446323448
 40
6
 41
0.7666666666666666
 50
0
  1
ＨＳＦタイプ
  0
LINE
  8
_0-7_枠細線
  6
CONTINUOUS
 62
    5
 10
386.45546013710907
 20
100.9476446323448
 11
488.45546013710953
 21
100.9476446323448
  0
TEXT
  8
_0-7_枠細線
 62
    5
 10
426.85546013710984
 20
102.9476446323448
 40
6
 41
0.5999999999999999
 50
0
  1
１５６～３１０
  0
TEXT
  8
_0-7_枠細線
 62
    5
 10
471.55546013710989
 20
102.9476446323448
 40
6
 41
0.5999999999999999
 50
0
  1
３０
  0
TEXT
  8
_0-7_枠細線
 62
    5
 10
387.65546013710934
 20
102.9476446323448
 40
6
 41
0.7666666666666666
 50
0
  1
ＨＳＵタイプ
  0
LINE
  8
_0-7_枠細線
  6
CONTINUOUS
 62
    5
 10
386.45546013710907
 20
90.947644632344804
 11
488.45546013710953
 21
90.947644632344804
  0
LINE
  8
_0-7_枠細線
  6
CONTINUOUS
 62
    5
 10
386.45546013710907
 20
80.947644632344804
 11
488.45546013710953
 21
80.947644632344804
  0
LINE
  8
_0-7_枠細線
  6
CONTINUOUS
 62
    5
 10
488.45546013710953
 20
180.94764463234489
 11
488.45546013710953
 21
80.947644632344804
  0
LINE
  8
_0-7_枠細線
  6
CONTINUOUS
 62
    5
 10
462.45546013710964
 20
180.94764463234489
 11
462.45546013710964
 21
80.947644632344804
  0
LINE
  8
_0-7_枠細線
  6
CONTINUOUS
 62
    5
 10
386.45546013710907
 20
180.94764463234489
 11
386.45546013710907
 21
80.947644632344804
  0
LINE
  8
_0-7_枠細線
  6
CONTINUOUS
 62
    5
 10
416.45546013710964
 20
180.94764463234489
 11
416.45546013710964
 21
80.947644632344804
  0
TEXT
  8
_0-7_枠細線
 62
    5
 10
426.85546013710984
 20
82.947644632344804
 40
6
 41
0.5999999999999999
 50
0
  1
１４８～３０２
  0
TEXT
  8
_0-7_枠細線
 62
    5
 10
471.55546013710989
 20
82.947644632344804
 40
6
 41
0.5999999999999999
 50
0
  1
２２
  0
TEXT
  8
_0-7_枠細線
 62
    5
 10
387.65546013710934
 20
82.947644632344804
 40
6
 41
0.7666666666666666
 50
0
  1
ＨＳＫタイプ
  0
TEXT
  8
_0-7_枠細線
 62
    5
 10
387.65546013710946
 20
92.947644632344804
 40
6
 41
0.7666666666666666
 50
0
  1
ＨＴＡタイプ
  0
TEXT
  8
_0-7_枠細線
 62
    5
 10
421.45546013710987
 20
92.947644632344804
 40
6
 41
0.5999999999999999
 50
0
  1
１６２.５～３１６.５
  0
TEXT
  8
_0-7_枠細線
 62
    5
 10
471.55546013710989
 20
92.947644632344804
 40
6
 41
0.5999999999999999
 50
0
  1
３６.５
  0
LINE
  8
_0-7_枠細線
  6
CONTINUOUS
 62
    5
 10
382.824191975443
 20
93.667468821939167
 11
379.824191975443
 21
99.667468821939167
  0
LINE
  8
_0-7_枠細線
  6
CONTINUOUS
 62
    5
 10
376.824191975443
 20
93.667468821939167
 11
382.824191975443
 21
93.667468821939167
  0
LINE
  8
_0-7_枠細線
  6
CONTINUOUS
 62
    5
 10
379.824191975443
 20
99.667468821939167
 11
376.824191975443
 21
93.667468821939167
  0
TEXT
  8
_0-7_枠細線
 62
    5
 10
377.7702524827024
 20
93.544667923787017
 40
5
 41
0.8
 50
0
  1
３
  0
TEXT
  8
_0-7_枠細線
 62
    5
 10
426.85546013710996
 20
142.94764463234489
 40
6
 41
0.5999999999999999
 50
0
  1
２２６～３８０
  0
TEXT
  8
_0-7_枠細線
 62
    5
 10
426.85546013710996
 20
112.9476446323448
 40
6
 41
0.5999999999999999
 50
0
  1
２２６～３８０
  0
ENDSEC
  0
EOF
