  0
SECTION
  2
HEADER
  9
$ACADVER
  1
AC1009
  9
$INSBASE
 10
0
 20
0
 30
0
  9
$EXTMIN
 10
0
 20
0
  9
$EXTMAX
 10
594
 20
420
  9
$LIMMIN
 10
0
 20
0
  9
$LIMMAX
 10
594
 20
420
  9
$LTSCALE
 40
2
  0
ENDSEC
  0
SECTION
  2
TABLES
  0
TABLE
  2
LTYPE
 70
     9
  0
LTYPE
  2
CONTINUOUS
 70
    64
  3
実線
 72
    65
 73
     0
 40
0.0
  0
LTYPE
  2
DASHED1
 70
    64
  3
--  --  --  --  --  --  --  --  
 72
    65
 73
     2
 40
2.5
 49
1.25
 49
-1.25
  0
LTYPE
  2
DASHED2
 70
    64
  3
----    ----    ----    ----    
 72
    65
 73
     2
 40
5.0
 49
2.5
 49
-2.5
  0
LTYPE
  2
DASHED3
 70
    64
  3
------  ------  ------  ------  
 72
    65
 73
     2
 40
5.0
 49
3.75
 49
-1.25
  0
LTYPE
  2
CENTER1
 70
    64
  3
----- - ----- - ----- - ----- - 
 72
    65
 73
     4
 40
10.0
 49
6.25
 49
-1.25
 49
1.25
 49
-1.25
  0
LTYPE
  2
CENTER2
 70
    64
  3
----------  --  ----------  --  
 72
    65
 73
     4
 40
20.0
 49
12.5
 49
-2.5
 49
2.5
 49
-2.5
  0
LTYPE
  2
PHANTOM1
 70
    64
  3
--- - - --- - - --- - - --- - - 
 72
    65
 73
     6
 40
10.0
 49
3.25
 49
-1.25
 49
1.25
 49
-1.25
 49
1.25
 49
-1.25
  0
LTYPE
  2
PHANTOM2
 70
    64
  3
--------  -  -  --------  -  -  
 72
    65
 73
     6
 40
20.0
 49
10.0
 49
-2.5
 49
1.25
 49
-2.5
 49
1.25
 49
-2.5
  0
LTYPE
  2
DOT
 70
    64
  3
-   -   -   -   -   -   -   -   
 72
    65
 73
     2
 40
2.5
 49
0.625
 49
-1.875
  0
LTYPE
  2
DUMMY
 70
    64
  3
ダミー
 72
    65
 73
     0
 40
0.0
  0
LTYPE
  2
RAND1
 70
    64
  3
ランダム線1
 72
    65
 73
     4
 40
10.0
 49
1.0
 49
-2.0
 49
3.0
 49
-4.0
  0
LTYPE
  2
RAND2
 70
    64
  3
ランダム線2
 72
    65
 73
     4
 40
14.0
 49
2.0
 49
-3.0
 49
4.0
 49
-5.0
  0
LTYPE
  2
RAND3
 70
    64
  3
ランダム線3
 72
    65
 73
     4
 40
18.0
 49
3.0
 49
-4.0
 49
5.0
 49
-6.0
  0
LTYPE
  2
RAND4
 70
    64
  3
ランダム線4
 72
    65
 73
     4
 40
22.0
 49
4.0
 49
-5.0
 49
6.0
 49
-7.0
  0
LTYPE
  2
RAND5
 70
    64
  3
ランダム線5
 72
    65
 73
     4
 40
26.0
 49
5.0
 49
-6.0
 49
7.0
 49
-8.0
  0
LTYPE
  2
LONG1
 70
    64
  3
----------  --  ----------  --  
 72
    65
 73
     4
 40
40.0
 49
32.5
 49
-2.5
 49
2.5
 49
-2.5
  0
LTYPE
  2
LONG2
 70
    64
  3
--------  -  -  --------  -  -  
 72
    65
 73
     6
 40
40.0
 49
30.0
 49
-2.5
 49
1.25
 49
-2.5
 49
1.25
 49
-2.5
  0
LTYPE
  2
LONG3
 70
    64
  3
+++++++++++++++..+++++++++++++++
 72
    65
 73
     2
 40
40.0
 49
37.5
 49
-2.5
  0
LTYPE
  2
LONG4
 70
    64
  3
+++++++++++++++..+++++++++++++++
 72
    65
 73
     2
 40
80.0
 49
75.0
 49
-5.0
  0
LTYPE
  2
LONG5
 70
    64
  3
----------  --  ----------  --  
 72
    65
 73
     4
 40
60.0
 49
37.5
 49
-7.5
 49
7.5
 49
-7.5
  0
LTYPE
  2
dashed
 70
   64
  3
-------   -------------   ------
 72
   65
 73
    2
 40
7.5
 49
6
 49
-1.5
  0
LTYPE
  2
dashed_spaced
 70
   64
  3
----        --------        ----
 72
   65
 73
    2
 40
12
 49
6
 49
-6
  0
LTYPE
  2
long_dashed_dotted
 70
   64
  3
------------- --- --------------
 72
   65
 73
    4
 40
15.25
 49
12
 49
-1.5
 49
0.25
 49
-1.5
  0
LTYPE
  2
long_dashed_double-dotted
 70
   64
  3
----------- --- --- ------------
 72
   65
 73
    6
 40
17
 49
12
 49
-1.5
 49
0.25
 49
-1.5
 49
0.25
 49
-1.5
  0
LTYPE
  2
long_dashed_triplicate-dotted
 70
   64
  3
--------- --- --- --- ----------
 72
   65
 73
    8
 40
18.75
 49
12
 49
-1.5
 49
0.25
 49
-1.5
 49
0.25
 49
-1.5
 49
0.25
 49
-1.5
  0
LTYPE
  2
dotted
 70
   64
  3
   -       -       -       -    
 72
   65
 73
    2
 40
1.75
 49
0.25
 49
-1.5
  0
LTYPE
  2
chain
 70
   64
  3
-------------- -- --------------
 72
   65
 73
    4
 40
18.5
 49
12
 49
-1.5
 49
3.5
 49
-1.5
  0
LTYPE
  2
chain_double_dash
 70
   64
  3
------------ -- -- -------------
 72
   65
 73
    6
 40
23.5
 49
12
 49
-1.5
 49
3.5
 49
-1.5
 49
3.5
 49
-1.5
  0
LTYPE
  2
dashed_dotted
 70
   64
  3
-----------     -     ----------
 72
   65
 73
    4
 40
9.25
 49
6
 49
-1.5
 49
0.25
 49
-1.5
  0
LTYPE
  2
double-dashed_dotted
 70
   64
  3
------   -----------   -   -----
 72
   65
 73
    6
 40
16.75
 49
6
 49
-1.5
 49
6
 49
-1.5
 49
0.25
 49
-1.5
  0
LTYPE
  2
dashed_double-dotted
 70
   64
  3
---------    -    -    ---------
 72
   65
 73
    6
 40
11
 49
6
 49
-1.5
 49
0.25
 49
-1.5
 49
0.25
 49
-1.5
  0
LTYPE
  2
double-dashed_double-dotted
 70
   64
  3
-----   ---------   -   -   ----
 72
   65
 73
    8
 40
18.5
 49
6
 49
-1.5
 49
6
 49
-1.5
 49
0.25
 49
-1.5
 49
0.25
 49
-1.5
  0
LTYPE
  2
dashed_triplicate-dotted
 70
   64
  3
-------    -    -    -    ------
 72
   65
 73
    8
 40
12.75
 49
6
 49
-1.5
 49
0.25
 49
-1.5
 49
0.25
 49
-1.5
 49
0.25
 49
-1.5
  0
LTYPE
  2
double-dashed_triplicate-dotted
 70
   64
  3
-----  ---------  -  -  -  -----
 72
   65
 73
   10
 40
20.25
 49
6
 49
-1.5
 49
6
 49
-1.5
 49
0.25
 49
-1.5
 49
0.25
 49
-1.5
 49
0.25
 49
-1.5
  0
LTYPE
  2
undefined
 70
   64
  3
--------------------------------
 72
   65
 73
    0
 40
0
  0
ENDTAB
  0
TABLE
  2
STYLE
  5
3
100
AcDbSymbolTable
 70
     1
  0
STYLE
  5
10
100
AcDbSymbolTableRecord
100
AcDbTextStyleTableRecord
  2
STANDARD
 70
     0
 40
0.0
 41
1.0
 50
0.0
 71
     0
 42
0.2
  3
txt
  4
bigfont.shx
  0
STYLE
  5
26
100
AcDbSymbolTableRecord
100
AcDbTextStyleTableRecord
  2
TATEGAKI
 70
    68
 40
0.0
 41
1.0
 50
0.0
 71
     0
 42
1.0
  3
txt
  4
bigfont.shx
  0
ENDTAB
  0
TABLE
  2
LAYER
 70
    8
  0
LAYER
  2
_0-0_計極細
 70
   64
 62
    7
  6
CONTINUOUS
  0
LAYER
  2
_0-1_計細線
 70
   64
 62
    7
  6
CONTINUOUS
  0
LAYER
  2
_0-5_寸法線
 70
   64
 62
    7
  6
CONTINUOUS
  0
LAYER
  2
_0-7_枠細線
 70
   64
 62
    7
  6
CONTINUOUS
  0
LAYER
  2
_0-8_枠中線
 70
   64
 62
    7
  6
CONTINUOUS
  0
LAYER
  2
_0-e_極細6
 70
   64
 62
    7
  6
CONTINUOUS
  0
LAYER
  2
_1-1_寸法6
 70
   64
 62
    7
  6
CONTINUOUS
  0
LAYER
  2
ADD_LINE
 70
   64
 62
    7
  6
CONTINUOUS
  0
ENDTAB
  0
ENDSEC
  0
SECTION
  2
BLOCKS
  0
ENDSEC
  0
SECTION
  2
ENTITIES
  0
LINE
  8
_0-8_枠中線
  6
CONTINUOUS
 62
    5
 10
23.999999999999375
 20
384.00000000000006
 11
569.99999999999943
 21
384.00000000000091
  0
LINE
  8
_0-8_枠中線
  6
CONTINUOUS
 62
    5
 10
569.99999999999943
 20
384.00000000000091
 11
570
 21
24.000000000000909
  0
LINE
  8
_0-8_枠中線
  6
CONTINUOUS
 62
    5
 10
570
 20
24.000000000000909
 11
23.999999999999943
 21
24.000000000000028
  0
LINE
  8
_0-8_枠中線
  6
CONTINUOUS
 62
    5
 10
23.999999999999943
 20
24.000000000000028
 11
23.999999999999375
 21
384.00000000000006
  0
TEXT
  8
_0-7_枠細線
 62
    5
 10
501.99999999999977
 20
59.000000000000909
 40
10
 41
0.8
 50
0
  1
株式会社シマブン
  0
TEXT
  8
_0-7_枠細線
 62
    5
 10
477.59999999999957
 20
47.000000000000909
 40
8
 41
0.7
 50
0
  1
１：２
  0
TEXT
  8
_0-7_枠細線
 62
    5
 10
550.49999999999977
 20
49.000000000000909
 40
6
 41
1
 50
0
  1
設 計
  0
TEXT
  8
_0-7_枠細線
 62
    5
 10
549.99999999999977
 20
38.000000000000909
 40
8
 41
1
 50
0
  1
藤戸
  0
LINE
  8
_0-7_枠細線
  6
CONTINUOUS
 62
    5
 10
545.99999999999977
 20
56.000000000000909
 11
545.99999999999977
 21
36.000000000000909
  0
TEXT
  8
_0-7_枠細線
 62
    5
 10
526.49999999999977
 20
49.000000000000909
 40
6
 41
1
 50
0
  1
検 図
  0
LINE
  8
_0-7_枠細線
  6
CONTINUOUS
 62
    5
 10
521.99999999999977
 20
56.000000000000909
 11
521.99999999999977
 21
24.000000000000909
  0
TEXT
  8
_0-7_枠細線
 62
    5
 10
502.49999999999977
 20
49.000000000000909
 40
6
 41
1
 50
0
  1
承 認
  0
TEXT
  8
_0-7_枠細線
 62
    5
 10
500.99999999999977
 20
30.000000000000909
 40
6
 41
1
 50
0
  1
作　成
  0
TEXT
  8
_0-7_枠細線
 62
    5
 10
500.99999999999977
 20
24.000000000000909
 40
6
 41
1
 50
0
  1
年月日
  0
LINE
  8
_0-7_枠細線
  6
CONTINUOUS
 62
    5
 10
569.99999999999977
 20
56.000000000000909
 11
497.99999999999977
 21
56.000000000000909
  0
LINE
  8
_0-7_枠細線
  6
CONTINUOUS
 62
    5
 10
497.99999999999977
 20
48.000000000000909
 11
569.99999999999977
 21
48.000000000000909
  0
LINE
  8
_0-7_枠細線
  6
CONTINUOUS
 62
    5
 10
569.99999999999977
 20
36.000000000000909
 11
497.99999999999977
 21
36.000000000000909
  0
LINE
  8
_0-7_枠細線
  6
CONTINUOUS
 62
    5
 10
497.99999999999977
 20
40.000000000000909
 11
369.99999999999966
 21
40.000000000000909
  0
LINE
  8
_0-7_枠細線
  6
CONTINUOUS
 62
    5
 10
473.99999999999966
 20
62.000000000000909
 11
497.99999999999977
 21
62.000000000000909
  0
TEXT
  8
_0-7_枠細線
 62
    5
 10
476.99999999999966
 20
64.000000000000909
 40
6
 41
1
 50
0
  1
縮　尺
  0
LINE
  8
_0-7_枠細線
  6
CONTINUOUS
 62
    5
 10
497.99999999999977
 20
72.000000000000909
 11
497.99999999999977
 21
24.000000000000909
  0
LINE
  8
_0-8_枠中線
  6
CONTINUOUS
 62
    5
 10
369.99999999999966
 20
72.000000000000909
 11
369.99999999999966
 21
24.000000000000909
  0
LINE
  8
_0-8_枠中線
  6
CONTINUOUS
 62
    5
 10
569.99999999999977
 20
72.000000000000909
 11
369.99999999999966
 21
72.000000000000909
  0
LINE
  8
_0-7_枠細線
  6
CONTINUOUS
 62
    5
 10
379.99999999999966
 20
72.000000000000909
 11
379.99999999999966
 21
24.000000000000909
  0
LINE
  8
_0-7_枠細線
  6
CONTINUOUS
 62
    5
 10
473.99999999999966
 20
56.000000000000909
 11
369.99999999999966
 21
56.000000000000909
  0
TEXT
  8
_0-7_枠細線
 62
    5
 10
374.99999999999966
 20
71.000000000000909
 40
7
 41
1
 50
0
  1
品名
  7
TATEGAKI
  0
TEXT
  8
_0-7_枠細線
 62
    5
 10
374.99999999999966
 20
55.000000000000909
 40
7
 41
1
 50
0
  1
品番
  7
TATEGAKI
  0
LINE
  8
_0-7_枠細線
  6
CONTINUOUS
 62
    5
 10
473.99999999999966
 20
72.000000000000909
 11
473.99999999999966
 21
40.000000000000909
  0
TEXT
  8
_0-7_枠細線
 62
    5
 10
438.99999999999966
 20
39.000000000000909
 40
7
 41
1
 50
0
  1
備考
  7
TATEGAKI
  0
LINE
  8
_0-7_枠細線
  6
CONTINUOUS
 62
    5
 10
443.99999999999966
 20
40.000000000000909
 11
443.99999999999966
 21
24.000000000000909
  0
LINE
  8
_0-7_枠細線
  6
CONTINUOUS
 62
    5
 10
433.99999999999966
 20
40.000000000000909
 11
433.99999999999966
 21
24.000000000000909
  0
TEXT
  8
_0-7_枠細線
 62
    5
 10
374.99999999999966
 20
39.000000000000909
 40
7
 41
1
 50
0
  1
材質
  7
TATEGAKI
  0
TEXT
  8
_0-7_枠細線
 62
    5
 10
386.19999999999965
 20
28.000000000000909
 40
8
 41
0.8
 50
0
  1
ＰＶＣ
  0
TEXT
  8
_0-7_枠細線
 62
    5
 10
502.0000000000004
 20
38.000000000000909
 40
8
 41
1
 50
0
  1
隠塚
  0
TEXT
  8
_0-7_枠細線
 62
    5
 10
526.00000000000034
 20
38.000000000000909
 40
8
 41
1
 50
0
  1
渋田
  0
TEXT
  8
_0-7_枠細線
 62
    5
 10
386.19999999999965
 20
60.000000000000909
 40
8
 41
0.8
 50
0
  1
かさ上げユニット　横引き用
  0
TEXT
  8
_0-7_枠細線
 62
    5
 10
524.00000000000034
 20
27.000000000000909
 40
6
 41
0.6666666666666666
 50
0
  1
２０１１年０４月２５日
  0
TEXT
  8
_0-7_枠細線
 62
    5
 10
386.1999999999997
 20
44.000000000000909
 40
8
 41
0.8
 50
0
  1
ＨＲＵＺ
  0
LINE
  8
_0-7_枠細線
  6
CONTINUOUS
 62
    5
 10
569.99999999999977
 20
377.00000000000091
 11
355.99999999999977
 21
377.00000000000091
  0
TEXT
  8
_0-7_枠細線
 62
    5
 10
357.99999999999977
 20
378.00000000000085
 40
5
 41
1
 50
0
  1
記号
  0
TEXT
  8
_0-7_枠細線
 62
    5
 10
398.74999999999977
 20
378.00000000000091
 40
5
 41
1
 50
0
  1
訂　 正　 記　 事
  0
TEXT
  8
_0-7_枠細線
 62
    5
 10
472.49999999999977
 20
378.00000000000091
 40
5
 41
1
 50
0
  1
訂 正 年 月 日
  0
TEXT
  8
_0-7_枠細線
 62
    5
 10
522.49999999999977
 20
378.00000000000091
 40
5
 41
1
 50
0
  1
備　　　　　考
  0
LINE
  8
_0-7_枠細線
  6
CONTINUOUS
 62
    5
 10
569.99999999999977
 20
370.00000000000091
 11
355.99999999999977
 21
370.00000000000091
  0
TEXT
  8
_0-7_枠細線
 62
    5
 10
471.99999999999977
 20
371.00000000000091
 40
5
 41
0.7199999999999999
 50
0
  1
２０１３．０３．１３
  0
TEXT
  8
_0-7_枠細線
 62
    5
 10
375.54014814814786
 20
371.00000000000091
 40
5
 41
1
 50
0
  1
品番変更
  0
LINE
  8
_0-7_枠細線
  6
CONTINUOUS
 62
    5
 10
569.99999999999977
 20
363.00000000000091
 11
355.99999999999977
 21
363.00000000000091
  0
LINE
  8
_0-7_枠細線
  6
CONTINUOUS
 62
    5
 10
365.99999999999977
 20
363.57693358869966
 11
362.99999999999977
 21
369.57693358869966
  0
LINE
  8
_0-7_枠細線
  6
CONTINUOUS
 62
    5
 10
359.99999999999977
 20
363.57693358869966
 11
365.99999999999977
 21
363.57693358869966
  0
LINE
  8
_0-7_枠細線
  6
CONTINUOUS
 62
    5
 10
362.99999999999977
 20
369.57693358869966
 11
359.99999999999977
 21
363.57693358869966
  0
TEXT
  8
_0-7_枠細線
 62
    5
 10
360.94606050725901
 20
363.45413269054751
 40
5
 41
0.8
 50
0
  1
１
  0
TEXT
  8
_0-7_枠細線
 62
    5
 10
471.99999999999977
 20
364.00000000000091
 40
5
 41
0.7199999999999999
 50
0
  1
２０１８．０１．２５
  0
LINE
  8
_0-7_枠細線
  6
CONTINUOUS
 62
    5
 10
569.99999999999977
 20
356.00000000000091
 11
355.99999999999977
 21
356.00000000000091
  0
LINE
  8
_0-7_枠細線
  6
CONTINUOUS
 62
    5
 10
365.99999999999977
 20
356.57693358869966
 11
362.99999999999977
 21
362.57693358869966
  0
LINE
  8
_0-7_枠細線
  6
CONTINUOUS
 62
    5
 10
359.99999999999977
 20
356.57693358869966
 11
365.99999999999977
 21
356.57693358869966
  0
LINE
  8
_0-7_枠細線
  6
CONTINUOUS
 62
    5
 10
362.99999999999977
 20
362.57693358869966
 11
359.99999999999977
 21
356.57693358869966
  0
TEXT
  8
_0-7_枠細線
 62
    5
 10
360.94606050725901
 20
356.45413269054751
 40
5
 41
0.8
 50
0
  1
２
  0
TEXT
  8
_0-7_枠細線
 62
    5
 10
471.99999999999977
 20
357.00000000000091
 40
5
 41
0.7199999999999999
 50
0
  1
２０１９．０４．０１
  0
TEXT
  8
_0-7_枠細線
 62
    5
 10
375.54014814814786
 20
364.00000000000091
 40
5
 41
1
 50
0
  1
品番追加
  0
TEXT
  8
_0-7_枠細線
 62
    5
 10
375.54014814814786
 20
357.00000000000091
 40
5
 41
1
 50
0
  1
品番追加
  0
LINE
  8
_0-7_枠細線
  6
CONTINUOUS
 62
    5
 10
569.99999999999977
 20
349.00000000000091
 11
355.99999999999977
 21
349.00000000000091
  0
LINE
  8
_0-7_枠細線
  6
CONTINUOUS
 62
    5
 10
365.99999999999977
 20
349.57693358869966
 11
362.99999999999977
 21
355.57693358869966
  0
LINE
  8
_0-7_枠細線
  6
CONTINUOUS
 62
    5
 10
359.99999999999977
 20
349.57693358869966
 11
365.99999999999977
 21
349.57693358869966
  0
LINE
  8
_0-7_枠細線
  6
CONTINUOUS
 62
    5
 10
362.99999999999977
 20
355.57693358869966
 11
359.99999999999977
 21
349.57693358869966
  0
TEXT
  8
_0-7_枠細線
 62
    5
 10
375.54014814814786
 20
350.00000000000091
 40
5
 41
1
 50
0
  1
品番追加
  0
TEXT
  8
_0-7_枠細線
 62
    5
 10
360.94606050725901
 20
349.45413269054751
 40
5
 41
0.8
 50
0
  1
３
  0
TEXT
  8
_0-7_枠細線
 62
    5
 10
471.99999999999977
 20
350.00000000000091
 40
5
 41
0.7199999999999999
 50
0
  1
２０２０．０７．０１
  0
LINE
  8
_0-7_枠細線
  6
CONTINUOUS
 62
    5
 10
355.99999999999977
 20
349.00000000000091
 11
355.99999999999977
 21
384.00000000000068
  0
LINE
  8
_0-7_枠細線
  6
CONTINUOUS
 62
    5
 10
369.99999999999977
 20
349.00000000000091
 11
369.99999999999977
 21
384.00000000000068
  0
LINE
  8
_0-7_枠細線
  6
CONTINUOUS
 62
    5
 10
469.99999999999977
 20
349.00000000000091
 11
469.99999999999977
 21
384.00000000000068
  0
LINE
  8
_0-7_枠細線
  6
CONTINUOUS
 62
    5
 10
509.99999999999977
 20
349.00000000000091
 11
509.99999999999977
 21
384.00000000000068
  0
LINE
  8
_0-e_極細6
  6
CONTINUOUS
 62
    6
 10
470.25627820029104
 20
208.0332852422265
 11
470.25627820029104
 21
235.97968698237901
  0
LINE
  8
_0-e_極細6
  6
CONTINUOUS
 62
    6
 10
452.65873937140429
 20
234.69979590901812
 11
470.99175834156017
 21
236.03317937563907
  0
LINE
  8
_0-e_極細6
  6
CONTINUOUS
 62
    6
 10
452.65873937140429
 20
234.69979590901812
 11
452.65873937140429
 21
208.03328524222661
  0
ARC
  8
_0-e_極細6
  6
CONTINUOUS
 62
    6
 10
690.18922664732247
 20
219.35559152972081
 40
218.01698830005313
 50
176.06166589135
 51
182.81142618743019
  0
LINE
  8
_0-e_極細6
  6
CONTINUOUS
 62
    6
 10
452.65873937140429
 20
234.69979590901812
 11
408.32272927385429
 21
234.69979590901812
  0
LINE
  8
_0-e_極細6
  6
CONTINUOUS
 62
    6
 10
470.99175834156017
 20
236.03317937563907
 11
400.98911920744058
 21
236.03317937563907
  0
LINE
  8
_0-e_極細6
  6
CONTINUOUS
 62
    6
 10
435.97999999999956
 20
238.03325490890302
 11
470.49173932170925
 21
238.03325490890302
  0
LINE
  8
_0-e_極細6
  6
CONTINUOUS
 62
    6
 10
435.97999999999956
 20
240.03332977550144
 11
457.6938488398182
 21
240.03332977550144
  0
LINE
  8
_0-e_極細6
  6
CONTINUOUS
 62
    6
 10
458.02503920841309
 20
239.73783470811395
 11
458.21984835461035
 21
238.03325490755356
  0
LINE
  8
_0-e_極細6
  6
CONTINUOUS
 62
    6
 10
435.97999999999956
 20
244.70000990883932
 11
419.81333333333293
 21
244.70000990883932
  0
LINE
  8
_0-e_極細6
  6
CONTINUOUS
 62
    6
 10
470.25627820029104
 20
208.03328524222661
 11
418.02209054442255
 21
208.03328524222661
  0
LINE
  8
_0-e_極細6
  6
CONTINUOUS
 62
    6
 10
414.6934568735287
 20
211.18752107007913
 11
413.65792313884276
 21
230.42006576077756
  0
ARC
  8
_0-e_極細6
  6
CONTINUOUS
 62
    6
 10
418.02209387775292
 20
211.36674424211151
 40
3.3334589998848969
 50
183.08198799999334
 51
269.99999999999977
  0
LINE
  8
_0-e_極細6
  6
CONTINUOUS
 62
    6
 10
411.84808810102868
 20
234.69979590901812
 11
410.34086412419765
 21
234.69979590901812
  0
ARC
  8
_0-e_極細6
  6
CONTINUOUS
 62
    6
 10
412.0270659399489
 20
232.3663746757652
 40
1.0000377666322038
 50
184.99999999998639
 51
269.99999999999977
  0
LINE
  8
_0-e_極細6
  6
CONTINUOUS
 62
    6
 10
435.97811664545497
 20
238.03325490890302
 11
401.48913809075657
 21
238.03325490890302
  0
LINE
  8
_0-e_極細6
  6
CONTINUOUS
 62
    6
 10
411.03083350322504
 20
232.27921542087552
 11
410.89892695527442
 21
233.7869167306103
  0
LINE
  8
_0-e_極細6
  6
CONTINUOUS
 62
    6
 10
401.48913809075657
 20
238.03325490890302
 11
400.98911920744058
 21
236.03317937563861
  0
ARC
  8
_0-e_極細6
  6
CONTINUOUS
 62
    6
 10
409.90269451855056
 20
233.69975814238614
 40
1.0000377666322038
 50
5.0000000000124052
 51
89.999999999999929
  0
LINE
  8
_0-e_極細6
  6
CONTINUOUS
 62
    6
 10
408.32272927385429
 20
234.69979590901812
 11
403.34647375248596
 21
236.03317937563907
  0
LINE
  8
_0-e_極細6
  6
CONTINUOUS
 62
    6
 10
413.6320298288133
 20
230.9009693279645
 11
413.5124066031417
 21
233.12267799509209
  0
ARC
  8
_0-e_極細6
  6
CONTINUOUS
 62
    6
 10
412.6593320375755
 20
230.36629914250125
 40
1.0000377666322038
 50
3.081988000018955
 51
89.999999999999915
  0
LINE
  8
_0-e_極細6
  6
CONTINUOUS
 62
    6
 10
412.6593320375755
 20
231.36633690913322
 11
412.0270659399489
 21
231.36633690913322
  0
LINE
  8
_0-e_極細6
  6
CONTINUOUS
 62
    6
 10
435.97824082115858
 20
240.03332977550144
 11
414.28702857264761
 21
240.03332977550144
  0
LINE
  8
_0-e_極細6
  6
CONTINUOUS
 62
    6
 10
413.95583820405227
 20
239.73783470811395
 11
413.69625891242868
 21
238.03325490890302
  0
ARC
  8
_0-e_極細6
  6
CONTINUOUS
 62
    6
 10
411.84808810102868
 20
233.03306607574268
 40
1.666729166609457
 50
3.081988000009944
 51
89.999999999999915
  0
ARC
  8
_0-e_極細6
  6
CONTINUOUS
 62
    6
 10
414.28702857264761
 20
239.69998407551248
 40
0.3333456999887403
 50
89.999999999999915
 51
173.48019799997405
  0
LINE
  8
_0-e_極細6
  6
CONTINUOUS
 62
    6
 10
479.32540603807092
 20
233.54812894551924
 11
479.32540603807092
 21
209.20939285039549
  0
ARC
  8
_0-e_極細6
  6
CONTINUOUS
 62
    6
 10
470.25627820029104
 20
209.70001440883607
 40
1.666729166609457
 50
269.99999999999977
 51
291.71126200000015
  0
LINE
  8
_0-e_極細6
  6
CONTINUOUS
 62
    6
 10
478.67151262657535
 20
234.21469767893996
 11
472.68707467923969
 21
234.32960490885716
  0
ARC
  8
_0-e_極細6
  6
CONTINUOUS
 62
    6
 10
472.71907198377539
 20
235.99602740907585
 40
1.666729166609457
 50
194.03624299999225
 51
268.90000000000543
  0
ARC
  8
_0-e_極細6
  6
CONTINUOUS
 62
    6
 10
478.65871397142746
 20
233.54812894551924
 40
0.6666920666434634
 50
0
 51
88.90000000000731
  0
ARC
  8
_0-e_極細6
  6
CONTINUOUS
 62
    6
 10
472.4026516018871
 20
206.99566417608594
 40
1.666729166609457
 50
88.899999999990214
 51
114.81817499998989
  0
ARC
  8
_0-e_極細6
  6
CONTINUOUS
 62
    6
 10
478.65871397142746
 20
209.20939285039549
 40
0.6666920666434634
 50
268.90000000000691
 51
359.99999999999966
  0
LINE
  8
_0-e_極細6
  6
CONTINUOUS
 62
    6
 10
470.49173932170925
 20
238.03325490890347
 11
471.10210677237819
 21
235.59178577289367
  0
LINE
  8
_0-e_極細6
  6
CONTINUOUS
 62
    6
 10
478.64591531627957
 20
208.54282411697432
 11
472.43464890642281
 21
208.6620860096391
  0
ARC
  8
_0-e_極細6
  6
CONTINUOUS
 62
    6
 10
464.70712786119657
 20
223.63643853271287
 40
16.667294999424939
 50
291.71126199999719
 51
294.81817500000051
  0
ARC
  8
_0-e_極細6
  6
CONTINUOUS
 62
    6
 10
457.6938488398182
 20
239.69998407551248
 40
0.3333456999887403
 50
6.5198020000259715
 51
89.999999999999915
  0
LINE
  8
_0-e_極細6
  6
CONTINUOUS
 62
    6
 10
419.81333333333293
 20
244.70000990883932
 11
419.81333333333293
 21
240.03332977550144
  0
LINE
  8
_0-e_極細6
  6
CONTINUOUS
 62
    6
 10
436.05171570545417
 20
208.03329209363619
 11
435.99042039062397
 21
208.0945874084664
  0
LINE
  8
_0-e_極細6
  6
CONTINUOUS
 62
    6
 10
450.81333333333293
 20
244.70000990883932
 11
450.81333333333293
 21
277.70000990883932
  0
LINE
  8
_0-e_極細6
  6
CONTINUOUS
 62
    6
 10
421.14666666666631
 20
244.70000990883932
 11
421.14666666666631
 21
277.70000990883932
  0
LINE
  8
_0-e_極細6
  6
CONTINUOUS
 62
    6
 10
458.64666666666631
 20
318.69071943267977
 11
458.64666666666631
 21
314.70000990883932
  0
LINE
  8
_0-e_極細6
  6
CONTINUOUS
 62
    6
 10
435.97999999999956
 20
314.70000990883932
 11
458.64666666666631
 21
314.70000990883932
  0
LINE
  8
_0-e_極細6
  6
CONTINUOUS
 62
    6
 10
435.97999999999956
 20
306.36667599815564
 11
453.64666599999964
 21
306.36667599815564
  0
LINE
  8
_0-e_極細6
  6
CONTINUOUS
 62
    6
 10
435.97999999999956
 20
304.9233003251818
 11
452.8133329999996
 21
304.9233003251818
  0
LINE
  8
_0-e_極細6
  6
CONTINUOUS
 62
    6
 10
453.64666599999964
 20
306.36667632518174
 11
453.64666599999964
 21
312.23994017258167
  0
LINE
  8
_0-e_極細6
  6
CONTINUOUS
 62
    6
 10
453.64666599999964
 20
308.9066068392483
 11
454.94666599999971
 21
308.9066068392483
  0
LINE
  8
_0-e_極細6
  6
CONTINUOUS
 62
    6
 10
454.94666599999971
 20
308.9066068392483
 11
454.94666599999971
 21
309.21842332518167
  0
LINE
  8
_0-e_極細6
  6
CONTINUOUS
 62
    6
 10
444.51245846751681
 20
308.9066068392483
 11
444.51245846751681
 21
312.23994017258167
  0
LINE
  8
_0-e_極細6
  6
CONTINUOUS
 62
    6
 10
445.8514846271953
 20
308.9066068392483
 11
445.8514846271953
 21
312.23994017258167
  0
LINE
  8
_0-e_極細6
  6
CONTINUOUS
 62
    6
 10
444.51245846751681
 20
308.9066068392483
 11
445.8514846271953
 21
308.9066068392483
  0
LINE
  8
_0-e_極細6
  6
CONTINUOUS
 62
    6
 10
435.97999999999956
 20
312.23994017258167
 11
454.94666599999971
 21
312.23994017258167
  0
LINE
  8
_0-e_極細6
  6
CONTINUOUS
 62
    6
 10
454.94666599999971
 20
313.57896398896628
 11
435.97999999999956
 21
313.57896398896628
  0
ARC
  8
_0-e_極細6
  6
CONTINUOUS
 62
    6
 10
450.14666599999964
 20
280.36667690883939
 40
2.6666669999999999
 50
269.99999999999977
 51
359.99999999999966
  0
ARC
  8
_0-e_極細6
  6
CONTINUOUS
 62
    6
 10
454.47999999999979
 20
304.9233003251818
 40
1.6666669999999999
 50
120.00000000000531
 51
179.99999999999983
  0
LINE
  8
_0-e_極細6
  6
CONTINUOUS
 62
    6
 10
454.94666599999971
 20
309.21842332518167
 11
454.94666599999971
 21
314.6905149088393
  0
LINE
  8
_0-e_極細6
  6
CONTINUOUS
 62
    6
 10
454.94666599999971
 20
314.46432190883934
 11
454.94666599999971
 21
314.70000990883932
  0
LINE
  8
_0-e_極細6
  6
CONTINUOUS
 62
    6
 10
452.8133329999996
 20
280.36667690883939
 11
452.8133329999996
 21
304.9233003251818
  0
LINE
  8
_0-e_極細6
  6
CONTINUOUS
 62
    6
 10
450.81333333333293
 20
277.70000990883932
 11
435.97999999999956
 21
277.70000990883932
  0
LINE
  8
_0-e_極細6
  6
CONTINUOUS
 62
    6
 10
435.97999999999956
 20
306.36667599815564
 11
418.31333399999949
 21
306.36667599815564
  0
LINE
  8
_0-e_極細6
  6
CONTINUOUS
 62
    6
 10
435.97999999999956
 20
304.9233003251818
 11
419.14666699999952
 21
304.9233003251818
  0
LINE
  8
_0-e_極細6
  6
CONTINUOUS
 62
    6
 10
418.31333399999949
 20
306.36667632518174
 11
418.31333399999949
 21
312.23994017258167
  0
LINE
  8
_0-e_極細6
  6
CONTINUOUS
 62
    6
 10
418.31333399999949
 20
308.9066068392483
 11
417.01333399999953
 21
308.9066068392483
  0
LINE
  8
_0-e_極細6
  6
CONTINUOUS
 62
    6
 10
417.01333399999953
 20
308.9066068392483
 11
417.01333399999953
 21
309.21842332518167
  0
LINE
  8
_0-e_極細6
  6
CONTINUOUS
 62
    6
 10
427.44754153248232
 20
308.9066068392483
 11
427.44754153248232
 21
312.23994017258167
  0
LINE
  8
_0-e_極細6
  6
CONTINUOUS
 62
    6
 10
426.10851537280382
 20
308.9066068392483
 11
426.10851537280382
 21
312.23994017258167
  0
LINE
  8
_0-e_極細6
  6
CONTINUOUS
 62
    6
 10
427.44754153248232
 20
308.9066068392483
 11
426.10851537280382
 21
308.9066068392483
  0
LINE
  8
_0-e_極細6
  6
CONTINUOUS
 62
    6
 10
435.97999999999956
 20
308.9066068392483
 11
435.314314655271
 21
308.9066068392483
  0
LINE
  8
_0-e_極細6
  6
CONTINUOUS
 62
    6
 10
435.314314655271
 20
308.9066068392483
 11
435.314314655271
 21
312.23994017258167
  0
LINE
  8
_0-e_極細6
  6
CONTINUOUS
 62
    6
 10
435.97999999999956
 20
312.23994017258167
 11
417.01333399999953
 21
312.23994017258167
  0
LINE
  8
_0-e_極細6
  6
CONTINUOUS
 62
    6
 10
417.01333399999953
 20
313.57896398896628
 11
435.97999999999956
 21
313.57896398896628
  0
ARC
  8
_0-e_極細6
  6
CONTINUOUS
 62
    6
 10
421.81333399999949
 20
280.36667690883939
 40
2.6666669999999999
 50
179.99999999999983
 51
269.99999999999977
  0
ARC
  8
_0-e_極細6
  6
CONTINUOUS
 62
    6
 10
417.47999999999934
 20
304.9233003251818
 40
1.6666669999999999
 50
0
 51
59.999999999991303
  0
LINE
  8
_0-e_極細6
  6
CONTINUOUS
 62
    6
 10
417.01333399999953
 20
309.21842332518167
 11
417.01333399999953
 21
314.6905149088393
  0
LINE
  8
_0-e_極細6
  6
CONTINUOUS
 62
    6
 10
417.01333399999953
 20
314.46432190883934
 11
417.01333399999953
 21
314.70000990883932
  0
LINE
  8
_0-e_極細6
  6
CONTINUOUS
 62
    6
 10
419.14666699999952
 20
280.36667690883939
 11
419.14666699999952
 21
304.9233003251818
  0
LINE
  8
_0-e_極細6
  6
CONTINUOUS
 62
    6
 10
421.14666666666631
 20
277.70000990883932
 11
435.97999999999956
 21
277.70000990883932
  0
LINE
  8
_0-e_極細6
  6
CONTINUOUS
 62
    6
 10
462.64666666666631
 20
318.69071943267977
 11
462.64666666666631
 21
321.36667657550606
  0
LINE
  8
_0-e_極細6
  6
CONTINUOUS
 62
    6
 10
435.97999999999956
 20
308.9066068392483
 11
436.64568534472824
 21
308.9066068392483
  0
LINE
  8
_0-e_極細6
  6
CONTINUOUS
 62
    6
 10
436.64568534472824
 20
308.9066068392483
 11
436.64568534472824
 21
312.23994017258167
  0
LINE
  8
_0-e_極細6
  6
CONTINUOUS
 62
    6
 10
435.97999999999956
 20
244.70000990883932
 11
452.14666666666619
 21
244.70000990883932
  0
LINE
  8
_0-e_極細6
  6
CONTINUOUS
 62
    6
 10
452.14666666666619
 20
244.70000990883932
 11
452.14666666666619
 21
240.03332977550144
  0
LINE
  8
_0-e_極細6
  6
CENTER1
 62
    6
 10
435.97999999999956
 20
334.16283579375931
 11
435.97999999999956
 21
204.58351094808029
  0
ARC
  8
_0-e_極細6
  6
CONTINUOUS
 62
    6
 10
398.60693016648418
 20
320.71271616676188
 40
5.3197781642784427
 50
147.78755619840257
 51
210.24260825073415
  0
ARC
  8
_0-e_極細6
  6
CONTINUOUS
 62
    6
 10
389.41541224002344
 20
315.3539703175835
 40
5.3197781642784427
 50
327.78755619840121
 51
30.24260825073415
  0
LINE
  8
_0-e_極細6
  6
CONTINUOUS
 62
    6
 10
462.64666666666631
 20
321.36667657550606
 11
393.32750069911469
 21
321.36667657550606
  0
LINE
  8
_0-e_極細6
  6
CONTINUOUS
 62
    6
 10
462.64666666666631
 20
318.69071943267977
 11
393.68640489731877
 21
318.69071943267977
  0
LINE
  8
_0-e_極細6
  6
CONTINUOUS
 62
    6
 10
435.97999999999956
 20
314.70000990883932
 11
394.69484170739287
 21
314.70000990883932
  0
LINE
  8
_0-5_寸法線
  6
CONTINUOUS
 62
    7
 10
423.61873971193404
 20
287.97566320101896
 11
419.75503640677778
 21
289.01093938142907
  0
LINE
  8
_0-5_寸法線
  6
CONTINUOUS
 62
    7
 10
423.61873971193404
 20
287.97566320101896
 11
420.79031258718788
 21
290.80409032576517
  0
LINE
  8
_0-5_寸法線
  6
CONTINUOUS
 62
    7
 10
423.61873971193404
 20
287.97566320101896
 11
405.61873971193404
 21
298.36796804643234
  0
LINE
  8
_0-5_寸法線
  6
CONTINUOUS
 62
    7
 10
405.61873971193404
 20
298.36796804643234
 11
363.61873971193404
 21
298.36796804643234
  0
TEXT
  8
_0-5_寸法線
 62
    7
 10
363.61873971193404
 20
298.36796804643234
 40
6
 41
1
 50
0
  1
縦引きトラップ
  0
LINE
  8
_0-5_寸法線
  6
CONTINUOUS
 62
    7
 10
425.77873971193412
 20
256.84316320101891
 11
421.91503640677786
 21
257.87843938142902
  0
LINE
  8
_0-5_寸法線
  6
CONTINUOUS
 62
    7
 10
425.77873971193412
 20
256.84316320101891
 11
422.95031258718797
 21
259.67159032576512
  0
LINE
  8
_0-5_寸法線
  6
CONTINUOUS
 62
    7
 10
425.77873971193412
 20
256.84316320101891
 11
405.85873971193411
 21
268.34398056327632
  0
LINE
  8
_0-5_寸法線
  6
CONTINUOUS
 62
    7
 10
405.85873971193411
 20
268.34398056327632
 11
330.85873971193405
 21
268.34398056327632
  0
TEXT
  8
_0-5_寸法線
 62
    7
 10
330.85873971193411
 20
268.34398056327632
 40
6
 41
1
 50
0
  1
かさ上げユニット 横引き用
  0
LINE
  8
_0-5_寸法線
  6
CONTINUOUS
 62
    7
 10
419.94873971193419
 20
218.74316320101892
 11
417.12031258718798
 21
215.91473607627273
  0
LINE
  8
_0-5_寸法線
  6
CONTINUOUS
 62
    7
 10
419.94873971193419
 20
218.74316320101892
 11
416.08503640677793
 21
217.70788702060884
  0
LINE
  8
_0-5_寸法線
  6
CONTINUOUS
 62
    7
 10
419.94873971193419
 20
218.74316320101892
 11
396.72873971193411
 21
205.33708995043591
  0
LINE
  8
_0-5_寸法線
  6
CONTINUOUS
 62
    7
 10
396.72873971193411
 20
205.33708995043591
 11
351.72873971193405
 21
205.33708995043591
  0
TEXT
  8
_0-5_寸法線
 62
    7
 10
351.72873971193411
 20
205.33708995043591
 40
6
 41
1
 50
0
  1
防水マス 横引き
  0
LINE
  8
_1-1_寸法6
  6
CONTINUOUS
 62
    7
 10
466.64666666666631
 20
321.36667657550601
 11
500.6492209396821
 21
321.36667657550572
  0
LINE
  8
_1-1_寸法6
  6
CONTINUOUS
 62
    7
 10
498.6492209396821
 20
321.36667657550572
 11
499.6844971200922
 21
317.50297327034946
  0
LINE
  8
_1-1_寸法6
  6
CONTINUOUS
 62
    7
 10
498.6492209396821
 20
321.36667657550572
 11
497.61394475927204
 21
317.50297327034946
  0
LINE
  8
_1-1_寸法6
  6
CONTINUOUS
 62
    7
 10
482.6492209396821
 20
238.03334324217261
 11
500.64922093968221
 21
238.03334324217244
  0
LINE
  8
_1-1_寸法6
  6
CONTINUOUS
 62
    7
 10
498.64922093968221
 20
238.03334324217246
 11
497.6139447592721
 21
241.89704654732873
  0
LINE
  8
_1-1_寸法6
  6
CONTINUOUS
 62
    7
 10
498.64922093968221
 20
238.03334324217246
 11
499.68449712009226
 21
241.89704654732873
  0
LINE
  8
_1-1_寸法6
  6
CONTINUOUS
 62
    7
 10
498.6492209396821
 20
321.36667657550572
 11
498.64922093968221
 21
238.03334324217246
  0
TEXT
  8
_1-1_寸法6
 62
    7
 10
498.6492209396821
 20
276.70000990883909
 40
6
 41
1
 50
90
  1
Ｈ
  0
LINE
  8
_1-1_寸法6
  6
CONTINUOUS
 62
    7
 10
462.64666666666631
 20
314.70000990883926
 11
487.12666666666678
 21
314.70000990883909
  0
LINE
  8
_1-1_寸法6
  6
CONTINUOUS
 62
    7
 10
485.12666666666678
 20
314.70000990883909
 11
486.16194284707683
 21
310.83630660368283
  0
LINE
  8
_1-1_寸法6
  6
CONTINUOUS
 62
    7
 10
485.12666666666678
 20
314.70000990883909
 11
484.09139048625667
 21
310.83630660368283
  0
LINE
  8
_1-1_寸法6
  6
CONTINUOUS
 62
    7
 10
466.49566846126385
 20
321.36667657550601
 11
487.12666666666678
 21
321.36667657550583
  0
LINE
  8
_1-1_寸法6
  6
CONTINUOUS
 62
    7
 10
485.12666666666678
 20
321.36667657550583
 11
484.09139048625673
 21
325.2303798806621
  0
LINE
  8
_1-1_寸法6
  6
CONTINUOUS
 62
    7
 10
485.12666666666678
 20
321.36667657550583
 11
486.16194284707689
 21
325.2303798806621
  0
LINE
  8
_1-1_寸法6
  6
CONTINUOUS
 62
    7
 10
485.12666666666678
 20
304.70000990883909
 11
485.12666666666678
 21
331.36667657550583
  0
TEXT
  8
_1-1_寸法6
 62
    7
 10
485.12666666666678
 20
315.03334324217246
 40
6
 41
1
 50
90
  1
ｈ
  0
LINE
  8
_0-5_寸法線
  6
CONTINUOUS
 62
    7
 10
425.03318415637841
 20
320.30899653435233
 11
422.20475700325272
 21
323.13742363071901
  0
LINE
  8
_0-5_寸法線
  6
CONTINUOUS
 62
    7
 10
425.03318415637841
 20
320.30899653435233
 11
423.99790793720121
 21
324.17269982912097
  0
LINE
  8
_0-5_寸法線
  6
CONTINUOUS
 62
    7
 10
425.03318415637841
 20
320.30899653435233
 11
416.94402456283524
 21
334.31983161624635
  0
LINE
  8
_0-5_寸法線
  6
CONTINUOUS
 62
    7
 10
416.94402456283524
 20
334.31983161624635
 11
368.94402456283524
 21
334.31983161624635
  0
TEXT
  8
_0-5_寸法線
 62
    7
 10
368.94402456283524
 20
334.31983161624635
 40
6
 41
1
 50
0
  1
排水ユニット本体
  0
TEXT
  8
_0-7_枠細線
 62
    5
 10
396.02614612234095
 20
174.16732725591223
 40
6
 41
0.8000000000000001
 50
0
  1
種　別
  0
TEXT
  8
_0-7_枠細線
 62
    5
 10
393.72614612233974
 20
184.16732725591223
 40
7
 41
1
 50
0
  1
かさ上げ寸法表
  0
TEXT
  8
_0-7_枠細線
 62
    5
 10
438.82614612234124
 20
174.16732725591223
 40
6
 41
0.8000000000000001
 50
0
  1
Ｈ
  0
TEXT
  8
_0-7_枠細線
 62
    5
 10
474.82614612234124
 20
174.16732725591223
 40
6
 41
0.8000000000000001
 50
0
  1
ｈ
  0
LINE
  8
_0-7_枠細線
  6
CONTINUOUS
 62
    5
 10
388.22614612234042
 20
182.16732725591223
 11
490.22614612234088
 21
182.16732725591223
  0
LINE
  8
_0-7_枠細線
  6
CONTINUOUS
 62
    5
 10
388.22614612234042
 20
172.16732725591223
 11
490.22614612234088
 21
172.16732725591223
  0
LINE
  8
_0-7_枠細線
  6
CONTINUOUS
 62
    5
 10
388.22614612234042
 20
162.16732725591223
 11
490.22614612234088
 21
162.16732725591223
  0
TEXT
  8
_0-7_枠細線
 62
    5
 10
473.32614612234124
 20
164.16732725591223
 40
6
 41
0.5999999999999999
 50
0
  1
３６.５
  0
TEXT
  8
_0-7_枠細線
 62
    5
 10
423.22614612234122
 20
164.16732725591223
 40
6
 41
0.5999999999999999
 50
0
  1
１６２.５～３１６.５
  0
TEXT
  8
_0-7_枠細線
 62
    5
 10
389.4261461223407
 20
164.16732725591223
 40
6
 41
0.7666666666666666
 50
0
  1
ＨＲＡタイプ
  0
LINE
  8
_0-7_枠細線
  6
CONTINUOUS
 62
    5
 10
388.22614612234042
 20
152.16732725591223
 11
490.22614612234099
 21
152.16732725591223
  0
TEXT
  8
_0-7_枠細線
 62
    5
 10
389.42614612234081
 20
154.16732725591223
 40
6
 41
0.7666666666666666
 50
0
  1
ＨＲＣタイプ
  0
TEXT
  8
_0-7_枠細線
 62
    5
 10
473.32614612234124
 20
154.16732725591223
 40
6
 41
0.5999999999999999
 50
0
  1
２６.５
  0
LINE
  8
_0-7_枠細線
  6
CONTINUOUS
 62
    5
 10
384.59487796067435
 20
154.88715144550659
 11
381.59487796067435
 21
160.88715144550659
  0
LINE
  8
_0-7_枠細線
  6
CONTINUOUS
 62
    5
 10
378.59487796067435
 20
154.88715144550659
 11
384.59487796067435
 21
154.88715144550659
  0
LINE
  8
_0-7_枠細線
  6
CONTINUOUS
 62
    5
 10
381.59487796067435
 20
160.88715144550659
 11
378.59487796067435
 21
154.88715144550659
  0
TEXT
  8
_0-7_枠細線
 62
    5
 10
379.54093846793376
 20
154.76435054735444
 40
5
 41
0.8
 50
0
  1
１
  0
TEXT
  8
_0-7_枠細線
 62
    5
 10
423.22614612234133
 20
154.16732725591223
 40
6
 41
0.5999999999999999
 50
0
  1
１５２.５～３０６.５
  0
LINE
  8
_0-7_枠細線
  6
CONTINUOUS
 62
    5
 10
388.22614612234042
 20
142.16732725591223
 11
490.22614612234099
 21
142.16732725591223
  0
TEXT
  8
_0-7_枠細線
 62
    5
 10
389.42614612234092
 20
144.16732725591223
 40
6
 41
0.7666666666666666
 50
0
  1
ＨＲＦタイプ
  0
TEXT
  8
_0-7_枠細線
 62
    5
 10
469.72614612234133
 20
144.16732725591223
 40
6
 41
0.5999999999999999
 50
0
  1
１００ 　
  0
LINE
  8
_0-7_枠細線
  6
CONTINUOUS
 62
    5
 10
388.22614612234042
 20
132.16732725591223
 11
490.22614612234088
 21
132.16732725591223
  0
TEXT
  8
_0-7_枠細線
 62
    5
 10
473.32614612234124
 20
134.16732725591223
 40
6
 41
0.5999999999999999
 50
0
  1
２０
  0
TEXT
  8
_0-7_枠細線
 62
    5
 10
428.6261461223412
 20
134.16732725591223
 40
6
 41
0.5999999999999999
 50
0
  1
１４６～３００
  0
TEXT
  8
_0-7_枠細線
 62
    5
 10
389.4261461223407
 20
134.16732725591223
 40
6
 41
0.7666666666666666
 50
0
  1
ＨＳＡタイプ
  0
LINE
  8
_0-7_枠細線
  6
CONTINUOUS
 62
    5
 10
388.22614612234042
 20
122.16732725591214
 11
490.22614612234088
 21
122.16732725591214
  0
TEXT
  8
_0-7_枠細線
 62
    5
 10
389.4261461223407
 20
124.16732725591214
 40
6
 41
0.7666666666666666
 50
0
  1
ＨＳＴタイプ
  0
TEXT
  8
_0-7_枠細線
 62
    5
 10
473.32614612234124
 20
124.16732725591214
 40
6
 41
0.5999999999999999
 50
0
  1
２１.５
  0
LINE
  8
_0-7_枠細線
  6
CONTINUOUS
 62
    5
 10
384.59487796067435
 20
124.8871514455065
 11
381.59487796067435
 21
130.8871514455065
  0
LINE
  8
_0-7_枠細線
  6
CONTINUOUS
 62
    5
 10
378.59487796067435
 20
124.8871514455065
 11
384.59487796067435
 21
124.8871514455065
  0
LINE
  8
_0-7_枠細線
  6
CONTINUOUS
 62
    5
 10
381.59487796067435
 20
130.8871514455065
 11
378.59487796067435
 21
124.8871514455065
  0
TEXT
  8
_0-7_枠細線
 62
    5
 10
379.54093846793376
 20
124.76435054735435
 40
5
 41
0.8
 50
0
  1
２
  0
TEXT
  8
_0-7_枠細線
 62
    5
 10
423.22614612234122
 20
124.16732725591214
 40
6
 41
0.5999999999999999
 50
0
  1
１４７.５～３０１.５
  0
LINE
  8
_0-7_枠細線
  6
CONTINUOUS
 62
    5
 10
388.22614612234042
 20
112.16732725591214
 11
490.22614612234099
 21
112.16732725591214
  0
TEXT
  8
_0-7_枠細線
 62
    5
 10
469.72614612234133
 20
114.16732725591214
 40
6
 41
0.5999999999999999
 50
0
  1
１００ 　
  0
TEXT
  8
_0-7_枠細線
 62
    5
 10
389.42614612234092
 20
114.16732725591214
 40
6
 41
0.7666666666666666
 50
0
  1
ＨＳＦタイプ
  0
LINE
  8
_0-7_枠細線
  6
CONTINUOUS
 62
    5
 10
388.22614612234042
 20
102.16732725591214
 11
490.22614612234088
 21
102.16732725591214
  0
TEXT
  8
_0-7_枠細線
 62
    5
 10
428.6261461223412
 20
104.16732725591214
 40
6
 41
0.5999999999999999
 50
0
  1
１５６～３１０
  0
TEXT
  8
_0-7_枠細線
 62
    5
 10
473.32614612234124
 20
104.16732725591214
 40
6
 41
0.5999999999999999
 50
0
  1
３０
  0
TEXT
  8
_0-7_枠細線
 62
    5
 10
389.4261461223407
 20
104.16732725591214
 40
6
 41
0.7666666666666666
 50
0
  1
ＨＳＵタイプ
  0
LINE
  8
_0-7_枠細線
  6
CONTINUOUS
 62
    5
 10
388.22614612234042
 20
92.167327255912141
 11
490.22614612234088
 21
92.167327255912141
  0
LINE
  8
_0-7_枠細線
  6
CONTINUOUS
 62
    5
 10
388.22614612234042
 20
82.167327255912141
 11
490.22614612234088
 21
82.167327255912141
  0
LINE
  8
_0-7_枠細線
  6
CONTINUOUS
 62
    5
 10
490.22614612234088
 20
182.16732725591223
 11
490.22614612234088
 21
82.167327255912141
  0
LINE
  8
_0-7_枠細線
  6
CONTINUOUS
 62
    5
 10
464.22614612234099
 20
182.16732725591223
 11
464.22614612234099
 21
82.167327255912141
  0
LINE
  8
_0-7_枠細線
  6
CONTINUOUS
 62
    5
 10
388.22614612234042
 20
182.16732725591223
 11
388.22614612234042
 21
82.167327255912141
  0
LINE
  8
_0-7_枠細線
  6
CONTINUOUS
 62
    5
 10
418.22614612234099
 20
182.16732725591223
 11
418.22614612234099
 21
82.167327255912141
  0
TEXT
  8
_0-7_枠細線
 62
    5
 10
428.6261461223412
 20
84.167327255912141
 40
6
 41
0.5999999999999999
 50
0
  1
１４８～３０２
  0
TEXT
  8
_0-7_枠細線
 62
    5
 10
473.32614612234124
 20
84.167327255912141
 40
6
 41
0.5999999999999999
 50
0
  1
２２
  0
TEXT
  8
_0-7_枠細線
 62
    5
 10
389.4261461223407
 20
84.167327255912141
 40
6
 41
0.7666666666666666
 50
0
  1
ＨＳＫタイプ
  0
TEXT
  8
_0-7_枠細線
 62
    5
 10
389.42614612234081
 20
94.167327255912141
 40
6
 41
0.7666666666666666
 50
0
  1
ＨＴＡタイプ
  0
TEXT
  8
_0-7_枠細線
 62
    5
 10
423.22614612234122
 20
94.167327255912141
 40
6
 41
0.5999999999999999
 50
0
  1
１６２.５～３１６.５
  0
TEXT
  8
_0-7_枠細線
 62
    5
 10
473.32614612234124
 20
94.167327255912141
 40
6
 41
0.5999999999999999
 50
0
  1
３６.５
  0
LINE
  8
_0-7_枠細線
  6
CONTINUOUS
 62
    5
 10
384.59487796067435
 20
94.887151445506504
 11
381.59487796067435
 21
100.8871514455065
  0
LINE
  8
_0-7_枠細線
  6
CONTINUOUS
 62
    5
 10
378.59487796067435
 20
94.887151445506504
 11
384.59487796067435
 21
94.887151445506504
  0
LINE
  8
_0-7_枠細線
  6
CONTINUOUS
 62
    5
 10
381.59487796067435
 20
100.8871514455065
 11
378.59487796067435
 21
94.887151445506504
  0
TEXT
  8
_0-7_枠細線
 62
    5
 10
379.54093846793376
 20
94.764350547354354
 40
5
 41
0.8
 50
0
  1
３
  0
LINE
  8
_0-5_寸法線
  6
CONTINUOUS
 62
    7
 10
134.36000000000001
 20
328.64579630305866
 11
134.36000000000001
 21
360.64579630305866
  0
LINE
  8
_0-5_寸法線
  6
CONTINUOUS
 62
    7
 10
134.36000000000001
 20
358.64579630305866
 11
138.22370330515628
 21
359.68107248346877
  0
LINE
  8
_0-5_寸法線
  6
CONTINUOUS
 62
    7
 10
134.36000000000001
 20
358.64579630305866
 11
138.22370330515628
 21
357.61052012264855
  0
LINE
  8
_0-5_寸法線
  6
CONTINUOUS
 62
    7
 10
223.36000000000001
 20
328.64579630305866
 11
223.36000000000001
 21
360.64579630305866
  0
LINE
  8
_0-5_寸法線
  6
CONTINUOUS
 62
    7
 10
223.36000000000001
 20
358.64579630305866
 11
219.49629669484375
 21
357.61052012264861
  0
LINE
  8
_0-5_寸法線
  6
CONTINUOUS
 62
    7
 10
223.36000000000001
 20
358.64579630305866
 11
219.49629669484375
 21
359.68107248346877
  0
LINE
  8
_0-5_寸法線
  6
CONTINUOUS
 62
    7
 10
134.36000000000001
 20
358.64579630305866
 11
223.36000000000001
 21
358.64579630305866
  0
TEXT
  8
_0-5_寸法線
 62
    7
 10
172.86000000000001
 20
358.64579630305866
 40
6
 41
1
 50
0
  1
φ89
  0
LINE
  8
_0-5_寸法線
  6
CONTINUOUS
 62
    7
 10
137.36000000000001
 20
328.64579630305866
 11
137.36000000000001
 21
346.64579630305866
  0
LINE
  8
_0-5_寸法線
  6
CONTINUOUS
 62
    7
 10
137.36000000000001
 20
344.64579630305866
 11
141.22370330515628
 21
345.68107248346877
  0
LINE
  8
_0-5_寸法線
  6
CONTINUOUS
 62
    7
 10
137.36000000000001
 20
344.64579630305866
 11
141.22370330515628
 21
343.61052012264855
  0
LINE
  8
_0-5_寸法線
  6
CONTINUOUS
 62
    7
 10
220.36000000000001
 20
328.64579630305866
 11
220.36000000000001
 21
346.64579630305866
  0
LINE
  8
_0-5_寸法線
  6
CONTINUOUS
 62
    7
 10
220.36000000000001
 20
344.64579630305866
 11
216.49629669484375
 21
343.61052012264861
  0
LINE
  8
_0-5_寸法線
  6
CONTINUOUS
 62
    7
 10
220.36000000000001
 20
344.64579630305866
 11
216.49629669484375
 21
345.68107248346877
  0
LINE
  8
_0-5_寸法線
  6
CONTINUOUS
 62
    7
 10
137.36000000000001
 20
344.64579630305866
 11
220.36000000000001
 21
344.64579630305866
  0
TEXT
  8
_0-5_寸法線
 62
    7
 10
172.86000000000001
 20
344.64579630305866
 40
6
 41
1
 50
0
  1
φ83
  0
LINE
  8
_0-1_計細線
  6
CONTINUOUS
 62
    3
 10
223.36000000000024
 20
130.64579630305869
 11
223.36000000000001
 21
324.64579630305866
  0
LINE
  8
_0-1_計細線
  6
CONTINUOUS
 62
    3
 10
223.36000000000001
 20
324.64579630305866
 11
220.36000000000001
 21
324.64579630305866
  0
LINE
  8
_0-1_計細線
  6
CONTINUOUS
 62
    3
 10
220.36000000000001
 20
324.64579630305866
 11
220.36000000000024
 21
130.64579630305869
  0
LINE
  8
_0-1_計細線
  6
CONTINUOUS
 62
    3
 10
220.36000000000024
 20
130.64579630305869
 11
223.36000000000024
 21
130.64579630305869
  0
LINE
  8
_0-1_計細線
  6
CONTINUOUS
 62
    3
 10
134.36000000000001
 20
324.64579630305866
 11
178.86000000000001
 21
324.64579630305866
  0
LINE
  8
_0-1_計細線
  6
CONTINUOUS
 62
    3
 10
134.36000000000024
 20
170.64579630305869
 11
134.36000000000001
 21
324.64579630305866
  0
LINE
  8
_0-1_計細線
  6
CONTINUOUS
 62
    3
 10
130.36000000000001
 20
170.64579630305869
 11
130.36000000000001
 21
125.64579630305869
  0
LINE
  8
_0-1_計細線
  6
CONTINUOUS
 62
    3
 10
145.36000000000024
 20
80.645796303058688
 11
145.36000000000024
 21
107.41256806888046
  0
LINE
  8
_0-1_計細線
  6
CONTINUOUS
 62
    3
 10
145.36000000000047
 20
107.41256806888001
 11
135.51405675354397
 21
125.64579630305869
  0
LINE
  8
_0-1_計細線
  6
CONTINUOUS
 62
    3
 10
227.36000000000001
 20
170.64579630305869
 11
227.36000000000001
 21
125.64579630305869
  0
LINE
  8
_0-1_計細線
  6
CONTINUOUS
 62
    3
 10
223.6600000000002
 20
170.64579630305869
 11
223.0100000000001
 21
130.64579630305869
  0
LINE
  8
_0-1_計細線
  6
CONTINUOUS
 62
    3
 10
223.0100000000001
 20
130.64579630305869
 11
220.36000000000001
 21
130.64579630305869
  0
LINE
  8
_0-1_計細線
  6
CONTINUOUS
 62
    3
 10
209.11000000000001
 20
80.645796303058688
 11
208.61000000000001
 21
105.64579630305869
  0
LINE
  8
_0-1_計細線
  6
CONTINUOUS
 62
    3
 10
206.86000000000001
 20
105.64579630305869
 11
220.36000000000001
 21
130.64579630305869
  0
LINE
  8
_0-1_計細線
  6
CONTINUOUS
 62
    3
 10
208.61000000000001
 20
105.64579630305869
 11
206.86000000000001
 21
105.64579630305869
  0
LINE
  8
_0-1_計細線
  6
CONTINUOUS
 62
    3
 10
227.36000000000001
 20
125.64579630305869
 11
222.20594324645606
 21
125.64579630305869
  0
LINE
  8
_0-1_計細線
  6
CONTINUOUS
 62
    3
 10
212.36000000000001
 20
80.645796303058688
 11
212.36000000000001
 21
107.41256806888046
  0
LINE
  8
_0-1_計細線
  6
CONTINUOUS
 62
    3
 10
212.35999999999956
 20
107.41256806888001
 11
222.20594324645606
 21
125.64579630305869
  0
LINE
  8
_0-1_計細線
  6
CONTINUOUS
 62
    3
 10
223.6600000000002
 20
170.64579630305869
 11
227.36000000000001
 21
170.64579630305869
  0
LINE
  8
_0-1_計細線
  6
CONTINUOUS
 62
    3
 10
209.11000000000001
 20
80.645796303058688
 11
212.36000000000001
 21
80.645796303058688
  0
LINE
  8
_0-1_計細線
  6
CONTINUOUS
 62
    3
 10
178.86000000000001
 20
170.64579630305869
 11
130.36000000000001
 21
170.64579630305869
  0
LINE
  8
_0-1_計細線
  6
CONTINUOUS
 62
    3
 10
130.36000000000001
 20
125.64579630305869
 11
178.86000000000001
 21
125.64579630305869
  0
LINE
  8
_0-1_計細線
  6
CONTINUOUS
 62
    3
 10
178.86000000000001
 20
80.645796303058688
 11
145.36000000000024
 21
80.645796303058688
  0
LINE
  8
_0-0_計極細
  6
CONTINUOUS
 62
    2
 10
145.36000000000024
 20
107.41256806888063
 11
178.86000000000001
 21
107.41256806888063
  0
LINE
  8
_0-0_計極細
  6
CONTINUOUS
 62
    2
 10
227.36000000000001
 20
168.50743734812474
 11
225.22164104506606
 21
170.64579630305869
  0
LINE
  8
_0-0_計極細
  6
CONTINUOUS
 62
    2
 10
223.63974388802501
 20
169.39926633535359
 11
227.36000000000001
 21
165.67901022337853
  0
LINE
  8
_0-0_計極細
  6
CONTINUOUS
 62
    2
 10
223.59451688603031
 20
166.61606621260211
 11
227.36000000000001
 21
162.85058309863234
  0
LINE
  8
_0-0_計極細
  6
CONTINUOUS
 62
    2
 10
223.54928988403555
 20
163.83286608985063
 11
227.36000000000001
 21
160.02215597388616
  0
LINE
  8
_0-0_計極細
  6
CONTINUOUS
 62
    2
 10
223.50406288204084
 20
161.04966596709914
 11
227.36000000000001
 21
157.19372884913994
  0
LINE
  8
_0-0_計極細
  6
CONTINUOUS
 62
    2
 10
223.45883588004608
 20
158.26646584434766
 11
227.36000000000001
 21
154.36530172439376
  0
LINE
  8
_0-0_計極細
  6
CONTINUOUS
 62
    2
 10
223.41360887805138
 20
155.48326572159618
 11
227.36000000000001
 21
151.53687459964755
  0
LINE
  8
_0-0_計極細
  6
CONTINUOUS
 62
    2
 10
223.36838187605667
 20
152.7000655988447
 11
227.36000000000001
 21
148.70844747490136
  0
LINE
  8
_0-0_計極細
  6
CONTINUOUS
 62
    2
 10
223.32315487406197
 20
149.91686547609325
 11
227.36000000000001
 21
145.88002035015515
  0
LINE
  8
_0-0_計極細
  6
CONTINUOUS
 62
    2
 10
223.27792787206727
 20
147.13366535334174
 11
227.36000000000001
 21
143.05159322540896
  0
LINE
  8
_0-0_計極細
  6
CONTINUOUS
 62
    2
 10
223.23270087007256
 20
144.35046523059029
 11
227.36000000000001
 21
140.22316610066278
  0
LINE
  8
_0-0_計極細
  6
CONTINUOUS
 62
    2
 10
223.1874738680778
 20
141.56726510783881
 11
227.36000000000001
 21
137.39473897591657
  0
LINE
  8
_0-0_計極細
  6
CONTINUOUS
 62
    2
 10
223.1422468660831
 20
138.78406498508733
 11
227.36000000000001
 21
134.56631185117038
  0
LINE
  8
_0-0_計極細
  6
CONTINUOUS
 62
    2
 10
223.09701986408834
 20
136.00086486233585
 11
227.36000000000001
 21
131.7378847264242
  0
LINE
  8
_0-0_計極細
  6
CONTINUOUS
 62
    2
 10
223.05179286209363
 20
133.21766473958436
 11
227.36000000000001
 21
128.90945760167799
  0
LINE
  8
_0-0_計極細
  6
CONTINUOUS
 62
    2
 10
222.79523417387315
 20
130.64579630305869
 11
227.36000000000001
 21
126.08103047693177
  0
LINE
  8
_0-0_計極細
  6
CONTINUOUS
 62
    2
 10
220.22212714709644
 20
130.39047620508916
 11
224.96680704912694
 21
125.64579630305869
  0
LINE
  8
_0-0_計極細
  6
CONTINUOUS
 62
    2
 10
219.23034101244519
 20
128.55383521499422
 11
222.18225221144263
 21
125.60192401599679
  0
LINE
  8
_0-0_計極細
  6
CONTINUOUS
 62
    2
 10
218.23855487779394
 20
126.71719422489932
 11
221.19046607679138
 21
123.76528302590185
  0
LINE
  8
_0-0_計極細
  6
CONTINUOUS
 62
    2
 10
217.2467687431427
 20
124.88055323480438
 11
220.19867994214013
 21
121.92864203580692
  0
LINE
  8
_0-0_計極細
  6
CONTINUOUS
 62
    2
 10
216.25498260849145
 20
123.04391224470945
 11
219.20689380748888
 21
120.09200104571195
  0
LINE
  8
_0-0_計極細
  6
CONTINUOUS
 62
    2
 10
215.26319647384014
 20
121.20727125461451
 11
218.21510767283763
 21
118.25536005561702
  0
LINE
  8
_0-0_計極細
  6
CONTINUOUS
 62
    2
 10
214.27141033918889
 20
119.37063026451958
 11
217.22332153818638
 21
116.41871906552208
  0
LINE
  8
_0-0_計極細
  6
CONTINUOUS
 62
    2
 10
213.27962420453764
 20
117.53398927442467
 11
216.23153540353513
 21
114.58207807542715
  0
LINE
  8
_0-0_計極細
  6
CONTINUOUS
 62
    2
 10
212.28783806988639
 20
115.69734828432973
 11
215.23974926888388
 21
112.7454370853322
  0
LINE
  8
_0-0_計極細
  6
CONTINUOUS
 62
    2
 10
211.29605193523514
 20
113.8607072942348
 11
214.24796313423263
 21
110.90879609523725
  0
LINE
  8
_0-0_計極細
  6
CONTINUOUS
 62
    2
 10
210.30426580058383
 20
112.02406630413986
 11
213.25617699958138
 21
109.07215510514231
  0
LINE
  8
_0-0_計極細
  6
CONTINUOUS
 62
    2
 10
209.31247966593259
 20
110.18742531404493
 11
212.36000000000001
 21
107.1399049799775
  0
LINE
  8
_0-0_計極細
  6
CONTINUOUS
 62
    2
 10
208.32069353128134
 20
108.35078432395001
 11
212.36000000000001
 21
104.3114778552313
  0
LINE
  8
_0-0_計極細
  6
CONTINUOUS
 62
    2
 10
212.36000000000001
 20
101.4830507304851
 11
208.61842337903215
 21
105.22462735145299
  0
LINE
  8
_0-0_計極細
  6
CONTINUOUS
 62
    2
 10
208.1972544274264
 20
105.64579630305869
 11
207.32890739663003
 21
106.51414333385507
  0
LINE
  8
_0-0_計極細
  6
CONTINUOUS
 62
    2
 10
208.67614638157795
 20
102.33847722416095
 11
212.36000000000001
 21
98.654623605738919
  0
LINE
  8
_0-0_計極細
  6
CONTINUOUS
 62
    2
 10
208.73386938412381
 20
99.452327096868927
 11
212.36000000000001
 21
95.826196480992721
  0
LINE
  8
_0-0_計極細
  6
CONTINUOUS
 62
    2
 10
208.79159238666966
 20
96.566176969576887
 11
212.36000000000001
 21
92.997769356246522
  0
LINE
  8
_0-0_計極細
  6
CONTINUOUS
 62
    2
 10
208.84931538921546
 20
93.680026842284846
 11
212.36000000000001
 21
90.169342231500323
  0
LINE
  8
_0-0_計極細
  6
CONTINUOUS
 62
    2
 10
208.90703839176132
 20
90.79387671499282
 11
212.36000000000001
 21
87.340915106754125
  0
LINE
  8
_0-0_計極細
  6
CONTINUOUS
 62
    2
 10
208.96476139430717
 20
87.907726587700779
 11
212.36000000000001
 21
84.512487982007926
  0
LINE
  8
_0-0_計極細
  6
CONTINUOUS
 62
    2
 10
209.02248439685297
 20
85.021576460408738
 11
212.36000000000001
 21
81.684060857261727
  0
LINE
  8
_0-0_計極細
  6
CONTINUOUS
 62
    2
 10
209.08020739939889
 20
82.135426333116712
 11
210.56983742945687
 21
80.645796303058688
  0
LINE
  8
_0-5_寸法線
  6
CONTINUOUS
 62
    7
 10
110.36000000000001
 20
324.64579630305866
 11
111.39527618041006
 21
320.7820929979024
  0
LINE
  8
_0-5_寸法線
  6
CONTINUOUS
 62
    7
 10
110.36000000000001
 20
324.64579630305866
 11
109.32472381958991
 21
320.7820929979024
  0
LINE
  8
_0-5_寸法線
  6
CONTINUOUS
 62
    7
 10
126.36000000000001
 20
170.64579630305869
 11
108.36000000000047
 21
170.64579630305869
  0
LINE
  8
_0-5_寸法線
  6
CONTINUOUS
 62
    7
 10
110.36000000000047
 20
170.64579630305869
 11
109.32472381959036
 21
174.50949960821495
  0
LINE
  8
_0-5_寸法線
  6
CONTINUOUS
 62
    7
 10
110.36000000000047
 20
170.64579630305869
 11
111.39527618041055
 21
174.50949960821495
  0
LINE
  8
_0-5_寸法線
  6
CONTINUOUS
 62
    7
 10
110.36000000000001
 20
324.64579630305866
 11
110.36000000000047
 21
170.64579630305869
  0
TEXT
  8
_0-5_寸法線
 62
    7
 10
110.36000000000024
 20
243.14579630305869
 40
6
 41
1
 50
90
  1
154
  0
LINE
  8
_0-5_寸法線
  6
CONTINUOUS
 62
    7
 10
110.36000000000047
 20
170.64579630305869
 11
111.39527618041055
 21
166.78209299790242
  0
LINE
  8
_0-5_寸法線
  6
CONTINUOUS
 62
    7
 10
110.36000000000047
 20
170.64579630305869
 11
109.32472381959036
 21
166.78209299790242
  0
LINE
  8
_0-5_寸法線
  6
CONTINUOUS
 62
    7
 10
110.36000000000047
 20
80.645796303058688
 11
109.32472381959039
 21
84.509499608214966
  0
LINE
  8
_0-5_寸法線
  6
CONTINUOUS
 62
    7
 10
110.36000000000047
 20
80.645796303058688
 11
111.39527618041058
 21
84.509499608214966
  0
LINE
  8
_0-5_寸法線
  6
CONTINUOUS
 62
    7
 10
110.36000000000047
 20
170.64579630305869
 11
110.36000000000047
 21
80.645796303058688
  0
TEXT
  8
_0-5_寸法線
 62
    7
 10
110.36000000000047
 20
122.64579630305869
 40
6
 41
1
 50
90
  1
90
  0
LINE
  8
_0-5_寸法線
  6
CONTINUOUS
 62
    7
 10
130.36000000000001
 20
324.64579630305866
 11
94.360000000000014
 21
324.64579630305877
  0
LINE
  8
_0-5_寸法線
  6
CONTINUOUS
 62
    7
 10
96.360000000000014
 20
324.64579630305877
 11
97.395276180410065
 21
320.78209299790251
  0
LINE
  8
_0-5_寸法線
  6
CONTINUOUS
 62
    7
 10
96.360000000000014
 20
324.64579630305877
 11
95.324723819589906
 21
320.78209299790251
  0
LINE
  8
_0-5_寸法線
  6
CONTINUOUS
 62
    7
 10
141.64583740972682
 20
80.645796303058717
 11
94.360000000000468
 21
80.64579630305883
  0
LINE
  8
_0-5_寸法線
  6
CONTINUOUS
 62
    7
 10
96.360000000000468
 20
80.64579630305883
 11
95.324723819590361
 21
84.509499608215108
  0
LINE
  8
_0-5_寸法線
  6
CONTINUOUS
 62
    7
 10
96.360000000000468
 20
80.64579630305883
 11
97.395276180410548
 21
84.509499608215108
  0
LINE
  8
_0-5_寸法線
  6
CONTINUOUS
 62
    7
 10
96.360000000000014
 20
324.64579630305877
 11
96.360000000000468
 21
80.64579630305883
  0
TEXT
  8
_0-5_寸法線
 62
    7
 10
96.360000000000468
 20
198.1457963030588
 40
6
 41
1
 50
90
  1
244
  0
LINE
  8
_0-5_寸法線
  6
CONTINUOUS
 62
    7
 10
145.36000000000021
 20
76.645796303058688
 11
145.36000000000001
 21
44.645796303058688
  0
LINE
  8
_0-5_寸法線
  6
CONTINUOUS
 62
    7
 10
145.36000000000001
 20
46.645796303058688
 11
149.22370330515628
 21
47.681072483468768
  0
LINE
  8
_0-5_寸法線
  6
CONTINUOUS
 62
    7
 10
145.36000000000001
 20
46.645796303058688
 11
149.22370330515628
 21
45.610520122648609
  0
LINE
  8
_0-5_寸法線
  6
CONTINUOUS
 62
    7
 10
212.35999999999999
 20
76.645796303058688
 11
212.35999999999979
 21
44.645796303058688
  0
LINE
  8
_0-5_寸法線
  6
CONTINUOUS
 62
    7
 10
212.35999999999979
 20
46.645796303058688
 11
208.49629669484352
 21
45.610520122648609
  0
LINE
  8
_0-5_寸法線
  6
CONTINUOUS
 62
    7
 10
212.35999999999979
 20
46.645796303058688
 11
208.49629669484352
 21
47.681072483468768
  0
LINE
  8
_0-5_寸法線
  6
CONTINUOUS
 62
    7
 10
145.36000000000001
 20
46.645796303058688
 11
212.35999999999979
 21
46.645796303058688
  0
TEXT
  8
_0-5_寸法線
 62
    7
 10
172.85999999999979
 20
46.645796303058688
 40
6
 41
1
 50
0
  1
φ67
  0
LINE
  8
_0-5_寸法線
  6
CONTINUOUS
 62
    7
 10
148.61000000000018
 20
76.645796303058688
 11
148.60999999999999
 21
58.645796303058688
  0
LINE
  8
_0-5_寸法線
  6
CONTINUOUS
 62
    7
 10
148.61000000000001
 20
60.645796303058688
 11
152.47370330515628
 21
61.681072483468768
  0
LINE
  8
_0-5_寸法線
  6
CONTINUOUS
 62
    7
 10
148.61000000000001
 20
60.645796303058688
 11
152.47370330515628
 21
59.610520122648609
  0
LINE
  8
_0-5_寸法線
  6
CONTINUOUS
 62
    7
 10
209.11000000000001
 20
76.645796303058688
 11
209.11000000000001
 21
58.645796303058688
  0
LINE
  8
_0-5_寸法線
  6
CONTINUOUS
 62
    7
 10
209.11000000000001
 20
60.645796303058688
 11
205.24629669484375
 21
59.610520122648609
  0
LINE
  8
_0-5_寸法線
  6
CONTINUOUS
 62
    7
 10
209.11000000000001
 20
60.645796303058688
 11
205.24629669484375
 21
61.681072483468768
  0
LINE
  8
_0-5_寸法線
  6
CONTINUOUS
 62
    7
 10
148.61000000000001
 20
60.645796303058688
 11
209.11000000000001
 21
60.645796303058688
  0
TEXT
  8
_0-5_寸法線
 62
    7
 10
169.86000000000001
 20
60.645796303058688
 40
6
 41
1
 50
0
  1
φ60.5
  0
LINE
  8
_0-0_計極細
  6
CENTER1
 62
    2
 10
178.86000000000001
 20
331.83759498775271
 11
178.86000000000001
 21
75.294085167652696
  0
LINE
  8
_0-0_計極細
  6
CONTINUOUS
 62
    2
 10
220.66067043556177
 20
130.64579630305869
 11
223.36000000000024
 21
133.34512586749722
  0
LINE
  8
_0-0_計極細
  6
CONTINUOUS
 62
    2
 10
220.36000000000024
 20
133.17355299224337
 11
223.36000000000024
 21
136.17355299224337
  0
LINE
  8
_0-0_計極細
  6
CONTINUOUS
 62
    2
 10
220.36000000000024
 20
136.00198011698956
 11
223.36000000000024
 21
139.00198011698959
  0
LINE
  8
_0-0_計極細
  6
CONTINUOUS
 62
    2
 10
220.36000000000024
 20
138.83040724173574
 11
223.36000000000024
 21
141.83040724173574
  0
LINE
  8
_0-0_計極細
  6
CONTINUOUS
 62
    2
 10
220.36000000000018
 20
141.6588343664819
 11
223.36000000000024
 21
144.65883436648193
  0
LINE
  8
_0-0_計極細
  6
CONTINUOUS
 62
    2
 10
220.36000000000024
 20
144.48726149122814
 11
223.36000000000024
 21
147.48726149122811
  0
LINE
  8
_0-0_計極細
  6
CONTINUOUS
 62
    2
 10
220.36000000000024
 20
147.31568861597427
 11
223.36000000000024
 21
150.3156886159743
  0
LINE
  8
_0-0_計極細
  6
CONTINUOUS
 62
    2
 10
220.36000000000018
 20
150.14411574072048
 11
223.36000000000024
 21
153.14411574072048
  0
LINE
  8
_0-0_計極細
  6
CONTINUOUS
 62
    2
 10
220.36000000000024
 20
152.97254286546666
 11
223.36000000000018
 21
155.97254286546664
  0
LINE
  8
_0-0_計極細
  6
CONTINUOUS
 62
    2
 10
220.36000000000024
 20
155.80096999021285
 11
223.36000000000018
 21
158.80096999021282
  0
LINE
  8
_0-0_計極細
  6
CONTINUOUS
 62
    2
 10
220.36000000000024
 20
158.62939711495903
 11
223.36000000000024
 21
161.62939711495903
  0
LINE
  8
_0-0_計極細
  6
CONTINUOUS
 62
    2
 10
220.36000000000024
 20
161.45782423970522
 11
223.36000000000018
 21
164.45782423970522
  0
LINE
  8
_0-0_計極細
  6
CONTINUOUS
 62
    2
 10
220.36000000000018
 20
164.28625136445137
 11
223.36000000000018
 21
167.2862513644514
  0
LINE
  8
_0-0_計極細
  6
CONTINUOUS
 62
    2
 10
220.36000000000018
 20
167.11467848919759
 11
223.36000000000024
 21
170.11467848919759
  0
LINE
  8
_0-0_計極細
  6
CONTINUOUS
 62
    2
 10
220.36000000000013
 20
169.94310561394374
 11
223.36000000000018
 21
172.94310561394377
  0
LINE
  8
_0-0_計極細
  6
CONTINUOUS
 62
    2
 10
220.36000000000018
 20
172.77153273868996
 11
223.36000000000024
 21
175.77153273868996
  0
LINE
  8
_0-0_計極細
  6
CONTINUOUS
 62
    2
 10
220.36000000000018
 20
175.59995986343614
 11
223.36000000000013
 21
178.59995986343614
  0
LINE
  8
_0-0_計極細
  6
CONTINUOUS
 62
    2
 10
220.36000000000018
 20
178.42838698818233
 11
223.36000000000018
 21
181.4283869881823
  0
LINE
  8
_0-0_計極細
  6
CONTINUOUS
 62
    2
 10
220.36000000000018
 20
181.25681411292851
 11
223.36000000000013
 21
184.25681411292851
  0
LINE
  8
_0-0_計極細
  6
CONTINUOUS
 62
    2
 10
220.36000000000024
 20
184.08524123767472
 11
223.36000000000018
 21
187.08524123767469
  0
LINE
  8
_0-0_計極細
  6
CONTINUOUS
 62
    2
 10
220.36000000000013
 20
186.91366836242085
 11
223.36000000000018
 21
189.91366836242088
  0
LINE
  8
_0-0_計極細
  6
CONTINUOUS
 62
    2
 10
220.36000000000013
 20
189.74209548716706
 11
223.36000000000013
 21
192.74209548716706
  0
LINE
  8
_0-0_計極細
  6
CONTINUOUS
 62
    2
 10
220.36000000000013
 20
192.57052261191325
 11
223.36000000000013
 21
195.57052261191322
  0
LINE
  8
_0-0_計極細
  6
CONTINUOUS
 62
    2
 10
220.36000000000013
 20
195.39894973665943
 11
223.36000000000013
 21
198.3989497366594
  0
LINE
  8
_0-0_計極細
  6
CONTINUOUS
 62
    2
 10
220.36000000000013
 20
198.22737686140562
 11
223.36000000000013
 21
201.22737686140562
  0
LINE
  8
_0-0_計極細
  6
CONTINUOUS
 62
    2
 10
220.36000000000013
 20
201.0558039861518
 11
223.36000000000013
 21
204.05580398615177
  0
LINE
  8
_0-0_計極細
  6
CONTINUOUS
 62
    2
 10
220.36000000000018
 20
203.88423111089799
 11
223.36000000000013
 21
206.88423111089799
  0
LINE
  8
_0-0_計極細
  6
CONTINUOUS
 62
    2
 10
220.36000000000013
 20
206.7126582356442
 11
223.36000000000013
 21
209.71265823564417
  0
LINE
  8
_0-0_計極細
  6
CONTINUOUS
 62
    2
 10
220.36000000000013
 20
209.54108536039033
 11
223.36000000000013
 21
212.5410853603903
  0
LINE
  8
_0-0_計極細
  6
CONTINUOUS
 62
    2
 10
220.36000000000013
 20
212.36951248513654
 11
223.36000000000013
 21
215.36951248513651
  0
LINE
  8
_0-0_計極細
  6
CONTINUOUS
 62
    2
 10
220.36000000000013
 20
215.19793960988272
 11
223.36000000000013
 21
218.19793960988272
  0
LINE
  8
_0-0_計極細
  6
CONTINUOUS
 62
    2
 10
220.36000000000013
 20
218.02636673462891
 11
223.36000000000013
 21
221.02636673462888
  0
LINE
  8
_0-0_計極細
  6
CONTINUOUS
 62
    2
 10
220.36000000000013
 20
220.85479385937509
 11
223.36000000000013
 21
223.85479385937509
  0
LINE
  8
_0-0_計極細
  6
CONTINUOUS
 62
    2
 10
220.36000000000013
 20
223.68322098412131
 11
223.36000000000013
 21
226.68322098412128
  0
LINE
  8
_0-0_計極細
  6
CONTINUOUS
 62
    2
 10
220.36000000000013
 20
226.51164810886746
 11
223.36000000000013
 21
229.51164810886746
  0
LINE
  8
_0-0_計極細
  6
CONTINUOUS
 62
    2
 10
220.36000000000013
 20
229.34007523361367
 11
223.36000000000013
 21
232.34007523361362
  0
LINE
  8
_0-0_計極細
  6
CONTINUOUS
 62
    2
 10
220.36000000000013
 20
232.1685023583598
 11
223.36000000000013
 21
235.16850235835977
  0
LINE
  8
_0-0_計極細
  6
CONTINUOUS
 62
    2
 10
220.36000000000013
 20
234.99692948310602
 11
223.36000000000013
 21
237.99692948310599
  0
LINE
  8
_0-0_計極細
  6
CONTINUOUS
 62
    2
 10
220.36000000000013
 20
237.8253566078522
 11
223.36000000000013
 21
240.8253566078522
  0
LINE
  8
_0-0_計極細
  6
CONTINUOUS
 62
    2
 10
220.36000000000013
 20
240.65378373259838
 11
223.36000000000013
 21
243.65378373259836
  0
LINE
  8
_0-0_計極細
  6
CONTINUOUS
 62
    2
 10
220.36000000000013
 20
243.48221085734457
 11
223.36000000000013
 21
246.48221085734457
  0
LINE
  8
_0-0_計極細
  6
CONTINUOUS
 62
    2
 10
220.36000000000013
 20
246.31063798209078
 11
223.36000000000013
 21
249.31063798209075
  0
LINE
  8
_0-0_計極細
  6
CONTINUOUS
 62
    2
 10
220.36000000000013
 20
249.13906510683697
 11
223.36000000000007
 21
252.13906510683691
  0
LINE
  8
_0-0_計極細
  6
CONTINUOUS
 62
    2
 10
220.36000000000007
 20
251.96749223158312
 11
223.36000000000007
 21
254.96749223158307
  0
LINE
  8
_0-0_計極細
  6
CONTINUOUS
 62
    2
 10
220.36000000000013
 20
254.79591935632928
 11
223.36000000000007
 21
257.79591935632925
  0
LINE
  8
_0-0_計極細
  6
CONTINUOUS
 62
    2
 10
220.36000000000013
 20
257.62434648107546
 11
223.36000000000007
 21
260.62434648107546
  0
LINE
  8
_0-0_計極細
  6
CONTINUOUS
 62
    2
 10
220.36000000000007
 20
260.45277360582168
 11
223.36000000000007
 21
263.45277360582168
  0
LINE
  8
_0-0_計極細
  6
CONTINUOUS
 62
    2
 10
220.36000000000013
 20
263.28120073056789
 11
223.36000000000001
 21
266.28120073056778
  0
LINE
  8
_0-0_計極細
  6
CONTINUOUS
 62
    2
 10
220.36000000000007
 20
266.1096278553141
 11
223.36000000000001
 21
269.10962785531399
  0
LINE
  8
_0-0_計極細
  6
CONTINUOUS
 62
    2
 10
220.36000000000013
 20
268.9380549800602
 11
223.36000000000001
 21
271.9380549800602
  0
LINE
  8
_0-0_計極細
  6
CONTINUOUS
 62
    2
 10
220.36000000000013
 20
271.76648210480641
 11
223.36000000000001
 21
274.76648210480641
  0
LINE
  8
_0-0_計極細
  6
CONTINUOUS
 62
    2
 10
220.36000000000013
 20
274.59490922955263
 11
223.36000000000001
 21
277.59490922955251
  0
LINE
  8
_0-0_計極細
  6
CONTINUOUS
 62
    2
 10
220.36000000000007
 20
277.42333635429873
 11
223.36000000000001
 21
280.42333635429873
  0
LINE
  8
_0-0_計極細
  6
CONTINUOUS
 62
    2
 10
220.36000000000007
 20
280.25176347904494
 11
223.36000000000001
 21
283.25176347904494
  0
LINE
  8
_0-0_計極細
  6
CONTINUOUS
 62
    2
 10
220.36000000000007
 20
283.08019060379115
 11
223.36000000000001
 21
286.08019060379104
  0
LINE
  8
_0-0_計極細
  6
CONTINUOUS
 62
    2
 10
220.36000000000007
 20
285.90861772853737
 11
223.36000000000001
 21
288.90861772853725
  0
LINE
  8
_0-0_計極細
  6
CONTINUOUS
 62
    2
 10
220.36000000000007
 20
288.73704485328358
 11
223.36000000000001
 21
291.73704485328346
  0
LINE
  8
_0-0_計極細
  6
CONTINUOUS
 62
    2
 10
220.36000000000007
 20
291.56547197802968
 11
223.36000000000001
 21
294.56547197802968
  0
LINE
  8
_0-0_計極細
  6
CONTINUOUS
 62
    2
 10
220.36000000000013
 20
294.39389910277589
 11
223.36000000000001
 21
297.39389910277589
  0
LINE
  8
_0-0_計極細
  6
CONTINUOUS
 62
    2
 10
220.36000000000001
 20
297.2223262275221
 11
223.36000000000001
 21
300.22232622752199
  0
LINE
  8
_0-0_計極細
  6
CONTINUOUS
 62
    2
 10
220.36000000000007
 20
300.0507533522682
 11
223.36000000000001
 21
303.0507533522682
  0
LINE
  8
_0-0_計極細
  6
CONTINUOUS
 62
    2
 10
220.36000000000001
 20
302.87918047701442
 11
223.36000000000001
 21
305.87918047701442
  0
LINE
  8
_0-0_計極細
  6
CONTINUOUS
 62
    2
 10
220.36000000000001
 20
305.70760760176063
 11
223.35999999999996
 21
308.70760760176063
  0
LINE
  8
_0-0_計極細
  6
CONTINUOUS
 62
    2
 10
220.36000000000001
 20
308.53603472650684
 11
223.36000000000001
 21
311.53603472650673
  0
LINE
  8
_0-0_計極細
  6
CONTINUOUS
 62
    2
 10
220.36000000000007
 20
311.36446185125305
 11
223.36000000000001
 21
314.36446185125294
  0
LINE
  8
_0-0_計極細
  6
CONTINUOUS
 62
    2
 10
220.36000000000007
 20
314.19288897599915
 11
223.36000000000001
 21
317.19288897599915
  0
LINE
  8
_0-0_計極細
  6
CONTINUOUS
 62
    2
 10
220.36000000000001
 20
317.02131610074537
 11
223.36000000000001
 21
320.02131610074537
  0
LINE
  8
_0-0_計極細
  6
CONTINUOUS
 62
    2
 10
220.36000000000001
 20
319.84974322549158
 11
223.36000000000001
 21
322.84974322549147
  0
LINE
  8
_0-0_計極細
  6
CONTINUOUS
 62
    2
 10
220.36000000000001
 20
322.67817035023779
 11
222.32762595282099
 21
324.64579630305877
  0
LINE
  8
_0-5_寸法線
  6
CONTINUOUS
 62
    7
 10
227.36000000000001
 20
324.64579630305866
 11
249.35999999999996
 21
324.64579630305855
  0
LINE
  8
_0-5_寸法線
  6
CONTINUOUS
 62
    7
 10
247.35999999999996
 20
324.64579630305855
 11
248.39527618041004
 21
320.78209299790228
  0
LINE
  8
_0-5_寸法線
  6
CONTINUOUS
 62
    7
 10
247.35999999999996
 20
324.64579630305855
 11
246.32472381958988
 21
320.78209299790228
  0
LINE
  8
_0-5_寸法線
  6
CONTINUOUS
 62
    7
 10
231.36000000000001
 20
130.64579630305889
 11
249.3599999999999
 21
130.64579630305872
  0
LINE
  8
_0-5_寸法線
  6
CONTINUOUS
 62
    7
 10
247.3599999999999
 20
130.64579630305875
 11
246.32472381958982
 21
134.50949960821501
  0
LINE
  8
_0-5_寸法線
  6
CONTINUOUS
 62
    7
 10
247.3599999999999
 20
130.64579630305875
 11
248.39527618040998
 21
134.50949960821501
  0
LINE
  8
_0-5_寸法線
  6
CONTINUOUS
 62
    7
 10
247.35999999999996
 20
324.64579630305855
 11
247.3599999999999
 21
130.64579630305875
  0
TEXT
  8
_0-5_寸法線
 62
    7
 10
247.35999999999996
 20
223.14579630305863
 40
6
 41
1
 50
90
  1
194
  0
TEXT
  8
_0-7_枠細線
 62
    5
 10
428.62614612234131
 20
144.16732725591223
 40
6
 41
0.5999999999999999
 50
0
  1
２２６～３８０
  0
TEXT
  8
_0-7_枠細線
 62
    5
 10
428.62614612234131
 20
114.16732725591214
 40
6
 41
0.5999999999999999
 50
0
  1
２２６～３８０
  0
ENDSEC
  0
EOF
