  0
SECTION
  2
HEADER
  9
$ACADVER
  1
AC1018
  9
$ACADMAINTVER
 70
     0
  9
$DWGCODEPAGE
  3
ANSI_932
  9
$INSBASE
 10
0.0
 20
0.0
 30
0.0
  9
$EXTMIN
 10
0.0
 20
0.0
 30
0.0
  9
$EXTMAX
 10
210.0
 20
297.0
 30
0.0
  9
$LIMMIN
 10
0.0
 20
0.0
  9
$LIMMAX
 10
210.0
 20
297.0
  9
$ORTHOMODE
 70
     0
  9
$REGENMODE
 70
     1
  9
$FILLMODE
 70
     1
  9
$QTEXTMODE
 70
     0
  9
$MIRRTEXT
 70
     1
  9
$LTSCALE
 40
0.25
  9
$ATTMODE
 70
     1
  9
$TEXTSIZE
 40
3.0
  9
$TRACEWID
 40
0.05
  9
$TEXTSTYLE
  7
Standard
  9
$CLAYER
  8
0
  9
$CELTYPE
  6
ByLayer
  9
$CECOLOR
 62
   256
  9
$CELTSCALE
 40
1.0
  9
$DISPSILH
 70
     0
  9
$DIMSCALE
 40
1.0
  9
$DIMASZ
 40
2.0
  9
$DIMEXO
 40
2.0
  9
$DIMDLI
 40
10.0
  9
$DIMRND
 40
0.0
  9
$DIMDLE
 40
0.0
  9
$DIMEXE
 40
1.0
  9
$DIMTP
 40
0.0
  9
$DIMTM
 40
0.0
  9
$DIMTXT
 40
3.0
  9
$DIMCEN
 40
0.09
  9
$DIMTSZ
 40
0.0
  9
$DIMTOL
 70
     0
  9
$DIMLIM
 70
     0
  9
$DIMTIH
 70
     0
  9
$DIMTOH
 70
     0
  9
$DIMSE1
 70
     0
  9
$DIMSE2
 70
     0
  9
$DIMTAD
 70
     3
  9
$DIMZIN
 70
     8
  9
$DIMBLK
  1

  9
$DIMASO
 70
     1
  9
$DIMSHO
 70
     1
  9
$DIMPOST
  1

  9
$DIMAPOST
  1

  9
$DIMALT
 70
     0
  9
$DIMALTD
 70
     2
  9
$DIMALTF
 40
25.4
  9
$DIMLFAC
 40
1.0
  9
$DIMTOFL
 70
     1
  9
$DIMTVP
 40
0.7
  9
$DIMTIX
 70
     0
  9
$DIMSOXD
 70
     0
  9
$DIMSAH
 70
     0
  9
$DIMBLK1
  1

  9
$DIMBLK2
  1

  9
$DIMSTYLE
  2
Standard
  9
$DIMCLRD
 70
     0
  9
$DIMCLRE
 70
     0
  9
$DIMCLRT
 70
     0
  9
$DIMTFAC
 40
0.5
  9
$DIMGAP
 40
0.09
  9
$DIMJUST
 70
     0
  9
$DIMSD1
 70
     0
  9
$DIMSD2
 70
     0
  9
$DIMTOLJ
 70
     1
  9
$DIMTZIN
 70
     8
  9
$DIMALTZ
 70
     0
  9
$DIMALTTZ
 70
     0
  9
$DIMUPT
 70
     1
  9
$DIMDEC
 70
     2
  9
$DIMTDEC
 70
     4
  9
$DIMALTU
 70
     2
  9
$DIMALTTD
 70
     2
  9
$DIMTXSTY
  7
Standard
  9
$DIMAUNIT
 70
     0
  9
$DIMADEC
 70
     0
  9
$DIMALTRND
 40
0.0
  9
$DIMAZIN
 70
     0
  9
$DIMDSEP
 70
    46
  9
$DIMATFIT
 70
     2
  9
$DIMFRAC
 70
     0
  9
$DIMLDRBLK
  1

  9
$DIMLUNIT
 70
     2
  9
$DIMLWD
 70
    -2
  9
$DIMLWE
 70
    -2
  9
$DIMTMOVE
 70
     2
  9
$LUNITS
 70
     2
  9
$LUPREC
 70
     4
  9
$SKETCHINC
 40
0.1
  9
$FILLETRAD
 40
0.5
  9
$AUNITS
 70
     0
  9
$AUPREC
 70
     0
  9
$MENU
  1
.
  9
$ELEVATION
 40
0.0
  9
$PELEVATION
 40
0.0
  9
$THICKNESS
 40
0.0
  9
$LIMCHECK
 70
     0
  9
$CHAMFERA
 40
0.5
  9
$CHAMFERB
 40
0.5
  9
$CHAMFERC
 40
1.0
  9
$CHAMFERD
 40
0.0
  9
$SKPOLY
 70
     0
  9
$TDCREATE
 40
2456421.906192129
  9
$TDUCREATE
 40
2456421.531192129
  9
$TDUPDATE
 40
2456421.906192129
  9
$TDUUPDATE
 40
2456421.531192129
  9
$TDINDWG
 40
0.0000000116
  9
$TDUSRTIMER
 40
0.0000000116
  9
$USRTIMER
 70
     1
  9
$ANGBASE
 50
0.0
  9
$ANGDIR
 70
     0
  9
$PDMODE
 70
     0
  9
$PDSIZE
 40
0.0
  9
$PLINEWID
 40
0.0
  9
$SPLFRAME
 70
     0
  9
$SPLINETYPE
 70
     6
  9
$SPLINESEGS
 70
     8
  9
$HANDSEED
  5
4BF
  9
$SURFTAB1
 70
     6
  9
$SURFTAB2
 70
     6
  9
$SURFTYPE
 70
     6
  9
$SURFU
 70
     6
  9
$SURFV
 70
     6
  9
$UCSBASE
  2

  9
$UCSNAME
  2

  9
$UCSORG
 10
0.0
 20
0.0
 30
0.0
  9
$UCSXDIR
 10
1.0
 20
0.0
 30
0.0
  9
$UCSYDIR
 10
0.0
 20
1.0
 30
0.0
  9
$UCSORTHOREF
  2

  9
$UCSORTHOVIEW
 70
     0
  9
$UCSORGTOP
 10
0.0
 20
0.0
 30
0.0
  9
$UCSORGBOTTOM
 10
0.0
 20
0.0
 30
0.0
  9
$UCSORGLEFT
 10
0.0
 20
0.0
 30
0.0
  9
$UCSORGRIGHT
 10
0.0
 20
0.0
 30
0.0
  9
$UCSORGFRONT
 10
0.0
 20
0.0
 30
0.0
  9
$UCSORGBACK
 10
0.0
 20
0.0
 30
0.0
  9
$PUCSBASE
  2

  9
$PUCSNAME
  2

  9
$PUCSORG
 10
0.0
 20
0.0
 30
0.0
  9
$PUCSXDIR
 10
1.0
 20
0.0
 30
0.0
  9
$PUCSYDIR
 10
0.0
 20
1.0
 30
0.0
  9
$PUCSORTHOREF
  2

  9
$PUCSORTHOVIEW
 70
     0
  9
$PUCSORGTOP
 10
0.0
 20
0.0
 30
0.0
  9
$PUCSORGBOTTOM
 10
0.0
 20
0.0
 30
0.0
  9
$PUCSORGLEFT
 10
0.0
 20
0.0
 30
0.0
  9
$PUCSORGRIGHT
 10
0.0
 20
0.0
 30
0.0
  9
$PUCSORGFRONT
 10
0.0
 20
0.0
 30
0.0
  9
$PUCSORGBACK
 10
0.0
 20
0.0
 30
0.0
  9
$USERI1
 70
     0
  9
$USERI2
 70
     0
  9
$USERI3
 70
     0
  9
$USERI4
 70
     0
  9
$USERI5
 70
     0
  9
$USERR1
 40
0.0
  9
$USERR2
 40
0.0
  9
$USERR3
 40
0.0
  9
$USERR4
 40
0.0
  9
$USERR5
 40
0.0
  9
$WORLDVIEW
 70
     1
  9
$SHADEDGE
 70
     3
  9
$SHADEDIF
 70
    70
  9
$TILEMODE
 70
     1
  9
$MAXACTVP
 70
    64
  9
$PINSBASE
 10
0.0
 20
0.0
 30
0.0
  9
$PLIMCHECK
 70
     0
  9
$PEXTMIN
 10
0.0
 20
0.0
 30
0.0
  9
$PEXTMAX
 10
210.0
 20
297.0
 30
0.0
  9
$PLIMMIN
 10
0.0
 20
0.0
  9
$PLIMMAX
 10
210.0
 20
297.0
  9
$UNITMODE
 70
     0
  9
$VISRETAIN
 70
     1
  9
$PLINEGEN
 70
     0
  9
$PSLTSCALE
 70
     1
  9
$TREEDEPTH
 70
  3020
  9
$CMLSTYLE
  2
Standard
  9
$CMLJUST
 70
     0
  9
$CMLSCALE
 40
1.0
  9
$PROXYGRAPHICS
 70
     1
  9
$MEASUREMENT
 70
     1
  9
$CELWEIGHT
370
    -1
  9
$ENDCAPS
280
     0
  9
$JOINSTYLE
280
     0
  9
$LWDISPLAY
290
     0
  9
$INSUNITS
 70
     4
  9
$HYPERLINKBASE
  1

  9
$STYLESHEET
  1

  9
$XEDIT
290
     1
  9
$CEPSNTYPE
380
     0
  9
$PSTYLEMODE
290
     1
  9
$FINGERPRINTGUID
  2
{02977E1D-0E54-40A6-9EDA-5318C869312F}
  9
$VERSIONGUID
  2
{FAEB1C32-E019-11D5-929B-00C0DF256EC4}
  9
$EXTNAMES
290
     1
  9
$PSVPSCALE
 40
0.0
  9
$OLESTARTUP
290
     0
  9
$SORTENTS
280
   127
  9
$INDEXCTL
280
     0
  9
$HIDETEXT
280
     1
  9
$XCLIPFRAME
290
     0
  9
$HALOGAP
280
     0
  9
$OBSCOLOR
 70
   257
  9
$OBSLTYPE
280
     0
  9
$INTERSECTIONDISPLAY
280
     0
  9
$INTERSECTIONCOLOR
 70
   257
  9
$DIMASSOC
280
     1
  9
$PROJECTNAME
  1

  0
ENDSEC
  0
SECTION
  2
CLASSES
  0
CLASS
  1
ACDBDICTIONARYWDFLT
  2
AcDbDictionaryWithDefault
  3
ObjectDBX Classes
 90
        0
 91
        3
280
     0
281
     0
  0
ENDSEC
  0
SECTION
  2
TABLES
  0
TABLE
  2
VPORT
  5
8
330
0
100
AcDbSymbolTable
 70
     1
  0
VPORT
  5
29
330
8
100
AcDbSymbolTableRecord
100
AcDbViewportTableRecord
  2
*Active
 70
     0
 10
0.0
 20
0.0
 11
1.0
 21
1.0
 12
10.42990654205607
 22
4.5
 13
0.0
 23
0.0
 14
0.5
 24
0.5
 15
0.5
 25
0.5
 16
0.0
 26
0.0
 36
1.0
 17
0.0
 27
0.0
 37
0.0
 40
9.0
 41
1.972972972850329
 42
50.0
 43
0.0
 44
0.0
 50
0.0
 51
0.0
 71
     0
 72
   100
 73
     1
 74
     3
 75
     0
 76
     0
 77
     0
 78
     0
281
     0
 65
     1
110
0.0
120
0.0
130
0.0
111
1.0
121
0.0
131
0.0
112
0.0
122
1.0
132
0.0
 79
     0
146
0.0
  0
ENDTAB
  0
TABLE
  2
LTYPE
  5
5
330
0
100
AcDbSymbolTable
 70
     9
  0
LTYPE
  5
14
330
5
100
AcDbSymbolTableRecord
100
AcDbLinetypeTableRecord
  2
ByBlock
 70
     0
  3

 72
    65
 73
     0
 40
0.0
  0
LTYPE
  5
15
330
5
100
AcDbSymbolTableRecord
100
AcDbLinetypeTableRecord
  2
ByLayer
 70
     0
  3

 72
    65
 73
     0
 40
0.0
  0
LTYPE
  5
16
330
5
100
AcDbSymbolTableRecord
100
AcDbLinetypeTableRecord
  2
Continuous
 70
     0
  3
Solid line
 72
    65
 73
     0
 40
0.0
  0
LTYPE
  5
68
330
5
100
AcDbSymbolTableRecord
100
AcDbLinetypeTableRecord
  2
DOT
 70
     0
  3
DOT
 72
    65
 73
     2
 40
4.0
 49
6.0
 74
     0
 49
-2.0
 74
     0
  0
LTYPE
  5
69
330
5
100
AcDbSymbolTableRecord
100
AcDbLinetypeTableRecord
  2
HIDDEN
 70
     0
  3
HIDDEN
 72
    65
 73
     2
 40
4.2
 49
8.4
 74
     0
 49
-4.2
 74
     0
  0
LTYPE
  5
6A
330
5
100
AcDbSymbolTableRecord
100
AcDbLinetypeTableRecord
  2
DASHDOT
 70
     0
  3
DASHDOT
 72
    65
 73
     4
 40
14.5
 49
30.0
 74
     0
 49
-9.0
 74
     0
 49
2.5
 74
     0
 49
-9.0
 74
     0
  0
LTYPE
  5
6B
330
5
100
AcDbSymbolTableRecord
100
AcDbLinetypeTableRecord
  2
PHANTOM
 70
     0
  3
PHANTOM
 72
    65
 73
     6
 40
12.0
 49
30.0
 74
     0
 49
-9.0
 74
     0
 49
2.5
 74
     0
 49
-5.0
 74
     0
 49
2.5
 74
     0
 49
-9.0
 74
     0
  0
LTYPE
  5
6C
330
5
100
AcDbSymbolTableRecord
100
AcDbLinetypeTableRecord
  2
ACAD_ISO14W100
 70
     0
  3
ACAD_ISO14W100
 72
    65
 73
     8
 40
1.5
 49
12.0
 74
     0
 49
-3.0
 74
     0
 49
0.5
 74
     0
 49
-3.0
 74
     0
 49
0.5
 74
     0
 49
-3.0
 74
     0
 49
0.5
 74
     0
 49
-3.0
 74
     0
  0
LTYPE
  5
6D
330
5
100
AcDbSymbolTableRecord
100
AcDbLinetypeTableRecord
  2
ACAD_ISO06W100
 70
     0
  3
ACAD_ISO06W100
 72
    65
 73
     8
 40
13.5
 49
24.0
 74
     0
 49
-3.0
 74
     0
 49
0.5
 74
     0
 49
-3.0
 74
     0
 49
0.5
 74
     0
 49
-3.0
 74
     0
 49
0.5
 74
     0
 49
-3.0
 74
     0
  0
LTYPE
  5
6E
330
5
100
AcDbSymbolTableRecord
100
AcDbLinetypeTableRecord
  2
ACAD_ISO11W100
 70
     0
  3
ACAD_ISO11W100
 72
    65
 73
     6
 40
15.5
 49
12.0
 74
     0
 49
-3.0
 74
     0
 49
12.0
 74
     0
 49
-3.0
 74
     0
 49
0.5
 74
     0
 49
-3.0
 74
     0
  0
LTYPE
  5
6F
330
5
100
AcDbSymbolTableRecord
100
AcDbLinetypeTableRecord
  2
ACAD_ISO13W100
 70
     0
  3
ACAD_ISO13W100
 72
    65
 73
     8
 40
13.0
 49
12.0
 74
     0
 49
-3.0
 74
     0
 49
12.0
 74
     0
 49
-3.0
 74
     0
 49
0.5
 74
     0
 49
-3.0
 74
     0
 49
0.5
 74
     0
 49
-3.0
 74
     0
  0
ENDTAB
  0
TABLE
  2
LAYER
  5
2
330
0
100
AcDbSymbolTable
 70
    40
  0
LAYER
  5
10
330
2
100
AcDbSymbolTableRecord
100
AcDbLayerTableRecord
  2
0
 70
     0
 62
     7
  6
Continuous
370
    -3
390
F
  0
LAYER
  5
70
330
2
100
AcDbSymbolTableRecord
100
AcDbLayerTableRecord
  2
1
 70
     0
 62
    45
  6
Continuous
370
    -3
390
F
  0
LAYER
  5
71
330
2
100
AcDbSymbolTableRecord
100
AcDbLayerTableRecord
  2
2
 70
     0
 62
    90
  6
Continuous
370
    -3
390
F
  0
LAYER
  5
72
330
2
100
AcDbSymbolTableRecord
100
AcDbLayerTableRecord
  2
3
 70
     0
 62
     6
  6
Continuous
370
    -3
390
F
  0
LAYER
  5
73
330
2
100
AcDbSymbolTableRecord
100
AcDbLayerTableRecord
  2
4
 70
     0
 62
    30
  6
Continuous
370
    -3
390
F
  0
LAYER
  5
74
330
2
100
AcDbSymbolTableRecord
100
AcDbLayerTableRecord
  2
5
 70
     0
 62
     2
  6
Continuous
370
    -3
390
F
  0
LAYER
  5
75
330
2
100
AcDbSymbolTableRecord
100
AcDbLayerTableRecord
  2
6
 70
     0
 62
     7
  6
Continuous
370
    -3
390
F
  0
LAYER
  5
76
330
2
100
AcDbSymbolTableRecord
100
AcDbLayerTableRecord
  2
7
 70
     0
 62
   132
  6
Continuous
370
    -3
390
F
  0
LAYER
  5
77
330
2
100
AcDbSymbolTableRecord
100
AcDbLayerTableRecord
  2
8
 70
     0
 62
   171
  6
Continuous
370
    -3
390
F
  0
LAYER
  5
78
330
2
100
AcDbSymbolTableRecord
100
AcDbLayerTableRecord
  2
9
 70
     0
 62
   170
  6
Continuous
370
    -3
390
F
  0
LAYER
  5
79
330
2
100
AcDbSymbolTableRecord
100
AcDbLayerTableRecord
  2
10
 70
     0
 62
   172
  6
Continuous
370
    -3
390
F
  0
LAYER
  5
7A
330
2
100
AcDbSymbolTableRecord
100
AcDbLayerTableRecord
  2
11
 70
     0
 62
    16
  6
Continuous
370
    -3
390
F
  0
LAYER
  5
7B
330
2
100
AcDbSymbolTableRecord
100
AcDbLayerTableRecord
  2
12
 70
     0
 62
   136
  6
Continuous
370
    -3
390
F
  0
LAYER
  5
7C
330
2
100
AcDbSymbolTableRecord
100
AcDbLayerTableRecord
  2
13
 70
     0
 62
   216
  6
Continuous
370
    -3
390
F
  0
LAYER
  5
7D
330
2
100
AcDbSymbolTableRecord
100
AcDbLayerTableRecord
  2
14
 70
     0
 62
     7
  6
Continuous
370
    -3
390
F
  0
LAYER
  5
7E
330
2
100
AcDbSymbolTableRecord
100
AcDbLayerTableRecord
  2
15
 70
     0
 62
    14
  6
Continuous
370
    -3
390
F
  0
LAYER
  5
7F
330
2
100
AcDbSymbolTableRecord
100
AcDbLayerTableRecord
  2
16
 70
     0
 62
    94
  6
Continuous
370
    -3
390
F
  0
LAYER
  5
80
330
2
100
AcDbSymbolTableRecord
100
AcDbLayerTableRecord
  2
17
 70
     0
 62
   230
  6
Continuous
370
    -3
390
F
  0
LAYER
  5
81
330
2
100
AcDbSymbolTableRecord
100
AcDbLayerTableRecord
  2
18
 70
     0
 62
     7
  6
Continuous
370
    -3
390
F
  0
LAYER
  5
82
330
2
100
AcDbSymbolTableRecord
100
AcDbLayerTableRecord
  2
19
 70
     0
 62
   216
  6
Continuous
370
    -3
390
F
  0
LAYER
  5
83
330
2
100
AcDbSymbolTableRecord
100
AcDbLayerTableRecord
  2
20
 70
     0
 62
   134
  6
Continuous
370
    -3
390
F
  0
LAYER
  5
84
330
2
100
AcDbSymbolTableRecord
100
AcDbLayerTableRecord
  2
21
 70
     0
 62
   214
  6
Continuous
370
    -3
390
F
  0
LAYER
  5
85
330
2
100
AcDbSymbolTableRecord
100
AcDbLayerTableRecord
  2
22
 70
     0
 62
     7
  6
Continuous
370
    -3
390
F
  0
LAYER
  5
86
330
2
100
AcDbSymbolTableRecord
100
AcDbLayerTableRecord
  2
128
 70
     0
 62
     7
  6
Continuous
370
    -3
390
F
  0
LAYER
  5
87
330
2
100
AcDbSymbolTableRecord
100
AcDbLayerTableRecord
  2
129
 70
     0
 62
     7
  6
Continuous
370
    -3
390
F
  0
LAYER
  5
88
330
2
100
AcDbSymbolTableRecord
100
AcDbLayerTableRecord
  2
130
 70
     0
 62
     7
  6
Continuous
370
    -3
390
F
  0
LAYER
  5
89
330
2
100
AcDbSymbolTableRecord
100
AcDbLayerTableRecord
  2
131
 70
     0
 62
     7
  6
Continuous
370
    -3
390
F
  0
LAYER
  5
8A
330
2
100
AcDbSymbolTableRecord
100
AcDbLayerTableRecord
  2
132
 70
     0
 62
     7
  6
Continuous
370
    -3
390
F
  0
LAYER
  5
8B
330
2
100
AcDbSymbolTableRecord
100
AcDbLayerTableRecord
  2
133
 70
     0
 62
     4
  6
Continuous
370
    -3
390
F
  0
LAYER
  5
8C
330
2
100
AcDbSymbolTableRecord
100
AcDbLayerTableRecord
  2
134
 70
     0
 62
     7
  6
Continuous
370
    -3
390
F
  0
LAYER
  5
8D
330
2
100
AcDbSymbolTableRecord
100
AcDbLayerTableRecord
  2
135
 70
     0
 62
     7
  6
Continuous
370
    -3
390
F
  0
LAYER
  5
8E
330
2
100
AcDbSymbolTableRecord
100
AcDbLayerTableRecord
  2
136
 70
     0
 62
     7
  6
Continuous
370
    -3
390
F
  0
LAYER
  5
8F
330
2
100
AcDbSymbolTableRecord
100
AcDbLayerTableRecord
  2
137
 70
     0
 62
     1
  6
Continuous
370
    -3
390
F
  0
LAYER
  5
90
330
2
100
AcDbSymbolTableRecord
100
AcDbLayerTableRecord
  2
138
 70
     0
 62
     4
  6
Continuous
370
    -3
390
F
  0
LAYER
  5
91
330
2
100
AcDbSymbolTableRecord
100
AcDbLayerTableRecord
  2
139
 70
     0
 62
     7
  6
Continuous
370
    -3
390
F
  0
LAYER
  5
92
330
2
100
AcDbSymbolTableRecord
100
AcDbLayerTableRecord
  2
140
 70
     0
 62
     7
  6
Continuous
370
    -3
390
F
  0
LAYER
  5
93
330
2
100
AcDbSymbolTableRecord
100
AcDbLayerTableRecord
  2
141
 70
     0
 62
     5
  6
Continuous
370
    -3
390
F
  0
LAYER
  5
94
330
2
100
AcDbSymbolTableRecord
100
AcDbLayerTableRecord
  2
142
 70
     0
 62
     3
  6
Continuous
370
    -3
390
F
  0
LAYER
  5
95
330
2
100
AcDbSymbolTableRecord
100
AcDbLayerTableRecord
  2
143
 70
     0
 62
   171
  6
Continuous
370
    -3
390
F
  0
LAYER
  5
96
330
2
100
AcDbSymbolTableRecord
100
AcDbLayerTableRecord
  2
144
 70
     0
 62
     5
  6
Continuous
370
    -3
390
F
  0
ENDTAB
  0
TABLE
  2
STYLE
  5
3
330
0
100
AcDbSymbolTable
 70
     2
  0
STYLE
  5
11
330
3
100
AcDbSymbolTableRecord
100
AcDbTextStyleTableRecord
  2
Standard
 70
     0
 40
0.0
 41
1.0
 50
0.0
 71
     0
 42
0.2
  3
txt
  4
bigfont
  0
STYLE
  5
2C
330
3
100
AcDbSymbolTableRecord
100
AcDbTextStyleTableRecord
  2
T_STANDARD
 70
     4
 40
10.0
 41
1.0
 50
0.0
 71
     0
 42
10.0
  3
txt
  4
bigfont
  0
ENDTAB
  0
TABLE
  2
VIEW
  5
6
330
0
100
AcDbSymbolTable
 70
     0
  0
ENDTAB
  0
TABLE
  2
UCS
  5
7
330
0
100
AcDbSymbolTable
 70
     0
  0
ENDTAB
  0
TABLE
  2
APPID
  5
9
330
0
100
AcDbSymbolTable
 70
     2
  0
APPID
  5
12
330
9
100
AcDbSymbolTableRecord
100
AcDbRegAppTableRecord
  2
ACAD
 70
     0
  0
APPID
  5
2B
330
9
100
AcDbSymbolTableRecord
100
AcDbRegAppTableRecord
  2
ODA
 70
     0
  0
ENDTAB
  0
TABLE
  2
DIMSTYLE
  5
A
330
0
100
AcDbSymbolTable
 70
     1
100
AcDbDimStyleTable
  0
DIMSTYLE
105
27
330
A
100
AcDbSymbolTableRecord
100
AcDbDimStyleTableRecord
  2
Standard
 70
     0
340
11
  0
ENDTAB
  0
TABLE
  2
BLOCK_RECORD
  5
1
330
0
100
AcDbSymbolTable
 70
    18
  0
BLOCK_RECORD
  5
1F
330
1
100
AcDbSymbolTableRecord
100
AcDbBlockTableRecord
  2
*Model_Space
340
22
  0
BLOCK_RECORD
  5
1B
330
1
100
AcDbSymbolTableRecord
100
AcDbBlockTableRecord
  2
*Paper_Space
340
1E
  0
BLOCK_RECORD
  5
23
330
1
100
AcDbSymbolTableRecord
100
AcDbBlockTableRecord
  2
*Paper_Space0
340
26
  0
BLOCK_RECORD
  5
2D
330
1
100
AcDbSymbolTableRecord
100
AcDbBlockTableRecord
  2
_ORIGIN
340
0
  0
BLOCK_RECORD
  5
32
330
1
100
AcDbSymbolTableRecord
100
AcDbBlockTableRecord
  2
_DOTBLANK
340
0
  0
BLOCK_RECORD
  5
37
330
1
100
AcDbSymbolTableRecord
100
AcDbBlockTableRecord
  2
_DOT
340
0
  0
BLOCK_RECORD
  5
3C
330
1
100
AcDbSymbolTableRecord
100
AcDbBlockTableRecord
  2
_OPEN
340
0
  0
BLOCK_RECORD
  5
42
330
1
100
AcDbSymbolTableRecord
100
AcDbBlockTableRecord
  2
_CLOSED
340
0
  0
BLOCK_RECORD
  5
49
330
1
100
AcDbSymbolTableRecord
100
AcDbBlockTableRecord
  2
_CLOSEDBLANK
340
0
  0
BLOCK_RECORD
  5
4F
330
1
100
AcDbSymbolTableRecord
100
AcDbBlockTableRecord
  2
_BOXBLANK
340
0
  0
BLOCK_RECORD
  5
57
330
1
100
AcDbSymbolTableRecord
100
AcDbBlockTableRecord
  2
_BOXFILLED
340
0
  0
BLOCK_RECORD
  5
5C
330
1
100
AcDbSymbolTableRecord
100
AcDbBlockTableRecord
  2
_INTEGRAL
340
0
  0
BLOCK_RECORD
  5
61
330
1
100
AcDbSymbolTableRecord
100
AcDbBlockTableRecord
  2
_OBLIQUE
340
0
  0
BLOCK_RECORD
  5
65
330
1
100
AcDbSymbolTableRecord
100
AcDbBlockTableRecord
  2
_NONE
340
0
  0
BLOCK_RECORD
  5
427
330
1
100
AcDbSymbolTableRecord
100
AcDbBlockTableRecord
  2
*G12
340
0
102
{BLKREFS
331
465
102
}
  0
BLOCK_RECORD
  5
42A
330
1
100
AcDbSymbolTableRecord
100
AcDbBlockTableRecord
  2
*G13
340
0
102
{BLKREFS
331
43D
102
}
  0
BLOCK_RECORD
  5
43E
330
1
100
AcDbSymbolTableRecord
100
AcDbBlockTableRecord
  2
*G14
340
0
102
{BLKREFS
331
464
102
}
  0
BLOCK_RECORD
  5
466
330
1
100
AcDbSymbolTableRecord
100
AcDbBlockTableRecord
  2
*G15
340
0
102
{BLKREFS
331
497
102
}
  0
BLOCK_RECORD
  5
469
330
1
100
AcDbSymbolTableRecord
100
AcDbBlockTableRecord
  2
*G16
340
0
102
{BLKREFS
331
47C
102
}
  0
BLOCK_RECORD
  5
47D
330
1
100
AcDbSymbolTableRecord
100
AcDbBlockTableRecord
  2
*G17
340
0
102
{BLKREFS
331
496
102
}
  0
ENDTAB
  0
ENDSEC
  0
SECTION
  2
BLOCKS
  0
BLOCK
  5
20
330
1F
100
AcDbEntity
  8
0
100
AcDbBlockBegin
  2
*Model_Space
 70
     0
 71
     0
 10
0.0
 20
0.0
 30
0.0
  3
*Model_Space
  1

  0
ENDBLK
  5
21
330
1F
100
AcDbEntity
  8
0
100
AcDbBlockEnd
  0
BLOCK
  5
1C
330
1B
100
AcDbEntity
 67
     1
  8
0
100
AcDbBlockBegin
  2
*Paper_Space
 70
     0
 71
     0
 10
0.0
 20
0.0
 30
0.0
  3
*Paper_Space
  1

  0
ENDBLK
  5
1D
330
1B
100
AcDbEntity
 67
     1
  8
0
100
AcDbBlockEnd
  0
BLOCK
  5
24
330
23
100
AcDbEntity
  8
0
100
AcDbBlockBegin
  2
*Paper_Space0
 70
     0
 71
     0
 10
0.0
 20
0.0
 30
0.0
  3
*Paper_Space0
  1

  0
ENDBLK
  5
25
330
23
100
AcDbEntity
  8
0
100
AcDbBlockEnd
  0
BLOCK
  5
30
330
2D
100
AcDbEntity
  8
0
100
AcDbBlockBegin
  2
_ORIGIN
 70
     0
 71
     0
 10
0.0
 20
0.0
 30
0.0
  3
_ORIGIN
  1

  0
CIRCLE
  5
2E
330
2D
100
AcDbEntity
  8
0
100
AcDbCircle
 10
0.0
 20
0.0
 30
0.0
 40
0.5
  0
LINE
  5
2F
330
2D
100
AcDbEntity
  8
0
100
AcDbLine
 10
0.0
 20
0.0
 30
0.0
 11
-1.0
 21
0.0
 31
0.0
  0
ENDBLK
  5
31
330
2D
100
AcDbEntity
  8
0
100
AcDbBlockEnd
  0
BLOCK
  5
35
330
32
100
AcDbEntity
  8
0
100
AcDbBlockBegin
  2
_DOTBLANK
 70
     0
 71
     0
 10
0.0
 20
0.0
 30
0.0
  3
_DOTBLANK
  1

  0
CIRCLE
  5
33
330
32
100
AcDbEntity
  8
0
100
AcDbCircle
 10
0.0
 20
0.0
 30
0.0
 40
0.5
  0
LINE
  5
34
330
32
100
AcDbEntity
  8
0
100
AcDbLine
 10
-0.5
 20
0.0
 30
0.0
 11
-1.0
 21
0.0
 31
0.0
  0
ENDBLK
  5
36
330
32
100
AcDbEntity
  8
0
100
AcDbBlockEnd
  0
BLOCK
  5
3A
330
37
100
AcDbEntity
  8
0
100
AcDbBlockBegin
  2
_DOT
 70
     0
 71
     0
 10
0.0
 20
0.0
 30
0.0
  3
_DOT
  1

  0
LWPOLYLINE
  5
38
330
37
100
AcDbEntity
  8
0
100
AcDbPolyline
 90
        2
 70
     1
 43
0.5
 10
-0.25
 20
0.0
 42
1.0
 10
0.25
 20
0.0
 42
1.0
  0
LINE
  5
39
330
37
100
AcDbEntity
  8
0
100
AcDbLine
 10
-0.5
 20
0.0
 30
0.0
 11
-1.0
 21
0.0
 31
0.0
  0
ENDBLK
  5
3B
330
37
100
AcDbEntity
  8
0
100
AcDbBlockEnd
  0
BLOCK
  5
40
330
3C
100
AcDbEntity
  8
0
100
AcDbBlockBegin
  2
_OPEN
 70
     0
 71
     0
 10
0.0
 20
0.0
 30
0.0
  3
_OPEN
  1

  0
LINE
  5
3D
330
3C
100
AcDbEntity
  8
0
100
AcDbLine
 10
-1.0
 20
0.1666666666666667
 30
0.0
 11
0.0
 21
0.0
 31
0.0
  0
LINE
  5
3E
330
3C
100
AcDbEntity
  8
0
100
AcDbLine
 10
-1.0
 20
-0.1666666666666667
 30
0.0
 11
0.0
 21
0.0
 31
0.0
  0
LINE
  5
3F
330
3C
100
AcDbEntity
  8
0
100
AcDbLine
 10
0.0
 20
0.0
 30
0.0
 11
-1.0
 21
0.0
 31
0.0
  0
ENDBLK
  5
41
330
3C
100
AcDbEntity
  8
0
100
AcDbBlockEnd
  0
BLOCK
  5
47
330
42
100
AcDbEntity
  8
0
100
AcDbBlockBegin
  2
_CLOSED
 70
     0
 71
     0
 10
0.0
 20
0.0
 30
0.0
  3
_CLOSED
  1

  0
LINE
  5
43
330
42
100
AcDbEntity
  8
0
100
AcDbLine
 10
-1.0
 20
0.1666666666666667
 30
0.0
 11
0.0
 21
0.0
 31
0.0
  0
LINE
  5
44
330
42
100
AcDbEntity
  8
0
100
AcDbLine
 10
0.0
 20
0.0
 30
0.0
 11
-1.0
 21
-0.1666666666666667
 31
0.0
  0
LINE
  5
45
330
42
100
AcDbEntity
  8
0
100
AcDbLine
 10
-1.0
 20
0.1666666666666667
 30
0.0
 11
-1.0
 21
-0.1666666666666667
 31
0.0
  0
LINE
  5
46
330
42
100
AcDbEntity
  8
0
100
AcDbLine
 10
0.0
 20
0.0
 30
0.0
 11
-1.0
 21
0.0
 31
0.0
  0
ENDBLK
  5
48
330
42
100
AcDbEntity
  8
0
100
AcDbBlockEnd
  0
BLOCK
  5
4D
330
49
100
AcDbEntity
  8
0
100
AcDbBlockBegin
  2
_CLOSEDBLANK
 70
     0
 71
     0
 10
0.0
 20
0.0
 30
0.0
  3
_CLOSEDBLANK
  1

  0
LINE
  5
4A
330
49
100
AcDbEntity
  8
0
100
AcDbLine
 10
-1.0
 20
0.1666666666666667
 30
0.0
 11
0.0
 21
0.0
 31
0.0
  0
LINE
  5
4B
330
49
100
AcDbEntity
  8
0
100
AcDbLine
 10
0.0
 20
0.0
 30
0.0
 11
-1.0
 21
-0.1666666666666667
 31
0.0
  0
LINE
  5
4C
330
49
100
AcDbEntity
  8
0
100
AcDbLine
 10
-1.0
 20
0.1666666666666667
 30
0.0
 11
-1.0
 21
-0.1666666666666667
 31
0.0
  0
ENDBLK
  5
4E
330
49
100
AcDbEntity
  8
0
100
AcDbBlockEnd
  0
BLOCK
  5
55
330
4F
100
AcDbEntity
  8
0
100
AcDbBlockBegin
  2
_BOXBLANK
 70
     0
 71
     0
 10
0.0
 20
0.0
 30
0.0
  3
_BOXBLANK
  1

  0
LINE
  5
50
330
4F
100
AcDbEntity
  8
0
100
AcDbLine
 10
-0.5
 20
-0.5
 30
0.0
 11
0.5
 21
-0.5
 31
0.0
  0
LINE
  5
51
330
4F
100
AcDbEntity
  8
0
100
AcDbLine
 10
0.5
 20
-0.5
 30
0.0
 11
0.5
 21
0.5
 31
0.0
  0
LINE
  5
52
330
4F
100
AcDbEntity
  8
0
100
AcDbLine
 10
0.5
 20
0.5
 30
0.0
 11
-0.5
 21
0.5
 31
0.0
  0
LINE
  5
53
330
4F
100
AcDbEntity
  8
0
100
AcDbLine
 10
-0.5
 20
0.5
 30
0.0
 11
-0.5
 21
-0.5
 31
0.0
  0
LINE
  5
54
330
4F
100
AcDbEntity
  8
0
100
AcDbLine
 10
-0.5
 20
0.0
 30
0.0
 11
-1.0
 21
0.0
 31
0.0
  0
ENDBLK
  5
56
330
4F
100
AcDbEntity
  8
0
100
AcDbBlockEnd
  0
BLOCK
  5
5A
330
57
100
AcDbEntity
  8
0
100
AcDbBlockBegin
  2
_BOXFILLED
 70
     0
 71
     0
 10
0.0
 20
0.0
 30
0.0
  3
_BOXFILLED
  1

  0
SOLID
  5
58
330
57
100
AcDbEntity
  8
0
100
AcDbTrace
 10
-0.5
 20
0.5
 30
0.0
 11
0.5
 21
0.5
 31
0.0
 12
-0.5
 22
-0.5
 32
0.0
 13
0.5
 23
-0.5
 33
0.0
  0
LINE
  5
59
330
57
100
AcDbEntity
  8
0
100
AcDbLine
 10
-0.5
 20
0.0
 30
0.0
 11
-1.0
 21
0.0
 31
0.0
  0
ENDBLK
  5
5B
330
57
100
AcDbEntity
  8
0
100
AcDbBlockEnd
  0
BLOCK
  5
5F
330
5C
100
AcDbEntity
  8
0
100
AcDbBlockBegin
  2
_INTEGRAL
 70
     0
 71
     0
 10
0.0
 20
0.0
 30
0.0
  3
_INTEGRAL
  1

  0
ARC
  5
5D
330
5C
100
AcDbEntity
  8
0
100
AcDbCircle
 10
0.444888
 20
-0.0913346
 30
0.0
 40
0.4541666
100
AcDbArc
 50
5844.169510334396
 51
9625.69095819783
  0
ARC
  5
5E
330
5C
100
AcDbEntity
  8
0
100
AcDbCircle
 10
-0.444888
 20
0.0913346
 30
0.0
 40
0.4541666
100
AcDbArc
 50
16157.40982268921
 51
19938.93127055265
  0
ENDBLK
  5
60
330
5C
100
AcDbEntity
  8
0
100
AcDbBlockEnd
  0
BLOCK
  5
63
330
61
100
AcDbEntity
  8
0
100
AcDbBlockBegin
  2
_OBLIQUE
 70
     0
 71
     0
 10
0.0
 20
0.0
 30
0.0
  3
_OBLIQUE
  1

  0
LINE
  5
62
330
61
100
AcDbEntity
  8
0
100
AcDbLine
 10
-0.5
 20
-0.5
 30
0.0
 11
0.5
 21
0.5
 31
0.0
  0
ENDBLK
  5
64
330
61
100
AcDbEntity
  8
0
100
AcDbBlockEnd
  0
BLOCK
  5
66
330
65
100
AcDbEntity
  8
0
100
AcDbBlockBegin
  2
_NONE
 70
     0
 71
     0
 10
0.0
 20
0.0
 30
0.0
  3
_NONE
  1

  0
ENDBLK
  5
67
330
65
100
AcDbEntity
  8
0
100
AcDbBlockEnd
  0
BLOCK
  5
428
330
427
100
AcDbEntity
  8
0
100
AcDbBlockBegin
  2
*G12
 70
     1
 71
     0
 10
0.0
 20
0.0
 30
0.0
  3
*G12
  1

  0
INSERT
  5
43D
330
427
100
AcDbEntity
  8
0
100
AcDbBlockReference
  2
*G13
 10
0.0
 20
0.0
 30
0.0
  0
INSERT
  5
464
330
427
100
AcDbEntity
  8
0
100
AcDbBlockReference
  2
*G14
 10
0.0
 20
0.0
 30
0.0
  0
ENDBLK
  5
429
330
427
100
AcDbEntity
  8
0
100
AcDbBlockEnd
  0
BLOCK
  5
42B
330
42A
100
AcDbEntity
  8
0
100
AcDbBlockBegin
  2
*G13
 70
     1
 71
     0
 10
0.0
 20
0.0
 30
0.0
  3
*G13
  1

  0
LINE
  5
42D
330
42A
100
AcDbEntity
  8
140
  6
Continuous
 62
     7
370
    15
100
AcDbLine
 10
156.5547809329908
 20
129.5260820020227
 30
0.0
 11
156.3985970579882
 21
130.1919163722883
 31
0.0
  0
ARC
  5
42E
330
42A
100
AcDbEntity
  8
140
  6
Continuous
 62
     7
370
    15
100
AcDbCircle
 10
157.5283555034779
 20
129.7544513425673
 30
0.0
 40
1.0
100
AcDbArc
 50
193.2010870000003
 51
273.2079119999955
  0
LINE
  5
42F
330
42A
100
AcDbEntity
  8
140
  6
Continuous
 62
     7
370
    15
100
AcDbLine
 10
161.7467205034778
 20
128.9893093425674
 30
0.0
 11
157.5843145034779
 21
128.7560183425674
 31
0.0
  0
ARC
  5
430
330
42A
100
AcDbEntity
  8
140
  6
Continuous
 62
     7
370
    15
100
AcDbCircle
 10
161.6629775034779
 20
129.4818533425674
 30
0.0
 40
0.5
100
AcDbArc
 50
269.9999999999998
 51
295.4192880000024
  0
LINE
  5
431
330
42A
100
AcDbEntity
  8
140
  6
Continuous
 62
     7
370
    15
100
AcDbLine
 10
171.2559895034777
 20
133.4873155997977
 30
0.0
 11
161.8775965034779
 21
129.0302573425674
 31
0.0
  0
LINE
  5
432
330
42A
100
AcDbEntity
  8
140
  6
Continuous
 62
     7
370
    15
100
AcDbLine
 10
171.2559895034778
 20
134.4818533425674
 30
0.0
 11
171.2559895034777
 21
133.4873155997977
 31
0.0
  0
LINE
  5
433
330
42A
100
AcDbEntity
  8
140
  6
Continuous
 62
     7
370
    15
100
AcDbLine
 10
174.7559895034778
 20
134.4818533425674
 30
0.0
 11
171.2559895034778
 21
134.4818533425674
 31
0.0
  0
LINE
  5
434
330
42A
100
AcDbEntity
  8
140
  6
Continuous
 62
     7
370
    15
100
AcDbLine
 10
170.723574746957
 20
135.9818533425674
 30
0.0
 11
174.7559895034778
 21
135.9818533425674
 31
0.0
  0
ARC
  5
435
330
42A
100
AcDbEntity
  8
140
  6
Continuous
 62
     7
370
    15
100
AcDbCircle
 10
174.7559895034778
 20
134.9818533425674
 30
0.0
 40
0.5
100
AcDbArc
 50
269.9999999999998
 51
0.0
  0
ARC
  5
436
330
42A
100
AcDbEntity
  8
140
  6
Continuous
 62
     7
370
    15
100
AcDbCircle
 10
174.7559895034778
 20
135.4818533425674
 30
0.0
 40
0.5
100
AcDbArc
 50
0.0
 51
89.99999999999991
  0
LINE
  5
437
330
42A
100
AcDbEntity
  8
140
  6
Continuous
 62
     7
370
    15
100
AcDbLine
 10
175.2559895034778
 20
135.4818533425674
 30
0.0
 11
175.2559895034778
 21
134.9818533425674
 31
0.0
  0
ARC
  5
438
330
42A
100
AcDbEntity
  8
140
  6
Continuous
 62
     7
370
    15
100
AcDbCircle
 10
170.723574746957
 20
134.9818533425674
 30
0.0
 40
1.0
100
AcDbArc
 50
89.99999999999991
 51
170.7634586477366
  0
ARC
  5
439
330
42A
100
AcDbEntity
  8
140
  6
Continuous
 62
     7
370
    15
100
AcDbCircle
 10
168.2559895034778
 20
135.3831301375155
 30
0.0
 40
1.5
100
AcDbArc
 50
295.4192893248032
 51
350.7634586477371
  0
LINE
  5
43A
330
42A
100
AcDbEntity
  8
140
  6
Continuous
 62
     7
370
    15
100
AcDbLine
 10
162.3059535610875
 20
130.8946115705702
 30
0.0
 11
168.8998483454208
 21
134.0283438843921
 31
0.0
  0
ARC
  5
43B
330
42A
100
AcDbEntity
  8
140
  6
Continuous
 62
     7
370
    15
100
AcDbCircle
 10
160.1597574212778
 20
135.410565747648
 30
0.0
 40
5.0
100
AcDbArc
 50
273.2079090644968
 51
295.4192893248035
  0
LINE
  5
43C
330
42A
100
AcDbEntity
  8
140
  6
Continuous
 62
     7
370
    15
100
AcDbLine
 10
156.3985970579882
 20
130.1919163722883
 30
0.0
 11
160.4395540634849
 21
130.4184005020847
 31
0.0
  0
ENDBLK
  5
42C
330
42A
100
AcDbEntity
  8
0
100
AcDbBlockEnd
  0
BLOCK
  5
43F
330
43E
100
AcDbEntity
  8
0
100
AcDbBlockBegin
  2
*G14
 70
     1
 71
     0
 10
0.0
 20
0.0
 30
0.0
  3
*G14
  1

  0
LINE
  5
441
330
43E
100
AcDbEntity
  8
140
  6
Continuous
 62
     7
370
    15
100
AcDbLine
 10
175.2559895034778
 20
135.3188432196802
 30
0.0
 11
174.5929793805906
 21
135.9818533425673
 31
0.0
  0
LINE
  5
442
330
43E
100
AcDbEntity
  8
140
  6
Continuous
 62
     7
370
    15
100
AcDbLine
 10
175.1684689563494
 20
134.699256985622
 30
0.0
 11
173.8858725994041
 21
135.9818533425673
 31
0.0
  0
LINE
  5
443
330
43E
100
AcDbEntity
  8
140
  6
Continuous
 62
     7
370
    15
100
AcDbLine
 10
174.6787658182175
 20
134.4818533425674
 30
0.0
 11
173.1787658182175
 21
135.9818533425673
 31
0.0
  0
LINE
  5
444
330
43E
100
AcDbEntity
  8
140
  6
Continuous
 62
     7
370
    15
100
AcDbLine
 10
173.9716590370309
 20
134.4818533425674
 30
0.0
 11
172.471659037031
 21
135.9818533425673
 31
0.0
  0
LINE
  5
445
330
43E
100
AcDbEntity
  8
140
  6
Continuous
 62
     7
370
    15
100
AcDbLine
 10
173.2645522558444
 20
134.4818533425674
 30
0.0
 11
171.7645522558444
 21
135.9818533425673
 31
0.0
  0
LINE
  5
446
330
43E
100
AcDbEntity
  8
140
  6
Continuous
 62
     7
370
    15
100
AcDbLine
 10
172.5574454746578
 20
134.4818533425674
 30
0.0
 11
171.0574454746579
 21
135.9818533425673
 31
0.0
  0
LINE
  5
447
330
43E
100
AcDbEntity
  8
140
  6
Continuous
 62
     7
370
    15
100
AcDbLine
 10
171.8503386934713
 20
134.4818533425674
 30
0.0
 11
170.4030862769551
 21
135.9291057590836
 31
0.0
  0
LINE
  5
448
330
43E
100
AcDbEntity
  8
140
  6
Continuous
 62
     7
370
    15
100
AcDbLine
 10
171.2559895034778
 20
134.3690957513743
 30
0.0
 11
169.9774385590911
 21
135.6476466957611
 31
0.0
  0
LINE
  5
449
330
43E
100
AcDbEntity
  8
140
  6
Continuous
 62
     7
370
    15
100
AcDbLine
 10
171.2559895034777
 20
133.6619889701879
 30
0.0
 11
169.7424992979102
 21
135.1754791757554
 31
0.0
  0
LINE
  5
44A
330
43E
100
AcDbEntity
  8
140
  6
Continuous
 62
     7
370
    15
100
AcDbLine
 10
170.8950782704474
 20
133.3157934220317
 30
0.0
 11
169.5632738207014
 21
134.6475978717777
 31
0.0
  0
LINE
  5
44B
330
43E
100
AcDbEntity
  8
140
  6
Continuous
 62
     7
370
    15
100
AcDbLine
 10
170.4157642846844
 20
133.0880006266082
 30
0.0
 11
169.2468109691828
 21
134.2569539421098
 31
0.0
  0
LINE
  5
44C
330
43E
100
AcDbEntity
  8
140
  6
Continuous
 62
     7
370
    15
100
AcDbLine
 10
169.9364502989214
 20
132.8602078311846
 30
0.0
 11
168.8106876482366
 21
133.9859704818694
 31
0.0
  0
LINE
  5
44D
330
43E
100
AcDbEntity
  8
140
  6
Continuous
 62
     7
370
    15
100
AcDbLine
 10
169.4571363131585
 20
132.632415035761
 30
0.0
 11
168.3313736624737
 21
133.7581776864459
 31
0.0
  0
LINE
  5
44E
330
43E
100
AcDbEntity
  8
140
  6
Continuous
 62
     7
370
    15
100
AcDbLine
 10
168.9778223273955
 20
132.4046222403374
 30
0.0
 11
167.8520596767106
 21
133.5303848910223
 31
0.0
  0
LINE
  5
44F
330
43E
100
AcDbEntity
  8
140
  6
Continuous
 62
     7
370
    15
100
AcDbLine
 10
168.4985083416325
 20
132.1768294449139
 30
0.0
 11
167.3727456909477
 21
133.3025920955987
 31
0.0
  0
LINE
  5
450
330
43E
100
AcDbEntity
  8
140
  6
Continuous
 62
     7
370
    15
100
AcDbLine
 10
168.0191943558696
 20
131.9490366494903
 30
0.0
 11
166.8934317051846
 21
133.0747993001751
 31
0.0
  0
LINE
  5
451
330
43E
100
AcDbEntity
  8
140
  6
Continuous
 62
     7
370
    15
100
AcDbLine
 10
167.5398803701065
 20
131.7212438540667
 30
0.0
 11
166.4141177194217
 21
132.8470065047515
 31
0.0
  0
LINE
  5
452
330
43E
100
AcDbEntity
  8
140
  6
Continuous
 62
     7
370
    15
100
AcDbLine
 10
167.0605663843436
 20
131.4934510586431
 30
0.0
 11
165.9348037336587
 21
132.619213709328
 31
0.0
  0
LINE
  5
453
330
43E
100
AcDbEntity
  8
140
  6
Continuous
 62
     7
370
    15
100
AcDbLine
 10
166.5812523985806
 20
131.2656582632195
 30
0.0
 11
165.4554897478957
 21
132.3914209139044
 31
0.0
  0
LINE
  5
454
330
43E
100
AcDbEntity
  8
140
  6
Continuous
 62
     7
370
    15
100
AcDbLine
 10
166.1019384128176
 20
131.037865467796
 30
0.0
 11
164.9761757621328
 21
132.1636281184808
 31
0.0
  0
LINE
  5
455
330
43E
100
AcDbEntity
  8
140
  6
Continuous
 62
     7
370
    15
100
AcDbLine
 10
165.6226244270546
 20
130.8100726723724
 30
0.0
 11
164.4968617763698
 21
131.9358353230572
 31
0.0
  0
LINE
  5
456
330
43E
100
AcDbEntity
  8
140
  6
Continuous
 62
     7
370
    15
100
AcDbLine
 10
165.1433104412916
 20
130.5822798769488
 30
0.0
 11
164.0175477906068
 21
131.7080425276337
 31
0.0
  0
LINE
  5
457
330
43E
100
AcDbEntity
  8
140
  6
Continuous
 62
     7
370
    15
100
AcDbLine
 10
164.6639964555287
 20
130.3544870815252
 30
0.0
 11
163.5382338048439
 21
131.4802497322101
 31
0.0
  0
LINE
  5
458
330
43E
100
AcDbEntity
  8
140
  6
Continuous
 62
     7
370
    15
100
AcDbLine
 10
164.1846824697657
 20
130.1266942861017
 30
0.0
 11
163.0589198190809
 21
131.2524569367865
 31
0.0
  0
LINE
  5
459
330
43E
100
AcDbEntity
  8
140
  6
Continuous
 62
     7
370
    15
100
AcDbLine
 10
163.7053684840027
 20
129.8989014906781
 30
0.0
 11
162.5796058333179
 21
131.0246641413629
 31
0.0
  0
LINE
  5
45A
330
43E
100
AcDbEntity
  8
140
  6
Continuous
 62
     7
370
    15
100
AcDbLine
 10
163.2260544982398
 20
129.6711086952545
 30
0.0
 11
162.0963340042806
 21
130.8008291892137
 31
0.0
  0
LINE
  5
45B
330
43E
100
AcDbEntity
  8
140
  6
Continuous
 62
     7
370
    15
100
AcDbLine
 10
162.7467405124768
 20
129.4433158998309
 30
0.0
 11
161.5750143829302
 21
130.6150420293775
 31
0.0
  0
LINE
  5
45C
330
43E
100
AcDbEntity
  8
140
  6
Continuous
 62
     7
370
    15
100
AcDbLine
 10
162.2674265267138
 20
129.2155231044074
 30
0.0
 11
161.0010913439154
 21
130.4818582872058
 31
0.0
  0
LINE
  5
45D
330
43E
100
AcDbEntity
  8
140
  6
Continuous
 62
     7
370
    15
100
AcDbLine
 10
161.7800825184872
 20
128.9957603314475
 30
0.0
 11
160.3618002288076
 21
130.414042621127
 31
0.0
  0
LINE
  5
45E
330
43E
100
AcDbEntity
  8
140
  6
Continuous
 62
     7
370
    15
100
AcDbLine
 10
161.1148417314915
 20
128.9538943372566
 30
0.0
 11
159.6922214319408
 21
130.3765146368074
 31
0.0
  0
LINE
  5
45F
330
43E
100
AcDbEntity
  8
140
  6
Continuous
 62
     7
370
    15
100
AcDbLine
 10
160.4452629346246
 20
128.916366352937
 30
0.0
 11
159.0226426350739
 21
130.3389866524878
 31
0.0
  0
LINE
  5
460
330
43E
100
AcDbEntity
  8
140
  6
Continuous
 62
     7
370
    15
100
AcDbLine
 10
159.7756841377577
 20
128.8788383686174
 30
0.0
 11
158.3530638382069
 21
130.3014586681681
 31
0.0
  0
LINE
  5
461
330
43E
100
AcDbEntity
  8
140
  6
Continuous
 62
     7
370
    15
100
AcDbLine
 10
159.1061053408907
 20
128.8413103842978
 30
0.0
 11
157.68348504134
 21
130.2639306838485
 31
0.0
  0
LINE
  5
462
330
43E
100
AcDbEntity
  8
140
  6
Continuous
 62
     7
370
    15
100
AcDbLine
 10
158.4365265440238
 20
128.8037823999781
 30
0.0
 11
157.0139062444731
 21
130.2264026995289
 31
0.0
  0
LINE
  5
463
330
43E
100
AcDbEntity
  8
140
  6
Continuous
 62
     7
370
    15
100
AcDbLine
 10
157.7669477471569
 20
128.7662544156585
 30
0.0
 11
156.4161602624127
 21
130.1170419004026
 31
0.0
  0
ENDBLK
  5
440
330
43E
100
AcDbEntity
  8
0
100
AcDbBlockEnd
  0
BLOCK
  5
467
330
466
100
AcDbEntity
  8
0
100
AcDbBlockBegin
  2
*G15
 70
     1
 71
     0
 10
0.0
 20
0.0
 30
0.0
  3
*G15
  1

  0
INSERT
  5
47C
330
466
100
AcDbEntity
  8
0
100
AcDbBlockReference
  2
*G16
 10
0.0
 20
0.0
 30
0.0
  0
INSERT
  5
496
330
466
100
AcDbEntity
  8
0
100
AcDbBlockReference
  2
*G17
 10
0.0
 20
0.0
 30
0.0
  0
ENDBLK
  5
468
330
466
100
AcDbEntity
  8
0
100
AcDbBlockEnd
  0
BLOCK
  5
46A
330
469
100
AcDbEntity
  8
0
100
AcDbBlockBegin
  2
*G16
 70
     1
 71
     0
 10
0.0
 20
0.0
 30
0.0
  3
*G16
  1

  0
ARC
  5
46C
330
469
100
AcDbEntity
  8
140
  6
Continuous
 62
     7
370
    15
100
AcDbCircle
 10
49.78840425999857
 20
134.9818533425673
 30
0.0
 40
1.0
100
AcDbArc
 50
9.236541352263387
 51
89.99999999999991
  0
LINE
  5
46D
330
469
100
AcDbEntity
  8
140
  6
Continuous
 62
     7
370
    15
100
AcDbLine
 10
49.78840425999857
 20
135.9818533425673
 30
0.0
 11
45.75598950347774
 21
135.9818533425673
 31
0.0
  0
ARC
  5
46E
330
469
100
AcDbEntity
  8
140
  6
Continuous
 62
     7
370
    15
100
AcDbCircle
 10
45.75598950347774
 20
135.4818533425673
 30
0.0
 40
0.5
100
AcDbArc
 50
89.99999999999991
 51
179.9999999999998
  0
ARC
  5
46F
330
469
100
AcDbEntity
  8
140
  6
Continuous
 62
     7
370
    15
100
AcDbCircle
 10
45.75598950347774
 20
134.9818533425673
 30
0.0
 40
0.5
100
AcDbArc
 50
179.9999999999998
 51
269.9999999999998
  0
LINE
  5
470
330
469
100
AcDbEntity
  8
140
  6
Continuous
 62
     7
370
    15
100
AcDbLine
 10
45.75598950347774
 20
134.4818533425673
 30
0.0
 11
49.25598950347774
 21
134.4818533425673
 31
0.0
  0
LINE
  5
471
330
469
100
AcDbEntity
  8
140
  6
Continuous
 62
     7
370
    15
100
AcDbLine
 10
45.25598950347774
 20
135.4818533425673
 30
0.0
 11
45.25598950347774
 21
134.9818533425673
 31
0.0
  0
LINE
  5
472
330
469
100
AcDbEntity
  8
140
  6
Continuous
 62
     7
370
    15
100
AcDbLine
 10
49.25598950347785
 20
134.4818533425674
 30
0.0
 11
49.25598950347785
 21
133.4818533425674
 31
0.0
  0
LINE
  5
473
330
469
100
AcDbEntity
  8
140
  6
Continuous
 62
     7
370
    15
100
AcDbLine
 10
49.24672750347793
 20
133.4917173425673
 30
0.0
 11
58.63438150347793
 21
129.0302573425674
 31
0.0
  0
ARC
  5
474
330
469
100
AcDbEntity
  8
140
  6
Continuous
 62
     7
370
    15
100
AcDbCircle
 10
58.84900150347789
 20
129.4818533425674
 30
0.0
 40
0.5
100
AcDbArc
 50
244.5807119999968
 51
269.9999999999998
  0
LINE
  5
475
330
469
100
AcDbEntity
  8
140
  6
Continuous
 62
     7
370
    15
100
AcDbLine
 10
58.76525750347787
 20
128.9893093425674
 30
0.0
 11
62.9276635034779
 21
128.7560183425674
 31
0.0
  0
ARC
  5
476
330
469
100
AcDbEntity
  8
140
  6
Continuous
 62
     7
370
    15
100
AcDbCircle
 10
62.98362350347782
 20
129.7544513425673
 30
0.0
 40
1.0
100
AcDbArc
 50
266.7920880000038
 51
346.798912999999
  0
LINE
  5
477
330
469
100
AcDbEntity
  8
140
  6
Continuous
 62
     7
370
    15
100
AcDbLine
 10
63.95719807396495
 20
129.5260820020227
 30
0.0
 11
64.11338096194379
 21
130.191916427608
 31
0.0
  0
LINE
  5
478
330
469
100
AcDbEntity
  8
140
  6
Continuous
 62
     7
370
    15
100
AcDbLine
 10
60.07242494347065
 20
130.4184005020846
 30
0.0
 11
64.11338194896734
 21
130.1919163722882
 31
0.0
  0
ARC
  5
479
330
469
100
AcDbEntity
  8
140
  6
Continuous
 62
     7
370
    15
100
AcDbCircle
 10
60.3522215856778
 20
135.4105657476479
 30
0.0
 40
5.0
100
AcDbArc
 50
244.5807106751958
 51
266.7920909355032
  0
LINE
  5
47A
330
469
100
AcDbEntity
  8
140
  6
Continuous
 62
     7
370
    15
100
AcDbLine
 10
51.61213066153482
 20
134.028343884392
 30
0.0
 11
58.20602544586808
 21
130.8946115705701
 31
0.0
  0
ARC
  5
47B
330
469
100
AcDbEntity
  8
140
  6
Continuous
 62
     7
370
    15
100
AcDbCircle
 10
52.25598950347774
 20
135.3831301375153
 30
0.0
 40
1.5
100
AcDbArc
 50
189.2365413522621
 51
244.5807106751961
  0
ENDBLK
  5
46B
330
469
100
AcDbEntity
  8
0
100
AcDbBlockEnd
  0
BLOCK
  5
47E
330
47D
100
AcDbEntity
  8
0
100
AcDbBlockBegin
  2
*G17
 70
     1
 71
     0
 10
0.0
 20
0.0
 30
0.0
  3
*G17
  1

  0
LINE
  5
480
330
47D
100
AcDbEntity
  8
140
  6
Continuous
 62
     7
370
    15
100
AcDbLine
 10
64.03679528205805
 20
129.8654185453198
 30
0.0
 11
63.68636433410404
 21
130.2158494932738
 31
0.0
  0
LINE
  5
481
330
47D
100
AcDbEntity
  8
140
  6
Continuous
 62
     7
370
    15
100
AcDbLine
 10
63.88130355357163
 20
129.3138034926196
 30
0.0
 11
62.93727312434009
 21
130.2578339218512
 31
0.0
  0
LINE
  5
482
330
47D
100
AcDbEntity
  8
140
  6
Continuous
 62
     7
370
    15
100
AcDbLine
 10
63.55455005970498
 20
128.9334502052998
 30
0.0
 11
62.18818191457621
 21
130.2998183504285
 31
0.0
  0
LINE
  5
483
330
47D
100
AcDbEntity
  8
140
  6
Continuous
 62
     7
370
    15
100
AcDbLine
 10
63.02556232196196
 20
128.7553311618562
 30
0.0
 11
61.43909070481232
 21
130.3418027790059
 31
0.0
  0
LINE
  5
484
330
47D
100
AcDbEntity
  8
140
  6
Continuous
 62
     7
370
    15
100
AcDbLine
 10
62.28155586745413
 20
128.7922308351775
 30
0.0
 11
60.68999949504837
 21
130.3837872075832
 31
0.0
  0
LINE
  5
485
330
47D
100
AcDbEntity
  8
140
  6
Continuous
 62
     7
370
    15
100
AcDbLine
 10
61.53246465769018
 20
128.8342152637549
 30
0.0
 11
59.93901058764152
 21
130.4276693338036
 31
0.0
  0
LINE
  5
486
330
47D
100
AcDbEntity
  8
140
  6
Continuous
 62
     7
370
    15
100
AcDbLine
 10
60.78337344792624
 20
128.8761996923323
 30
0.0
 11
59.08602596227479
 21
130.5735471779838
 31
0.0
  0
LINE
  5
487
330
47D
100
AcDbEntity
  8
140
  6
Continuous
 62
     7
370
    15
100
AcDbLine
 10
60.03428223816235
 20
128.9181841209097
 30
0.0
 11
57.92366248368791
 21
131.0288038753841
 31
0.0
  0
LINE
  5
488
330
47D
100
AcDbEntity
  8
140
  6
Continuous
 62
     7
370
    15
100
AcDbLine
 10
59.2851910283984
 20
128.9601685494871
 30
0.0
 11
56.57615705405311
 21
131.6692025238324
 31
0.0
  0
LINE
  5
489
330
47D
100
AcDbEntity
  8
140
  6
Continuous
 62
     7
370
    15
100
AcDbLine
 10
58.39353258407061
 20
129.1447202126283
 30
0.0
 11
55.22865162441826
 21
132.3096011722806
 31
0.0
  0
LINE
  5
48A
330
47D
100
AcDbEntity
  8
140
  6
Continuous
 62
     7
370
    15
100
AcDbLine
 10
57.04602702443719
 20
129.7851189910752
 30
0.0
 11
53.88114619478347
 21
132.9499998207289
 31
0.0
  0
LINE
  5
48B
330
47D
100
AcDbEntity
  8
140
  6
Continuous
 62
     7
370
    15
100
AcDbLine
 10
55.69852146480372
 20
130.4255177695221
 30
0.0
 11
52.53364076514868
 21
133.5903984691771
 31
0.0
  0
LINE
  5
48C
330
47D
100
AcDbEntity
  8
140
  6
Continuous
 62
     7
370
    15
100
AcDbLine
 10
50.66979158777383
 20
135.454247646552
 30
0.0
 11
50.26079856398326
 21
135.8632406703425
 31
0.0
  0
LINE
  5
48D
330
47D
100
AcDbEntity
  8
140
  6
Continuous
 62
     7
370
    15
100
AcDbLine
 10
54.35101590517024
 20
131.065916547969
 30
0.0
 11
49.43507911057202
 21
135.9818533425672
 31
0.0
  0
LINE
  5
48E
330
47D
100
AcDbEntity
  8
140
  6
Continuous
 62
     7
370
    15
100
AcDbLine
 10
53.00351034553682
 20
131.7063153264159
 30
0.0
 11
48.72797232938547
 21
135.9818533425673
 31
0.0
  0
LINE
  5
48F
330
47D
100
AcDbEntity
  8
140
  6
Continuous
 62
     7
370
    15
100
AcDbLine
 10
51.65600478590335
 20
132.3467141048628
 30
0.0
 11
48.02086554819891
 21
135.9818533425673
 31
0.0
  0
LINE
  5
490
330
47D
100
AcDbEntity
  8
140
  6
Continuous
 62
     7
370
    15
100
AcDbLine
 10
50.30849922626987
 20
132.9871128833097
 30
0.0
 11
49.25598950347785
 21
134.0396226061018
 31
0.0
  0
LINE
  5
491
330
47D
100
AcDbEntity
  8
140
  6
Continuous
 62
     7
370
    15
100
AcDbLine
 10
48.81375876701236
 20
134.4818533425673
 30
0.0
 11
47.31375876701236
 21
135.9818533425673
 31
0.0
  0
LINE
  5
492
330
47D
100
AcDbEntity
  8
140
  6
Continuous
 62
     7
370
    15
100
AcDbLine
 10
48.10665198582581
 20
134.4818533425673
 30
0.0
 11
46.60665198582581
 21
135.9818533425673
 31
0.0
  0
LINE
  5
493
330
47D
100
AcDbEntity
  8
140
  6
Continuous
 62
     7
370
    15
100
AcDbLine
 10
47.39954520463925
 20
134.4818533425673
 30
0.0
 11
45.89954520463925
 21
135.9818533425673
 31
0.0
  0
LINE
  5
494
330
47D
100
AcDbEntity
  8
140
  6
Continuous
 62
     7
370
    15
100
AcDbLine
 10
46.6924384234527
 20
134.4818533425673
 30
0.0
 11
45.37209137819565
 21
135.8022003878243
 31
0.0
  0
LINE
  5
495
330
47D
100
AcDbEntity
  8
140
  6
Continuous
 62
     7
370
    15
100
AcDbLine
 10
45.98533164226615
 20
134.4818533425673
 30
0.0
 11
45.25598950347774
 21
135.2111954813557
 31
0.0
  0
ENDBLK
  5
47F
330
47D
100
AcDbEntity
  8
0
100
AcDbBlockEnd
  0
ENDSEC
  0
SECTION
  2
ENTITIES
  0
LINE
  5
97
330
1F
100
AcDbEntity
  8
139
  6
Continuous
 62
     7
370
    15
100
AcDbLine
 10
81.05043625598853
 20
133.9072103669416
 30
0.0
 11
74.30095425598859
 21
146.0562773669416
 31
0.0
  0
LINE
  5
98
330
1F
100
AcDbEntity
  8
138
  6
Continuous
 62
     4
370
    15
100
AcDbLine
 10
155.255989503478
 20
122.3307529389522
 30
0.0
 11
155.2559895034778
 21
165.4819043212746
 31
0.0
  0
LINE
  5
99
330
1F
100
AcDbEntity
  8
138
  6
Continuous
 62
     4
370
    15
100
AcDbLine
 10
175.2559895034778
 20
138.4530986117362
 30
0.0
 11
175.255989503478
 21
171.4819043212746
 31
0.0
  0
LINE
  5
9A
330
1F
100
AcDbEntity
  8
138
  6
Continuous
 62
     4
370
    15
100
AcDbLine
 10
137.7559895034778
 20
137.4818533425673
 30
0.0
 11
137.7559895034777
 21
153.4819043212746
 31
0.0
  0
LINE
  5
9B
330
1F
100
AcDbEntity
  8
138
  6
Continuous
 62
     4
370
    15
100
AcDbLine
 10
140.7559895034778
 20
137.4818533425673
 30
0.0
 11
140.7559895034778
 21
159.4819043212746
 31
0.0
  0
LINE
  5
9C
330
1F
100
AcDbEntity
  8
138
  6
Continuous
 62
     4
370
    15
100
AcDbLine
 10
132.7559895034778
 20
132.9764923425673
 30
0.0
 11
132.755989503478
 21
147.4819043212746
 31
0.0
  0
LINE
  5
9D
330
1F
100
AcDbEntity
  8
138
  6
Continuous
 62
     4
370
    15
100
AcDbLine
 10
103.6688345034778
 20
141.3710355773817
 30
0.0
 11
103.6688345034779
 21
136.9818533425673
 31
0.0
  0
LINE
  5
9E
330
1F
100
AcDbEntity
  8
138
  6
Continuous
 62
     4
370
    15
100
AcDbLine
 10
103.6688345034779
 20
136.9818533425673
 30
0.0
 11
104.0570625034778
 21
138.4307423425674
 31
0.0
  0
LINE
  5
9F
330
1F
100
AcDbEntity
  8
138
  6
Continuous
 62
     4
370
    15
100
AcDbLine
 10
103.6688345034779
 20
136.9818533425673
 30
0.0
 11
103.2806055034779
 21
138.4307423425674
 31
0.0
  0
LINE
  5
A0
330
1F
100
AcDbEntity
  8
138
  6
Continuous
 62
     4
370
    15
100
AcDbLine
 10
93.22388050347786
 20
142.7748010183201
 30
0.0
 11
93.22388050347786
 21
136.9818533425673
 31
0.0
  0
LINE
  5
A1
330
1F
100
AcDbEntity
  8
138
  6
Continuous
 62
     4
370
    15
100
AcDbLine
 10
93.22388050347786
 20
136.9818533425673
 30
0.0
 11
92.83565150347783
 21
138.4307423425674
 31
0.0
  0
LINE
  5
A2
330
1F
100
AcDbEntity
  8
138
  6
Continuous
 62
     4
370
    15
100
AcDbLine
 10
93.22388050347786
 20
136.9818533425673
 30
0.0
 11
93.61210850347777
 21
138.4307423425674
 31
0.0
  0
LINE
  5
A3
330
1F
100
AcDbEntity
  8
138
  6
Continuous
 62
     4
370
    15
100
AcDbLine
 10
87.75598950347785
 20
132.9764923425673
 30
0.0
 11
87.75598950347785
 21
147.4819043212746
 31
0.0
  0
LINE
  5
A4
330
1F
100
AcDbEntity
  8
137
  6
DASHDOT
 62
     1
370
    15
100
AcDbLine
 10
110.2559895034778
 20
66.48185334256738
 30
0.0
 11
110.2559895034778
 21
140.9818533425673
 31
0.0
  0
LINE
  5
A5
330
1F
100
AcDbEntity
  8
138
  6
Continuous
 62
     4
370
    15
100
AcDbLine
 10
65.25598950347785
 20
122.3307529389522
 30
0.0
 11
65.25598950347785
 21
165.4819043212746
 31
0.0
  0
LINE
  5
A6
330
1F
100
AcDbEntity
  8
138
  6
Continuous
 62
     4
370
    15
100
AcDbLine
 10
79.75598950347785
 20
137.4818533425673
 30
0.0
 11
79.75598950347785
 21
159.4819043212746
 31
0.0
  0
LINE
  5
A7
330
1F
100
AcDbEntity
  8
138
  6
Continuous
 62
     4
370
    15
100
AcDbLine
 10
82.75598950347785
 20
137.4818533425673
 30
0.0
 11
82.75598950347785
 21
153.4819043212746
 31
0.0
  0
LINE
  5
A8
330
1F
100
AcDbEntity
  8
138
  6
Continuous
 62
     4
370
    15
100
AcDbLine
 10
38.76021050347782
 20
143.4208421639292
 30
0.0
 11
38.76021050347782
 21
134.4818533425674
 31
0.0
  0
LINE
  5
A9
330
1F
100
AcDbEntity
  8
138
  6
Continuous
 62
     4
370
    15
100
AcDbLine
 10
38.76021050347782
 20
136.9818533425673
 30
0.0
 11
39.14843850347785
 21
138.4307423425674
 31
0.0
  0
LINE
  5
AA
330
1F
100
AcDbEntity
  8
138
  6
Continuous
 62
     4
370
    15
100
AcDbLine
 10
38.76021050347782
 20
136.9818533425673
 30
0.0
 11
38.3719815034778
 21
138.4307423425674
 31
0.0
  0
LINE
  5
AB
330
1F
100
AcDbEntity
  8
138
  6
Continuous
 62
     4
370
    15
100
AcDbLine
 10
45.25598950347785
 20
139.3278985472325
 30
0.0
 11
45.25598950347785
 21
171.4819043212746
 31
0.0
  0
LINE
  5
AC
330
1F
100
AcDbEntity
  8
134
  6
Continuous
 62
     7
370
    15
100
AcDbLine
 10
0.0
 20
0.0
 30
0.0
 11
0.0
 21
297.0
 31
0.0
  0
LINE
  5
AD
330
1F
100
AcDbEntity
  8
132
  6
Continuous
 62
     7
370
    35
100
AcDbLine
 10
15.99999999999989
 20
12.0
 30
0.0
 11
15.99999999999989
 21
285.0
 31
0.0
  0
LINE
  5
AE
330
1F
100
AcDbEntity
  8
132
  6
Continuous
 62
     7
370
    35
100
AcDbLine
 10
198.0
 20
12.0
 30
0.0
 11
198.0
 21
285.0
 31
0.0
  0
LINE
  5
AF
330
1F
100
AcDbEntity
  8
134
  6
Continuous
 62
     7
370
    15
100
AcDbLine
 10
210.0
 20
0.0
 30
0.0
 11
210.0
 21
297.0
 31
0.0
  0
TEXT
  5
B0
330
1F
100
AcDbEntity
  8
135
  6
Continuous
 62
     7
370
    15
100
AcDbText
 10
105.0680663678867
 20
61.28421582332501
 30
0.0
 40
2.5
  1
Rc2(59.6)
 41
0.9555555555555555
100
AcDbText
  0
LINE
  5
B1
330
1F
100
AcDbEntity
  8
141
  6
Continuous
 62
     5
370
    15
100
AcDbLine
 10
140.2048705034779
 20
128.9818533425674
 30
0.0
 11
110.2559895034778
 21
128.9818533425674
 31
0.0
  0
LINE
  5
B2
330
1F
100
AcDbEntity
  8
141
  6
Continuous
 62
     5
370
    15
100
AcDbLine
 10
140.7559895034778
 20
131.4818533425674
 30
0.0
 11
110.2559895034778
 21
131.4818533425674
 31
0.0
  0
LINE
  5
B3
330
1F
100
AcDbEntity
  8
141
  6
Continuous
 62
     5
370
    15
100
AcDbLine
 10
140.7559895034778
 20
134.4818533425674
 30
0.0
 11
110.2559895034778
 21
134.4818533425674
 31
0.0
  0
LINE
  5
B4
330
1F
100
AcDbEntity
  8
141
  6
Continuous
 62
     5
370
    15
100
AcDbLine
 10
140.7559895034778
 20
131.4818533425674
 30
0.0
 11
110.2559895034778
 21
131.4818533425674
 31
0.0
  0
LINE
  5
B5
330
1F
100
AcDbEntity
  8
141
  6
Continuous
 62
     5
370
    15
100
AcDbLine
 10
140.2048705034779
 20
128.9818533425674
 30
0.0
 11
110.2559895034778
 21
128.9818533425674
 31
0.0
  0
LINE
  5
B6
330
1F
100
AcDbEntity
  8
141
  6
Continuous
 62
     5
370
    15
100
AcDbLine
 10
142.3065015034779
 20
136.9818533425673
 30
0.0
 11
110.2559895034778
 21
136.9818533425673
 31
0.0
  0
LINE
  5
B7
330
1F
100
AcDbEntity
  8
141
  6
Continuous
 62
     5
370
    15
100
AcDbLine
 10
136.4120095034779
 20
84.98185334256738
 30
0.0
 11
110.2559895034778
 21
84.98185334256738
 31
0.0
  0
LINE
  5
B8
330
1F
100
AcDbEntity
  8
141
  6
Continuous
 62
     5
370
    15
100
AcDbLine
 10
124.7559895034778
 20
82.48185334256738
 30
0.0
 11
110.2559895034778
 21
82.48185334256738
 31
0.0
  0
LINE
  5
B9
330
1F
100
AcDbEntity
  8
141
  6
Continuous
 62
     5
370
    15
100
AcDbLine
 10
124.2222055034779
 20
71.48185334256738
 30
0.0
 11
110.2559895034778
 21
71.48185334256738
 31
0.0
  0
LINE
  5
BA
330
1F
100
AcDbEntity
  8
141
  6
Continuous
 62
     5
370
    15
100
AcDbLine
 10
124.7559895034778
 20
79.48185334256738
 30
0.0
 11
110.2559895034778
 21
79.48185334256738
 31
0.0
  0
LINE
  5
BB
330
1F
100
AcDbEntity
  8
141
  6
Continuous
 62
     5
370
    15
100
AcDbLine
 10
128.8288645034779
 20
70.48185334256738
 30
0.0
 11
110.2559895034778
 21
70.48185334256738
 31
0.0
  0
LINE
  5
BC
330
1F
100
AcDbEntity
  8
138
  6
Continuous
 62
     4
370
    15
100
AcDbLine
 10
96.75598950347785
 20
94.98185334256738
 30
0.0
 11
123.7559895034778
 21
94.98185334256738
 31
0.0
  0
LINE
  5
BD
330
1F
100
AcDbEntity
  8
138
  6
Continuous
 62
     4
370
    15
100
AcDbLine
 10
124.2559895034778
 20
60.48421582332503
 30
0.0
 11
96.25598950347785
 21
60.48421582332503
 31
0.0
  0
LINE
  5
BE
330
1F
100
AcDbEntity
  8
138
  6
Continuous
 62
     4
370
    15
100
AcDbLine
 10
90.75598950347785
 20
54.48657912453558
 30
0.0
 11
129.7559895034778
 21
54.48657912453558
 31
0.0
  0
LINE
  5
BF
330
1F
100
AcDbEntity
  8
138
  6
Continuous
 62
     4
370
    15
100
AcDbLine
 10
77.75598950347785
 20
48.48630977315696
 30
0.0
 11
142.7559895034778
 21
48.48630977315696
 31
0.0
  0
LINE
  5
C0
330
1F
100
AcDbEntity
  8
134
  6
Continuous
 62
     7
370
    15
100
AcDbLine
 10
210.0
 20
0.0
 30
0.0
 11
0.0
 21
0.0
 31
0.0
  0
LINE
  5
C1
330
1F
100
AcDbEntity
  8
132
  6
Continuous
 62
     7
370
    35
100
AcDbLine
 10
198.0
 20
12.0
 30
0.0
 11
15.99999999999989
 21
12.0
 31
0.0
  0
TEXT
  5
C2
330
1F
100
AcDbEntity
  8
135
  6
Continuous
 62
     7
370
    15
100
AcDbText
 10
38.25806250347779
 20
131.6512300080148
 30
0.0
 40
3.0
  1
8
 50
89.99999999999991
100
AcDbText
  0
LINE
  5
C3
330
1F
100
AcDbEntity
  8
138
  6
Continuous
 62
     4
370
    15
100
AcDbLine
 10
32.25938450347786
 20
136.9818533425673
 30
0.0
 11
76.83420350347785
 21
136.9818533425673
 31
0.0
  0
TEXT
  5
C4
330
1F
100
AcDbEntity
  8
135
  6
Continuous
 62
     7
370
    15
100
AcDbText
 10
38.25806250347779
 20
104.8876084299332
 30
0.0
 40
3.0
  1
96
 50
89.99999999999991
100
AcDbText
  0
TEXT
  5
C5
330
1F
100
AcDbEntity
  8
135
  6
Continuous
 62
     7
370
    15
100
AcDbText
 10
38.25806250347779
 20
74.60247391748686
 30
0.0
 40
3.0
  1
24
 50
89.99999999999991
100
AcDbText
  0
LINE
  5
C6
330
1F
100
AcDbEntity
  8
138
  6
Continuous
 62
     4
370
    15
100
AcDbLine
 10
32.25938450347786
 20
70.48185334256738
 30
0.0
 11
88.90331950347786
 21
70.48185334256738
 31
0.0
  0
LINE
  5
C7
330
1F
100
AcDbEntity
  8
138
  6
Continuous
 62
     4
370
    15
100
AcDbLine
 10
32.75938450347786
 20
136.9818533425673
 30
0.0
 11
32.75938450347786
 21
70.48185334256738
 31
0.0
  0
LINE
  5
C8
330
1F
100
AcDbEntity
  8
138
  6
Continuous
 62
     4
370
    15
100
AcDbLine
 10
32.75938450347786
 20
70.48185334256738
 30
0.0
 11
32.37115550347784
 21
71.93074234256738
 31
0.0
  0
LINE
  5
C9
330
1F
100
AcDbEntity
  8
138
  6
Continuous
 62
     4
370
    15
100
AcDbLine
 10
32.75938450347786
 20
70.48185334256738
 30
0.0
 11
33.14761250347789
 21
71.93074234256738
 31
0.0
  0
TEXT
  5
CA
330
1F
100
AcDbEntity
  8
135
  6
Continuous
 62
     7
370
    15
100
AcDbText
 10
32.25723650347783
 20
100.8877488996617
 30
0.0
 40
3.0
  1
133
 50
89.99999999999991
100
AcDbText
  0
LINE
  5
CB
330
1F
100
AcDbEntity
  8
138
  6
Continuous
 62
     4
370
    15
100
AcDbLine
 10
32.75938450347786
 20
136.9818533425673
 30
0.0
 11
32.37115550347784
 21
135.5329653425673
 31
0.0
  0
LINE
  5
CC
330
1F
100
AcDbEntity
  8
138
  6
Continuous
 62
     4
370
    15
100
AcDbLine
 10
32.75938450347786
 20
136.9818533425673
 30
0.0
 11
33.14761250347789
 21
135.5329653425673
 31
0.0
  0
LINE
  5
CD
330
1F
100
AcDbEntity
  8
138
  6
Continuous
 62
     4
370
    15
100
AcDbLine
 10
96.75598950347796
 20
85.48185334256738
 30
0.0
 11
96.75598950347785
 21
95.48185334256738
 31
0.0
  0
LINE
  5
CE
330
1F
100
AcDbEntity
  8
138
  6
Continuous
 62
     4
370
    15
100
AcDbLine
 10
93.22388050347786
 20
128.9818533425674
 30
0.0
 11
93.22388050347786
 21
84.98185334256738
 31
0.0
  0
LINE
  5
CF
330
1F
100
AcDbEntity
  8
140
  6
Continuous
 62
     7
370
    15
100
AcDbLine
 10
77.61143250347789
 20
88.59597034256734
 30
0.0
 11
80.02954950347782
 21
91.01408634256734
 31
0.0
  0
LINE
  5
D0
330
1F
100
AcDbEntity
  8
140
  6
Continuous
 62
     7
370
    15
100
AcDbLine
 10
77.54047850347786
 20
90.64633734256734
 30
0.0
 11
79.96070050347782
 21
93.06655834256736
 31
0.0
  0
LINE
  5
D1
330
1F
100
AcDbEntity
  8
140
  6
Continuous
 62
     7
370
    15
100
AcDbLine
 10
77.5634285034779
 20
89.96217934256737
 30
0.0
 11
79.98364950347786
 21
92.38240134256733
 31
0.0
  0
LINE
  5
D2
330
1F
100
AcDbEntity
  8
140
  6
Continuous
 62
     7
370
    15
100
AcDbLine
 10
77.58637750347782
 20
89.27802234256734
 30
0.0
 11
80.0065995034779
 21
91.69824434256736
 31
0.0
  0
LINE
  5
D3
330
1F
100
AcDbEntity
  8
141
  6
Continuous
 62
     5
370
    15
100
AcDbLine
 10
78.80795150347785
 20
127.4315643425674
 30
0.0
 11
80.10221750347785
 21
88.84775134256734
 31
0.0
  0
LINE
  5
D4
330
1F
100
AcDbEntity
  8
141
  6
Continuous
 62
     5
370
    15
100
AcDbLine
 10
76.54908850347783
 20
120.2010123425674
 30
0.0
 11
77.60362250347782
 21
88.76393734256732
 31
0.0
  0
LINE
  5
D5
330
1F
100
AcDbEntity
  8
138
  6
Continuous
 62
     4
370
    15
100
AcDbLine
 10
38.76021050347782
 20
130.4818533425674
 30
0.0
 11
38.76021050347782
 21
82.48185334256738
 31
0.0
  0
ARC
  5
D6
330
1F
100
AcDbEntity
  8
141
  6
Continuous
 62
     5
370
    15
100
AcDbCircle
 10
84.09996850347784
 20
88.98185334256738
 30
0.0
 40
6.5
100
AcDbArc
 50
181.9212239999984
 51
269.9999999999998
  0
LINE
  5
D7
330
1F
100
AcDbEntity
  8
138
  6
Continuous
 62
     4
370
    15
100
AcDbLine
 10
70.90185150347781
 20
75.30103634256733
 30
0.0
 11
79.7514655034779
 21
84.15065034256736
 31
0.0
  0
TEXT
  5
D8
330
1F
100
AcDbEntity
  8
135
  6
Continuous
 62
     7
370
    15
100
AcDbText
 10
73.15918100165788
 20
78.26851035266594
 30
0.0
 40
3.0
  1
R13
 50
44.99999999999942
100
AcDbText
  0
LINE
  5
D9
330
1F
100
AcDbEntity
  8
138
  6
Continuous
 62
     4
370
    15
100
AcDbLine
 10
66.6111095034779
 20
82.48185334256738
 30
0.0
 11
38.26021050347782
 21
82.48185334256738
 31
0.0
  0
LINE
  5
DA
330
1F
100
AcDbEntity
  8
138
  6
Continuous
 62
     4
370
    15
100
AcDbLine
 10
38.76021050347782
 20
82.48185334256738
 30
0.0
 11
38.76021050347782
 21
70.48185334256738
 31
0.0
  0
LINE
  5
DB
330
1F
100
AcDbEntity
  8
138
  6
Continuous
 62
     4
370
    15
100
AcDbLine
 10
38.76021050347782
 20
70.48185334256738
 30
0.0
 11
38.3719815034778
 21
71.93074234256738
 31
0.0
  0
LINE
  5
DC
330
1F
100
AcDbEntity
  8
138
  6
Continuous
 62
     4
370
    15
100
AcDbLine
 10
38.76021050347782
 20
70.48185334256738
 30
0.0
 11
39.14843850347785
 21
71.93074234256738
 31
0.0
  0
LINE
  5
DD
330
1F
100
AcDbEntity
  8
138
  6
Continuous
 62
     4
370
    15
100
AcDbLine
 10
38.76021050347782
 20
82.48185334256738
 30
0.0
 11
38.3719815034778
 21
81.03296534256737
 31
0.0
  0
LINE
  5
DE
330
1F
100
AcDbEntity
  8
138
  6
Continuous
 62
     4
370
    15
100
AcDbLine
 10
38.76021050347782
 20
82.48185334256738
 30
0.0
 11
39.14843850347785
 21
81.03296534256737
 31
0.0
  0
LINE
  5
DF
330
1F
100
AcDbEntity
  8
138
  6
Continuous
 62
     4
370
    15
100
AcDbLine
 10
38.76021050347782
 20
82.48185334256738
 30
0.0
 11
39.14843850347785
 21
83.93074234256738
 31
0.0
  0
LINE
  5
E0
330
1F
100
AcDbEntity
  8
138
  6
Continuous
 62
     4
370
    15
100
AcDbLine
 10
38.76021050347782
 20
82.48185334256738
 30
0.0
 11
38.3719815034778
 21
83.93074234256738
 31
0.0
  0
LINE
  5
E1
330
1F
100
AcDbEntity
  8
138
  6
Continuous
 62
     4
370
    15
100
AcDbLine
 10
96.25598950347785
 20
59.98421582332503
 30
0.0
 11
96.25598950347785
 21
69.98185334256738
 31
0.0
  0
LINE
  5
E2
330
1F
100
AcDbEntity
  8
138
  6
Continuous
 62
     4
370
    15
100
AcDbLine
 10
90.75598950347796
 20
53.98657912453558
 30
0.0
 11
90.75598950347785
 21
70.48185334256738
 31
0.0
  0
LINE
  5
E3
330
1F
100
AcDbEntity
  8
138
  6
Continuous
 62
     4
370
    15
100
AcDbLine
 10
77.75598950347785
 20
47.98630977315696
 30
0.0
 11
77.75598950347774
 21
85.31533872786468
 31
0.0
  0
LINE
  5
E4
330
1F
100
AcDbEntity
  8
138
  6
Continuous
 62
     4
370
    15
100
AcDbLine
 10
77.75598950347785
 20
48.48630977315696
 30
0.0
 11
79.25598950347796
 21
48.88823317924488
 31
0.0
  0
LINE
  5
E5
330
1F
100
AcDbEntity
  8
138
  6
Continuous
 62
     4
370
    15
100
AcDbLine
 10
77.75598950347785
 20
48.48630977315696
 30
0.0
 11
79.25598950347796
 21
48.08438533179225
 31
0.0
  0
LINE
  5
E6
330
1F
100
AcDbEntity
  8
138
  6
Continuous
 62
     4
370
    15
100
AcDbLine
 10
90.75598950347785
 20
54.48657912453558
 30
0.0
 11
92.25598950347796
 21
54.08465468317087
 31
0.0
  0
LINE
  5
E7
330
1F
100
AcDbEntity
  8
138
  6
Continuous
 62
     4
370
    15
100
AcDbLine
 10
90.75598950347785
 20
54.48657912453558
 30
0.0
 11
92.25598950347796
 21
54.8885025306235
 31
0.0
  0
TEXT
  5
E8
330
1F
100
AcDbEntity
  8
135
  6
Continuous
 62
     7
370
    15
100
AcDbText
 10
105.7488094121107
 20
54.98872712453561
 30
0.0
 40
3.0
  1
φ78
 41
1.6
100
AcDbText
  0
TEXT
  5
E9
330
1F
100
AcDbEntity
  8
135
  6
Continuous
 62
     7
370
    15
100
AcDbText
 10
104.7605614283317
 20
48.98845777315699
 30
0.0
 40
3.0
  1
φ130
 41
1.68
100
AcDbText
  0
LINE
  5
EA
330
1F
100
AcDbEntity
  8
139
  6
Continuous
 62
     7
370
    15
100
AcDbLine
 10
101.454828520907
 20
61.07991258274882
 30
0.0
 11
103.1048285209071
 21
63.93779618274885
 31
0.0
  0
TEXT
  5
EB
330
1F
100
AcDbEntity
  8
133
  6
Continuous
 62
     4
370
    15
100
AcDbText
 10
102.4608027048847
 20
61.23627150312819
 30
0.0
 40
2.0
  1
1
100
AcDbText
  0
LINE
  5
EC
330
1F
100
AcDbEntity
  8
139
  6
Continuous
 62
     7
370
    15
100
AcDbLine
 10
104.7548285209072
 20
61.07991258274882
 30
0.0
 11
103.1048285209071
 21
63.93779618274885
 31
0.0
  0
LINE
  5
ED
330
1F
100
AcDbEntity
  8
138
  6
Continuous
 62
     4
370
    15
100
AcDbLine
 10
96.25598950347785
 20
60.48421582332503
 30
0.0
 11
97.75598950347796
 21
60.08229138196026
 31
0.0
  0
LINE
  5
EE
330
1F
100
AcDbEntity
  8
138
  6
Continuous
 62
     4
370
    15
100
AcDbLine
 10
96.25598950347785
 20
60.48421582332503
 30
0.0
 11
97.75598950347796
 21
60.88613922941295
 31
0.0
  0
LINE
  5
EF
330
1F
100
AcDbEntity
  8
139
  6
Continuous
 62
     7
370
    15
100
AcDbLine
 10
101.454828520907
 20
61.07991258274882
 30
0.0
 11
104.7548285209072
 21
61.07991258274882
 31
0.0
  0
LINE
  5
F0
330
1F
100
AcDbEntity
  8
140
  6
Continuous
 62
     7
370
    15
100
AcDbLine
 10
96.24605250347781
 20
82.48185334256738
 30
0.0
 11
96.67214150347786
 21
82.90794234256737
 31
0.0
  0
LINE
  5
F1
330
1F
100
AcDbEntity
  8
140
  6
Continuous
 62
     7
370
    15
100
AcDbLine
 10
90.09490750347788
 20
78.45202834256736
 30
0.0
 11
96.62473250347784
 21
84.98185334256738
 31
0.0
  0
LINE
  5
F2
330
1F
100
AcDbEntity
  8
141
  6
Continuous
 62
     5
370
    15
100
AcDbLine
 10
96.28796650347783
 20
71.47797634256739
 30
0.0
 11
95.25612450347785
 21
70.48286734256737
 31
0.0
  0
LINE
  5
F3
330
1F
100
AcDbEntity
  8
140
  6
Continuous
 62
     7
370
    15
100
AcDbLine
 10
90.14963250347785
 20
77.79964634256737
 30
0.0
 11
96.72110650347793
 21
84.3711203425674
 31
0.0
  0
LINE
  5
F4
330
1F
100
AcDbEntity
  8
140
  6
Continuous
 62
     7
370
    15
100
AcDbLine
 10
90.20435750347792
 20
77.14726434256733
 30
0.0
 11
96.6966235034779
 21
83.63953134256735
 31
0.0
  0
LINE
  5
F5
330
1F
100
AcDbEntity
  8
141
  6
Continuous
 62
     5
370
    15
100
AcDbLine
 10
95.75598950347785
 20
82.48185334256738
 30
0.0
 11
110.2559895034778
 21
82.48185334256738
 31
0.0
  0
LINE
  5
F6
330
1F
100
AcDbEntity
  8
141
  6
Continuous
 62
     5
370
    15
100
AcDbLine
 10
95.75598950347785
 20
79.48185334256738
 30
0.0
 11
110.2559895034778
 21
79.48185334256738
 31
0.0
  0
LINE
  5
F7
330
1F
100
AcDbEntity
  8
141
  6
Continuous
 62
     5
370
    15
100
AcDbLine
 10
91.6831135034779
 20
70.48185334256738
 30
0.0
 11
110.2559895034778
 21
70.48185334256738
 31
0.0
  0
LINE
  5
F8
330
1F
100
AcDbEntity
  8
141
  6
Continuous
 62
     5
370
    15
100
AcDbLine
 10
84.09996850347784
 20
84.98185334256738
 30
0.0
 11
110.2559895034778
 21
84.98185334256738
 31
0.0
  0
LINE
  5
F9
330
1F
100
AcDbEntity
  8
140
  6
Continuous
 62
     7
370
    15
100
AcDbLine
 10
90.04018150347792
 20
79.10440934256735
 30
0.0
 11
95.9176255034779
 21
84.98185334256738
 31
0.0
  0
LINE
  5
FA
330
1F
100
AcDbEntity
  8
141
  6
Continuous
 62
     5
370
    15
100
AcDbLine
 10
95.55692950347782
 20
79.48185334256738
 30
0.0
 11
95.25574850347789
 21
70.48185334256738
 31
0.0
  0
LINE
  5
FB
330
1F
100
AcDbEntity
  8
141
  6
Continuous
 62
     5
370
    15
100
AcDbLine
 10
89.94904750347791
 20
80.19083234256738
 30
0.0
 11
90.68661350347782
 21
71.39826134256737
 31
0.0
  0
LINE
  5
FC
330
1F
100
AcDbEntity
  8
140
  6
Continuous
 62
     7
370
    15
100
AcDbLine
 10
90.25908250347788
 20
76.49488334256733
 30
0.0
 11
95.25598950347785
 21
81.49178934256736
 31
0.0
  0
LINE
  5
FD
330
1F
100
AcDbEntity
  8
140
  6
Continuous
 62
     7
370
    15
100
AcDbLine
 10
90.31380750347785
 20
75.84250134256735
 30
0.0
 11
95.25598950347785
 21
80.78468334256735
 31
0.0
  0
LINE
  5
FE
330
1F
100
AcDbEntity
  8
140
  6
Continuous
 62
     7
370
    15
100
AcDbLine
 10
90.36853350347792
 20
75.19012034256735
 30
0.0
 11
95.25598950347785
 21
80.07757634256734
 31
0.0
  0
LINE
  5
FF
330
1F
100
AcDbEntity
  8
140
  6
Continuous
 62
     7
370
    15
100
AcDbLine
 10
90.42325850347788
 20
74.53773834256737
 30
0.0
 11
95.46254150347784
 21
79.57702134256738
 31
0.0
  0
LINE
  5
100
330
1F
100
AcDbEntity
  8
140
  6
Continuous
 62
     7
370
    15
100
AcDbLine
 10
90.58743350347788
 20
72.58059334256734
 30
0.0
 11
95.49004550347786
 21
77.48320534256737
 31
0.0
  0
LINE
  5
101
330
1F
100
AcDbEntity
  8
140
  6
Continuous
 62
     7
370
    15
100
AcDbLine
 10
90.64215850347784
 20
71.92821134256735
 30
0.0
 11
95.46556350347782
 21
76.75161634256739
 31
0.0
  0
LINE
  5
102
330
1F
100
AcDbEntity
  8
140
  6
Continuous
 62
     7
370
    15
100
AcDbLine
 10
90.70324850347788
 20
71.28219434256738
 30
0.0
 11
95.4410805034779
 21
76.02002734256735
 31
0.0
  0
LINE
  5
103
330
1F
100
AcDbEntity
  8
140
  6
Continuous
 62
     7
370
    15
100
AcDbLine
 10
90.94040250347791
 20
70.81224134256735
 30
0.0
 11
95.41659850347787
 21
75.28843734256736
 31
0.0
  0
LINE
  5
104
330
1F
100
AcDbEntity
  8
140
  6
Continuous
 62
     7
370
    15
100
AcDbLine
 10
91.36804950347789
 20
70.53278234256737
 30
0.0
 11
95.39211650347784
 21
74.55684834256732
 31
0.0
  0
LINE
  5
105
330
1F
100
AcDbEntity
  8
140
  6
Continuous
 62
     7
370
    15
100
AcDbLine
 10
92.02422750347785
 20
70.48185334256738
 30
0.0
 11
95.36763350347792
 21
73.82525934256734
 31
0.0
  0
LINE
  5
106
330
1F
100
AcDbEntity
  8
140
  6
Continuous
 62
     7
370
    15
100
AcDbLine
 10
90.53270850347792
 20
73.23297534256739
 30
0.0
 11
95.5145275034779
 21
78.21479434256736
 31
0.0
  0
ARC
  5
107
330
1F
100
AcDbEntity
  8
141
  6
Continuous
 62
     5
370
    15
100
AcDbCircle
 10
91.6831135034779
 20
71.48185334256738
 30
0.0
 40
1.0
100
AcDbArc
 50
184.795041999999
 51
269.9999999999998
  0
LINE
  5
108
330
1F
100
AcDbEntity
  8
140
  6
Continuous
 62
     7
370
    15
100
AcDbLine
 10
92.73133350347791
 20
70.48185334256738
 30
0.0
 11
95.34315150347788
 21
73.09367034256735
 31
0.0
  0
LINE
  5
109
330
1F
100
AcDbEntity
  8
140
  6
Continuous
 62
     7
370
    15
100
AcDbLine
 10
93.43844050347786
 20
70.48185334256738
 30
0.0
 11
95.31866950347785
 21
72.36208134256736
 31
0.0
  0
LINE
  5
10A
330
1F
100
AcDbEntity
  8
140
  6
Continuous
 62
     7
370
    15
100
AcDbLine
 10
94.14554750347781
 20
70.48185334256738
 30
0.0
 11
95.29418650347782
 21
71.63049234256738
 31
0.0
  0
LINE
  5
10B
330
1F
100
AcDbEntity
  8
140
  6
Continuous
 62
     7
370
    15
100
AcDbLine
 10
94.85265450347788
 20
70.48185334256738
 30
0.0
 11
95.2697045034779
 21
70.8989033425674
 31
0.0
  0
LINE
  5
10C
330
1F
100
AcDbEntity
  8
140
  6
Continuous
 62
     7
370
    15
100
AcDbLine
 10
90.47798350347784
 20
73.88535634256738
 30
0.0
 11
95.53900950347781
 21
78.94638334256734
 31
0.0
  0
LINE
  5
10D
330
1F
100
AcDbEntity
  8
141
  6
Continuous
 62
     5
370
    15
100
AcDbLine
 10
84.09996850347784
 20
82.48185334256738
 30
0.0
 11
87.45779650347788
 21
82.48185334256738
 31
0.0
  0
LINE
  5
10E
330
1F
100
AcDbEntity
  8
140
  6
Continuous
 62
     7
370
    15
100
AcDbLine
 10
84.22523750347784
 20
82.48185334256738
 30
0.0
 11
86.72523750347784
 21
84.98185334256738
 31
0.0
  0
LINE
  5
10F
330
1F
100
AcDbEntity
  8
140
  6
Continuous
 62
     7
370
    15
100
AcDbLine
 10
84.93234350347791
 20
82.48185334256738
 30
0.0
 11
87.43234350347791
 21
84.98185334256738
 31
0.0
  0
LINE
  5
110
330
1F
100
AcDbEntity
  8
140
  6
Continuous
 62
     7
370
    15
100
AcDbLine
 10
85.63945050347786
 20
82.48185334256738
 30
0.0
 11
88.13945050347786
 21
84.98185334256738
 31
0.0
  0
LINE
  5
111
330
1F
100
AcDbEntity
  8
140
  6
Continuous
 62
     7
370
    15
100
AcDbLine
 10
86.34655750347792
 20
82.48185334256738
 30
0.0
 11
88.84655750347792
 21
84.98185334256738
 31
0.0
  0
LINE
  5
112
330
1F
100
AcDbEntity
  8
140
  6
Continuous
 62
     7
370
    15
100
AcDbLine
 10
80.41853050347788
 20
83.62489334256736
 30
0.0
 11
82.23621850347786
 21
85.44258234256739
 31
0.0
  0
LINE
  5
113
330
1F
100
AcDbEntity
  8
140
  6
Continuous
 62
     7
370
    15
100
AcDbLine
 10
80.85216450347787
 20
83.35142034256734
 30
0.0
 11
82.7259815034779
 21
85.22523734256737
 31
0.0
  0
LINE
  5
114
330
1F
100
AcDbEntity
  8
140
  6
Continuous
 62
     7
370
    15
100
AcDbLine
 10
81.31605050347787
 20
83.10820034256739
 30
0.0
 11
83.27557750347785
 21
85.06772734256737
 31
0.0
  0
ARC
  5
115
330
1F
100
AcDbEntity
  8
141
  6
Continuous
 62
     5
370
    15
100
AcDbCircle
 10
84.09996850347784
 20
88.98185334256738
 30
0.0
 40
4.0
100
AcDbArc
 50
181.9212239999984
 51
269.9999999999998
  0
LINE
  5
116
330
1F
100
AcDbEntity
  8
138
  6
Continuous
 62
     4
370
    15
100
AcDbLine
 10
79.7514655034779
 20
84.15065034256736
 30
0.0
 11
84.11155050347782
 21
88.51073534256733
 31
0.0
  0
LINE
  5
117
330
1F
100
AcDbEntity
  8
140
  6
Continuous
 62
     7
370
    15
100
AcDbLine
 10
78.96361450347786
 20
84.99840434256737
 30
0.0
 11
80.75445450347786
 21
86.78924434256737
 31
0.0
  0
LINE
  5
118
330
1F
100
AcDbEntity
  8
140
  6
Continuous
 62
     7
370
    15
100
AcDbLine
 10
79.28628350347788
 20
84.61396634256738
 30
0.0
 11
81.0574385034779
 21
86.38512234256734
 31
0.0
  0
LINE
  5
119
330
1F
100
AcDbEntity
  8
140
  6
Continuous
 62
     7
370
    15
100
AcDbLine
 10
79.6362855034779
 20
84.25686234256733
 30
0.0
 11
81.40521450347785
 21
86.02579134256735
 31
0.0
  0
LINE
  5
11A
330
1F
100
AcDbEntity
  8
140
  6
Continuous
 62
     7
370
    15
100
AcDbLine
 10
80.01355850347784
 20
83.92702834256733
 30
0.0
 11
81.79750350347786
 21
85.71097334256734
 31
0.0
  0
LINE
  5
11B
330
1F
100
AcDbEntity
  8
138
  6
Continuous
 62
     4
370
    15
100
AcDbLine
 10
79.7514655034779
 20
84.15065034256736
 30
0.0
 11
78.40660256573562
 21
83.37419293674981
 31
0.0
  0
LINE
  5
11C
330
1F
100
AcDbEntity
  8
138
  6
Continuous
 62
     4
370
    15
100
AcDbLine
 10
79.7514655034779
 20
84.15065034256736
 30
0.0
 11
78.97500882971156
 21
82.80578667277382
 31
0.0
  0
LINE
  5
11D
330
1F
100
AcDbEntity
  8
140
  6
Continuous
 62
     7
370
    15
100
AcDbLine
 10
81.81258050347788
 20
82.89762334256733
 30
0.0
 11
83.9017255034779
 21
84.98676834256736
 31
0.0
  0
LINE
  5
11E
330
1F
100
AcDbEntity
  8
140
  6
Continuous
 62
     7
370
    15
100
AcDbLine
 10
82.34524650347782
 20
82.72318234256733
 30
0.0
 11
84.60391650347788
 21
84.98185334256738
 31
0.0
  0
LINE
  5
11F
330
1F
100
AcDbEntity
  8
140
  6
Continuous
 62
     7
370
    15
100
AcDbLine
 10
82.91917550347785
 20
82.59000434256734
 30
0.0
 11
85.31102350347783
 21
84.98185334256738
 31
0.0
  0
LINE
  5
120
330
1F
100
AcDbEntity
  8
140
  6
Continuous
 62
     7
370
    15
100
AcDbLine
 10
83.54211350347782
 20
82.50583534256737
 30
0.0
 11
86.01813050347789
 21
84.98185334256738
 31
0.0
  0
LINE
  5
121
330
1F
100
AcDbEntity
  8
140
  6
Continuous
 62
     7
370
    15
100
AcDbLine
 10
77.68103650347791
 20
87.95846834256736
 30
0.0
 11
80.05249850347786
 21
90.32992934256737
 31
0.0
  0
LINE
  5
122
330
1F
100
AcDbEntity
  8
140
  6
Continuous
 62
     7
370
    15
100
AcDbLine
 10
77.80231550347787
 20
87.37263934256737
 30
0.0
 11
80.0754485034779
 21
89.64577234256734
 31
0.0
  0
LINE
  5
123
330
1F
100
AcDbEntity
  8
140
  6
Continuous
 62
     7
370
    15
100
AcDbLine
 10
77.9665675034779
 20
86.82978534256739
 30
0.0
 11
80.09839750347783
 21
88.96161534256737
 31
0.0
  0
LINE
  5
124
330
1F
100
AcDbEntity
  8
140
  6
Continuous
 62
     7
370
    15
100
AcDbLine
 10
78.16810750347793
 20
86.32421834256735
 30
0.0
 11
80.15637350347788
 21
88.31248334256736
 31
0.0
  0
LINE
  5
125
330
1F
100
AcDbEntity
  8
140
  6
Continuous
 62
     7
370
    15
100
AcDbLine
 10
78.4030795034779
 20
85.85208334256737
 30
0.0
 11
80.2959975034779
 21
87.74500134256738
 31
0.0
  0
LINE
  5
126
330
1F
100
AcDbEntity
  8
140
  6
Continuous
 62
     7
370
    15
100
AcDbLine
 10
78.66884150347789
 20
85.41073834256736
 30
0.0
 11
80.49880350347792
 21
87.24070034256732
 31
0.0
  0
LINE
  5
127
330
1F
100
AcDbEntity
  8
138
  6
Continuous
 62
     4
370
    15
100
AcDbLine
 10
93.22388050347786
 20
84.98185334256738
 30
0.0
 11
93.61210850347777
 21
86.43074234256738
 31
0.0
  0
LINE
  5
128
330
1F
100
AcDbEntity
  8
138
  6
Continuous
 62
     4
370
    15
100
AcDbLine
 10
93.22388050347786
 20
84.98185334256738
 30
0.0
 11
92.83565150347783
 21
86.43074234256738
 31
0.0
  0
LINE
  5
129
330
1F
100
AcDbEntity
  8
140
  6
Continuous
 62
     7
370
    15
100
AcDbLine
 10
88.7902825034779
 20
82.09715034256732
 30
0.0
 11
91.67498450347784
 21
84.98185334256738
 31
0.0
  0
LINE
  5
12A
330
1F
100
AcDbEntity
  8
140
  6
Continuous
 62
     7
370
    15
100
AcDbLine
 10
89.18730550347789
 20
81.78706734256735
 30
0.0
 11
92.38209150347791
 21
84.98185334256738
 31
0.0
  0
LINE
  5
12B
330
1F
100
AcDbEntity
  8
140
  6
Continuous
 62
     7
370
    15
100
AcDbLine
 10
89.51284650347782
 20
81.40550034256734
 30
0.0
 11
93.08919850347786
 21
84.98185334256738
 31
0.0
  0
LINE
  5
12C
330
1F
100
AcDbEntity
  8
140
  6
Continuous
 62
     7
370
    15
100
AcDbLine
 10
89.76323550347786
 20
80.94878334256737
 30
0.0
 11
93.79630550347792
 21
84.98185334256738
 31
0.0
  0
LINE
  5
12D
330
1F
100
AcDbEntity
  8
140
  6
Continuous
 62
     7
370
    15
100
AcDbLine
 10
89.92243150347792
 20
80.40087234256737
 30
0.0
 11
94.50341150347788
 21
84.98185334256738
 31
0.0
  0
LINE
  5
12E
330
1F
100
AcDbEntity
  8
140
  6
Continuous
 62
     7
370
    15
100
AcDbLine
 10
89.98545650347785
 20
79.75679134256734
 30
0.0
 11
95.21051850347783
 21
84.98185334256738
 31
0.0
  0
LINE
  5
12F
330
1F
100
AcDbEntity
  8
140
  6
Continuous
 62
     7
370
    15
100
AcDbLine
 10
87.74430050347792
 20
82.46538234256735
 30
0.0
 11
90.26077150347783
 21
84.98185334256738
 31
0.0
  0
LINE
  5
130
330
1F
100
AcDbEntity
  8
140
  6
Continuous
 62
     7
370
    15
100
AcDbLine
 10
88.31597050347784
 20
82.32994534256733
 30
0.0
 11
90.9678775034779
 21
84.98185334256738
 31
0.0
  0
ARC
  5
131
330
1F
100
AcDbEntity
  8
141
  6
Continuous
 62
     5
370
    15
100
AcDbCircle
 10
87.45779650347788
 20
79.98185334256738
 30
0.0
 40
2.5
100
AcDbArc
 50
4.795041999999334
 51
89.99999999999991
  0
LINE
  5
132
330
1F
100
AcDbEntity
  8
140
  6
Continuous
 62
     7
370
    15
100
AcDbLine
 10
87.05366450347788
 20
82.48185334256738
 30
0.0
 11
89.55366450347788
 21
84.98185334256738
 31
0.0
  0
LINE
  5
133
330
1F
100
AcDbEntity
  8
141
  6
Continuous
 62
     5
370
    15
100
AcDbLine
 10
95.25598950347785
 20
79.98185334256738
 30
0.0
 11
95.25598950347785
 21
81.98185334256738
 31
0.0
  0
ARC
  5
134
330
1F
100
AcDbEntity
  8
141
  6
Continuous
 62
     5
370
    15
100
AcDbCircle
 10
95.75598950347785
 20
81.98185334256738
 30
0.0
 40
0.5
100
AcDbArc
 50
89.99999999999991
 51
179.9999999999998
  0
ARC
  5
135
330
1F
100
AcDbEntity
  8
141
  6
Continuous
 62
     5
370
    15
100
AcDbCircle
 10
95.75598950347785
 20
79.98185334256738
 30
0.0
 40
0.5
100
AcDbArc
 50
179.9999999999998
 51
269.9999999999998
  0
LINE
  5
136
330
1F
100
AcDbEntity
  8
141
  6
Continuous
 62
     5
370
    15
100
AcDbLine
 10
96.55748950347788
 20
79.48185334256738
 30
0.0
 11
96.2896985034779
 21
71.47964734256738
 31
0.0
  0
LINE
  5
137
330
1F
100
AcDbEntity
  8
141
  6
Continuous
 62
     5
370
    15
100
AcDbLine
 10
96.28977250347782
 20
71.48185334256738
 30
0.0
 11
110.2559895034778
 21
71.48185334256738
 31
0.0
  0
LINE
  5
138
330
1F
100
AcDbEntity
  8
141
  6
Continuous
 62
     5
370
    15
100
AcDbLine
 10
96.74201350347789
 20
84.99587334256734
 30
0.0
 11
96.65788250347782
 21
82.48185334256738
 31
0.0
  0
ARC
  5
139
330
1F
100
AcDbEntity
  8
141
  6
Continuous
 62
     5
370
    15
100
AcDbCircle
 10
74.97918650347788
 20
130.0837023425673
 30
0.0
 40
2.0
100
AcDbArc
 50
266.7920880000038
 51
353.6598079999982
  0
ARC
  5
13A
330
1F
100
AcDbEntity
  8
141
  6
Continuous
 62
     5
370
    15
100
AcDbCircle
 10
75.04993250347786
 20
120.1507243425673
 30
0.0
 40
1.5
100
AcDbArc
 50
1.921223999998753
 51
82.89591000000411
  0
LINE
  5
13B
330
1F
100
AcDbEntity
  8
141
  6
Continuous
 62
     5
370
    15
100
AcDbLine
 10
78.92466550347785
 20
123.9521503425673
 30
0.0
 11
74.78539050347786
 21
128.0914253425673
 31
0.0
  0
LINE
  5
13C
330
1F
100
AcDbEntity
  8
140
  6
Continuous
 62
     7
370
    15
100
AcDbLine
 10
72.98751250347789
 20
122.1558163425674
 30
0.0
 11
76.85425650347793
 21
126.0225603425674
 31
0.0
  0
LINE
  5
13D
330
1F
100
AcDbEntity
  8
140
  6
Continuous
 62
     7
370
    15
100
AcDbLine
 10
73.4382455034779
 20
121.8994433425673
 30
0.0
 11
77.20780950347785
 21
125.6690063425673
 31
0.0
  0
LINE
  5
13E
330
1F
100
AcDbEntity
  8
140
  6
Continuous
 62
     7
370
    15
100
AcDbLine
 10
74.03475850347786
 20
121.7888493425673
 30
0.0
 11
77.56136250347788
 21
125.3154533425674
 31
0.0
  0
LINE
  5
13F
330
1F
100
AcDbEntity
  8
140
  6
Continuous
 62
     7
370
    15
100
AcDbLine
 10
74.66350550347784
 20
121.7104893425674
 30
0.0
 11
77.91491650347791
 21
124.9619003425673
 31
0.0
  0
LINE
  5
140
330
1F
100
AcDbEntity
  8
140
  6
Continuous
 62
     7
370
    15
100
AcDbLine
 10
75.29130050347783
 20
121.6311773425674
 30
0.0
 11
78.26846950347783
 21
124.6083463425674
 31
0.0
  0
LINE
  5
141
330
1F
100
AcDbEntity
  8
140
  6
Continuous
 62
     7
370
    15
100
AcDbLine
 10
75.81071050347782
 20
121.4434803425673
 30
0.0
 11
78.62202350347786
 21
124.2547933425673
 31
0.0
  0
LINE
  5
142
330
1F
100
AcDbEntity
  8
140
  6
Continuous
 62
     7
370
    15
100
AcDbLine
 10
76.19453650347782
 20
121.1201993425673
 30
0.0
 11
78.92797050347792
 21
123.8536333425674
 31
0.0
  0
LINE
  5
143
330
1F
100
AcDbEntity
  8
140
  6
Continuous
 62
     7
370
    15
100
AcDbLine
 10
76.45563050347789
 20
120.6741863425674
 30
0.0
 11
78.95092050347785
 21
123.1694763425674
 31
0.0
  0
LINE
  5
144
330
1F
100
AcDbEntity
  8
140
  6
Continuous
 62
     7
370
    15
100
AcDbLine
 10
76.55364850347792
 20
120.0650973425674
 30
0.0
 11
78.97386950347789
 21
122.4853193425674
 31
0.0
  0
LINE
  5
145
330
1F
100
AcDbEntity
  8
140
  6
Continuous
 62
     7
370
    15
100
AcDbLine
 10
76.57659750347784
 20
119.3809403425674
 30
0.0
 11
78.99681950347792
 21
121.8011623425674
 31
0.0
  0
LINE
  5
146
330
1F
100
AcDbEntity
  8
140
  6
Continuous
 62
     7
370
    15
100
AcDbLine
 10
76.59954750347788
 20
118.6967833425674
 30
0.0
 11
79.01976850347785
 21
121.1170053425674
 31
0.0
  0
LINE
  5
147
330
1F
100
AcDbEntity
  8
140
  6
Continuous
 62
     7
370
    15
100
AcDbLine
 10
76.62249650347792
 20
118.0126263425674
 30
0.0
 11
79.04271850347789
 21
120.4328473425674
 31
0.0
  0
LINE
  5
148
330
1F
100
AcDbEntity
  8
141
  6
Continuous
 62
     5
370
    15
100
AcDbLine
 10
65.25598950347785
 20
132.9818533425674
 30
0.0
 11
76.75598950347785
 21
132.9818533425674
 31
0.0
  0
LINE
  5
149
330
1F
100
AcDbEntity
  8
137
  6
DASHDOT
 62
     1
370
    15
100
AcDbLine
 10
80.23572550347785
 20
124.4088573425674
 30
0.0
 11
72.46859150347791
 21
132.1759913425674
 31
0.0
  0
LINE
  5
14A
330
1F
100
AcDbEntity
  8
138
  6
Continuous
 62
     4
370
    15
100
AcDbLine
 10
76.90501429606843
 20
109.5904153425674
 30
0.0
 11
75.40501429606832
 21
109.1884909012026
 31
0.0
  0
LINE
  5
14B
330
1F
100
AcDbEntity
  8
138
  6
Continuous
 62
     4
370
    15
100
AcDbLine
 10
76.90501429606843
 20
109.5904153425674
 30
0.0
 11
75.40501429606832
 21
109.9923387486553
 31
0.0
  0
LINE
  5
14C
330
1F
100
AcDbEntity
  8
138
  6
Continuous
 62
     4
370
    15
100
AcDbLine
 10
71.91921672163153
 20
109.5904153425674
 30
0.0
 11
76.9050135034779
 21
109.5904153425674
 31
0.0
  0
TEXT
  5
14D
330
1F
100
AcDbEntity
  8
135
  6
Continuous
 62
     7
370
    15
100
AcDbText
 10
73.1435681772092
 20
110.0925633425674
 30
0.0
 40
3.0
  1
5
100
AcDbText
  0
LINE
  5
14E
330
1F
100
AcDbEntity
  8
140
  6
Continuous
 62
     7
370
    15
100
AcDbLine
 10
55.53272250347788
 20
128.0355493425674
 30
0.0
 11
57.20617950347787
 21
129.7090073425674
 31
0.0
  0
LINE
  5
14F
330
1F
100
AcDbEntity
  8
140
  6
Continuous
 62
     7
370
    15
100
AcDbLine
 10
55.98297350347787
 20
127.7786943425673
 30
0.0
 11
57.68549350347791
 21
129.4812143425674
 31
0.0
  0
LINE
  5
150
330
1F
100
AcDbEntity
  8
141
  6
Continuous
 62
     5
370
    15
100
AcDbLine
 10
49.24672750347793
 20
133.4917173425673
 30
0.0
 11
58.63438150347793
 21
129.0302573425674
 31
0.0
  0
LINE
  5
151
330
1F
100
AcDbEntity
  8
141
  6
Continuous
 62
     5
370
    15
100
AcDbLine
 10
51.24605550347792
 20
130.4809633425673
 30
0.0
 11
58.25546650347792
 21
126.4823063425674
 31
0.0
  0
LINE
  5
152
330
1F
100
AcDbEntity
  8
140
  6
Continuous
 62
     7
370
    15
100
AcDbLine
 10
56.43322550347784
 20
127.5218393425674
 30
0.0
 11
58.16480750347785
 21
129.2534213425673
 31
0.0
  0
LINE
  5
153
330
1F
100
AcDbEntity
  8
140
  6
Continuous
 62
     7
370
    15
100
AcDbLine
 10
56.88347750347782
 20
127.2649843425673
 30
0.0
 11
58.6442095034779
 21
129.0257163425674
 31
0.0
  0
LINE
  5
154
330
1F
100
AcDbEntity
  8
140
  6
Continuous
 62
     7
370
    15
100
AcDbLine
 10
45.26147550347787
 20
130.4922253425673
 30
0.0
 11
49.25110350347791
 21
134.4818533425674
 31
0.0
  0
LINE
  5
155
330
1F
100
AcDbEntity
  8
140
  6
Continuous
 62
     7
370
    15
100
AcDbLine
 10
45.49597550347789
 20
131.4338323425674
 30
0.0
 11
48.54399650347784
 21
134.4818533425674
 31
0.0
  0
LINE
  5
156
330
1F
100
AcDbEntity
  8
140
  6
Continuous
 62
     7
370
    15
100
AcDbLine
 10
45.73047550347792
 20
132.3754383425673
 30
0.0
 11
47.83688950347789
 21
134.4818533425674
 31
0.0
  0
LINE
  5
157
330
1F
100
AcDbEntity
  8
140
  6
Continuous
 62
     7
370
    15
100
AcDbLine
 10
45.95820950347786
 20
130.4818533425674
 30
0.0
 11
49.25598950347785
 21
133.7796323425674
 31
0.0
  0
LINE
  5
158
330
1F
100
AcDbEntity
  8
140
  6
Continuous
 62
     7
370
    15
100
AcDbLine
 10
46.66531650347792
 20
130.4818533425674
 30
0.0
 11
49.53715550347783
 21
133.3536913425674
 31
0.0
  0
LINE
  5
159
330
1F
100
AcDbEntity
  8
141
  6
Continuous
 62
     5
370
    15
100
AcDbLine
 10
45.25569450347791
 20
130.4818533425674
 30
0.0
 11
51.24449650347788
 21
130.4818533425674
 31
0.0
  0
LINE
  5
15A
330
1F
100
AcDbEntity
  8
141
  6
Continuous
 62
     5
370
    15
100
AcDbLine
 10
45.2574995034779
 20
130.4762593425673
 30
0.0
 11
46.25567450347785
 21
134.4843143425674
 31
0.0
  0
LINE
  5
15B
330
1F
100
AcDbEntity
  8
138
  6
Continuous
 62
     4
370
    15
100
AcDbLine
 10
38.76021050347782
 20
134.4818533425674
 30
0.0
 11
38.76021050347782
 21
130.4818533425674
 31
0.0
  0
LINE
  5
15C
330
1F
100
AcDbEntity
  8
138
  6
Continuous
 62
     4
370
    15
100
AcDbLine
 10
38.26021050347782
 20
130.4818533425674
 30
0.0
 11
44.75749950347779
 21
130.4818533425674
 31
0.0
  0
LINE
  5
15D
330
1F
100
AcDbEntity
  8
138
  6
Continuous
 62
     4
370
    15
100
AcDbLine
 10
38.76021050347782
 20
130.4818533425674
 30
0.0
 11
39.14843850347785
 21
131.9307423425674
 31
0.0
  0
LINE
  5
15E
330
1F
100
AcDbEntity
  8
138
  6
Continuous
 62
     4
370
    15
100
AcDbLine
 10
38.76021050347782
 20
130.4818533425674
 30
0.0
 11
38.3719815034778
 21
131.9307423425674
 31
0.0
  0
LINE
  5
15F
330
1F
100
AcDbEntity
  8
138
  6
Continuous
 62
     4
370
    15
100
AcDbLine
 10
38.76021050347782
 20
130.4818533425674
 30
0.0
 11
39.14843850347785
 21
129.0329653425674
 31
0.0
  0
LINE
  5
160
330
1F
100
AcDbEntity
  8
138
  6
Continuous
 62
     4
370
    15
100
AcDbLine
 10
38.76021050347782
 20
130.4818533425674
 30
0.0
 11
38.3719815034778
 21
129.0329653425674
 31
0.0
  0
LINE
  5
161
330
1F
100
AcDbEntity
  8
141
  6
Continuous
 62
     5
370
    15
100
AcDbLine
 10
45.25598950347785
 20
130.4818533425674
 30
0.0
 11
45.25598950347785
 21
130.4916153425674
 31
0.0
  0
LINE
  5
162
330
1F
100
AcDbEntity
  8
138
  6
Continuous
 62
     4
370
    15
100
AcDbLine
 10
38.26021050347782
 20
134.4818533425673
 30
0.0
 11
44.75749950347779
 21
134.4818533425674
 31
0.0
  0
LINE
  5
163
330
1F
100
AcDbEntity
  8
138
  6
Continuous
 62
     4
370
    15
100
AcDbLine
 10
38.76021050347782
 20
134.4818533425674
 30
0.0
 11
39.14843850347785
 21
133.0329653425674
 31
0.0
  0
LINE
  5
164
330
1F
100
AcDbEntity
  8
138
  6
Continuous
 62
     4
370
    15
100
AcDbLine
 10
38.76021050347782
 20
134.4818533425674
 30
0.0
 11
38.3719815034778
 21
133.0329653425674
 31
0.0
  0
LINE
  5
165
330
1F
100
AcDbEntity
  8
140
  6
Continuous
 62
     7
370
    15
100
AcDbLine
 10
45.96497450347783
 20
133.3170453425674
 30
0.0
 11
47.12978250347783
 21
134.4818533425674
 31
0.0
  0
LINE
  5
166
330
1F
100
AcDbEntity
  8
140
  6
Continuous
 62
     7
370
    15
100
AcDbLine
 10
46.19947450347786
 20
134.2586513425674
 30
0.0
 11
46.42267550347788
 21
134.4818533425674
 31
0.0
  0
LINE
  5
167
330
1F
100
AcDbEntity
  8
140
  6
Continuous
 62
     7
370
    15
100
AcDbLine
 10
47.37242350347788
 20
130.4818533425674
 30
0.0
 11
50.01646950347788
 21
133.1258993425674
 31
0.0
  0
LINE
  5
168
330
1F
100
AcDbEntity
  8
140
  6
Continuous
 62
     7
370
    15
100
AcDbLine
 10
48.07953050347783
 20
130.4818533425674
 30
0.0
 11
50.49578350347792
 21
132.8981063425674
 31
0.0
  0
LINE
  5
169
330
1F
100
AcDbEntity
  8
140
  6
Continuous
 62
     7
370
    15
100
AcDbLine
 10
48.78663750347789
 20
130.4818533425674
 30
0.0
 11
50.97509750347785
 21
132.6703133425674
 31
0.0
  0
LINE
  5
16A
330
1F
100
AcDbEntity
  8
140
  6
Continuous
 62
     7
370
    15
100
AcDbLine
 10
49.49374350347784
 20
130.4818533425674
 30
0.0
 11
51.4544115034779
 21
132.4425203425673
 31
0.0
  0
LINE
  5
16B
330
1F
100
AcDbEntity
  8
140
  6
Continuous
 62
     7
370
    15
100
AcDbLine
 10
50.20085050347791
 20
130.4818533425674
 30
0.0
 11
51.93372550347783
 21
132.2147273425674
 31
0.0
  0
LINE
  5
16C
330
1F
100
AcDbEntity
  8
140
  6
Continuous
 62
     7
370
    15
100
AcDbLine
 10
50.90795750347786
 20
130.4818533425674
 30
0.0
 11
52.41303950347788
 21
131.9869353425674
 31
0.0
  0
LINE
  5
16D
330
1F
100
AcDbEntity
  8
140
  6
Continuous
 62
     7
370
    15
100
AcDbLine
 10
51.48045650347785
 20
130.3472453425674
 30
0.0
 11
52.89235350347792
 21
131.7591423425673
 31
0.0
  0
LINE
  5
16E
330
1F
100
AcDbEntity
  8
140
  6
Continuous
 62
     7
370
    15
100
AcDbLine
 10
51.93070750347783
 20
130.0903903425674
 30
0.0
 11
53.37166750347785
 21
131.5313493425674
 31
0.0
  0
LINE
  5
16F
330
1F
100
AcDbEntity
  8
140
  6
Continuous
 62
     7
370
    15
100
AcDbLine
 10
54.18196650347784
 20
128.8061143425674
 30
0.0
 11
55.76823750347785
 21
130.3923853425674
 31
0.0
  0
LINE
  5
170
330
1F
100
AcDbEntity
  8
140
  6
Continuous
 62
     7
370
    15
100
AcDbLine
 10
54.63221850347793
 20
128.5492593425674
 30
0.0
 11
56.24755150347789
 21
130.1645923425673
 31
0.0
  0
LINE
  5
171
330
1F
100
AcDbEntity
  8
140
  6
Continuous
 62
     7
370
    15
100
AcDbLine
 10
55.08247050347791
 20
128.2924043425674
 30
0.0
 11
56.72686550347782
 21
129.9368003425674
 31
0.0
  0
LINE
  5
172
330
1F
100
AcDbEntity
  8
140
  6
Continuous
 62
     7
370
    15
100
AcDbLine
 10
52.38095950347792
 20
129.8335353425674
 30
0.0
 11
53.8509815034779
 21
131.3035563425674
 31
0.0
  0
LINE
  5
173
330
1F
100
AcDbEntity
  8
140
  6
Continuous
 62
     7
370
    15
100
AcDbLine
 10
52.8312115034779
 20
129.5766803425674
 30
0.0
 11
54.33029550347783
 21
131.0757633425674
 31
0.0
  0
LINE
  5
174
330
1F
100
AcDbEntity
  8
140
  6
Continuous
 62
     7
370
    15
100
AcDbLine
 10
53.28146350347788
 20
129.3198253425674
 30
0.0
 11
54.80960950347787
 21
130.8479713425673
 31
0.0
  0
LINE
  5
175
330
1F
100
AcDbEntity
  8
140
  6
Continuous
 62
     7
370
    15
100
AcDbLine
 10
53.73171450347786
 20
129.0629703425674
 30
0.0
 11
55.28892350347792
 21
130.6201783425674
 31
0.0
  0
LINE
  5
176
330
1F
100
AcDbEntity
  8
141
  6
Continuous
 62
     5
370
    15
100
AcDbLine
 10
49.25598950347785
 20
133.4818533425674
 30
0.0
 11
49.25598950347785
 21
134.4818533425674
 31
0.0
  0
LINE
  5
177
330
1F
100
AcDbEntity
  8
140
  6
Continuous
 62
     7
370
    15
100
AcDbLine
 10
64.94964850347787
 20
126.1387683425673
 30
0.0
 11
67.3376525034779
 21
128.5267723425674
 31
0.0
  0
LINE
  5
178
330
1F
100
AcDbEntity
  8
140
  6
Continuous
 62
     7
370
    15
100
AcDbLine
 10
65.61922750347787
 20
126.1012403425674
 30
0.0
 11
67.99026150347788
 21
128.4722733425673
 31
0.0
  0
LINE
  5
179
330
1F
100
AcDbEntity
  8
140
  6
Continuous
 62
     7
370
    15
100
AcDbLine
 10
66.28880650347787
 20
126.0637123425674
 30
0.0
 11
68.65984050347788
 21
128.4347453425673
 31
0.0
  0
LINE
  5
17A
330
1F
100
AcDbEntity
  8
140
  6
Continuous
 62
     7
370
    15
100
AcDbLine
 10
66.95838550347787
 20
126.0261843425674
 30
0.0
 11
69.32941850347788
 21
128.3972173425673
 31
0.0
  0
LINE
  5
17B
330
1F
100
AcDbEntity
  8
140
  6
Continuous
 62
     7
370
    15
100
AcDbLine
 10
67.62796350347787
 20
125.9886563425674
 30
0.0
 11
69.99899750347788
 21
128.3596893425674
 31
0.0
  0
LINE
  5
17C
330
1F
100
AcDbEntity
  8
140
  6
Continuous
 62
     7
370
    15
100
AcDbLine
 10
68.29754250347787
 20
125.9511283425674
 30
0.0
 11
70.66857650347788
 21
128.3221613425674
 31
0.0
  0
LINE
  5
17D
330
1F
100
AcDbEntity
  8
140
  6
Continuous
 62
     7
370
    15
100
AcDbLine
 10
68.96712150347787
 20
125.9136003425673
 30
0.0
 11
71.33815550347788
 21
128.2846333425674
 31
0.0
  0
LINE
  5
17E
330
1F
100
AcDbEntity
  8
140
  6
Continuous
 62
     7
370
    15
100
AcDbLine
 10
69.63670050347787
 20
125.8760723425673
 30
0.0
 11
72.00773350347788
 21
128.2471053425674
 31
0.0
  0
LINE
  5
17F
330
1F
100
AcDbEntity
  8
140
  6
Continuous
 62
     7
370
    15
100
AcDbLine
 10
70.30627850347787
 20
125.8385443425673
 30
0.0
 11
72.67731250347788
 21
128.2095773425673
 31
0.0
  0
LINE
  5
180
330
1F
100
AcDbEntity
  8
141
  6
Continuous
 62
     5
370
    15
100
AcDbLine
 10
58.19393750347785
 20
126.5174063425674
 30
0.0
 11
70.99235550347782
 21
125.8000913425674
 31
0.0
  0
LINE
  5
181
330
1F
100
AcDbEntity
  8
140
  6
Continuous
 62
     7
370
    15
100
AcDbLine
 10
70.97585750347787
 20
125.8010163425674
 30
0.0
 11
73.34689150347788
 21
128.1720493425673
 31
0.0
  0
LINE
  5
182
330
1F
100
AcDbEntity
  8
140
  6
Continuous
 62
     7
370
    15
100
AcDbLine
 10
71.54337150347783
 20
125.6614233425673
 30
0.0
 11
74.01647050347788
 21
128.1345213425674
 31
0.0
  0
LINE
  5
183
330
1F
100
AcDbEntity
  8
140
  6
Continuous
 62
     7
370
    15
100
AcDbLine
 10
71.9605825034779
 20
125.3715273425674
 30
0.0
 11
74.68604850347788
 21
128.0969933425673
 31
0.0
  0
LINE
  5
184
330
1F
100
AcDbEntity
  8
140
  6
Continuous
 62
     7
370
    15
100
AcDbLine
 10
72.25646050347791
 20
124.9602983425673
 30
0.0
 11
75.08648950347788
 21
127.7903273425674
 31
0.0
  0
LINE
  5
185
330
1F
100
AcDbEntity
  8
140
  6
Continuous
 62
     7
370
    15
100
AcDbLine
 10
72.40511850347787
 20
124.4018493425673
 30
0.0
 11
75.44004250347791
 21
127.4367733425673
 31
0.0
  0
LINE
  5
186
330
1F
100
AcDbEntity
  8
140
  6
Continuous
 62
     7
370
    15
100
AcDbLine
 10
72.42884850347787
 20
123.7184723425673
 30
0.0
 11
75.79359550347783
 21
127.0832203425674
 31
0.0
  0
LINE
  5
187
330
1F
100
AcDbEntity
  8
140
  6
Continuous
 62
     7
370
    15
100
AcDbLine
 10
72.46653250347788
 20
123.0490503425673
 30
0.0
 11
76.14714950347786
 21
126.7296663425674
 31
0.0
  0
LINE
  5
188
330
1F
100
AcDbEntity
  8
140
  6
Continuous
 62
     7
370
    15
100
AcDbLine
 10
72.65995050347783
 20
122.5353613425674
 30
0.0
 11
76.5007025034779
 21
126.3761133425674
 31
0.0
  0
ARC
  5
189
330
1F
100
AcDbEntity
  8
141
  6
Continuous
 62
     5
370
    15
100
AcDbCircle
 10
70.90841650347784
 20
124.3024413425674
 30
0.0
 40
1.5
100
AcDbArc
 50
1.921223999998753
 51
86.79208800000417
  0
LINE
  5
18A
330
1F
100
AcDbEntity
  8
141
  6
Continuous
 62
     5
370
    15
100
AcDbLine
 10
73.75782350347788
 20
121.8233633425673
 30
0.0
 11
75.23544050347789
 21
121.6392093425674
 31
0.0
  0
LINE
  5
18B
330
1F
100
AcDbEntity
  8
141
  6
Continuous
 62
     5
370
    15
100
AcDbLine
 10
72.40757250347781
 20
124.3527293425674
 30
0.0
 11
72.44417550347782
 21
123.2615603425673
 31
0.0
  0
ARC
  5
18C
330
1F
100
AcDbEntity
  8
141
  6
Continuous
 62
     5
370
    15
100
AcDbCircle
 10
73.9433325034779
 20
123.3118483425673
 30
0.0
 40
1.5
100
AcDbArc
 50
181.9212239999984
 51
262.8959100000038
  0
ARC
  5
18D
330
1F
100
AcDbEntity
  8
141
  6
Continuous
 62
     5
370
    15
100
AcDbCircle
 10
67.58064150347786
 20
129.4968013425674
 30
0.0
 40
1.0
100
AcDbArc
 50
192.901822000003
 51
266.7920880000038
  0
LINE
  5
18E
330
1F
100
AcDbEntity
  8
140
  6
Continuous
 62
     7
370
    15
100
AcDbLine
 10
64.28006950347788
 20
126.1762963425674
 30
0.0
 11
66.88357150347792
 21
128.7797973425673
 31
0.0
  0
LINE
  5
18F
330
1F
100
AcDbEntity
  8
140
  6
Continuous
 62
     7
370
    15
100
AcDbLine
 10
64.34856350347786
 20
131.1945373425673
 30
0.0
 11
65.78482750347791
 21
132.6308013425673
 31
0.0
  0
LINE
  5
190
330
1F
100
AcDbEntity
  8
141
  6
Continuous
 62
     5
370
    15
100
AcDbLine
 10
64.63206050347787
 20
132.4031303425674
 30
0.0
 11
64.11338194896734
 21
130.1919163722882
 31
0.0
  0
LINE
  5
191
330
1F
100
AcDbEntity
  8
141
  6
Continuous
 62
     5
370
    15
100
AcDbLine
 10
65.88677050347792
 20
132.4128883425674
 30
0.0
 11
66.6058875034779
 21
129.2735203425673
 31
0.0
  0
LINE
  5
192
330
1F
100
AcDbEntity
  8
140
  6
Continuous
 62
     7
370
    15
100
AcDbLine
 10
64.1318695034779
 20
130.2707363425674
 30
0.0
 11
65.95894450347782
 21
132.0978103425674
 31
0.0
  0
LINE
  5
193
330
1F
100
AcDbEntity
  8
141
  6
Continuous
 62
     5
370
    15
100
AcDbLine
 10
58.76525750347787
 20
128.9893093425674
 30
0.0
 11
62.9276635034779
 21
128.7560183425674
 31
0.0
  0
LINE
  5
194
330
1F
100
AcDbEntity
  8
140
  6
Continuous
 62
     7
370
    15
100
AcDbLine
 10
59.59301850347788
 20
126.4389923425674
 30
0.0
 11
61.96405250347789
 21
128.8100253425674
 31
0.0
  0
LINE
  5
195
330
1F
100
AcDbEntity
  8
140
  6
Continuous
 62
     7
370
    15
100
AcDbLine
 10
60.26259750347788
 20
126.4014643425674
 30
0.0
 11
62.63363150347789
 21
128.7724973425674
 31
0.0
  0
LINE
  5
196
330
1F
100
AcDbEntity
  8
140
  6
Continuous
 62
     7
370
    15
100
AcDbLine
 10
60.93217650347788
 20
126.3639363425673
 30
0.0
 11
63.4257275034779
 21
128.8574873425674
 31
0.0
  0
LINE
  5
197
330
1F
100
AcDbEntity
  8
140
  6
Continuous
 62
     7
370
    15
100
AcDbLine
 10
61.60175450347788
 20
126.3264083425674
 30
0.0
 11
66.2225145034779
 21
130.9471683425674
 31
0.0
  0
ARC
  5
198
330
1F
100
AcDbEntity
  8
141
  6
Continuous
 62
     5
370
    15
100
AcDbCircle
 10
58.84900150347789
 20
129.4818533425674
 30
0.0
 40
0.5
100
AcDbArc
 50
244.5807119999968
 51
269.9999999999998
  0
LINE
  5
199
330
1F
100
AcDbEntity
  8
140
  6
Continuous
 62
     7
370
    15
100
AcDbLine
 10
58.25386150347788
 20
126.5140483425673
 30
0.0
 11
60.62489450347789
 21
128.8850823425674
 31
0.0
  0
LINE
  5
19A
330
1F
100
AcDbEntity
  8
140
  6
Continuous
 62
     7
370
    15
100
AcDbLine
 10
58.92343950347788
 20
126.4765203425674
 30
0.0
 11
61.29447350347789
 21
128.8475533425674
 31
0.0
  0
LINE
  5
19B
330
1F
100
AcDbEntity
  8
140
  6
Continuous
 62
     7
370
    15
100
AcDbLine
 10
57.33372950347791
 20
127.0081293425674
 30
0.0
 11
59.28573750347789
 21
128.9601383425673
 31
0.0
  0
LINE
  5
19C
330
1F
100
AcDbEntity
  8
140
  6
Continuous
 62
     7
370
    15
100
AcDbLine
 10
57.78398050347789
 20
126.7512743425673
 30
0.0
 11
59.95531650347789
 21
128.9226103425674
 31
0.0
  0
ARC
  5
19D
330
1F
100
AcDbEntity
  8
141
  6
Continuous
 62
     5
370
    15
100
AcDbCircle
 10
62.98362350347782
 20
129.7544513425673
 30
0.0
 40
1.0
100
AcDbArc
 50
266.7920880000038
 51
346.798912999999
  0
LINE
  5
19E
330
1F
100
AcDbEntity
  8
140
  6
Continuous
 62
     7
370
    15
100
AcDbLine
 10
62.27133350347788
 20
126.2888803425674
 30
0.0
 11
66.35430050347782
 21
130.3718463425674
 31
0.0
  0
LINE
  5
19F
330
1F
100
AcDbEntity
  8
140
  6
Continuous
 62
     7
370
    15
100
AcDbLine
 10
62.94091250347788
 20
126.2513523425674
 30
0.0
 11
66.48608550347785
 21
129.7965253425673
 31
0.0
  0
LINE
  5
1A0
330
1F
100
AcDbEntity
  8
140
  6
Continuous
 62
     7
370
    15
100
AcDbLine
 10
63.61049150347787
 20
126.2138243425674
 30
0.0
 11
66.6190355034779
 21
129.2223683425673
 31
0.0
  0
LINE
  5
1A1
330
1F
100
AcDbEntity
  8
140
  6
Continuous
 62
     7
370
    15
100
AcDbLine
 10
63.88058650347784
 20
129.3123463425674
 30
0.0
 11
66.09072950347786
 21
131.5224893425674
 31
0.0
  0
ARC
  5
1A2
330
1F
100
AcDbEntity
  8
141
  6
Continuous
 62
     5
370
    15
100
AcDbCircle
 10
65.14973650347781
 20
132.2318533425674
 30
0.0
 40
0.75
100
AcDbArc
 50
19.82087199999992
 51
81.85549899999707
  0
LINE
  5
1A3
330
1F
100
AcDbEntity
  8
141
  6
Continuous
 62
     5
370
    15
100
AcDbLine
 10
65.88786250347789
 20
132.4047693425674
 30
0.0
 11
65.85373450347788
 21
132.4900883425674
 31
0.0
  0
ARC
  5
1A4
330
1F
100
AcDbEntity
  8
141
  6
Continuous
 62
     5
370
    15
100
AcDbCircle
 10
65.36224150347789
 20
132.2318533425674
 30
0.0
 40
0.75
100
AcDbArc
 50
98.14450100000292
 51
166.7989129999999
  0
LINE
  5
1A5
330
1F
100
AcDbEntity
  8
140
  6
Continuous
 62
     7
370
    15
100
AcDbLine
 10
64.56525750347782
 20
132.1183383425674
 30
0.0
 11
65.3894365034779
 21
132.9425173425673
 31
0.0
  0
LINE
  5
1A6
330
1F
100
AcDbEntity
  8
141
  6
Continuous
 62
     5
370
    15
100
AcDbLine
 10
67.52468250347783
 20
128.4983683425673
 30
0.0
 11
74.86726850347782
 21
128.0868363425674
 31
0.0
  0
LINE
  5
1A7
330
1F
100
AcDbEntity
  8
140
  6
Continuous
 62
     7
370
    15
100
AcDbLine
 10
76.76019450347792
 20
113.9076823425673
 30
0.0
 11
79.18041550347789
 21
116.3279043425674
 31
0.0
  0
LINE
  5
1A8
330
1F
100
AcDbEntity
  8
140
  6
Continuous
 62
     7
370
    15
100
AcDbLine
 10
76.78314350347785
 20
113.2235253425674
 30
0.0
 11
79.20336550347781
 21
115.6437473425673
 31
0.0
  0
LINE
  5
1A9
330
1F
100
AcDbEntity
  8
140
  6
Continuous
 62
     7
370
    15
100
AcDbLine
 10
76.80609350347788
 20
112.5393683425673
 30
0.0
 11
79.22631450347785
 21
114.9595893425674
 31
0.0
  0
LINE
  5
1AA
330
1F
100
AcDbEntity
  8
140
  6
Continuous
 62
     7
370
    15
100
AcDbLine
 10
77.17328550347781
 20
101.5928523425674
 30
0.0
 11
79.5935075034779
 21
104.0130743425673
 31
0.0
  0
LINE
  5
1AB
330
1F
100
AcDbEntity
  8
140
  6
Continuous
 62
     7
370
    15
100
AcDbLine
 10
77.19623550347785
 20
100.9086953425673
 30
0.0
 11
79.61645750347782
 21
103.3289173425674
 31
0.0
  0
LINE
  5
1AC
330
1F
100
AcDbEntity
  8
140
  6
Continuous
 62
     7
370
    15
100
AcDbLine
 10
77.15033650347789
 20
102.2770093425674
 30
0.0
 11
79.57055750347786
 21
104.6972313425674
 31
0.0
  0
LINE
  5
1AD
330
1F
100
AcDbEntity
  8
140
  6
Continuous
 62
     7
370
    15
100
AcDbLine
 10
77.35688250347789
 20
96.11959434256738
 30
0.0
 11
79.77710350347786
 21
98.53981634256735
 31
0.0
  0
LINE
  5
1AE
330
1F
100
AcDbEntity
  8
140
  6
Continuous
 62
     7
370
    15
100
AcDbLine
 10
77.37983150347782
 20
95.43543734256735
 30
0.0
 11
79.8000535034779
 21
97.85565934256738
 31
0.0
  0
LINE
  5
1AF
330
1F
100
AcDbEntity
  8
140
  6
Continuous
 62
     7
370
    15
100
AcDbLine
 10
77.40278150347785
 20
94.75128034256733
 30
0.0
 11
79.82300350347782
 21
97.17150234256735
 31
0.0
  0
LINE
  5
1B0
330
1F
100
AcDbEntity
  8
140
  6
Continuous
 62
     7
370
    15
100
AcDbLine
 10
77.42573150347789
 20
94.06712334256736
 30
0.0
 11
79.84595250347786
 21
96.48734434256738
 31
0.0
  0
LINE
  5
1B1
330
1F
100
AcDbEntity
  8
140
  6
Continuous
 62
     7
370
    15
100
AcDbLine
 10
77.44868050347782
 20
93.38296534256739
 30
0.0
 11
79.8689025034779
 21
95.80318734256736
 31
0.0
  0
LINE
  5
1B2
330
1F
100
AcDbEntity
  8
140
  6
Continuous
 62
     7
370
    15
100
AcDbLine
 10
77.47163050347785
 20
92.69880834256736
 30
0.0
 11
79.89185150347782
 21
95.11903034256733
 31
0.0
  0
LINE
  5
1B3
330
1F
100
AcDbEntity
  8
140
  6
Continuous
 62
     7
370
    15
100
AcDbLine
 10
77.4945795034779
 20
92.01465134256733
 30
0.0
 11
79.91480150347786
 21
94.43487334256736
 31
0.0
  0
LINE
  5
1B4
330
1F
100
AcDbEntity
  8
140
  6
Continuous
 62
     7
370
    15
100
AcDbLine
 10
77.51752950347782
 20
91.33049434256736
 30
0.0
 11
79.9377505034779
 21
93.75071534256739
 31
0.0
  0
LINE
  5
1B5
330
1F
100
AcDbEntity
  8
140
  6
Continuous
 62
     7
370
    15
100
AcDbLine
 10
77.24213450347781
 20
99.54038134256734
 30
0.0
 11
79.6623565034779
 21
101.9606023425674
 31
0.0
  0
LINE
  5
1B6
330
1F
100
AcDbEntity
  8
140
  6
Continuous
 62
     7
370
    15
100
AcDbLine
 10
77.26508450347785
 20
98.85622334256738
 30
0.0
 11
79.68530550347782
 21
101.2764453425673
 31
0.0
  0
LINE
  5
1B7
330
1F
100
AcDbEntity
  8
140
  6
Continuous
 62
     7
370
    15
100
AcDbLine
 10
77.28803350347789
 20
98.17206634256735
 30
0.0
 11
79.70825550347786
 21
100.5922883425674
 31
0.0
  0
LINE
  5
1B8
330
1F
100
AcDbEntity
  8
140
  6
Continuous
 62
     7
370
    15
100
AcDbLine
 10
77.31098350347793
 20
97.48790934256738
 30
0.0
 11
79.7312045034779
 21
99.90813034256735
 31
0.0
  0
LINE
  5
1B9
330
1F
100
AcDbEntity
  8
140
  6
Continuous
 62
     7
370
    15
100
AcDbLine
 10
77.33393250347785
 20
96.80375234256735
 30
0.0
 11
79.75415450347782
 21
99.22397334256738
 31
0.0
  0
LINE
  5
1BA
330
1F
100
AcDbEntity
  8
140
  6
Continuous
 62
     7
370
    15
100
AcDbLine
 10
77.21918550347789
 20
100.2245383425674
 30
0.0
 11
79.63940650347786
 21
102.6447593425673
 31
0.0
  0
LINE
  5
1BB
330
1F
100
AcDbEntity
  8
140
  6
Continuous
 62
     7
370
    15
100
AcDbLine
 10
76.94379050347789
 20
108.4344253425674
 30
0.0
 11
79.36401250347785
 21
110.8546463425674
 31
0.0
  0
LINE
  5
1BC
330
1F
100
AcDbEntity
  8
140
  6
Continuous
 62
     7
370
    15
100
AcDbLine
 10
76.96674050347792
 20
107.7502673425674
 30
0.0
 11
79.38696150347789
 21
110.1704893425674
 31
0.0
  0
LINE
  5
1BD
330
1F
100
AcDbEntity
  8
140
  6
Continuous
 62
     7
370
    15
100
AcDbLine
 10
76.98968950347785
 20
107.0661103425674
 30
0.0
 11
79.40991150347782
 21
109.4863323425674
 31
0.0
  0
LINE
  5
1BE
330
1F
100
AcDbEntity
  8
140
  6
Continuous
 62
     7
370
    15
100
AcDbLine
 10
77.01263950347789
 20
106.3819533425673
 30
0.0
 11
79.43286050347785
 21
108.8021743425674
 31
0.0
  0
LINE
  5
1BF
330
1F
100
AcDbEntity
  8
140
  6
Continuous
 62
     7
370
    15
100
AcDbLine
 10
77.03558850347781
 20
105.6977963425674
 30
0.0
 11
79.45581050347789
 21
108.1180173425674
 31
0.0
  0
LINE
  5
1C0
330
1F
100
AcDbEntity
  8
140
  6
Continuous
 62
     7
370
    15
100
AcDbLine
 10
77.05853850347785
 20
105.0136383425673
 30
0.0
 11
79.47875950347782
 21
107.4338603425674
 31
0.0
  0
LINE
  5
1C1
330
1F
100
AcDbEntity
  8
140
  6
Continuous
 62
     7
370
    15
100
AcDbLine
 10
77.08148750347789
 20
104.3294813425674
 30
0.0
 11
79.50170950347785
 21
106.7497033425673
 31
0.0
  0
LINE
  5
1C2
330
1F
100
AcDbEntity
  8
140
  6
Continuous
 62
     7
370
    15
100
AcDbLine
 10
77.10443750347781
 20
103.6453243425673
 30
0.0
 11
79.5246585034779
 21
106.0655453425674
 31
0.0
  0
LINE
  5
1C3
330
1F
100
AcDbEntity
  8
140
  6
Continuous
 62
     7
370
    15
100
AcDbLine
 10
77.12738650347785
 20
102.9611673425674
 30
0.0
 11
79.54760850347782
 21
105.3813883425673
 31
0.0
  0
LINE
  5
1C4
330
1F
100
AcDbEntity
  8
138
  6
Continuous
 62
     4
370
    15
100
AcDbLine
 10
79.40641950347788
 20
109.5904153425674
 30
0.0
 11
82.42665125367193
 21
109.5904153425674
 31
0.0
  0
LINE
  5
1C5
330
1F
100
AcDbEntity
  8
138
  6
Continuous
 62
     4
370
    15
100
AcDbLine
 10
76.9050135034779
 20
109.5904153425674
 30
0.0
 11
79.40641950347788
 21
109.5904153425674
 31
0.0
  0
LINE
  5
1C6
330
1F
100
AcDbEntity
  8
140
  6
Continuous
 62
     7
370
    15
100
AcDbLine
 10
76.82904250347792
 20
111.8552113425674
 30
0.0
 11
79.24926450347789
 21
114.2754323425673
 31
0.0
  0
LINE
  5
1C7
330
1F
100
AcDbEntity
  8
140
  6
Continuous
 62
     7
370
    15
100
AcDbLine
 10
76.85199250347785
 20
111.1710533425673
 30
0.0
 11
79.27221350347781
 21
113.5912753425674
 31
0.0
  0
LINE
  5
1C8
330
1F
100
AcDbEntity
  8
140
  6
Continuous
 62
     7
370
    15
100
AcDbLine
 10
76.87494150347788
 20
110.4868963425674
 30
0.0
 11
79.29516350347785
 21
112.9071183425673
 31
0.0
  0
LINE
  5
1C9
330
1F
100
AcDbEntity
  8
140
  6
Continuous
 62
     7
370
    15
100
AcDbLine
 10
76.89789150347792
 20
109.8027393425673
 30
0.0
 11
79.31811250347789
 21
112.2229613425673
 31
0.0
  0
LINE
  5
1CA
330
1F
100
AcDbEntity
  8
140
  6
Continuous
 62
     7
370
    15
100
AcDbLine
 10
76.92084050347785
 20
109.1185823425674
 30
0.0
 11
79.34106250347781
 21
111.5388033425673
 31
0.0
  0
LINE
  5
1CB
330
1F
100
AcDbEntity
  8
138
  6
Continuous
 62
     4
370
    15
100
AcDbLine
 10
79.40641950347788
 20
109.5904153425674
 30
0.0
 11
80.90641950347799
 21
109.9923387486553
 31
0.0
  0
LINE
  5
1CC
330
1F
100
AcDbEntity
  8
138
  6
Continuous
 62
     4
370
    15
100
AcDbLine
 10
79.40641950347788
 20
109.5904153425674
 30
0.0
 11
80.90641950347799
 21
109.1884909012026
 31
0.0
  0
TEXT
  5
1CD
330
1F
100
AcDbEntity
  8
135
  6
Continuous
 62
     7
370
    15
100
AcDbText
 10
92.72173250347782
 20
105.3124742732234
 30
0.0
 40
3.0
  1
88
 50
89.99999999999991
100
AcDbText
  0
LINE
  5
1CE
330
1F
100
AcDbEntity
  8
138
  6
Continuous
 62
     4
370
    15
100
AcDbLine
 10
96.75598950347785
 20
94.98185334256738
 30
0.0
 11
98.25598950347796
 21
95.3837767486553
 31
0.0
  0
LINE
  5
1CF
330
1F
100
AcDbEntity
  8
138
  6
Continuous
 62
     4
370
    15
100
AcDbLine
 10
96.75598950347785
 20
94.98185334256738
 30
0.0
 11
98.25598950347796
 21
94.57992890120266
 31
0.0
  0
TEXT
  5
1D0
330
1F
100
AcDbEntity
  8
135
  6
Continuous
 62
     7
370
    15
100
AcDbText
 10
108.2551114904965
 20
95.48400134256741
 30
0.0
 40
3.0
  1
54
100
AcDbText
  0
LINE
  5
1D1
330
1F
100
AcDbEntity
  8
141
  6
Continuous
 62
     5
370
    15
100
AcDbLine
 10
80.30710850347782
 20
128.9818533425674
 30
0.0
 11
110.2559895034778
 21
128.9818533425674
 31
0.0
  0
LINE
  5
1D2
330
1F
100
AcDbEntity
  8
141
  6
Continuous
 62
     5
370
    15
100
AcDbLine
 10
79.75598950347785
 20
131.4818533425674
 30
0.0
 11
110.2559895034778
 21
131.4818533425674
 31
0.0
  0
LINE
  5
1D3
330
1F
100
AcDbEntity
  8
141
  6
Continuous
 62
     5
370
    15
100
AcDbLine
 10
79.75598950347785
 20
134.4818533425674
 30
0.0
 11
110.2559895034778
 21
134.4818533425674
 31
0.0
  0
LINE
  5
1D4
330
1F
100
AcDbEntity
  8
141
  6
Continuous
 62
     5
370
    15
100
AcDbLine
 10
79.75598950347785
 20
131.4818533425674
 30
0.0
 11
110.2559895034778
 21
131.4818533425674
 31
0.0
  0
LINE
  5
1D5
330
1F
100
AcDbEntity
  8
141
  6
Continuous
 62
     5
370
    15
100
AcDbLine
 10
80.30710850347782
 20
128.9818533425674
 30
0.0
 11
110.2559895034778
 21
128.9818533425674
 31
0.0
  0
LINE
  5
1D6
330
1F
100
AcDbEntity
  8
141
  6
Continuous
 62
     5
370
    15
100
AcDbLine
 10
78.20547750347782
 20
136.9818533425673
 30
0.0
 11
110.2559895034778
 21
136.9818533425673
 31
0.0
  0
LINE
  5
1D7
330
1F
100
AcDbEntity
  8
140
  6
Continuous
 62
     7
370
    15
100
AcDbLine
 10
76.64544650347784
 20
117.3284693425674
 30
0.0
 11
79.06566750347793
 21
119.7486903425674
 31
0.0
  0
LINE
  5
1D8
330
1F
100
AcDbEntity
  8
140
  6
Continuous
 62
     7
370
    15
100
AcDbLine
 10
76.73724450347788
 20
114.5918403425674
 30
0.0
 11
79.15746650347785
 21
117.0120613425674
 31
0.0
  0
LINE
  5
1D9
330
1F
100
AcDbEntity
  8
140
  6
Continuous
 62
     7
370
    15
100
AcDbLine
 10
76.66839550347788
 20
116.6443113425674
 30
0.0
 11
79.08861750347785
 21
119.0645333425674
 31
0.0
  0
LINE
  5
1DA
330
1F
100
AcDbEntity
  8
140
  6
Continuous
 62
     7
370
    15
100
AcDbLine
 10
76.69134550347792
 20
115.9601543425674
 30
0.0
 11
79.11156650347789
 21
118.3803763425674
 31
0.0
  0
LINE
  5
1DB
330
1F
100
AcDbEntity
  8
140
  6
Continuous
 62
     7
370
    15
100
AcDbLine
 10
76.71429450347784
 20
115.2759973425673
 30
0.0
 11
79.13451650347793
 21
117.6962183425674
 31
0.0
  0
LINE
  5
1DC
330
1F
100
AcDbEntity
  8
140
  6
Continuous
 62
     7
370
    15
100
AcDbLine
 10
85.94358350347784
 20
132.6131943425673
 30
0.0
 11
86.54914350347792
 21
133.2187543425674
 31
0.0
  0
LINE
  5
1DD
330
1F
100
AcDbEntity
  8
140
  6
Continuous
 62
     7
370
    15
100
AcDbLine
 10
86.38577450347782
 20
132.7018323425673
 30
0.0
 11
86.84366050347785
 21
133.1597183425673
 31
0.0
  0
LINE
  5
1DE
330
1F
100
AcDbEntity
  8
140
  6
Continuous
 62
     7
370
    15
100
AcDbLine
 10
86.54244650347789
 20
132.7332373425673
 30
0.0
 11
85.93352850347787
 21
133.3421553425674
 31
0.0
  0
LINE
  5
1DF
330
1F
100
AcDbEntity
  8
140
  6
Continuous
 62
     7
370
    15
100
AcDbLine
 10
86.83696350347782
 20
132.7922733425673
 30
0.0
 11
86.37571950347785
 21
133.2535173425674
 31
0.0
  0
LINE
  5
1E0
330
1F
100
AcDbEntity
  8
136
  6
Continuous
 62
     7
370
    15
100
AcDbLine
 10
83.1577185034779
 20
133.8985673425673
 30
0.0
 11
87.75686150347781
 21
132.9766673425673
 31
0.0
  0
LINE
  5
1E1
330
1F
100
AcDbEntity
  8
136
  6
Continuous
 62
     7
370
    15
100
AcDbLine
 10
87.75686150347781
 20
132.9766673425673
 30
0.0
 11
83.1577185034779
 21
132.0547663425673
 31
0.0
  0
ARC
  5
1E2
330
1F
100
AcDbEntity
  8
136
  6
Continuous
 62
     7
370
    15
100
AcDbCircle
 10
80.75598950347785
 20
132.0818533425673
 30
0.0
 40
0.5
100
AcDbArc
 50
179.9999999999998
 51
269.9999999999998
  0
ARC
  5
1E3
330
1F
100
AcDbEntity
  8
136
  6
Continuous
 62
     7
370
    15
100
AcDbCircle
 10
83.25598950347785
 20
131.5645193425673
 30
0.0
 40
0.5
100
AcDbArc
 50
101.3347469999987
 51
178.0132718153291
  0
LINE
  5
1E4
330
1F
100
AcDbEntity
  8
140
  6
Continuous
 62
     7
370
    15
100
AcDbLine
 10
80.2875815034779
 20
131.9069403425674
 30
0.0
 11
82.75616550347786
 21
134.3755243425674
 31
0.0
  0
LINE
  5
1E5
330
1F
100
AcDbEntity
  8
140
  6
Continuous
 62
     7
370
    15
100
AcDbLine
 10
80.4337425034779
 20
131.6995483425674
 30
0.0
 11
82.84225450347788
 21
134.1080593425673
 31
0.0
  0
LINE
  5
1E6
330
1F
100
AcDbEntity
  8
140
  6
Continuous
 62
     7
370
    15
100
AcDbLine
 10
80.67603550347792
 20
131.5882873425674
 30
0.0
 11
83.03036450347781
 21
133.9426163425674
 31
0.0
  0
LINE
  5
1E7
330
1F
100
AcDbEntity
  8
140
  6
Continuous
 62
     7
370
    15
100
AcDbLine
 10
81.02315450347783
 20
131.5818533425673
 30
0.0
 11
83.30945350347781
 21
133.8681523425674
 31
0.0
  0
LINE
  5
1E8
330
1F
100
AcDbEntity
  8
140
  6
Continuous
 62
     7
370
    15
100
AcDbLine
 10
81.37670750347786
 20
131.5818533425673
 30
0.0
 11
83.60397050347785
 21
133.8091163425674
 31
0.0
  0
LINE
  5
1E9
330
1F
100
AcDbEntity
  8
140
  6
Continuous
 62
     7
370
    15
100
AcDbLine
 10
81.73026150347789
 20
131.5818533425673
 30
0.0
 11
83.89848850347789
 21
133.7500793425673
 31
0.0
  0
LINE
  5
1EA
330
1F
100
AcDbEntity
  8
140
  6
Continuous
 62
     7
370
    15
100
AcDbLine
 10
82.08381450347781
 20
131.5818533425673
 30
0.0
 11
84.19300550347782
 21
133.6910433425674
 31
0.0
  0
LINE
  5
1EB
330
1F
100
AcDbEntity
  8
140
  6
Continuous
 62
     7
370
    15
100
AcDbLine
 10
82.43736850347784
 20
131.5818533425673
 30
0.0
 11
84.48752250347786
 21
133.6320073425674
 31
0.0
  0
LINE
  5
1EC
330
1F
100
AcDbEntity
  8
140
  6
Continuous
 62
     7
370
    15
100
AcDbLine
 10
82.03697650347783
 20
131.5818533425673
 30
0.0
 11
80.25598950347785
 21
133.3628403425674
 31
0.0
  0
LINE
  5
1ED
330
1F
100
AcDbEntity
  8
140
  6
Continuous
 62
     7
370
    15
100
AcDbLine
 10
81.68342250347791
 20
131.5818533425673
 30
0.0
 11
80.25598950347785
 21
133.0092863425673
 31
0.0
  0
LINE
  5
1EE
330
1F
100
AcDbEntity
  8
140
  6
Continuous
 62
     7
370
    15
100
AcDbLine
 10
81.32986950347788
 20
131.5818533425673
 30
0.0
 11
80.25598950347785
 21
132.6557333425674
 31
0.0
  0
LINE
  5
1EF
330
1F
100
AcDbEntity
  8
140
  6
Continuous
 62
     7
370
    15
100
AcDbLine
 10
80.97631650347785
 20
131.5818533425673
 30
0.0
 11
80.25598950347785
 21
132.3021793425673
 31
0.0
  0
LINE
  5
1F0
330
1F
100
AcDbEntity
  8
140
  6
Continuous
 62
     7
370
    15
100
AcDbLine
 10
82.39052950347786
 20
131.5818533425673
 30
0.0
 11
80.25598950347785
 21
133.7163933425674
 31
0.0
  0
LINE
  5
1F1
330
1F
100
AcDbEntity
  8
140
  6
Continuous
 62
     7
370
    15
100
AcDbLine
 10
82.7440835034779
 20
131.5818533425673
 30
0.0
 11
80.28273750347785
 21
134.0431983425673
 31
0.0
  0
LINE
  5
1F2
330
1F
100
AcDbEntity
  8
140
  6
Continuous
 62
     7
370
    15
100
AcDbLine
 10
82.83902850347783
 20
131.8404603425674
 30
0.0
 11
80.42387350347781
 21
134.2556163425674
 31
0.0
  0
LINE
  5
1F3
330
1F
100
AcDbEntity
  8
140
  6
Continuous
 62
     7
370
    15
100
AcDbLine
 10
83.02505150347781
 20
132.0079913425674
 30
0.0
 11
80.66041050347792
 21
134.3726323425674
 31
0.0
  0
LINE
  5
1F4
330
1F
100
AcDbEntity
  8
141
  6
Continuous
 62
     5
370
    15
100
AcDbLine
 10
79.75598950347785
 20
131.4818533425674
 30
0.0
 11
79.75598950347785
 21
134.4818533425674
 31
0.0
  0
LINE
  5
1F5
330
1F
100
AcDbEntity
  8
140
  6
Continuous
 62
     7
370
    15
100
AcDbLine
 10
77.10957650347791
 20
131.1464353425674
 30
0.0
 11
79.75598950347785
 21
133.7928483425674
 31
0.0
  0
LINE
  5
1F6
330
1F
100
AcDbEntity
  8
140
  6
Continuous
 62
     7
370
    15
100
AcDbLine
 10
77.19796450347792
 20
131.9419303425674
 30
0.0
 11
82.23788650347785
 21
136.9818533425673
 31
0.0
  0
LINE
  5
1F7
330
1F
100
AcDbEntity
  8
141
  6
Continuous
 62
     5
370
    15
100
AcDbLine
 10
77.70853550347783
 20
136.5370683425674
 30
0.0
 11
76.96695450347784
 21
129.8628393425674
 31
0.0
  0
LINE
  5
1F8
330
1F
100
AcDbEntity
  8
140
  6
Continuous
 62
     7
370
    15
100
AcDbLine
 10
76.89841350347785
 20
129.5210593425674
 30
0.0
 11
79.75598950347785
 21
132.3786343425674
 31
0.0
  0
LINE
  5
1F9
330
1F
100
AcDbEntity
  8
140
  6
Continuous
 62
     7
370
    15
100
AcDbLine
 10
77.0211875034779
 20
130.3509403425674
 30
0.0
 11
79.75598950347785
 21
133.0857413425674
 31
0.0
  0
LINE
  5
1FA
330
1F
100
AcDbEntity
  8
136
  6
Continuous
 62
     7
370
    15
100
AcDbLine
 10
80.75598950347785
 20
131.5818533425673
 30
0.0
 11
82.75629006136887
 21
131.5818533425673
 31
0.0
  0
LINE
  5
1FB
330
1F
100
AcDbEntity
  8
140
  6
Continuous
 62
     7
370
    15
100
AcDbLine
 10
81.30895450347782
 20
128.9818533425674
 30
0.0
 11
82.75598950347785
 21
130.4288873425674
 31
0.0
  0
LINE
  5
1FC
330
1F
100
AcDbEntity
  8
140
  6
Continuous
 62
     7
370
    15
100
AcDbLine
 10
78.30906550347788
 20
128.1032843425673
 30
0.0
 11
81.68763450347785
 21
131.4818533425674
 31
0.0
  0
LINE
  5
1FD
330
1F
100
AcDbEntity
  8
140
  6
Continuous
 62
     7
370
    15
100
AcDbLine
 10
79.8099595034779
 20
128.8970713425674
 30
0.0
 11
82.39474150347792
 21
131.4818533425674
 31
0.0
  0
LINE
  5
1FE
330
1F
100
AcDbEntity
  8
140
  6
Continuous
 62
     7
370
    15
100
AcDbLine
 10
80.60184750347787
 20
128.9818533425674
 30
0.0
 11
82.75598950347785
 21
131.1359943425674
 31
0.0
  0
LINE
  5
1FF
330
1F
100
AcDbEntity
  8
140
  6
Continuous
 62
     7
370
    15
100
AcDbLine
 10
80.59671650347786
 20
131.6078993425674
 30
0.0
 11
80.28203550347791
 21
131.9225803425674
 31
0.0
  0
LINE
  5
200
330
1F
100
AcDbEntity
  8
141
  6
Continuous
 62
     5
370
    15
100
AcDbLine
 10
78.80195250347788
 20
127.6103973425674
 30
0.0
 11
76.92520950347784
 21
129.4871403425674
 31
0.0
  0
LINE
  5
201
330
1F
100
AcDbEntity
  8
140
  6
Continuous
 62
     7
370
    15
100
AcDbLine
 10
78.66261950347791
 20
127.7497313425674
 30
0.0
 11
78.89188950347784
 21
127.9790013425674
 31
0.0
  0
ARC
  5
202
330
1F
100
AcDbEntity
  8
141
  6
Continuous
 62
     5
370
    15
100
AcDbCircle
 10
80.30710850347782
 20
127.4818533425674
 30
0.0
 40
1.5
100
AcDbArc
 50
89.99999999999991
 51
181.9212239999984
  0
LINE
  5
203
330
1F
100
AcDbEntity
  8
140
  6
Continuous
 62
     7
370
    15
100
AcDbLine
 10
77.2484055034779
 20
129.1639443425673
 30
0.0
 11
79.75598950347785
 21
131.6715283425673
 31
0.0
  0
LINE
  5
204
330
1F
100
AcDbEntity
  8
140
  6
Continuous
 62
     7
370
    15
100
AcDbLine
 10
77.60195850347782
 20
128.8103913425674
 30
0.0
 11
80.27342050347784
 21
131.4818533425674
 31
0.0
  0
LINE
  5
205
330
1F
100
AcDbEntity
  8
140
  6
Continuous
 62
     7
370
    15
100
AcDbLine
 10
77.95551250347785
 20
128.4568373425674
 30
0.0
 11
80.9805275034779
 21
131.4818533425674
 31
0.0
  0
LINE
  5
206
330
1F
100
AcDbEntity
  8
140
  6
Continuous
 62
     7
370
    15
100
AcDbLine
 10
82.01606150347789
 20
128.9818533425674
 30
0.0
 11
82.75598950347785
 21
129.7217803425673
 31
0.0
  0
LINE
  5
207
330
1F
100
AcDbEntity
  8
141
  6
Continuous
 62
     5
370
    15
100
AcDbLine
 10
82.75598950347785
 20
128.9818533425674
 30
0.0
 11
82.75598950347785
 21
131.4818533425674
 31
0.0
  0
LINE
  5
208
330
1F
100
AcDbEntity
  8
136
  6
Continuous
 62
     7
370
    15
100
AcDbLine
 10
80.75598950347785
 20
134.3818533425674
 30
0.0
 11
82.7560379752714
 21
134.3818533425674
 31
0.0
  0
LINE
  5
209
330
1F
100
AcDbEntity
  8
140
  6
Continuous
 62
     7
370
    15
100
AcDbLine
 10
81.15210050347787
 20
134.4818533425674
 30
0.0
 11
82.75598950347785
 21
136.0857413425674
 31
0.0
  0
LINE
  5
20A
330
1F
100
AcDbEntity
  8
140
  6
Continuous
 62
     7
370
    15
100
AcDbLine
 10
80.44499350347792
 20
134.4818533425674
 30
0.0
 11
82.75598950347785
 21
136.7928483425673
 31
0.0
  0
LINE
  5
20B
330
1F
100
AcDbEntity
  8
140
  6
Continuous
 62
     7
370
    15
100
AcDbLine
 10
80.25598950347785
 20
132.9360083425674
 30
0.0
 11
81.70183450347781
 21
134.3818533425674
 31
0.0
  0
LINE
  5
20C
330
1F
100
AcDbEntity
  8
140
  6
Continuous
 62
     7
370
    15
100
AcDbLine
 10
80.25598950347785
 20
132.5824543425674
 30
0.0
 11
82.05538750347785
 21
134.3818533425674
 31
0.0
  0
LINE
  5
20D
330
1F
100
AcDbEntity
  8
140
  6
Continuous
 62
     7
370
    15
100
AcDbLine
 10
80.25598950347785
 20
132.2289013425674
 30
0.0
 11
82.40894050347788
 21
134.3818533425674
 31
0.0
  0
LINE
  5
20E
330
1F
100
AcDbEntity
  8
140
  6
Continuous
 62
     7
370
    15
100
AcDbLine
 10
83.3027565034779
 20
132.0838393425674
 30
0.0
 11
81.00474350347793
 21
134.3818533425674
 31
0.0
  0
LINE
  5
20F
330
1F
100
AcDbEntity
  8
140
  6
Continuous
 62
     7
370
    15
100
AcDbLine
 10
83.59727350347782
 20
132.1428753425674
 30
0.0
 11
81.35829650347785
 21
134.3818533425674
 31
0.0
  0
LINE
  5
210
330
1F
100
AcDbEntity
  8
136
  6
Continuous
 62
     7
370
    15
100
AcDbLine
 10
80.25598950347785
 20
132.0818533425673
 30
0.0
 11
80.25598950347785
 21
133.8818533425674
 31
0.0
  0
ARC
  5
211
330
1F
100
AcDbEntity
  8
136
  6
Continuous
 62
     7
370
    15
100
AcDbCircle
 10
80.75598950347785
 20
133.8818533425674
 30
0.0
 40
0.5
100
AcDbArc
 50
89.99999999999991
 51
179.9999999999998
  0
LINE
  5
212
330
1F
100
AcDbEntity
  8
140
  6
Continuous
 62
     7
370
    15
100
AcDbLine
 10
80.25598950347785
 20
133.2895613425674
 30
0.0
 11
81.3482805034779
 21
134.3818533425674
 31
0.0
  0
LINE
  5
213
330
1F
100
AcDbEntity
  8
140
  6
Continuous
 62
     7
370
    15
100
AcDbLine
 10
80.25598950347785
 20
133.6431143425674
 30
0.0
 11
80.99472750347786
 21
134.3818533425674
 31
0.0
  0
LINE
  5
214
330
1F
100
AcDbEntity
  8
140
  6
Continuous
 62
     7
370
    15
100
AcDbLine
 10
80.2739375034779
 20
134.0146163425674
 30
0.0
 11
80.6232255034779
 21
134.3639043425674
 31
0.0
  0
ARC
  5
215
330
1F
100
AcDbEntity
  8
141
  6
Continuous
 62
     5
370
    15
100
AcDbCircle
 10
78.20547750347782
 20
136.4818533425673
 30
0.0
 40
0.5
100
AcDbArc
 50
89.99999999999991
 51
173.6598079999985
  0
LINE
  5
216
330
1F
100
AcDbEntity
  8
140
  6
Continuous
 62
     7
370
    15
100
AcDbLine
 10
77.46312950347783
 20
134.3284153425674
 30
0.0
 11
80.11656650347788
 21
136.9818533425673
 31
0.0
  0
LINE
  5
217
330
1F
100
AcDbEntity
  8
140
  6
Continuous
 62
     7
370
    15
100
AcDbLine
 10
77.55151750347784
 20
135.1239113425674
 30
0.0
 11
79.40945950347782
 21
136.9818533425673
 31
0.0
  0
LINE
  5
218
330
1F
100
AcDbEntity
  8
140
  6
Continuous
 62
     7
370
    15
100
AcDbLine
 10
77.63990650347785
 20
135.9194063425674
 30
0.0
 11
78.70235350347787
 21
136.9818533425673
 31
0.0
  0
LINE
  5
219
330
1F
100
AcDbEntity
  8
140
  6
Continuous
 62
     7
370
    15
100
AcDbLine
 10
77.37474150347782
 20
133.5329203425674
 30
0.0
 11
80.82367350347783
 21
136.9818533425673
 31
0.0
  0
LINE
  5
21A
330
1F
100
AcDbEntity
  8
140
  6
Continuous
 62
     7
370
    15
100
AcDbLine
 10
77.28635250347781
 20
132.7374253425673
 30
0.0
 11
81.5307805034779
 21
136.9818533425673
 31
0.0
  0
LINE
  5
21B
330
1F
100
AcDbEntity
  8
141
  6
Continuous
 62
     5
370
    15
100
AcDbLine
 10
82.75598950347785
 20
134.4818533425674
 30
0.0
 11
82.75598950347785
 21
136.9818533425673
 31
0.0
  0
ARC
  5
21C
330
1F
100
AcDbEntity
  8
136
  6
Continuous
 62
     7
370
    15
100
AcDbCircle
 10
83.25598950347785
 20
134.3888153425674
 30
0.0
 40
0.5
100
AcDbArc
 50
180.7978122150341
 51
258.6652530000009
  0
LINE
  5
21D
330
1F
100
AcDbEntity
  8
140
  6
Continuous
 62
     7
370
    15
100
AcDbLine
 10
81.85920750347782
 20
134.4818533425674
 30
0.0
 11
82.75598950347785
 21
135.3786343425674
 31
0.0
  0
LINE
  5
21E
330
1F
100
AcDbEntity
  8
140
  6
Continuous
 62
     7
370
    15
100
AcDbLine
 10
82.56631450347788
 20
134.4818533425674
 30
0.0
 11
82.75598950347785
 21
134.6715283425673
 31
0.0
  0
LINE
  5
21F
330
1F
100
AcDbEntity
  8
140
  6
Continuous
 62
     7
370
    15
100
AcDbLine
 10
83.29043950347784
 20
132.0813703425674
 30
0.0
 11
84.7820395034779
 21
133.5729713425673
 31
0.0
  0
LINE
  5
220
330
1F
100
AcDbEntity
  8
140
  6
Continuous
 62
     7
370
    15
100
AcDbLine
 10
83.73262950347782
 20
132.1700083425674
 30
0.0
 11
85.07655750347783
 21
133.5139353425674
 31
0.0
  0
LINE
  5
221
330
1F
100
AcDbEntity
  8
140
  6
Continuous
 62
     7
370
    15
100
AcDbLine
 10
84.17482050347792
 20
132.2586453425673
 30
0.0
 11
85.37107450347787
 21
133.4548993425674
 31
0.0
  0
LINE
  5
222
330
1F
100
AcDbEntity
  8
140
  6
Continuous
 62
     7
370
    15
100
AcDbLine
 10
84.6170115034779
 20
132.3472823425674
 30
0.0
 11
85.66559150347791
 21
133.3958633425674
 31
0.0
  0
LINE
  5
223
330
1F
100
AcDbEntity
  8
140
  6
Continuous
 62
     7
370
    15
100
AcDbLine
 10
85.05920250347788
 20
132.4359203425673
 30
0.0
 11
85.96010950347784
 21
133.3368273425673
 31
0.0
  0
LINE
  5
224
330
1F
100
AcDbEntity
  8
140
  6
Continuous
 62
     7
370
    15
100
AcDbLine
 10
85.50139250347786
 20
132.5245573425674
 30
0.0
 11
86.25462650347788
 21
133.2777913425674
 31
0.0
  0
LINE
  5
225
330
1F
100
AcDbEntity
  8
140
  6
Continuous
 62
     7
370
    15
100
AcDbLine
 10
83.89179150347786
 20
132.2019123425674
 30
0.0
 11
81.71185050347788
 21
134.3818533425674
 31
0.0
  0
LINE
  5
226
330
1F
100
AcDbEntity
  8
140
  6
Continuous
 62
     7
370
    15
100
AcDbLine
 10
84.1863085034779
 20
132.2609483425674
 30
0.0
 11
82.06540350347791
 21
134.3818533425674
 31
0.0
  0
LINE
  5
227
330
1F
100
AcDbEntity
  8
140
  6
Continuous
 62
     7
370
    15
100
AcDbLine
 10
84.48082550347783
 20
132.3199843425674
 30
0.0
 11
82.41895650347783
 21
134.3818533425674
 31
0.0
  0
LINE
  5
228
330
1F
100
AcDbEntity
  8
140
  6
Continuous
 62
     7
370
    15
100
AcDbLine
 10
84.77534250347787
 20
132.3790203425673
 30
0.0
 11
83.28038450347788
 21
133.8739793425673
 31
0.0
  0
LINE
  5
229
330
1F
100
AcDbEntity
  8
140
  6
Continuous
 62
     7
370
    15
100
AcDbLine
 10
85.06986050347791
 20
132.4380563425674
 30
0.0
 11
83.72257450347786
 21
133.7853413425674
 31
0.0
  0
LINE
  5
22A
330
1F
100
AcDbEntity
  8
140
  6
Continuous
 62
     7
370
    15
100
AcDbLine
 10
85.36437750347784
 20
132.4970923425673
 30
0.0
 11
84.16476550347784
 21
133.6967043425674
 31
0.0
  0
LINE
  5
22B
330
1F
100
AcDbEntity
  8
140
  6
Continuous
 62
     7
370
    15
100
AcDbLine
 10
85.65889450347788
 20
132.5561283425674
 30
0.0
 11
84.60695650347782
 21
133.6080673425674
 31
0.0
  0
LINE
  5
22C
330
1F
100
AcDbEntity
  8
140
  6
Continuous
 62
     7
370
    15
100
AcDbLine
 10
85.95341150347781
 20
132.6151643425674
 30
0.0
 11
85.04914650347791
 21
133.5194293425674
 31
0.0
  0
LINE
  5
22D
330
1F
100
AcDbEntity
  8
140
  6
Continuous
 62
     7
370
    15
100
AcDbLine
 10
86.24792950347785
 20
132.6742013425674
 30
0.0
 11
85.4913375034779
 21
133.4307923425673
 31
0.0
  0
LINE
  5
22E
330
1F
100
AcDbEntity
  8
138
  6
Continuous
 62
     4
370
    15
100
AcDbLine
 10
93.22388050347786
 20
136.9818533425673
 30
0.0
 11
93.22388050347786
 21
128.9818533425674
 31
0.0
  0
LINE
  5
22F
330
1F
100
AcDbEntity
  8
138
  6
Continuous
 62
     4
370
    15
100
AcDbLine
 10
93.22388050347786
 20
128.9818533425674
 30
0.0
 11
93.61210850347777
 21
127.5329653425674
 31
0.0
  0
LINE
  5
230
330
1F
100
AcDbEntity
  8
138
  6
Continuous
 62
     4
370
    15
100
AcDbLine
 10
93.22388050347786
 20
128.9818533425674
 30
0.0
 11
92.83565150347783
 21
127.5329653425674
 31
0.0
  0
LINE
  5
231
330
1F
100
AcDbEntity
  8
140
  6
Continuous
 62
     7
370
    15
100
AcDbLine
 10
87.71234650347787
 20
132.9677443425674
 30
0.0
 11
87.72721250347786
 21
132.9826103425673
 31
0.0
  0
LINE
  5
232
330
1F
100
AcDbEntity
  8
140
  6
Continuous
 62
     7
370
    15
100
AcDbLine
 10
87.72051550347783
 20
132.9693813425674
 30
0.0
 11
87.70229150347791
 21
132.9876053425673
 31
0.0
  0
LINE
  5
233
330
1F
100
AcDbEntity
  8
140
  6
Continuous
 62
     7
370
    15
100
AcDbLine
 10
86.82796450347792
 20
132.7904693425673
 30
0.0
 11
87.13817850347789
 21
133.1006823425674
 31
0.0
  0
LINE
  5
234
330
1F
100
AcDbEntity
  8
140
  6
Continuous
 62
     7
370
    15
100
AcDbLine
 10
87.2701555034779
 20
132.8791063425674
 30
0.0
 11
87.43269550347782
 21
133.0416463425673
 31
0.0
  0
LINE
  5
235
330
1F
100
AcDbEntity
  8
140
  6
Continuous
 62
     7
370
    15
100
AcDbLine
 10
87.13148050347786
 20
132.8513093425674
 30
0.0
 11
86.81790950347784
 21
133.1648803425674
 31
0.0
  0
LINE
  5
236
330
1F
100
AcDbEntity
  8
140
  6
Continuous
 62
     7
370
    15
100
AcDbLine
 10
87.4259985034779
 20
132.9103453425674
 30
0.0
 11
87.26010050347782
 21
133.0762433425674
 31
0.0
  0
LINE
  5
237
330
1F
100
AcDbEntity
  8
138
  6
Continuous
 62
     4
370
    15
100
AcDbLine
 10
103.6688345034779
 20
128.9818533425674
 30
0.0
 11
103.668834503478
 21
124.5926711077531
 31
0.0
  0
TEXT
  5
238
330
1F
100
AcDbEntity
  8
135
  6
Continuous
 62
     7
370
    15
100
AcDbText
 10
103.1666865034781
 20
125.663811011036
 30
0.0
 40
3.0
  1
5
 50
89.99999999999991
100
AcDbText
  0
LINE
  5
239
330
1F
100
AcDbEntity
  8
138
  6
Continuous
 62
     4
370
    15
100
AcDbLine
 10
103.6688345034779
 20
134.4818533425674
 30
0.0
 11
103.6688345034779
 21
131.4818533425674
 31
0.0
  0
LINE
  5
23A
330
1F
100
AcDbEntity
  8
138
  6
Continuous
 62
     4
370
    15
100
AcDbLine
 10
103.6688345034779
 20
131.4818533425674
 30
0.0
 11
104.0570625034778
 21
132.9307423425674
 31
0.0
  0
LINE
  5
23B
330
1F
100
AcDbEntity
  8
138
  6
Continuous
 62
     4
370
    15
100
AcDbLine
 10
103.6688345034779
 20
131.4818533425674
 30
0.0
 11
103.2806055034779
 21
132.9307423425674
 31
0.0
  0
LINE
  5
23C
330
1F
100
AcDbEntity
  8
138
  6
Continuous
 62
     4
370
    15
100
AcDbLine
 10
103.6688345034779
 20
128.9818533425674
 30
0.0
 11
103.2806055034779
 21
127.5329653425674
 31
0.0
  0
LINE
  5
23D
330
1F
100
AcDbEntity
  8
138
  6
Continuous
 62
     4
370
    15
100
AcDbLine
 10
103.6688345034779
 20
128.9818533425674
 30
0.0
 11
104.0570625034778
 21
127.5329653425674
 31
0.0
  0
LINE
  5
23E
330
1F
100
AcDbEntity
  8
138
  6
Continuous
 62
     4
370
    15
100
AcDbLine
 10
103.6688345034779
 20
128.9818533425674
 30
0.0
 11
103.6688345034779
 21
126.4818533425674
 31
0.0
  0
LINE
  5
23F
330
1F
100
AcDbEntity
  8
138
  6
Continuous
 62
     4
370
    15
100
AcDbLine
 10
103.6688345034779
 20
131.4818533425674
 30
0.0
 11
103.6688345034779
 21
128.9818533425674
 31
0.0
  0
TEXT
  5
240
330
1F
100
AcDbEntity
  8
135
  6
Continuous
 62
     7
370
    15
100
AcDbText
 10
103.1666865034779
 20
132.2256841535245
 30
0.0
 40
3.0
  1
6
 50
89.99999999999991
100
AcDbText
  0
LINE
  5
241
330
1F
100
AcDbEntity
  8
138
  6
Continuous
 62
     4
370
    15
100
AcDbLine
 10
103.6688345034779
 20
136.9818533425673
 30
0.0
 11
103.6688345034779
 21
134.4818533425674
 31
0.0
  0
LINE
  5
242
330
1F
100
AcDbEntity
  8
138
  6
Continuous
 62
     4
370
    15
100
AcDbLine
 10
103.6688345034779
 20
134.4818533425674
 30
0.0
 11
103.2806055034779
 21
133.0329653425674
 31
0.0
  0
LINE
  5
243
330
1F
100
AcDbEntity
  8
138
  6
Continuous
 62
     4
370
    15
100
AcDbLine
 10
103.6688345034779
 20
134.4818533425674
 30
0.0
 11
104.0570625034778
 21
133.0329653425674
 31
0.0
  0
LINE
  5
244
330
1F
100
AcDbEntity
  8
139
  6
Continuous
 62
     7
370
    15
100
AcDbLine
 10
146.6406765034778
 20
69.56397634256734
 30
0.0
 11
195.7482476035351
 21
69.56397634256734
 31
0.0
  0
LINE
  5
245
330
1F
100
AcDbEntity
  8
138
  6
Continuous
 62
     4
370
    15
100
AcDbLine
 10
123.7559895034778
 20
85.48185334256738
 30
0.0
 11
123.7559895034778
 21
95.48185334256738
 31
0.0
  0
LINE
  5
246
330
1F
100
AcDbEntity
  8
140
  6
Continuous
 62
     7
370
    15
100
AcDbLine
 10
140.4568445034779
 20
90.25135434256737
 30
0.0
 11
143.0450705034779
 21
92.83958034256733
 31
0.0
  0
LINE
  5
247
330
1F
100
AcDbEntity
  8
140
  6
Continuous
 62
     7
370
    15
100
AcDbLine
 10
140.4323015034779
 20
89.51970534256736
 30
0.0
 11
143.0205275034779
 21
92.10793134256738
 31
0.0
  0
LINE
  5
248
330
1F
100
AcDbEntity
  8
140
  6
Continuous
 62
     7
370
    15
100
AcDbLine
 10
140.4072895034778
 20
88.78758634256735
 30
0.0
 11
142.9959855034779
 21
91.37628134256732
 31
0.0
  0
LINE
  5
249
330
1F
100
AcDbEntity
  8
141
  6
Continuous
 62
     5
370
    15
100
AcDbLine
 10
141.7040265034778
 20
127.4315643425674
 30
0.0
 11
140.4097615034779
 21
88.84775134256734
 31
0.0
  0
LINE
  5
24A
330
1F
100
AcDbEntity
  8
141
  6
Continuous
 62
     5
370
    15
100
AcDbLine
 10
143.9628895034779
 20
120.2010123425674
 30
0.0
 11
142.9083555034779
 21
88.76393734256732
 31
0.0
  0
TEXT
  5
24B
330
1F
100
AcDbEntity
  8
135
  6
Continuous
 62
     7
370
    15
100
AcDbText
 10
147.5218023795295
 20
70.3392486853271
 30
0.0
 40
3.0
  1
品名（Ｔ５Ｂ－１－５０）鋳出し
 41
0.96
100
AcDbText
  0
LINE
  5
24C
330
1F
100
AcDbEntity
  8
138
  6
Continuous
 62
     4
370
    15
100
AcDbLine
 10
142.7559895034778
 20
47.98630977315696
 30
0.0
 11
142.7559895034777
 21
85.31533872786468
 31
0.0
  0
LINE
  5
24D
330
1F
100
AcDbEntity
  8
138
  6
Continuous
 62
     4
370
    15
100
AcDbLine
 10
124.2559895034778
 20
59.98421582332503
 30
0.0
 11
124.2559895034778
 21
69.98185334256738
 31
0.0
  0
LINE
  5
24E
330
1F
100
AcDbEntity
  8
138
  6
Continuous
 62
     4
370
    15
100
AcDbLine
 10
129.7559895034778
 20
53.98657912453558
 30
0.0
 11
129.7559895034778
 21
70.48185334256738
 31
0.0
  0
LINE
  5
24F
330
1F
100
AcDbEntity
  8
138
  6
Continuous
 62
     4
370
    15
100
AcDbLine
 10
129.7559895034778
 20
54.48657912453558
 30
0.0
 11
128.2559895034777
 21
54.08465468317087
 31
0.0
  0
LINE
  5
250
330
1F
100
AcDbEntity
  8
138
  6
Continuous
 62
     4
370
    15
100
AcDbLine
 10
129.7559895034778
 20
54.48657912453558
 30
0.0
 11
128.2559895034777
 21
54.8885025306235
 31
0.0
  0
LINE
  5
251
330
1F
100
AcDbEntity
  8
138
  6
Continuous
 62
     4
370
    15
100
AcDbLine
 10
124.2559895034778
 20
60.48421582332503
 30
0.0
 11
122.7559895034777
 21
60.08229138196026
 31
0.0
  0
LINE
  5
252
330
1F
100
AcDbEntity
  8
138
  6
Continuous
 62
     4
370
    15
100
AcDbLine
 10
124.2559895034778
 20
60.48421582332503
 30
0.0
 11
122.7559895034777
 21
60.88613922941295
 31
0.0
  0
LINE
  5
253
330
1F
100
AcDbEntity
  8
138
  6
Continuous
 62
     4
370
    15
100
AcDbLine
 10
142.7559895034778
 20
48.48630977315696
 30
0.0
 11
141.2559895034777
 21
48.08438533179225
 31
0.0
  0
LINE
  5
254
330
1F
100
AcDbEntity
  8
138
  6
Continuous
 62
     4
370
    15
100
AcDbLine
 10
142.7559895034778
 20
48.48630977315696
 30
0.0
 11
141.2559895034777
 21
48.88823317924488
 31
0.0
  0
LINE
  5
255
330
1F
100
AcDbEntity
  8
141
  6
Continuous
 62
     5
370
    15
100
AcDbLine
 10
136.4120095034779
 20
82.48185334256738
 30
0.0
 11
133.0541815034778
 21
82.48185334256738
 31
0.0
  0
LINE
  5
256
330
1F
100
AcDbEntity
  8
139
  6
Continuous
 62
     7
370
    15
100
AcDbLine
 10
134.9737155034778
 20
82.29157034256735
 30
0.0
 11
136.2389495034779
 21
81.48585134256734
 31
0.0
  0
LINE
  5
257
330
1F
100
AcDbEntity
  8
139
  6
Continuous
 62
     7
370
    15
100
AcDbLine
 10
134.9737155034778
 20
82.29157034256735
 30
0.0
 11
135.6665815034778
 21
80.96118034256739
 31
0.0
  0
LINE
  5
258
330
1F
100
AcDbEntity
  8
140
  6
Continuous
 62
     7
370
    15
100
AcDbLine
 10
133.3944495034779
 20
82.48185334256738
 30
0.0
 11
135.8944495034779
 21
84.98185334256738
 31
0.0
  0
LINE
  5
259
330
1F
100
AcDbEntity
  8
140
  6
Continuous
 62
     7
370
    15
100
AcDbLine
 10
134.1015565034778
 20
82.48185334256738
 30
0.0
 11
136.6062765034778
 21
84.98657334256734
 31
0.0
  0
LINE
  5
25A
330
1F
100
AcDbEntity
  8
140
  6
Continuous
 62
     7
370
    15
100
AcDbLine
 10
134.8086635034779
 20
82.48185334256738
 30
0.0
 11
137.4441105034779
 21
85.11730034256738
 31
0.0
  0
LINE
  5
25B
330
1F
100
AcDbEntity
  8
139
  6
Continuous
 62
     7
370
    15
100
AcDbLine
 10
134.9737155034778
 20
82.29157034256735
 30
0.0
 11
146.6406765034778
 21
69.56397634256734
 31
0.0
  0
LINE
  5
25C
330
1F
100
AcDbEntity
  8
137
  6
DASHDOT
 62
     1
370
    15
100
AcDbLine
 10
134.8772945034779
 20
89.52315834256734
 30
0.0
 11
134.8772945034779
 21
73.80650834256738
 31
0.0
  0
LINE
  5
25D
330
1F
100
AcDbEntity
  8
140
  6
Continuous
 62
     7
370
    15
100
AcDbLine
 10
124.9709045034779
 20
79.00805534256739
 30
0.0
 11
130.9447025034779
 21
84.98185334256738
 31
0.0
  0
LINE
  5
25E
330
1F
100
AcDbEntity
  8
140
  6
Continuous
 62
     7
370
    15
100
AcDbLine
 10
124.9938015034779
 20
78.32384534256738
 30
0.0
 11
131.6518085034778
 21
84.98185334256738
 31
0.0
  0
LINE
  5
25F
330
1F
100
AcDbEntity
  8
141
  6
Continuous
 62
     5
370
    15
100
AcDbLine
 10
124.9550495034779
 20
79.48185334256738
 30
0.0
 11
125.2562305034778
 21
70.48185334256738
 31
0.0
  0
LINE
  5
260
330
1F
100
AcDbEntity
  8
141
  6
Continuous
 62
     5
370
    15
100
AcDbLine
 10
123.9544895034778
 20
79.48185334256738
 30
0.0
 11
124.2222795034778
 21
71.47964734256738
 31
0.0
  0
LINE
  5
261
330
1F
100
AcDbEntity
  8
141
  6
Continuous
 62
     5
370
    15
100
AcDbLine
 10
130.5629315034779
 20
80.19083234256738
 30
0.0
 11
129.8253645034779
 21
71.39826134256737
 31
0.0
  0
LINE
  5
262
330
1F
100
AcDbEntity
  8
140
  6
Continuous
 62
     7
370
    15
100
AcDbLine
 10
125.1082855034779
 20
74.90279534256734
 30
0.0
 11
130.5862045034778
 21
80.38071534256738
 31
0.0
  0
LINE
  5
263
330
1F
100
AcDbEntity
  8
140
  6
Continuous
 62
     7
370
    15
100
AcDbLine
 10
125.1311825034778
 20
74.21858534256734
 30
0.0
 11
130.5134395034779
 21
79.60084334256737
 31
0.0
  0
LINE
  5
264
330
1F
100
AcDbEntity
  8
140
  6
Continuous
 62
     7
370
    15
100
AcDbLine
 10
125.0166985034779
 20
77.63963534256737
 30
0.0
 11
132.3589155034779
 21
84.98185334256738
 31
0.0
  0
LINE
  5
265
330
1F
100
AcDbEntity
  8
140
  6
Continuous
 62
     7
370
    15
100
AcDbLine
 10
125.0395945034778
 20
76.95542534256737
 30
0.0
 11
133.0660225034778
 21
84.98185334256738
 31
0.0
  0
LINE
  5
266
330
1F
100
AcDbEntity
  8
140
  6
Continuous
 62
     7
370
    15
100
AcDbLine
 10
125.0624915034779
 20
76.27121534256736
 30
0.0
 11
133.7731295034779
 21
84.98185334256738
 31
0.0
  0
LINE
  5
267
330
1F
100
AcDbEntity
  8
140
  6
Continuous
 62
     7
370
    15
100
AcDbLine
 10
125.0853885034778
 20
75.58700534256735
 30
0.0
 11
134.4802355034778
 21
84.98185334256738
 31
0.0
  0
LINE
  5
268
330
1F
100
AcDbEntity
  8
140
  6
Continuous
 62
     7
370
    15
100
AcDbLine
 10
125.1998725034779
 20
72.16595534256737
 30
0.0
 11
130.3191985034779
 21
77.28528134256737
 31
0.0
  0
LINE
  5
269
330
1F
100
AcDbEntity
  8
140
  6
Continuous
 62
     7
370
    15
100
AcDbLine
 10
125.2227695034778
 20
71.48174534256736
 30
0.0
 11
130.2544515034779
 21
76.51342734256735
 31
0.0
  0
LINE
  5
26A
330
1F
100
AcDbEntity
  8
140
  6
Continuous
 62
     7
370
    15
100
AcDbLine
 10
125.2456665034779
 20
70.79753534256736
 30
0.0
 11
130.1897045034779
 21
75.74157334256734
 31
0.0
  0
LINE
  5
26B
330
1F
100
AcDbEntity
  8
140
  6
Continuous
 62
     7
370
    15
100
AcDbLine
 10
125.6370905034779
 20
70.48185334256738
 30
0.0
 11
130.1249575034778
 21
74.96972034256737
 31
0.0
  0
LINE
  5
26C
330
1F
100
AcDbEntity
  8
140
  6
Continuous
 62
     7
370
    15
100
AcDbLine
 10
125.1540785034779
 20
73.53437534256733
 30
0.0
 11
130.4486925034779
 21
78.82898934256735
 31
0.0
  0
LINE
  5
26D
330
1F
100
AcDbEntity
  8
140
  6
Continuous
 62
     7
370
    15
100
AcDbLine
 10
125.1769755034779
 20
72.85016534256732
 30
0.0
 11
130.3839455034779
 21
78.05713534256739
 31
0.0
  0
LINE
  5
26E
330
1F
100
AcDbEntity
  8
141
  6
Continuous
 62
     5
370
    15
100
AcDbLine
 10
124.2240125034779
 20
71.47797634256739
 30
0.0
 11
125.2558545034778
 21
70.48286734256737
 31
0.0
  0
LINE
  5
26F
330
1F
100
AcDbEntity
  8
140
  6
Continuous
 62
     7
370
    15
100
AcDbLine
 10
126.3441965034779
 20
70.48185334256738
 30
0.0
 11
130.0602105034778
 21
74.19786634256735
 31
0.0
  0
LINE
  5
270
330
1F
100
AcDbEntity
  8
140
  6
Continuous
 62
     7
370
    15
100
AcDbLine
 10
127.0513035034778
 20
70.48185334256738
 30
0.0
 11
129.9954625034778
 21
73.42601234256733
 31
0.0
  0
ARC
  5
271
330
1F
100
AcDbEntity
  8
141
  6
Continuous
 62
     5
370
    15
100
AcDbCircle
 10
128.8288645034779
 20
71.48185334256738
 30
0.0
 40
1.0
100
AcDbArc
 50
269.9999999999998
 51
355.2049580000003
  0
LINE
  5
272
330
1F
100
AcDbEntity
  8
140
  6
Continuous
 62
     7
370
    15
100
AcDbLine
 10
127.7584105034779
 20
70.48185334256738
 30
0.0
 11
129.9307155034778
 21
72.65415834256737
 31
0.0
  0
LINE
  5
273
330
1F
100
AcDbEntity
  8
140
  6
Continuous
 62
     7
370
    15
100
AcDbLine
 10
128.4655175034778
 20
70.48185334256738
 30
0.0
 11
129.8659685034779
 21
71.88230434256735
 31
0.0
  0
LINE
  5
274
330
1F
100
AcDbEntity
  8
140
  6
Continuous
 62
     7
370
    15
100
AcDbLine
 10
129.2803415034779
 20
70.58957034256736
 30
0.0
 11
129.7211475034778
 21
71.03037634256737
 31
0.0
  0
LINE
  5
275
330
1F
100
AcDbEntity
  8
140
  6
Continuous
 62
     7
370
    15
100
AcDbLine
 10
124.8906835034778
 20
82.46336834256738
 30
0.0
 11
127.4091685034779
 21
84.98185334256738
 31
0.0
  0
LINE
  5
276
330
1F
100
AcDbEntity
  8
140
  6
Continuous
 62
     7
370
    15
100
AcDbLine
 10
125.2403505034779
 20
82.10592834256732
 30
0.0
 11
128.1162745034778
 21
84.98185334256738
 31
0.0
  0
LINE
  5
277
330
1F
100
AcDbEntity
  8
140
  6
Continuous
 62
     7
370
    15
100
AcDbLine
 10
125.2559895034778
 20
81.41446034256734
 30
0.0
 11
128.8233815034779
 21
84.98185334256738
 31
0.0
  0
LINE
  5
278
330
1F
100
AcDbEntity
  8
140
  6
Continuous
 62
     7
370
    15
100
AcDbLine
 10
125.2559895034778
 20
80.70735334256739
 30
0.0
 11
129.5304885034778
 21
84.98185334256738
 31
0.0
  0
LINE
  5
279
330
1F
100
AcDbEntity
  8
140
  6
Continuous
 62
     7
370
    15
100
AcDbLine
 10
125.2559895034778
 20
80.00024734256738
 30
0.0
 11
130.2375955034779
 21
84.98185334256738
 31
0.0
  0
LINE
  5
27A
330
1F
100
AcDbEntity
  8
140
  6
Continuous
 62
     7
370
    15
100
AcDbLine
 10
123.8424665034779
 20
82.82936434256737
 30
0.0
 11
125.9949545034779
 21
84.98185334256738
 31
0.0
  0
LINE
  5
27B
330
1F
100
AcDbEntity
  8
140
  6
Continuous
 62
     7
370
    15
100
AcDbLine
 10
124.2020615034778
 20
82.48185334256738
 30
0.0
 11
126.7020615034778
 21
84.98185334256738
 31
0.0
  0
LINE
  5
27C
330
1F
100
AcDbEntity
  8
141
  6
Continuous
 62
     5
370
    15
100
AcDbLine
 10
125.2559895034778
 20
79.98185334256738
 30
0.0
 11
125.2559895034778
 21
81.98185334256738
 31
0.0
  0
LINE
  5
27D
330
1F
100
AcDbEntity
  8
141
  6
Continuous
 62
     5
370
    15
100
AcDbLine
 10
123.7699655034779
 20
84.99587334256734
 30
0.0
 11
123.8540955034779
 21
82.48185334256738
 31
0.0
  0
LINE
  5
27E
330
1F
100
AcDbEntity
  8
140
  6
Continuous
 62
     7
370
    15
100
AcDbLine
 10
123.7737765034778
 20
84.88199434256734
 30
0.0
 11
123.8736345034779
 21
84.98185334256738
 31
0.0
  0
LINE
  5
27F
330
1F
100
AcDbEntity
  8
140
  6
Continuous
 62
     7
370
    15
100
AcDbLine
 10
123.7966725034779
 20
84.19778434256733
 30
0.0
 11
124.5807405034778
 21
84.98185334256738
 31
0.0
  0
ARC
  5
280
330
1F
100
AcDbEntity
  8
141
  6
Continuous
 62
     5
370
    15
100
AcDbCircle
 10
124.7559895034778
 20
81.98185334256738
 30
0.0
 40
0.5
100
AcDbArc
 50
0.0
 51
89.99999999999991
  0
ARC
  5
281
330
1F
100
AcDbEntity
  8
141
  6
Continuous
 62
     5
370
    15
100
AcDbCircle
 10
124.7559895034778
 20
79.98185334256738
 30
0.0
 40
0.5
100
AcDbArc
 50
269.9999999999998
 51
0.0
  0
LINE
  5
282
330
1F
100
AcDbEntity
  8
140
  6
Continuous
 62
     7
370
    15
100
AcDbLine
 10
123.8195695034779
 20
83.51357434256732
 30
0.0
 11
125.2878475034779
 21
84.98185334256738
 31
0.0
  0
ARC
  5
283
330
1F
100
AcDbEntity
  8
141
  6
Continuous
 62
     5
370
    15
100
AcDbCircle
 10
133.0541815034778
 20
79.98185334256738
 30
0.0
 40
2.5
100
AcDbArc
 50
89.99999999999991
 51
175.2049580000007
  0
LINE
  5
284
330
1F
100
AcDbEntity
  8
140
  6
Continuous
 62
     7
370
    15
100
AcDbLine
 10
132.6553195034778
 20
82.44982934256734
 30
0.0
 11
135.1873425034779
 21
84.98185334256738
 31
0.0
  0
LINE
  5
285
330
1F
100
AcDbEntity
  8
140
  6
Continuous
 62
     7
370
    15
100
AcDbLine
 10
135.5157695034778
 20
82.48185334256738
 30
0.0
 11
138.8272785034778
 21
85.79336134256738
 31
0.0
  0
ARC
  5
286
330
1F
100
AcDbEntity
  8
141
  6
Continuous
 62
     5
370
    15
100
AcDbCircle
 10
136.4120095034779
 20
88.98185334256738
 30
0.0
 40
4.0
100
AcDbArc
 50
269.9999999999998
 51
358.0787760000009
  0
ARC
  5
287
330
1F
100
AcDbEntity
  8
141
  6
Continuous
 62
     5
370
    15
100
AcDbCircle
 10
136.4120095034779
 20
88.98185334256738
 30
0.0
 40
6.5
100
AcDbArc
 50
269.9999999999998
 51
358.0787760000008
  0
LINE
  5
288
330
1F
100
AcDbEntity
  8
140
  6
Continuous
 62
     7
370
    15
100
AcDbLine
 10
136.2228765034779
 20
82.48185334256738
 30
0.0
 11
142.9223575034779
 21
89.18133334256737
 31
0.0
  0
LINE
  5
289
330
1F
100
AcDbEntity
  8
140
  6
Continuous
 62
     7
370
    15
100
AcDbLine
 10
136.9524935034779
 20
82.50436234256733
 30
0.0
 11
142.8894995034779
 21
88.44136934256738
 31
0.0
  0
LINE
  5
28A
330
1F
100
AcDbEntity
  8
140
  6
Continuous
 62
     7
370
    15
100
AcDbLine
 10
137.7834095034779
 20
82.62817134256733
 30
0.0
 11
142.7656905034779
 21
87.61045334256738
 31
0.0
  0
LINE
  5
28B
330
1F
100
AcDbEntity
  8
140
  6
Continuous
 62
     7
370
    15
100
AcDbLine
 10
138.7979245034778
 20
82.93558034256733
 30
0.0
 11
142.4582825034779
 21
86.59593834256736
 31
0.0
  0
LINE
  5
28C
330
1F
100
AcDbEntity
  8
140
  6
Continuous
 62
     7
370
    15
100
AcDbLine
 10
140.4883755034779
 20
83.91892434256732
 30
0.0
 11
141.4749385034779
 21
84.90548734256737
 31
0.0
  0
LINE
  5
28D
330
1F
100
AcDbEntity
  8
140
  6
Continuous
 62
     7
370
    15
100
AcDbLine
 10
140.2765625034779
 20
87.94975234256736
 30
0.0
 11
142.9714425034779
 21
90.64463234256738
 31
0.0
  0
LINE
  5
28E
330
1F
100
AcDbEntity
  8
140
  6
Continuous
 62
     7
370
    15
100
AcDbLine
 10
139.6005015034779
 20
86.56658434256735
 30
0.0
 11
142.9468995034779
 21
89.91298334256737
 31
0.0
  0
ARC
  5
28F
330
1F
100
AcDbEntity
  8
141
  6
Continuous
 62
     5
370
    15
100
AcDbCircle
 10
155.3622415034779
 20
132.2318533425674
 30
0.0
 40
0.75
100
AcDbArc
 50
98.14450100000292
 51
160.1791280000001
  0
LINE
  5
290
330
1F
100
AcDbEntity
  8
140
  6
Continuous
 62
     7
370
    15
100
AcDbLine
 10
154.5016015034779
 20
131.8732763425674
 30
0.0
 11
155.5151425034778
 21
132.8868173425673
 31
0.0
  0
LINE
  5
291
330
1F
100
AcDbEntity
  8
140
  6
Continuous
 62
     7
370
    15
100
AcDbLine
 10
154.2915025034779
 20
130.9560703425673
 30
0.0
 11
155.8460185034778
 21
132.5105863425674
 31
0.0
  0
LINE
  5
292
330
1F
100
AcDbEntity
  8
140
  6
Continuous
 62
     7
370
    15
100
AcDbLine
 10
152.1090825034779
 20
125.9452233425673
 30
0.0
 11
156.3904615034778
 21
130.2266023425674
 31
0.0
  0
LINE
  5
293
330
1F
100
AcDbEntity
  8
140
  6
Continuous
 62
     7
370
    15
100
AcDbLine
 10
152.8581735034778
 20
125.9872073425674
 30
0.0
 11
156.5248115034778
 21
129.6538453425674
 31
0.0
  0
LINE
  5
294
330
1F
100
AcDbEntity
  8
140
  6
Continuous
 62
     7
370
    15
100
AcDbLine
 10
153.6072645034778
 20
126.0291923425673
 30
0.0
 11
156.7301455034778
 21
129.1520723425674
 31
0.0
  0
LINE
  5
295
330
1F
100
AcDbEntity
  8
140
  6
Continuous
 62
     7
370
    15
100
AcDbLine
 10
154.3563565034779
 20
126.0711763425674
 30
0.0
 11
157.1247135034779
 21
128.8395343425674
 31
0.0
  0
LINE
  5
296
330
1F
100
AcDbEntity
  8
140
  6
Continuous
 62
     7
370
    15
100
AcDbLine
 10
154.0814045034779
 20
130.0388653425674
 30
0.0
 11
155.9874105034778
 21
131.9448713425674
 31
0.0
  0
LINE
  5
297
330
1F
100
AcDbEntity
  8
140
  6
Continuous
 62
     7
370
    15
100
AcDbLine
 10
153.8489335034778
 20
129.0992873425674
 30
0.0
 11
156.1217605034778
 21
131.3721153425674
 31
0.0
  0
LINE
  5
298
330
1F
100
AcDbEntity
  8
140
  6
Continuous
 62
     7
370
    15
100
AcDbLine
 10
151.3599915034779
 20
125.9032383425674
 30
0.0
 11
156.2561105034779
 21
130.7993583425674
 31
0.0
  0
LINE
  5
299
330
1F
100
AcDbEntity
  8
141
  6
Continuous
 62
     5
370
    15
100
AcDbLine
 10
162.3180405034778
 20
126.5174063425674
 30
0.0
 11
149.5196235034779
 21
125.8000913425674
 31
0.0
  0
LINE
  5
29A
330
1F
100
AcDbEntity
  8
141
  6
Continuous
 62
     5
370
    15
100
AcDbLine
 10
174.7559895034778
 20
134.4818533425674
 30
0.0
 11
171.2559895034778
 21
134.4818533425674
 31
0.0
  0
LINE
  5
29B
330
1F
100
AcDbEntity
  8
141
  6
Continuous
 62
     5
370
    15
100
AcDbLine
 10
155.2559895034778
 20
132.9818533425674
 30
0.0
 11
143.7559895034778
 21
132.9818533425674
 31
0.0
  0
LINE
  5
29C
330
1F
100
AcDbEntity
  8
139
  6
Continuous
 62
     7
370
    15
100
AcDbLine
 10
149.9189965034778
 20
115.2676093425674
 30
0.0
 11
188.7397557836491
 21
115.2676093425674
 31
0.0
  0
TEXT
  5
29D
330
1F
100
AcDbEntity
  8
135
  6
Continuous
 62
     7
370
    15
100
AcDbText
 10
150.9394771134114
 20
116.025228513737
 30
0.0
 40
3.0
  1
水抜き穴 ４－φ５キリ穴
 41
0.96
100
AcDbText
  0
LINE
  5
29E
330
1F
100
AcDbEntity
  8
140
  6
Continuous
 62
     7
370
    15
100
AcDbLine
 10
141.2422085034779
 20
113.6641363425674
 30
0.0
 11
143.8304345034778
 21
116.2523623425674
 31
0.0
  0
LINE
  5
29F
330
1F
100
AcDbEntity
  8
140
  6
Continuous
 62
     7
370
    15
100
AcDbLine
 10
141.2176665034779
 20
112.9324863425674
 30
0.0
 11
143.8058925034778
 21
115.5207123425674
 31
0.0
  0
LINE
  5
2A0
330
1F
100
AcDbEntity
  8
140
  6
Continuous
 62
     7
370
    15
100
AcDbLine
 10
141.1931235034779
 20
112.2008373425674
 30
0.0
 11
143.7813495034778
 21
114.7890633425674
 31
0.0
  0
LINE
  5
2A1
330
1F
100
AcDbEntity
  8
138
  6
Continuous
 62
     4
370
    15
100
AcDbLine
 10
123.7559895034778
 20
94.98185334256738
 30
0.0
 11
122.2559895034777
 21
94.57992890120266
 31
0.0
  0
LINE
  5
2A2
330
1F
100
AcDbEntity
  8
138
  6
Continuous
 62
     4
370
    15
100
AcDbLine
 10
123.7559895034778
 20
94.98185334256738
 30
0.0
 11
122.2559895034777
 21
95.3837767486553
 31
0.0
  0
LINE
  5
2A3
330
1F
100
AcDbEntity
  8
140
  6
Continuous
 62
     7
370
    15
100
AcDbLine
 10
140.8249835034778
 20
101.2260953425674
 30
0.0
 11
143.4132105034779
 21
103.8143223425674
 31
0.0
  0
LINE
  5
2A4
330
1F
100
AcDbEntity
  8
140
  6
Continuous
 62
     7
370
    15
100
AcDbLine
 10
140.8004415034778
 20
100.4944463425674
 30
0.0
 11
143.3886675034779
 21
103.0826723425674
 31
0.0
  0
LINE
  5
2A5
330
1F
100
AcDbEntity
  8
140
  6
Continuous
 62
     7
370
    15
100
AcDbLine
 10
140.8495265034778
 20
101.9577453425674
 30
0.0
 11
143.4377525034779
 21
104.5459713425674
 31
0.0
  0
LINE
  5
2A6
330
1F
100
AcDbEntity
  8
140
  6
Continuous
 62
     7
370
    15
100
AcDbLine
 10
140.6531855034779
 20
96.10454934256734
 30
0.0
 11
143.2414115034778
 21
98.69277634256736
 31
0.0
  0
LINE
  5
2A7
330
1F
100
AcDbEntity
  8
140
  6
Continuous
 62
     7
370
    15
100
AcDbLine
 10
140.6286425034779
 20
95.37290034256733
 30
0.0
 11
143.2168685034778
 21
97.96112634256735
 31
0.0
  0
LINE
  5
2A8
330
1F
100
AcDbEntity
  8
140
  6
Continuous
 62
     7
370
    15
100
AcDbLine
 10
140.6040995034779
 20
94.64125134256739
 30
0.0
 11
143.1923265034778
 21
97.22947734256735
 31
0.0
  0
LINE
  5
2A9
330
1F
100
AcDbEntity
  8
140
  6
Continuous
 62
     7
370
    15
100
AcDbLine
 10
140.5795575034779
 20
93.90960134256733
 30
0.0
 11
143.1677835034778
 21
96.49782734256735
 31
0.0
  0
LINE
  5
2AA
330
1F
100
AcDbEntity
  8
140
  6
Continuous
 62
     7
370
    15
100
AcDbLine
 10
140.5550145034779
 20
93.17795234256738
 30
0.0
 11
143.1432405034778
 21
95.76617834256734
 31
0.0
  0
LINE
  5
2AB
330
1F
100
AcDbEntity
  8
140
  6
Continuous
 62
     7
370
    15
100
AcDbLine
 10
140.5304725034779
 20
92.44630234256732
 30
0.0
 11
143.1186985034778
 21
95.03452934256734
 31
0.0
  0
LINE
  5
2AC
330
1F
100
AcDbEntity
  8
140
  6
Continuous
 62
     7
370
    15
100
AcDbLine
 10
140.5059295034779
 20
91.71465334256737
 30
0.0
 11
143.0941555034779
 21
94.30287934256734
 31
0.0
  0
LINE
  5
2AD
330
1F
100
AcDbEntity
  8
140
  6
Continuous
 62
     7
370
    15
100
AcDbLine
 10
140.4813865034779
 20
90.98300334256737
 30
0.0
 11
143.0696135034779
 21
93.57123034256739
 31
0.0
  0
LINE
  5
2AE
330
1F
100
AcDbEntity
  8
140
  6
Continuous
 62
     7
370
    15
100
AcDbLine
 10
140.7758985034778
 20
99.76279634256736
 30
0.0
 11
143.3641245034779
 21
102.3510233425673
 31
0.0
  0
LINE
  5
2AF
330
1F
100
AcDbEntity
  8
140
  6
Continuous
 62
     7
370
    15
100
AcDbLine
 10
140.7513555034778
 20
99.03114734256735
 30
0.0
 11
143.3395825034778
 21
101.6193733425674
 31
0.0
  0
LINE
  5
2B0
330
1F
100
AcDbEntity
  8
140
  6
Continuous
 62
     7
370
    15
100
AcDbLine
 10
140.7268135034778
 20
98.29949834256735
 30
0.0
 11
143.3150395034778
 21
100.8877243425674
 31
0.0
  0
LINE
  5
2B1
330
1F
100
AcDbEntity
  8
140
  6
Continuous
 62
     7
370
    15
100
AcDbLine
 10
140.7022705034778
 20
97.56784834256734
 30
0.0
 11
143.2904965034778
 21
100.1560743425674
 31
0.0
  0
LINE
  5
2B2
330
1F
100
AcDbEntity
  8
140
  6
Continuous
 62
     7
370
    15
100
AcDbLine
 10
140.6777275034779
 20
96.83619934256734
 30
0.0
 11
143.2659545034778
 21
99.42442534256736
 31
0.0
  0
LINE
  5
2B3
330
1F
100
AcDbEntity
  8
140
  6
Continuous
 62
     7
370
    15
100
AcDbLine
 10
141.0458675034779
 20
107.8109403425673
 30
0.0
 11
143.6340935034779
 21
110.3991663425674
 31
0.0
  0
LINE
  5
2B4
330
1F
100
AcDbEntity
  8
140
  6
Continuous
 62
     7
370
    15
100
AcDbLine
 10
141.0213245034779
 20
107.0792913425674
 30
0.0
 11
143.6095515034779
 21
109.6675173425674
 31
0.0
  0
LINE
  5
2B5
330
1F
100
AcDbEntity
  8
140
  6
Continuous
 62
     7
370
    15
100
AcDbLine
 10
140.9967825034779
 20
106.3476413425673
 30
0.0
 11
143.5850085034779
 21
108.9358683425673
 31
0.0
  0
LINE
  5
2B6
330
1F
100
AcDbEntity
  8
140
  6
Continuous
 62
     7
370
    15
100
AcDbLine
 10
140.9722395034779
 20
105.6159923425674
 30
0.0
 11
143.5604655034779
 21
108.2042183425673
 31
0.0
  0
LINE
  5
2B7
330
1F
100
AcDbEntity
  8
140
  6
Continuous
 62
     7
370
    15
100
AcDbLine
 10
140.9476965034779
 20
104.8843423425673
 30
0.0
 11
143.5359235034779
 21
107.4725693425673
 31
0.0
  0
LINE
  5
2B8
330
1F
100
AcDbEntity
  8
140
  6
Continuous
 62
     7
370
    15
100
AcDbLine
 10
140.9231545034778
 20
104.1526933425674
 30
0.0
 11
143.5113805034779
 21
106.7409193425673
 31
0.0
  0
LINE
  5
2B9
330
1F
100
AcDbEntity
  8
140
  6
Continuous
 62
     7
370
    15
100
AcDbLine
 10
140.8986115034778
 20
103.4210443425674
 30
0.0
 11
143.4868375034779
 21
106.0092703425674
 31
0.0
  0
LINE
  5
2BA
330
1F
100
AcDbEntity
  8
140
  6
Continuous
 62
     7
370
    15
100
AcDbLine
 10
140.8740695034778
 20
102.6893943425674
 30
0.0
 11
143.4622955034779
 21
105.2776203425673
 31
0.0
  0
LINE
  5
2BB
330
1F
100
AcDbEntity
  8
140
  6
Continuous
 62
     7
370
    15
100
AcDbLine
 10
141.1685805034779
 20
111.4691873425674
 30
0.0
 11
143.7568075034778
 21
114.0574143425674
 31
0.0
  0
LINE
  5
2BC
330
1F
100
AcDbEntity
  8
140
  6
Continuous
 62
     7
370
    15
100
AcDbLine
 10
141.1440385034779
 20
110.7375383425673
 30
0.0
 11
143.7322645034778
 21
113.3257643425674
 31
0.0
  0
LINE
  5
2BD
330
1F
100
AcDbEntity
  8
140
  6
Continuous
 62
     7
370
    15
100
AcDbLine
 10
141.1194955034779
 20
110.0058883425673
 30
0.0
 11
143.7077215034778
 21
112.5941153425674
 31
0.0
  0
LINE
  5
2BE
330
1F
100
AcDbEntity
  8
140
  6
Continuous
 62
     7
370
    15
100
AcDbLine
 10
141.0949525034779
 20
109.2742393425673
 30
0.0
 11
143.6831795034778
 21
111.8624653425674
 31
0.0
  0
LINE
  5
2BF
330
1F
100
AcDbEntity
  8
140
  6
Continuous
 62
     7
370
    15
100
AcDbLine
 10
141.0704105034779
 20
108.5425903425673
 30
0.0
 11
143.6586365034779
 21
111.1308163425674
 31
0.0
  0
LINE
  5
2C0
330
1F
100
AcDbEntity
  8
136
  6
Continuous
 62
     7
370
    15
100
AcDbLine
 10
137.3542595034778
 20
133.8985673425673
 30
0.0
 11
132.7551165034779
 21
132.9766673425673
 31
0.0
  0
LINE
  5
2C1
330
1F
100
AcDbEntity
  8
136
  6
Continuous
 62
     7
370
    15
100
AcDbLine
 10
132.7551165034779
 20
132.9766673425673
 30
0.0
 11
137.3542595034778
 21
132.0547663425673
 31
0.0
  0
LINE
  5
2C2
330
1F
100
AcDbEntity
  8
140
  6
Continuous
 62
     7
370
    15
100
AcDbLine
 10
136.7793485034779
 20
132.1700083425674
 30
0.0
 11
135.4354215034779
 21
133.5139353425674
 31
0.0
  0
LINE
  5
2C3
330
1F
100
AcDbEntity
  8
140
  6
Continuous
 62
     7
370
    15
100
AcDbLine
 10
136.3371575034779
 20
132.2586453425673
 30
0.0
 11
135.1409035034778
 21
133.4548993425674
 31
0.0
  0
LINE
  5
2C4
330
1F
100
AcDbEntity
  8
140
  6
Continuous
 62
     7
370
    15
100
AcDbLine
 10
135.8949675034779
 20
132.3472823425674
 30
0.0
 11
134.8463865034779
 21
133.3958633425674
 31
0.0
  0
LINE
  5
2C5
330
1F
100
AcDbEntity
  8
140
  6
Continuous
 62
     7
370
    15
100
AcDbLine
 10
135.4421185034779
 20
132.4380563425674
 30
0.0
 11
136.7894035034778
 21
133.7853413425674
 31
0.0
  0
LINE
  5
2C6
330
1F
100
AcDbEntity
  8
140
  6
Continuous
 62
     7
370
    15
100
AcDbLine
 10
135.1476015034779
 20
132.4970923425673
 30
0.0
 11
136.3472125034779
 21
133.6967043425674
 31
0.0
  0
LINE
  5
2C7
330
1F
100
AcDbEntity
  8
140
  6
Continuous
 62
     7
370
    15
100
AcDbLine
 10
134.8530835034778
 20
132.5561283425674
 30
0.0
 11
135.9050225034779
 21
133.6080673425674
 31
0.0
  0
LINE
  5
2C8
330
1F
100
AcDbEntity
  8
140
  6
Continuous
 62
     7
370
    15
100
AcDbLine
 10
135.4527765034778
 20
132.4359203425673
 30
0.0
 11
134.5518695034779
 21
133.3368273425673
 31
0.0
  0
LINE
  5
2C9
330
1F
100
AcDbEntity
  8
140
  6
Continuous
 62
     7
370
    15
100
AcDbLine
 10
135.0105855034778
 20
132.5245573425674
 30
0.0
 11
134.2573525034778
 21
133.2777913425674
 31
0.0
  0
LINE
  5
2CA
330
1F
100
AcDbEntity
  8
140
  6
Continuous
 62
     7
370
    15
100
AcDbLine
 10
134.5683945034779
 20
132.6131943425673
 30
0.0
 11
133.9628345034779
 21
133.2187543425674
 31
0.0
  0
LINE
  5
2CB
330
1F
100
AcDbEntity
  8
140
  6
Continuous
 62
     7
370
    15
100
AcDbLine
 10
134.1262045034779
 20
132.7018323425673
 30
0.0
 11
133.6683175034779
 21
133.1597183425673
 31
0.0
  0
LINE
  5
2CC
330
1F
100
AcDbEntity
  8
140
  6
Continuous
 62
     7
370
    15
100
AcDbLine
 10
133.6840135034779
 20
132.7904693425673
 30
0.0
 11
133.3738005034779
 21
133.1006823425674
 31
0.0
  0
LINE
  5
2CD
330
1F
100
AcDbEntity
  8
140
  6
Continuous
 62
     7
370
    15
100
AcDbLine
 10
133.2418225034779
 20
132.8791063425674
 30
0.0
 11
133.0792835034779
 21
133.0416463425673
 31
0.0
  0
LINE
  5
2CE
330
1F
100
AcDbEntity
  8
140
  6
Continuous
 62
     7
370
    15
100
AcDbLine
 10
134.5585665034779
 20
132.6151643425674
 30
0.0
 11
135.4628315034779
 21
133.5194293425674
 31
0.0
  0
LINE
  5
2CF
330
1F
100
AcDbEntity
  8
140
  6
Continuous
 62
     7
370
    15
100
AcDbLine
 10
134.2640495034778
 20
132.6742013425674
 30
0.0
 11
135.0206405034778
 21
133.4307923425673
 31
0.0
  0
LINE
  5
2D0
330
1F
100
AcDbEntity
  8
140
  6
Continuous
 62
     7
370
    15
100
AcDbLine
 10
133.9695315034778
 20
132.7332373425673
 30
0.0
 11
134.5784505034778
 21
133.3421553425674
 31
0.0
  0
LINE
  5
2D1
330
1F
100
AcDbEntity
  8
140
  6
Continuous
 62
     7
370
    15
100
AcDbLine
 10
133.6750145034779
 20
132.7922733425673
 30
0.0
 11
134.1362595034778
 21
133.2535173425674
 31
0.0
  0
LINE
  5
2D2
330
1F
100
AcDbEntity
  8
140
  6
Continuous
 62
     7
370
    15
100
AcDbLine
 10
133.3804975034778
 20
132.8513093425674
 30
0.0
 11
133.6940685034779
 21
133.1648803425674
 31
0.0
  0
LINE
  5
2D3
330
1F
100
AcDbEntity
  8
140
  6
Continuous
 62
     7
370
    15
100
AcDbLine
 10
133.0859805034778
 20
132.9103453425674
 30
0.0
 11
133.2518775034779
 21
133.0762433425674
 31
0.0
  0
LINE
  5
2D4
330
1F
100
AcDbEntity
  8
140
  6
Continuous
 62
     7
370
    15
100
AcDbLine
 10
149.0194875034779
 20
125.6840553425674
 30
0.0
 11
151.7653115034778
 21
128.4298793425673
 31
0.0
  0
LINE
  5
2D5
330
1F
100
AcDbEntity
  8
140
  6
Continuous
 62
     7
370
    15
100
AcDbLine
 10
149.8618085034778
 20
125.8192693425673
 30
0.0
 11
152.5144025034779
 21
128.4718633425674
 31
0.0
  0
LINE
  5
2D6
330
1F
100
AcDbEntity
  8
140
  6
Continuous
 62
     7
370
    15
100
AcDbLine
 10
150.6108995034779
 20
125.8612543425673
 30
0.0
 11
153.3288505034778
 21
128.5792053425674
 31
0.0
  0
LINE
  5
2D7
330
1F
100
AcDbEntity
  8
141
  6
Continuous
 62
     5
370
    15
100
AcDbLine
 10
141.5873125034778
 20
123.9521503425673
 30
0.0
 11
145.7265885034778
 21
128.0914253425673
 31
0.0
  0
LINE
  5
2D8
330
1F
100
AcDbEntity
  8
139
  6
Continuous
 62
     7
370
    15
100
AcDbLine
 10
143.1695145034779
 20
127.4166763425674
 30
0.0
 11
143.5466345491317
 21
125.9102491125707
 31
0.0
  0
LINE
  5
2D9
330
1F
100
AcDbEntity
  8
140
  6
Continuous
 62
     7
370
    15
100
AcDbLine
 10
141.5858055034779
 20
123.9072273425674
 30
0.0
 11
145.7725815034779
 21
128.0940033425674
 31
0.0
  0
LINE
  5
2DA
330
1F
100
AcDbEntity
  8
140
  6
Continuous
 62
     7
370
    15
100
AcDbLine
 10
141.5612635034779
 20
123.1755783425673
 30
0.0
 11
146.5216725034778
 21
128.1359883425674
 31
0.0
  0
LINE
  5
2DB
330
1F
100
AcDbEntity
  8
137
  6
DASHDOT
 62
     1
370
    15
100
AcDbLine
 10
140.2762525034778
 20
124.4088573425674
 30
0.0
 11
148.0433875034779
 21
132.1759913425674
 31
0.0
  0
LINE
  5
2DC
330
1F
100
AcDbEntity
  8
140
  6
Continuous
 62
     7
370
    15
100
AcDbLine
 10
141.5367205034779
 20
122.4439293425673
 30
0.0
 11
147.2707635034778
 21
128.1779723425673
 31
0.0
  0
LINE
  5
2DD
330
1F
100
AcDbEntity
  8
140
  6
Continuous
 62
     7
370
    15
100
AcDbLine
 10
141.5121775034779
 20
121.7122793425673
 30
0.0
 11
148.0198555034779
 21
128.2199573425673
 31
0.0
  0
LINE
  5
2DE
330
1F
100
AcDbEntity
  8
140
  6
Continuous
 62
     7
370
    15
100
AcDbLine
 10
141.4876355034778
 20
120.9806303425673
 30
0.0
 11
148.7689465034779
 21
128.2619413425674
 31
0.0
  0
LINE
  5
2DF
330
1F
100
AcDbEntity
  8
140
  6
Continuous
 62
     7
370
    15
100
AcDbLine
 10
141.4630925034778
 20
120.2489803425674
 30
0.0
 11
149.5180375034779
 21
128.3039263425674
 31
0.0
  0
LINE
  5
2E0
330
1F
100
AcDbEntity
  8
140
  6
Continuous
 62
     7
370
    15
100
AcDbLine
 10
141.4385495034778
 20
119.5173313425674
 30
0.0
 11
150.2671285034778
 21
128.3459103425674
 31
0.0
  0
LINE
  5
2E1
330
1F
100
AcDbEntity
  8
140
  6
Continuous
 62
     7
370
    15
100
AcDbLine
 10
141.4140075034778
 20
118.7856813425674
 30
0.0
 11
151.0162205034778
 21
128.3878943425673
 31
0.0
  0
LINE
  5
2E2
330
1F
100
AcDbEntity
  8
139
  6
Continuous
 62
     7
370
    15
100
AcDbLine
 10
143.1695145034779
 20
127.4166763425674
 30
0.0
 11
149.9189965034778
 21
115.2676093425674
 31
0.0
  0
LINE
  5
2E3
330
1F
100
AcDbEntity
  8
141
  6
Continuous
 62
     5
370
    15
100
AcDbLine
 10
146.7541545034778
 20
121.8233633425673
 30
0.0
 11
145.2765375034778
 21
121.6392093425674
 31
0.0
  0
LINE
  5
2E4
330
1F
100
AcDbEntity
  8
140
  6
Continuous
 62
     7
370
    15
100
AcDbLine
 10
144.8600615034778
 20
121.5246293425674
 30
0.0
 11
148.2219485034778
 21
124.8865163425673
 31
0.0
  0
LINE
  5
2E5
330
1F
100
AcDbEntity
  8
140
  6
Continuous
 62
     7
370
    15
100
AcDbLine
 10
141.3894645034778
 20
118.0540323425674
 30
0.0
 11
144.0881415034779
 21
120.7527093425674
 31
0.0
  0
ARC
  5
2E6
330
1F
100
AcDbEntity
  8
141
  6
Continuous
 62
     5
370
    15
100
AcDbCircle
 10
145.4620465034778
 20
120.1507243425673
 30
0.0
 40
1.5
100
AcDbArc
 50
97.10408999999589
 51
178.0787760000013
  0
LINE
  5
2E7
330
1F
100
AcDbEntity
  8
140
  6
Continuous
 62
     7
370
    15
100
AcDbLine
 10
141.3649215034778
 20
117.3223833425674
 30
0.0
 11
143.9531485034779
 21
119.9106093425673
 31
0.0
  0
LINE
  5
2E8
330
1F
100
AcDbEntity
  8
140
  6
Continuous
 62
     7
370
    15
100
AcDbLine
 10
141.2667515034778
 20
114.3957853425674
 30
0.0
 11
143.8549775034779
 21
116.9840113425674
 31
0.0
  0
LINE
  5
2E9
330
1F
100
AcDbEntity
  8
140
  6
Continuous
 62
     7
370
    15
100
AcDbLine
 10
141.3403795034778
 20
116.5907333425674
 30
0.0
 11
143.9286055034778
 21
119.1789593425674
 31
0.0
  0
LINE
  5
2EA
330
1F
100
AcDbEntity
  8
140
  6
Continuous
 62
     7
370
    15
100
AcDbLine
 10
141.3158365034778
 20
115.8590843425674
 30
0.0
 11
143.9040625034778
 21
118.4473103425674
 31
0.0
  0
LINE
  5
2EB
330
1F
100
AcDbEntity
  8
140
  6
Continuous
 62
     7
370
    15
100
AcDbLine
 10
141.2912935034778
 20
115.1274343425674
 30
0.0
 11
143.8795205034779
 21
117.7156613425674
 31
0.0
  0
LINE
  5
2EC
330
1F
100
AcDbEntity
  8
141
  6
Continuous
 62
     5
370
    15
100
AcDbLine
 10
148.1044055034779
 20
124.3527293425674
 30
0.0
 11
148.0678035034779
 21
123.2615603425673
 31
0.0
  0
ARC
  5
2ED
330
1F
100
AcDbEntity
  8
141
  6
Continuous
 62
     5
370
    15
100
AcDbCircle
 10
149.6035625034779
 20
124.3024413425674
 30
0.0
 40
1.5
100
AcDbArc
 50
93.20791199999584
 51
178.0787760000013
  0
ARC
  5
2EE
330
1F
100
AcDbEntity
  8
141
  6
Continuous
 62
     5
370
    15
100
AcDbCircle
 10
146.5686465034779
 20
123.3118483425673
 30
0.0
 40
1.5
100
AcDbArc
 50
277.1040899999955
 51
358.0787760000009
  0
LINE
  5
2EF
330
1F
100
AcDbEntity
  8
140
  6
Continuous
 62
     7
370
    15
100
AcDbLine
 10
145.7394395034779
 20
121.6969003425673
 30
0.0
 11
148.0943105034778
 21
124.0517713425673
 31
0.0
  0
LINE
  5
2F0
330
1F
100
AcDbEntity
  8
140
  6
Continuous
 62
     7
370
    15
100
AcDbLine
 10
146.5472185034779
 20
121.7975733425673
 30
0.0
 11
148.0697675034779
 21
123.3201223425673
 31
0.0
  0
ARC
  5
2F1
330
1F
100
AcDbEntity
  8
141
  6
Continuous
 62
     5
370
    15
100
AcDbCircle
 10
145.5327915034778
 20
130.0837023425673
 30
0.0
 40
2.0
100
AcDbArc
 50
186.3401920000011
 51
273.2079119999955
  0
LINE
  5
2F2
330
1F
100
AcDbEntity
  8
141
  6
Continuous
 62
     5
370
    15
100
AcDbLine
 10
140.7559895034778
 20
131.4818533425674
 30
0.0
 11
140.7559895034778
 21
134.4818533425674
 31
0.0
  0
ARC
  5
2F3
330
1F
100
AcDbEntity
  8
136
  6
Continuous
 62
     7
370
    15
100
AcDbCircle
 10
139.7559895034778
 20
132.0818533425673
 30
0.0
 40
0.5
100
AcDbArc
 50
269.9999999999998
 51
0.0
  0
LINE
  5
2F4
330
1F
100
AcDbEntity
  8
140
  6
Continuous
 62
     7
370
    15
100
AcDbLine
 10
140.7559895034778
 20
131.7866143425674
 30
0.0
 11
143.0737435034779
 21
134.1043683425673
 31
0.0
  0
ARC
  5
2F5
330
1F
100
AcDbEntity
  8
136
  6
Continuous
 62
     7
370
    15
100
AcDbCircle
 10
137.2559895034778
 20
131.5645193425673
 30
0.0
 40
0.5
100
AcDbArc
 50
1.986728184670843
 51
78.66525300000127
  0
LINE
  5
2F6
330
1F
100
AcDbEntity
  8
140
  6
Continuous
 62
     7
370
    15
100
AcDbLine
 10
139.4888235034779
 20
131.5818533425673
 30
0.0
 11
137.2025245034779
 21
133.8681523425674
 31
0.0
  0
LINE
  5
2F7
330
1F
100
AcDbEntity
  8
140
  6
Continuous
 62
     7
370
    15
100
AcDbLine
 10
139.1352705034778
 20
131.5818533425673
 30
0.0
 11
136.9080075034778
 21
133.8091163425674
 31
0.0
  0
LINE
  5
2F8
330
1F
100
AcDbEntity
  8
140
  6
Continuous
 62
     7
370
    15
100
AcDbLine
 10
138.7817175034778
 20
131.5818533425673
 30
0.0
 11
136.6134905034778
 21
133.7500793425673
 31
0.0
  0
LINE
  5
2F9
330
1F
100
AcDbEntity
  8
140
  6
Continuous
 62
     7
370
    15
100
AcDbLine
 10
138.4281635034779
 20
131.5818533425673
 30
0.0
 11
136.3189725034779
 21
133.6910433425674
 31
0.0
  0
LINE
  5
2FA
330
1F
100
AcDbEntity
  8
140
  6
Continuous
 62
     7
370
    15
100
AcDbLine
 10
138.0746105034779
 20
131.5818533425673
 30
0.0
 11
136.0244555034778
 21
133.6320073425674
 31
0.0
  0
LINE
  5
2FB
330
1F
100
AcDbEntity
  8
140
  6
Continuous
 62
     7
370
    15
100
AcDbLine
 10
140.2243965034779
 20
131.9069403425674
 30
0.0
 11
137.7558125034778
 21
134.3755243425674
 31
0.0
  0
LINE
  5
2FC
330
1F
100
AcDbEntity
  8
140
  6
Continuous
 62
     7
370
    15
100
AcDbLine
 10
140.0782355034779
 20
131.6995483425674
 30
0.0
 11
137.6697235034778
 21
134.1080593425673
 31
0.0
  0
LINE
  5
2FD
330
1F
100
AcDbEntity
  8
140
  6
Continuous
 62
     7
370
    15
100
AcDbLine
 10
139.8359435034779
 20
131.5882873425674
 30
0.0
 11
137.4816135034779
 21
133.9426163425674
 31
0.0
  0
LINE
  5
2FE
330
1F
100
AcDbEntity
  8
140
  6
Continuous
 62
     7
370
    15
100
AcDbLine
 10
138.4750025034779
 20
131.5818533425673
 30
0.0
 11
140.2559895034778
 21
133.3628403425674
 31
0.0
  0
LINE
  5
2FF
330
1F
100
AcDbEntity
  8
140
  6
Continuous
 62
     7
370
    15
100
AcDbLine
 10
138.8285555034779
 20
131.5818533425673
 30
0.0
 11
140.2559895034778
 21
133.0092863425673
 31
0.0
  0
LINE
  5
300
330
1F
100
AcDbEntity
  8
140
  6
Continuous
 62
     7
370
    15
100
AcDbLine
 10
139.1821085034778
 20
131.5818533425673
 30
0.0
 11
140.2559895034778
 21
132.6557333425674
 31
0.0
  0
LINE
  5
301
330
1F
100
AcDbEntity
  8
140
  6
Continuous
 62
     7
370
    15
100
AcDbLine
 10
139.5356625034779
 20
131.5818533425673
 30
0.0
 11
140.2559895034778
 21
132.3021793425673
 31
0.0
  0
LINE
  5
302
330
1F
100
AcDbEntity
  8
140
  6
Continuous
 62
     7
370
    15
100
AcDbLine
 10
138.1214485034778
 20
131.5818533425673
 30
0.0
 11
140.2559895034778
 21
133.7163933425674
 31
0.0
  0
LINE
  5
303
330
1F
100
AcDbEntity
  8
140
  6
Continuous
 62
     7
370
    15
100
AcDbLine
 10
137.7678955034779
 20
131.5818533425673
 30
0.0
 11
140.2292415034779
 21
134.0431983425673
 31
0.0
  0
LINE
  5
304
330
1F
100
AcDbEntity
  8
140
  6
Continuous
 62
     7
370
    15
100
AcDbLine
 10
137.6729495034779
 20
131.8404603425674
 30
0.0
 11
140.0881055034779
 21
134.2556163425674
 31
0.0
  0
LINE
  5
305
330
1F
100
AcDbEntity
  8
140
  6
Continuous
 62
     7
370
    15
100
AcDbLine
 10
137.4869275034779
 20
132.0079913425674
 30
0.0
 11
139.8515685034779
 21
134.3726323425674
 31
0.0
  0
LINE
  5
306
330
1F
100
AcDbEntity
  8
141
  6
Continuous
 62
     5
370
    15
100
AcDbLine
 10
142.8034435034779
 20
136.5370683425674
 30
0.0
 11
143.5450245034779
 21
129.8628393425674
 31
0.0
  0
LINE
  5
307
330
1F
100
AcDbEntity
  8
140
  6
Continuous
 62
     7
370
    15
100
AcDbLine
 10
138.6583355034778
 20
128.9818533425674
 30
0.0
 11
143.1444535034778
 21
133.4679713425674
 31
0.0
  0
LINE
  5
308
330
1F
100
AcDbEntity
  8
140
  6
Continuous
 62
     7
370
    15
100
AcDbLine
 10
139.3654415034779
 20
128.9818533425674
 30
0.0
 11
143.2151645034778
 21
132.8315753425674
 31
0.0
  0
LINE
  5
309
330
1F
100
AcDbEntity
  8
140
  6
Continuous
 62
     7
370
    15
100
AcDbLine
 10
140.0725485034778
 20
128.9818533425674
 30
0.0
 11
143.2858755034779
 21
132.1951793425674
 31
0.0
  0
ARC
  5
30A
330
1F
100
AcDbEntity
  8
141
  6
Continuous
 62
     5
370
    15
100
AcDbCircle
 10
140.2048705034779
 20
127.4818533425674
 30
0.0
 40
1.5
100
AcDbArc
 50
358.0787760000009
 51
89.99999999999991
  0
LINE
  5
30B
330
1F
100
AcDbEntity
  8
140
  6
Continuous
 62
     7
370
    15
100
AcDbLine
 10
137.9512285034779
 20
128.9818533425674
 30
0.0
 11
140.4512285034779
 21
131.4818533425674
 31
0.0
  0
LINE
  5
30C
330
1F
100
AcDbEntity
  8
140
  6
Continuous
 62
     7
370
    15
100
AcDbLine
 10
139.9152615034778
 20
131.6078993425674
 30
0.0
 11
140.2299435034779
 21
131.9225803425674
 31
0.0
  0
LINE
  5
30D
330
1F
100
AcDbEntity
  8
140
  6
Continuous
 62
     7
370
    15
100
AcDbLine
 10
137.7559895034778
 20
130.9079343425674
 30
0.0
 11
138.3299075034779
 21
131.4818533425674
 31
0.0
  0
LINE
  5
30E
330
1F
100
AcDbEntity
  8
136
  6
Continuous
 62
     7
370
    15
100
AcDbLine
 10
139.7559895034778
 20
131.5818533425673
 30
0.0
 11
137.7556889455868
 21
131.5818533425673
 31
0.0
  0
LINE
  5
30F
330
1F
100
AcDbEntity
  8
141
  6
Continuous
 62
     5
370
    15
100
AcDbLine
 10
137.7559895034778
 20
128.9818533425674
 30
0.0
 11
137.7559895034778
 21
131.4818533425674
 31
0.0
  0
LINE
  5
310
330
1F
100
AcDbEntity
  8
140
  6
Continuous
 62
     7
370
    15
100
AcDbLine
 10
137.7559895034778
 20
130.2008273425674
 30
0.0
 11
139.0370145034778
 21
131.4818533425674
 31
0.0
  0
LINE
  5
311
330
1F
100
AcDbEntity
  8
140
  6
Continuous
 62
     7
370
    15
100
AcDbLine
 10
137.7559895034778
 20
129.4937203425673
 30
0.0
 11
139.7441215034779
 21
131.4818533425674
 31
0.0
  0
LINE
  5
312
330
1F
100
AcDbEntity
  8
141
  6
Continuous
 62
     5
370
    15
100
AcDbLine
 10
141.7100255034778
 20
127.6103973425674
 30
0.0
 11
143.5867685034779
 21
129.4871403425674
 31
0.0
  0
LINE
  5
313
330
1F
100
AcDbEntity
  8
139
  6
Continuous
 62
     7
370
    15
100
AcDbLine
 10
143.1695145034779
 20
127.4166763425674
 30
0.0
 11
144.2493240149665
 21
126.3006321684252
 31
0.0
  0
LINE
  5
314
330
1F
100
AcDbEntity
  8
140
  6
Continuous
 62
     7
370
    15
100
AcDbLine
 10
141.4814645034778
 20
128.2694483425673
 30
0.0
 11
143.4980075034779
 21
130.2859913425674
 31
0.0
  0
LINE
  5
315
330
1F
100
AcDbEntity
  8
140
  6
Continuous
 62
     7
370
    15
100
AcDbLine
 10
141.6788985034779
 20
127.7597753425674
 30
0.0
 11
143.5783545034778
 21
129.6592313425674
 31
0.0
  0
LINE
  5
316
330
1F
100
AcDbEntity
  8
140
  6
Continuous
 62
     7
370
    15
100
AcDbLine
 10
140.6967235034779
 20
128.8989203425674
 30
0.0
 11
143.3565855034778
 21
131.5587833425674
 31
0.0
  0
LINE
  5
317
330
1F
100
AcDbEntity
  8
140
  6
Continuous
 62
     7
370
    15
100
AcDbLine
 10
141.1508555034778
 20
128.6459463425674
 30
0.0
 11
143.4272965034779
 21
130.9223873425674
 31
0.0
  0
LINE
  5
318
330
1F
100
AcDbEntity
  8
139
  6
Continuous
 62
     7
370
    15
100
AcDbLine
 10
81.05043625598853
 20
133.9072103669416
 30
0.0
 11
79.9706267444999
 21
135.0232545410837
 31
0.0
  0
LINE
  5
319
330
1F
100
AcDbEntity
  8
140
  6
Continuous
 62
     7
370
    15
100
AcDbLine
 10
139.9156945034779
 20
134.4818533425674
 30
0.0
 11
142.4057455034779
 21
136.9719043425674
 31
0.0
  0
LINE
  5
31A
330
1F
100
AcDbEntity
  8
140
  6
Continuous
 62
     7
370
    15
100
AcDbLine
 10
138.5014805034779
 20
134.4818533425674
 30
0.0
 11
141.0014805034779
 21
136.9818533425673
 31
0.0
  0
LINE
  5
31B
330
1F
100
AcDbEntity
  8
140
  6
Continuous
 62
     7
370
    15
100
AcDbLine
 10
139.2085875034778
 20
134.4818533425674
 30
0.0
 11
141.7085875034778
 21
136.9818533425673
 31
0.0
  0
LINE
  5
31C
330
1F
100
AcDbEntity
  8
139
  6
Continuous
 62
     7
370
    15
100
AcDbLine
 10
81.05043625598853
 20
133.9072103669416
 30
0.0
 11
80.67331621033475
 21
135.4136375969383
 31
0.0
  0
LINE
  5
31D
330
1F
100
AcDbEntity
  8
136
  6
Continuous
 62
     7
370
    15
100
AcDbLine
 10
140.2559895034778
 20
132.0818533425673
 30
0.0
 11
140.2559895034778
 21
133.8818533425674
 31
0.0
  0
ARC
  5
31E
330
1F
100
AcDbEntity
  8
136
  6
Continuous
 62
     7
370
    15
100
AcDbCircle
 10
139.7559895034778
 20
133.8818533425674
 30
0.0
 40
0.5
100
AcDbArc
 50
0.0
 51
89.99999999999991
  0
LINE
  5
31F
330
1F
100
AcDbEntity
  8
140
  6
Continuous
 62
     7
370
    15
100
AcDbLine
 10
140.2380405034778
 20
134.0146163425674
 30
0.0
 11
139.8887525034779
 21
134.3639043425674
 31
0.0
  0
LINE
  5
320
330
1F
100
AcDbEntity
  8
141
  6
Continuous
 62
     5
370
    15
100
AcDbLine
 10
137.7559895034778
 20
134.4818533425674
 30
0.0
 11
137.7559895034778
 21
136.9818533425673
 31
0.0
  0
ARC
  5
321
330
1F
100
AcDbEntity
  8
136
  6
Continuous
 62
     7
370
    15
100
AcDbCircle
 10
137.2559895034778
 20
134.3888153425674
 30
0.0
 40
0.5
100
AcDbArc
 50
281.3347469999984
 51
359.2021877849651
  0
LINE
  5
322
330
1F
100
AcDbEntity
  8
140
  6
Continuous
 62
     7
370
    15
100
AcDbLine
 10
137.7559895034778
 20
135.1505753425674
 30
0.0
 11
139.5872675034778
 21
136.9818533425673
 31
0.0
  0
LINE
  5
323
330
1F
100
AcDbEntity
  8
140
  6
Continuous
 62
     7
370
    15
100
AcDbLine
 10
137.7559895034778
 20
135.8576813425674
 30
0.0
 11
138.8801605034779
 21
136.9818533425673
 31
0.0
  0
LINE
  5
324
330
1F
100
AcDbEntity
  8
140
  6
Continuous
 62
     7
370
    15
100
AcDbLine
 10
137.7559895034778
 20
136.5647883425674
 30
0.0
 11
138.1730535034778
 21
136.9818533425673
 31
0.0
  0
LINE
  5
325
330
1F
100
AcDbEntity
  8
140
  6
Continuous
 62
     7
370
    15
100
AcDbLine
 10
137.2215395034779
 20
132.0813703425674
 30
0.0
 11
135.7299385034779
 21
133.5729713425673
 31
0.0
  0
LINE
  5
326
330
1F
100
AcDbEntity
  8
140
  6
Continuous
 62
     7
370
    15
100
AcDbLine
 10
137.2092215034779
 20
132.0838393425674
 30
0.0
 11
139.5072355034779
 21
134.3818533425674
 31
0.0
  0
LINE
  5
327
330
1F
100
AcDbEntity
  8
140
  6
Continuous
 62
     7
370
    15
100
AcDbLine
 10
136.9147045034779
 20
132.1428753425674
 30
0.0
 11
139.1536815034779
 21
134.3818533425674
 31
0.0
  0
LINE
  5
328
330
1F
100
AcDbEntity
  8
140
  6
Continuous
 62
     7
370
    15
100
AcDbLine
 10
136.6201875034778
 20
132.2019123425674
 30
0.0
 11
138.8001285034778
 21
134.3818533425674
 31
0.0
  0
LINE
  5
329
330
1F
100
AcDbEntity
  8
140
  6
Continuous
 62
     7
370
    15
100
AcDbLine
 10
136.3256705034779
 20
132.2609483425674
 30
0.0
 11
138.4465755034779
 21
134.3818533425674
 31
0.0
  0
LINE
  5
32A
330
1F
100
AcDbEntity
  8
140
  6
Continuous
 62
     7
370
    15
100
AcDbLine
 10
136.0311525034779
 20
132.3199843425674
 30
0.0
 11
138.0930215034779
 21
134.3818533425674
 31
0.0
  0
LINE
  5
32B
330
1F
100
AcDbEntity
  8
140
  6
Continuous
 62
     7
370
    15
100
AcDbLine
 10
135.7366355034778
 20
132.3790203425673
 30
0.0
 11
137.2315945034778
 21
133.8739793425673
 31
0.0
  0
LINE
  5
32C
330
1F
100
AcDbEntity
  8
136
  6
Continuous
 62
     7
370
    15
100
AcDbLine
 10
139.7559895034778
 20
134.3818533425674
 30
0.0
 11
137.7559410316843
 21
134.3818533425674
 31
0.0
  0
LINE
  5
32D
330
1F
100
AcDbEntity
  8
140
  6
Continuous
 62
     7
370
    15
100
AcDbLine
 10
137.7943735034779
 20
134.4818533425674
 30
0.0
 11
140.2943735034779
 21
136.9818533425673
 31
0.0
  0
LINE
  5
32E
330
1F
100
AcDbEntity
  8
140
  6
Continuous
 62
     7
370
    15
100
AcDbLine
 10
140.2559895034778
 20
133.2895613425674
 30
0.0
 11
139.1636975034779
 21
134.3818533425674
 31
0.0
  0
LINE
  5
32F
330
1F
100
AcDbEntity
  8
140
  6
Continuous
 62
     7
370
    15
100
AcDbLine
 10
140.2559895034778
 20
133.6431143425674
 30
0.0
 11
139.5172515034778
 21
134.3818533425674
 31
0.0
  0
LINE
  5
330
330
1F
100
AcDbEntity
  8
140
  6
Continuous
 62
     7
370
    15
100
AcDbLine
 10
140.2559895034778
 20
132.9360083425674
 30
0.0
 11
138.8101445034779
 21
134.3818533425674
 31
0.0
  0
LINE
  5
331
330
1F
100
AcDbEntity
  8
140
  6
Continuous
 62
     7
370
    15
100
AcDbLine
 10
140.2559895034778
 20
132.5824543425674
 30
0.0
 11
138.4565905034779
 21
134.3818533425674
 31
0.0
  0
LINE
  5
332
330
1F
100
AcDbEntity
  8
140
  6
Continuous
 62
     7
370
    15
100
AcDbLine
 10
140.2559895034778
 20
132.2289013425674
 30
0.0
 11
138.1030375034778
 21
134.3818533425674
 31
0.0
  0
ARC
  5
333
330
1F
100
AcDbEntity
  8
141
  6
Continuous
 62
     5
370
    15
100
AcDbCircle
 10
142.3065015034779
 20
136.4818533425673
 30
0.0
 40
0.5
100
AcDbArc
 50
6.340192000001468
 51
89.99999999999991
  0
LINE
  5
334
330
1F
100
AcDbEntity
  8
140
  6
Continuous
 62
     7
370
    15
100
AcDbLine
 10
140.6228015034778
 20
134.4818533425674
 30
0.0
 11
142.7808605034778
 21
136.6399123425674
 31
0.0
  0
LINE
  5
335
330
1F
100
AcDbEntity
  8
140
  6
Continuous
 62
     7
370
    15
100
AcDbLine
 10
140.7559895034778
 20
133.9079343425674
 30
0.0
 11
142.8616115034779
 21
136.0135563425674
 31
0.0
  0
LINE
  5
336
330
1F
100
AcDbEntity
  8
140
  6
Continuous
 62
     7
370
    15
100
AcDbLine
 10
140.7559895034778
 20
133.2008273425674
 30
0.0
 11
142.9323215034779
 21
135.3771603425674
 31
0.0
  0
LINE
  5
337
330
1F
100
AcDbEntity
  8
140
  6
Continuous
 62
     7
370
    15
100
AcDbLine
 10
140.7559895034778
 20
132.4937203425673
 30
0.0
 11
143.0030325034778
 21
134.7407643425674
 31
0.0
  0
LINE
  5
338
330
1F
100
AcDbEntity
  8
141
  6
Continuous
 62
     5
370
    15
100
AcDbLine
 10
154.6252075034779
 20
132.4128883425674
 30
0.0
 11
153.9060915034779
 21
129.2735203425673
 31
0.0
  0
LINE
  5
339
330
1F
100
AcDbEntity
  8
141
  6
Continuous
 62
     5
370
    15
100
AcDbLine
 10
152.9872965034779
 20
128.4983683425673
 30
0.0
 11
145.6447105034779
 21
128.0868363425674
 31
0.0
  0
ARC
  5
33A
330
1F
100
AcDbEntity
  8
141
  6
Continuous
 62
     5
370
    15
100
AcDbCircle
 10
152.9313365034778
 20
129.4968013425674
 30
0.0
 40
1.0
100
AcDbArc
 50
273.2079119999955
 51
347.0981779999963
  0
LINE
  5
33B
330
1F
100
AcDbEntity
  8
141
  6
Continuous
 62
     5
370
    15
100
AcDbLine
 10
154.6241165034778
 20
132.4047693425674
 30
0.0
 11
154.6582435034778
 21
132.4900883425674
 31
0.0
  0
LINE
  5
33C
330
1F
100
AcDbEntity
  8
141
  6
Continuous
 62
     5
370
    15
100
AcDbLine
 10
175.2530863611806
 20
130.4818533425674
 30
0.0
 11
174.2563045034778
 21
134.4843143425674
 31
0.0
  0
LINE
  5
33D
330
1F
100
AcDbEntity
  8
140
  6
Continuous
 62
     7
370
    15
100
AcDbLine
 10
172.9091685034779
 20
130.4818533425674
 30
0.0
 11
174.7857405034779
 21
132.3584253425674
 31
0.0
  0
LINE
  5
33E
330
1F
100
AcDbEntity
  8
140
  6
Continuous
 62
     7
370
    15
100
AcDbLine
 10
173.6162745034778
 20
130.4818533425674
 30
0.0
 11
174.9267275034779
 21
131.7923063425674
 31
0.0
  0
LINE
  5
33F
330
1F
100
AcDbEntity
  8
140
  6
Continuous
 62
     7
370
    15
100
AcDbLine
 10
174.3233815034779
 20
130.4818533425674
 30
0.0
 11
175.0677155034779
 21
131.2261863425674
 31
0.0
  0
LINE
  5
340
330
1F
100
AcDbEntity
  8
141
  6
Continuous
 62
     5
370
    15
100
AcDbLine
 10
175.2530863611806
 20
130.4818533425674
 30
0.0
 11
169.2674815034778
 21
130.4818533425674
 31
0.0
  0
LINE
  5
341
330
1F
100
AcDbEntity
  8
140
  6
Continuous
 62
     7
370
    15
100
AcDbLine
 10
155.1054475034779
 20
126.1131613425674
 30
0.0
 11
157.7580415034779
 21
128.7657553425674
 31
0.0
  0
LINE
  5
342
330
1F
100
AcDbEntity
  8
141
  6
Continuous
 62
     5
370
    15
100
AcDbLine
 10
169.2659225034779
 20
130.4809633425673
 30
0.0
 11
162.2565115034779
 21
126.4823063425674
 31
0.0
  0
LINE
  5
343
330
1F
100
AcDbEntity
  8
140
  6
Continuous
 62
     7
370
    15
100
AcDbLine
 10
162.9296855034779
 20
126.8663313425674
 30
0.0
 11
168.0062285034778
 21
131.9428743425673
 31
0.0
  0
LINE
  5
344
330
1F
100
AcDbEntity
  8
140
  6
Continuous
 62
     7
370
    15
100
AcDbLine
 10
164.5759185034779
 20
127.8054573425674
 30
0.0
 11
169.3537345034779
 21
132.5832733425673
 31
0.0
  0
LINE
  5
345
330
1F
100
AcDbEntity
  8
141
  6
Continuous
 62
     5
370
    15
100
AcDbLine
 10
171.2559895034777
 20
133.4873155997977
 30
0.0
 11
161.8775965034779
 21
129.0302573425674
 31
0.0
  0
LINE
  5
346
330
1F
100
AcDbEntity
  8
140
  6
Continuous
 62
     7
370
    15
100
AcDbLine
 10
161.0981775034779
 20
126.4490363425674
 30
0.0
 11
165.3112185034779
 21
130.6620773425674
 31
0.0
  0
LINE
  5
347
330
1F
100
AcDbEntity
  8
140
  6
Continuous
 62
     7
370
    15
100
AcDbLine
 10
161.8472685034778
 20
126.4910213425674
 30
0.0
 11
166.6587235034779
 21
131.3024763425674
 31
0.0
  0
LINE
  5
348
330
1F
100
AcDbEntity
  8
141
  6
Continuous
 62
     5
370
    15
100
AcDbLine
 10
155.8799175034778
 20
132.4031303425674
 30
0.0
 11
156.3985970579882
 21
130.1919163722883
 31
0.0
  0
LINE
  5
349
330
1F
100
AcDbEntity
  8
141
  6
Continuous
 62
     5
370
    15
100
AcDbLine
 10
161.7467205034778
 20
128.9893093425674
 30
0.0
 11
157.5843145034779
 21
128.7560183425674
 31
0.0
  0
LINE
  5
34A
330
1F
100
AcDbEntity
  8
140
  6
Continuous
 62
     7
370
    15
100
AcDbLine
 10
157.3527215034778
 20
126.2391143425673
 30
0.0
 11
160.0053155034778
 21
128.8917083425674
 31
0.0
  0
LINE
  5
34B
330
1F
100
AcDbEntity
  8
140
  6
Continuous
 62
     7
370
    15
100
AcDbLine
 10
158.1018125034778
 20
126.2810993425674
 30
0.0
 11
160.7544065034779
 21
128.9336933425674
 31
0.0
  0
LINE
  5
34C
330
1F
100
AcDbEntity
  8
140
  6
Continuous
 62
     7
370
    15
100
AcDbLine
 10
158.8509035034779
 20
126.3230833425674
 30
0.0
 11
161.5034975034779
 21
128.9756773425673
 31
0.0
  0
LINE
  5
34D
330
1F
100
AcDbEntity
  8
140
  6
Continuous
 62
     7
370
    15
100
AcDbLine
 10
159.5999945034779
 20
126.3650673425673
 30
0.0
 11
162.6162075034779
 21
129.3812803425674
 31
0.0
  0
ARC
  5
34E
330
1F
100
AcDbEntity
  8
141
  6
Continuous
 62
     5
370
    15
100
AcDbCircle
 10
157.5283555034779
 20
129.7544513425673
 30
0.0
 40
1.0
100
AcDbArc
 50
193.2010870000003
 51
273.2079119999955
  0
LINE
  5
34F
330
1F
100
AcDbEntity
  8
140
  6
Continuous
 62
     7
370
    15
100
AcDbLine
 10
155.8545385034779
 20
126.1551453425674
 30
0.0
 11
158.5071325034778
 21
128.8077393425673
 31
0.0
  0
LINE
  5
350
330
1F
100
AcDbEntity
  8
140
  6
Continuous
 62
     7
370
    15
100
AcDbLine
 10
156.6036295034778
 20
126.1971303425674
 30
0.0
 11
159.2562235034778
 21
128.8497243425674
 31
0.0
  0
ARC
  5
351
330
1F
100
AcDbEntity
  8
141
  6
Continuous
 62
     5
370
    15
100
AcDbCircle
 10
161.6629775034779
 20
129.4818533425674
 30
0.0
 40
0.5
100
AcDbArc
 50
269.9999999999998
 51
295.4192880000024
  0
LINE
  5
352
330
1F
100
AcDbEntity
  8
140
  6
Continuous
 62
     7
370
    15
100
AcDbLine
 10
160.3490865034779
 20
126.4070523425673
 30
0.0
 11
163.9637125034778
 21
130.0216793425674
 31
0.0
  0
ARC
  5
353
330
1F
100
AcDbEntity
  8
141
  6
Continuous
 62
     5
370
    15
100
AcDbCircle
 10
155.1497365034778
 20
132.2318533425674
 30
0.0
 40
0.75
100
AcDbArc
 50
13.20108700000013
 51
81.85549899999707
  0
LINE
  5
354
330
1F
100
AcDbEntity
  8
140
  6
Continuous
 62
     7
370
    15
100
AcDbLine
 10
170.0807405034778
 20
130.4818533425674
 30
0.0
 11
174.0807405034778
 21
134.4818533425674
 31
0.0
  0
LINE
  5
355
330
1F
100
AcDbEntity
  8
140
  6
Continuous
 62
     7
370
    15
100
AcDbLine
 10
170.7878475034779
 20
130.4818533425674
 30
0.0
 11
174.3627775034779
 21
134.0567833425674
 31
0.0
  0
LINE
  5
356
330
1F
100
AcDbEntity
  8
140
  6
Continuous
 62
     7
370
    15
100
AcDbLine
 10
171.4949545034779
 20
130.4818533425674
 30
0.0
 11
174.5037655034779
 21
133.4906633425674
 31
0.0
  0
LINE
  5
357
330
1F
100
AcDbEntity
  8
140
  6
Continuous
 62
     7
370
    15
100
AcDbLine
 10
172.2020615034778
 20
130.4818533425674
 30
0.0
 11
174.6447525034779
 21
132.9245443425673
 31
0.0
  0
LINE
  5
358
330
1F
100
AcDbEntity
  8
140
  6
Continuous
 62
     7
370
    15
100
AcDbLine
 10
169.3736345034779
 20
130.4818533425674
 30
0.0
 11
173.3736345034779
 21
134.4818533425674
 31
0.0
  0
LINE
  5
359
330
1F
100
AcDbEntity
  8
140
  6
Continuous
 62
     7
370
    15
100
AcDbLine
 10
166.2221515034779
 20
128.7445843425674
 30
0.0
 11
170.7012395034778
 21
133.2236723425673
 31
0.0
  0
LINE
  5
35A
330
1F
100
AcDbEntity
  8
140
  6
Continuous
 62
     7
370
    15
100
AcDbLine
 10
167.8683845034778
 20
129.6837103425674
 30
0.0
 11
172.6665275034778
 21
134.4818533425674
 31
0.0
  0
LINE
  5
35B
330
1F
100
AcDbEntity
  8
141
  6
Continuous
 62
     5
370
    15
100
AcDbLine
 10
171.2559895034777
 20
133.4873155997977
 30
0.0
 11
171.2559895034778
 21
134.4818533425674
 31
0.0
  0
LINE
  5
35C
330
1F
100
AcDbEntity
  8
140
  6
Continuous
 62
     7
370
    15
100
AcDbLine
 10
171.2559895034778
 20
133.7784213425674
 30
0.0
 11
171.9594205034779
 21
134.4818533425674
 31
0.0
  0
LINE
  5
35D
330
1F
100
AcDbEntity
  8
140
  6
Continuous
 62
     7
370
    15
100
AcDbLine
 10
175.0304885034778
 20
130.4818533425674
 30
0.0
 11
175.2087035034779
 21
130.6600673425673
 31
0.0
  0
LINE
  5
35E
330
1F
100
AcDbEntity
  8
138
  6
Continuous
 62
     4
370
    15
100
AcDbLine
 10
87.75598950347785
 20
146.9819043212746
 30
0.0
 11
132.7559895034778
 21
146.9819043212746
 31
0.0
  0
LINE
  5
35F
330
1F
100
AcDbEntity
  8
138
  6
Continuous
 62
     4
370
    15
100
AcDbLine
 10
45.25598950347785
 20
170.9819043212746
 30
0.0
 11
175.2559895034778
 21
170.9819043212746
 31
0.0
  0
LINE
  5
360
330
1F
100
AcDbEntity
  8
138
  6
Continuous
 62
     4
370
    15
100
AcDbLine
 10
65.25598950347785
 20
164.9819043212746
 30
0.0
 11
155.2559895034778
 21
164.9819043212746
 31
0.0
  0
LINE
  5
361
330
1F
100
AcDbEntity
  8
138
  6
Continuous
 62
     4
370
    15
100
AcDbLine
 10
79.75598950347785
 20
158.9819043212746
 30
0.0
 11
140.7559895034778
 21
158.9819043212746
 31
0.0
  0
LINE
  5
362
330
1F
100
AcDbEntity
  8
138
  6
Continuous
 62
     4
370
    15
100
AcDbLine
 10
82.75598950347785
 20
152.9819043212746
 30
0.0
 11
137.7559895034778
 21
152.9819043212746
 31
0.0
  0
LINE
  5
363
330
1F
100
AcDbEntity
  8
134
  6
Continuous
 62
     7
370
    15
100
AcDbLine
 10
210.0
 20
297.0
 30
0.0
 11
0.0
 21
297.0
 31
0.0
  0
LINE
  5
364
330
1F
100
AcDbEntity
  8
132
  6
Continuous
 62
     7
370
    35
100
AcDbLine
 10
198.0
 20
285.0
 30
0.0
 11
15.99999999999989
 21
285.0
 31
0.0
  0
LINE
  5
365
330
1F
100
AcDbEntity
  8
139
  6
Continuous
 62
     7
370
    15
100
AcDbLine
 10
38.07152450347792
 20
190.8598855379643
 30
0.0
 11
180.8045345034778
 21
190.8598855379643
 31
0.0
  0
ARC
  5
366
330
1F
100
AcDbEntity
  8
141
  6
Continuous
 62
     5
370
    15
100
AcDbCircle
 10
110.2559895034778
 20
190.8598845379643
 30
0.0
 40
41.5
100
AcDbArc
 50
54.46992899999835
 51
125.5300710000017
  0
ARC
  5
367
330
1F
100
AcDbEntity
  8
141
  6
Continuous
 62
     5
370
    15
100
AcDbCircle
 10
110.2559895034778
 20
190.8598845379643
 30
0.0
 40
40.5
100
AcDbArc
 50
54.46992899999834
 51
125.5300710000017
  0
ARC
  5
368
330
1F
100
AcDbEntity
  8
141
  6
Continuous
 62
     5
370
    15
100
AcDbCircle
 10
110.2559895034778
 20
190.8598845379643
 30
0.0
 40
46.0
100
AcDbArc
 50
54.46992899999834
 51
125.5300710000017
  0
ARC
  5
369
330
1F
100
AcDbEntity
  8
141
  6
HIDDEN
 62
     5
370
    15
100
AcDbCircle
 10
110.2559895034778
 20
190.8598845379643
 30
0.0
 40
65.0
100
AcDbArc
 50
0.0
 51
179.9999999999998
  0
ARC
  5
36A
330
1F
100
AcDbEntity
  8
141
  6
HIDDEN
 62
     5
370
    15
100
AcDbCircle
 10
110.2559895034778
 20
190.8598845379643
 30
0.0
 40
64.0
100
AcDbArc
 50
0.0
 51
179.9999999999998
  0
ARC
  5
36B
330
1F
100
AcDbEntity
  8
141
  6
HIDDEN
 62
     5
370
    15
100
AcDbCircle
 10
110.2559895034778
 20
190.8598845379643
 30
0.0
 40
61.5
100
AcDbArc
 50
0.0
 51
179.9999999999998
  0
ARC
  5
36C
330
1F
100
AcDbEntity
  8
141
  6
HIDDEN
 62
     5
370
    15
100
AcDbCircle
 10
110.2559895034778
 20
190.8598845379643
 30
0.0
 40
51.5
100
AcDbArc
 50
0.0
 51
179.9999999999998
  0
ARC
  5
36D
330
1F
100
AcDbEntity
  8
141
  6
Continuous
 62
     5
370
    15
100
AcDbCircle
 10
110.2559895034778
 20
190.8598845379643
 30
0.0
 40
33.5
100
AcDbArc
 50
3.651529000000223
 51
176.58617
  0
ARC
  5
36E
330
1F
100
AcDbEntity
  8
141
  6
Continuous
 62
     5
370
    15
100
AcDbCircle
 10
110.2559895034778
 20
190.8598845379643
 30
0.0
 40
32.5
100
AcDbArc
 50
0.0
 51
179.9999999999998
  0
ARC
  5
36F
330
1F
100
AcDbEntity
  8
141
  6
Continuous
 62
     5
370
    15
100
AcDbCircle
 10
110.2559895034778
 20
190.8598845379643
 30
0.0
 40
27.5
100
AcDbArc
 50
0.0
 51
179.9999999999998
  0
ARC
  5
370
330
1F
100
AcDbEntity
  8
141
  6
Continuous
 62
     5
370
    15
100
AcDbCircle
 10
110.2559895034778
 20
190.8598845379643
 30
0.0
 40
22.5
100
AcDbArc
 50
0.0
 51
179.9999999999998
  0
ARC
  5
371
330
1F
100
AcDbEntity
  8
141
  6
Continuous
 62
     5
370
    15
100
AcDbCircle
 10
110.2559895034778
 20
190.8598845379643
 30
0.0
 40
13.5
100
AcDbArc
 50
0.0
 51
179.9999999999998
  0
LINE
  5
372
330
1F
100
AcDbEntity
  8
137
  6
DASHDOT
 62
     1
370
    15
100
AcDbLine
 10
110.2559895034778
 20
184.8598855379643
 30
0.0
 11
110.2559895034778
 21
259.308857210142
 31
0.0
  0
TEXT
  5
373
330
1F
100
AcDbEntity
  8
135
  6
Continuous
 62
     7
370
    15
100
AcDbText
 10
38.25806250347767
 20
140.1885850949699
 30
0.0
 40
3.0
  1
5
 50
89.99999999999991
100
AcDbText
  0
LINE
  5
374
330
1F
100
AcDbEntity
  8
138
  6
Continuous
 62
     4
370
    15
100
AcDbLine
 10
45.25598950347785
 20
170.9819043212746
 30
0.0
 11
46.75598950347796
 21
171.3838277273626
 31
0.0
  0
LINE
  5
375
330
1F
100
AcDbEntity
  8
138
  6
Continuous
 62
     4
370
    15
100
AcDbLine
 10
45.25598950347785
 20
170.9819043212746
 30
0.0
 11
46.75598950347796
 21
170.5799798799099
 31
0.0
  0
LINE
  5
376
330
1F
100
AcDbEntity
  8
138
  6
Continuous
 62
     4
370
    15
100
AcDbLine
 10
65.25598950347785
 20
164.9819043212746
 30
0.0
 11
66.75598950347796
 21
164.5799798799098
 31
0.0
  0
LINE
  5
377
330
1F
100
AcDbEntity
  8
138
  6
Continuous
 62
     4
370
    15
100
AcDbLine
 10
65.25598950347785
 20
164.9819043212746
 30
0.0
 11
66.75598950347796
 21
165.3838277273625
 31
0.0
  0
TEXT
  5
378
330
1F
100
AcDbEntity
  8
135
  6
Continuous
 62
     7
370
    15
100
AcDbText
 10
104.7605614283317
 20
159.4840523212746
 30
0.0
 40
3.0
  1
φ122
 41
1.68
100
AcDbText
  0
TEXT
  5
379
330
1F
100
AcDbEntity
  8
135
  6
Continuous
 62
     7
370
    15
100
AcDbText
 10
92.72173250347782
 20
138.7348001028945
 30
0.0
 40
3.0
  1
16
 50
89.99999999999991
100
AcDbText
  0
LINE
  5
37A
330
1F
100
AcDbEntity
  8
138
  6
Continuous
 62
     4
370
    15
100
AcDbLine
 10
87.75598950347785
 20
146.9819043212746
 30
0.0
 11
89.25598950347796
 21
146.5799798799098
 31
0.0
  0
LINE
  5
37B
330
1F
100
AcDbEntity
  8
138
  6
Continuous
 62
     4
370
    15
100
AcDbLine
 10
87.75598950347785
 20
146.9819043212746
 30
0.0
 11
89.25598950347796
 21
147.3838277273625
 31
0.0
  0
LINE
  5
37C
330
1F
100
AcDbEntity
  8
138
  6
Continuous
 62
     4
370
    15
100
AcDbLine
 10
82.75598950347785
 20
152.9819043212746
 30
0.0
 11
84.25598950347796
 21
152.5799798799098
 31
0.0
  0
LINE
  5
37D
330
1F
100
AcDbEntity
  8
138
  6
Continuous
 62
     4
370
    15
100
AcDbLine
 10
82.75598950347785
 20
152.9819043212746
 30
0.0
 11
84.25598950347796
 21
153.3838277273625
 31
0.0
  0
LINE
  5
37E
330
1F
100
AcDbEntity
  8
138
  6
Continuous
 62
     4
370
    15
100
AcDbLine
 10
79.75598950347785
 20
158.9819043212746
 30
0.0
 11
81.25598950347796
 21
158.5799798799098
 31
0.0
  0
LINE
  5
37F
330
1F
100
AcDbEntity
  8
138
  6
Continuous
 62
     4
370
    15
100
AcDbLine
 10
79.75598950347785
 20
158.9819043212746
 30
0.0
 11
81.25598950347796
 21
159.3838277273625
 31
0.0
  0
TEXT
  5
380
330
1F
100
AcDbEntity
  8
135
  6
Continuous
 62
     7
370
    15
100
AcDbText
 10
105.7488094121107
 20
147.4840523212746
 30
0.0
 40
3.0
  1
φ90
 41
1.6
100
AcDbText
  0
TEXT
  5
381
330
1F
100
AcDbEntity
  8
135
  6
Continuous
 62
     7
370
    15
100
AcDbText
 10
103.1666865034778
 20
138.9490590376019
 30
0.0
 40
3.0
  1
5
 50
89.99999999999991
100
AcDbText
  0
TEXT
  5
382
330
1F
100
AcDbEntity
  8
135
  6
Continuous
 62
     7
370
    15
100
AcDbText
 10
104.7605614283317
 20
153.4840523212746
 30
0.0
 40
3.0
  1
φ110
 41
1.68
100
AcDbText
  0
TEXT
  5
383
330
1F
100
AcDbEntity
  8
135
  6
Continuous
 62
     7
370
    15
100
AcDbText
 10
104.6142319413169
 20
171.4840523212746
 30
0.0
 40
3.0
  1
□260
 41
1.68
100
AcDbText
  0
TEXT
  5
384
330
1F
100
AcDbEntity
  8
135
  6
Continuous
 62
     7
370
    15
100
AcDbText
 10
104.7605614283317
 20
165.4840523212746
 30
0.0
 40
3.0
  1
φ180
 41
1.68
100
AcDbText
  0
LINE
  5
385
330
1F
100
AcDbEntity
  8
141
  6
Continuous
 62
     5
370
    15
100
AcDbLine
 10
76.66760550347783
 20
192.8471015379643
 30
0.0
 11
76.58111350347792
 21
192.8243275379643
 31
0.0
  0
LINE
  5
386
330
1F
100
AcDbEntity
  8
137
  6
DASHDOT
 62
     1
370
    15
100
AcDbLine
 10
84.9571125034779
 20
216.0854835379643
 30
0.0
 11
70.63953550347787
 21
230.4030615379643
 31
0.0
  0
ARC
  5
387
330
1F
100
AcDbEntity
  8
141
  6
Continuous
 62
     5
370
    15
100
AcDbCircle
 10
74.59080950347789
 20
216.1987385379643
 30
0.0
 40
2.25
100
AcDbArc
 50
324.6075480000001
 51
45.0
  0
ARC
  5
388
330
1F
100
AcDbEntity
  8
141
  6
Continuous
 62
     5
370
    15
100
AcDbCircle
 10
74.59080950347789
 20
216.1987385379643
 30
0.0
 40
3.25
100
AcDbArc
 50
45.0
 51
144.6075480000002
  0
ARC
  5
389
330
1F
100
AcDbEntity
  8
141
  6
Continuous
 62
     5
370
    15
100
AcDbCircle
 10
110.2559895034778
 20
190.8598845379643
 30
0.0
 40
40.5
100
AcDbArc
 50
144.607548
 51
179.9999999999998
  0
ARC
  5
38A
330
1F
100
AcDbEntity
  8
141
  6
Continuous
 62
     5
370
    15
100
AcDbCircle
 10
110.2559895034778
 20
190.8598845379643
 30
0.0
 40
41.5
100
AcDbArc
 50
144.607548
 51
179.9999999999998
  0
ARC
  5
38B
330
1F
100
AcDbEntity
  8
141
  6
Continuous
 62
     5
370
    15
100
AcDbCircle
 10
110.2559895034778
 20
190.8598845379643
 30
0.0
 40
46.0
100
AcDbArc
 50
144.607548
 51
179.9999999999998
  0
LINE
  5
38C
330
1F
100
AcDbEntity
  8
141
  6
Continuous
 62
     5
370
    15
100
AcDbLine
 10
75.75856650347782
 20
191.0290235379643
 30
0.0
 11
75.75476150347788
 21
190.8547115379643
 31
0.0
  0
LINE
  5
38D
330
1F
100
AcDbEntity
  8
141
  6
Continuous
 62
     5
370
    15
100
AcDbLine
 10
75.76995350347784
 20
191.2020085379643
 30
0.0
 11
75.75856650347782
 21
191.0290235379643
 31
0.0
  0
LINE
  5
38E
330
1F
100
AcDbEntity
  8
141
  6
Continuous
 62
     5
370
    15
100
AcDbLine
 10
75.78883550347791
 20
191.3723495379643
 30
0.0
 11
75.76995350347784
 21
191.2020085379643
 31
0.0
  0
LINE
  5
38F
330
1F
100
AcDbEntity
  8
141
  6
Continuous
 62
     5
370
    15
100
AcDbLine
 10
75.81506850347785
 20
191.5387525379643
 30
0.0
 11
75.78883550347791
 21
191.3723495379643
 31
0.0
  0
LINE
  5
390
330
1F
100
AcDbEntity
  8
141
  6
Continuous
 62
     5
370
    15
100
AcDbLine
 10
75.84845350347791
 20
191.6999485379643
 30
0.0
 11
75.81506850347785
 21
191.5387525379643
 31
0.0
  0
LINE
  5
391
330
1F
100
AcDbEntity
  8
141
  6
Continuous
 62
     5
370
    15
100
AcDbLine
 10
75.88873550347785
 20
191.8547115379643
 30
0.0
 11
75.84845350347791
 21
191.6999485379643
 31
0.0
  0
LINE
  5
392
330
1F
100
AcDbEntity
  8
141
  6
Continuous
 62
     5
370
    15
100
AcDbLine
 10
75.93560950347785
 20
192.0018645379643
 30
0.0
 11
75.88873550347785
 21
191.8547115379643
 31
0.0
  0
LINE
  5
393
330
1F
100
AcDbEntity
  8
141
  6
Continuous
 62
     5
370
    15
100
AcDbLine
 10
75.98871650347792
 20
192.1402865379643
 30
0.0
 11
75.93560950347785
 21
192.0018645379643
 31
0.0
  0
LINE
  5
394
330
1F
100
AcDbEntity
  8
141
  6
Continuous
 62
     5
370
    15
100
AcDbLine
 10
76.04765450347782
 20
192.2689255379643
 30
0.0
 11
75.98871650347792
 21
192.1402865379643
 31
0.0
  0
LINE
  5
395
330
1F
100
AcDbEntity
  8
141
  6
Continuous
 62
     5
370
    15
100
AcDbLine
 10
76.11197350347788
 20
192.3868005379643
 30
0.0
 11
76.04765450347782
 21
192.2689255379643
 31
0.0
  0
LINE
  5
396
330
1F
100
AcDbEntity
  8
141
  6
Continuous
 62
     5
370
    15
100
AcDbLine
 10
76.18118450347788
 20
192.4930155379643
 30
0.0
 11
76.11197350347788
 21
192.3868005379643
 31
0.0
  0
LINE
  5
397
330
1F
100
AcDbEntity
  8
141
  6
Continuous
 62
     5
370
    15
100
AcDbLine
 10
76.25476150347788
 20
192.5867625379643
 30
0.0
 11
76.18118450347788
 21
192.4930155379643
 31
0.0
  0
LINE
  5
398
330
1F
100
AcDbEntity
  8
141
  6
Continuous
 62
     5
370
    15
100
AcDbLine
 10
76.33214350347782
 20
192.6673275379643
 30
0.0
 11
76.25476150347788
 21
192.5867625379643
 31
0.0
  0
LINE
  5
399
330
1F
100
AcDbEntity
  8
141
  6
Continuous
 62
     5
370
    15
100
AcDbLine
 10
76.41274150347783
 20
192.7340965379643
 30
0.0
 11
76.33214350347782
 21
192.6673275379643
 31
0.0
  0
LINE
  5
39A
330
1F
100
AcDbEntity
  8
141
  6
Continuous
 62
     5
370
    15
100
AcDbLine
 10
76.49594250347786
 20
192.7865635379643
 30
0.0
 11
76.41274150347783
 21
192.7340965379643
 31
0.0
  0
LINE
  5
39B
330
1F
100
AcDbEntity
  8
141
  6
Continuous
 62
     5
370
    15
100
AcDbLine
 10
76.58111350347792
 20
192.8243275379643
 30
0.0
 11
76.49594250347786
 21
192.7865635379643
 31
0.0
  0
ARC
  5
39C
330
1F
100
AcDbEntity
  8
141
  6
Continuous
 62
     5
370
    15
100
AcDbCircle
 10
74.59080950347789
 20
216.1987385379643
 30
0.0
 40
2.25
100
AcDbArc
 50
45.0
 51
144.6075480000004
  0
LINE
  5
39D
330
1F
100
AcDbEntity
  8
141
  6
Continuous
 62
     5
370
    15
100
AcDbLine
 10
76.75476150347788
 20
192.8547115379643
 30
0.0
 11
76.66760550347783
 21
192.8471015379643
 31
0.0
  0
LINE
  5
39E
330
1F
100
AcDbEntity
  8
141
  6
Continuous
 62
     5
370
    15
100
AcDbLine
 10
77.75341150347788
 20
191.0290235379643
 30
0.0
 11
77.75721750347782
 21
190.8547115379643
 31
0.0
  0
LINE
  5
39F
330
1F
100
AcDbEntity
  8
141
  6
Continuous
 62
     5
370
    15
100
AcDbLine
 10
77.74202450347786
 20
191.2020085379643
 30
0.0
 11
77.75341150347788
 21
191.0290235379643
 31
0.0
  0
LINE
  5
3A0
330
1F
100
AcDbEntity
  8
141
  6
Continuous
 62
     5
370
    15
100
AcDbLine
 10
77.7231425034779
 20
191.3723495379643
 30
0.0
 11
77.74202450347786
 21
191.2020085379643
 31
0.0
  0
LINE
  5
3A1
330
1F
100
AcDbEntity
  8
141
  6
Continuous
 62
     5
370
    15
100
AcDbLine
 10
77.69690950347785
 20
191.5387525379643
 30
0.0
 11
77.7231425034779
 21
191.3723495379643
 31
0.0
  0
LINE
  5
3A2
330
1F
100
AcDbEntity
  8
141
  6
Continuous
 62
     5
370
    15
100
AcDbLine
 10
77.6635245034779
 20
191.6999485379643
 30
0.0
 11
77.69690950347785
 21
191.5387525379643
 31
0.0
  0
LINE
  5
3A3
330
1F
100
AcDbEntity
  8
141
  6
Continuous
 62
     5
370
    15
100
AcDbLine
 10
77.62324250347785
 20
191.8547115379643
 30
0.0
 11
77.6635245034779
 21
191.6999485379643
 31
0.0
  0
LINE
  5
3A4
330
1F
100
AcDbEntity
  8
141
  6
Continuous
 62
     5
370
    15
100
AcDbLine
 10
77.57636950347785
 20
192.0018645379643
 30
0.0
 11
77.62324250347785
 21
191.8547115379643
 31
0.0
  0
LINE
  5
3A5
330
1F
100
AcDbEntity
  8
141
  6
Continuous
 62
     5
370
    15
100
AcDbLine
 10
77.5232615034779
 20
192.1402865379643
 30
0.0
 11
77.57636950347785
 21
192.0018645379643
 31
0.0
  0
LINE
  5
3A6
330
1F
100
AcDbEntity
  8
141
  6
Continuous
 62
     5
370
    15
100
AcDbLine
 10
77.46432350347789
 20
192.2689255379643
 30
0.0
 11
77.5232615034779
 21
192.1402865379643
 31
0.0
  0
LINE
  5
3A7
330
1F
100
AcDbEntity
  8
141
  6
Continuous
 62
     5
370
    15
100
AcDbLine
 10
77.40000450347782
 20
192.3868005379643
 30
0.0
 11
77.46432350347789
 21
192.2689255379643
 31
0.0
  0
LINE
  5
3A8
330
1F
100
AcDbEntity
  8
141
  6
Continuous
 62
     5
370
    15
100
AcDbLine
 10
77.33079350347782
 20
192.4930155379643
 30
0.0
 11
77.40000450347782
 21
192.3868005379643
 31
0.0
  0
LINE
  5
3A9
330
1F
100
AcDbEntity
  8
141
  6
Continuous
 62
     5
370
    15
100
AcDbLine
 10
77.25721750347782
 20
192.5867625379643
 30
0.0
 11
77.33079350347782
 21
192.4930155379643
 31
0.0
  0
LINE
  5
3AA
330
1F
100
AcDbEntity
  8
141
  6
Continuous
 62
     5
370
    15
100
AcDbLine
 10
77.17983550347788
 20
192.6673275379643
 30
0.0
 11
77.25721750347782
 21
192.5867625379643
 31
0.0
  0
LINE
  5
3AB
330
1F
100
AcDbEntity
  8
141
  6
Continuous
 62
     5
370
    15
100
AcDbLine
 10
77.09923750347787
 20
192.7340965379643
 30
0.0
 11
77.17983550347788
 21
192.6673275379643
 31
0.0
  0
LINE
  5
3AC
330
1F
100
AcDbEntity
  8
141
  6
Continuous
 62
     5
370
    15
100
AcDbLine
 10
77.01603650347784
 20
192.7865635379643
 30
0.0
 11
77.09923750347787
 21
192.7340965379643
 31
0.0
  0
LINE
  5
3AD
330
1F
100
AcDbEntity
  8
141
  6
Continuous
 62
     5
370
    15
100
AcDbLine
 10
76.93086550347789
 20
192.8243275379643
 30
0.0
 11
77.01603650347784
 21
192.7865635379643
 31
0.0
  0
LINE
  5
3AE
330
1F
100
AcDbEntity
  8
141
  6
Continuous
 62
     5
370
    15
100
AcDbLine
 10
76.84437250347787
 20
192.8471015379643
 30
0.0
 11
76.93086550347789
 21
192.8243275379643
 31
0.0
  0
LINE
  5
3AF
330
1F
100
AcDbEntity
  8
141
  6
Continuous
 62
     5
370
    15
100
AcDbLine
 10
76.75721750347782
 20
192.8547115379643
 30
0.0
 11
76.84437250347787
 21
192.8471015379643
 31
0.0
  0
ARC
  5
3B0
330
1F
100
AcDbEntity
  8
141
  6
Continuous
 62
     5
370
    15
100
AcDbCircle
 10
74.59080950347789
 20
216.1987385379643
 30
0.0
 40
3.25
100
AcDbArc
 50
324.6075479999998
 51
45.0
  0
ARC
  5
3B1
330
1F
100
AcDbEntity
  8
141
  6
Continuous
 62
     5
370
    15
100
AcDbCircle
 10
84.83154450347786
 20
226.4641005379643
 30
0.0
 40
3.25
100
AcDbArc
 50
224.9999999999996
 51
305.5300710000013
  0
ARC
  5
3B2
330
1F
100
AcDbEntity
  8
141
  6
Continuous
 62
     5
370
    15
100
AcDbCircle
 10
84.83154450347786
 20
226.4641005379643
 30
0.0
 40
2.25
100
AcDbArc
 50
125.5300710000017
 51
224.9999999999996
  0
ARC
  5
3B3
330
1F
100
AcDbEntity
  8
141
  6
Continuous
 62
     5
370
    15
100
AcDbCircle
 10
84.83154450347786
 20
226.4641005379643
 30
0.0
 40
3.25
100
AcDbArc
 50
125.5300710000016
 51
224.9999999999996
  0
ARC
  5
3B4
330
1F
100
AcDbEntity
  8
141
  6
Continuous
 62
     5
370
    15
100
AcDbCircle
 10
84.83154450347786
 20
226.4641005379643
 30
0.0
 40
2.25
100
AcDbArc
 50
224.9999999999996
 51
305.5300710000013
  0
LINE
  5
3B5
330
1F
100
AcDbEntity
  8
139
  6
Continuous
 62
     7
370
    15
100
AcDbLine
 10
74.30095425598859
 20
146.0562773669416
 30
0.0
 11
55.18596944139313
 21
146.0562773669416
 31
0.0
  0
TEXT
  5
3B6
330
1F
100
AcDbEntity
  8
135
  6
Continuous
 62
     7
370
    15
100
AcDbText
 10
56.42717218573489
 20
146.8138965381112
 30
0.0
 40
3.0
  1
ゴムリング
 41
0.9600000000000001
100
AcDbText
  0
LINE
  5
3B7
330
1F
100
AcDbEntity
  8
138
  6
Continuous
 62
     4
370
    15
100
AcDbLine
 10
155.2559895034778
 20
164.9819043212746
 30
0.0
 11
153.7559895034777
 21
165.3838277273625
 31
0.0
  0
LINE
  5
3B8
330
1F
100
AcDbEntity
  8
138
  6
Continuous
 62
     4
370
    15
100
AcDbLine
 10
155.2559895034778
 20
164.9819043212746
 30
0.0
 11
153.7559895034777
 21
164.5799798799098
 31
0.0
  0
LINE
  5
3B9
330
1F
100
AcDbEntity
  8
138
  6
Continuous
 62
     4
370
    15
100
AcDbLine
 10
132.7559895034778
 20
146.9819043212746
 30
0.0
 11
131.2559895034777
 21
147.3838277273625
 31
0.0
  0
LINE
  5
3BA
330
1F
100
AcDbEntity
  8
138
  6
Continuous
 62
     4
370
    15
100
AcDbLine
 10
132.7559895034778
 20
146.9819043212746
 30
0.0
 11
131.2559895034777
 21
146.5799798799098
 31
0.0
  0
LINE
  5
3BB
330
1F
100
AcDbEntity
  8
138
  6
Continuous
 62
     4
370
    15
100
AcDbLine
 10
137.7559895034778
 20
152.9819043212746
 30
0.0
 11
136.2559895034777
 21
153.3838277273625
 31
0.0
  0
LINE
  5
3BC
330
1F
100
AcDbEntity
  8
138
  6
Continuous
 62
     4
370
    15
100
AcDbLine
 10
137.7559895034778
 20
152.9819043212746
 30
0.0
 11
136.2559895034777
 21
152.5799798799098
 31
0.0
  0
LINE
  5
3BD
330
1F
100
AcDbEntity
  8
138
  6
Continuous
 62
     4
370
    15
100
AcDbLine
 10
140.7559895034778
 20
158.9819043212746
 30
0.0
 11
139.2559895034777
 21
159.3838277273625
 31
0.0
  0
LINE
  5
3BE
330
1F
100
AcDbEntity
  8
138
  6
Continuous
 62
     4
370
    15
100
AcDbLine
 10
140.7559895034778
 20
158.9819043212746
 30
0.0
 11
139.2559895034777
 21
158.5799798799098
 31
0.0
  0
LINE
  5
3BF
330
1F
100
AcDbEntity
  8
138
  6
Continuous
 62
     4
370
    15
100
AcDbLine
 10
175.2559895034778
 20
170.9819043212746
 30
0.0
 11
173.7559895034777
 21
171.3838277273626
 31
0.0
  0
LINE
  5
3C0
330
1F
100
AcDbEntity
  8
138
  6
Continuous
 62
     4
370
    15
100
AcDbLine
 10
175.2559895034778
 20
170.9819043212746
 30
0.0
 11
173.7559895034777
 21
170.5799798799099
 31
0.0
  0
ARC
  5
3C1
330
1F
100
AcDbEntity
  8
141
  6
Continuous
 62
     5
370
    15
100
AcDbCircle
 10
110.2559895034778
 20
190.8598845379643
 30
0.0
 40
46.0
100
AcDbArc
 50
0.0
 51
35.392452
  0
ARC
  5
3C2
330
1F
100
AcDbEntity
  8
141
  6
Continuous
 62
     5
370
    15
100
AcDbCircle
 10
110.2559895034778
 20
190.8598845379643
 30
0.0
 40
41.5
100
AcDbArc
 50
0.0
 51
35.39245200000001
  0
ARC
  5
3C3
330
1F
100
AcDbEntity
  8
141
  6
Continuous
 62
     5
370
    15
100
AcDbCircle
 10
110.2559895034778
 20
190.8598845379643
 30
0.0
 40
40.5
100
AcDbArc
 50
0.0
 51
35.39245200000003
  0
LINE
  5
3C4
330
1F
100
AcDbEntity
  8
141
  6
Continuous
 62
     5
370
    15
100
AcDbLine
 10
142.7585665034778
 20
191.0290235379643
 30
0.0
 11
142.7547615034779
 21
190.8547115379643
 31
0.0
  0
LINE
  5
3C5
330
1F
100
AcDbEntity
  8
141
  6
Continuous
 62
     5
370
    15
100
AcDbLine
 10
142.7699535034778
 20
191.2020085379643
 30
0.0
 11
142.7585665034778
 21
191.0290235379643
 31
0.0
  0
LINE
  5
3C6
330
1F
100
AcDbEntity
  8
141
  6
Continuous
 62
     5
370
    15
100
AcDbLine
 10
142.7888355034779
 20
191.3723495379643
 30
0.0
 11
142.7699535034778
 21
191.2020085379643
 31
0.0
  0
LINE
  5
3C7
330
1F
100
AcDbEntity
  8
141
  6
Continuous
 62
     5
370
    15
100
AcDbLine
 10
142.8150685034778
 20
191.5387525379643
 30
0.0
 11
142.7888355034779
 21
191.3723495379643
 31
0.0
  0
LINE
  5
3C8
330
1F
100
AcDbEntity
  8
141
  6
Continuous
 62
     5
370
    15
100
AcDbLine
 10
142.8484535034778
 20
191.6999485379643
 30
0.0
 11
142.8150685034778
 21
191.5387525379643
 31
0.0
  0
LINE
  5
3C9
330
1F
100
AcDbEntity
  8
141
  6
Continuous
 62
     5
370
    15
100
AcDbLine
 10
142.8887355034778
 20
191.8547115379643
 30
0.0
 11
142.8484535034778
 21
191.6999485379643
 31
0.0
  0
LINE
  5
3CA
330
1F
100
AcDbEntity
  8
141
  6
Continuous
 62
     5
370
    15
100
AcDbLine
 10
142.9356095034778
 20
192.0018645379643
 30
0.0
 11
142.8887355034778
 21
191.8547115379643
 31
0.0
  0
LINE
  5
3CB
330
1F
100
AcDbEntity
  8
141
  6
Continuous
 62
     5
370
    15
100
AcDbLine
 10
142.9887165034779
 20
192.1402865379643
 30
0.0
 11
142.9356095034778
 21
192.0018645379643
 31
0.0
  0
LINE
  5
3CC
330
1F
100
AcDbEntity
  8
141
  6
Continuous
 62
     5
370
    15
100
AcDbLine
 10
143.0476545034778
 20
192.2689255379643
 30
0.0
 11
142.9887165034779
 21
192.1402865379643
 31
0.0
  0
LINE
  5
3CD
330
1F
100
AcDbEntity
  8
141
  6
Continuous
 62
     5
370
    15
100
AcDbLine
 10
143.1119735034779
 20
192.3868005379643
 30
0.0
 11
143.0476545034778
 21
192.2689255379643
 31
0.0
  0
LINE
  5
3CE
330
1F
100
AcDbEntity
  8
141
  6
Continuous
 62
     5
370
    15
100
AcDbLine
 10
143.1811845034779
 20
192.4930155379643
 30
0.0
 11
143.1119735034779
 21
192.3868005379643
 31
0.0
  0
LINE
  5
3CF
330
1F
100
AcDbEntity
  8
141
  6
Continuous
 62
     5
370
    15
100
AcDbLine
 10
143.2547615034779
 20
192.5867625379643
 30
0.0
 11
143.1811845034779
 21
192.4930155379643
 31
0.0
  0
LINE
  5
3D0
330
1F
100
AcDbEntity
  8
141
  6
Continuous
 62
     5
370
    15
100
AcDbLine
 10
143.3321435034778
 20
192.6673275379643
 30
0.0
 11
143.2547615034779
 21
192.5867625379643
 31
0.0
  0
LINE
  5
3D1
330
1F
100
AcDbEntity
  8
141
  6
Continuous
 62
     5
370
    15
100
AcDbLine
 10
143.4127415034778
 20
192.7340965379643
 30
0.0
 11
143.3321435034778
 21
192.6673275379643
 31
0.0
  0
LINE
  5
3D2
330
1F
100
AcDbEntity
  8
141
  6
Continuous
 62
     5
370
    15
100
AcDbLine
 10
143.4959425034779
 20
192.7865635379643
 30
0.0
 11
143.4127415034778
 21
192.7340965379643
 31
0.0
  0
LINE
  5
3D3
330
1F
100
AcDbEntity
  8
141
  6
Continuous
 62
     5
370
    15
100
AcDbLine
 10
143.5811135034778
 20
192.8243275379643
 30
0.0
 11
143.4959425034779
 21
192.7865635379643
 31
0.0
  0
LINE
  5
3D4
330
1F
100
AcDbEntity
  8
141
  6
Continuous
 62
     5
370
    15
100
AcDbLine
 10
143.6676055034778
 20
192.8471015379643
 30
0.0
 11
143.5811135034778
 21
192.8243275379643
 31
0.0
  0
LINE
  5
3D5
330
1F
100
AcDbEntity
  8
141
  6
Continuous
 62
     5
370
    15
100
AcDbLine
 10
143.7547615034779
 20
192.8547115379643
 30
0.0
 11
143.6676055034778
 21
192.8471015379643
 31
0.0
  0
LINE
  5
3D6
330
1F
100
AcDbEntity
  8
141
  6
Continuous
 62
     5
370
    15
100
AcDbLine
 10
144.7534115034779
 20
191.0290235379643
 30
0.0
 11
144.7572175034778
 21
190.8547115379643
 31
0.0
  0
LINE
  5
3D7
330
1F
100
AcDbEntity
  8
141
  6
Continuous
 62
     5
370
    15
100
AcDbLine
 10
144.7420245034779
 20
191.2020085379643
 30
0.0
 11
144.7534115034779
 21
191.0290235379643
 31
0.0
  0
LINE
  5
3D8
330
1F
100
AcDbEntity
  8
141
  6
Continuous
 62
     5
370
    15
100
AcDbLine
 10
144.7231425034779
 20
191.3723495379643
 30
0.0
 11
144.7420245034779
 21
191.2020085379643
 31
0.0
  0
LINE
  5
3D9
330
1F
100
AcDbEntity
  8
141
  6
Continuous
 62
     5
370
    15
100
AcDbLine
 10
144.6969095034779
 20
191.5387525379643
 30
0.0
 11
144.7231425034779
 21
191.3723495379643
 31
0.0
  0
LINE
  5
3DA
330
1F
100
AcDbEntity
  8
141
  6
Continuous
 62
     5
370
    15
100
AcDbLine
 10
144.6635245034779
 20
191.6999485379643
 30
0.0
 11
144.6969095034779
 21
191.5387525379643
 31
0.0
  0
LINE
  5
3DB
330
1F
100
AcDbEntity
  8
141
  6
Continuous
 62
     5
370
    15
100
AcDbLine
 10
144.6232425034779
 20
191.8547115379643
 30
0.0
 11
144.6635245034779
 21
191.6999485379643
 31
0.0
  0
LINE
  5
3DC
330
1F
100
AcDbEntity
  8
141
  6
Continuous
 62
     5
370
    15
100
AcDbLine
 10
144.5763695034778
 20
192.0018645379643
 30
0.0
 11
144.6232425034779
 21
191.8547115379643
 31
0.0
  0
LINE
  5
3DD
330
1F
100
AcDbEntity
  8
141
  6
Continuous
 62
     5
370
    15
100
AcDbLine
 10
144.5232615034779
 20
192.1402865379643
 30
0.0
 11
144.5763695034778
 21
192.0018645379643
 31
0.0
  0
LINE
  5
3DE
330
1F
100
AcDbEntity
  8
141
  6
Continuous
 62
     5
370
    15
100
AcDbLine
 10
144.4643235034779
 20
192.2689255379643
 30
0.0
 11
144.5232615034779
 21
192.1402865379643
 31
0.0
  0
LINE
  5
3DF
330
1F
100
AcDbEntity
  8
141
  6
Continuous
 62
     5
370
    15
100
AcDbLine
 10
144.4000045034778
 20
192.3868005379643
 30
0.0
 11
144.4643235034779
 21
192.2689255379643
 31
0.0
  0
LINE
  5
3E0
330
1F
100
AcDbEntity
  8
141
  6
Continuous
 62
     5
370
    15
100
AcDbLine
 10
144.3307935034778
 20
192.4930155379643
 30
0.0
 11
144.4000045034778
 21
192.3868005379643
 31
0.0
  0
LINE
  5
3E1
330
1F
100
AcDbEntity
  8
141
  6
Continuous
 62
     5
370
    15
100
AcDbLine
 10
144.2572175034778
 20
192.5867625379643
 30
0.0
 11
144.3307935034778
 21
192.4930155379643
 31
0.0
  0
LINE
  5
3E2
330
1F
100
AcDbEntity
  8
141
  6
Continuous
 62
     5
370
    15
100
AcDbLine
 10
144.1798355034779
 20
192.6673275379643
 30
0.0
 11
144.2572175034778
 21
192.5867625379643
 31
0.0
  0
LINE
  5
3E3
330
1F
100
AcDbEntity
  8
141
  6
Continuous
 62
     5
370
    15
100
AcDbLine
 10
144.0992375034779
 20
192.7340965379643
 30
0.0
 11
144.1798355034779
 21
192.6673275379643
 31
0.0
  0
LINE
  5
3E4
330
1F
100
AcDbEntity
  8
141
  6
Continuous
 62
     5
370
    15
100
AcDbLine
 10
144.0160365034778
 20
192.7865635379643
 30
0.0
 11
144.0992375034779
 21
192.7340965379643
 31
0.0
  0
LINE
  5
3E5
330
1F
100
AcDbEntity
  8
141
  6
Continuous
 62
     5
370
    15
100
AcDbLine
 10
143.9308655034779
 20
192.8243275379643
 30
0.0
 11
144.0160365034778
 21
192.7865635379643
 31
0.0
  0
LINE
  5
3E6
330
1F
100
AcDbEntity
  8
141
  6
Continuous
 62
     5
370
    15
100
AcDbLine
 10
143.8443725034779
 20
192.8471015379643
 30
0.0
 11
143.9308655034779
 21
192.8243275379643
 31
0.0
  0
LINE
  5
3E7
330
1F
100
AcDbEntity
  8
141
  6
Continuous
 62
     5
370
    15
100
AcDbLine
 10
143.7572175034778
 20
192.8547115379643
 30
0.0
 11
143.8443725034779
 21
192.8471015379643
 31
0.0
  0
ARC
  5
3E8
330
1F
100
AcDbEntity
  8
141
  6
Continuous
 62
     5
370
    15
100
AcDbCircle
 10
135.6804335034778
 20
226.4641005379643
 30
0.0
 40
2.25
100
AcDbArc
 50
234.4699289999979
 51
314.9999999999997
  0
ARC
  5
3E9
330
1F
100
AcDbEntity
  8
141
  6
Continuous
 62
     5
370
    15
100
AcDbCircle
 10
135.6804335034778
 20
226.4641005379643
 30
0.0
 40
3.25
100
AcDbArc
 50
234.469928999998
 51
314.9999999999997
  0
LINE
  5
3EA
330
1F
100
AcDbEntity
  8
137
  6
DASHDOT
 62
     1
370
    15
100
AcDbLine
 10
135.5548655034779
 20
216.0854835379643
 30
0.0
 11
149.8724435034778
 21
230.4030615379643
 31
0.0
  0
ARC
  5
3EB
330
1F
100
AcDbEntity
  8
141
  6
Continuous
 62
     5
370
    15
100
AcDbCircle
 10
145.9211685034778
 20
216.1987385379643
 30
0.0
 40
2.25
100
AcDbArc
 50
35.39245199999961
 51
135.0
  0
ARC
  5
3EC
330
1F
100
AcDbEntity
  8
141
  6
Continuous
 62
     5
370
    15
100
AcDbCircle
 10
145.9211685034778
 20
216.1987385379643
 30
0.0
 40
3.25
100
AcDbArc
 50
35.39245199999981
 51
135.0
  0
ARC
  5
3ED
330
1F
100
AcDbEntity
  8
141
  6
Continuous
 62
     5
370
    15
100
AcDbCircle
 10
145.9211685034778
 20
216.1987385379643
 30
0.0
 40
2.25
100
AcDbArc
 50
135.0
 51
215.3924519999992
  0
ARC
  5
3EE
330
1F
100
AcDbEntity
  8
141
  6
Continuous
 62
     5
370
    15
100
AcDbCircle
 10
145.9211685034778
 20
216.1987385379643
 30
0.0
 40
3.25
100
AcDbArc
 50
135.0
 51
215.3924519999994
  0
ARC
  5
3EF
330
1F
100
AcDbEntity
  8
141
  6
Continuous
 62
     5
370
    15
100
AcDbCircle
 10
135.6804335034778
 20
226.4641005379643
 30
0.0
 40
2.25
100
AcDbArc
 50
314.9999999999997
 51
54.4699289999983
  0
ARC
  5
3F0
330
1F
100
AcDbEntity
  8
141
  6
Continuous
 62
     5
370
    15
100
AcDbCircle
 10
135.6804335034778
 20
226.4641005379643
 30
0.0
 40
3.25
100
AcDbArc
 50
314.9999999999997
 51
54.46992899999837
  0
TEXT
  5
3F1
330
1F
100
AcDbEntity
  8
143
  6
Continuous
 62
   171
370
    15
100
AcDbText
 10
164.0
 20
29.75
 30
0.0
 40
4.5
  1
株式会社シマブン
 41
0.8039999999999999
100
AcDbText
  0
LINE
  5
3F2
330
1F
100
AcDbEntity
  8
143
  6
Continuous
 62
   171
370
    25
100
AcDbLine
 10
198.0
 20
28.0
 30
0.0
 11
162.0
 21
28.0
 31
0.0
  0
LINE
  5
3F3
330
1F
100
AcDbEntity
  8
143
  6
Continuous
 62
   171
370
    25
100
AcDbLine
 10
162.0
 20
24.0
 30
0.0
 11
198.0
 21
24.0
 31
0.0
  0
LINE
  5
3F4
330
1F
100
AcDbEntity
  8
143
  6
Continuous
 62
   171
370
    25
100
AcDbLine
 10
198.0
 20
18.0
 30
0.0
 11
162.0
 21
18.0
 31
0.0
  0
LINE
  5
3F5
330
1F
100
AcDbEntity
  8
144
  6
Continuous
 62
     5
370
    25
100
AcDbLine
 10
198.0
 20
36.0
 30
0.0
 11
98.0
 21
36.0
 31
0.0
  0
TEXT
  5
3F6
330
1F
100
AcDbEntity
  8
143
  6
Continuous
 62
   171
370
    15
100
AcDbText
 10
163.8
 20
15.4
 30
0.0
 40
2.399999999999999
  1
作　成
 41
1.08
100
AcDbText
  0
LINE
  5
3F7
330
1F
100
AcDbEntity
  8
143
  6
Continuous
 62
   171
370
    25
100
AcDbLine
 10
162.0
 20
36.0
 30
0.0
 11
162.0
 21
12.0
 31
0.0
  0
LINE
  5
3F8
330
1F
100
AcDbEntity
  8
144
  6
Continuous
 62
     5
370
    25
100
AcDbLine
 10
98.0
 20
36.0
 30
0.0
 11
98.0
 21
12.0
 31
0.0
  0
LINE
  5
3F9
330
1F
100
AcDbEntity
  8
143
  6
Continuous
 62
   171
370
    25
100
AcDbLine
 10
103.0
 20
36.0
 30
0.0
 11
103.0
 21
12.0
 31
0.0
  0
TEXT
  5
3FA
330
1F
100
AcDbEntity
  8
143
  6
Continuous
 62
   171
370
    15
100
AcDbText
 10
163.8
 20
12.5
 30
0.0
 40
2.399999999999999
  1
年月日
 41
1.08
100
AcDbText
  0
LINE
  5
3FB
330
1F
100
AcDbEntity
  8
143
  6
Continuous
 62
   171
370
    25
100
AcDbLine
 10
162.0
 20
20.0
 30
0.0
 11
98.0
 21
20.0
 31
0.0
  0
LINE
  5
3FC
330
1F
100
AcDbEntity
  8
143
  6
Continuous
 62
   171
370
    25
100
AcDbLine
 10
150.0
 20
28.0
 30
0.0
 11
98.0
 21
28.0
 31
0.0
  0
TEXT
  5
3FD
330
1F
100
AcDbEntity
  8
143
  6
Continuous
 62
   171
370
    15
100
AcDbText
 10
105.0999999999999
 20
22.2
 30
0.0
 40
3.600000000000001
  1
ＨＦＴ－５ＢＦ
 41
0.72
100
AcDbText
  0
TEXT
  5
3FE
330
1F
100
AcDbEntity
  8
143
  6
Continuous
 62
   171
370
    15
100
AcDbText
 10
151.5
 20
32.15
 30
0.0
 40
2.700000000000003
  1
縮　尺
100
AcDbText
  0
LINE
  5
3FF
330
1F
100
AcDbEntity
  8
143
  6
Continuous
 62
   171
370
    25
100
AcDbLine
 10
150.0
 20
36.0
 30
0.0
 11
150.0
 21
20.0
 31
0.0
  0
LINE
  5
400
330
1F
100
AcDbEntity
  8
143
  6
Continuous
 62
   171
370
    25
100
AcDbLine
 10
150.0
 20
31.0
 30
0.0
 11
162.0
 21
31.0
 31
0.0
  0
TEXT
  5
401
330
1F
100
AcDbEntity
  8
143
  6
Continuous
 62
   171
370
    15
100
AcDbText
 10
151.8
 20
23.5
 30
0.0
 40
3.600000000000001
  1
１：２
 41
0.7
100
AcDbText
  0
TEXT
  5
402
330
1F
100
AcDbEntity
  8
143
  6
Continuous
 62
   171
370
    15
100
AcDbText
 10
164.25
 20
24.65
 30
0.0
 40
2.699999999999999
  1
承 認
100
AcDbText
  0
LINE
  5
403
330
1F
100
AcDbEntity
  8
143
  6
Continuous
 62
   171
370
    25
100
AcDbLine
 10
174.0
 20
28.0
 30
0.0
 11
174.0
 21
12.0
 31
0.0
  0
TEXT
  5
404
330
1F
100
AcDbEntity
  8
143
  6
Continuous
 62
   171
370
    15
100
AcDbText
 10
176.25
 20
24.65
 30
0.0
 40
2.699999999999999
  1
検 図
100
AcDbText
  0
TEXT
  5
405
330
1F
100
AcDbEntity
  8
143
  6
Continuous
 62
   171
370
    15
100
AcDbText
 10
188.25
 20
24.65
 30
0.0
 40
2.699999999999999
  1
設 計
100
AcDbText
  0
LINE
  5
406
330
1F
100
AcDbEntity
  8
143
  6
Continuous
 62
   171
370
    25
100
AcDbLine
 10
186.0
 20
28.0
 30
0.0
 11
186.0
 21
18.0
 31
0.0
  0
TEXT
  5
407
330
1F
100
AcDbEntity
  8
143
  6
Continuous
 62
   171
370
    15
100
AcDbText
 10
105.0999999999999
 20
30.2
 30
0.0
 40
3.600000000000001
  1
防水マス
 41
0.7199999999999999
100
AcDbText
  0
TEXT
  5
408
330
1F
100
AcDbEntity
  8
143
  6
Continuous
 62
   171
370
    15
100
AcDbText
 10
164.0
 20
19.19999999999999
 30
0.0
 40
3.600000000000001
  1
隠塚
100
AcDbText
  0
TEXT
  5
409
330
1F
100
AcDbEntity
  8
143
  6
Continuous
 62
   171
370
    15
100
AcDbText
 10
176.0
 20
19.19999999999999
 30
0.0
 40
3.600000000000001
  1
渋田
100
AcDbText
  0
TEXT
  5
40A
330
1F
100
AcDbEntity
  8
143
  6
Continuous
 62
   171
370
    15
100
AcDbText
 10
188.0
 20
19.19999999999999
 30
0.0
 40
3.600000000000001
  1
藤戸
 41
0.9959999999999998
100
AcDbText
  0
TEXT
  5
40B
330
1F
100
AcDbEntity
  8
143
  6
Continuous
 62
   171
370
    15
100
AcDbText
 10
175.0
 20
13.64999999999998
 30
0.0
 40
2.699999999999999
  1
２００９年０６月１１日
 41
0.6599999999999999
100
AcDbText
  0
LINE
  5
40C
330
1F
100
AcDbEntity
  8
141
  6
Continuous
 62
     5
370
    15
100
AcDbLine
 10
160.4395540634849
 20
130.4184005020847
 30
0.0
 11
156.3985970579882
 21
130.1919163722883
 31
0.0
  0
LINE
  5
40D
330
1F
100
AcDbEntity
  8
141
  6
Continuous
 62
     5
370
    15
100
AcDbLine
 10
168.8998483454208
 20
134.0283438843921
 30
0.0
 11
162.3059535610875
 21
130.8946115705702
 31
0.0
  0
LINE
  5
40E
330
1F
100
AcDbEntity
  8
141
  6
Continuous
 62
     5
370
    15
100
AcDbLine
 10
170.723574746957
 20
135.9818533425674
 30
0.0
 11
143.4817202698591
 21
135.9818533425674
 31
0.0
  0
ARC
  5
40F
330
1F
100
AcDbEntity
  8
141
  6
Continuous
 62
     5
370
    15
100
AcDbCircle
 10
160.1597574212778
 20
135.410565747648
 30
0.0
 40
5.0
100
AcDbArc
 50
273.2079090644968
 51
295.4192893248035
  0
LINE
  5
410
330
1F
100
AcDbEntity
  8
141
  6
Continuous
 62
     5
370
    15
100
AcDbLine
 10
175.2559895034778
 20
134.9818533425674
 30
0.0
 11
175.2559895034778
 21
135.4818533425674
 31
0.0
  0
ARC
  5
411
330
1F
100
AcDbEntity
  8
141
  6
Continuous
 62
     5
370
    15
100
AcDbCircle
 10
168.2559895034778
 20
135.3831301375155
 30
0.0
 40
1.5
100
AcDbArc
 50
295.4192893248032
 51
350.7634586477371
  0
ARC
  5
412
330
1F
100
AcDbEntity
  8
141
  6
Continuous
 62
     5
370
    15
100
AcDbCircle
 10
170.723574746957
 20
134.9818533425674
 30
0.0
 40
1.0
100
AcDbArc
 50
89.99999999999991
 51
170.7634586477366
  0
LINE
  5
413
330
1F
100
AcDbEntity
  8
141
  6
Continuous
 62
     5
370
    15
100
AcDbLine
 10
51.61213066153482
 20
134.028343884392
 30
0.0
 11
58.20602544586808
 21
130.8946115705701
 31
0.0
  0
ARC
  5
414
330
1F
100
AcDbEntity
  8
141
  6
Continuous
 62
     5
370
    15
100
AcDbCircle
 10
60.3522215856778
 20
135.4105657476479
 30
0.0
 40
5.0
100
AcDbArc
 50
244.5807106751958
 51
266.7920909355032
  0
LINE
  5
415
330
1F
100
AcDbEntity
  8
141
  6
Continuous
 62
     5
370
    15
100
AcDbLine
 10
60.07242494347065
 20
130.4184005020846
 30
0.0
 11
64.11338194896734
 21
130.1919163722882
 31
0.0
  0
ARC
  5
416
330
1F
100
AcDbEntity
  8
141
  6
Continuous
 62
     5
370
    15
100
AcDbCircle
 10
52.25598950347774
 20
135.3831301375153
 30
0.0
 40
1.5
100
AcDbArc
 50
189.2365413522621
 51
244.5807106751961
  0
ARC
  5
417
330
1F
100
AcDbEntity
  8
141
  6
Continuous
 62
     5
370
    15
100
AcDbCircle
 10
49.78840425999857
 20
134.9818533425673
 30
0.0
 40
1.0
100
AcDbArc
 50
9.236541352263387
 51
89.99999999999991
  0
LINE
  5
418
330
1F
100
AcDbEntity
  8
141
  6
Continuous
 62
     5
370
    15
100
AcDbLine
 10
49.78840425999857
 20
135.9818533425673
 30
0.0
 11
77.03025873709646
 21
135.9818533425673
 31
0.0
  0
LINE
  5
419
330
1F
100
AcDbEntity
  8
141
  6
Continuous
 62
     5
370
    15
100
AcDbLine
 10
45.75598950347774
 20
134.4818533425673
 30
0.0
 11
49.25598950347774
 21
134.4818533425673
 31
0.0
  0
LINE
  5
41A
330
1F
100
AcDbEntity
  8
141
  6
Continuous
 62
     5
370
    15
100
AcDbLine
 10
45.25598950347774
 20
134.9818533425673
 30
0.0
 11
45.25598950347774
 21
135.4818533425673
 31
0.0
  0
ARC
  5
41B
330
1F
100
AcDbEntity
  8
141
  6
Continuous
 62
     5
370
    15
100
AcDbCircle
 10
174.7559895034778
 20
135.4818533425674
 30
0.0
 40
0.5
100
AcDbArc
 50
0.0
 51
89.99999999999991
  0
ARC
  5
41C
330
1F
100
AcDbEntity
  8
141
  6
Continuous
 62
     5
370
    15
100
AcDbCircle
 10
174.7559895034778
 20
134.9818533425674
 30
0.0
 40
0.5
100
AcDbArc
 50
269.9999999999998
 51
0.0
  0
ARC
  5
41D
330
1F
100
AcDbEntity
  8
141
  6
Continuous
 62
     5
370
    15
100
AcDbCircle
 10
45.75598950347774
 20
135.4818533425673
 30
0.0
 40
0.5
100
AcDbArc
 50
89.99999999999991
 51
179.9999999999998
  0
ARC
  5
41E
330
1F
100
AcDbEntity
  8
141
  6
Continuous
 62
     5
370
    15
100
AcDbCircle
 10
45.75598950347774
 20
134.9818533425673
 30
0.0
 40
0.5
100
AcDbArc
 50
179.9999999999998
 51
269.9999999999998
  0
LINE
  5
41F
330
1F
100
AcDbEntity
  8
141
  6
Continuous
 62
     5
370
    15
100
AcDbLine
 10
175.2559895034778
 20
190.8598855379643
 30
0.0
 11
175.2559895034778
 21
255.8598855379643
 31
0.0
  0
LINE
  5
420
330
1F
100
AcDbEntity
  8
141
  6
Continuous
 62
     5
370
    15
100
AcDbLine
 10
175.2559895034778
 20
255.8598855379643
 30
0.0
 11
45.25598950347785
 21
255.8598855379643
 31
0.0
  0
LINE
  5
421
330
1F
100
AcDbEntity
  8
141
  6
Continuous
 62
     5
370
    15
100
AcDbLine
 10
45.25598950347785
 20
255.8598855379643
 30
0.0
 11
45.25598950347785
 21
190.8598855379643
 31
0.0
  0
ARC
  5
422
330
1F
100
AcDbEntity
  8
141
  6
Continuous
 62
     5
370
    15
100
AcDbCircle
 10
110.2559895034778
 20
190.8598855379643
 30
0.0
 40
47.0
100
AcDbArc
 50
359.9999987809405
 51
179.9999999999998
  0
LINE
  5
423
330
1F
100
AcDbEntity
  8
141
  6
Continuous
 62
     5
370
    15
100
AcDbLine
 10
156.5547809329908
 20
129.5260820020227
 30
0.0
 11
156.3985970579882
 21
130.1919163722883
 31
0.0
  0
LINE
  5
424
330
1F
100
AcDbEntity
  8
141
  6
Continuous
 62
     5
370
    15
100
AcDbLine
 10
63.95719807396495
 20
129.5260820020227
 30
0.0
 11
64.11338096194379
 21
130.191916427608
 31
0.0
  0
LINE
  5
425
330
1F
100
AcDbEntity
  8
141
  6
Continuous
 62
     5
370
    15
100
AcDbLine
 10
174.7559895034778
 20
135.9818533425674
 30
0.0
 11
170.723574746957
 21
135.9818533425674
 31
0.0
  0
LINE
  5
426
330
1F
100
AcDbEntity
  8
141
  6
Continuous
 62
     5
370
    15
100
AcDbLine
 10
45.75598950347774
 20
135.9818533425673
 30
0.0
 11
49.78840425999857
 21
135.9818533425673
 31
0.0
  0
INSERT
  5
465
330
1F
100
AcDbEntity
  8
0
100
AcDbBlockReference
  2
*G12
 10
0.0
 20
0.0
 30
0.0
  0
INSERT
  5
497
330
1F
100
AcDbEntity
  8
0
100
AcDbBlockReference
  2
*G15
 10
0.0
 20
0.0
 30
0.0
  0
LINE
  5
498
330
1F
100
AcDbEntity
  8
139
  6
Continuous
 62
     7
370
    15
100
AcDbLine
 10
164.64517599762
 20
131.4808816800129
 30
0.0
 11
163.8753256894262
 21
132.8295376891878
 31
0.0
  0
LINE
  5
499
330
1F
100
AcDbEntity
  8
139
  6
Continuous
 62
     7
370
    15
100
AcDbLine
 10
164.64517599762
 20
131.4808816800129
 30
0.0
 11
143.3682136365965
 21
152.9865575012295
 31
0.0
  0
LINE
  5
49A
330
1F
100
AcDbEntity
  8
139
  6
Continuous
 62
     7
370
    15
100
AcDbLine
 10
164.64517599762
 20
131.4808816800129
 30
0.0
 11
163.3041377399481
 21
132.2639267433384
 31
0.0
  0
TEXT
  5
49B
330
1F
100
AcDbEntity
  8
135
  6
Continuous
 62
     7
370
    15
100
AcDbText
 10
144.38869424653
 20
153.7441766723991
 30
0.0
 40
3.0
  1
ガラス繊維強化不飽和ポリエステル樹脂
 41
0.8399999999999995
100
AcDbText
  0
LINE
  5
49C
330
1F
100
AcDbEntity
  8
139
  6
Continuous
 62
     7
370
    15
100
AcDbLine
 10
143.3682136365965
 20
152.9865575012295
 30
0.0
 11
194.6050641599859
 21
152.9865575012295
 31
0.0
  0
TEXT
  5
49D
330
1F
100
AcDbEntity
  8
135
  6
Continuous
 62
     7
370
    15
100
AcDbText
 10
155.1965230186145
 20
149.658841314251
 30
0.0
 40
3.0
  1
（ＦＲＰ）　　　ｔ = ３mm
 41
0.9071999999999996
100
AcDbText
  0
LINE
  5
49E
330
1F
100
AcDbEntity
  8
138
  6
Continuous
 62
     4
370
    15
100
AcDbLine
 10
175.255989503478
 20
264.9872852893098
 30
0.0
 11
173.7559895034778
 21
264.585360847945
 31
0.0
  0
LINE
  5
49F
330
1F
100
AcDbEntity
  8
138
  6
Continuous
 62
     4
370
    15
100
AcDbLine
 10
175.255989503478
 20
264.9872852893098
 30
0.0
 11
173.7559895034778
 21
265.3892086953977
 31
0.0
  0
TEXT
  5
4A0
330
1F
100
AcDbEntity
  8
135
  6
Continuous
 62
     7
370
    15
100
AcDbText
 10
105.0647017771075
 20
265.4894332893098
 30
0.0
 40
3.0
  1
□260
 41
1.68
100
AcDbText
  0
LINE
  5
4A1
330
1F
100
AcDbEntity
  8
138
  6
Continuous
 62
     4
370
    15
100
AcDbLine
 10
45.25598950347796
 20
264.9872852893098
 30
0.0
 11
46.75598950347808
 21
264.585360847945
 31
0.0
  0
LINE
  5
4A2
330
1F
100
AcDbEntity
  8
138
  6
Continuous
 62
     4
370
    15
100
AcDbLine
 10
45.25598950347796
 20
264.9872852893098
 30
0.0
 11
46.75598950347808
 21
265.3892086953977
 31
0.0
  0
LINE
  5
4A3
330
1F
100
AcDbEntity
  8
138
  6
Continuous
 62
     4
370
    15
100
AcDbLine
 10
45.25598950347796
 20
264.9872852893098
 30
0.0
 11
175.255989503478
 21
264.9872852893098
 31
0.0
  0
LINE
  5
4A4
330
1F
100
AcDbEntity
  8
138
  6
Continuous
 62
     4
370
    15
100
AcDbLine
 10
45.25598950347796
 20
259.0714939706363
 30
0.0
 11
45.25598950347796
 21
265.4872852893097
 31
0.0
  0
LINE
  5
4A5
330
1F
100
AcDbEntity
  8
138
  6
Continuous
 62
     4
370
    15
100
AcDbLine
 10
175.255989503478
 20
258.8311308071332
 30
0.0
 11
175.2559895034781
 21
265.4872852893097
 31
0.0
  0
LINE
  5
4A6
330
1F
100
AcDbEntity
  8
134
  6
Continuous
 62
     7
370
    15
100
AcDbLine
 10
198.0
 20
274.5000000000001
 30
0.0
 11
91.0
 21
274.5000000000001
 31
0.0
  0
LINE
  5
4A7
330
1F
100
AcDbEntity
  8
134
  6
Continuous
 62
     7
370
    15
100
AcDbLine
 10
198.0
 20
281.5000000000001
 30
0.0
 11
91.0
 21
281.5000000000001
 31
0.0
  0
LINE
  5
4A8
330
1F
100
AcDbEntity
  8
134
  6
Continuous
 62
     7
370
    15
100
AcDbLine
 10
197.9999999999999
 20
278.0000000000001
 30
0.0
 11
90.99999999999989
 21
278.0000000000001
 31
0.0
  0
TEXT
  5
4A9
330
1F
100
AcDbEntity
  8
133
  6
Continuous
 62
     4
370
    15
100
AcDbText
 10
99.75820129157489
 20
278.5927013999437
 30
0.0
 40
2.5
  1
規格表示変更の為に改定
 41
0.9599999999999997
100
AcDbText
  0
TEXT
  5
4AA
330
1F
100
AcDbEntity
  8
133
  6
Continuous
 62
     4
370
    15
100
AcDbText
 10
111.8682766820858
 20
282.0927013999437
 30
0.0
 40
2.5
  1
訂　 正　 記　 事
 41
0.96
100
AcDbText
  0
TEXT
  5
4AB
330
1F
100
AcDbEntity
  8
133
  6
Continuous
 62
     4
370
    15
100
AcDbText
 10
91.86821014549093
 20
282.0927013999437
 30
0.0
 40
2.5
  1
記号
 41
0.96
100
AcDbText
  0
LINE
  5
4AC
330
1F
100
AcDbEntity
  8
134
  6
Continuous
 62
     7
370
    15
100
AcDbLine
 10
91.0
 20
274.5000000000002
 30
0.0
 11
91.0
 21
285.0
 31
0.0
  0
LINE
  5
4AD
330
1F
100
AcDbEntity
  8
139
  6
Continuous
 62
     7
370
    15
100
AcDbLine
 10
92.85000000000002
 20
278.3170840000001
 30
0.0
 11
96.14999999999998
 21
278.3170840000001
 31
0.0
  0
LINE
  5
4AE
330
1F
100
AcDbEntity
  8
139
  6
Continuous
 62
     7
370
    15
100
AcDbLine
 10
92.85000000000002
 20
278.3170840000001
 30
0.0
 11
94.5
 21
281.1749676000001
 31
0.0
  0
LINE
  5
4AF
330
1F
100
AcDbEntity
  8
139
  6
Continuous
 62
     7
370
    15
100
AcDbLine
 10
96.14999999999998
 20
278.3170840000001
 30
0.0
 11
94.5
 21
281.1749676000001
 31
0.0
  0
TEXT
  5
4B0
330
1F
100
AcDbEntity
  8
133
  6
Continuous
 62
     4
370
    15
100
AcDbText
 10
93.85597418397765
 20
278.4734429203795
 30
0.0
 40
2.0
  1
1
100
AcDbText
  0
TEXT
  5
4B1
330
1F
100
AcDbEntity
  8
133
  6
Continuous
 62
     4
370
    15
100
AcDbText
 10
99.75820129157489
 20
275.0927013999437
 30
0.0
 40
2.5
  1
品番変更
 41
0.96
100
AcDbText
  0
LINE
  5
4B2
330
1F
100
AcDbEntity
  8
134
  6
Continuous
 62
     7
370
    15
100
AcDbLine
 10
98.00000000000023
 20
274.5000000000002
 30
0.0
 11
98.0
 21
285.0
 31
0.0
  0
TEXT
  5
4B3
330
1F
100
AcDbEntity
  8
133
  6
Continuous
 62
     4
370
    15
100
AcDbText
 10
148.0078476093246
 20
275.0927013999437
 30
0.0
 40
2.5
  1
２０１３年０３月１３日
 41
0.6599999999999998
100
AcDbText
  0
TEXT
  5
4B4
330
1F
100
AcDbEntity
  8
133
  6
Continuous
 62
     4
370
    15
100
AcDbText
 10
148.9468543973055
 20
282.0927013999437
 30
0.0
 40
2.5
  1
訂 正 年 月 日
 41
0.9599999999999997
100
AcDbText
  0
TEXT
  5
4B5
330
1F
100
AcDbEntity
  8
133
  6
Continuous
 62
     4
370
    15
100
AcDbText
 10
148.0078476093246
 20
278.5927013999437
 30
0.0
 40
2.5
  1
２００５年１１月１０日
 41
0.6599999999999998
100
AcDbText
  0
LINE
  5
4B6
330
1F
100
AcDbEntity
  8
134
  6
Continuous
 62
     7
370
    15
100
AcDbLine
 10
147.9999999999998
 20
274.5000000000002
 30
0.0
 11
148.0
 21
285.0
 31
0.0
  0
TEXT
  5
4B7
330
1F
100
AcDbEntity
  8
133
  6
Continuous
 62
     4
370
    15
100
AcDbText
 10
174.0335588819848
 20
282.1531610554545
 30
0.0
 40
2.5
  1
備　　　　　考
 41
0.96
100
AcDbText
  0
LINE
  5
4B8
330
1F
100
AcDbEntity
  8
134
  6
Continuous
 62
     7
370
    15
100
AcDbLine
 10
167.9999999999999
 20
274.5000000000002
 30
0.0
 11
168.0
 21
285.0
 31
0.0
  0
TEXT
  5
4B9
330
1F
100
AcDbEntity
  8
143
  6
Continuous
 62
   171
370
    15
100
AcDbText
 10
98.61604525217217
 20
32.65467822253623
 30
0.0
 40
3.0
  1
品
 41
1.2
100
AcDbText
  0
TEXT
  5
4BA
330
1F
100
AcDbEntity
  8
143
  6
Continuous
 62
   171
370
    15
100
AcDbText
 10
98.61604525217217
 20
28.81731009514056
 30
0.0
 40
3.0
  1
名
 41
1.2
100
AcDbText
  0
TEXT
  5
4BB
330
1F
100
AcDbEntity
  8
143
  6
Continuous
 62
   171
370
    15
100
AcDbText
 10
98.61604525217217
 20
24.65467822253623
 30
0.0
 40
3.0
  1
品
 41
1.2
100
AcDbText
  0
TEXT
  5
4BC
330
1F
100
AcDbEntity
  8
143
  6
Continuous
 62
   171
370
    15
100
AcDbText
 10
98.61604525217217
 20
20.81731009514056
 30
0.0
 40
3.0
  1
番
 41
1.2
100
AcDbText
  0
TEXT
  5
4BD
330
1F
100
AcDbEntity
  8
143
  6
Continuous
 62
   171
370
    15
100
AcDbText
 10
98.61604525217217
 20
12.81731009514056
 30
0.0
 40
3.0
  1
考
 41
1.2
100
AcDbText
  0
TEXT
  5
4BE
330
1F
100
AcDbEntity
  8
143
  6
Continuous
 62
   171
370
    15
100
AcDbText
 10
98.61604525217217
 20
16.65467822253623
 30
0.0
 40
3.0
  1
備
 41
1.2
100
AcDbText
  0
VIEWPORT
  5
2A
330
1B
100
AcDbEntity
 67
     1
  8
0
100
AcDbViewport
 10
105.0
 20
148.5
 30
0.0
 40
210.0
 41
297.0
 68
     1
 69
     1
 12
105.0
 22
148.5
 13
0.0
 23
0.0
 14
0.5
 24
0.5
 15
0.5
 25
0.5
 16
0.0
 26
0.0
 36
1.0
 17
0.0
 27
0.0
 37
0.0
 42
50.0
 43
0.0
 44
0.0
 45
9.0
 50
0.0
 51
0.0
 72
   100
 90
    32800
  1

281
     0
 71
     1
 74
     0
110
0.0
120
0.0
130
0.0
111
1.0
121
0.0
131
0.0
112
0.0
122
1.0
132
0.0
 79
     0
146
0.0
170
     0
  0
ENDSEC
  0
SECTION
  2
OBJECTS
  0
DICTIONARY
  5
C
330
0
100
AcDbDictionary
281
     1
  3
ACAD_GROUP
350
D
  3
ACAD_LAYOUT
350
1A
  3
ACAD_MLINESTYLE
350
17
  3
ACAD_PLOTSETTINGS
350
19
  3
ACAD_PLOTSTYLENAME
350
E
  0
DICTIONARY
  5
D
102
{ACAD_REACTORS
330
C
102
}
330
C
100
AcDbDictionary
281
     1
  0
DICTIONARY
  5
1A
102
{ACAD_REACTORS
330
C
102
}
330
C
100
AcDbDictionary
281
     1
  3
Layout1
350
1E
  3
Layout2
350
26
  3
Model
350
22
  0
DICTIONARY
  5
17
102
{ACAD_REACTORS
330
C
102
}
330
C
100
AcDbDictionary
281
     1
  3
Standard
350
18
  0
DICTIONARY
  5
19
102
{ACAD_REACTORS
330
C
102
}
330
C
100
AcDbDictionary
281
     1
  0
ACDBDICTIONARYWDFLT
  5
E
102
{ACAD_REACTORS
330
C
102
}
330
C
100
AcDbDictionary
281
     1
  3
Normal
350
F
100
AcDbDictionaryWithDefault
340
F
  0
LAYOUT
  5
1E
102
{ACAD_REACTORS
330
1A
102
}
330
1A
100
AcDbPlotSettings
  1

  2

  4

  6

 40
0.0
 41
0.0
 42
0.0
 43
0.0
 44
0.0
 45
0.0
 46
0.0
 47
0.0
 48
0.0
 49
0.0
140
0.0
141
0.0
142
1.0
143
1.0
 70
   688
 72
     0
 73
     0
 74
     5
  7

 75
    16
 76
     0
 77
     2
 78
   300
147
1.0
148
0.0
149
0.0
100
AcDbLayout
  1
Layout1
 70
     1
 71
     1
 10
0.0
 20
0.0
 11
210.0
 21
297.0
 12
0.0
 22
0.0
 32
0.0
 14
0.0
 24
0.0
 34
0.0
 15
210.0
 25
297.0
 35
0.0
146
0.0
 13
0.0
 23
0.0
 33
0.0
 16
1.0
 26
0.0
 36
0.0
 17
0.0
 27
1.0
 37
0.0
 76
     0
330
1B
331
2A
  0
LAYOUT
  5
26
102
{ACAD_REACTORS
330
1A
102
}
330
1A
100
AcDbPlotSettings
  1

  2

  4

  6

 40
0.0
 41
0.0
 42
0.0
 43
0.0
 44
0.0
 45
0.0
 46
0.0
 47
0.0
 48
0.0
 49
0.0
140
0.0
141
0.0
142
1.0
143
1.0
 70
   688
 72
     0
 73
     0
 74
     5
  7

 75
    16
 76
     0
 77
     2
 78
   300
147
1.0
148
0.0
149
0.0
100
AcDbLayout
  1
Layout2
 70
     1
 71
     2
 10
0.0
 20
0.0
 11
0.0
 21
0.0
 12
0.0
 22
0.0
 32
0.0
 14
0.0
 24
0.0
 34
0.0
 15
0.0
 25
0.0
 35
0.0
146
0.0
 13
0.0
 23
0.0
 33
0.0
 16
1.0
 26
0.0
 36
0.0
 17
0.0
 27
1.0
 37
0.0
 76
     0
330
23
  0
LAYOUT
  5
22
102
{ACAD_REACTORS
330
1A
102
}
330
1A
100
AcDbPlotSettings
  1

  2

  4

  6

 40
0.0
 41
0.0
 42
0.0
 43
0.0
 44
0.0
 45
0.0
 46
0.0
 47
0.0
 48
0.0
 49
0.0
140
0.0
141
0.0
142
1.0
143
1.0
 70
  1712
 72
     0
 73
     0
 74
     0
  7

 75
     0
 76
     0
 77
     2
 78
   300
147
1.0
148
0.0
149
0.0
100
AcDbLayout
  1
Model
 70
     1
 71
     0
 10
0.0
 20
0.0
 11
210.0
 21
297.0
 12
0.0
 22
0.0
 32
0.0
 14
0.0
 24
0.0
 34
0.0
 15
210.0
 25
297.0
 35
0.0
146
0.0
 13
0.0
 23
0.0
 33
0.0
 16
1.0
 26
0.0
 36
0.0
 17
0.0
 27
1.0
 37
0.0
 76
     0
330
1F
  0
MLINESTYLE
  5
18
102
{ACAD_REACTORS
330
17
102
}
330
17
100
AcDbMlineStyle
  2
Standard
 70
     0
  3

 62
   256
 51
90.0
 52
90.0
 71
     2
 49
0.5
 62
   256
  6
BYLAYER
 49
-0.5
 62
   256
  6
BYLAYER
  0
ACDBPLACEHOLDER
  5
F
102
{ACAD_REACTORS
330
E
102
}
330
E
  0
ENDSEC
  0
EOF
