  0
SECTION
  2
HEADER
  9
$ACADVER
  1
AC1009
  9
$INSBASE
 10
0
 20
0
 30
0
  9
$EXTMIN
 10
0
 20
0
  9
$EXTMAX
 10
1485
 20
1050
  9
$LIMMIN
 10
0
 20
0
  9
$LIMMAX
 10
1485
 20
1050
  9
$LTSCALE
 40
5
  0
ENDSEC
  0
SECTION
  2
TABLES
  0
TABLE
  2
LTYPE
 70
     9
  0
LTYPE
  2
CONTINUOUS
 70
    64
  3
実線
 72
    65
 73
     0
 40
0.0
  0
LTYPE
  2
DASHED1
 70
    64
  3
--  --  --  --  --  --  --  --  
 72
    65
 73
     2
 40
2.5
 49
1.25
 49
-1.25
  0
LTYPE
  2
DASHED2
 70
    64
  3
----    ----    ----    ----    
 72
    65
 73
     2
 40
5.0
 49
2.5
 49
-2.5
  0
LTYPE
  2
DASHED3
 70
    64
  3
------  ------  ------  ------  
 72
    65
 73
     2
 40
5.0
 49
3.75
 49
-1.25
  0
LTYPE
  2
CENTER1
 70
    64
  3
----- - ----- - ----- - ----- - 
 72
    65
 73
     4
 40
10.0
 49
6.25
 49
-1.25
 49
1.25
 49
-1.25
  0
LTYPE
  2
CENTER2
 70
    64
  3
----------  --  ----------  --  
 72
    65
 73
     4
 40
20.0
 49
12.5
 49
-2.5
 49
2.5
 49
-2.5
  0
LTYPE
  2
PHANTOM1
 70
    64
  3
--- - - --- - - --- - - --- - - 
 72
    65
 73
     6
 40
10.0
 49
3.25
 49
-1.25
 49
1.25
 49
-1.25
 49
1.25
 49
-1.25
  0
LTYPE
  2
PHANTOM2
 70
    64
  3
--------  -  -  --------  -  -  
 72
    65
 73
     6
 40
20.0
 49
10.0
 49
-2.5
 49
1.25
 49
-2.5
 49
1.25
 49
-2.5
  0
LTYPE
  2
DOT
 70
    64
  3
-   -   -   -   -   -   -   -   
 72
    65
 73
     2
 40
2.5
 49
0.625
 49
-1.875
  0
LTYPE
  2
DUMMY
 70
    64
  3
ダミー
 72
    65
 73
     0
 40
0.0
  0
LTYPE
  2
RAND1
 70
    64
  3
ランダム線1
 72
    65
 73
     4
 40
10.0
 49
1.0
 49
-2.0
 49
3.0
 49
-4.0
  0
LTYPE
  2
RAND2
 70
    64
  3
ランダム線2
 72
    65
 73
     4
 40
14.0
 49
2.0
 49
-3.0
 49
4.0
 49
-5.0
  0
LTYPE
  2
RAND3
 70
    64
  3
ランダム線3
 72
    65
 73
     4
 40
18.0
 49
3.0
 49
-4.0
 49
5.0
 49
-6.0
  0
LTYPE
  2
RAND4
 70
    64
  3
ランダム線4
 72
    65
 73
     4
 40
22.0
 49
4.0
 49
-5.0
 49
6.0
 49
-7.0
  0
LTYPE
  2
RAND5
 70
    64
  3
ランダム線5
 72
    65
 73
     4
 40
26.0
 49
5.0
 49
-6.0
 49
7.0
 49
-8.0
  0
LTYPE
  2
LONG1
 70
    64
  3
----------  --  ----------  --  
 72
    65
 73
     4
 40
40.0
 49
32.5
 49
-2.5
 49
2.5
 49
-2.5
  0
LTYPE
  2
LONG2
 70
    64
  3
--------  -  -  --------  -  -  
 72
    65
 73
     6
 40
40.0
 49
30.0
 49
-2.5
 49
1.25
 49
-2.5
 49
1.25
 49
-2.5
  0
LTYPE
  2
LONG3
 70
    64
  3
+++++++++++++++..+++++++++++++++
 72
    65
 73
     2
 40
40.0
 49
37.5
 49
-2.5
  0
LTYPE
  2
LONG4
 70
    64
  3
+++++++++++++++..+++++++++++++++
 72
    65
 73
     2
 40
80.0
 49
75.0
 49
-5.0
  0
LTYPE
  2
LONG5
 70
    64
  3
----------  --  ----------  --  
 72
    65
 73
     4
 40
60.0
 49
37.5
 49
-7.5
 49
7.5
 49
-7.5
  0
LTYPE
  2
dashed
 70
   64
  3
-------   -------------   ------
 72
   65
 73
    2
 40
7.5
 49
6
 49
-1.5
  0
LTYPE
  2
dashed_spaced
 70
   64
  3
----        --------        ----
 72
   65
 73
    2
 40
12
 49
6
 49
-6
  0
LTYPE
  2
long_dashed_dotted
 70
   64
  3
------------- --- --------------
 72
   65
 73
    4
 40
15.25
 49
12
 49
-1.5
 49
0.25
 49
-1.5
  0
LTYPE
  2
long_dashed_double-dotted
 70
   64
  3
----------- --- --- ------------
 72
   65
 73
    6
 40
17
 49
12
 49
-1.5
 49
0.25
 49
-1.5
 49
0.25
 49
-1.5
  0
LTYPE
  2
long_dashed_triplicate-dotted
 70
   64
  3
--------- --- --- --- ----------
 72
   65
 73
    8
 40
18.75
 49
12
 49
-1.5
 49
0.25
 49
-1.5
 49
0.25
 49
-1.5
 49
0.25
 49
-1.5
  0
LTYPE
  2
dotted
 70
   64
  3
   -       -       -       -    
 72
   65
 73
    2
 40
1.75
 49
0.25
 49
-1.5
  0
LTYPE
  2
chain
 70
   64
  3
-------------- -- --------------
 72
   65
 73
    4
 40
18.5
 49
12
 49
-1.5
 49
3.5
 49
-1.5
  0
LTYPE
  2
chain_double_dash
 70
   64
  3
------------ -- -- -------------
 72
   65
 73
    6
 40
23.5
 49
12
 49
-1.5
 49
3.5
 49
-1.5
 49
3.5
 49
-1.5
  0
LTYPE
  2
dashed_dotted
 70
   64
  3
-----------     -     ----------
 72
   65
 73
    4
 40
9.25
 49
6
 49
-1.5
 49
0.25
 49
-1.5
  0
LTYPE
  2
double-dashed_dotted
 70
   64
  3
------   -----------   -   -----
 72
   65
 73
    6
 40
16.75
 49
6
 49
-1.5
 49
6
 49
-1.5
 49
0.25
 49
-1.5
  0
LTYPE
  2
dashed_double-dotted
 70
   64
  3
---------    -    -    ---------
 72
   65
 73
    6
 40
11
 49
6
 49
-1.5
 49
0.25
 49
-1.5
 49
0.25
 49
-1.5
  0
LTYPE
  2
double-dashed_double-dotted
 70
   64
  3
-----   ---------   -   -   ----
 72
   65
 73
    8
 40
18.5
 49
6
 49
-1.5
 49
6
 49
-1.5
 49
0.25
 49
-1.5
 49
0.25
 49
-1.5
  0
LTYPE
  2
dashed_triplicate-dotted
 70
   64
  3
-------    -    -    -    ------
 72
   65
 73
    8
 40
12.75
 49
6
 49
-1.5
 49
0.25
 49
-1.5
 49
0.25
 49
-1.5
 49
0.25
 49
-1.5
  0
LTYPE
  2
double-dashed_triplicate-dotted
 70
   64
  3
-----  ---------  -  -  -  -----
 72
   65
 73
   10
 40
20.25
 49
6
 49
-1.5
 49
6
 49
-1.5
 49
0.25
 49
-1.5
 49
0.25
 49
-1.5
 49
0.25
 49
-1.5
  0
LTYPE
  2
undefined
 70
   64
  3
--------------------------------
 72
   65
 73
    0
 40
0
  0
ENDTAB
  0
TABLE
  2
STYLE
  5
3
100
AcDbSymbolTable
 70
     1
  0
STYLE
  5
10
100
AcDbSymbolTableRecord
100
AcDbTextStyleTableRecord
  2
STANDARD
 70
     0
 40
0.0
 41
1.0
 50
0.0
 71
     0
 42
0.2
  3
txt
  4
bigfont.shx
  0
STYLE
  5
26
100
AcDbSymbolTableRecord
100
AcDbTextStyleTableRecord
  2
TATEGAKI
 70
    68
 40
0.0
 41
1.0
 50
0.0
 71
     0
 42
1.0
  3
txt
  4
bigfont.shx
  0
ENDTAB
  0
TABLE
  2
LAYER
 70
   10
  0
LAYER
  2
_0-0_計極細
 70
   64
 62
    7
  6
CONTINUOUS
  0
LAYER
  2
_0-1_計細線
 70
   64
 62
    7
  6
CONTINUOUS
  0
LAYER
  2
_0-5_寸法線
 70
   64
 62
    7
  6
CONTINUOUS
  0
LAYER
  2
_0-7_枠細線
 70
   64
 62
    7
  6
CONTINUOUS
  0
LAYER
  2
_0-8_枠中線
 70
   64
 62
    7
  6
CONTINUOUS
  0
LAYER
  2
_0-9_枠極太
 70
   64
 62
    7
  6
CONTINUOUS
  0
LAYER
  2
_0-a_極細3
 70
   64
 62
    7
  6
CONTINUOUS
  0
LAYER
  2
_0-b_細線3
 70
   64
 62
    7
  6
CONTINUOUS
  0
LAYER
  2
_0-d_寸法3
 70
   64
 62
    7
  6
CONTINUOUS
  0
LAYER
  2
ADD_LINE
 70
   64
 62
    7
  6
CONTINUOUS
  0
ENDTAB
  0
ENDSEC
  0
SECTION
  2
BLOCKS
  0
ENDSEC
  0
SECTION
  2
ENTITIES
  0
LINE
  8
_0-7_枠細線
  6
CONTINUOUS
 62
    5
 10
1185
 20
180
 11
1185
 21
100
  0
TEXT
  8
_0-7_枠細線
 62
    5
 10
937.5
 20
97.5
 40
17.5
 41
1
 50
0
  1
備考
  7
TATEGAKI
  0
TEXT
  8
_0-7_枠細線
 62
    5
 10
937.5
 20
137.5
 40
17.5
 41
1
 50
0
  1
品番
  7
TATEGAKI
  0
TEXT
  8
_0-7_枠細線
 62
    5
 10
937.5
 20
177.5
 40
17.5
 41
1
 50
0
  1
品名
  7
TATEGAKI
  0
LINE
  8
_0-7_枠細線
  6
CONTINUOUS
 62
    5
 10
1185
 20
140
 11
925
 21
140
  0
LINE
  8
_0-7_枠細線
  6
CONTINUOUS
 62
    5
 10
950
 20
180
 11
950
 21
60
  0
LINE
  8
_0-8_枠中線
  6
CONTINUOUS
 62
    5
 10
1425
 20
180
 11
925
 21
180
  0
LINE
  8
_0-8_枠中線
  6
CONTINUOUS
 62
    5
 10
925
 20
180
 11
925
 21
60
  0
LINE
  8
_0-7_枠細線
  6
CONTINUOUS
 62
    5
 10
1245
 20
180
 11
1245
 21
60
  0
TEXT
  8
_0-7_枠細線
 62
    5
 10
1192.5
 20
160
 40
15
 41
1
 50
0
  1
縮　尺
  0
TEXT
  8
_0-7_枠細線
 62
    5
 10
1194
 20
117.5
 40
20
 41
0.7
 50
0
  1
１：５
  0
LINE
  8
_0-7_枠細線
  6
CONTINUOUS
 62
    5
 10
1185
 20
155
 11
1245
 21
155
  0
LINE
  8
_0-7_枠細線
  6
CONTINUOUS
 62
    5
 10
1245
 20
100
 11
925
 21
100
  0
LINE
  8
_0-7_枠細線
  6
CONTINUOUS
 62
    5
 10
1425
 20
90
 11
1245
 21
90
  0
LINE
  8
_0-7_枠細線
  6
CONTINUOUS
 62
    5
 10
1245
 20
120
 11
1425
 21
120
  0
LINE
  8
_0-7_枠細線
  6
CONTINUOUS
 62
    5
 10
1425
 20
140
 11
1245
 21
140
  0
TEXT
  8
_0-7_枠細線
 62
    5
 10
1255
 20
147.5
 40
25
 41
0.8
 50
0
  1
株式会社シマブン
  0
TEXT
  8
_0-7_枠細線
 62
    5
 10
1252.5
 20
60
 40
15
 41
1
 50
0
  1
年月日
  0
TEXT
  8
_0-7_枠細線
 62
    5
 10
1252.5
 20
75
 40
15
 41
1
 50
0
  1
作　成
  0
TEXT
  8
_0-7_枠細線
 62
    5
 10
1250
 20
95
 40
20
 41
1
 50
0
  1
島 英
  0
TEXT
  8
_0-7_枠細線
 62
    5
 10
1256.25
 20
122.5
 40
15
 41
1
 50
0
  1
承 認
  0
LINE
  8
_0-7_枠細線
  6
CONTINUOUS
 62
    5
 10
1305
 20
140
 11
1305
 21
60
  0
TEXT
  8
_0-7_枠細線
 62
    5
 10
1315
 20
95
 40
20
 41
1
 50
0
  1
隠塚
  0
TEXT
  8
_0-7_枠細線
 62
    5
 10
1316.25
 20
122.5
 40
15
 41
1
 50
0
  1
検 図
  0
LINE
  8
_0-7_枠細線
  6
CONTINUOUS
 62
    5
 10
1365
 20
140
 11
1365
 21
90
  0
TEXT
  8
_0-7_枠細線
 62
    5
 10
1375
 20
95
 40
20
 41
1
 50
0
  1
藤戸
  0
TEXT
  8
_0-7_枠細線
 62
    5
 10
1376.25
 20
122.5
 40
15
 41
1
 50
0
  1
設 計
  0
TEXT
  8
_0-7_枠細線
 62
    5
 10
965.50000000000011
 20
150
 40
20
 41
0.6
 50
0
  1
セーフティグレーチングＨ２５タイプ
  0
LINE
  8
_0-a_極細3
  6
CENTER1
 62
    7
 10
493.0754906479404
 20
227.52699371523795
 11
493.0754906479404
 21
299.31032704857807
  0
LINE
  8
_0-a_極細3
  6
CONTINUOUS
 62
    7
 10
168.07549064793989
 20
232.04615653402107
 11
168.07549064793989
 21
163.71282320068801
  0
LINE
  8
_0-a_極細3
  6
CONTINUOUS
 62
    7
 10
251.40882398127337
 20
163.71282320068801
 11
168.07549064793989
 21
163.71282320068801
  0
LINE
  8
_0-a_極細3
  6
CONTINUOUS
 62
    7
 10
168.07549064793989
 20
232.04615653402107
 11
137.23107683615879
 21
232.04615653402107
  0
LINE
  8
_0-a_極細3
  6
CONTINUOUS
 62
    7
 10
251.40882398127337
 20
163.71282320068801
 11
251.40882398127337
 21
137.47122290590866
  0
LINE
  8
_0-a_極細3
  6
CONTINUOUS
 62
    7
 10
213.9868494162836
 20
137.47122302234587
 11
240.22844959462623
 21
163.71282320068801
  0
LINE
  8
_0-a_極細3
  6
CONTINUOUS
 62
    7
 10
143.2761715176423
 20
137.47122324235897
 11
169.51777147597141
 21
163.71282320068801
  0
LINE
  8
_0-a_極細3
  6
CONTINUOUS
 62
    7
 10
137.23107683615879
 20
202.13680667953028
 11
167.14042669064995
 21
232.04615653402107
  0
LINE
  8
_0-a_極細3
  6
CONTINUOUS
 62
    7
 10
206.91578162641946
 20
137.47122304434697
 11
233.1573817827605
 21
163.71282320068801
  0
LINE
  8
_0-a_極細3
  6
CONTINUOUS
 62
    7
 10
137.23107683615879
 20
138.4971963727412
 11
168.07549064793989
 21
169.3416101845223
  0
LINE
  8
_0-a_極細3
  6
CONTINUOUS
 62
    7
 10
137.23107683615879
 20
209.20787449139564
 11
160.06935887878427
 21
232.04615653402107
  0
LINE
  8
_0-a_極細3
  6
CONTINUOUS
 62
    7
 10
199.84471383655574
 20
137.47122306634807
 11
226.08631397089516
 21
163.71282320068801
  0
LINE
  8
_0-a_極細3
  6
CONTINUOUS
 62
    7
 10
137.23107683615879
 20
145.56826418460602
 11
168.07549064793989
 21
176.41267799638769
  0
LINE
  8
_0-a_極細3
  6
CONTINUOUS
 62
    7
 10
137.23107683615879
 20
216.27894230326092
 11
152.99829106691888
 21
232.04615653402107
  0
CIRCLE
  8
_0-a_極細3
  6
CONTINUOUS
 62
    7
 10
155.12696467932599
 20
247.24956695068116
 40
0.5530864197530718
  0
CIRCLE
  8
_0-a_極細3
  6
CONTINUOUS
 62
    7
 10
144.79610048179552
 20
237.29401139512586
 40
0.5530864197530718
  0
CIRCLE
  8
_0-a_極細3
  6
CONTINUOUS
 62
    7
 10
155.40350788920273
 20
238.36067806179244
 40
0.5530864197530718
  0
CIRCLE
  8
_0-a_極細3
  6
CONTINUOUS
 62
    7
 10
168.02573011142499
 20
240.31623361734819
 40
0.5530864197530718
  0
CIRCLE
  8
_0-a_極細3
  6
CONTINUOUS
 62
    7
 10
196.47017455586891
 20
252.04956695068088
 40
0.5530864197530718
  0
CIRCLE
  8
_0-a_極細3
  6
CONTINUOUS
 62
    7
 10
221.35906344475757
 20
262.0051225062366
 40
0.5530864197530718
  0
CIRCLE
  8
_0-a_極細3
  6
CONTINUOUS
 62
    7
 10
227.04795233364649
 20
245.82734472845914
 40
0.5530864197530718
  0
CIRCLE
  8
_0-a_極細3
  6
CONTINUOUS
 62
    7
 10
202.15906344475775
 20
245.29401139512541
 40
0.5530864197530718
  0
CIRCLE
  8
_0-a_極細3
  6
CONTINUOUS
 62
    7
 10
190.42573011142466
 20
260.22734472845877
 40
0.5530864197530718
  0
CIRCLE
  8
_0-a_極細3
  6
CONTINUOUS
 62
    7
 10
174.97017455586933
 20
233.06067806179229
 40
0.5530864197530718
  0
CIRCLE
  8
_0-a_極細3
  6
CONTINUOUS
 62
    7
 10
195.41461900031322
 20
231.81623361734822
 40
0.5530864197530718
  0
CIRCLE
  8
_0-a_極細3
  6
CONTINUOUS
 62
    7
 10
220.48128566697983
 20
228.08290028401461
 40
0.5530864197530718
  0
CIRCLE
  8
_0-a_極細3
  6
CONTINUOUS
 62
    7
 10
207.85906344475762
 20
222.39401139512577
 40
0.5530864197530718
  0
CIRCLE
  8
_0-a_極細3
  6
CONTINUOUS
 62
    7
 10
193.1035078892026
 20
208.88290028401482
 40
0.5530864197530718
  0
CIRCLE
  8
_0-a_極細3
  6
CONTINUOUS
 62
    7
 10
220.48128566697983
 20
216.1717891729036
 40
0.5530864197530718
  0
CIRCLE
  8
_0-a_極細3
  6
CONTINUOUS
 62
    7
 10
179.37017455586897
 20
189.06067806179271
 40
0.5530864197530718
  0
CIRCLE
  8
_0-a_極細3
  6
CONTINUOUS
 62
    7
 10
173.6812856669801
 20
171.10512250623742
 40
0.5530864197530718
  0
CIRCLE
  8
_0-a_極細3
  6
CONTINUOUS
 62
    7
 10
182.39239677809138
 20
177.8606780617929
 40
0.5530864197530718
  0
CIRCLE
  8
_0-a_極細3
  6
CONTINUOUS
 62
    7
 10
188.6146190003135
 20
169.32734472845965
 40
0.5530864197530718
  0
CIRCLE
  8
_0-a_極細3
  6
CONTINUOUS
 62
    7
 10
227.91461900031322
 20
187.21623361734871
 40
0.5530864197530718
  0
CIRCLE
  8
_0-a_極細3
  6
CONTINUOUS
 62
    7
 10
216.71461900031346
 20
181.7051225062373
 40
0.5530864197530718
  0
CIRCLE
  8
_0-a_極細3
  6
CONTINUOUS
 62
    7
 10
222.93684122253558
 20
179.21623361734873
 40
0.5530864197530718
  0
CIRCLE
  8
_0-a_極細3
  6
CONTINUOUS
 62
    7
 10
219.38128566697998
 20
169.97178917290427
 40
0.5530864197530718
  0
CIRCLE
  8
_0-a_極細3
  6
CONTINUOUS
 62
    7
 10
239.29239677809093
 20
171.03845583957082
 40
0.5530864197530718
  0
CIRCLE
  8
_0-a_極細3
  6
CONTINUOUS
 62
    7
 10
252.27017455586861
 20
174.23845583957061
 40
0.5530864197530718
  0
CIRCLE
  8
_0-a_極細3
  6
CONTINUOUS
 62
    7
 10
265.95906344475748
 20
159.30512250623721
 40
0.5530864197530718
  0
CIRCLE
  8
_0-a_極細3
  6
CONTINUOUS
 62
    7
 10
259.02573011142408
 20
144.3717891729043
 40
0.5530864197530718
  0
CIRCLE
  8
_0-a_極細3
  6
CONTINUOUS
 62
    7
 10
242.35906344475757
 20
187.98660398771887
 40
0.5530864197530718
  0
CIRCLE
  8
_0-a_極細3
  6
CONTINUOUS
 62
    7
 10
257.1146190003131
 20
222.11993732105202
 40
0.5530864197530718
  0
CIRCLE
  8
_0-a_極細3
  6
CONTINUOUS
 62
    7
 10
272.2257301114239
 20
212.1643817654963
 40
0.5530864197530718
  0
CIRCLE
  8
_0-a_極細3
  6
CONTINUOUS
 62
    7
 10
272.7590634447572
 20
194.20882620994098
 40
0.5530864197530718
  0
CIRCLE
  8
_0-a_極細3
  6
CONTINUOUS
 62
    7
 10
237.51461900031316
 20
223.9421595432741
 40
0.5530864197530718
  0
CIRCLE
  8
_0-a_極細3
  6
CONTINUOUS
 62
    7
 10
217.22573011142435
 20
245.92611016055798
 40
1.825531472681392
  0
CIRCLE
  8
_0-a_極細3
  6
CONTINUOUS
 62
    7
 10
165.46361040998931
 20
252.85572443525598
 40
1.825531472681392
  0
CIRCLE
  8
_0-a_極細3
  6
CONTINUOUS
 62
    7
 10
214.40350788920227
 20
212.99277682722462
 40
1.825531472681392
  0
CIRCLE
  8
_0-a_極細3
  6
CONTINUOUS
 62
    7
 10
192.00350788920218
 20
223.12611016055783
 40
1.825531472681392
  0
CIRCLE
  8
_0-a_極細3
  6
CONTINUOUS
 62
    7
 10
172.40350788920225
 20
185.12611016055871
 40
1.825531472681392
  0
CIRCLE
  8
_0-a_極細3
  6
CONTINUOUS
 62
    7
 10
225.60350788920161
 20
172.32611016055856
 40
1.825531472681392
  0
CIRCLE
  8
_0-a_極細3
  6
CONTINUOUS
 62
    7
 10
261.58128566697928
 20
168.72611016055862
 40
1.825531472681392
  0
CIRCLE
  8
_0-a_極細3
  6
CONTINUOUS
 62
    7
 10
266.38128566697901
 20
150.0594434938921
 40
1.825531472681392
  0
LINE
  8
_0-a_極細3
  6
CONTINUOUS
 62
    7
 10
226.40882398127337
 20
285.37948986735455
 11
226.40882398127337
 21
273.71282320068804
  0
LINE
  8
_0-a_極細3
  6
CONTINUOUS
 62
    7
 10
226.40882398127337
 20
285.37948986735455
 11
137.23107683615879
 21
285.37948986735455
  0
LINE
  8
_0-a_極細3
  6
CONTINUOUS
 62
    7
 10
234.74215731460689
 20
273.71282320068804
 11
137.23107683615879
 21
273.71282320068804
  0
LINE
  8
_0-a_極細3
  6
CONTINUOUS
 62
    7
 10
234.74215731460689
 20
285.37948986735455
 11
226.40882398127337
 21
285.37948986735455
  0
LINE
  8
_0-a_極細3
  6
CONTINUOUS
 62
    7
 10
234.74215731460689
 20
284.54615653402107
 11
234.74215731460689
 21
285.37948986735455
  0
LINE
  8
_0-a_極細3
  6
CONTINUOUS
 62
    7
 10
234.54406705824724
 20
273.71282320068804
 11
234.74215731460646
 21
273.91091345704717
  0
LINE
  8
_0-a_極細3
  6
CONTINUOUS
 62
    7
 10
230.30142637112817
 20
273.71282320068804
 11
234.74215731460689
 21
278.15355414416626
  0
LINE
  8
_0-a_極細3
  6
CONTINUOUS
 62
    7
 10
226.40882398127337
 20
274.06286149795233
 11
234.74215731460689
 21
282.39619483128581
  0
LINE
  8
_0-a_極細3
  6
CONTINUOUS
 62
    7
 10
226.40882398127337
 20
278.30550218507142
 11
233.48281166355605
 21
285.37948986735455
  0
LINE
  8
_0-a_極細3
  6
CONTINUOUS
 62
    7
 10
226.40882398127337
 20
282.54814287219097
 11
229.24017097643699
 21
285.37948986735455
  0
LINE
  8
_0-a_極細3
  6
CONTINUOUS
 62
    7
 10
234.74215731460689
 20
283.09852299509612
 11
232.46119044234845
 21
285.37948986735455
  0
LINE
  8
_0-a_極細3
  6
CONTINUOUS
 62
    7
 10
234.74215731460689
 20
278.85588230797657
 11
228.21854975522888
 21
285.37948986735455
  0
LINE
  8
_0-a_極細3
  6
CONTINUOUS
 62
    7
 10
226.40882398127337
 20
282.94657495419096
 11
234.74215731460689
 21
274.61324162085748
  0
LINE
  8
_0-a_極細3
  6
CONTINUOUS
 62
    7
 10
226.40882398127337
 20
278.70393426707142
 11
231.39993504765675
 21
273.71282320068804
  0
LINE
  8
_0-a_極細3
  6
CONTINUOUS
 62
    7
 10
226.40882398127337
 20
274.46129357995233
 11
227.15729436053763
 21
273.71282320068804
  0
LINE
  8
_0-a_極細3
  6
CONTINUOUS
 62
    7
 10
217.57350430364269
 20
273.71282319456077
 11
226.40882398127337
 21
282.54814287219097
  0
LINE
  8
_0-a_極細3
  6
CONTINUOUS
 62
    7
 10
196.3603008533353
 20
273.71282317984924
 11
208.02696754084059
 21
285.37948986735455
  0
LINE
  8
_0-a_極細3
  6
CONTINUOUS
 62
    7
 10
175.14709740302735
 20
273.71282316513771
 11
186.81376410524379
 21
285.37948986735455
  0
LINE
  8
_0-a_極細3
  6
CONTINUOUS
 62
    7
 10
153.93389395271947
 20
273.71282315042663
 11
165.60056066964739
 21
285.37948986735455
  0
LINE
  8
_0-a_極細3
  6
CONTINUOUS
 62
    7
 10
137.23107683615879
 20
278.22320946946184
 11
144.38735723405102
 21
285.37948986735455
  0
LINE
  8
_0-a_極細3
  6
DASHED2
 62
    7
 10
206.966902578489
 20
273.71282318720478
 11
218.63356925863883
 21
285.37948986735501
  0
LINE
  8
_0-a_極細3
  6
DASHED2
 62
    7
 10
185.7536991281811
 20
273.7128231724937
 11
197.42036582304237
 21
285.37948986735455
  0
LINE
  8
_0-a_極細3
  6
DASHED2
 62
    7
 10
164.54049567787365
 20
273.71282315778262
 11
176.20716238744563
 21
285.37948986735455
  0
LINE
  8
_0-a_極細3
  6
DASHED2
 62
    7
 10
143.32729222756575
 20
273.71282314307109
 11
154.99395895184918
 21
285.37948986735455
  0
CIRCLE
  8
_0-a_極細3
  6
CONTINUOUS
 62
    7
 10
144.79610048179552
 20
266.91376448154551
 40
0.5530864197530718
  0
CIRCLE
  8
_0-a_極細3
  6
CONTINUOUS
 62
    7
 10
159.84795233364707
 20
266.36067806179199
 40
0.5530864197530718
  0
CIRCLE
  8
_0-a_極細3
  6
CONTINUOUS
 62
    7
 10
205.1812856669801
 20
260.40512250623669
 40
0.5530864197530718
  0
CIRCLE
  8
_0-a_極細3
  6
CONTINUOUS
 62
    7
 10
204.42573011142463
 20
264.72611016055771
 40
1.825531472681392
  0
CIRCLE
  8
_0-a_極細3
  6
CONTINUOUS
 62
    7
 10
145.26653086890997
 20
253.74833238278006
 40
1.825531472681392
  0
LINE
  8
_0-a_極細3
  6
CONTINUOUS
 62
    7
 10
283.90882398127337
 20
238.71282320068804
 11
284.74215731460686
 21
238.71282320068804
  0
LINE
  8
_0-a_極細3
  6
CONTINUOUS
 62
    7
 10
284.74215731460686
 20
238.71282320068804
 11
284.74215731460686
 21
137.47122290590866
  0
ARC
  8
_0-b_細線3
  6
CONTINUOUS
 62
    7
 10
239.74215731460689
 20
243.71282320068804
 40
5
 50
179.99999999999983
 51
269.99999999999977
  0
LINE
  8
_0-b_細線3
  6
CONTINUOUS
 62
    7
 10
234.74215731460689
 20
243.71282320068804
 11
234.74215731460689
 21
284.54615653402107
  0
LINE
  8
_0-b_細線3
  6
CONTINUOUS
 62
    7
 10
239.74215731460689
 20
238.71282320068804
 11
283.90882398127337
 21
238.71282320068804
  0
LINE
  8
_0-b_細線3
  6
CONTINUOUS
 62
    7
 10
284.74215731460686
 20
239.54615653402107
 11
283.90882398127337
 21
238.71282320068804
  0
LINE
  8
_0-b_細線3
  6
CONTINUOUS
 62
    7
 10
284.74215731460686
 20
242.87948986735458
 11
284.74215731460686
 21
239.54615653402107
  0
LINE
  8
_0-b_細線3
  6
CONTINUOUS
 62
    7
 10
283.90882398127337
 20
243.71282320068804
 11
284.74215731460686
 21
242.87948986735458
  0
LINE
  8
_0-b_細線3
  6
CONTINUOUS
 62
    7
 10
239.74215731460689
 20
243.71282320068804
 11
283.90882398127337
 21
243.71282320068804
  0
LINE
  8
_0-b_細線3
  6
CONTINUOUS
 62
    7
 10
235.57549064793989
 20
285.37948986735455
 11
234.74215731460689
 21
284.54615653402107
  0
LINE
  8
_0-b_細線3
  6
CONTINUOUS
 62
    7
 10
238.90882398127337
 20
285.37948986735455
 11
235.57549064793989
 21
285.37948986735455
  0
LINE
  8
_0-b_細線3
  6
CONTINUOUS
 62
    7
 10
239.74215731460689
 20
284.54615653402107
 11
238.90882398127337
 21
285.37948986735455
  0
LINE
  8
_0-b_細線3
  6
CONTINUOUS
 62
    7
 10
239.74215731460689
 20
243.71282320068804
 11
239.74215731460689
 21
284.54615653402107
  0
CIRCLE
  8
_0-a_極細3
  6
CONTINUOUS
 62
    7
 10
277.85472316697792
 20
222.72611016055819
 40
1.825531472681392
  0
CIRCLE
  8
_0-a_極細3
  6
CONTINUOUS
 62
    7
 10
276.86276714846076
 20
168.01623361734846
 40
0.5530864197530718
  0
CIRCLE
  8
_0-a_極細3
  6
CONTINUOUS
 62
    7
 10
278.1961004817947
 20
145.3601625841784
 40
0.5530864197530718
  0
CIRCLE
  8
_0-a_極細3
  6
CONTINUOUS
 62
    7
 10
265.82573011141972
 20
203.61499904944779
 40
1.825531472681392
  0
LINE
  8
_0-a_極細3
  6
CONTINUOUS
 62
    7
 10
818.07549064794057
 20
232.04615653402107
 11
818.07549064794057
 21
163.71282320068801
  0
LINE
  8
_0-a_極細3
  6
CONTINUOUS
 62
    7
 10
734.7421573146072
 20
163.71282320068801
 11
818.07549064794057
 21
163.71282320068801
  0
LINE
  8
_0-a_極細3
  6
CONTINUOUS
 62
    7
 10
818.07549064794057
 20
232.04615653402107
 11
848.91990445972169
 21
232.04615653402107
  0
LINE
  8
_0-a_極細3
  6
CONTINUOUS
 62
    7
 10
734.7421573146072
 20
163.71282320068801
 11
734.7421573146072
 21
137.47122290590866
  0
LINE
  8
_0-a_極細3
  6
CONTINUOUS
 62
    7
 10
826.36549306253357
 20
137.47122290590866
 11
848.91990450126241
 21
160.02563434463809
  0
LINE
  8
_0-a_極細3
  6
CONTINUOUS
 62
    7
 10
755.6548149438787
 20
137.47122290590866
 11
781.8964152386576
 21
163.71282320068801
  0
LINE
  8
_0-a_極細3
  6
CONTINUOUS
 62
    7
 10
818.07549064794057
 20
199.89189860997072
 11
848.9199044604776
 21
230.73631242250758
  0
LINE
  8
_0-a_極細3
  6
CONTINUOUS
 62
    7
 10
819.2944252506677
 20
137.47122290590866
 11
848.91990449718378
 21
167.09670215242483
  0
LINE
  8
_0-a_極細3
  6
CONTINUOUS
 62
    7
 10
748.58374713201283
 20
137.47122290590866
 11
774.82534742679218
 21
163.71282320068801
  0
LINE
  8
_0-a_極細3
  6
CONTINUOUS
 62
    7
 10
818.07549064794057
 20
206.96296642183643
 11
843.15868058057504
 21
232.0461563544709
  0
LINE
  8
_0-a_極細3
  6
CONTINUOUS
 62
    7
 10
812.22335743880251
 20
137.47122290590866
 11
848.91990449310526
 21
174.16776996021142
  0
LINE
  8
_0-a_極細3
  6
CONTINUOUS
 62
    7
 10
741.51267932014764
 20
137.47122290590866
 11
767.75427961492642
 21
163.71282320068801
  0
LINE
  8
_0-a_極細3
  6
CONTINUOUS
 62
    7
 10
818.07549064794057
 20
214.03403423370128
 11
836.08761281932584
 21
232.04615640508703
  0
CIRCLE
  8
_0-a_極細3
  6
CONTINUOUS
 62
    7
 10
721.14795233364475
 20
222.5671595432741
 40
0.5530864197530718
  0
CIRCLE
  8
_0-a_極細3
  6
CONTINUOUS
 62
    7
 10
731.10350788920005
 20
227.36715954327428
 40
0.5530864197530718
  0
CIRCLE
  8
_0-a_極細3
  6
CONTINUOUS
 62
    7
 10
727.01461900031165
 20
202.38938176549624
 40
0.5530864197530718
  0
CIRCLE
  8
_0-a_極細3
  6
CONTINUOUS
 62
    7
 10
744.54795233364439
 20
185.36715954327434
 40
0.5530864197530718
  0
CIRCLE
  8
_0-a_極細3
  6
CONTINUOUS
 62
    7
 10
726.71461900031136
 20
162.06715954327456
 40
0.5530864197530718
  0
CIRCLE
  8
_0-a_極細3
  6
CONTINUOUS
 62
    7
 10
717.38128566697833
 20
144.20049287660822
 40
0.5530864197530718
  0
CIRCLE
  8
_0-a_極細3
  6
CONTINUOUS
 62
    7
 10
728.84795233364457
 20
174.06715954327453
 40
0.5530864197530718
  0
CIRCLE
  8
_0-a_極細3
  6
CONTINUOUS
 62
    7
 10
742.71461900031102
 20
169.26715954327483
 40
0.5530864197530718
  0
CIRCLE
  8
_0-a_極細3
  6
CONTINUOUS
 62
    7
 10
769.64795233364384
 20
169.53382620994125
 40
0.5530864197530718
  0
CIRCLE
  8
_0-a_極細3
  6
CONTINUOUS
 62
    7
 10
757.64795233364441
 20
178.60049287660786
 40
0.5530864197530718
  0
CIRCLE
  8
_0-a_極細3
  6
CONTINUOUS
 62
    7
 10
768.84795233364412
 20
184.20049287660774
 40
0.5530864197530718
  0
CIRCLE
  8
_0-a_極細3
  6
CONTINUOUS
 62
    7
 10
759.35906344475507
 20
258.22271509882921
 40
0.5530864197530718
  0
CIRCLE
  8
_0-a_極細3
  6
CONTINUOUS
 62
    7
 10
756.87017455586658
 20
238.48938176549609
 40
0.5530864197530718
  0
CIRCLE
  8
_0-a_極細3
  6
CONTINUOUS
 62
    7
 10
777.40350788919943
 20
237.77827065438487
 40
0.5530864197530718
  0
CIRCLE
  8
_0-a_極細3
  6
CONTINUOUS
 62
    7
 10
765.80350788919941
 20
223.77827065438487
 40
0.5530864197530718
  0
CIRCLE
  8
_0-a_極細3
  6
CONTINUOUS
 62
    7
 10
805.00350788919889
 20
170.57827065438602
 40
0.5530864197530718
  0
CIRCLE
  8
_0-a_極細3
  6
CONTINUOUS
 62
    7
 10
812.20350788919916
 20
184.57827065438551
 40
0.5530864197530718
  0
CIRCLE
  8
_0-a_極細3
  6
CONTINUOUS
 62
    7
 10
810.60350788919914
 20
205.37827065438523
 40
0.5530864197530718
  0
CIRCLE
  8
_0-a_極細3
  6
CONTINUOUS
 62
    7
 10
792.60350788919925
 20
226.57827065438508
 40
0.5530864197530718
  0
CIRCLE
  8
_0-a_極細3
  6
CONTINUOUS
 62
    7
 10
809.40350788919886
 20
246.17827065438451
 40
0.5530864197530718
  0
CIRCLE
  8
_0-a_極細3
  6
CONTINUOUS
 62
    7
 10
806.60350788919914
 20
219.37827065438526
 40
0.5530864197530718
  0
CIRCLE
  8
_0-a_極細3
  6
CONTINUOUS
 62
    7
 10
836.20350788919859
 20
240.57827065438505
 40
0.5530864197530718
  0
CIRCLE
  8
_0-a_極細3
  6
CONTINUOUS
 62
    7
 10
831.40350788919841
 20
254.34833238278
 40
1.825531472681392
  0
CIRCLE
  8
_0-a_極細3
  6
CONTINUOUS
 62
    7
 10
815.75906344475425
 20
238.88166571611328
 40
1.825531472681392
  0
CIRCLE
  8
_0-a_極細3
  6
CONTINUOUS
 62
    7
 10
760.33684122253271
 20
245.45944349389086
 40
1.825531472681392
  0
CIRCLE
  8
_0-a_極細3
  6
CONTINUOUS
 62
    7
 10
792.33684122253237
 20
213.45944349389174
 40
1.825531472681392
  0
CIRCLE
  8
_0-a_極細3
  6
CONTINUOUS
 62
    7
 10
721.94239677808946
 20
168.90944349389201
 40
1.825531472681392
  0
CIRCLE
  8
_0-a_極細3
  6
CONTINUOUS
 62
    7
 10
732.16461900031118
 20
198.77611016055837
 40
1.825531472681392
  0
CIRCLE
  8
_0-a_極細3
  6
CONTINUOUS
 62
    7
 10
767.36461900031054
 20
176.37611016055871
 40
1.825531472681392
  0
CIRCLE
  8
_0-a_極細3
  6
CONTINUOUS
 62
    7
 10
813.62981163559425
 20
166.18905776858901
 40
1.825531472681392
  0
CIRCLE
  8
_0-a_極細3
  6
CONTINUOUS
 62
    7
 10
762.96461900031045
 20
219.57611016055807
 40
1.825531472681392
  0
CIRCLE
  8
_0-a_極細3
  6
CONTINUOUS
 62
    7
 10
715.49856961759542
 20
214.15290475352185
 40
0.5530864197530718
  0
CIRCLE
  8
_0-a_極細3
  6
CONTINUOUS
 62
    7
 10
715.69856961759615
 20
190.1973491979661
 40
0.5530864197530718
  0
LINE
  8
_0-a_極細3
  6
CONTINUOUS
 62
    7
 10
759.7421573146072
 20
285.37948986735455
 11
759.7421573146072
 21
273.71282320068804
  0
LINE
  8
_0-a_極細3
  6
CONTINUOUS
 62
    7
 10
759.7421573146072
 20
285.37948986735455
 11
848.91990445972169
 21
285.37948986735455
  0
LINE
  8
_0-a_極細3
  6
CONTINUOUS
 62
    7
 10
751.4088239812736
 20
273.71282320068804
 11
848.91990445972169
 21
273.71282320068804
  0
LINE
  8
_0-a_極細3
  6
CONTINUOUS
 62
    7
 10
751.4088239812736
 20
285.37948986735455
 11
759.7421573146072
 21
285.37948986735455
  0
LINE
  8
_0-a_極細3
  6
CONTINUOUS
 62
    7
 10
751.4088239812736
 20
284.54615653402107
 11
751.4088239812736
 21
285.37948986735455
  0
LINE
  8
_0-a_極細3
  6
CONTINUOUS
 62
    7
 10
759.74215731460663
 20
277.38190948141255
 11
756.07307103388212
 21
273.71282320068804
  0
LINE
  8
_0-a_極細3
  6
CONTINUOUS
 62
    7
 10
759.74215731460663
 20
281.62455016853164
 11
751.83043034676302
 21
273.71282320068804
  0
LINE
  8
_0-a_極細3
  6
CONTINUOUS
 62
    7
 10
751.4088239812736
 20
277.5338575223177
 11
759.25445632631056
 21
285.37948986735455
  0
LINE
  8
_0-a_極細3
  6
CONTINUOUS
 62
    7
 10
751.4088239812736
 20
281.77649820943725
 11
755.0118156391909
 21
285.37948986735455
  0
LINE
  8
_0-a_極細3
  6
CONTINUOUS
 62
    7
 10
759.7421573146072
 20
283.87016765784938
 11
758.23283510510146
 21
285.37948986735455
  0
LINE
  8
_0-a_極細3
  6
CONTINUOUS
 62
    7
 10
759.7421573146072
 20
279.62752697072983
 11
753.99019441798248
 21
285.37948986735455
  0
LINE
  8
_0-a_極細3
  6
CONTINUOUS
 62
    7
 10
759.7421573146072
 20
275.38488628361029
 11
751.4088239812736
 21
283.71821961694377
  0
LINE
  8
_0-a_極細3
  6
CONTINUOUS
 62
    7
 10
757.17157971041036
 20
273.71282320068804
 11
751.4088239812736
 21
279.47557892982468
  0
LINE
  8
_0-a_極細3
  6
CONTINUOUS
 62
    7
 10
752.92893902329115
 20
273.71282320068804
 11
751.4088239812736
 21
275.23293824270513
  0
LINE
  8
_0-a_極細3
  6
CONTINUOUS
 62
    7
 10
828.19796271491043
 20
273.71282320068804
 11
839.86462875478765
 21
285.37948924056582
  0
LINE
  8
_0-a_極細3
  6
CONTINUOUS
 62
    7
 10
806.98475927931349
 20
273.71282320068804
 11
818.65142548513995
 21
285.37948940651404
  0
LINE
  8
_0-a_極細3
  6
CONTINUOUS
 62
    7
 10
785.77155584371724
 20
273.71282320068804
 11
797.43822221549181
 21
285.37948957246226
  0
LINE
  8
_0-a_極細3
  6
CONTINUOUS
 62
    7
 10
764.55835240812075
 20
273.71282320068804
 11
776.22501894584411
 21
285.37948973841139
  0
LINE
  8
_0-a_極細3
  6
DASHED2
 62
    7
 10
838.80456443270862
 20
273.71282320068804
 11
848.91990445972169
 21
283.82816322770122
  0
LINE
  8
_0-a_極細3
  6
DASHED2
 62
    7
 10
817.59136099711168
 20
273.71282320068804
 11
829.25802711996414
 21
285.37948932353993
  0
LINE
  8
_0-a_極細3
  6
DASHED2
 62
    7
 10
796.37815756151542
 20
273.71282320068804
 11
808.04482385031588
 21
285.37948948948815
  0
LINE
  8
_0-a_極細3
  6
DASHED2
 62
    7
 10
775.16495412591894
 20
273.71282320068804
 11
786.83162058066785
 21
285.37948965543683
  0
LINE
  8
_0-a_極細3
  6
DASHED2
 62
    7
 10
759.74215731460663
 20
279.5032298249721
 11
765.61841731102004
 21
285.3794898213855
  0
CIRCLE
  8
_0-a_極細3
  6
CONTINUOUS
 62
    7
 10
840.2035078891987
 20
262.31160398771772
 40
0.5530864197530718
  0
CIRCLE
  8
_0-a_極細3
  6
CONTINUOUS
 62
    7
 10
823.40350788919886
 20
262.31160398771772
 40
0.5530864197530718
  0
CIRCLE
  8
_0-a_極細3
  6
CONTINUOUS
 62
    7
 10
796.60350788919914
 20
265.1116039877179
 40
0.5530864197530718
  0
CIRCLE
  8
_0-a_極細3
  6
CONTINUOUS
 62
    7
 10
807.93684122253228
 20
263.19277682722441
 40
1.825531472681392
  0
CIRCLE
  8
_0-a_極細3
  6
CONTINUOUS
 62
    7
 10
792.60350788919925
 20
257.24493732105157
 40
0.5530864197530718
  0
CIRCLE
  8
_0-a_極細3
  6
CONTINUOUS
 62
    7
 10
792.73684122253246
 20
250.92611016055798
 40
1.825531472681392
  0
CIRCLE
  8
_0-a_極細3
  6
CONTINUOUS
 62
    7
 10
771.40350788919932
 20
263.24493732105111
 40
0.5530864197530718
  0
LINE
  8
_0-a_極細3
  6
CONTINUOUS
 62
    7
 10
702.24215731460663
 20
238.71282320068804
 11
701.4088239812736
 21
238.71282320068804
  0
LINE
  8
_0-a_極細3
  6
CONTINUOUS
 62
    7
 10
701.4088239812736
 20
238.71282320068804
 11
701.4088239812736
 21
137.47122290590866
  0
ARC
  8
_0-b_細線3
  6
CONTINUOUS
 62
    7
 10
746.4088239812736
 20
243.71282320068804
 40
5
 50
269.99999999999977
 51
359.99999999999966
  0
LINE
  8
_0-b_細線3
  6
CONTINUOUS
 62
    7
 10
751.4088239812736
 20
243.71282320068804
 11
751.4088239812736
 21
284.54615653402107
  0
LINE
  8
_0-b_細線3
  6
CONTINUOUS
 62
    7
 10
746.4088239812736
 20
238.71282320068804
 11
702.24215731460663
 21
238.71282320068804
  0
LINE
  8
_0-b_細線3
  6
CONTINUOUS
 62
    7
 10
701.4088239812736
 20
239.54615653402107
 11
702.24215731460663
 21
238.71282320068804
  0
LINE
  8
_0-b_細線3
  6
CONTINUOUS
 62
    7
 10
701.4088239812736
 20
242.87948986735458
 11
701.4088239812736
 21
239.54615653402107
  0
LINE
  8
_0-b_細線3
  6
CONTINUOUS
 62
    7
 10
702.24215731460663
 20
243.71282320068804
 11
701.4088239812736
 21
242.87948986735458
  0
LINE
  8
_0-b_細線3
  6
CONTINUOUS
 62
    7
 10
746.4088239812736
 20
243.71282320068804
 11
702.24215731460663
 21
243.71282320068804
  0
LINE
  8
_0-b_細線3
  6
CONTINUOUS
 62
    7
 10
750.57549064794057
 20
285.37948986735455
 11
751.4088239812736
 21
284.54615653402107
  0
LINE
  8
_0-b_細線3
  6
CONTINUOUS
 62
    7
 10
747.2421573146072
 20
285.37948986735455
 11
750.57549064794057
 21
285.37948986735455
  0
LINE
  8
_0-b_細線3
  6
CONTINUOUS
 62
    7
 10
746.4088239812736
 20
284.54615653402107
 11
747.2421573146072
 21
285.37948986735455
  0
LINE
  8
_0-b_細線3
  6
CONTINUOUS
 62
    7
 10
746.4088239812736
 20
243.71282320068804
 11
746.4088239812736
 21
284.54615653402107
  0
CIRCLE
  8
_0-a_極細3
  6
CONTINUOUS
 62
    7
 10
707.39321982335696
 20
198.65604843216303
 40
0.5530864197530718
  0
CIRCLE
  8
_0-a_極細3
  6
CONTINUOUS
 62
    7
 10
708.69980418549676
 20
159.40049287660804
 40
0.5530864197530718
  0
CIRCLE
  8
_0-a_極細3
  6
CONTINUOUS
 62
    7
 10
708.06091529660716
 20
225.35388793833636
 40
1.825531472681392
  0
CIRCLE
  8
_0-a_極細3
  6
CONTINUOUS
 62
    7
 10
711.00906344475516
 20
152.73166571611364
 40
1.825531472681392
  0
LINE
  8
_0-d_寸法3
  6
CONTINUOUS
 62
    7
 10
234.74215731460689
 20
290.37948986735455
 11
234.74215731460689
 21
400.37948819900976
  0
LINE
  8
_0-d_寸法3
  6
CONTINUOUS
 62
    7
 10
234.74215731460689
 20
395.37948819900976
 11
244.40141557749754
 21
397.96767865003494
  0
LINE
  8
_0-d_寸法3
  6
CONTINUOUS
 62
    7
 10
234.74215731460689
 20
395.37948819900976
 11
244.40141557749754
 21
392.79129774798463
  0
LINE
  8
_0-d_寸法3
  6
CONTINUOUS
 62
    7
 10
751.4088239812736
 20
290.37948986735455
 11
751.4088239812736
 21
400.37948819900976
  0
LINE
  8
_0-d_寸法3
  6
CONTINUOUS
 62
    7
 10
751.4088239812736
 20
395.37948819900976
 11
741.74956571838288
 21
392.79129774798463
  0
LINE
  8
_0-d_寸法3
  6
CONTINUOUS
 62
    7
 10
751.4088239812736
 20
395.37948819900976
 11
741.74956571838288
 21
397.96767865003505
  0
LINE
  8
_0-d_寸法3
  6
CONTINUOUS
 62
    7
 10
234.74215731460689
 20
395.37948819900976
 11
751.4088239812736
 21
395.37948819900976
  0
TEXT
  8
_0-d_寸法3
 62
    7
 10
481.8254906479404
 20
395.37948819900976
 40
15
 41
1
 50
0
  1
310
  0
LINE
  8
_0-d_寸法3
  6
CONTINUOUS
 62
    7
 10
563.90882398308258
 20
295.3794898673541
 11
563.90882398308258
 21
337.04615653402107
  0
LINE
  8
_0-d_寸法3
  6
CONTINUOUS
 62
    7
 10
563.90882398308258
 20
332.04615653402107
 11
573.5680822459733
 21
334.63434698504625
  0
LINE
  8
_0-d_寸法3
  6
CONTINUOUS
 62
    7
 10
563.90882398308258
 20
332.04615653402107
 11
573.5680822459733
 21
329.45796608299588
  0
LINE
  8
_0-d_寸法3
  6
CONTINUOUS
 62
    7
 10
592.24215731701861
 20
295.3794898673541
 11
592.24215731701861
 21
337.04615653402107
  0
LINE
  8
_0-d_寸法3
  6
CONTINUOUS
 62
    7
 10
592.24215731701861
 20
332.04615653402107
 11
582.58289905412789
 21
329.45796608299588
  0
LINE
  8
_0-d_寸法3
  6
CONTINUOUS
 62
    7
 10
592.24215731701861
 20
332.04615653402107
 11
582.58289905412789
 21
334.63434698504636
  0
LINE
  8
_0-d_寸法3
  6
CONTINUOUS
 62
    7
 10
563.90882398308258
 20
332.04615653402107
 11
592.24215731701861
 21
332.04615653402107
  0
TEXT
  8
_0-d_寸法3
 62
    7
 10
561.91951335744579
 20
317.04615653402107
 40
15
 41
1
 50
0
  1
(17)
  0
LINE
  8
_0-d_寸法3
  6
CONTINUOUS
 62
    7
 10
592.24215731701861
 20
332.04615653402107
 11
601.90141557990933
 21
334.63434698504619
  0
LINE
  8
_0-d_寸法3
  6
CONTINUOUS
 62
    7
 10
592.24215731701861
 20
332.04615653402107
 11
601.90141557990933
 21
329.45796608299582
  0
LINE
  8
_0-d_寸法3
  6
CONTINUOUS
 62
    7
 10
620.57549065095554
 20
295.3794898673541
 11
620.57549065095554
 21
337.04615653402107
  0
LINE
  8
_0-d_寸法3
  6
CONTINUOUS
 62
    7
 10
620.57549065095554
 20
332.04615653402107
 11
610.91623238806483
 21
329.45796608299588
  0
LINE
  8
_0-d_寸法3
  6
CONTINUOUS
 62
    7
 10
620.57549065095554
 20
332.04615653402107
 11
610.91623238806483
 21
334.63434698504636
  0
LINE
  8
_0-d_寸法3
  6
CONTINUOUS
 62
    7
 10
592.24215731701861
 20
332.04615653402107
 11
620.57549065095554
 21
332.04615653402107
  0
TEXT
  8
_0-d_寸法3
 62
    7
 10
592.31951335744543
 20
332.04615653402107
 40
15
 41
1
 50
0
  1
(17)
  0
LINE
  8
_0-d_寸法3
  6
CONTINUOUS
 62
    7
 10
375.07549064368936
 20
292.04615653402107
 11
375.07549064368936
 21
337.04615653402107
  0
LINE
  8
_0-d_寸法3
  6
CONTINUOUS
 62
    7
 10
375.07549064368936
 20
332.04615653402107
 11
365.41623238079865
 21
329.45796608299588
  0
LINE
  8
_0-d_寸法3
  6
CONTINUOUS
 62
    7
 10
375.07549064368936
 20
332.04615653402107
 11
365.4162323807987
 21
334.63434698504636
  0
LINE
  8
_0-d_寸法3
  6
CONTINUOUS
 62
    7
 10
384.40882398130435
 20
292.04615653402107
 11
384.40882398130435
 21
337.04615653402107
  0
LINE
  8
_0-d_寸法3
  6
CONTINUOUS
 62
    7
 10
335.70153496052239
 20
332.04615653402107
 11
384.40882398130435
 21
332.04615653402107
  0
TEXT
  8
_0-d_寸法3
 62
    7
 10
335.70153496052239
 20
317.04615653402107
 40
15
 41
1
 50
0
  1
(5.6)
  0
LINE
  8
_0-d_寸法3
  6
CONTINUOUS
 62
    7
 10
384.40882398130435
 20
332.04615653402107
 11
394.06808224419501
 21
334.63434698504625
  0
LINE
  8
_0-d_寸法3
  6
CONTINUOUS
 62
    7
 10
384.40882398130435
 20
332.04615653402107
 11
394.06808224419501
 21
329.45796608299588
  0
LINE
  8
_0-d_寸法3
  6
CONTINUOUS
 62
    7
 10
403.40882397762539
 20
292.04615653402107
 11
403.40882397762539
 21
337.04615653402107
  0
LINE
  8
_0-d_寸法3
  6
CONTINUOUS
 62
    7
 10
403.40882397762539
 20
332.04615653402107
 11
393.74956571473467
 21
329.45796608299588
  0
LINE
  8
_0-d_寸法3
  6
CONTINUOUS
 62
    7
 10
403.40882397762539
 20
332.04615653402107
 11
393.74956571473479
 21
334.63434698504636
  0
LINE
  8
_0-d_寸法3
  6
CONTINUOUS
 62
    7
 10
384.40882398130435
 20
332.04615653402107
 11
403.40882397762539
 21
332.04615653402107
  0
TEXT
  8
_0-d_寸法3
 62
    7
 10
375.14412755311491
 20
332.04615653402107
 40
15
 41
1
 50
0
  1
11.4
  0
ARC
  8
_0-b_細線3
  6
CONTINUOUS
 62
    7
 10
556.07549065158832
 20
282.04615653402107
 40
1.666666666666667
 50
89.999999999999915
 51
179.99999999999983
  0
ARC
  8
_0-b_細線3
  6
CONTINUOUS
 62
    7
 10
556.8554059704677
 20
285.3794898673541
 40
1.666666666666667
 50
269.99999999999977
 51
330.00000000000881
  0
ARC
  8
_0-b_細線3
  6
CONTINUOUS
 62
    7
 10
559.74215731641561
 20
283.71282320068804
 40
1.666666666666667
 50
89.999999999999915
 51
150.00000000000523
  0
LINE
  8
_0-b_細線3
  6
CONTINUOUS
 62
    7
 10
556.07549065158832
 20
283.71282320068804
 11
556.8554059704677
 21
283.71282320068804
  0
ARC
  8
_0-b_細線3
  6
CONTINUOUS
 62
    7
 10
571.74215731457662
 20
282.04615653402107
 40
1.666666666666667
 50
0
 51
89.999999999999915
  0
ARC
  8
_0-b_細線3
  6
CONTINUOUS
 62
    7
 10
570.9622419956977
 20
285.3794898673541
 40
1.666666666666667
 50
209.99999999999051
 51
269.99999999999977
  0
ARC
  8
_0-b_細線3
  6
CONTINUOUS
 62
    7
 10
568.07549064974955
 20
283.71282320068804
 40
1.666666666666667
 50
29.999999999990862
 51
89.999999999999901
  0
LINE
  8
_0-b_細線3
  6
CONTINUOUS
 62
    7
 10
571.74215731457662
 20
283.71282320068804
 11
570.9622419956977
 21
283.71282320068804
  0
ARC
  8
_0-b_細線3
  6
CONTINUOUS
 62
    7
 10
555.24215731825507
 20
279.71282320068804
 40
0.8333333333333334
 50
179.99999999999983
 51
269.99999999999977
  0
LINE
  8
_0-b_細線3
  6
CONTINUOUS
 62
    7
 10
554.40882398492181
 20
282.04615653402107
 11
554.40882398492181
 21
279.71282320068804
  0
ARC
  8
_0-b_細線3
  6
CONTINUOUS
 62
    7
 10
572.57549064790965
 20
279.71282320068804
 40
0.8333333333333334
 50
269.99999999999977
 51
359.99999999999966
  0
LINE
  8
_0-b_細線3
  6
CONTINUOUS
 62
    7
 10
573.40882398124359
 20
282.04615653402107
 11
573.40882398124359
 21
279.71282320068804
  0
ARC
  8
_0-b_細線3
  6
CONTINUOUS
 62
    7
 10
559.40882398492181
 20
277.21282320068804
 40
1.666666666666667
 50
0
 51
89.999999999999915
  0
LINE
  8
_0-b_細線3
  6
CONTINUOUS
 62
    7
 10
559.40882398492181
 20
278.8794898673541
 11
555.24215731825507
 21
278.8794898673541
  0
ARC
  8
_0-b_細線3
  6
CONTINUOUS
 62
    7
 10
568.40882398492158
 20
277.21282320068804
 40
1.666666666666667
 50
89.999999999999915
 51
179.99999999999983
  0
LINE
  8
_0-b_細線3
  6
CONTINUOUS
 62
    7
 10
568.40882398124268
 20
278.8794898673541
 11
572.57549064790965
 21
278.8794898673541
  0
LINE
  8
_0-b_細線3
  6
CONTINUOUS
 62
    7
 10
568.07549064974955
 20
285.3794898673541
 11
559.74215731641561
 21
285.3794898673541
  0
LINE
  8
_0-b_細線3
  6
CONTINUOUS
 62
    7
 10
561.0754906497491
 20
243.71282320068804
 11
561.07549065158832
 21
277.21282320068804
  0
LINE
  8
_0-b_細線3
  6
CONTINUOUS
 62
    7
 10
566.74215731641561
 20
243.71282320068804
 11
566.74215731825552
 21
277.21282320068804
  0
LINE
  8
_0-b_細線3
  6
CONTINUOUS
 62
    7
 10
566.74215731641561
 20
243.71282320068804
 11
561.0754906497491
 21
243.71282320068804
  0
ARC
  8
_0-b_細線3
  6
CONTINUOUS
 62
    7
 10
527.7421573176523
 20
282.04615653402107
 40
1.666666666666667
 50
89.999999999999915
 51
179.99999999999983
  0
ARC
  8
_0-b_細線3
  6
CONTINUOUS
 62
    7
 10
528.52207263653122
 20
285.3794898673541
 40
1.666666666666667
 50
269.99999999999977
 51
330.00000000000881
  0
ARC
  8
_0-b_細線3
  6
CONTINUOUS
 62
    7
 10
531.40882398247936
 20
283.71282320068804
 40
1.666666666666667
 50
89.999999999999915
 51
150.00000000000915
  0
LINE
  8
_0-b_細線3
  6
CONTINUOUS
 62
    7
 10
527.7421573176523
 20
283.71282320068804
 11
528.52207263653122
 21
283.71282320068804
  0
ARC
  8
_0-b_細線3
  6
CONTINUOUS
 62
    7
 10
543.40882398063991
 20
282.04615653402107
 40
1.666666666666667
 50
0
 51
89.999999999999915
  0
ARC
  8
_0-b_細線3
  6
CONTINUOUS
 62
    7
 10
542.62890866176099
 20
285.3794898673541
 40
1.666666666666667
 50
209.99999999998269
 51
269.99999999999977
  0
ARC
  8
_0-b_細線3
  6
CONTINUOUS
 62
    7
 10
539.74215731581285
 20
283.71282320068804
 40
1.666666666666667
 50
29.999999999998682
 51
89.999999999999915
  0
LINE
  8
_0-b_細線3
  6
CONTINUOUS
 62
    7
 10
543.40882398063991
 20
283.71282320068804
 11
542.62890866176099
 21
283.71282320068804
  0
ARC
  8
_0-b_細線3
  6
CONTINUOUS
 62
    7
 10
526.90882398431881
 20
279.71282320068804
 40
0.8333333333333334
 50
179.99999999999983
 51
269.99999999999977
  0
LINE
  8
_0-b_細線3
  6
CONTINUOUS
 62
    7
 10
526.07549065098533
 20
282.04615653402107
 11
526.07549065098533
 21
279.71282320068804
  0
ARC
  8
_0-b_細線3
  6
CONTINUOUS
 62
    7
 10
544.24215731397339
 20
279.71282320068804
 40
0.8333333333333334
 50
269.99999999999977
 51
359.99999999999966
  0
LINE
  8
_0-b_細線3
  6
CONTINUOUS
 62
    7
 10
545.07549064730688
 20
282.04615653402107
 11
545.07549064730688
 21
279.71282320068804
  0
ARC
  8
_0-b_細線3
  6
CONTINUOUS
 62
    7
 10
531.07549065098533
 20
277.21282320068804
 40
1.666666666666667
 50
0
 51
89.999999999999915
  0
LINE
  8
_0-b_細線3
  6
CONTINUOUS
 62
    7
 10
531.07549065098533
 20
278.8794898673541
 11
526.90882398431881
 21
278.8794898673541
  0
ARC
  8
_0-b_細線3
  6
CONTINUOUS
 62
    7
 10
540.07549065098578
 20
277.21282320068804
 40
1.666666666666667
 50
89.999999999999915
 51
179.99999999999983
  0
LINE
  8
_0-b_細線3
  6
CONTINUOUS
 62
    7
 10
540.07549064730688
 20
278.8794898673541
 11
544.24215731397339
 21
278.8794898673541
  0
LINE
  8
_0-b_細線3
  6
CONTINUOUS
 62
    7
 10
539.74215731581285
 20
285.3794898673541
 11
531.40882398247936
 21
285.3794898673541
  0
LINE
  8
_0-b_細線3
  6
CONTINUOUS
 62
    7
 10
532.74215731581285
 20
243.71282320068804
 11
532.7421573176523
 21
277.21282320068804
  0
LINE
  8
_0-b_細線3
  6
CONTINUOUS
 62
    7
 10
538.40882398247936
 20
243.71282320068804
 11
538.40882398431881
 21
277.21282320068804
  0
LINE
  8
_0-b_細線3
  6
CONTINUOUS
 62
    7
 10
538.40882398247936
 20
243.71282320068804
 11
532.74215731581285
 21
243.71282320068804
  0
ARC
  8
_0-b_細線3
  6
CONTINUOUS
 62
    7
 10
499.40882398371582
 20
282.04615653402107
 40
1.666666666666667
 50
89.999999999999915
 51
179.99999999999983
  0
ARC
  8
_0-b_細線3
  6
CONTINUOUS
 62
    7
 10
500.18873930259525
 20
285.3794898673541
 40
1.666666666666667
 50
269.99999999999977
 51
330.00000000000881
  0
ARC
  8
_0-b_細線3
  6
CONTINUOUS
 62
    7
 10
503.07549064854334
 20
283.71282320068804
 40
1.666666666666667
 50
89.999999999999915
 51
150.00000000000915
  0
LINE
  8
_0-b_細線3
  6
CONTINUOUS
 62
    7
 10
499.40882398371582
 20
283.71282320068804
 11
500.18873930259525
 21
283.71282320068804
  0
ARC
  8
_0-b_細線3
  6
CONTINUOUS
 62
    7
 10
515.07549064670388
 20
282.04615653402107
 40
1.666666666666667
 50
0
 51
89.999999999999915
  0
ARC
  8
_0-b_細線3
  6
CONTINUOUS
 62
    7
 10
514.29557532782451
 20
285.3794898673541
 40
1.666666666666667
 50
209.99999999999051
 51
269.99999999999977
  0
ARC
  8
_0-b_細線3
  6
CONTINUOUS
 62
    7
 10
511.40882398187642
 20
283.71282320068804
 40
1.666666666666667
 50
29.999999999990862
 51
89.999999999984354
  0
LINE
  8
_0-b_細線3
  6
CONTINUOUS
 62
    7
 10
515.07549064670388
 20
283.71282320068804
 11
514.29557532782451
 21
283.71282320068804
  0
ARC
  8
_0-b_細線3
  6
CONTINUOUS
 62
    7
 10
498.57549065038233
 20
279.71282320068804
 40
0.8333333333333334
 50
179.99999999999983
 51
269.99999999999977
  0
LINE
  8
_0-b_細線3
  6
CONTINUOUS
 62
    7
 10
497.74215731704936
 20
282.04615653402107
 11
497.74215731704936
 21
279.71282320068804
  0
ARC
  8
_0-b_細線3
  6
CONTINUOUS
 62
    7
 10
515.90882398003737
 20
279.71282320068804
 40
0.8333333333333334
 50
269.99999999999977
 51
359.99999999999966
  0
LINE
  8
_0-b_細線3
  6
CONTINUOUS
 62
    7
 10
516.7421573133704
 20
282.04615653402107
 11
516.7421573133704
 21
279.71282320068804
  0
ARC
  8
_0-b_細線3
  6
CONTINUOUS
 62
    7
 10
502.74215731704936
 20
277.21282320068804
 40
1.666666666666667
 50
0
 51
89.999999999999915
  0
LINE
  8
_0-b_細線3
  6
CONTINUOUS
 62
    7
 10
502.74215731704936
 20
278.8794898673541
 11
498.57549065038233
 21
278.8794898673541
  0
ARC
  8
_0-b_細線3
  6
CONTINUOUS
 62
    7
 10
511.7421573170493
 20
277.21282320068804
 40
1.666666666666667
 50
89.999999999999915
 51
179.99999999999983
  0
LINE
  8
_0-b_細線3
  6
CONTINUOUS
 62
    7
 10
511.7421573133704
 20
278.8794898673541
 11
515.90882398003737
 21
278.8794898673541
  0
LINE
  8
_0-b_細線3
  6
CONTINUOUS
 62
    7
 10
511.40882398187642
 20
285.3794898673541
 11
503.07549064854334
 21
285.3794898673541
  0
LINE
  8
_0-b_細線3
  6
CONTINUOUS
 62
    7
 10
504.40882398187637
 20
243.71282320068804
 11
504.40882398371582
 21
277.21282320068804
  0
LINE
  8
_0-b_細線3
  6
CONTINUOUS
 62
    7
 10
510.07549064854339
 20
243.71282320068804
 11
510.07549065038285
 21
277.21282320068804
  0
LINE
  8
_0-b_細線3
  6
CONTINUOUS
 62
    7
 10
510.07549064854339
 20
243.71282320068804
 11
504.40882398187637
 21
243.71282320068804
  0
ARC
  8
_0-b_細線3
  6
CONTINUOUS
 62
    7
 10
442.74215731584331
 20
282.04615653402107
 40
1.666666666666667
 50
89.999999999999915
 51
179.99999999999983
  0
ARC
  8
_0-b_細線3
  6
CONTINUOUS
 62
    7
 10
443.52207263472275
 20
285.3794898673541
 40
1.666666666666667
 50
269.99999999999977
 51
330.00000000000881
  0
ARC
  8
_0-b_細線3
  6
CONTINUOUS
 62
    7
 10
446.40882398067083
 20
283.71282320068804
 40
1.666666666666667
 50
89.999999999999915
 51
150.00000000000915
  0
LINE
  8
_0-b_細線3
  6
CONTINUOUS
 62
    7
 10
442.74215731584331
 20
283.71282320068804
 11
443.52207263472275
 21
283.71282320068804
  0
ARC
  8
_0-b_細線3
  6
CONTINUOUS
 62
    7
 10
458.40882397883144
 20
282.04615653402107
 40
1.666666666666667
 50
0
 51
89.999999999999915
  0
ARC
  8
_0-b_細線3
  6
CONTINUOUS
 62
    7
 10
457.62890865995246
 20
285.3794898673541
 40
1.666666666666667
 50
209.99999999998269
 51
269.99999999999977
  0
ARC
  8
_0-b_細線3
  6
CONTINUOUS
 62
    7
 10
454.74215731400392
 20
283.71282320068804
 40
1.666666666666667
 50
29.999999999990862
 51
89.999999999984354
  0
LINE
  8
_0-b_細線3
  6
CONTINUOUS
 62
    7
 10
458.40882397883144
 20
283.71282320068804
 11
457.62890865995246
 21
283.71282320068804
  0
ARC
  8
_0-b_細線3
  6
CONTINUOUS
 62
    7
 10
441.90882398250983
 20
279.71282320068804
 40
0.8333333333333334
 50
179.99999999999983
 51
269.99999999999977
  0
LINE
  8
_0-b_細線3
  6
CONTINUOUS
 62
    7
 10
441.07549064917686
 20
282.04615653402107
 11
441.07549064917686
 21
279.71282320068804
  0
ARC
  8
_0-b_細線3
  6
CONTINUOUS
 62
    7
 10
459.24215731216492
 20
279.71282320068804
 40
0.8333333333333334
 50
269.99999999999977
 51
359.99999999999966
  0
LINE
  8
_0-b_細線3
  6
CONTINUOUS
 62
    7
 10
460.07549064549835
 20
282.04615653402107
 11
460.07549064549835
 21
279.71282320068804
  0
ARC
  8
_0-b_細線3
  6
CONTINUOUS
 62
    7
 10
446.07549064917686
 20
277.21282320068804
 40
1.666666666666667
 50
0
 51
89.999999999999915
  0
LINE
  8
_0-b_細線3
  6
CONTINUOUS
 62
    7
 10
446.07549064917686
 20
278.8794898673541
 11
441.90882398250983
 21
278.8794898673541
  0
ARC
  8
_0-b_細線3
  6
CONTINUOUS
 62
    7
 10
455.0754906491768
 20
277.21282320068804
 40
1.666666666666667
 50
89.999999999999915
 51
179.99999999999983
  0
LINE
  8
_0-b_細線3
  6
CONTINUOUS
 62
    7
 10
455.07549064549789
 20
278.8794898673541
 11
459.24215731216492
 21
278.8794898673541
  0
LINE
  8
_0-b_細線3
  6
CONTINUOUS
 62
    7
 10
454.74215731400392
 20
285.3794898673541
 11
446.40882398067083
 21
285.3794898673541
  0
LINE
  8
_0-b_細線3
  6
CONTINUOUS
 62
    7
 10
447.74215731400432
 20
243.71282320068804
 11
447.74215731584331
 21
277.21282320068804
  0
LINE
  8
_0-b_細線3
  6
CONTINUOUS
 62
    7
 10
453.40882398067089
 20
243.71282320068804
 11
453.40882398251034
 21
277.21282320068804
  0
LINE
  8
_0-b_細線3
  6
CONTINUOUS
 62
    7
 10
453.40882398067089
 20
243.71282320068804
 11
447.74215731400432
 21
243.71282320068804
  0
ARC
  8
_0-b_細線3
  6
CONTINUOUS
 62
    7
 10
414.40882398190689
 20
282.04615653402107
 40
1.666666666666667
 50
89.999999999999915
 51
179.99999999999983
  0
ARC
  8
_0-b_細線3
  6
CONTINUOUS
 62
    7
 10
415.18873930078627
 20
285.3794898673541
 40
1.666666666666667
 50
269.99999999999977
 51
330.00000000000881
  0
ARC
  8
_0-b_細線3
  6
CONTINUOUS
 62
    7
 10
418.07549064673435
 20
283.71282320068804
 40
1.666666666666667
 50
89.999999999999915
 51
150.00000000000915
  0
LINE
  8
_0-b_細線3
  6
CONTINUOUS
 62
    7
 10
414.40882398190689
 20
283.71282320068804
 11
415.18873930078627
 21
283.71282320068804
  0
ARC
  8
_0-b_細線3
  6
CONTINUOUS
 62
    7
 10
430.07549064489496
 20
282.04615653402107
 40
1.666666666666667
 50
0
 51
89.999999999999915
  0
ARC
  8
_0-b_細線3
  6
CONTINUOUS
 62
    7
 10
429.29557532601558
 20
285.3794898673541
 40
1.666666666666667
 50
209.99999999999051
 51
269.99999999999977
  0
ARC
  8
_0-b_細線3
  6
CONTINUOUS
 62
    7
 10
426.40882398006789
 20
283.71282320068804
 40
1.666666666666667
 50
29.999999999998682
 51
89.999999999999915
  0
LINE
  8
_0-b_細線3
  6
CONTINUOUS
 62
    7
 10
430.07549064489496
 20
283.71282320068804
 11
429.29557532601558
 21
283.71282320068804
  0
ARC
  8
_0-b_細線3
  6
CONTINUOUS
 62
    7
 10
413.5754906485738
 20
279.71282320068804
 40
0.8333333333333334
 50
179.99999999999983
 51
269.99999999999977
  0
LINE
  8
_0-b_細線3
  6
CONTINUOUS
 62
    7
 10
412.74215731524038
 20
282.04615653402107
 11
412.74215731524038
 21
279.71282320068804
  0
ARC
  8
_0-b_細線3
  6
CONTINUOUS
 62
    7
 10
430.90882397822838
 20
279.71282320068804
 40
0.8333333333333334
 50
269.99999999999977
 51
359.99999999999966
  0
LINE
  8
_0-b_細線3
  6
CONTINUOUS
 62
    7
 10
431.74215731156147
 20
282.04615653402107
 11
431.74215731156147
 21
279.71282320068804
  0
ARC
  8
_0-b_細線3
  6
CONTINUOUS
 62
    7
 10
417.74215731524038
 20
277.21282320068804
 40
1.666666666666667
 50
0
 51
89.999999999999915
  0
LINE
  8
_0-b_細線3
  6
CONTINUOUS
 62
    7
 10
417.74215731524038
 20
278.8794898673541
 11
413.5754906485738
 21
278.8794898673541
  0
ARC
  8
_0-b_細線3
  6
CONTINUOUS
 62
    7
 10
426.74215731524038
 20
277.21282320068804
 40
1.666666666666667
 50
89.999999999999915
 51
179.99999999999983
  0
LINE
  8
_0-b_細線3
  6
CONTINUOUS
 62
    7
 10
426.74215731156147
 20
278.8794898673541
 11
430.90882397822838
 21
278.8794898673541
  0
LINE
  8
_0-b_細線3
  6
CONTINUOUS
 62
    7
 10
426.40882398006789
 20
285.3794898673541
 11
418.07549064673435
 21
285.3794898673541
  0
LINE
  8
_0-b_細線3
  6
CONTINUOUS
 62
    7
 10
419.40882398006744
 20
243.71282320068804
 11
419.40882398190689
 21
277.21282320068804
  0
LINE
  8
_0-b_細線3
  6
CONTINUOUS
 62
    7
 10
425.07549064673441
 20
243.71282320068804
 11
425.07549064857386
 21
277.21282320068804
  0
LINE
  8
_0-b_細線3
  6
CONTINUOUS
 62
    7
 10
425.07549064673441
 20
243.71282320068804
 11
419.40882398006744
 21
243.71282320068804
  0
ARC
  8
_0-b_細線3
  6
CONTINUOUS
 62
    7
 10
386.07549064797041
 20
282.04615653402107
 40
1.666666666666667
 50
89.999999999999915
 51
179.99999999999983
  0
ARC
  8
_0-b_細線3
  6
CONTINUOUS
 62
    7
 10
386.85540596684973
 20
285.3794898673541
 40
1.666666666666667
 50
269.99999999999977
 51
330.00000000000881
  0
ARC
  8
_0-b_細線3
  6
CONTINUOUS
 62
    7
 10
389.74215731279793
 20
283.71282320068804
 40
1.666666666666667
 50
89.999999999999915
 51
150.00000000000915
  0
LINE
  8
_0-b_細線3
  6
CONTINUOUS
 62
    7
 10
386.07549064797041
 20
283.71282320068804
 11
386.85540596684973
 21
283.71282320068804
  0
ARC
  8
_0-b_細線3
  6
CONTINUOUS
 62
    7
 10
401.74215731095842
 20
282.04615653402107
 40
1.666666666666667
 50
0
 51
89.999999999999915
  0
ARC
  8
_0-b_細線3
  6
CONTINUOUS
 62
    7
 10
400.9622419920795
 20
285.3794898673541
 40
1.666666666666667
 50
209.99999999998269
 51
269.99999999999977
  0
ARC
  8
_0-b_細線3
  6
CONTINUOUS
 62
    7
 10
398.0754906461309
 20
283.71282320068804
 40
1.666666666666667
 50
29.999999999990862
 51
89.999999999984354
  0
LINE
  8
_0-b_細線3
  6
CONTINUOUS
 62
    7
 10
401.74215731095842
 20
283.71282320068804
 11
400.9622419920795
 21
283.71282320068804
  0
ARC
  8
_0-b_細線3
  6
CONTINUOUS
 62
    7
 10
385.24215731463732
 20
279.71282320068804
 40
0.8333333333333334
 50
179.99999999999983
 51
269.99999999999977
  0
LINE
  8
_0-b_細線3
  6
CONTINUOUS
 62
    7
 10
384.40882398130384
 20
282.04615653402107
 11
384.40882398130384
 21
279.71282320068804
  0
ARC
  8
_0-b_細線3
  6
CONTINUOUS
 62
    7
 10
402.5754906442919
 20
279.71282320068804
 40
0.8333333333333334
 50
269.99999999999977
 51
359.99999999999966
  0
LINE
  8
_0-b_細線3
  6
CONTINUOUS
 62
    7
 10
403.40882397762539
 20
282.04615653402107
 11
403.40882397762539
 21
279.71282320068804
  0
ARC
  8
_0-b_細線3
  6
CONTINUOUS
 62
    7
 10
389.40882398130384
 20
277.21282320068804
 40
1.666666666666667
 50
0
 51
89.999999999999915
  0
LINE
  8
_0-b_細線3
  6
CONTINUOUS
 62
    7
 10
389.40882398130384
 20
278.8794898673541
 11
385.24215731463732
 21
278.8794898673541
  0
ARC
  8
_0-b_細線3
  6
CONTINUOUS
 62
    7
 10
398.4088239813039
 20
277.21282320068804
 40
1.666666666666667
 50
89.999999999999915
 51
179.99999999999983
  0
LINE
  8
_0-b_細線3
  6
CONTINUOUS
 62
    7
 10
398.40882397762499
 20
278.8794898673541
 11
402.5754906442919
 21
278.8794898673541
  0
LINE
  8
_0-b_細線3
  6
CONTINUOUS
 62
    7
 10
398.0754906461309
 20
285.3794898673541
 11
389.74215731279793
 21
285.3794898673541
  0
LINE
  8
_0-b_細線3
  6
CONTINUOUS
 62
    7
 10
391.07549064613136
 20
243.71282320068804
 11
391.07549064797041
 21
277.21282320068804
  0
LINE
  8
_0-b_細線3
  6
CONTINUOUS
 62
    7
 10
396.74215731279787
 20
243.71282320068804
 11
396.74215731463732
 21
277.21282320068804
  0
LINE
  8
_0-b_細線3
  6
CONTINUOUS
 62
    7
 10
396.74215731279787
 20
243.71282320068804
 11
391.07549064613136
 21
243.71282320068804
  0
ARC
  8
_0-b_細線3
  6
CONTINUOUS
 62
    7
 10
584.40882398520807
 20
282.04615653402107
 40
1.666666666666667
 50
89.999999999999915
 51
179.99999999999983
  0
ARC
  8
_0-b_細線3
  6
CONTINUOUS
 62
    7
 10
585.18873930408699
 20
285.3794898673541
 40
1.666666666666667
 50
269.99999999999977
 51
330.00000000000881
  0
ARC
  8
_0-b_細線3
  6
CONTINUOUS
 62
    7
 10
588.07549065003514
 20
283.71282320068804
 40
1.666666666666667
 50
89.999999999999915
 51
150.00000000000915
  0
LINE
  8
_0-b_細線3
  6
CONTINUOUS
 62
    7
 10
584.40882398520807
 20
283.71282320068804
 11
585.18873930408699
 21
283.71282320068804
  0
ARC
  8
_0-b_細線3
  6
CONTINUOUS
 62
    7
 10
600.07549064819614
 20
282.04615653402107
 40
1.666666666666667
 50
0
 51
89.999999999999915
  0
ARC
  8
_0-b_細線3
  6
CONTINUOUS
 62
    7
 10
599.29557532931631
 20
285.3794898673541
 40
1.666666666666667
 50
209.99999999999051
 51
269.99999999999977
  0
ARC
  8
_0-b_細線3
  6
CONTINUOUS
 62
    7
 10
596.40882398336817
 20
283.71282320068804
 40
1.666666666666667
 50
29.999999999990862
 51
89.999999999999901
  0
LINE
  8
_0-b_細線3
  6
CONTINUOUS
 62
    7
 10
600.07549064819614
 20
283.71282320068804
 11
599.29557532931631
 21
283.71282320068804
  0
ARC
  8
_0-b_細線3
  6
CONTINUOUS
 62
    7
 10
583.57549065187504
 20
279.71282320068804
 40
0.8333333333333334
 50
179.99999999999983
 51
269.99999999999977
  0
LINE
  8
_0-b_細線3
  6
CONTINUOUS
 62
    7
 10
582.7421573185411
 20
282.04615653402107
 11
582.7421573185411
 21
279.71282320068804
  0
ARC
  8
_0-b_細線3
  6
CONTINUOUS
 62
    7
 10
600.90882398152917
 20
279.71282320068804
 40
0.8333333333333334
 50
269.99999999999977
 51
359.99999999999966
  0
LINE
  8
_0-b_細線3
  6
CONTINUOUS
 62
    7
 10
601.7421573148622
 20
282.04615653402107
 11
601.7421573148622
 21
279.71282320068804
  0
ARC
  8
_0-b_細線3
  6
CONTINUOUS
 62
    7
 10
587.7421573185411
 20
277.21282320068804
 40
1.666666666666667
 50
0
 51
89.999999999999915
  0
LINE
  8
_0-b_細線3
  6
CONTINUOUS
 62
    7
 10
587.7421573185411
 20
278.8794898673541
 11
583.57549065187504
 21
278.8794898673541
  0
ARC
  8
_0-b_細線3
  6
CONTINUOUS
 62
    7
 10
596.7421573185411
 20
277.21282320068804
 40
1.666666666666667
 50
89.999999999999915
 51
179.99999999999983
  0
LINE
  8
_0-b_細線3
  6
CONTINUOUS
 62
    7
 10
596.7421573148622
 20
278.8794898673541
 11
600.90882398152917
 21
278.8794898673541
  0
LINE
  8
_0-b_細線3
  6
CONTINUOUS
 62
    7
 10
596.40882398336817
 20
285.3794898673541
 11
588.07549065003514
 21
285.3794898673541
  0
LINE
  8
_0-b_細線3
  6
CONTINUOUS
 62
    7
 10
589.40882398336907
 20
243.71282320068804
 11
589.40882398520807
 21
277.21282320068804
  0
LINE
  8
_0-b_細線3
  6
CONTINUOUS
 62
    7
 10
595.07549065003514
 20
243.71282320068804
 11
595.07549065187504
 21
277.21282320068804
  0
LINE
  8
_0-b_細線3
  6
CONTINUOUS
 62
    7
 10
595.07549065003514
 20
243.71282320068804
 11
589.40882398336907
 21
243.71282320068804
  0
ARC
  8
_0-b_細線3
  6
CONTINUOUS
 62
    7
 10
612.7421573191441
 20
282.04615653402107
 40
1.666666666666667
 50
89.999999999999915
 51
179.99999999999983
  0
ARC
  8
_0-b_細線3
  6
CONTINUOUS
 62
    7
 10
613.52207263802393
 20
285.3794898673541
 40
1.666666666666667
 50
269.99999999999977
 51
330.00000000000881
  0
ARC
  8
_0-b_細線3
  6
CONTINUOUS
 62
    7
 10
616.40882398397116
 20
283.71282320068804
 40
1.666666666666667
 50
89.999999999999915
 51
149.99999999999352
  0
LINE
  8
_0-b_細線3
  6
CONTINUOUS
 62
    7
 10
612.7421573191441
 20
283.71282320068804
 11
613.52207263802393
 21
283.71282320068804
  0
ARC
  8
_0-b_細線3
  6
CONTINUOUS
 62
    7
 10
628.40882398213216
 20
282.04615653402107
 40
1.666666666666667
 50
0
 51
89.999999999999915
  0
ARC
  8
_0-b_細線3
  6
CONTINUOUS
 62
    7
 10
627.62890866325324
 20
285.3794898673541
 40
1.666666666666667
 50
209.99999999999051
 51
269.99999999999977
  0
ARC
  8
_0-b_細線3
  6
CONTINUOUS
 62
    7
 10
624.7421573173051
 20
283.71282320068804
 40
1.666666666666667
 50
29.999999999990862
 51
89.999999999999901
  0
LINE
  8
_0-b_細線3
  6
CONTINUOUS
 62
    7
 10
628.40882398213216
 20
283.71282320068804
 11
627.62890866325324
 21
283.71282320068804
  0
ARC
  8
_0-b_細線3
  6
CONTINUOUS
 62
    7
 10
611.90882398581107
 20
279.71282320068804
 40
0.8333333333333334
 50
179.99999999999983
 51
269.99999999999977
  0
LINE
  8
_0-b_細線3
  6
CONTINUOUS
 62
    7
 10
611.07549065247804
 20
282.04615653402107
 11
611.07549065247804
 21
279.71282320068804
  0
ARC
  8
_0-b_細線3
  6
CONTINUOUS
 62
    7
 10
629.2421573154661
 20
279.71282320068804
 40
0.8333333333333334
 50
269.99999999999977
 51
359.99999999999966
  0
LINE
  8
_0-b_細線3
  6
CONTINUOUS
 62
    7
 10
630.07549064879913
 20
282.04615653402107
 11
630.07549064879913
 21
279.71282320068804
  0
ARC
  8
_0-b_細線3
  6
CONTINUOUS
 62
    7
 10
616.07549065247804
 20
277.21282320068804
 40
1.666666666666667
 50
0
 51
89.999999999999915
  0
LINE
  8
_0-b_細線3
  6
CONTINUOUS
 62
    7
 10
616.07549065247804
 20
278.8794898673541
 11
611.90882398581107
 21
278.8794898673541
  0
ARC
  8
_0-b_細線3
  6
CONTINUOUS
 62
    7
 10
625.07549065247804
 20
277.21282320068804
 40
1.666666666666667
 50
89.999999999999915
 51
179.99999999999983
  0
LINE
  8
_0-b_細線3
  6
CONTINUOUS
 62
    7
 10
625.07549064879913
 20
278.8794898673541
 11
629.2421573154661
 21
278.8794898673541
  0
LINE
  8
_0-b_細線3
  6
CONTINUOUS
 62
    7
 10
624.7421573173051
 20
285.3794898673541
 11
616.40882398397116
 21
285.3794898673541
  0
LINE
  8
_0-b_細線3
  6
CONTINUOUS
 62
    7
 10
617.7421573173051
 20
243.71282320068804
 11
617.7421573191441
 21
277.21282320068804
  0
LINE
  8
_0-b_細線3
  6
CONTINUOUS
 62
    7
 10
623.40882398397207
 20
243.71282320068804
 11
623.40882398581107
 21
277.21282320068804
  0
LINE
  8
_0-b_細線3
  6
CONTINUOUS
 62
    7
 10
623.40882398397207
 20
243.71282320068804
 11
617.7421573173051
 21
243.71282320068804
  0
ARC
  8
_0-b_細線3
  6
CONTINUOUS
 62
    7
 10
357.74215731463693
 20
282.04615653402107
 40
1.666666666666667
 50
89.999999999999915
 51
179.99999999999983
  0
ARC
  8
_0-b_細線3
  6
CONTINUOUS
 62
    7
 10
358.52207263351625
 20
285.3794898673541
 40
1.666666666666667
 50
269.99999999999977
 51
330.00000000000881
  0
ARC
  8
_0-b_細線3
  6
CONTINUOUS
 62
    7
 10
361.40882397946439
 20
283.71282320068804
 40
1.666666666666667
 50
89.999999999999915
 51
150.00000000000915
  0
LINE
  8
_0-b_細線3
  6
CONTINUOUS
 62
    7
 10
357.74215731463693
 20
283.71282320068804
 11
358.52207263351625
 21
283.71282320068804
  0
ARC
  8
_0-b_細線3
  6
CONTINUOUS
 62
    7
 10
373.40882397762493
 20
282.04615653402107
 40
1.666666666666667
 50
0
 51
89.999999999999915
  0
ARC
  8
_0-b_細線3
  6
CONTINUOUS
 62
    7
 10
372.62890865874601
 20
285.3794898673541
 40
1.666666666666667
 50
209.99999999998269
 51
269.99999999999977
  0
ARC
  8
_0-b_細線3
  6
CONTINUOUS
 62
    7
 10
369.74215731279742
 20
283.71282320068804
 40
1.666666666666667
 50
29.999999999990862
 51
89.999999999984354
  0
LINE
  8
_0-b_細線3
  6
CONTINUOUS
 62
    7
 10
373.40882397762493
 20
283.71282320068804
 11
372.62890865874601
 21
283.71282320068804
  0
ARC
  8
_0-b_細線3
  6
CONTINUOUS
 62
    7
 10
356.90882398130384
 20
279.71282320068804
 40
0.8333333333333334
 50
179.99999999999983
 51
269.99999999999977
  0
LINE
  8
_0-b_細線3
  6
CONTINUOUS
 62
    7
 10
356.07549064797035
 20
282.04615653402107
 11
356.07549064797035
 21
279.71282320068804
  0
ARC
  8
_0-b_細線3
  6
CONTINUOUS
 62
    7
 10
374.24215731095842
 20
279.71282320068804
 40
0.8333333333333334
 50
269.99999999999977
 51
359.99999999999966
  0
LINE
  8
_0-b_細線3
  6
CONTINUOUS
 62
    7
 10
375.0754906442919
 20
282.04615653402107
 11
375.0754906442919
 21
279.71282320068804
  0
ARC
  8
_0-b_細線3
  6
CONTINUOUS
 62
    7
 10
361.07549064797035
 20
277.21282320068804
 40
1.666666666666667
 50
0
 51
89.999999999999915
  0
LINE
  8
_0-b_細線3
  6
CONTINUOUS
 62
    7
 10
361.07549064797035
 20
278.8794898673541
 11
356.90882398130384
 21
278.8794898673541
  0
ARC
  8
_0-b_細線3
  6
CONTINUOUS
 62
    7
 10
370.07549064797041
 20
277.21282320068804
 40
1.666666666666667
 50
89.999999999999915
 51
179.99999999999983
  0
LINE
  8
_0-b_細線3
  6
CONTINUOUS
 62
    7
 10
370.07549064429151
 20
278.8794898673541
 11
374.24215731095842
 21
278.8794898673541
  0
LINE
  8
_0-b_細線3
  6
CONTINUOUS
 62
    7
 10
369.74215731279742
 20
285.3794898673541
 11
361.40882397946439
 21
285.3794898673541
  0
LINE
  8
_0-b_細線3
  6
CONTINUOUS
 62
    7
 10
362.74215731279787
 20
243.71282320068804
 11
362.74215731463693
 21
277.21282320068804
  0
LINE
  8
_0-b_細線3
  6
CONTINUOUS
 62
    7
 10
368.40882397946439
 20
243.71282320068804
 11
368.40882398130384
 21
277.21282320068804
  0
LINE
  8
_0-b_細線3
  6
CONTINUOUS
 62
    7
 10
368.40882397946439
 20
243.71282320068804
 11
362.74215731279787
 21
243.71282320068804
  0
ARC
  8
_0-b_細線3
  6
CONTINUOUS
 62
    7
 10
641.07549065276362
 20
282.04615653402107
 40
1.666666666666667
 50
89.999999999999915
 51
179.99999999999983
  0
ARC
  8
_0-b_細線3
  6
CONTINUOUS
 62
    7
 10
641.85540597164345
 20
285.3794898673541
 40
1.666666666666667
 50
269.99999999999977
 51
330.00000000000881
  0
ARC
  8
_0-b_細線3
  6
CONTINUOUS
 62
    7
 10
644.74215731759068
 20
283.71282320068804
 40
1.666666666666667
 50
89.999999999999915
 51
149.99999999999352
  0
LINE
  8
_0-b_細線3
  6
CONTINUOUS
 62
    7
 10
641.07549065276362
 20
283.71282320068804
 11
641.85540597164345
 21
283.71282320068804
  0
ARC
  8
_0-b_細線3
  6
CONTINUOUS
 62
    7
 10
656.74215731575168
 20
282.04615653402107
 40
1.666666666666667
 50
0
 51
89.999999999999915
  0
ARC
  8
_0-b_細線3
  6
CONTINUOUS
 62
    7
 10
655.96224199687288
 20
285.3794898673541
 40
1.666666666666667
 50
209.99999999999051
 51
269.99999999999977
  0
ARC
  8
_0-b_細線3
  6
CONTINUOUS
 62
    7
 10
653.07549065092462
 20
283.71282320068804
 40
1.666666666666667
 50
29.999999999990862
 51
89.999999999999901
  0
LINE
  8
_0-b_細線3
  6
CONTINUOUS
 62
    7
 10
656.74215731575168
 20
283.71282320068804
 11
655.96224199687288
 21
283.71282320068804
  0
ARC
  8
_0-b_細線3
  6
CONTINUOUS
 62
    7
 10
640.24215731943059
 20
279.71282320068804
 40
0.8333333333333334
 50
179.99999999999983
 51
269.99999999999977
  0
LINE
  8
_0-b_細線3
  6
CONTINUOUS
 62
    7
 10
639.40882398609756
 20
282.04615653402107
 11
639.40882398609756
 21
279.71282320068804
  0
ARC
  8
_0-b_細線3
  6
CONTINUOUS
 62
    7
 10
657.57549064908562
 20
279.71282320068804
 40
0.8333333333333334
 50
269.99999999999977
 51
359.99999999999966
  0
LINE
  8
_0-b_細線3
  6
CONTINUOUS
 62
    7
 10
658.40882398241877
 20
282.04615653402107
 11
658.40882398241877
 21
279.71282320068804
  0
ARC
  8
_0-b_細線3
  6
CONTINUOUS
 62
    7
 10
644.40882398609756
 20
277.21282320068804
 40
1.666666666666667
 50
0
 51
89.999999999999915
  0
LINE
  8
_0-b_細線3
  6
CONTINUOUS
 62
    7
 10
644.40882398609756
 20
278.8794898673541
 11
640.24215731943059
 21
278.8794898673541
  0
ARC
  8
_0-b_細線3
  6
CONTINUOUS
 62
    7
 10
653.40882398609767
 20
277.21282320068804
 40
1.666666666666667
 50
89.999999999999915
 51
179.99999999999983
  0
LINE
  8
_0-b_細線3
  6
CONTINUOUS
 62
    7
 10
653.40882398241877
 20
278.8794898673541
 11
657.57549064908562
 21
278.8794898673541
  0
LINE
  8
_0-b_細線3
  6
CONTINUOUS
 62
    7
 10
653.07549065092462
 20
285.3794898673541
 11
644.74215731759068
 21
285.3794898673541
  0
LINE
  8
_0-b_細線3
  6
CONTINUOUS
 62
    7
 10
646.07549065092473
 20
243.71282320068804
 11
646.07549065276362
 21
277.21282320068804
  0
LINE
  8
_0-b_細線3
  6
CONTINUOUS
 62
    7
 10
651.74215731759159
 20
243.71282320068804
 11
651.74215731943059
 21
277.21282320068804
  0
LINE
  8
_0-b_細線3
  6
CONTINUOUS
 62
    7
 10
651.74215731759159
 20
243.71282320068804
 11
646.07549065092473
 21
243.71282320068804
  0
ARC
  8
_0-b_細線3
  6
CONTINUOUS
 62
    7
 10
669.40882398638325
 20
282.04615653402107
 40
1.666666666666667
 50
89.999999999999915
 51
179.99999999999983
  0
ARC
  8
_0-b_細線3
  6
CONTINUOUS
 62
    7
 10
670.18873930526297
 20
285.3794898673541
 40
1.666666666666667
 50
269.99999999999977
 51
330.00000000000881
  0
ARC
  8
_0-b_細線3
  6
CONTINUOUS
 62
    7
 10
673.07549065121111
 20
283.71282320068804
 40
1.666666666666667
 50
89.999999999999915
 51
150.00000000000915
  0
LINE
  8
_0-b_細線3
  6
CONTINUOUS
 62
    7
 10
669.40882398638325
 20
283.71282320068804
 11
670.18873930526297
 21
283.71282320068804
  0
ARC
  8
_0-b_細線3
  6
CONTINUOUS
 62
    7
 10
685.07549064937211
 20
282.04615653402107
 40
1.666666666666667
 50
0
 51
89.999999999999915
  0
ARC
  8
_0-b_細線3
  6
CONTINUOUS
 62
    7
 10
684.29557533049228
 20
285.3794898673541
 40
1.666666666666667
 50
209.99999999999051
 51
269.99999999999977
  0
ARC
  8
_0-b_細線3
  6
CONTINUOUS
 62
    7
 10
681.40882398454426
 20
283.71282320068804
 40
1.666666666666667
 50
29.999999999990862
 51
89.999999999999901
  0
LINE
  8
_0-b_細線3
  6
CONTINUOUS
 62
    7
 10
685.07549064937211
 20
283.71282320068804
 11
684.29557533049228
 21
283.71282320068804
  0
ARC
  8
_0-b_細線3
  6
CONTINUOUS
 62
    7
 10
668.57549065305011
 20
279.71282320068804
 40
0.8333333333333334
 50
179.99999999999983
 51
269.99999999999977
  0
LINE
  8
_0-b_細線3
  6
CONTINUOUS
 62
    7
 10
667.74215731971708
 20
282.04615653402107
 11
667.74215731971708
 21
279.71282320068804
  0
ARC
  8
_0-b_細線3
  6
CONTINUOUS
 62
    7
 10
685.90882398270526
 20
279.71282320068804
 40
0.8333333333333334
 50
269.99999999999977
 51
359.99999999999966
  0
LINE
  8
_0-b_細線3
  6
CONTINUOUS
 62
    7
 10
686.74215731603817
 20
282.04615653402107
 11
686.74215731603817
 21
279.71282320068804
  0
ARC
  8
_0-b_細線3
  6
CONTINUOUS
 62
    7
 10
672.74215731971708
 20
277.21282320068804
 40
1.666666666666667
 50
0
 51
89.999999999999915
  0
LINE
  8
_0-b_細線3
  6
CONTINUOUS
 62
    7
 10
672.74215731971708
 20
278.8794898673541
 11
668.57549065305011
 21
278.8794898673541
  0
ARC
  8
_0-b_細線3
  6
CONTINUOUS
 62
    7
 10
681.74215731971708
 20
277.21282320068804
 40
1.666666666666667
 50
89.999999999999915
 51
179.99999999999983
  0
LINE
  8
_0-b_細線3
  6
CONTINUOUS
 62
    7
 10
681.74215731603817
 20
278.8794898673541
 11
685.90882398270526
 21
278.8794898673541
  0
LINE
  8
_0-b_細線3
  6
CONTINUOUS
 62
    7
 10
681.40882398454426
 20
285.3794898673541
 11
673.07549065121111
 21
285.3794898673541
  0
LINE
  8
_0-b_細線3
  6
CONTINUOUS
 62
    7
 10
674.40882398454414
 20
243.71282320068804
 11
674.40882398638325
 21
277.21282320068804
  0
LINE
  8
_0-b_細線3
  6
CONTINUOUS
 62
    7
 10
680.07549065121111
 20
243.71282320068804
 11
680.07549065305011
 21
277.21282320068804
  0
LINE
  8
_0-b_細線3
  6
CONTINUOUS
 62
    7
 10
680.07549065121111
 20
243.71282320068804
 11
674.40882398454414
 21
243.71282320068804
  0
ARC
  8
_0-b_細線3
  6
CONTINUOUS
 62
    7
 10
697.74215732000266
 20
282.04615653402107
 40
1.666666666666667
 50
89.999999999999915
 51
179.99999999999983
  0
ARC
  8
_0-b_細線3
  6
CONTINUOUS
 62
    7
 10
698.52207263888249
 20
285.3794898673541
 40
1.666666666666667
 50
269.99999999999977
 51
330.00000000000881
  0
ARC
  8
_0-b_細線3
  6
CONTINUOUS
 62
    7
 10
701.40882398483075
 20
283.71282320068804
 40
1.666666666666667
 50
89.999999999999915
 51
150.00000000000915
  0
LINE
  8
_0-b_細線3
  6
CONTINUOUS
 62
    7
 10
697.74215732000266
 20
283.71282320068804
 11
698.52207263888249
 21
283.71282320068804
  0
ARC
  8
_0-b_細線3
  6
CONTINUOUS
 62
    7
 10
713.40882398299175
 20
282.04615653402107
 40
1.666666666666667
 50
0
 51
89.999999999999915
  0
ARC
  8
_0-b_細線3
  6
CONTINUOUS
 62
    7
 10
712.6289086641118
 20
285.3794898673541
 40
1.666666666666667
 50
209.99999999999051
 51
269.99999999999977
  0
ARC
  8
_0-b_細線3
  6
CONTINUOUS
 62
    7
 10
709.74215731816366
 20
283.71282320068804
 40
1.666666666666667
 50
29.999999999990862
 51
89.999999999999901
  0
LINE
  8
_0-b_細線3
  6
CONTINUOUS
 62
    7
 10
713.40882398299175
 20
283.71282320068804
 11
712.6289086641118
 21
283.71282320068804
  0
ARC
  8
_0-b_細線3
  6
CONTINUOUS
 62
    7
 10
696.90882398666974
 20
279.71282320068804
 40
0.8333333333333334
 50
179.99999999999983
 51
269.99999999999977
  0
LINE
  8
_0-b_細線3
  6
CONTINUOUS
 62
    7
 10
696.0754906533366
 20
282.04615653402107
 11
696.0754906533366
 21
279.71282320068804
  0
ARC
  8
_0-b_細線3
  6
CONTINUOUS
 62
    7
 10
714.24215731632466
 20
279.71282320068804
 40
0.8333333333333334
 50
269.99999999999977
 51
359.99999999999966
  0
LINE
  8
_0-b_細線3
  6
CONTINUOUS
 62
    7
 10
715.0754906496577
 20
282.04615653402107
 11
715.0754906496577
 21
279.71282320068804
  0
ARC
  8
_0-b_細線3
  6
CONTINUOUS
 62
    7
 10
701.0754906533366
 20
277.21282320068804
 40
1.666666666666667
 50
0
 51
89.999999999999915
  0
LINE
  8
_0-b_細線3
  6
CONTINUOUS
 62
    7
 10
701.0754906533366
 20
278.8794898673541
 11
696.90882398666974
 21
278.8794898673541
  0
ARC
  8
_0-b_細線3
  6
CONTINUOUS
 62
    7
 10
710.0754906533366
 20
277.21282320068804
 40
1.666666666666667
 50
89.999999999999915
 51
179.99999999999983
  0
LINE
  8
_0-b_細線3
  6
CONTINUOUS
 62
    7
 10
710.0754906496577
 20
278.8794898673541
 11
714.24215731632466
 21
278.8794898673541
  0
LINE
  8
_0-b_細線3
  6
CONTINUOUS
 62
    7
 10
709.74215731816366
 20
285.3794898673541
 11
701.40882398483075
 21
285.3794898673541
  0
LINE
  8
_0-b_細線3
  6
CONTINUOUS
 62
    7
 10
702.74215731816366
 20
243.71282320068804
 11
702.74215732000266
 21
277.21282320068804
  0
LINE
  8
_0-b_細線3
  6
CONTINUOUS
 62
    7
 10
708.40882398483063
 20
243.71282320068804
 11
708.40882398666963
 21
277.21282320068804
  0
LINE
  8
_0-b_細線3
  6
CONTINUOUS
 62
    7
 10
708.40882398483063
 20
243.71282320068804
 11
702.74215731816366
 21
243.71282320068804
  0
ARC
  8
_0-b_細線3
  6
CONTINUOUS
 62
    7
 10
345.07549064311684
 20
282.04615653402107
 40
1.666666666666667
 50
0
 51
89.999999999999915
  0
ARC
  8
_0-b_細線3
  6
CONTINUOUS
 62
    7
 10
344.29557532423752
 20
285.3794898673541
 40
1.666666666666667
 50
209.99999999999051
 51
269.99999999999977
  0
ARC
  8
_0-b_細線3
  6
CONTINUOUS
 62
    7
 10
341.40882397828983
 20
283.71282320068804
 40
1.666666666666667
 50
29.999999999998682
 51
89.999999999999915
  0
LINE
  8
_0-b_細線3
  6
CONTINUOUS
 62
    7
 10
345.07549064311684
 20
283.71282320068804
 11
344.29557532423752
 21
283.71282320068804
  0
ARC
  8
_0-b_細線3
  6
CONTINUOUS
 62
    7
 10
329.40882398012883
 20
282.04615653402107
 40
1.666666666666667
 50
89.999999999999915
 51
179.99999999999983
  0
ARC
  8
_0-b_細線3
  6
CONTINUOUS
 62
    7
 10
330.18873929900815
 20
285.3794898673541
 40
1.666666666666667
 50
269.99999999999977
 51
330.00000000000881
  0
ARC
  8
_0-b_細線3
  6
CONTINUOUS
 62
    7
 10
333.07549064495629
 20
283.71282320068804
 40
1.666666666666667
 50
90.000000000015632
 51
150.00000000000915
  0
LINE
  8
_0-b_細線3
  6
CONTINUOUS
 62
    7
 10
329.40882398012883
 20
283.71282320068804
 11
330.18873929900815
 21
283.71282320068804
  0
ARC
  8
_0-b_細線3
  6
CONTINUOUS
 62
    7
 10
345.90882397645032
 20
279.71282320068804
 40
0.8333333333333334
 50
269.99999999999977
 51
359.99999999999966
  0
LINE
  8
_0-b_細線3
  6
CONTINUOUS
 62
    7
 10
346.74215730978341
 20
282.04615653402107
 11
346.74215730978341
 21
279.71282320068804
  0
ARC
  8
_0-b_細線3
  6
CONTINUOUS
 62
    7
 10
328.57549064679529
 20
279.71282320068804
 40
0.8333333333333334
 50
179.99999999999983
 51
269.99999999999977
  0
LINE
  8
_0-b_細線3
  6
CONTINUOUS
 62
    7
 10
327.74215731346226
 20
282.04615653402107
 11
327.74215731346226
 21
279.71282320068804
  0
ARC
  8
_0-b_細線3
  6
CONTINUOUS
 62
    7
 10
341.74215730978341
 20
277.21282320068804
 40
1.666666666666667
 50
89.999999999999915
 51
179.99999999999983
  0
LINE
  8
_0-b_細線3
  6
CONTINUOUS
 62
    7
 10
341.74215730978341
 20
278.8794898673541
 11
345.90882397645032
 21
278.8794898673541
  0
ARC
  8
_0-b_細線3
  6
CONTINUOUS
 62
    7
 10
332.74215730978335
 20
277.21282320068804
 40
1.666666666666667
 50
0
 51
89.999999999999915
  0
LINE
  8
_0-b_細線3
  6
CONTINUOUS
 62
    7
 10
332.74215731346226
 20
278.8794898673541
 11
328.57549064679529
 21
278.8794898673541
  0
LINE
  8
_0-b_細線3
  6
CONTINUOUS
 62
    7
 10
333.07549064495629
 20
285.3794898673541
 11
341.40882397828983
 21
285.3794898673541
  0
LINE
  8
_0-b_細線3
  6
CONTINUOUS
 62
    7
 10
340.07549064495629
 20
243.71282320068804
 11
340.07549064311684
 21
277.21282320068804
  0
LINE
  8
_0-b_細線3
  6
CONTINUOUS
 62
    7
 10
334.40882397828938
 20
243.71282320068804
 11
334.40882397644992
 21
277.21282320068804
  0
LINE
  8
_0-b_細線3
  6
CONTINUOUS
 62
    7
 10
334.40882397828938
 20
243.71282320068804
 11
340.07549064495629
 21
243.71282320068804
  0
ARC
  8
_0-b_細線3
  6
CONTINUOUS
 62
    7
 10
316.74215730949732
 20
282.04615653402107
 40
1.666666666666667
 50
0
 51
89.999999999999915
  0
ARC
  8
_0-b_細線3
  6
CONTINUOUS
 62
    7
 10
315.96224199061794
 20
285.3794898673541
 40
1.666666666666667
 50
209.99999999999051
 51
269.99999999999977
  0
ARC
  8
_0-b_細線3
  6
CONTINUOUS
 62
    7
 10
313.07549064467003
 20
283.71282320068804
 40
1.666666666666667
 50
29.999999999994774
 51
89.999999999999915
  0
LINE
  8
_0-b_細線3
  6
CONTINUOUS
 62
    7
 10
316.74215730949732
 20
283.71282320068804
 11
315.96224199061794
 21
283.71282320068804
  0
ARC
  8
_0-b_細線3
  6
CONTINUOUS
 62
    7
 10
301.07549064650902
 20
282.04615653402107
 40
1.666666666666667
 50
89.999999999999915
 51
179.99999999999983
  0
ARC
  8
_0-b_細線3
  6
CONTINUOUS
 62
    7
 10
301.8554059653884
 20
285.3794898673541
 40
1.666666666666667
 50
269.99999999999977
 51
330.00000000000881
  0
ARC
  8
_0-b_細線3
  6
CONTINUOUS
 62
    7
 10
304.74215731133654
 20
283.71282320068804
 40
1.666666666666667
 50
90.00000000000783
 51
150.00000000000915
  0
LINE
  8
_0-b_細線3
  6
CONTINUOUS
 62
    7
 10
301.07549064650902
 20
283.71282320068804
 11
301.8554059653884
 21
283.71282320068804
  0
ARC
  8
_0-b_細線3
  6
CONTINUOUS
 62
    7
 10
317.57549064283057
 20
279.71282320068804
 40
0.8333333333333334
 50
269.99999999999977
 51
359.99999999999966
  0
LINE
  8
_0-b_細線3
  6
CONTINUOUS
 62
    7
 10
318.40882397616383
 20
282.04615653402107
 11
318.40882397616383
 21
279.71282320068804
  0
ARC
  8
_0-b_細線3
  6
CONTINUOUS
 62
    7
 10
300.24215731317582
 20
279.71282320068804
 40
0.8333333333333334
 50
179.99999999999983
 51
269.99999999999977
  0
LINE
  8
_0-b_細線3
  6
CONTINUOUS
 62
    7
 10
299.40882397984251
 20
282.04615653402107
 11
299.40882397984251
 21
279.71282320068804
  0
ARC
  8
_0-b_細線3
  6
CONTINUOUS
 62
    7
 10
313.40882397616383
 20
277.21282320068804
 40
1.666666666666667
 50
89.999999999999915
 51
179.99999999999983
  0
LINE
  8
_0-b_細線3
  6
CONTINUOUS
 62
    7
 10
313.40882397616383
 20
278.8794898673541
 11
317.57549064283057
 21
278.8794898673541
  0
ARC
  8
_0-b_細線3
  6
CONTINUOUS
 62
    7
 10
304.40882397616383
 20
277.21282320068804
 40
1.666666666666667
 50
0
 51
89.999999999999915
  0
LINE
  8
_0-b_細線3
  6
CONTINUOUS
 62
    7
 10
304.40882397984274
 20
278.8794898673541
 11
300.24215731317582
 21
278.8794898673541
  0
LINE
  8
_0-b_細線3
  6
CONTINUOUS
 62
    7
 10
304.74215731133654
 20
285.3794898673541
 11
313.07549064467003
 21
285.3794898673541
  0
LINE
  8
_0-b_細線3
  6
CONTINUOUS
 62
    7
 10
311.74215731133654
 20
243.71282320068804
 11
311.74215730949732
 21
277.21282320068804
  0
LINE
  8
_0-b_細線3
  6
CONTINUOUS
 62
    7
 10
306.0754906446698
 20
243.71282320068804
 11
306.07549064283035
 21
277.21282320068804
  0
LINE
  8
_0-b_細線3
  6
CONTINUOUS
 62
    7
 10
306.0754906446698
 20
243.71282320068804
 11
311.74215731133654
 21
243.71282320068804
  0
ARC
  8
_0-b_細線3
  6
CONTINUOUS
 62
    7
 10
288.40882397587779
 20
282.04615653402107
 40
1.666666666666667
 50
0
 51
89.999999999999915
  0
ARC
  8
_0-b_細線3
  6
CONTINUOUS
 62
    7
 10
287.62890865699842
 20
285.3794898673541
 40
1.666666666666667
 50
209.99999999999051
 51
269.99999999999977
  0
ARC
  8
_0-b_細線3
  6
CONTINUOUS
 62
    7
 10
284.74215731105033
 20
283.71282320068804
 40
1.666666666666667
 50
29.999999999990862
 51
89.999999999999901
  0
LINE
  8
_0-b_細線3
  6
CONTINUOUS
 62
    7
 10
288.40882397587779
 20
283.71282320068804
 11
287.62890865699842
 21
283.71282320068804
  0
ARC
  8
_0-b_細線3
  6
CONTINUOUS
 62
    7
 10
272.74215731288933
 20
282.04615653402107
 40
1.666666666666667
 50
89.999999999999915
 51
179.99999999999983
  0
ARC
  8
_0-b_細線3
  6
CONTINUOUS
 62
    7
 10
273.52207263176865
 20
285.3794898673541
 40
1.666666666666667
 50
269.99999999999977
 51
330.00000000000881
  0
ARC
  8
_0-b_細線3
  6
CONTINUOUS
 62
    7
 10
276.40882397771679
 20
283.71282320068804
 40
1.666666666666667
 50
89.999999999999915
 51
150.00000000000915
  0
LINE
  8
_0-b_細線3
  6
CONTINUOUS
 62
    7
 10
272.74215731288933
 20
283.71282320068804
 11
273.52207263176865
 21
283.71282320068804
  0
ARC
  8
_0-b_細線3
  6
CONTINUOUS
 62
    7
 10
289.24215730921082
 20
279.71282320068804
 40
0.8333333333333334
 50
269.99999999999977
 51
359.99999999999966
  0
LINE
  8
_0-b_細線3
  6
CONTINUOUS
 62
    7
 10
290.07549064254431
 20
282.04615653402107
 11
290.07549064254431
 21
279.71282320068804
  0
ARC
  8
_0-b_細線3
  6
CONTINUOUS
 62
    7
 10
271.90882397955625
 20
279.71282320068804
 40
0.8333333333333334
 50
179.99999999999983
 51
269.99999999999977
  0
LINE
  8
_0-b_細線3
  6
CONTINUOUS
 62
    7
 10
271.07549064622276
 20
282.04615653402107
 11
271.07549064622276
 21
279.71282320068804
  0
ARC
  8
_0-b_細線3
  6
CONTINUOUS
 62
    7
 10
285.07549064254431
 20
277.21282320068804
 40
1.666666666666667
 50
89.999999999999915
 51
179.99999999999983
  0
LINE
  8
_0-b_細線3
  6
CONTINUOUS
 62
    7
 10
285.07549064254431
 20
278.8794898673541
 11
289.24215730921082
 21
278.8794898673541
  0
ARC
  8
_0-b_細線3
  6
CONTINUOUS
 62
    7
 10
276.07549064254431
 20
277.21282320068804
 40
1.666666666666667
 50
0
 51
89.999999999999915
  0
LINE
  8
_0-b_細線3
  6
CONTINUOUS
 62
    7
 10
276.07549064622322
 20
278.8794898673541
 11
271.90882397955625
 21
278.8794898673541
  0
LINE
  8
_0-b_細線3
  6
CONTINUOUS
 62
    7
 10
276.40882397771679
 20
285.3794898673541
 11
284.74215731105033
 21
285.3794898673541
  0
LINE
  8
_0-b_細線3
  6
CONTINUOUS
 62
    7
 10
283.40882397771679
 20
243.71282320068804
 11
283.40882397587779
 21
277.21282320068804
  0
LINE
  8
_0-b_細線3
  6
CONTINUOUS
 62
    7
 10
277.74215731105028
 20
243.71282320068804
 11
277.74215730921082
 21
277.21282320068804
  0
LINE
  8
_0-b_細線3
  6
CONTINUOUS
 62
    7
 10
277.74215731105028
 20
243.71282320068804
 11
283.40882397771679
 21
243.71282320068804
  0
ARC
  8
_0-b_細線3
  6
CONTINUOUS
 62
    7
 10
725.74215732028915
 20
282.04615653402107
 40
1.666666666666667
 50
89.999999999999915
 51
179.99999999999983
  0
ARC
  8
_0-b_細線3
  6
CONTINUOUS
 62
    7
 10
726.5220726391691
 20
285.3794898673541
 40
1.666666666666667
 50
269.99999999999977
 51
330.00000000000881
  0
ARC
  8
_0-b_細線3
  6
CONTINUOUS
 62
    7
 10
729.40882398511621
 20
283.71282320068804
 40
1.666666666666667
 50
89.999999999999915
 51
149.99999999999352
  0
LINE
  8
_0-b_細線3
  6
CONTINUOUS
 62
    7
 10
725.74215732028915
 20
283.71282320068804
 11
726.5220726391691
 21
283.71282320068804
  0
ARC
  8
_0-b_細線3
  6
CONTINUOUS
 62
    7
 10
741.40882398327722
 20
282.04615653402107
 40
1.666666666666667
 50
0
 51
89.999999999999915
  0
ARC
  8
_0-b_細線3
  6
CONTINUOUS
 62
    7
 10
740.6289086643983
 20
285.3794898673541
 40
1.666666666666667
 50
209.99999999999051
 51
269.99999999999977
  0
ARC
  8
_0-b_細線3
  6
CONTINUOUS
 62
    7
 10
737.74215731845015
 20
283.71282320068804
 40
1.666666666666667
 50
29.999999999990862
 51
89.999999999999901
  0
LINE
  8
_0-b_細線3
  6
CONTINUOUS
 62
    7
 10
741.40882398327722
 20
283.71282320068804
 11
740.6289086643983
 21
283.71282320068804
  0
ARC
  8
_0-b_細線3
  6
CONTINUOUS
 62
    7
 10
724.90882398695612
 20
279.71282320068804
 40
0.8333333333333334
 50
179.99999999999983
 51
269.99999999999977
  0
LINE
  8
_0-b_細線3
  6
CONTINUOUS
 62
    7
 10
724.07549065362321
 20
282.04615653402107
 11
724.07549065362321
 21
279.71282320068804
  0
ARC
  8
_0-b_細線3
  6
CONTINUOUS
 62
    7
 10
742.24215731661116
 20
279.71282320068804
 40
0.8333333333333334
 50
269.99999999999977
 51
359.99999999999966
  0
LINE
  8
_0-b_細線3
  6
CONTINUOUS
 62
    7
 10
743.07549064994419
 20
282.04615653402107
 11
743.07549064994419
 21
279.71282320068804
  0
ARC
  8
_0-b_細線3
  6
CONTINUOUS
 62
    7
 10
729.07549065362321
 20
277.21282320068804
 40
1.666666666666667
 50
0
 51
89.999999999999915
  0
LINE
  8
_0-b_細線3
  6
CONTINUOUS
 62
    7
 10
729.07549065362321
 20
278.8794898673541
 11
724.90882398695612
 21
278.8794898673541
  0
ARC
  8
_0-b_細線3
  6
CONTINUOUS
 62
    7
 10
738.07549065362309
 20
277.21282320068804
 40
1.666666666666667
 50
89.999999999999915
 51
179.99999999999983
  0
LINE
  8
_0-b_細線3
  6
CONTINUOUS
 62
    7
 10
738.07549064994419
 20
278.8794898673541
 11
742.24215731661116
 21
278.8794898673541
  0
LINE
  8
_0-b_細線3
  6
CONTINUOUS
 62
    7
 10
737.74215731845015
 20
285.3794898673541
 11
729.40882398511621
 21
285.3794898673541
  0
LINE
  8
_0-b_細線3
  6
CONTINUOUS
 62
    7
 10
730.74215731845015
 20
243.71282320068804
 11
730.74215732028915
 21
277.21282320068804
  0
LINE
  8
_0-b_細線3
  6
CONTINUOUS
 62
    7
 10
736.40882398511724
 20
243.71282320068804
 11
736.40882398695612
 21
277.21282320068804
  0
LINE
  8
_0-b_細線3
  6
CONTINUOUS
 62
    7
 10
736.40882398511724
 20
243.71282320068804
 11
730.74215731845015
 21
243.71282320068804
  0
ARC
  8
_0-b_細線3
  6
CONTINUOUS
 62
    7
 10
244.74215731403461
 20
282.04615653402107
 40
1.666666666666667
 50
89.999999999999915
 51
179.99999999999983
  0
ARC
  8
_0-b_細線3
  6
CONTINUOUS
 62
    7
 10
245.52207263291351
 20
285.3794898673541
 40
1.666666666666667
 50
269.99999999999977
 51
330.00000000000881
  0
ARC
  8
_0-b_細線3
  6
CONTINUOUS
 62
    7
 10
248.40882397886162
 20
283.71282320068804
 40
1.666666666666667
 50
89.999999999999915
 51
150.00000000000915
  0
LINE
  8
_0-b_細線3
  6
CONTINUOUS
 62
    7
 10
244.74215731403461
 20
283.71282320068804
 11
245.52207263291351
 21
283.71282320068804
  0
ARC
  8
_0-b_細線3
  6
CONTINUOUS
 62
    7
 10
260.40882397702262
 20
282.04615653402107
 40
1.666666666666667
 50
0
 51
89.999999999999915
  0
ARC
  8
_0-b_細線3
  6
CONTINUOUS
 62
    7
 10
259.6289086581433
 20
285.3794898673541
 40
1.666666666666667
 50
209.99999999999051
 51
269.99999999999977
  0
ARC
  8
_0-b_細線3
  6
CONTINUOUS
 62
    7
 10
256.7421573121951
 20
283.71282320068804
 40
1.666666666666667
 50
29.999999999990862
 51
89.999999999999901
  0
LINE
  8
_0-b_細線3
  6
CONTINUOUS
 62
    7
 10
260.40882397702262
 20
283.71282320068804
 11
259.6289086581433
 21
283.71282320068804
  0
ARC
  8
_0-b_細線3
  6
CONTINUOUS
 62
    7
 10
243.90882398070104
 20
279.71282320068804
 40
0.8333333333333334
 50
179.99999999999983
 51
269.99999999999977
  0
LINE
  8
_0-b_細線3
  6
CONTINUOUS
 62
    7
 10
243.07549064736762
 20
282.04615653402107
 11
243.07549064736762
 21
279.71282320068804
  0
ARC
  8
_0-b_細線3
  6
CONTINUOUS
 62
    7
 10
261.24215731035611
 20
279.71282320068804
 40
0.8333333333333334
 50
269.99999999999977
 51
359.99999999999966
  0
LINE
  8
_0-b_細線3
  6
CONTINUOUS
 62
    7
 10
262.07549064368919
 20
282.04615653402107
 11
262.07549064368919
 21
279.71282320068804
  0
ARC
  8
_0-b_細線3
  6
CONTINUOUS
 62
    7
 10
248.07549064736762
 20
277.21282320068804
 40
1.666666666666667
 50
0
 51
89.999999999999915
  0
LINE
  8
_0-b_細線3
  6
CONTINUOUS
 62
    7
 10
248.07549064736762
 20
278.8794898673541
 11
243.90882398070104
 21
278.8794898673541
  0
ARC
  8
_0-b_細線3
  6
CONTINUOUS
 62
    7
 10
257.0754906473681
 20
277.21282320068804
 40
1.666666666666667
 50
89.999999999999915
 51
179.99999999999983
  0
LINE
  8
_0-b_細線3
  6
CONTINUOUS
 62
    7
 10
257.07549064368919
 20
278.8794898673541
 11
261.24215731035611
 21
278.8794898673541
  0
LINE
  8
_0-b_細線3
  6
CONTINUOUS
 62
    7
 10
256.7421573121951
 20
285.3794898673541
 11
248.40882397886162
 21
285.3794898673541
  0
LINE
  8
_0-b_細線3
  6
CONTINUOUS
 62
    7
 10
249.74215731219516
 20
243.71282320068804
 11
249.74215731403461
 21
277.21282320068804
  0
LINE
  8
_0-b_細線3
  6
CONTINUOUS
 62
    7
 10
255.40882397886165
 20
243.71282320068804
 11
255.4088239807011
 21
277.21282320068804
  0
LINE
  8
_0-b_細線3
  6
CONTINUOUS
 62
    7
 10
255.40882397886165
 20
243.71282320068804
 11
249.74215731219516
 21
243.71282320068804
  0
LINE
  8
_0-d_寸法3
  6
CONTINUOUS
 62
    7
 10
470.71730353838376
 20
249.4485875641985
 11
435.57699884968309
 21
274.05409380221272
  0
LINE
  8
_0-d_寸法3
  6
CONTINUOUS
 62
    7
 10
439.67275907112798
 20
271.18621162045747
 11
437.0845686201028
 21
280.84546988334813
  0
LINE
  8
_0-d_寸法3
  6
CONTINUOUS
 62
    7
 10
439.67275907112798
 20
271.18621162045747
 11
442.26094952215328
 21
280.84546988334813
  0
LINE
  8
_0-d_寸法3
  6
CONTINUOUS
 62
    7
 10
470.71730353838376
 20
291.11525423086505
 11
435.57699884968309
 21
315.72076046887969
  0
LINE
  8
_0-d_寸法3
  6
CONTINUOUS
 62
    7
 10
439.67275907112798
 20
312.85287828712444
 11
442.26094952215317
 21
303.19362002423372
  0
LINE
  8
_0-d_寸法3
  6
CONTINUOUS
 62
    7
 10
439.67275907112798
 20
312.85287828712444
 11
437.0845686201028
 21
303.19362002423378
  0
LINE
  8
_0-d_寸法3
  6
CONTINUOUS
 62
    7
 10
439.67275907112798
 20
271.18621162045747
 11
439.67275907112798
 21
312.85287828712444
  0
TEXT
  8
_0-d_寸法3
 62
    7
 10
439.67275907112798
 20
284.5195449537905
 40
15
 41
1
 50
90
  1
25
  0
LINE
  8
_0-d_寸法3
  6
CONTINUOUS
 62
    7
 10
284.74215731460686
 20
233.71282320068804
 11
284.74215731460686
 21
173.23479796644918
  0
LINE
  8
_0-d_寸法3
  6
CONTINUOUS
 62
    7
 10
284.74215731460686
 20
178.23479796644918
 11
294.40141557749757
 21
180.82298841747439
  0
LINE
  8
_0-d_寸法3
  6
CONTINUOUS
 62
    7
 10
284.74215731460686
 20
178.23479796644918
 11
294.40141557749757
 21
175.64660751542391
  0
LINE
  8
_0-d_寸法3
  6
CONTINUOUS
 62
    7
 10
701.4088239812736
 20
233.71282320068804
 11
701.4088239812736
 21
173.23479796644918
  0
LINE
  8
_0-d_寸法3
  6
CONTINUOUS
 62
    7
 10
701.4088239812736
 20
178.23479796644918
 11
691.74956571838288
 21
175.64660751542397
  0
LINE
  8
_0-d_寸法3
  6
CONTINUOUS
 62
    7
 10
701.4088239812736
 20
178.23479796644918
 11
691.74956571838288
 21
180.82298841747445
  0
LINE
  8
_0-d_寸法3
  6
CONTINUOUS
 62
    7
 10
284.74215731460686
 20
178.23479796644918
 11
701.4088239812736
 21
178.23479796644918
  0
TEXT
  8
_0-d_寸法3
 62
    7
 10
481.8254906479404
 20
178.23479796644918
 40
15
 41
1
 50
0
  1
250
  0
LINE
  8
_0-a_極細3
  6
CONTINUOUS
 62
    7
 10
191.10208909412151
 20
188.59452436319131
 11
185.97178694423633
 21
202.68991367498032
  0
LINE
  8
_0-a_極細3
  6
CONTINUOUS
 62
    7
 10
241.09613176791797
 20
222.75353437422655
 11
246.22643391780272
 21
208.65814506243763
  0
LINE
  8
_0-a_極細3
  6
CONTINUOUS
 62
    7
 10
185.97178694423633
 20
202.68991367498032
 11
241.09613176791797
 21
222.75353437422655
  0
LINE
  8
_0-a_極細3
  6
CONTINUOUS
 62
    7
 10
191.10208909412151
 20
188.59452436319131
 11
246.22643391780272
 21
208.65814506243763
  0
LINE
  8
_0-a_極細3
  6
CENTER1
 62
    7
 10
183.58150462718618
 20
193.83858897905611
 11
247.61252510975197
 21
217.14397446409112
  0
LINE
  8
_0-a_極細3
  6
CONTINUOUS
 62
    7
 10
209.74215731460689
 20
163.71282320068801
 11
209.74215731460689
 21
207.79838454900391
  0
LINE
  8
_0-a_極細3
  6
CONTINUOUS
 62
    7
 10
209.74215731460689
 20
207.79838454900391
 11
194.74215731460689
 21
207.79838454900391
  0
LINE
  8
_0-a_極細3
  6
CONTINUOUS
 62
    7
 10
194.74215731460689
 20
207.79838454900391
 11
194.74215731460689
 21
163.71282320068801
  0
LINE
  8
_0-a_極細3
  6
CENTER1
 62
    7
 10
202.24215731460689
 20
155.43608291623514
 11
202.24215731460689
 21
212.07410471361345
  0
LINE
  8
_0-d_寸法3
  6
CONTINUOUS
 62
    7
 10
224.74215731460708
 20
238.71282320068809
 11
178.79212623601759
 21
238.71282320068809
  0
LINE
  8
_0-d_寸法3
  6
CONTINUOUS
 62
    7
 10
183.79212623601759
 20
238.71282320068804
 11
186.38031668704272
 21
229.05356493779735
  0
LINE
  8
_0-d_寸法3
  6
CONTINUOUS
 62
    7
 10
183.79212623601759
 20
238.71282320068804
 11
181.20393578499232
 21
229.05356493779738
  0
LINE
  8
_0-d_寸法3
  6
CONTINUOUS
 62
    7
 10
222.74215731460714
 20
200.37948986735458
 11
178.79212623601779
 21
200.37948986735458
  0
LINE
  8
_0-d_寸法3
  6
CONTINUOUS
 62
    7
 10
183.79212623601779
 20
200.37948986735458
 11
181.20393578499261
 21
210.03874813024524
  0
LINE
  8
_0-d_寸法3
  6
CONTINUOUS
 62
    7
 10
183.79212623601779
 20
200.37948986735458
 11
186.38031668704301
 21
210.03874813024524
  0
LINE
  8
_0-d_寸法3
  6
CONTINUOUS
 62
    7
 10
183.79212623601759
 20
238.71282320068804
 11
183.79212623601779
 21
200.37948986735458
  0
TEXT
  8
_0-d_寸法3
 62
    7
 10
183.79212623601759
 20
212.04615653402107
 40
15
 41
1
 50
90
  1
23
  0
LINE
  8
_0-d_寸法3
  6
CONTINUOUS
 62
    7
 10
234.74215731460674
 20
190.37948986735501
 11
234.7421573146066
 21
173.23479796644918
  0
LINE
  8
_0-d_寸法3
  6
CONTINUOUS
 62
    7
 10
234.7421573146066
 20
178.23479796644918
 11
244.40141557749735
 21
180.82298841747439
  0
LINE
  8
_0-d_寸法3
  6
CONTINUOUS
 62
    7
 10
234.7421573146066
 20
178.23479796644918
 11
244.40141557749735
 21
175.64660751542391
  0
LINE
  8
_0-d_寸法3
  6
CONTINUOUS
 62
    7
 10
284.74215731460674
 20
228.71282320068804
 11
284.74215731460617
 21
173.23479796644918
  0
LINE
  8
_0-d_寸法3
  6
CONTINUOUS
 62
    7
 10
284.74215731460617
 20
178.23479796644918
 11
275.08289905171551
 21
175.64660751542397
  0
LINE
  8
_0-d_寸法3
  6
CONTINUOUS
 62
    7
 10
284.74215731460617
 20
178.23479796644918
 11
275.08289905171551
 21
180.82298841747445
  0
LINE
  8
_0-d_寸法3
  6
CONTINUOUS
 62
    7
 10
234.7421573146066
 20
178.23479796644918
 11
284.74215731460617
 21
178.23479796644918
  0
TEXT
  8
_0-d_寸法3
 62
    7
 10
252.24215731460646
 20
178.23479796644918
 40
15
 41
1
 50
0
  1
30
  0
LINE
  8
_0-d_寸法3
  6
CONTINUOUS
 62
    7
 10
224.74215731460689
 20
285.37948986735466
 11
178.79212623601759
 21
285.37948986735506
  0
LINE
  8
_0-d_寸法3
  6
CONTINUOUS
 62
    7
 10
183.79212623601759
 20
285.37948986735501
 11
186.38031668704281
 21
275.72023160446435
  0
LINE
  8
_0-d_寸法3
  6
CONTINUOUS
 62
    7
 10
183.79212623601759
 20
285.37948986735501
 11
181.20393578499238
 21
275.72023160446435
  0
LINE
  8
_0-d_寸法3
  6
CONTINUOUS
 62
    7
 10
222.74215731460686
 20
238.71282320068809
 11
178.79212623601759
 21
238.71282320068809
  0
LINE
  8
_0-d_寸法3
  6
CONTINUOUS
 62
    7
 10
183.79212623601759
 20
238.71282320068804
 11
181.20393578499238
 21
248.37208146357875
  0
LINE
  8
_0-d_寸法3
  6
CONTINUOUS
 62
    7
 10
183.79212623601759
 20
238.71282320068804
 11
186.38031668704281
 21
248.37208146357875
  0
LINE
  8
_0-d_寸法3
  6
CONTINUOUS
 62
    7
 10
183.79212623601759
 20
285.37948986735501
 11
183.79212623601759
 21
238.71282320068804
  0
TEXT
  8
_0-d_寸法3
 62
    7
 10
183.79212623601759
 20
254.54615653402155
 40
15
 41
1
 50
90
  1
28
  0
LINE
  8
_0-a_極細3
  6
CONTINUOUS
 62
    7
 10
795.04889220175892
 20
188.59452436319131
 11
800.17919435164413
 21
202.68991367498032
  0
LINE
  8
_0-a_極細3
  6
CONTINUOUS
 62
    7
 10
745.05484952796269
 20
222.75353437422655
 11
739.92454737807793
 21
208.65814506243763
  0
LINE
  8
_0-a_極細3
  6
CONTINUOUS
 62
    7
 10
800.17919435164413
 20
202.68991367498032
 11
745.05484952796269
 21
222.75353437422655
  0
LINE
  8
_0-a_極細3
  6
CONTINUOUS
 62
    7
 10
795.04889220175892
 20
188.59452436319131
 11
739.92454737807793
 21
208.65814506243763
  0
LINE
  8
_0-a_極細3
  6
CENTER1
 62
    7
 10
802.56947666869439
 20
193.83858897905611
 11
738.53845618612831
 21
217.14397446409112
  0
LINE
  8
_0-a_極細3
  6
CONTINUOUS
 62
    7
 10
776.4088239812736
 20
163.71282320068801
 11
776.4088239812736
 21
207.79838454900391
  0
LINE
  8
_0-a_極細3
  6
CONTINUOUS
 62
    7
 10
791.4088239812736
 20
207.79838454900391
 11
791.4088239812736
 21
163.71282320068801
  0
LINE
  8
_0-a_極細3
  6
CENTER1
 62
    7
 10
783.9088239812736
 20
155.43608291623514
 11
783.9088239812736
 21
212.07410471361345
  0
LINE
  8
_0-d_寸法3
  6
CONTINUOUS
 62
    7
 10
751.40882398127383
 20
190.37948986735501
 11
751.40882398127417
 21
173.23479796644918
  0
LINE
  8
_0-d_寸法3
  6
CONTINUOUS
 62
    7
 10
751.40882398127405
 20
178.23479796644918
 11
741.74956571838334
 21
175.64660751542391
  0
LINE
  8
_0-d_寸法3
  6
CONTINUOUS
 62
    7
 10
751.40882398127405
 20
178.23479796644918
 11
741.74956571838334
 21
180.82298841747439
  0
LINE
  8
_0-d_寸法3
  6
CONTINUOUS
 62
    7
 10
701.40882398127371
 20
228.71282320068804
 11
701.40882398127462
 21
173.23479796644918
  0
LINE
  8
_0-d_寸法3
  6
CONTINUOUS
 62
    7
 10
701.40882398127462
 20
178.23479796644918
 11
711.06808224416523
 21
180.82298841747445
  0
LINE
  8
_0-d_寸法3
  6
CONTINUOUS
 62
    7
 10
701.40882398127462
 20
178.23479796644918
 11
711.06808224416523
 21
175.64660751542397
  0
LINE
  8
_0-d_寸法3
  6
CONTINUOUS
 62
    7
 10
751.40882398127405
 20
178.23479796644918
 11
701.40882398127462
 21
178.23479796644918
  0
TEXT
  8
_0-d_寸法3
 62
    7
 10
718.90882398127405
 20
178.23479796644918
 40
15
 41
1
 50
0
  1
30
  0
LINE
  8
_0-a_極細3
  6
CONTINUOUS
 62
    7
 10
776.4088239812736
 20
207.79838454900391
 11
791.4088239812736
 21
207.79838454900391
  0
CIRCLE
  8
_0-a_極細3
  6
CONTINUOUS
 62
    7
 10
799.99610048179193
 20
213.61530769142291
 40
0.5530864197530718
  0
CIRCLE
  8
_0-a_極細3
  6
CONTINUOUS
 62
    7
 10
780.39610048179259
 20
219.21530769142237
 40
0.5530864197530718
  0
TEXT
  8
_0-7_枠細線
 62
    5
 10
965.50000000000011
 20
70
 40
20
 41
0.5999999999999998
 50
0
  1
色については品番表参照のこと
  0
TEXT
  8
_0-7_枠細線
 62
    5
 10
443.15344300870657
 20
93.712458199009703
 40
25
 41
0.8
 50
0
  1
断面詳細図
  0
TEXT
  8
_0-7_枠細線
 62
    5
 10
558.10241275787462
 20
93.712458199009703
 40
20
 41
0.6
 50
0
  1
Ｓ＝１：３
  0
TEXT
  8
_0-7_枠細線
 62
    5
 10
1310
 20
67.5
 40
15
 41
0.6666666666666666
 50
0
  1
２００９年０１月３０日
  0
TEXT
  8
_0-7_枠細線
 62
    5
 10
965.50000000000011
 20
110
 40
20
 41
0.6
 50
0
  1
ＧＲＳ－２５Ｗ３００　ＳＥＴ
  0
LINE
  8
_0-0_計極細
  6
CONTINUOUS
 62
    2
 10
716.46031080882085
 20
643.72637075717478
 11
716.46031080882085
 21
638.12637075717453
  0
LINE
  8
_0-0_計極細
  6
CONTINUOUS
 62
    2
 10
729.46031080882096
 20
643.72637075717478
 11
729.46031080882096
 21
638.12637075717453
  0
LINE
  8
_0-0_計極細
  6
CONTINUOUS
 62
    2
 10
716.46031080882085
 20
660.72637075717478
 11
716.46031080882085
 21
655.12637075717453
  0
LINE
  8
_0-0_計極細
  6
CONTINUOUS
 62
    2
 10
729.46031080882096
 20
660.72637075717478
 11
729.46031080882096
 21
655.12637075717453
  0
LINE
  8
_0-0_計極細
  6
CONTINUOUS
 62
    2
 10
716.46031080882085
 20
677.72637075717569
 11
716.46031080882085
 21
672.12637075717623
  0
LINE
  8
_0-0_計極細
  6
CONTINUOUS
 62
    2
 10
729.46031080882096
 20
677.72637075717569
 11
729.46031080882096
 21
672.12637075717623
  0
LINE
  8
_0-0_計極細
  6
CONTINUOUS
 62
    2
 10
716.46031080882085
 20
694.7263707571766
 11
716.46031080882085
 21
689.12637075717623
  0
LINE
  8
_0-0_計極細
  6
CONTINUOUS
 62
    2
 10
729.46031080882096
 20
694.7263707571766
 11
729.46031080882096
 21
689.12637075717623
  0
LINE
  8
_0-0_計極細
  6
CONTINUOUS
 62
    2
 10
716.46031080882085
 20
711.7263707571766
 11
716.46031080882085
 21
706.12637075717714
  0
LINE
  8
_0-0_計極細
  6
CONTINUOUS
 62
    2
 10
729.46031080882096
 20
711.7263707571766
 11
729.46031080882096
 21
706.12637075717714
  0
LINE
  8
_0-0_計極細
  6
CONTINUOUS
 62
    2
 10
716.46031080882085
 20
796.52637075717598
 11
716.46031080882085
 21
791.12637075717635
  0
LINE
  8
_0-0_計極細
  6
CONTINUOUS
 62
    2
 10
729.46031080882096
 20
796.52637075717598
 11
729.46031080882096
 21
791.12637075717635
  0
LINE
  8
_0-0_計極細
  6
CONTINUOUS
 62
    2
 10
716.46031080882085
 20
728.7263707571766
 11
716.46031080882085
 21
723.12637075717635
  0
LINE
  8
_0-0_計極細
  6
CONTINUOUS
 62
    2
 10
729.46031080882096
 20
728.7263707571766
 11
729.46031080882096
 21
723.12637075717635
  0
LINE
  8
_0-0_計極細
  6
CONTINUOUS
 62
    2
 10
716.46031080882085
 20
745.72637075717478
 11
716.46031080882085
 21
740.12637075717532
  0
LINE
  8
_0-0_計極細
  6
CONTINUOUS
 62
    2
 10
729.46031080882096
 20
745.72637075717478
 11
729.46031080882096
 21
740.12637075717532
  0
LINE
  8
_0-0_計極細
  6
CONTINUOUS
 62
    2
 10
716.46031080882085
 20
762.72637075717489
 11
716.46031080882085
 21
757.12637075717441
  0
LINE
  8
_0-0_計極細
  6
CONTINUOUS
 62
    2
 10
729.46031080882096
 20
762.72637075717489
 11
729.46031080882096
 21
757.12637075717441
  0
LINE
  8
_0-0_計極細
  6
CONTINUOUS
 62
    2
 10
716.46031080882085
 20
779.72637075717307
 11
716.46031080882085
 21
774.12637075717362
  0
LINE
  8
_0-0_計極細
  6
CONTINUOUS
 62
    2
 10
729.46031080882096
 20
779.72637075717307
 11
729.46031080882096
 21
774.12637075717362
  0
LINE
  8
_0-0_計極細
  6
CONTINUOUS
 62
    2
 10
619.46031080882085
 20
604.12637075717817
 11
619.46031080882085
 21
609.72637075717842
  0
LINE
  8
_0-0_計極細
  6
CONTINUOUS
 62
    2
 10
632.46031080882085
 20
604.12637075717817
 11
632.46031080882085
 21
609.72637075717842
  0
LINE
  8
_0-0_計極細
  6
CONTINUOUS
 62
    2
 10
619.46031080882085
 20
621.12637075717805
 11
619.46031080882085
 21
626.72637075717842
  0
LINE
  8
_0-0_計極細
  6
CONTINUOUS
 62
    2
 10
632.46031080882085
 20
621.12637075717805
 11
632.46031080882085
 21
626.72637075717842
  0
LINE
  8
_0-0_計極細
  6
CONTINUOUS
 62
    2
 10
619.46031080882085
 20
643.72637075717478
 11
619.46031080882085
 21
638.12637075717453
  0
LINE
  8
_0-0_計極細
  6
CONTINUOUS
 62
    2
 10
632.46031080882085
 20
643.72637075717478
 11
632.46031080882085
 21
638.12637075717453
  0
LINE
  8
_0-0_計極細
  6
CONTINUOUS
 62
    2
 10
619.46031080882085
 20
660.72637075717478
 11
619.46031080882085
 21
655.12637075717453
  0
LINE
  8
_0-0_計極細
  6
CONTINUOUS
 62
    2
 10
632.46031080882085
 20
660.72637075717478
 11
632.46031080882085
 21
655.12637075717453
  0
LINE
  8
_0-0_計極細
  6
CONTINUOUS
 62
    2
 10
619.46031080882085
 20
677.72637075717569
 11
619.46031080882085
 21
672.12637075717623
  0
LINE
  8
_0-0_計極細
  6
CONTINUOUS
 62
    2
 10
632.46031080882085
 20
677.72637075717569
 11
632.46031080882085
 21
672.12637075717623
  0
LINE
  8
_0-0_計極細
  6
CONTINUOUS
 62
    2
 10
619.46031080882085
 20
694.7263707571766
 11
619.46031080882085
 21
689.12637075717623
  0
LINE
  8
_0-0_計極細
  6
CONTINUOUS
 62
    2
 10
632.46031080882085
 20
694.7263707571766
 11
632.46031080882085
 21
689.12637075717623
  0
LINE
  8
_0-0_計極細
  6
CONTINUOUS
 62
    2
 10
619.46031080882085
 20
711.7263707571766
 11
619.46031080882085
 21
706.12637075717714
  0
LINE
  8
_0-0_計極細
  6
CONTINUOUS
 62
    2
 10
632.46031080882085
 20
711.7263707571766
 11
632.46031080882085
 21
706.12637075717714
  0
LINE
  8
_0-0_計極細
  6
CONTINUOUS
 62
    2
 10
619.46031080882085
 20
796.52637075717598
 11
619.46031080882085
 21
791.12637075717635
  0
LINE
  8
_0-0_計極細
  6
CONTINUOUS
 62
    2
 10
632.46031080882085
 20
796.52637075717598
 11
632.46031080882085
 21
791.12637075717635
  0
LINE
  8
_0-0_計極細
  6
CONTINUOUS
 62
    2
 10
619.46031080882085
 20
519.32637075717696
 11
619.46031080882085
 21
524.7263707571766
  0
LINE
  8
_0-0_計極細
  6
CONTINUOUS
 62
    2
 10
632.46031080882085
 20
519.32637075717696
 11
632.46031080882085
 21
524.7263707571766
  0
LINE
  8
_0-0_計極細
  6
CENTER1
 62
    2
 10
625.96031080882085
 20
816.67709018163816
 11
625.96031080882085
 21
500.16854701616478
  0
LINE
  8
_0-0_計極細
  6
CONTINUOUS
 62
    2
 10
619.46031080882085
 20
728.7263707571766
 11
619.46031080882085
 21
723.12637075717635
  0
LINE
  8
_0-0_計極細
  6
CONTINUOUS
 62
    2
 10
632.46031080882085
 20
728.7263707571766
 11
632.46031080882085
 21
723.12637075717635
  0
LINE
  8
_0-0_計極細
  6
CONTINUOUS
 62
    2
 10
619.46031080882085
 20
745.72637075717478
 11
619.46031080882085
 21
740.12637075717532
  0
LINE
  8
_0-0_計極細
  6
CONTINUOUS
 62
    2
 10
632.46031080882085
 20
745.72637075717478
 11
632.46031080882085
 21
740.12637075717532
  0
LINE
  8
_0-0_計極細
  6
CONTINUOUS
 62
    2
 10
619.46031080882085
 20
762.72637075717489
 11
619.46031080882085
 21
757.12637075717441
  0
LINE
  8
_0-0_計極細
  6
CONTINUOUS
 62
    2
 10
632.46031080882085
 20
762.72637075717489
 11
632.46031080882085
 21
757.12637075717441
  0
LINE
  8
_0-0_計極細
  6
CONTINUOUS
 62
    2
 10
619.46031080882085
 20
779.72637075717307
 11
619.46031080882085
 21
774.12637075717362
  0
LINE
  8
_0-0_計極細
  6
CONTINUOUS
 62
    2
 10
632.46031080882085
 20
779.72637075717307
 11
632.46031080882085
 21
774.12637075717362
  0
LINE
  8
_0-0_計極細
  6
CONTINUOUS
 62
    2
 10
619.46031080882085
 20
587.12637075717805
 11
619.46031080882085
 21
592.72637075717751
  0
LINE
  8
_0-0_計極細
  6
CONTINUOUS
 62
    2
 10
632.46031080882085
 20
587.12637075717805
 11
632.46031080882085
 21
592.72637075717751
  0
LINE
  8
_0-0_計極細
  6
CONTINUOUS
 62
    2
 10
619.46031080882085
 20
570.12637075717805
 11
619.46031080882085
 21
575.72637075717842
  0
LINE
  8
_0-0_計極細
  6
CONTINUOUS
 62
    2
 10
632.46031080882085
 20
570.12637075717805
 11
632.46031080882085
 21
575.72637075717842
  0
LINE
  8
_0-0_計極細
  6
CONTINUOUS
 62
    2
 10
619.46031080882085
 20
553.12637075717987
 11
619.46031080882085
 21
558.72637075717932
  0
LINE
  8
_0-0_計極細
  6
CONTINUOUS
 62
    2
 10
632.46031080882085
 20
553.12637075717987
 11
632.46031080882085
 21
558.72637075717932
  0
LINE
  8
_0-0_計極細
  6
CONTINUOUS
 62
    2
 10
619.46031080882085
 20
536.12637075717987
 11
619.46031080882085
 21
541.72637075718035
  0
LINE
  8
_0-0_計極細
  6
CONTINUOUS
 62
    2
 10
632.46031080882085
 20
536.12637075717987
 11
632.46031080882085
 21
541.72637075718035
  0
LINE
  8
_0-7_枠細線
  6
CONTINUOUS
 62
    5
 10
1225.0000000000014
 20
794.95837512859055
 11
1225.0000000000014
 21
719.95837512859043
  0
TEXT
  8
_0-7_枠細線
 62
    5
 10
1174.0000000000027
 20
749.95837512859043
 40
15
 41
0.5999999999999999
 50
0
  1
９９９
  0
TEXT
  8
_0-7_枠細線
 62
    5
 10
1181.5000000000027
 20
774.95837512859055
 40
15
 41
0.8000000000000001
 50
0
  1
Ｌ
  0
LINE
  8
_0-7_枠細線
  6
CONTINUOUS
 62
    5
 10
1150.0000000000014
 20
794.95837512859055
 11
1150.0000000000014
 21
719.95837512859043
  0
TEXT
  8
_0-7_枠細線
 62
    5
 10
1094.5000000000014
 20
774.95837512859055
 40
15
 41
0.8000000000000001
 50
0
  1
種　別
  0
TEXT
  8
_0-7_枠細線
 62
    5
 10
1094.5000000000009
 20
749.95837512859043
 40
15
 41
0.8000000000000001
 50
0
  1
定尺品
  0
TEXT
  8
_0-7_枠細線
 62
    5
 10
1094.5000000000009
 20
724.95837512859043
 40
15
 41
0.8000000000000001
 50
0
  1
特寸品
  0
LINE
  8
_0-7_枠細線
  6
CONTINUOUS
 62
    5
 10
1075
 20
794.95837512859055
 11
1075
 21
719.95837512859043
  0
LINE
  8
_0-7_枠細線
  6
CONTINUOUS
 62
    5
 10
1300.000000000002
 20
794.95837512859055
 11
1300.000000000002
 21
719.95837512859043
  0
TEXT
  8
_0-7_枠細線
 62
    5
 10
1256.5000000000027
 20
774.95837512859055
 40
15
 41
0.8000000000000001
 50
0
  1
Ａ
  0
TEXT
  8
_0-7_枠細線
 62
    5
 10
1244.5000000000018
 20
749.95837512859043
 40
15
 41
0.5999999999999999
 50
0
  1
１４．５
  0
TEXT
  8
_0-7_枠細線
 62
    5
 10
1151.5000000000018
 20
724.95837512859043
 40
15
 41
0.5999999999999999
 50
0
  1
３０５～１３０５
  0
LINE
  8
_0-7_枠細線
  6
CONTINUOUS
 62
    5
 10
1375.0000000000023
 20
794.95837512859055
 11
1375.0000000000023
 21
719.95837512859043
  0
LINE
  8
_0-7_枠細線
  6
CONTINUOUS
 62
    5
 10
1075
 20
794.95837512859055
 11
1375.0000000000023
 21
794.95837512859055
  0
LINE
  8
_0-7_枠細線
  6
CONTINUOUS
 62
    5
 10
1075
 20
769.95837512859055
 11
1375.0000000000023
 21
769.95837512859055
  0
LINE
  8
_0-7_枠細線
  6
CONTINUOUS
 62
    5
 10
1075
 20
744.95837512859043
 11
1375.0000000000023
 21
744.95837512859043
  0
LINE
  8
_0-7_枠細線
  6
CONTINUOUS
 62
    5
 10
1075
 20
719.95837512859043
 11
1375.0000000000023
 21
719.95837512859043
  0
TEXT
  8
_0-7_枠細線
 62
    5
 10
1331.5000000000023
 20
774.95837512859055
 40
15
 41
0.8000000000000001
 50
0
  1
Ｂ
  0
TEXT
  8
_0-7_枠細線
 62
    5
 10
1328.5000000000023
 20
749.95837512859043
 40
15
 41
0.5999999999999999
 50
0
  1
９７
  0
TEXT
  8
_0-7_枠細線
 62
    5
 10
1163.0053911613957
 20
799.95837512859055
 40
17.5
 41
1
 50
0
  1
寸法表
  0
TEXT
  8
_0-7_枠細線
 62
    5
 10
1244.5000000000018
 20
724.95837512859043
 40
15
 41
0.5999999999999999
 50
0
  1
７～２０
  0
TEXT
  8
_0-7_枠細線
 62
    5
 10
1077.04820616962
 20
699.23280458415547
 40
15
 41
0.8000000000000001
 50
0
  1
※ 特寸品はAが20以下となるようBにて調整
  0
TEXT
  8
_0-7_枠細線
 62
    5
 10
1315.0000000000023
 20
724.95837512859043
 40
15
 41
0.5999999999999999
 50
0
  1
２７～９７
  0
LINE
  8
_0-a_極細3
  6
CENTER1
 62
    7
 10
749.61842494785697
 20
266.71282320068741
 11
233.17749120792263
 21
266.71282320068741
  0
LINE
  8
_0-b_細線3
  6
CONTINUOUS
 62
    7
 10
538.49815032125548
 20
255.87948986735395
 11
561.16481698792222
 21
255.87948986735395
  0
LINE
  8
_0-b_細線3
  6
CONTINUOUS
 62
    7
 10
510.16481698731894
 20
255.87948986735395
 11
532.83148365398552
 21
255.87948986735395
  0
LINE
  8
_0-b_細線3
  6
CONTINUOUS
 62
    7
 10
453.49815031944644
 20
255.87948986735395
 11
476.16481698611295
 21
255.87948986735395
  0
LINE
  8
_0-b_細線3
  6
CONTINUOUS
 62
    7
 10
425.16481698551047
 20
255.87948986735395
 11
447.83148365217698
 21
255.87948986735395
  0
LINE
  8
_0-b_細線3
  6
CONTINUOUS
 62
    7
 10
396.83148365157354
 20
255.87948986735395
 11
419.49815031824045
 21
255.87948986735395
  0
LINE
  8
_0-b_細線3
  6
CONTINUOUS
 62
    7
 10
566.83148365487477
 20
255.87948986735395
 11
589.49815032154174
 21
255.87948986735395
  0
LINE
  8
_0-b_細線3
  6
CONTINUOUS
 62
    7
 10
595.1648169888108
 20
255.87948986735395
 11
617.83148365547777
 21
255.87948986735395
  0
LINE
  8
_0-b_細線3
  6
CONTINUOUS
 62
    7
 10
368.49815031823999
 20
255.87948986735395
 11
391.16481698490725
 21
255.87948986735395
  0
LINE
  8
_0-b_細線3
  6
CONTINUOUS
 62
    7
 10
623.49815032243123
 20
255.87948986735395
 11
646.1648169890974
 21
255.87948986735395
  0
LINE
  8
_0-b_細線3
  6
CONTINUOUS
 62
    7
 10
651.83148365605075
 20
255.87948986735395
 11
674.49815032271772
 21
255.87948986735395
  0
LINE
  8
_0-b_細線3
  6
CONTINUOUS
 62
    7
 10
680.16481698967027
 20
255.87948986735395
 11
702.83148365633724
 21
255.87948986735395
  0
LINE
  8
_0-b_細線3
  6
CONTINUOUS
 62
    7
 10
362.83148364916224
 20
255.87948986735395
 11
340.16481698249544
 21
255.87948986735395
  0
LINE
  8
_0-b_細線3
  6
CONTINUOUS
 62
    7
 10
334.49815031554243
 20
255.87948986735395
 11
311.83148364887575
 21
255.87948986735395
  0
LINE
  8
_0-b_細線3
  6
CONTINUOUS
 62
    7
 10
306.16481698192285
 20
255.87948986735395
 11
283.49815031525594
 21
255.87948986735395
  0
LINE
  8
_0-b_細線3
  6
CONTINUOUS
 62
    7
 10
708.49815032328979
 20
255.87948986735395
 11
730.83148365662282
 21
255.87948986735395
  0
LINE
  8
_0-b_細線3
  6
CONTINUOUS
 62
    7
 10
277.83148364830339
 20
255.87948986735395
 11
255.49815031496991
 21
255.87948986735395
  0
LINE
  8
_0-b_細線3
  6
CONTINUOUS
 62
    7
 10
538.49815032125548
 20
277.54615653402044
 11
561.16481698792222
 21
277.54615653402044
  0
LINE
  8
_0-b_細線3
  6
CONTINUOUS
 62
    7
 10
510.16481698731894
 20
277.54615653402044
 11
532.83148365398552
 21
277.54615653402044
  0
LINE
  8
_0-b_細線3
  6
CONTINUOUS
 62
    7
 10
453.49815031944644
 20
277.54615653402044
 11
476.16481698611295
 21
277.54615653402044
  0
LINE
  8
_0-b_細線3
  6
CONTINUOUS
 62
    7
 10
425.16481698551047
 20
277.54615653402044
 11
447.83148365217698
 21
277.54615653402044
  0
LINE
  8
_0-b_細線3
  6
CONTINUOUS
 62
    7
 10
396.83148365157354
 20
277.54615653402044
 11
419.49815031824045
 21
277.54615653402044
  0
LINE
  8
_0-b_細線3
  6
CONTINUOUS
 62
    7
 10
566.83148365487477
 20
277.54615653402044
 11
589.49815032154174
 21
277.54615653402044
  0
LINE
  8
_0-b_細線3
  6
CONTINUOUS
 62
    7
 10
595.1648169888108
 20
277.54615653402044
 11
617.83148365547777
 21
277.54615653402044
  0
LINE
  8
_0-b_細線3
  6
CONTINUOUS
 62
    7
 10
368.49815031823999
 20
277.54615653402044
 11
391.16481698490725
 21
277.54615653402044
  0
LINE
  8
_0-b_細線3
  6
CONTINUOUS
 62
    7
 10
623.49815032243123
 20
277.54615653402044
 11
646.1648169890974
 21
277.54615653402044
  0
LINE
  8
_0-b_細線3
  6
CONTINUOUS
 62
    7
 10
651.83148365605075
 20
277.54615653402044
 11
674.49815032271772
 21
277.54615653402044
  0
LINE
  8
_0-b_細線3
  6
CONTINUOUS
 62
    7
 10
680.16481698967027
 20
277.54615653402044
 11
702.83148365633724
 21
277.54615653402044
  0
LINE
  8
_0-b_細線3
  6
CONTINUOUS
 62
    7
 10
362.83148364916224
 20
277.54615653402044
 11
340.16481698249544
 21
277.54615653402044
  0
LINE
  8
_0-b_細線3
  6
CONTINUOUS
 62
    7
 10
334.49815031554243
 20
277.54615653402044
 11
311.83148364887575
 21
277.54615653402044
  0
LINE
  8
_0-b_細線3
  6
CONTINUOUS
 62
    7
 10
306.16481698192285
 20
277.54615653402044
 11
283.49815031525594
 21
277.54615653402044
  0
LINE
  8
_0-b_細線3
  6
CONTINUOUS
 62
    7
 10
708.49815032328979
 20
277.54615653402044
 11
730.83148365662282
 21
277.54615653402044
  0
LINE
  8
_0-b_細線3
  6
CONTINUOUS
 62
    7
 10
277.83148364830339
 20
277.54615653402044
 11
255.49815031496991
 21
277.54615653402044
  0
ARC
  8
_0-b_細線3
  6
CONTINUOUS
 62
    7
 10
247.67023698246462
 20
256.21282320068781
 40
0.3333333333333334
 50
179.99999999999983
 51
269.99999999999977
  0
LINE
  8
_0-b_細線3
  6
CONTINUOUS
 62
    7
 10
249.83148364913163
 20
255.87948986735438
 11
247.67023698246462
 21
255.87948986735438
  0
ARC
  8
_0-b_細線3
  6
CONTINUOUS
 62
    7
 10
247.67023698246462
 20
277.21282320068741
 40
0.3333333333333334
 50
89.999999999999915
 51
179.99999999999983
  0
LINE
  8
_0-b_細線3
  6
CONTINUOUS
 62
    7
 10
249.83148364913163
 20
277.54615653402135
 11
247.67023698246462
 21
277.54615653402135
  0
LINE
  8
_0-b_細線3
  6
CONTINUOUS
 62
    7
 10
247.33690364913087
 20
265.87948986735444
 11
247.33690364913087
 21
256.21282320068781
  0
LINE
  8
_0-b_細線3
  6
CONTINUOUS
 62
    7
 10
247.33690364913087
 20
277.21282320068741
 11
247.33690364913087
 21
265.87948986735444
  0
LINE
  8
_0-b_細線3
  6
CONTINUOUS
 62
    7
 10
247.33690364913087
 20
266.71282320068741
 11
242.32937698246417
 21
266.71282320068741
  0
LINE
  8
_0-b_細線3
  6
CONTINUOUS
 62
    7
 10
247.33690364913087
 20
260.87948986735483
 11
242.32935698246507
 21
260.87948986735483
  0
ARC
  8
_0-b_細線3
  6
CONTINUOUS
 62
    7
 10
242.32935698246507
 20
261.21282320068786
 40
0.3333333333333334
 50
179.99999999999983
 51
269.99999999999977
  0
ARC
  8
_0-b_細線3
  6
CONTINUOUS
 62
    7
 10
254.92599031579772
 20
263.7959132006884
 40
12.929926666666667
 50
166.96197800000505
 51
193.03566999999961
  0
ARC
  8
_0-b_細線3
  6
CONTINUOUS
 62
    7
 10
242.32935698246507
 20
272.21282320068832
 40
0.3333333333333334
 50
89.999999999999915
 51
179.99999999999983
  0
ARC
  8
_0-b_細線3
  6
CONTINUOUS
 62
    7
 10
254.92599031579772
 20
269.62972986735423
 40
12.929926666666667
 50
166.96433000000002
 51
193.03802199999851
  0
LINE
  8
_0-b_細線3
  6
CONTINUOUS
 62
    7
 10
247.33690364913087
 20
272.54615653402135
 11
242.32935698246507
 21
272.54615653402135
  0
LINE
  8
_0-b_細線3
  6
CONTINUOUS
 62
    7
 10
241.99602364913119
 20
261.21282320068786
 11
241.99602364913119
 21
272.21282320068832
  0
ARC
  8
_0-b_細線3
  6
CONTINUOUS
 62
    7
 10
738.65939698912825
 20
256.21282320068781
 40
0.3333333333333334
 50
269.99999999999977
 51
359.99999999999966
  0
LINE
  8
_0-b_細線3
  6
CONTINUOUS
 62
    7
 10
736.49815032246124
 20
255.87948986735438
 11
738.65939698912825
 21
255.87948986735438
  0
ARC
  8
_0-b_細線3
  6
CONTINUOUS
 62
    7
 10
738.65939698912825
 20
277.21282320068741
 40
0.3333333333333334
 50
0
 51
89.999999999999915
  0
LINE
  8
_0-b_細線3
  6
CONTINUOUS
 62
    7
 10
736.49815032246124
 20
277.54615653402135
 11
738.65939698912825
 21
277.54615653402135
  0
LINE
  8
_0-b_細線3
  6
CONTINUOUS
 62
    7
 10
738.99273032246197
 20
265.87948986735444
 11
738.99273032246197
 21
256.21282320068781
  0
LINE
  8
_0-b_細線3
  6
CONTINUOUS
 62
    7
 10
738.99273032246197
 20
277.21282320068741
 11
738.99273032246197
 21
265.87948986735444
  0
LINE
  8
_0-b_細線3
  6
CONTINUOUS
 62
    7
 10
738.99273032246197
 20
266.71282320068741
 11
744.00025698912873
 21
266.71282320068741
  0
LINE
  8
_0-b_細線3
  6
CONTINUOUS
 62
    7
 10
738.99273032246197
 20
260.87948986735483
 11
744.00027698912777
 21
260.87948986735483
  0
ARC
  8
_0-b_細線3
  6
CONTINUOUS
 62
    7
 10
744.00027698912777
 20
261.21282320068786
 40
0.3333333333333334
 50
269.99999999999977
 51
359.99999999999966
  0
ARC
  8
_0-b_細線3
  6
CONTINUOUS
 62
    7
 10
731.40364365579512
 20
263.7959132006884
 40
12.929926666666667
 50
346.96432999999968
 51
13.038021999994573
  0
ARC
  8
_0-b_細線3
  6
CONTINUOUS
 62
    7
 10
744.00027698912777
 20
272.21282320068832
 40
0.3333333333333334
 50
0
 51
89.999999999999915
  0
ARC
  8
_0-b_細線3
  6
CONTINUOUS
 62
    7
 10
731.40364365579512
 20
269.62972986735423
 40
12.929926666666667
 50
346.96197800000073
 51
13.035669999999625
  0
LINE
  8
_0-b_細線3
  6
CONTINUOUS
 62
    7
 10
738.99273032246197
 20
272.54615653402135
 11
744.00027698912777
 21
272.54615653402135
  0
LINE
  8
_0-b_細線3
  6
CONTINUOUS
 62
    7
 10
744.33361032246171
 20
261.21282320068786
 11
744.33361032246171
 21
272.21282320068832
  0
LINE
  8
_0-7_枠細線
  6
CONTINUOUS
 62
    5
 10
1075
 20
480.00000000000028
 11
1075
 21
560.00000000000023
  0
TEXT
  8
_0-7_枠細線
 62
    5
 10
1097.5
 20
537.50000000000023
 40
15
 41
1
 50
0
  1
耐荷重
  0
TEXT
  8
_0-7_枠細線
 62
    5
 10
1090
 20
507.50000000000028
 40
15
 41
1
 50
0
  1
3.5kN/㎡
  0
TEXT
  8
_0-7_枠細線
 62
    5
 10
1082.5
 20
487.50000000000028
 40
15
 41
1
 50
0
  1
（歩道用）
  0
LINE
  8
_0-7_枠細線
  6
CONTINUOUS
 62
    5
 10
1165
 20
480.00000000000028
 11
1165
 21
560.00000000000023
  0
TEXT
  8
_0-7_枠細線
 62
    5
 10
1187.5
 20
537.50000000000023
 40
15
 41
1
 50
0
  1
蓋重量
  0
LINE
  8
_0-7_枠細線
  6
CONTINUOUS
 62
    5
 10
1255
 20
480.00000000000028
 11
1255
 21
560.00000000000023
  0
TEXT
  8
_0-7_枠細線
 62
    5
 10
1277.5
 20
537.50000000000023
 40
15
 41
1
 50
0
  1
枠重量
  0
LINE
  8
_0-7_枠細線
  6
CONTINUOUS
 62
    5
 10
1075
 20
530.00000000000023
 11
1345
 21
530.00000000000023
  0
LINE
  8
_0-7_枠細線
  6
CONTINUOUS
 62
    5
 10
1075
 20
560.00000000000023
 11
1345
 21
560.00000000000023
  0
LINE
  8
_0-7_枠細線
  6
CONTINUOUS
 62
    5
 10
1075
 20
480.00000000000028
 11
1345
 21
480.00000000000028
  0
LINE
  8
_0-7_枠細線
  6
CONTINUOUS
 62
    5
 10
1345
 20
480.00000000000028
 11
1345
 21
560.00000000000023
  0
TEXT
  8
_0-7_枠細線
 62
    5
 10
1270
 20
498.75000000000028
 40
15
 41
0.8000000000000001
 50
0
  1
2.6kg/ｍ組
  0
LINE
  8
_0-7_枠細線
  6
CONTINUOUS
 62
    5
 10
1074.9999999999998
 20
300.00000000000034
 11
1375
 21
300.00000000000034
  0
LINE
  8
_0-7_枠細線
  6
CONTINUOUS
 62
    5
 10
1074.9999999999998
 20
325.00000000000034
 11
1375
 21
325.00000000000034
  0
LINE
  8
_0-7_枠細線
  6
CONTINUOUS
 62
    5
 10
1074.9999999999998
 20
350.00000000000034
 11
1375
 21
350.00000000000034
  0
LINE
  8
_0-7_枠細線
  6
CONTINUOUS
 62
    5
 10
1074.9999999999998
 20
375.00000000000051
 11
1375
 21
375.00000000000051
  0
TEXT
  8
_0-7_枠細線
 62
    5
 10
1198.0000000000002
 20
380.00000000000051
 40
15
 41
0.5999999999999999
 50
0
  1
ライトグレー
  0
LINE
  8
_0-7_枠細線
  6
CONTINUOUS
 62
    5
 10
1074.9999999999998
 20
400.00000000000034
 11
1375
 21
400.00000000000034
  0
TEXT
  8
_0-7_枠細線
 62
    5
 10
1207.0000000000002
 20
405.00000000000028
 40
15
 41
0.5999999999999999
 50
0
  1
ベージュ
  0
LINE
  8
_0-7_枠細線
  6
CONTINUOUS
 62
    5
 10
1074.9999999999998
 20
425.00000000000028
 11
1375
 21
425.00000000000028
  0
TEXT
  8
_0-7_枠細線
 62
    5
 10
1219.0000000000005
 20
430.00000000000028
 40
15
 41
0.8000000000000001
 50
0
  1
色
  0
TEXT
  8
_0-7_枠細線
 62
    5
 10
1101
 20
430.00000000000028
 40
15
 41
0.8000000000000001
 50
0
  1
品　　番
  0
TEXT
  8
_0-7_枠細線
 62
    5
 10
1301
 20
430.00000000000028
 40
15
 41
0.8000000000000001
 50
0
  1
備　　考
  0
LINE
  8
_0-7_枠細線
  6
CONTINUOUS
 62
    5
 10
1074.9999999999998
 20
450.00000000000028
 11
1375
 21
450.00000000000028
  0
TEXT
  8
_0-7_枠細線
 62
    5
 10
1163.7499999999998
 20
455.00000000000028
 40
17.5
 41
1
 50
0
  1
品番表
  0
LINE
  8
_0-7_枠細線
  6
CONTINUOUS
 62
    5
 10
1074.9999999999998
 20
225.00000000000014
 11
1375
 21
225.00000000000014
  0
LINE
  8
_0-7_枠細線
  6
CONTINUOUS
 62
    5
 10
1074.9999999999998
 20
250.0000000000004
 11
1375
 21
250.0000000000004
  0
LINE
  8
_0-7_枠細線
  6
CONTINUOUS
 62
    5
 10
1074.9999999999998
 20
275.00000000000045
 11
1375
 21
275.00000000000045
  0
TEXT
  8
_0-7_枠細線
 62
    5
 10
1207.0000000000007
 20
355.00000000000051
 40
15
 41
0.5999999999999999
 50
0
  1
ホワイト
  0
TEXT
  8
_0-7_枠細線
 62
    5
 10
1211.5
 20
330.00000000000034
 40
15
 41
0.5999999999999999
 50
0
  1
ピンク
  0
TEXT
  8
_0-7_枠細線
 62
    5
 10
1211.5
 20
305.00000000000034
 40
15
 41
0.5999999999999999
 50
0
  1
ブルー
  0
TEXT
  8
_0-7_枠細線
 62
    5
 10
1197.9999999999998
 20
280.00000000000034
 40
15
 41
0.5999999999999999
 50
0
  1
ダークグレー
  0
TEXT
  8
_0-7_枠細線
 62
    5
 10
1080
 20
405.00000000000028
 40
15
 41
0.5
 50
0
  1
ＧＲＳ－２５Ｗ３００－Ｂ
  0
TEXT
  8
_0-7_枠細線
 62
    5
 10
1080
 20
380.00000000000034
 40
15
 41
0.5
 50
0
  1
ＧＲＳ－２５Ｗ３００－Ｇ
  0
TEXT
  8
_0-7_枠細線
 62
    5
 10
1080
 20
355.00000000000051
 40
15
 41
0.5
 50
0
  1
ＧＲＳ－２５Ｗ３００－Ｓ
  0
TEXT
  8
_0-7_枠細線
 62
    5
 10
1080
 20
330.00000000000034
 40
15
 41
0.5
 50
0
  1
ＧＲＳ－２５Ｗ３００－Ｐ
  0
TEXT
  8
_0-7_枠細線
 62
    5
 10
1080
 20
305.00000000000034
 40
15
 41
0.5
 50
0
  1
ＧＲＳ－２５Ｗ３００－Ａ
  0
TEXT
  8
_0-7_枠細線
 62
    5
 10
1080
 20
280.00000000000034
 40
15
 41
0.5
 50
0
  1
ＧＲＳ－２５Ｗ３００－Ｄ
  0
TEXT
  8
_0-7_枠細線
 62
    5
 10
1080
 20
255.00000000000043
 40
15
 41
0.5
 50
0
  1
ＧＲＳ－２５Ｗ３００－Ｍ
  0
TEXT
  8
_0-7_枠細線
 62
    5
 10
1211.5
 20
255.00000000000043
 40
15
 41
0.5999999999999999
 50
0
  1
ウッド
  0
TEXT
  8
_0-7_枠細線
 62
    5
 10
1186
 20
498.75000000000028
 40
15
 41
0.8000000000000001
 50
0
  1
4.0kg/ｍ
  0
LINE
  8
_0-7_枠細線
  6
CONTINUOUS
 62
    5
 10
1074.9999999999998
 20
199.99999999999986
 11
1375
 21
199.99999999999986
  0
TEXT
  8
_0-7_枠細線
 62
    5
 10
1207.0000000000007
 20
204.99999999999994
 40
15
 41
0.5999999999999999
 50
0
  1
ブラック
  0
TEXT
  8
_0-7_枠細線
 62
    5
 10
1080
 20
204.99999999999994
 40
15
 41
0.5
 50
0
  1
ＧＲＳ－２５Ｗ３００－Ｋ
  0
LINE
  8
_0-7_枠細線
  6
CONTINUOUS
 62
    5
 10
1375
 20
450.00000000000028
 11
1375
 21
199.99999999999986
  0
LINE
  8
_0-7_枠細線
  6
CONTINUOUS
 62
    5
 10
1274.9999999999998
 20
450.00000000000028
 11
1274.9999999999998
 21
199.99999999999986
  0
LINE
  8
_0-7_枠細線
  6
CONTINUOUS
 62
    5
 10
1175.0000000000002
 20
450.00000000000028
 11
1175.0000000000002
 21
199.99999999999986
  0
LINE
  8
_0-7_枠細線
  6
CONTINUOUS
 62
    5
 10
1074.9999999999998
 20
450.00000000000028
 11
1074.9999999999998
 21
199.99999999999986
  0
TEXT
  8
_0-7_枠細線
 62
    5
 10
1080
 20
230.00000000000017
 40
15
 41
0.5
 50
0
  1
ＧＲＳ－２５Ｗ３００－Ｃ
  0
TEXT
  8
_0-7_枠細線
 62
    5
 10
1207.0000000000002
 20
230.00000000000017
 40
15
 41
0.5999999999999999
 50
0
  1
ブラウン
  0
ARC
  8
_0-b_細線3
  6
CONTINUOUS
 62
    7
 10
471.0754906497794
 20
282.04615653402107
 40
1.666666666666667
 50
89.999999999999915
 51
179.99999999999983
  0
ARC
  8
_0-b_細線3
  6
CONTINUOUS
 62
    7
 10
471.85540596865877
 20
285.3794898673541
 40
1.666666666666667
 50
269.99999999999977
 51
330.00000000000881
  0
ARC
  8
_0-b_細線3
  6
CONTINUOUS
 62
    7
 10
474.74215731460686
 20
283.71282320068804
 40
1.666666666666667
 50
89.999999999999915
 51
150.00000000000915
  0
LINE
  8
_0-b_細線3
  6
CONTINUOUS
 62
    7
 10
471.0754906497794
 20
283.71282320068804
 11
471.85540596865877
 21
283.71282320068804
  0
ARC
  8
_0-b_細線3
  6
CONTINUOUS
 62
    7
 10
486.74215731276786
 20
282.04615653402107
 40
1.666666666666667
 50
0
 51
89.999999999999915
  0
ARC
  8
_0-b_細線3
  6
CONTINUOUS
 62
    7
 10
485.96224199388848
 20
285.3794898673541
 40
1.666666666666667
 50
209.99999999999051
 51
269.99999999999977
  0
ARC
  8
_0-b_細線3
  6
CONTINUOUS
 62
    7
 10
483.0754906479404
 20
283.71282320068804
 40
1.666666666666667
 50
29.999999999990862
 51
89.999999999999901
  0
LINE
  8
_0-b_細線3
  6
CONTINUOUS
 62
    7
 10
486.74215731276786
 20
283.71282320068804
 11
485.96224199388848
 21
283.71282320068804
  0
ARC
  8
_0-b_細線3
  6
CONTINUOUS
 62
    7
 10
470.24215731644631
 20
279.71282320068804
 40
0.8333333333333334
 50
179.99999999999983
 51
269.99999999999977
  0
LINE
  8
_0-b_細線3
  6
CONTINUOUS
 62
    7
 10
469.40882398311288
 20
282.04615653402107
 11
469.40882398311288
 21
279.71282320068804
  0
ARC
  8
_0-b_細線3
  6
CONTINUOUS
 62
    7
 10
487.5754906461014
 20
279.71282320068804
 40
0.8333333333333334
 50
269.99999999999977
 51
359.99999999999966
  0
LINE
  8
_0-b_細線3
  6
CONTINUOUS
 62
    7
 10
488.40882397943437
 20
282.04615653402107
 11
488.40882397943437
 21
279.71282320068804
  0
ARC
  8
_0-b_細線3
  6
CONTINUOUS
 62
    7
 10
474.40882398311288
 20
277.21282320068804
 40
1.666666666666667
 50
0
 51
89.999999999999915
  0
LINE
  8
_0-b_細線3
  6
CONTINUOUS
 62
    7
 10
474.40882398311288
 20
278.8794898673541
 11
470.24215731644631
 21
278.8794898673541
  0
ARC
  8
_0-b_細線3
  6
CONTINUOUS
 62
    7
 10
483.40882398311288
 20
277.21282320068804
 40
1.666666666666667
 50
89.999999999999915
 51
179.99999999999983
  0
LINE
  8
_0-b_細線3
  6
CONTINUOUS
 62
    7
 10
483.40882397943398
 20
278.8794898673541
 11
487.5754906461014
 21
278.8794898673541
  0
LINE
  8
_0-b_細線3
  6
CONTINUOUS
 62
    7
 10
483.0754906479404
 20
285.3794898673541
 11
474.74215731460686
 21
285.3794898673541
  0
LINE
  8
_0-b_細線3
  6
CONTINUOUS
 62
    7
 10
476.07549064794034
 20
243.71282320068804
 11
476.0754906497794
 21
277.21282320068804
  0
LINE
  8
_0-b_細線3
  6
CONTINUOUS
 62
    7
 10
481.74215731460691
 20
243.71282320068804
 11
481.74215731644637
 21
277.21282320068804
  0
LINE
  8
_0-b_細線3
  6
CONTINUOUS
 62
    7
 10
481.74215731460691
 20
243.71282320068804
 11
476.07549064794034
 21
243.71282320068804
  0
LINE
  8
_0-7_枠細線
  6
CONTINUOUS
 62
    5
 10
1425
 20
942.50000000000011
 11
890
 21
942.50000000000011
  0
TEXT
  8
_0-7_枠細線
 62
    5
 10
895
 20
945.00000000000011
 40
12.5
 41
1
 50
0
  1
記号
  0
TEXT
  8
_0-7_枠細線
 62
    5
 10
996.875
 20
945.00000000000011
 40
12.5
 41
1
 50
0
  1
訂　 正　 記　 事
  0
TEXT
  8
_0-7_枠細線
 62
    5
 10
1181.25
 20
945.00000000000011
 40
12.5
 41
1
 50
0
  1
訂 正 年 月 日
  0
TEXT
  8
_0-7_枠細線
 62
    5
 10
1306.25
 20
945.00000000000011
 40
12.5
 41
1
 50
0
  1
備　　　　　考
  0
LINE
  8
_0-7_枠細線
  6
CONTINUOUS
 62
    5
 10
1425
 20
925.00000000000011
 11
890
 21
925.00000000000011
  0
TEXT
  8
_0-7_枠細線
 62
    5
 10
938.85037037037023
 20
927.50000000000011
 40
12.5
 41
1
 50
0
  1
品番・色記号変更
  0
TEXT
  8
_0-7_枠細線
 62
    5
 10
1180
 20
927.50000000000011
 40
12.5
 41
0.7199999999999999
 50
0
  1
２０１３．０３．１３
  0
LINE
  8
_0-7_枠細線
  6
CONTINUOUS
 62
    5
 10
1425
 20
907.50000000000011
 11
890
 21
907.50000000000011
  0
LINE
  8
_0-7_枠細線
  6
CONTINUOUS
 62
    5
 10
1425
 20
890.00000000000011
 11
890
 21
890.00000000000011
  0
TEXT
  8
_0-7_枠細線
 62
    5
 10
938.85037037037023
 20
910.00000000000011
 40
12.5
 41
1
 50
0
  1
クロスバーピッチ変更
  0
TEXT
  8
_0-7_枠細線
 62
    5
 10
938.85037037037023
 20
892.50000000000011
 40
12.5
 41
1
 50
0
  1
取外具形状変更
  0
TEXT
  8
_0-7_枠細線
 62
    5
 10
1180
 20
910.00000000000011
 40
12.5
 41
0.7199999999999999
 50
0
  1
２０１５．１１．２０
  0
LINE
  8
_0-7_枠細線
  6
CONTINUOUS
 62
    5
 10
915
 20
908.94233397174708
 11
907.5
 21
923.94233397174708
  0
LINE
  8
_0-7_枠細線
  6
CONTINUOUS
 62
    5
 10
900
 20
908.94233397174708
 11
915
 21
908.94233397174708
  0
LINE
  8
_0-7_枠細線
  6
CONTINUOUS
 62
    5
 10
907.5
 20
923.94233397174708
 11
900
 21
908.94233397174708
  0
TEXT
  8
_0-7_枠細線
 62
    5
 10
902.36515126814822
 20
908.63533172636664
 40
12.5
 41
0.8
 50
0
  1
１
  0
TEXT
  8
_0-7_枠細線
 62
    5
 10
902.36515126814822
 20
891.13533172636664
 40
12.5
 41
0.8
 50
0
  1
２
  0
LINE
  8
_0-7_枠細線
  6
CONTINUOUS
 62
    5
 10
1425
 20
872.50000000000011
 11
890
 21
872.50000000000011
  0
LINE
  8
_0-7_枠細線
  6
CONTINUOUS
 62
    5
 10
907.5
 20
906.44233397174708
 11
900
 21
891.44233397174708
  0
LINE
  8
_0-7_枠細線
  6
CONTINUOUS
 62
    5
 10
900
 20
891.44233397174708
 11
915
 21
891.44233397174708
  0
LINE
  8
_0-7_枠細線
  6
CONTINUOUS
 62
    5
 10
915
 20
891.44233397174708
 11
907.5
 21
906.44233397174708
  0
TEXT
  8
_0-7_枠細線
 62
    5
 10
902.36515126814822
 20
873.39465008156571
 40
12.5
 41
0.8
 50
0
  1
３
  0
TEXT
  8
_0-7_枠細線
 62
    5
 10
1180
 20
875.00000000000011
 40
12.5
 41
0.7199999999999999
 50
0
  1
２０１７．０４．０１
  0
LINE
  8
_0-7_枠細線
  6
CONTINUOUS
 62
    5
 10
915
 20
856.44233397174708
 11
907.5
 21
871.44233397174708
  0
LINE
  8
_0-7_枠細線
  6
CONTINUOUS
 62
    5
 10
900
 20
856.44233397174708
 11
915
 21
856.44233397174708
  0
LINE
  8
_0-7_枠細線
  6
CONTINUOUS
 62
    5
 10
907.5
 20
871.44233397174708
 11
900
 21
856.44233397174708
  0
TEXT
  8
_0-7_枠細線
 62
    5
 10
1180
 20
857.50000000000011
 40
12.5
 41
0.7199999999999999
 50
0
  1
２０１７．０４．０１
  0
TEXT
  8
_0-7_枠細線
 62
    5
 10
938.85037037037023
 20
857.50000000000011
 40
12.5
 41
1
 50
0
  1
ブラウン色（Ｃ）追加
  0
LINE
  8
_0-7_枠細線
  6
CONTINUOUS
 62
    5
 10
1425
 20
855.00000000000011
 11
890
 21
855.00000000000011
  0
LINE
  8
_0-7_枠細線
  6
CONTINUOUS
 62
    5
 10
907.5
 20
888.94233397174708
 11
900
 21
873.94233397174708
  0
LINE
  8
_0-7_枠細線
  6
CONTINUOUS
 62
    5
 10
900
 20
873.94233397174708
 11
915
 21
873.94233397174708
  0
LINE
  8
_0-7_枠細線
  6
CONTINUOUS
 62
    5
 10
915
 20
873.94233397174708
 11
907.5
 21
888.94233397174708
  0
TEXT
  8
_0-7_枠細線
 62
    5
 10
902.36515126814822
 20
855.49351400689716
 40
12.5
 41
0.8
 50
0
  1
４
  0
TEXT
  8
_0-7_枠細線
 62
    5
 10
938.85037037037023
 20
875.00000000000011
 40
12.5
 41
1
 50
0
  1
取外具形状変更
  0
TEXT
  8
_0-7_枠細線
 62
    5
 10
1180
 20
892.50000000000011
 40
12.5
 41
0.7199999999999999
 50
0
  1
２０１５．１１．２０
  0
LINE
  8
_0-b_細線3
  6
CONTINUOUS
 62
    7
 10
496.99215731460731
 20
285.71322530036633
 11
496.99215731460731
 21
252.37989196703239
  0
LINE
  8
_0-b_細線3
  6
CONTINUOUS
 62
    7
 10
489.15882398127337
 20
252.37989196703239
 11
489.15882398127337
 21
285.71322530036633
  0
LINE
  8
_0-b_細線3
  6
CONTINUOUS
 62
    7
 10
496.99215731460731
 20
252.37989196703239
 11
489.15882398127337
 21
252.37989196703239
  0
LINE
  8
_0-b_細線3
  6
CONTINUOUS
 62
    7
 10
489.15882398127337
 20
285.71322530036633
 11
496.99215731460731
 21
285.71322530036633
  0
LINE
  8
_0-b_細線3
  6
DASHED2
 62
    7
 10
489.15882398127337
 20
257.37989196703234
 11
496.99215731460731
 21
257.37989196703234
  0
LINE
  8
_0-b_細線3
  6
DASHED2
 62
    7
 10
489.15882398127337
 20
280.71322530036633
 11
496.99215731460731
 21
280.71322530036633
  0
LINE
  8
_0-b_細線3
  6
CONTINUOUS
 62
    7
 10
481.74215731646473
 20
277.54615653402044
 11
489.15882398127337
 21
277.54615653402044
  0
LINE
  8
_0-b_細線3
  6
CONTINUOUS
 62
    7
 10
496.99215731460731
 20
277.54615653402044
 11
504.49815032004949
 21
277.54615653402044
  0
LINE
  8
_0-b_細線3
  6
CONTINUOUS
 62
    7
 10
496.99215731460731
 20
255.87948986735395
 11
504.49815032004949
 21
255.87948986735395
  0
LINE
  8
_0-b_細線3
  6
CONTINUOUS
 62
    7
 10
481.83148365311285
 20
255.87948986735395
 11
489.15882398127337
 21
255.87948986735395
  0
LINE
  8
_0-7_枠細線
  6
CONTINUOUS
 62
    5
 10
1068.5276246655551
 20
230.57604122127282
 11
1061.0276246655551
 21
245.57604122127282
  0
LINE
  8
_0-7_枠細線
  6
CONTINUOUS
 62
    5
 10
1053.5276246655551
 20
230.57604122127282
 11
1068.5276246655551
 21
230.57604122127282
  0
LINE
  8
_0-7_枠細線
  6
CONTINUOUS
 62
    5
 10
1061.0276246655551
 20
245.57604122127282
 11
1053.5276246655551
 21
230.57604122127282
  0
TEXT
  8
_0-7_枠細線
 62
    5
 10
1055.8927759337032
 20
229.62722125642287
 40
12.5
 41
0.8
 50
0
  1
４
  0
LINE
  8
_0-7_枠細線
  6
CONTINUOUS
 62
    5
 10
915
 20
838.94233397174708
 11
907.5
 21
853.94233397174708
  0
LINE
  8
_0-7_枠細線
  6
CONTINUOUS
 62
    5
 10
900
 20
838.94233397174708
 11
915
 21
838.94233397174708
  0
LINE
  8
_0-7_枠細線
  6
CONTINUOUS
 62
    5
 10
907.5
 20
853.94233397174708
 11
900
 21
838.94233397174708
  0
LINE
  8
_0-7_枠細線
  6
CONTINUOUS
 62
    5
 10
1425
 20
837.50000000000011
 11
890
 21
837.50000000000011
  0
TEXT
  8
_0-7_枠細線
 62
    5
 10
902.36515126814822
 20
837.99351400689716
 40
12.5
 41
0.8
 50
0
  1
５
  0
TEXT
  8
_0-7_枠細線
 62
    5
 10
1180
 20
840.00000000000011
 40
12.5
 41
0.7199999999999999
 50
0
  1
２０１９．０９．０１
  0
LINE
  8
_0-7_枠細線
  6
CONTINUOUS
 62
    5
 10
1275
 20
837.5
 11
1275
 21
959.99999999999932
  0
LINE
  8
_0-7_枠細線
  6
CONTINUOUS
 62
    5
 10
1175
 20
837.5
 11
1175
 21
959.99999999999932
  0
LINE
  8
_0-7_枠細線
  6
CONTINUOUS
 62
    5
 10
925
 20
837.5
 11
925
 21
959.99999999999932
  0
LINE
  8
_0-7_枠細線
  6
CONTINUOUS
 62
    5
 10
890
 20
837.5
 11
890
 21
959.99999999999932
  0
LINE
  8
_0-b_細線3
  6
CONTINUOUS
 62
    7
 10
234.74215731460689
 20
258.71282320068804
 11
234.74215731460689
 21
200.37948986735478
  0
LINE
  8
_0-b_細線3
  6
CONTINUOUS
 62
    7
 10
234.74215731460689
 20
200.37948986735478
 11
230.90882398127354
 21
200.37948986735478
  0
LINE
  8
_0-b_細線3
  6
CONTINUOUS
 62
    7
 10
230.90882398127354
 20
200.37948986735478
 11
230.90882398127354
 21
258.71282320068804
  0
LINE
  8
_0-b_細線3
  6
CONTINUOUS
 62
    7
 10
230.90882398127354
 20
258.71282320068804
 11
234.74215731460689
 21
258.71282320068804
  0
LINE
  8
_0-a_極細3
  6
CONTINUOUS
 62
    7
 10
230.90882398127354
 20
232.04615653402143
 11
234.74215731460689
 21
232.04615653402143
  0
LINE
  8
_0-a_極細3
  6
CONTINUOUS
 62
    7
 10
230.90882398127354
 20
235.37948986735478
 11
234.74215731460689
 21
235.37948986735478
  0
LINE
  8
_0-a_極細3
  6
CONTINUOUS
 62
    7
 10
230.90882398127354
 20
228.71282320068804
 11
234.74215731460689
 21
228.71282320068804
  0
LINE
  8
_0-a_極細3
  6
CONTINUOUS
 62
    7
 10
230.90882398127354
 20
238.71282320068804
 11
234.74215731460689
 21
238.71282320068804
  0
LINE
  8
_0-a_極細3
  6
CONTINUOUS
 62
    7
 10
234.74215731460689
 20
205.37948986735478
 11
230.90882398127354
 21
205.37948986735478
  0
LINE
  8
_0-a_極細3
  6
CONTINUOUS
 62
    7
 10
230.90882398127354
 20
255.37948986735478
 11
234.74215731460689
 21
255.37948986735478
  0
LINE
  8
_0-b_細線3
  6
CONTINUOUS
 62
    7
 10
751.40882398127383
 20
258.71282320068804
 11
751.40882398127383
 21
200.37948986735478
  0
LINE
  8
_0-b_細線3
  6
CONTINUOUS
 62
    7
 10
751.40882398127383
 20
200.37948986735478
 11
755.24215731460731
 21
200.37948986735478
  0
LINE
  8
_0-b_細線3
  6
CONTINUOUS
 62
    7
 10
755.24215731460731
 20
200.37948986735478
 11
755.24215731460731
 21
258.71282320068804
  0
LINE
  8
_0-b_細線3
  6
CONTINUOUS
 62
    7
 10
755.24215731460731
 20
258.71282320068804
 11
751.40882398127383
 21
258.71282320068804
  0
LINE
  8
_0-a_極細3
  6
CONTINUOUS
 62
    7
 10
755.24215731460731
 20
232.04615653402143
 11
751.40882398127383
 21
232.04615653402143
  0
LINE
  8
_0-a_極細3
  6
CONTINUOUS
 62
    7
 10
755.24215731460731
 20
235.37948986735478
 11
751.40882398127383
 21
235.37948986735478
  0
LINE
  8
_0-a_極細3
  6
CONTINUOUS
 62
    7
 10
755.24215731460731
 20
228.71282320068804
 11
751.40882398127383
 21
228.71282320068804
  0
LINE
  8
_0-a_極細3
  6
CONTINUOUS
 62
    7
 10
755.24215731460731
 20
238.71282320068804
 11
751.40882398127383
 21
238.71282320068804
  0
LINE
  8
_0-a_極細3
  6
CONTINUOUS
 62
    7
 10
751.40882398127383
 20
205.37948986735478
 11
755.24215731460731
 21
205.37948986735478
  0
LINE
  8
_0-a_極細3
  6
CONTINUOUS
 62
    7
 10
755.24215731460731
 20
255.37948986735478
 11
751.40882398127383
 21
255.37948986735478
  0
LINE
  8
_0-7_枠細線
  6
CONTINUOUS
 62
    5
 10
773.17287415522958
 20
248.04614500062797
 11
765.67287415522958
 21
263.04614500062792
  0
LINE
  8
_0-7_枠細線
  6
CONTINUOUS
 62
    5
 10
758.17287415522958
 20
248.04614500062797
 11
773.17287415522958
 21
248.04614500062797
  0
LINE
  8
_0-7_枠細線
  6
CONTINUOUS
 62
    5
 10
765.67287415522958
 20
263.04614500062792
 11
758.17287415522958
 21
248.04614500062797
  0
TEXT
  8
_0-7_枠細線
 62
    5
 10
760.53802542337758
 20
247.09732503577806
 40
12.5
 41
0.8
 50
0
  1
５
  0
LINE
  8
_0-9_枠極太
  6
CONTINUOUS
 62
    5
 10
60
 20
60
 11
60
 21
960
  0
LINE
  8
_0-9_枠極太
  6
CONTINUOUS
 62
    5
 10
60
 20
960
 11
1425
 21
960
  0
LINE
  8
_0-9_枠極太
  6
CONTINUOUS
 62
    5
 10
1425
 20
960
 11
1425
 21
60
  0
LINE
  8
_0-9_枠極太
  6
CONTINUOUS
 62
    5
 10
1425
 20
60
 11
60
 21
60
  0
ARC
  8
_0-0_計極細
  6
CONTINUOUS
 62
    2
 10
864.90653196550647
 20
507.92637075717641
 40
11.295514677412786
 50
138.39585046827415
 51
221.60414953172548
  0
ARC
  8
_0-0_計極細
  6
CONTINUOUS
 62
    2
 10
848.01408965213568
 20
492.92637075717465
 40
11.295514677412786
 50
318.39585046827534
 51
41.604149531723962
  0
LINE
  8
_0-5_寸法線
  6
CONTINUOUS
 62
    7
 10
866.4603108088204
 20
795.42637075717653
 11
946.46031080881914
 21
795.42637075717653
  0
LINE
  8
_0-5_寸法線
  6
CONTINUOUS
 62
    7
 10
941.46031080881914
 20
795.42637075717653
 11
944.04850125984422
 21
785.7671124942857
  0
LINE
  8
_0-5_寸法線
  6
CONTINUOUS
 62
    7
 10
941.46031080881914
 20
795.42637075717653
 11
938.87212035779385
 21
785.7671124942857
  0
LINE
  8
_0-5_寸法線
  6
CONTINUOUS
 62
    7
 10
866.46031080881994
 20
485.42637075717278
 11
946.46031080881994
 21
485.42637075717278
  0
LINE
  8
_0-5_寸法線
  6
CONTINUOUS
 62
    7
 10
941.46031080881994
 20
485.42637075717278
 11
938.87212035779487
 21
495.08562902006349
  0
LINE
  8
_0-5_寸法線
  6
CONTINUOUS
 62
    7
 10
941.46031080881994
 20
485.42637075717278
 11
944.04850125984524
 21
495.08562902006349
  0
LINE
  8
_0-5_寸法線
  6
CONTINUOUS
 62
    7
 10
941.46031080881914
 20
795.42637075717653
 11
941.46031080881994
 21
485.42637075717278
  0
TEXT
  8
_0-5_寸法線
 62
    7
 10
941.46031080881994
 20
629.17637075717471
 40
15
 41
1
 50
90
  1
310
  0
LINE
  8
_0-1_計細線
  6
CONTINUOUS
 62
    3
 10
834.96031080882085
 20
765.42637075717653
 11
856.4603108088204
 21
765.42637075717653
  0
LINE
  8
_0-1_計細線
  6
CONTINUOUS
 62
    3
 10
834.96031080882085
 20
515.42637075717732
 11
856.46031080882096
 21
515.42637075717732
  0
ARC
  8
_0-0_計極細
  6
CONTINUOUS
 62
    2
 10
238.90653196550517
 20
787.92637075717653
 40
11.295514677412786
 50
138.39585046827494
 51
221.60414953172469
  0
ARC
  8
_0-0_計極細
  6
CONTINUOUS
 62
    2
 10
222.01408965213474
 20
772.92637075717471
 40
11.295514677412786
 50
318.39585046827381
 51
41.604149531724723
  0
ARC
  8
_0-0_計極細
  6
CONTINUOUS
 62
    2
 10
238.90653196550559
 20
507.92637075717641
 40
11.295514677412786
 50
138.39585046827494
 51
221.60414953172469
  0
ARC
  8
_0-0_計極細
  6
CONTINUOUS
 62
    2
 10
222.01408965213523
 20
492.92637075717465
 40
11.295514677412786
 50
318.39585046827381
 51
41.604149531724723
  0
LINE
  8
_0-5_寸法線
  6
CONTINUOUS
 62
    7
 10
220.46031080881932
 20
795.42637075717653
 11
175.46031080882443
 21
795.42637075717653
  0
LINE
  8
_0-5_寸法線
  6
CONTINUOUS
 62
    7
 10
180.46031080882443
 20
795.42637075717653
 11
183.04850125984956
 21
785.7671124942857
  0
LINE
  8
_0-5_寸法線
  6
CONTINUOUS
 62
    7
 10
180.46031080882443
 20
795.42637075717653
 11
177.87212035779916
 21
785.7671124942857
  0
LINE
  8
_0-5_寸法線
  6
CONTINUOUS
 62
    7
 10
220.46031080882173
 20
765.42637075717653
 11
175.46031080882449
 21
765.42637075717653
  0
LINE
  8
_0-5_寸法線
  6
CONTINUOUS
 62
    7
 10
180.46031080882449
 20
765.42637075717653
 11
177.8721203577993
 21
775.08562902006713
  0
LINE
  8
_0-5_寸法線
  6
CONTINUOUS
 62
    7
 10
180.46031080882449
 20
765.42637075717653
 11
183.0485012598497
 21
775.08562902006713
  0
LINE
  8
_0-5_寸法線
  6
CONTINUOUS
 62
    7
 10
180.46031080882443
 20
795.42637075717653
 11
180.46031080882449
 21
765.42637075717653
  0
TEXT
  8
_0-5_寸法線
 62
    7
 10
180.46031080882429
 20
772.92637075717653
 40
15
 41
1
 50
90
  1
30
  0
LINE
  8
_0-5_寸法線
  6
CONTINUOUS
 62
    7
 10
180.46031080882449
 20
765.42637075717653
 11
183.0485012598497
 21
755.7671124942857
  0
LINE
  8
_0-5_寸法線
  6
CONTINUOUS
 62
    7
 10
180.46031080882449
 20
765.42637075717653
 11
177.8721203577993
 21
755.7671124942857
  0
LINE
  8
_0-5_寸法線
  6
CONTINUOUS
 62
    7
 10
220.46031080881994
 20
515.42637075717641
 11
175.460310808825
 21
515.42637075717641
  0
LINE
  8
_0-5_寸法線
  6
CONTINUOUS
 62
    7
 10
180.460310808825
 20
515.42637075717641
 11
177.87212035779973
 21
525.08562902006713
  0
LINE
  8
_0-5_寸法線
  6
CONTINUOUS
 62
    7
 10
180.460310808825
 20
515.42637075717641
 11
183.04850125985013
 21
525.08562902006713
  0
LINE
  8
_0-5_寸法線
  6
CONTINUOUS
 62
    7
 10
180.46031080882449
 20
765.42637075717653
 11
180.460310808825
 21
515.42637075717641
  0
TEXT
  8
_0-5_寸法線
 62
    7
 10
180.46031080882472
 20
629.17637075717641
 40
15
 41
1
 50
90
  1
250
  0
LINE
  8
_0-5_寸法線
  6
CONTINUOUS
 62
    7
 10
180.460310808825
 20
515.42637075717641
 11
183.04850125985013
 21
505.7671124942857
  0
LINE
  8
_0-5_寸法線
  6
CONTINUOUS
 62
    7
 10
180.460310808825
 20
515.42637075717641
 11
177.87212035779973
 21
505.76711249428575
  0
LINE
  8
_0-5_寸法線
  6
CONTINUOUS
 62
    7
 10
220.460310808825
 20
485.4263707571792
 11
175.460310808825
 21
485.4263707571792
  0
LINE
  8
_0-5_寸法線
  6
CONTINUOUS
 62
    7
 10
180.460310808825
 20
485.4263707571792
 11
177.87212035779973
 21
495.08562902006986
  0
LINE
  8
_0-5_寸法線
  6
CONTINUOUS
 62
    7
 10
180.460310808825
 20
485.4263707571792
 11
183.04850125985013
 21
495.08562902006986
  0
LINE
  8
_0-5_寸法線
  6
CONTINUOUS
 62
    7
 10
180.460310808825
 20
515.42637075717641
 11
180.460310808825
 21
485.4263707571792
  0
TEXT
  8
_0-5_寸法線
 62
    7
 10
180.460310808825
 20
492.92637075717732
 40
15
 41
1
 50
90
  1
30
  0
LINE
  8
_0-1_計細線
  6
CONTINUOUS
 62
    3
 10
230.46031080881994
 20
515.42637075717732
 11
251.96031080882085
 21
515.42637075717732
  0
LINE
  8
_0-1_計細線
  6
CONTINUOUS
 62
    3
 10
230.46031080881946
 20
765.42637075717653
 11
251.96031080882085
 21
765.42637075717653
  0
LINE
  8
_0-1_計細線
  6
CONTINUOUS
 62
    3
 10
251.96031080882085
 20
575.2263707571766
 11
834.96031080882085
 21
575.2263707571766
  0
LINE
  8
_0-1_計細線
  6
CONTINUOUS
 62
    3
 10
251.96031080882085
 20
586.62637075717817
 11
834.96031080882085
 21
586.62637075717817
  0
LINE
  8
_0-1_計細線
  6
CONTINUOUS
 62
    3
 10
251.96031080882085
 20
575.2263707571766
 11
251.96031080882085
 21
586.62637075717817
  0
LINE
  8
_0-1_計細線
  6
CONTINUOUS
 62
    3
 10
834.96031080882085
 20
575.2263707571766
 11
834.96031080882085
 21
586.62637075717817
  0
LINE
  8
_0-0_計極細
  6
CONTINUOUS
 62
    2
 10
251.96031080882085
 20
583.42637075717732
 11
834.96031080882085
 21
583.42637075717732
  0
LINE
  8
_0-0_計極細
  6
CONTINUOUS
 62
    2
 10
251.96031080882085
 20
578.42637075717732
 11
834.96031080882085
 21
578.42637075717732
  0
LINE
  8
_0-1_計細線
  6
CONTINUOUS
 62
    3
 10
251.96031080882085
 20
592.22637075717842
 11
834.96031080882085
 21
592.22637075717842
  0
LINE
  8
_0-1_計細線
  6
CONTINUOUS
 62
    3
 10
251.96031080882085
 20
603.62637075717805
 11
834.96031080882085
 21
603.62637075717805
  0
LINE
  8
_0-1_計細線
  6
CONTINUOUS
 62
    3
 10
251.96031080882085
 20
592.22637075717842
 11
251.96031080882085
 21
603.62637075717805
  0
LINE
  8
_0-1_計細線
  6
CONTINUOUS
 62
    3
 10
834.96031080882085
 20
592.22637075717842
 11
834.96031080882085
 21
603.62637075717805
  0
LINE
  8
_0-0_計極細
  6
CONTINUOUS
 62
    2
 10
251.96031080882085
 20
600.42637075717732
 11
834.96031080882085
 21
600.42637075717732
  0
LINE
  8
_0-0_計極細
  6
CONTINUOUS
 62
    2
 10
251.96031080882085
 20
595.42637075717732
 11
834.96031080882085
 21
595.42637075717732
  0
LINE
  8
_0-1_計細線
  6
CONTINUOUS
 62
    3
 10
251.96031080882085
 20
609.22637075717842
 11
834.96031080882085
 21
609.22637075717842
  0
LINE
  8
_0-1_計細線
  6
CONTINUOUS
 62
    3
 10
251.96031080882085
 20
620.62637075717907
 11
834.96031080882085
 21
620.62637075717907
  0
LINE
  8
_0-1_計細線
  6
CONTINUOUS
 62
    3
 10
251.96031080882085
 20
609.22637075717842
 11
251.96031080882085
 21
620.62637075717907
  0
LINE
  8
_0-1_計細線
  6
CONTINUOUS
 62
    3
 10
834.96031080882085
 20
609.22637075717842
 11
834.96031080882085
 21
620.62637075717907
  0
LINE
  8
_0-0_計極細
  6
CONTINUOUS
 62
    2
 10
251.96031080882085
 20
617.42637075717914
 11
834.96031080882085
 21
617.42637075717914
  0
LINE
  8
_0-0_計極細
  6
CONTINUOUS
 62
    2
 10
251.96031080882085
 20
612.42637075717914
 11
834.96031080882085
 21
612.42637075717914
  0
LINE
  8
_0-0_計極細
  6
CENTER2
 62
    2
 10
236.07171127180209
 20
640.42637075717732
 11
851.00504460517868
 21
640.42637075717732
  0
LINE
  8
_0-1_計細線
  6
CONTINUOUS
 62
    3
 10
251.96031080882085
 20
705.62637075717635
 11
834.96031080882085
 21
705.62637075717635
  0
LINE
  8
_0-1_計細線
  6
CONTINUOUS
 62
    3
 10
251.96031080882085
 20
694.2263707571758
 11
834.96031080882085
 21
694.2263707571758
  0
LINE
  8
_0-1_計細線
  6
CONTINUOUS
 62
    3
 10
251.96031080882085
 20
705.62637075717635
 11
251.96031080882085
 21
694.2263707571758
  0
LINE
  8
_0-1_計細線
  6
CONTINUOUS
 62
    3
 10
834.96031080882085
 20
705.62637075717635
 11
834.96031080882085
 21
694.2263707571758
  0
LINE
  8
_0-0_計極細
  6
CONTINUOUS
 62
    2
 10
251.96031080882085
 20
697.4263707571755
 11
834.96031080882085
 21
697.4263707571755
  0
LINE
  8
_0-0_計極細
  6
CONTINUOUS
 62
    2
 10
251.96031080882085
 20
702.4263707571755
 11
834.96031080882085
 21
702.4263707571755
  0
LINE
  8
_0-1_計細線
  6
CONTINUOUS
 62
    3
 10
251.96031080882085
 20
671.62637075717623
 11
834.96031080882085
 21
671.62637075717623
  0
LINE
  8
_0-1_計細線
  6
CONTINUOUS
 62
    3
 10
251.96031080882085
 20
660.22637075717569
 11
834.96031080882085
 21
660.22637075717569
  0
LINE
  8
_0-1_計細線
  6
CONTINUOUS
 62
    3
 10
251.96031080882085
 20
671.62637075717623
 11
251.96031080882085
 21
660.22637075717569
  0
LINE
  8
_0-1_計細線
  6
CONTINUOUS
 62
    3
 10
834.96031080882085
 20
671.62637075717623
 11
834.96031080882085
 21
660.22637075717569
  0
LINE
  8
_0-0_計極細
  6
CONTINUOUS
 62
    2
 10
251.96031080882085
 20
663.4263707571755
 11
834.96031080882085
 21
663.4263707571755
  0
LINE
  8
_0-0_計極細
  6
CONTINUOUS
 62
    2
 10
251.96031080882085
 20
668.4263707571755
 11
834.96031080882085
 21
668.4263707571755
  0
LINE
  8
_0-1_計細線
  6
CONTINUOUS
 62
    3
 10
251.96031080882085
 20
688.62637075717714
 11
834.96031080882085
 21
688.62637075717714
  0
LINE
  8
_0-1_計細線
  6
CONTINUOUS
 62
    3
 10
251.96031080882085
 20
677.2263707571766
 11
834.96031080882085
 21
677.2263707571766
  0
LINE
  8
_0-1_計細線
  6
CONTINUOUS
 62
    3
 10
251.96031080882085
 20
688.62637075717714
 11
251.96031080882085
 21
677.2263707571766
  0
LINE
  8
_0-1_計細線
  6
CONTINUOUS
 62
    3
 10
834.96031080882085
 20
688.62637075717714
 11
834.96031080882085
 21
677.2263707571766
  0
LINE
  8
_0-0_計極細
  6
CONTINUOUS
 62
    2
 10
251.96031080882085
 20
680.42637075717732
 11
834.96031080882085
 21
680.42637075717732
  0
LINE
  8
_0-0_計極細
  6
CONTINUOUS
 62
    2
 10
251.96031080882085
 20
685.42637075717732
 11
834.96031080882085
 21
685.42637075717732
  0
LINE
  8
_0-1_計細線
  6
CONTINUOUS
 62
    3
 10
251.96031080882085
 20
773.62637075717635
 11
834.96031080882085
 21
773.62637075717635
  0
LINE
  8
_0-1_計細線
  6
CONTINUOUS
 62
    3
 10
251.96031080882085
 20
762.2263707571766
 11
834.96031080882085
 21
762.2263707571766
  0
LINE
  8
_0-1_計細線
  6
CONTINUOUS
 62
    3
 10
251.96031080882085
 20
773.62637075717635
 11
251.96031080882085
 21
762.2263707571766
  0
LINE
  8
_0-1_計細線
  6
CONTINUOUS
 62
    3
 10
834.96031080882085
 20
773.62637075717635
 11
834.96031080882085
 21
762.2263707571766
  0
LINE
  8
_0-0_計極細
  6
CONTINUOUS
 62
    2
 10
251.96031080882085
 20
765.42637075717732
 11
834.96031080882085
 21
765.42637075717732
  0
LINE
  8
_0-0_計極細
  6
CONTINUOUS
 62
    2
 10
251.96031080882085
 20
770.42637075717732
 11
834.96031080882085
 21
770.42637075717732
  0
LINE
  8
_0-1_計細線
  6
CONTINUOUS
 62
    3
 10
251.96031080882085
 20
507.22637075717665
 11
834.96031080882085
 21
507.22637075717665
  0
LINE
  8
_0-1_計細線
  6
CONTINUOUS
 62
    3
 10
251.96031080882085
 20
518.62637075717635
 11
834.96031080882085
 21
518.62637075717635
  0
LINE
  8
_0-1_計細線
  6
CONTINUOUS
 62
    3
 10
251.96031080882085
 20
507.22637075717665
 11
251.96031080882085
 21
518.62637075717635
  0
LINE
  8
_0-1_計細線
  6
CONTINUOUS
 62
    3
 10
834.96031080882085
 20
507.22637075717665
 11
834.96031080882085
 21
518.62637075717635
  0
LINE
  8
_0-0_計極細
  6
CONTINUOUS
 62
    2
 10
251.96031080882085
 20
515.42637075717732
 11
834.96031080882085
 21
515.42637075717732
  0
LINE
  8
_0-0_計極細
  6
CONTINUOUS
 62
    2
 10
251.96031080882085
 20
510.42637075717732
 11
834.96031080882085
 21
510.42637075717732
  0
LINE
  8
_0-1_計細線
  6
CONTINUOUS
 62
    3
 10
251.96031080882085
 20
790.42637075717732
 11
834.96031080882085
 21
790.42637075717732
  0
LINE
  8
_0-1_計細線
  6
CONTINUOUS
 62
    3
 10
251.96031080882085
 20
779.02637075717598
 11
834.96031080882085
 21
779.02637075717598
  0
LINE
  8
_0-1_計細線
  6
CONTINUOUS
 62
    3
 10
251.96031080882085
 20
790.42637075717732
 11
251.96031080882085
 21
779.02637075717598
  0
LINE
  8
_0-1_計細線
  6
CONTINUOUS
 62
    3
 10
834.96031080882085
 20
790.42637075717732
 11
834.96031080882085
 21
779.02637075717598
  0
LINE
  8
_0-0_計極細
  6
CONTINUOUS
 62
    2
 10
251.96031080882085
 20
782.22637075717671
 11
834.96031080882085
 21
782.22637075717671
  0
LINE
  8
_0-0_計極細
  6
CONTINUOUS
 62
    2
 10
251.96031080882085
 20
787.22637075717671
 11
834.96031080882085
 21
787.22637075717671
  0
LINE
  8
_0-1_計細線
  6
CONTINUOUS
 62
    3
 10
251.96031080882085
 20
490.42637075717732
 11
834.96031080882085
 21
490.42637075717732
  0
LINE
  8
_0-1_計細線
  6
CONTINUOUS
 62
    3
 10
251.96031080882085
 20
501.82637075717793
 11
834.96031080882085
 21
501.82637075717793
  0
LINE
  8
_0-1_計細線
  6
CONTINUOUS
 62
    3
 10
251.96031080882085
 20
490.42637075717732
 11
251.96031080882085
 21
501.82637075717793
  0
LINE
  8
_0-1_計細線
  6
CONTINUOUS
 62
    3
 10
834.96031080882085
 20
490.42637075717732
 11
834.96031080882085
 21
501.82637075717793
  0
LINE
  8
_0-0_計極細
  6
CONTINUOUS
 62
    2
 10
251.96031080882085
 20
498.62637075717805
 11
834.96031080882085
 21
498.62637075717805
  0
LINE
  8
_0-0_計極細
  6
CONTINUOUS
 62
    2
 10
251.96031080882085
 20
493.62637075717805
 11
834.96031080882085
 21
493.62637075717805
  0
LINE
  8
_0-1_計細線
  6
CONTINUOUS
 62
    3
 10
251.96031080882085
 20
722.62637075717532
 11
834.96031080882085
 21
722.62637075717532
  0
LINE
  8
_0-1_計細線
  6
CONTINUOUS
 62
    3
 10
251.96031080882085
 20
711.22637075717478
 11
834.96031080882085
 21
711.22637075717478
  0
LINE
  8
_0-1_計細線
  6
CONTINUOUS
 62
    3
 10
251.96031080882085
 20
722.62637075717532
 11
251.96031080882085
 21
711.22637075717478
  0
LINE
  8
_0-1_計細線
  6
CONTINUOUS
 62
    3
 10
834.96031080882085
 20
722.62637075717532
 11
834.96031080882085
 21
711.22637075717478
  0
LINE
  8
_0-0_計極細
  6
CONTINUOUS
 62
    2
 10
251.96031080882085
 20
714.42637075717562
 11
834.96031080882085
 21
714.42637075717562
  0
LINE
  8
_0-0_計極細
  6
CONTINUOUS
 62
    2
 10
251.96031080882085
 20
719.42637075717562
 11
834.96031080882085
 21
719.42637075717562
  0
LINE
  8
_0-1_計細線
  6
CONTINUOUS
 62
    3
 10
251.96031080882085
 20
739.62637075717441
 11
834.96031080882085
 21
739.62637075717441
  0
LINE
  8
_0-1_計細線
  6
CONTINUOUS
 62
    3
 10
251.96031080882085
 20
728.22637075717398
 11
834.96031080882085
 21
728.22637075717398
  0
LINE
  8
_0-1_計細線
  6
CONTINUOUS
 62
    3
 10
251.96031080882085
 20
739.62637075717441
 11
251.96031080882085
 21
728.22637075717398
  0
LINE
  8
_0-1_計細線
  6
CONTINUOUS
 62
    3
 10
834.96031080882085
 20
739.62637075717441
 11
834.96031080882085
 21
728.22637075717398
  0
LINE
  8
_0-0_計極細
  6
CONTINUOUS
 62
    2
 10
251.96031080882085
 20
731.4263707571738
 11
834.96031080882085
 21
731.4263707571738
  0
LINE
  8
_0-0_計極細
  6
CONTINUOUS
 62
    2
 10
251.96031080882085
 20
736.4263707571738
 11
834.96031080882085
 21
736.4263707571738
  0
LINE
  8
_0-1_計細線
  6
CONTINUOUS
 62
    3
 10
251.96031080882085
 20
756.62637075717362
 11
834.96031080882085
 21
756.62637075717362
  0
LINE
  8
_0-1_計細線
  6
CONTINUOUS
 62
    3
 10
251.96031080882085
 20
745.22637075717296
 11
834.96031080882085
 21
745.22637075717296
  0
LINE
  8
_0-1_計細線
  6
CONTINUOUS
 62
    3
 10
251.96031080882085
 20
756.62637075717362
 11
251.96031080882085
 21
745.22637075717296
  0
LINE
  8
_0-1_計細線
  6
CONTINUOUS
 62
    3
 10
834.96031080882085
 20
756.62637075717362
 11
834.96031080882085
 21
745.22637075717296
  0
LINE
  8
_0-0_計極細
  6
CONTINUOUS
 62
    2
 10
251.96031080882085
 20
748.4263707571738
 11
834.96031080882085
 21
748.4263707571738
  0
LINE
  8
_0-0_計極細
  6
CONTINUOUS
 62
    2
 10
251.96031080882085
 20
753.4263707571738
 11
834.96031080882085
 21
753.4263707571738
  0
LINE
  8
_0-1_計細線
  6
CONTINUOUS
 62
    3
 10
251.96031080882085
 20
558.22637075717842
 11
834.96031080882085
 21
558.22637075717842
  0
LINE
  8
_0-1_計細線
  6
CONTINUOUS
 62
    3
 10
251.96031080882085
 20
569.62637075717896
 11
834.96031080882085
 21
569.62637075717896
  0
LINE
  8
_0-1_計細線
  6
CONTINUOUS
 62
    3
 10
251.96031080882085
 20
558.22637075717842
 11
251.96031080882085
 21
569.62637075717896
  0
LINE
  8
_0-1_計細線
  6
CONTINUOUS
 62
    3
 10
834.96031080882085
 20
558.22637075717842
 11
834.96031080882085
 21
569.62637075717896
  0
LINE
  8
_0-0_計極細
  6
CONTINUOUS
 62
    2
 10
251.96031080882085
 20
566.42637075717914
 11
834.96031080882085
 21
566.42637075717914
  0
LINE
  8
_0-0_計極細
  6
CONTINUOUS
 62
    2
 10
251.96031080882085
 20
561.42637075717914
 11
834.96031080882085
 21
561.42637075717914
  0
LINE
  8
_0-1_計細線
  6
CONTINUOUS
 62
    3
 10
251.96031080882085
 20
541.22637075717932
 11
834.96031080882085
 21
541.22637075717932
  0
LINE
  8
_0-1_計細線
  6
CONTINUOUS
 62
    3
 10
251.96031080882085
 20
552.62637075717987
 11
834.96031080882085
 21
552.62637075717987
  0
LINE
  8
_0-1_計細線
  6
CONTINUOUS
 62
    3
 10
251.96031080882085
 20
541.22637075717932
 11
251.96031080882085
 21
552.62637075717987
  0
LINE
  8
_0-1_計細線
  6
CONTINUOUS
 62
    3
 10
834.96031080882085
 20
541.22637075717932
 11
834.96031080882085
 21
552.62637075717987
  0
LINE
  8
_0-0_計極細
  6
CONTINUOUS
 62
    2
 10
251.96031080882085
 20
549.42637075717914
 11
834.96031080882085
 21
549.42637075717914
  0
LINE
  8
_0-0_計極細
  6
CONTINUOUS
 62
    2
 10
251.96031080882085
 20
544.42637075717914
 11
834.96031080882085
 21
544.42637075717914
  0
LINE
  8
_0-1_計細線
  6
CONTINUOUS
 62
    3
 10
251.96031080882085
 20
524.22637075718035
 11
834.96031080882085
 21
524.22637075718035
  0
LINE
  8
_0-1_計細線
  6
CONTINUOUS
 62
    3
 10
251.96031080882085
 20
535.62637075718078
 11
834.96031080882085
 21
535.62637075718078
  0
LINE
  8
_0-1_計細線
  6
CONTINUOUS
 62
    3
 10
251.96031080882085
 20
524.22637075718035
 11
251.96031080882085
 21
535.62637075718078
  0
LINE
  8
_0-1_計細線
  6
CONTINUOUS
 62
    3
 10
834.96031080882085
 20
524.22637075718035
 11
834.96031080882085
 21
535.62637075718078
  0
LINE
  8
_0-0_計極細
  6
CONTINUOUS
 62
    2
 10
251.96031080882085
 20
532.42637075718096
 11
834.96031080882085
 21
532.42637075718096
  0
LINE
  8
_0-0_計極細
  6
CONTINUOUS
 62
    2
 10
251.96031080882085
 20
527.42637075718096
 11
834.96031080882085
 21
527.42637075718096
  0
LINE
  8
_0-1_計細線
  6
CONTINUOUS
 62
    3
 10
230.46031080881946
 20
795.42637075717653
 11
856.4603108088204
 21
795.42637075717653
  0
LINE
  8
_0-1_計細線
  6
CONTINUOUS
 62
    3
 10
856.46031080882096
 20
485.42637075717732
 11
230.46031080881994
 21
485.42637075717732
  0
LINE
  8
_0-1_計細線
  6
CONTINUOUS
 62
    3
 10
228.54609511044691
 20
792.42637075717653
 11
854.54609511044794
 21
792.42637075717653
  0
LINE
  8
_0-1_計細線
  6
CONTINUOUS
 62
    3
 10
858.37452650719524
 20
488.42637075717732
 11
232.3745265071959
 21
488.42637075717732
  0
LINE
  8
_0-0_計極細
  6
CONTINUOUS
 62
    2
 10
260.46031080882102
 20
586.62637075717817
 11
260.46031080882102
 21
592.22637075717842
  0
LINE
  8
_0-0_計極細
  6
CONTINUOUS
 62
    2
 10
273.46031080882113
 20
586.62637075717817
 11
273.46031080882113
 21
592.22637075717842
  0
LINE
  8
_0-0_計極細
  6
CONTINUOUS
 62
    2
 10
260.46031080882102
 20
603.62637075717805
 11
260.46031080882102
 21
609.22637075717842
  0
LINE
  8
_0-0_計極細
  6
CONTINUOUS
 62
    2
 10
273.46031080882113
 20
603.62637075717805
 11
273.46031080882113
 21
609.22637075717842
  0
LINE
  8
_0-0_計極細
  6
CONTINUOUS
 62
    2
 10
260.46031080882102
 20
626.22637075717478
 11
260.46031080882102
 21
620.62637075717453
  0
LINE
  8
_0-0_計極細
  6
CONTINUOUS
 62
    2
 10
273.46031080882113
 20
626.22637075717478
 11
273.46031080882113
 21
620.62637075717453
  0
LINE
  8
_0-0_計極細
  6
CONTINUOUS
 62
    2
 10
260.46031080882102
 20
643.22637075717478
 11
260.46031080882102
 21
637.62637075717441
  0
LINE
  8
_0-0_計極細
  6
CONTINUOUS
 62
    2
 10
273.46031080882113
 20
643.22637075717478
 11
273.46031080882113
 21
637.62637075717441
  0
LINE
  8
_0-0_計極細
  6
CONTINUOUS
 62
    2
 10
260.46031080882102
 20
660.22637075717569
 11
260.46031080882102
 21
654.62637075717623
  0
LINE
  8
_0-0_計極細
  6
CONTINUOUS
 62
    2
 10
273.46031080882113
 20
660.22637075717569
 11
273.46031080882113
 21
654.62637075717623
  0
LINE
  8
_0-0_計極細
  6
CONTINUOUS
 62
    2
 10
260.46031080882102
 20
677.2263707571766
 11
260.46031080882102
 21
671.62637075717623
  0
LINE
  8
_0-0_計極細
  6
CONTINUOUS
 62
    2
 10
273.46031080882113
 20
677.2263707571766
 11
273.46031080882113
 21
671.62637075717623
  0
LINE
  8
_0-0_計極細
  6
CONTINUOUS
 62
    2
 10
260.46031080882102
 20
694.2263707571766
 11
260.46031080882102
 21
688.62637075717714
  0
LINE
  8
_0-0_計極細
  6
CONTINUOUS
 62
    2
 10
273.46031080882113
 20
694.2263707571766
 11
273.46031080882113
 21
688.62637075717714
  0
LINE
  8
_0-0_計極細
  6
CONTINUOUS
 62
    2
 10
260.46031080882102
 20
779.02637075717598
 11
260.46031080882102
 21
773.62637075717635
  0
LINE
  8
_0-0_計極細
  6
CONTINUOUS
 62
    2
 10
273.46031080882113
 20
779.02637075717598
 11
273.46031080882113
 21
773.62637075717635
  0
LINE
  8
_0-0_計極細
  6
CONTINUOUS
 62
    2
 10
260.46031080882102
 20
501.82637075717702
 11
260.46031080882102
 21
507.22637075717665
  0
LINE
  8
_0-0_計極細
  6
CONTINUOUS
 62
    2
 10
273.46031080882113
 20
501.82637075717702
 11
273.46031080882113
 21
507.22637075717665
  0
LINE
  8
_0-0_計極細
  6
CENTER1
 62
    2
 10
266.96031080882096
 20
799.17709018163816
 11
266.96031080882096
 21
482.66854701616478
  0
LINE
  8
_0-0_計極細
  6
CONTINUOUS
 62
    2
 10
260.46031080882102
 20
711.2263707571766
 11
260.46031080882102
 21
705.62637075717635
  0
LINE
  8
_0-0_計極細
  6
CONTINUOUS
 62
    2
 10
273.46031080882113
 20
711.2263707571766
 11
273.46031080882113
 21
705.62637075717635
  0
LINE
  8
_0-0_計極細
  6
CONTINUOUS
 62
    2
 10
260.46031080882102
 20
728.22637075717478
 11
260.46031080882102
 21
722.62637075717532
  0
LINE
  8
_0-0_計極細
  6
CONTINUOUS
 62
    2
 10
273.46031080882113
 20
728.22637075717478
 11
273.46031080882113
 21
722.62637075717532
  0
LINE
  8
_0-0_計極細
  6
CONTINUOUS
 62
    2
 10
260.46031080882102
 20
745.22637075717489
 11
260.46031080882102
 21
739.62637075717441
  0
LINE
  8
_0-0_計極細
  6
CONTINUOUS
 62
    2
 10
273.46031080882113
 20
745.22637075717489
 11
273.46031080882113
 21
739.62637075717441
  0
LINE
  8
_0-0_計極細
  6
CONTINUOUS
 62
    2
 10
260.46031080882102
 20
762.22637075717307
 11
260.46031080882102
 21
756.62637075717362
  0
LINE
  8
_0-0_計極細
  6
CONTINUOUS
 62
    2
 10
273.46031080882113
 20
762.22637075717307
 11
273.46031080882113
 21
756.62637075717362
  0
LINE
  8
_0-0_計極細
  6
CONTINUOUS
 62
    2
 10
260.46031080882102
 20
569.62637075717805
 11
260.46031080882102
 21
575.22637075717751
  0
LINE
  8
_0-0_計極細
  6
CONTINUOUS
 62
    2
 10
273.46031080882113
 20
569.62637075717805
 11
273.46031080882113
 21
575.22637075717751
  0
LINE
  8
_0-0_計極細
  6
CONTINUOUS
 62
    2
 10
260.46031080882102
 20
552.62637075717805
 11
260.46031080882102
 21
558.22637075717842
  0
LINE
  8
_0-0_計極細
  6
CONTINUOUS
 62
    2
 10
273.46031080882113
 20
552.62637075717805
 11
273.46031080882113
 21
558.22637075717842
  0
LINE
  8
_0-0_計極細
  6
CONTINUOUS
 62
    2
 10
260.46031080882102
 20
535.62637075717987
 11
260.46031080882102
 21
541.22637075717932
  0
LINE
  8
_0-0_計極細
  6
CONTINUOUS
 62
    2
 10
273.46031080882113
 20
535.62637075717987
 11
273.46031080882113
 21
541.22637075717932
  0
LINE
  8
_0-0_計極細
  6
CONTINUOUS
 62
    2
 10
260.46031080882102
 20
518.62637075717987
 11
260.46031080882102
 21
524.22637075718035
  0
LINE
  8
_0-0_計極細
  6
CONTINUOUS
 62
    2
 10
273.46031080882113
 20
518.62637075717987
 11
273.46031080882113
 21
524.22637075718035
  0
LINE
  8
_0-0_計極細
  6
CONTINUOUS
 62
    2
 10
357.46031080882096
 20
586.62637075717817
 11
357.46031080882096
 21
592.22637075717842
  0
LINE
  8
_0-0_計極細
  6
CONTINUOUS
 62
    2
 10
370.46031080882096
 20
586.62637075717817
 11
370.46031080882096
 21
592.22637075717842
  0
LINE
  8
_0-0_計極細
  6
CONTINUOUS
 62
    2
 10
357.46031080882096
 20
603.62637075717805
 11
357.46031080882096
 21
609.22637075717842
  0
LINE
  8
_0-0_計極細
  6
CONTINUOUS
 62
    2
 10
370.46031080882096
 20
603.62637075717805
 11
370.46031080882096
 21
609.22637075717842
  0
LINE
  8
_0-0_計極細
  6
CONTINUOUS
 62
    2
 10
357.46031080882096
 20
626.22637075717478
 11
357.46031080882096
 21
620.62637075717453
  0
LINE
  8
_0-0_計極細
  6
CONTINUOUS
 62
    2
 10
370.46031080882096
 20
626.22637075717478
 11
370.46031080882096
 21
620.62637075717453
  0
LINE
  8
_0-0_計極細
  6
CONTINUOUS
 62
    2
 10
357.46031080882096
 20
660.22637075717569
 11
357.46031080882096
 21
654.62637075717623
  0
LINE
  8
_0-0_計極細
  6
CONTINUOUS
 62
    2
 10
370.46031080882096
 20
660.22637075717569
 11
370.46031080882096
 21
654.62637075717623
  0
LINE
  8
_0-0_計極細
  6
CONTINUOUS
 62
    2
 10
357.46031080882096
 20
677.2263707571766
 11
357.46031080882096
 21
671.62637075717623
  0
LINE
  8
_0-0_計極細
  6
CONTINUOUS
 62
    2
 10
370.46031080882096
 20
677.2263707571766
 11
370.46031080882096
 21
671.62637075717623
  0
LINE
  8
_0-0_計極細
  6
CONTINUOUS
 62
    2
 10
357.46031080882096
 20
694.2263707571766
 11
357.46031080882096
 21
688.62637075717714
  0
LINE
  8
_0-0_計極細
  6
CONTINUOUS
 62
    2
 10
370.46031080882096
 20
694.2263707571766
 11
370.46031080882096
 21
688.62637075717714
  0
LINE
  8
_0-0_計極細
  6
CONTINUOUS
 62
    2
 10
357.46031080882096
 20
779.02637075717598
 11
357.46031080882096
 21
773.62637075717635
  0
LINE
  8
_0-0_計極細
  6
CONTINUOUS
 62
    2
 10
370.46031080882096
 20
779.02637075717598
 11
370.46031080882096
 21
773.62637075717635
  0
LINE
  8
_0-0_計極細
  6
CONTINUOUS
 62
    2
 10
357.46031080882096
 20
501.82637075717702
 11
357.46031080882096
 21
507.22637075717665
  0
LINE
  8
_0-0_計極細
  6
CONTINUOUS
 62
    2
 10
370.46031080882096
 20
501.82637075717702
 11
370.46031080882096
 21
507.22637075717665
  0
LINE
  8
_0-0_計極細
  6
CENTER1
 62
    2
 10
363.96031080882096
 20
799.17709018163816
 11
363.96031080882096
 21
482.66854701616478
  0
LINE
  8
_0-0_計極細
  6
CONTINUOUS
 62
    2
 10
357.46031080882096
 20
711.2263707571766
 11
357.46031080882096
 21
705.62637075717635
  0
LINE
  8
_0-0_計極細
  6
CONTINUOUS
 62
    2
 10
370.46031080882096
 20
711.2263707571766
 11
370.46031080882096
 21
705.62637075717635
  0
LINE
  8
_0-0_計極細
  6
CONTINUOUS
 62
    2
 10
357.46031080882096
 20
728.22637075717478
 11
357.46031080882096
 21
722.62637075717532
  0
LINE
  8
_0-0_計極細
  6
CONTINUOUS
 62
    2
 10
370.46031080882096
 20
728.22637075717478
 11
370.46031080882096
 21
722.62637075717532
  0
LINE
  8
_0-0_計極細
  6
CONTINUOUS
 62
    2
 10
357.46031080882096
 20
745.22637075717489
 11
357.46031080882096
 21
739.62637075717441
  0
LINE
  8
_0-0_計極細
  6
CONTINUOUS
 62
    2
 10
370.46031080882096
 20
745.22637075717489
 11
370.46031080882096
 21
739.62637075717441
  0
LINE
  8
_0-0_計極細
  6
CONTINUOUS
 62
    2
 10
357.46031080882096
 20
762.22637075717307
 11
357.46031080882096
 21
756.62637075717362
  0
LINE
  8
_0-0_計極細
  6
CONTINUOUS
 62
    2
 10
370.46031080882096
 20
762.22637075717307
 11
370.46031080882096
 21
756.62637075717362
  0
LINE
  8
_0-0_計極細
  6
CONTINUOUS
 62
    2
 10
357.46031080882096
 20
569.62637075717805
 11
357.46031080882096
 21
575.22637075717751
  0
LINE
  8
_0-0_計極細
  6
CONTINUOUS
 62
    2
 10
370.46031080882096
 20
569.62637075717805
 11
370.46031080882096
 21
575.22637075717751
  0
LINE
  8
_0-0_計極細
  6
CONTINUOUS
 62
    2
 10
357.46031080882096
 20
552.62637075717805
 11
357.46031080882096
 21
558.22637075717842
  0
LINE
  8
_0-0_計極細
  6
CONTINUOUS
 62
    2
 10
370.46031080882096
 20
552.62637075717805
 11
370.46031080882096
 21
558.22637075717842
  0
LINE
  8
_0-0_計極細
  6
CONTINUOUS
 62
    2
 10
357.46031080882096
 20
535.62637075717987
 11
357.46031080882096
 21
541.22637075717932
  0
LINE
  8
_0-0_計極細
  6
CONTINUOUS
 62
    2
 10
370.46031080882096
 20
535.62637075717987
 11
370.46031080882096
 21
541.22637075717932
  0
LINE
  8
_0-0_計極細
  6
CONTINUOUS
 62
    2
 10
357.46031080882096
 20
518.62637075717987
 11
357.46031080882096
 21
524.22637075718035
  0
LINE
  8
_0-0_計極細
  6
CONTINUOUS
 62
    2
 10
370.46031080882096
 20
518.62637075717987
 11
370.46031080882096
 21
524.22637075718035
  0
LINE
  8
_0-0_計極細
  6
CONTINUOUS
 62
    2
 10
454.46031080882102
 20
586.62637075717817
 11
454.46031080882102
 21
592.22637075717842
  0
LINE
  8
_0-0_計極細
  6
CONTINUOUS
 62
    2
 10
467.46031080882096
 20
586.62637075717817
 11
467.46031080882096
 21
592.22637075717842
  0
LINE
  8
_0-0_計極細
  6
CONTINUOUS
 62
    2
 10
454.46031080882102
 20
603.62637075717805
 11
454.46031080882102
 21
609.22637075717842
  0
LINE
  8
_0-0_計極細
  6
CONTINUOUS
 62
    2
 10
467.46031080882096
 20
603.62637075717805
 11
467.46031080882096
 21
609.22637075717842
  0
LINE
  8
_0-0_計極細
  6
CONTINUOUS
 62
    2
 10
454.46031080882102
 20
626.22637075717478
 11
454.46031080882102
 21
620.62637075717453
  0
LINE
  8
_0-0_計極細
  6
CONTINUOUS
 62
    2
 10
467.46031080882096
 20
626.22637075717478
 11
467.46031080882096
 21
620.62637075717453
  0
LINE
  8
_0-0_計極細
  6
CONTINUOUS
 62
    2
 10
454.46031080882102
 20
643.22637075717478
 11
454.46031080882102
 21
637.62637075717441
  0
LINE
  8
_0-0_計極細
  6
CONTINUOUS
 62
    2
 10
467.46031080882096
 20
643.22637075717478
 11
467.46031080882096
 21
637.62637075717441
  0
LINE
  8
_0-0_計極細
  6
CONTINUOUS
 62
    2
 10
454.46031080882102
 20
660.22637075717569
 11
454.46031080882102
 21
654.62637075717623
  0
LINE
  8
_0-0_計極細
  6
CONTINUOUS
 62
    2
 10
467.46031080882096
 20
660.22637075717569
 11
467.46031080882096
 21
654.62637075717623
  0
LINE
  8
_0-0_計極細
  6
CONTINUOUS
 62
    2
 10
454.46031080882102
 20
677.2263707571766
 11
454.46031080882102
 21
671.62637075717623
  0
LINE
  8
_0-0_計極細
  6
CONTINUOUS
 62
    2
 10
467.46031080882096
 20
677.2263707571766
 11
467.46031080882096
 21
671.62637075717623
  0
LINE
  8
_0-0_計極細
  6
CONTINUOUS
 62
    2
 10
454.46031080882102
 20
694.2263707571766
 11
454.46031080882102
 21
688.62637075717714
  0
LINE
  8
_0-0_計極細
  6
CONTINUOUS
 62
    2
 10
467.46031080882096
 20
694.2263707571766
 11
467.46031080882096
 21
688.62637075717714
  0
LINE
  8
_0-0_計極細
  6
CONTINUOUS
 62
    2
 10
454.46031080882102
 20
779.02637075717598
 11
454.46031080882102
 21
773.62637075717635
  0
LINE
  8
_0-0_計極細
  6
CONTINUOUS
 62
    2
 10
467.46031080882096
 20
779.02637075717598
 11
467.46031080882096
 21
773.62637075717635
  0
LINE
  8
_0-0_計極細
  6
CONTINUOUS
 62
    2
 10
454.46031080882102
 20
501.82637075717702
 11
454.46031080882102
 21
507.22637075717665
  0
LINE
  8
_0-0_計極細
  6
CONTINUOUS
 62
    2
 10
467.46031080882096
 20
501.82637075717702
 11
467.46031080882096
 21
507.22637075717665
  0
LINE
  8
_0-0_計極細
  6
CENTER1
 62
    2
 10
460.96031080882096
 20
799.17709018163816
 11
460.96031080882096
 21
482.66854701616478
  0
LINE
  8
_0-0_計極細
  6
CONTINUOUS
 62
    2
 10
454.46031080882102
 20
711.2263707571766
 11
454.46031080882102
 21
705.62637075717635
  0
LINE
  8
_0-0_計極細
  6
CONTINUOUS
 62
    2
 10
467.46031080882096
 20
711.2263707571766
 11
467.46031080882096
 21
705.62637075717635
  0
LINE
  8
_0-0_計極細
  6
CONTINUOUS
 62
    2
 10
454.46031080882102
 20
728.22637075717478
 11
454.46031080882102
 21
722.62637075717532
  0
LINE
  8
_0-0_計極細
  6
CONTINUOUS
 62
    2
 10
467.46031080882096
 20
728.22637075717478
 11
467.46031080882096
 21
722.62637075717532
  0
LINE
  8
_0-0_計極細
  6
CONTINUOUS
 62
    2
 10
454.46031080882102
 20
745.22637075717489
 11
454.46031080882102
 21
739.62637075717441
  0
LINE
  8
_0-0_計極細
  6
CONTINUOUS
 62
    2
 10
467.46031080882096
 20
745.22637075717489
 11
467.46031080882096
 21
739.62637075717441
  0
LINE
  8
_0-0_計極細
  6
CONTINUOUS
 62
    2
 10
454.46031080882102
 20
762.22637075717307
 11
454.46031080882102
 21
756.62637075717362
  0
LINE
  8
_0-0_計極細
  6
CONTINUOUS
 62
    2
 10
467.46031080882096
 20
762.22637075717307
 11
467.46031080882096
 21
756.62637075717362
  0
LINE
  8
_0-0_計極細
  6
CONTINUOUS
 62
    2
 10
454.46031080882102
 20
569.62637075717805
 11
454.46031080882102
 21
575.22637075717751
  0
LINE
  8
_0-0_計極細
  6
CONTINUOUS
 62
    2
 10
467.46031080882096
 20
569.62637075717805
 11
467.46031080882096
 21
575.22637075717751
  0
LINE
  8
_0-0_計極細
  6
CONTINUOUS
 62
    2
 10
454.46031080882102
 20
552.62637075717805
 11
454.46031080882102
 21
558.22637075717842
  0
LINE
  8
_0-0_計極細
  6
CONTINUOUS
 62
    2
 10
467.46031080882096
 20
552.62637075717805
 11
467.46031080882096
 21
558.22637075717842
  0
LINE
  8
_0-0_計極細
  6
CONTINUOUS
 62
    2
 10
454.46031080882102
 20
535.62637075717987
 11
454.46031080882102
 21
541.22637075717932
  0
LINE
  8
_0-0_計極細
  6
CONTINUOUS
 62
    2
 10
467.46031080882096
 20
535.62637075717987
 11
467.46031080882096
 21
541.22637075717932
  0
LINE
  8
_0-0_計極細
  6
CONTINUOUS
 62
    2
 10
454.46031080882102
 20
518.62637075717987
 11
454.46031080882102
 21
524.22637075718035
  0
LINE
  8
_0-0_計極細
  6
CONTINUOUS
 62
    2
 10
467.46031080882096
 20
518.62637075717987
 11
467.46031080882096
 21
524.22637075718035
  0
LINE
  8
_0-0_計極細
  6
CONTINUOUS
 62
    2
 10
551.46031080882074
 20
586.62637075717817
 11
551.46031080882074
 21
592.22637075717842
  0
LINE
  8
_0-0_計極細
  6
CONTINUOUS
 62
    2
 10
564.46031080882096
 20
586.62637075717817
 11
564.46031080882096
 21
592.22637075717842
  0
LINE
  8
_0-0_計極細
  6
CONTINUOUS
 62
    2
 10
551.46031080882074
 20
603.62637075717805
 11
551.46031080882074
 21
609.22637075717842
  0
LINE
  8
_0-0_計極細
  6
CONTINUOUS
 62
    2
 10
564.46031080882096
 20
603.62637075717805
 11
564.46031080882096
 21
609.22637075717842
  0
LINE
  8
_0-0_計極細
  6
CONTINUOUS
 62
    2
 10
551.46031080882074
 20
626.22637075717478
 11
551.46031080882074
 21
620.62637075717453
  0
LINE
  8
_0-0_計極細
  6
CONTINUOUS
 62
    2
 10
564.46031080882096
 20
626.22637075717478
 11
564.46031080882096
 21
620.62637075717453
  0
LINE
  8
_0-0_計極細
  6
CONTINUOUS
 62
    2
 10
551.46031080882074
 20
643.22637075717478
 11
551.46031080882074
 21
637.62637075717441
  0
LINE
  8
_0-0_計極細
  6
CONTINUOUS
 62
    2
 10
564.46031080882096
 20
643.22637075717478
 11
564.46031080882096
 21
637.62637075717441
  0
LINE
  8
_0-0_計極細
  6
CONTINUOUS
 62
    2
 10
551.46031080882074
 20
660.22637075717569
 11
551.46031080882074
 21
654.62637075717623
  0
LINE
  8
_0-0_計極細
  6
CONTINUOUS
 62
    2
 10
564.46031080882096
 20
660.22637075717569
 11
564.46031080882096
 21
654.62637075717623
  0
LINE
  8
_0-0_計極細
  6
CONTINUOUS
 62
    2
 10
551.46031080882074
 20
677.2263707571766
 11
551.46031080882074
 21
671.62637075717623
  0
LINE
  8
_0-0_計極細
  6
CONTINUOUS
 62
    2
 10
564.46031080882096
 20
677.2263707571766
 11
564.46031080882096
 21
671.62637075717623
  0
LINE
  8
_0-0_計極細
  6
CONTINUOUS
 62
    2
 10
551.46031080882074
 20
694.2263707571766
 11
551.46031080882074
 21
688.62637075717714
  0
LINE
  8
_0-0_計極細
  6
CONTINUOUS
 62
    2
 10
564.46031080882096
 20
694.2263707571766
 11
564.46031080882096
 21
688.62637075717714
  0
LINE
  8
_0-0_計極細
  6
CONTINUOUS
 62
    2
 10
551.46031080882074
 20
779.02637075717598
 11
551.46031080882074
 21
773.62637075717635
  0
LINE
  8
_0-0_計極細
  6
CONTINUOUS
 62
    2
 10
564.46031080882096
 20
779.02637075717598
 11
564.46031080882096
 21
773.62637075717635
  0
LINE
  8
_0-0_計極細
  6
CONTINUOUS
 62
    2
 10
551.46031080882074
 20
501.82637075717702
 11
551.46031080882074
 21
507.22637075717665
  0
LINE
  8
_0-0_計極細
  6
CONTINUOUS
 62
    2
 10
564.46031080882096
 20
501.82637075717702
 11
564.46031080882096
 21
507.22637075717665
  0
LINE
  8
_0-0_計極細
  6
CENTER1
 62
    2
 10
557.96031080882108
 20
799.17709018163816
 11
557.96031080882108
 21
482.66854701616478
  0
LINE
  8
_0-0_計極細
  6
CONTINUOUS
 62
    2
 10
551.46031080882074
 20
711.2263707571766
 11
551.46031080882074
 21
705.62637075717635
  0
LINE
  8
_0-0_計極細
  6
CONTINUOUS
 62
    2
 10
564.46031080882096
 20
711.2263707571766
 11
564.46031080882096
 21
705.62637075717635
  0
LINE
  8
_0-0_計極細
  6
CONTINUOUS
 62
    2
 10
551.46031080882074
 20
728.22637075717478
 11
551.46031080882074
 21
722.62637075717532
  0
LINE
  8
_0-0_計極細
  6
CONTINUOUS
 62
    2
 10
564.46031080882096
 20
728.22637075717478
 11
564.46031080882096
 21
722.62637075717532
  0
LINE
  8
_0-0_計極細
  6
CONTINUOUS
 62
    2
 10
551.46031080882074
 20
745.22637075717489
 11
551.46031080882074
 21
739.62637075717441
  0
LINE
  8
_0-0_計極細
  6
CONTINUOUS
 62
    2
 10
564.46031080882096
 20
745.22637075717489
 11
564.46031080882096
 21
739.62637075717441
  0
LINE
  8
_0-0_計極細
  6
CONTINUOUS
 62
    2
 10
551.46031080882074
 20
762.22637075717307
 11
551.46031080882074
 21
756.62637075717362
  0
LINE
  8
_0-0_計極細
  6
CONTINUOUS
 62
    2
 10
564.46031080882096
 20
762.22637075717307
 11
564.46031080882096
 21
756.62637075717362
  0
LINE
  8
_0-0_計極細
  6
CONTINUOUS
 62
    2
 10
551.46031080882074
 20
569.62637075717805
 11
551.46031080882074
 21
575.22637075717751
  0
LINE
  8
_0-0_計極細
  6
CONTINUOUS
 62
    2
 10
564.46031080882096
 20
569.62637075717805
 11
564.46031080882096
 21
575.22637075717751
  0
LINE
  8
_0-0_計極細
  6
CONTINUOUS
 62
    2
 10
551.46031080882074
 20
552.62637075717805
 11
551.46031080882074
 21
558.22637075717842
  0
LINE
  8
_0-0_計極細
  6
CONTINUOUS
 62
    2
 10
564.46031080882096
 20
552.62637075717805
 11
564.46031080882096
 21
558.22637075717842
  0
LINE
  8
_0-0_計極細
  6
CONTINUOUS
 62
    2
 10
551.46031080882074
 20
535.62637075717987
 11
551.46031080882074
 21
541.22637075717932
  0
LINE
  8
_0-0_計極細
  6
CONTINUOUS
 62
    2
 10
564.46031080882096
 20
535.62637075717987
 11
564.46031080882096
 21
541.22637075717932
  0
LINE
  8
_0-0_計極細
  6
CONTINUOUS
 62
    2
 10
551.46031080882074
 20
518.62637075717987
 11
551.46031080882074
 21
524.22637075718035
  0
LINE
  8
_0-0_計極細
  6
CONTINUOUS
 62
    2
 10
564.46031080882096
 20
518.62637075717987
 11
564.46031080882096
 21
524.22637075718035
  0
LINE
  8
_0-5_寸法線
  6
CONTINUOUS
 62
    7
 10
472.95207538671514
 20
487.40137075717769
 11
477.95207539783962
 21
478.741116725756
  0
LINE
  8
_0-5_寸法線
  6
CONTINUOUS
 62
    7
 10
472.95207538671514
 20
487.40137075717769
 11
472.95207539956061
 21
477.40137075717769
  0
LINE
  8
_0-5_寸法線
  6
CONTINUOUS
 62
    7
 10
472.95207538671514
 20
487.40137075717769
 11
484.79344494418103
 21
443.20877816458517
  0
LINE
  8
_0-5_寸法線
  6
CONTINUOUS
 62
    7
 10
484.79344494418103
 20
443.20877816458517
 11
592.79344494418081
 21
443.20877816458517
  0
TEXT
  8
_0-5_寸法線
 62
    7
 10
484.79344494418103
 20
443.80877816458508
 40
15
 41
0.8000000000000001
 50
0
  1
ＳＵＳアングル受枠
  0
LINE
  8
_0-5_寸法線
  6
CONTINUOUS
 62
    7
 10
605.65801808330093
 20
530.23771793436765
 11
610.65801808543654
 21
521.57746389775627
  0
LINE
  8
_0-5_寸法線
  6
CONTINUOUS
 62
    7
 10
605.65801808330093
 20
530.23771793436765
 11
605.65801808576691
 21
520.23771793436765
  0
LINE
  8
_0-5_寸法線
  6
CONTINUOUS
 62
    7
 10
605.65801808330093
 20
530.23771793436765
 11
629.01550122639514
 21
443.06640419339254
  0
LINE
  8
_0-5_寸法線
  6
CONTINUOUS
 62
    7
 10
629.01550122639514
 20
443.06640419339254
 11
761.01550122639526
 21
443.06640419339254
  0
TEXT
  8
_0-5_寸法線
 62
    7
 10
629.01550122639514
 20
443.06640419339254
 40
15
 41
0.8000000000000001
 50
0
  1
セーフティグレーチング
  0
LINE
  8
_0-0_計極細
  6
CONTINUOUS
 62
    2
 10
813.46031080882085
 20
586.62637075717817
 11
813.46031080882085
 21
592.22637075717842
  0
LINE
  8
_0-0_計極細
  6
CONTINUOUS
 62
    2
 10
826.46031080882096
 20
586.62637075717817
 11
826.46031080882096
 21
592.22637075717842
  0
LINE
  8
_0-0_計極細
  6
CONTINUOUS
 62
    2
 10
813.46031080882085
 20
603.62637075717805
 11
813.46031080882085
 21
609.22637075717842
  0
LINE
  8
_0-0_計極細
  6
CONTINUOUS
 62
    2
 10
826.46031080882096
 20
603.62637075717805
 11
826.46031080882096
 21
609.22637075717842
  0
LINE
  8
_0-0_計極細
  6
CONTINUOUS
 62
    2
 10
813.46031080882085
 20
626.22637075717478
 11
813.46031080882085
 21
620.62637075717453
  0
LINE
  8
_0-0_計極細
  6
CONTINUOUS
 62
    2
 10
826.46031080882096
 20
626.22637075717478
 11
826.46031080882096
 21
620.62637075717453
  0
LINE
  8
_0-0_計極細
  6
CONTINUOUS
 62
    2
 10
813.46031080882085
 20
643.22637075717478
 11
813.46031080882085
 21
637.62637075717441
  0
LINE
  8
_0-0_計極細
  6
CONTINUOUS
 62
    2
 10
826.46031080882096
 20
643.22637075717478
 11
826.46031080882096
 21
637.62637075717441
  0
LINE
  8
_0-0_計極細
  6
CONTINUOUS
 62
    2
 10
813.46031080882085
 20
660.22637075717569
 11
813.46031080882085
 21
654.62637075717623
  0
LINE
  8
_0-0_計極細
  6
CONTINUOUS
 62
    2
 10
826.46031080882096
 20
660.22637075717569
 11
826.46031080882096
 21
654.62637075717623
  0
LINE
  8
_0-0_計極細
  6
CONTINUOUS
 62
    2
 10
813.46031080882085
 20
677.2263707571766
 11
813.46031080882085
 21
671.62637075717623
  0
LINE
  8
_0-0_計極細
  6
CONTINUOUS
 62
    2
 10
826.46031080882096
 20
677.2263707571766
 11
826.46031080882096
 21
671.62637075717623
  0
LINE
  8
_0-0_計極細
  6
CONTINUOUS
 62
    2
 10
813.46031080882085
 20
694.2263707571766
 11
813.46031080882085
 21
688.62637075717714
  0
LINE
  8
_0-0_計極細
  6
CONTINUOUS
 62
    2
 10
826.46031080882096
 20
694.2263707571766
 11
826.46031080882096
 21
688.62637075717714
  0
LINE
  8
_0-0_計極細
  6
CONTINUOUS
 62
    2
 10
813.46031080882085
 20
779.02637075717598
 11
813.46031080882085
 21
773.62637075717635
  0
LINE
  8
_0-0_計極細
  6
CONTINUOUS
 62
    2
 10
826.46031080882096
 20
779.02637075717598
 11
826.46031080882096
 21
773.62637075717635
  0
LINE
  8
_0-0_計極細
  6
CONTINUOUS
 62
    2
 10
813.46031080882085
 20
501.82637075717702
 11
813.46031080882085
 21
507.22637075717665
  0
LINE
  8
_0-0_計極細
  6
CONTINUOUS
 62
    2
 10
826.46031080882096
 20
501.82637075717702
 11
826.46031080882096
 21
507.22637075717665
  0
LINE
  8
_0-0_計極細
  6
CENTER1
 62
    2
 10
819.96031080882085
 20
799.17709018163816
 11
819.96031080882085
 21
482.66854701616478
  0
LINE
  8
_0-0_計極細
  6
CONTINUOUS
 62
    2
 10
813.46031080882085
 20
711.2263707571766
 11
813.46031080882085
 21
705.62637075717635
  0
LINE
  8
_0-0_計極細
  6
CONTINUOUS
 62
    2
 10
826.46031080882096
 20
711.2263707571766
 11
826.46031080882096
 21
705.62637075717635
  0
LINE
  8
_0-0_計極細
  6
CONTINUOUS
 62
    2
 10
813.46031080882085
 20
728.22637075717478
 11
813.46031080882085
 21
722.62637075717532
  0
LINE
  8
_0-0_計極細
  6
CONTINUOUS
 62
    2
 10
826.46031080882096
 20
728.22637075717478
 11
826.46031080882096
 21
722.62637075717532
  0
LINE
  8
_0-0_計極細
  6
CONTINUOUS
 62
    2
 10
813.46031080882085
 20
745.22637075717489
 11
813.46031080882085
 21
739.62637075717441
  0
LINE
  8
_0-0_計極細
  6
CONTINUOUS
 62
    2
 10
826.46031080882096
 20
745.22637075717489
 11
826.46031080882096
 21
739.62637075717441
  0
LINE
  8
_0-0_計極細
  6
CONTINUOUS
 62
    2
 10
813.46031080882085
 20
762.22637075717307
 11
813.46031080882085
 21
756.62637075717362
  0
LINE
  8
_0-0_計極細
  6
CONTINUOUS
 62
    2
 10
826.46031080882096
 20
762.22637075717307
 11
826.46031080882096
 21
756.62637075717362
  0
LINE
  8
_0-0_計極細
  6
CONTINUOUS
 62
    2
 10
813.46031080882085
 20
569.62637075717805
 11
813.46031080882085
 21
575.22637075717751
  0
LINE
  8
_0-0_計極細
  6
CONTINUOUS
 62
    2
 10
826.46031080882096
 20
569.62637075717805
 11
826.46031080882096
 21
575.22637075717751
  0
LINE
  8
_0-0_計極細
  6
CONTINUOUS
 62
    2
 10
813.46031080882085
 20
552.62637075717805
 11
813.46031080882085
 21
558.22637075717842
  0
LINE
  8
_0-0_計極細
  6
CONTINUOUS
 62
    2
 10
826.46031080882096
 20
552.62637075717805
 11
826.46031080882096
 21
558.22637075717842
  0
LINE
  8
_0-0_計極細
  6
CONTINUOUS
 62
    2
 10
813.46031080882085
 20
535.62637075717987
 11
813.46031080882085
 21
541.22637075717932
  0
LINE
  8
_0-0_計極細
  6
CONTINUOUS
 62
    2
 10
826.46031080882096
 20
535.62637075717987
 11
826.46031080882096
 21
541.22637075717932
  0
LINE
  8
_0-0_計極細
  6
CONTINUOUS
 62
    2
 10
813.46031080882085
 20
518.62637075717987
 11
813.46031080882085
 21
524.22637075718035
  0
LINE
  8
_0-0_計極細
  6
CONTINUOUS
 62
    2
 10
826.46031080882096
 20
518.62637075717987
 11
826.46031080882096
 21
524.22637075718035
  0
LINE
  8
_0-0_計極細
  6
CONTINUOUS
 62
    2
 10
716.46031080882085
 20
586.62637075717817
 11
716.46031080882085
 21
592.22637075717842
  0
LINE
  8
_0-0_計極細
  6
CONTINUOUS
 62
    2
 10
729.46031080882096
 20
586.62637075717817
 11
729.46031080882096
 21
592.22637075717842
  0
LINE
  8
_0-0_計極細
  6
CONTINUOUS
 62
    2
 10
716.46031080882085
 20
603.62637075717805
 11
716.46031080882085
 21
609.22637075717842
  0
LINE
  8
_0-0_計極細
  6
CONTINUOUS
 62
    2
 10
729.46031080882096
 20
603.62637075717805
 11
729.46031080882096
 21
609.22637075717842
  0
LINE
  8
_0-0_計極細
  6
CONTINUOUS
 62
    2
 10
716.46031080882085
 20
501.82637075717702
 11
716.46031080882085
 21
507.22637075717665
  0
LINE
  8
_0-0_計極細
  6
CONTINUOUS
 62
    2
 10
729.46031080882096
 20
501.82637075717702
 11
729.46031080882096
 21
507.22637075717665
  0
LINE
  8
_0-0_計極細
  6
CENTER1
 62
    2
 10
722.96031080882085
 20
799.17709018163816
 11
722.96031080882085
 21
482.66854701616478
  0
LINE
  8
_0-0_計極細
  6
CONTINUOUS
 62
    2
 10
716.46031080882085
 20
569.62637075717805
 11
716.46031080882085
 21
575.22637075717751
  0
LINE
  8
_0-0_計極細
  6
CONTINUOUS
 62
    2
 10
729.46031080882096
 20
569.62637075717805
 11
729.46031080882096
 21
575.22637075717751
  0
LINE
  8
_0-0_計極細
  6
CONTINUOUS
 62
    2
 10
716.46031080882085
 20
552.62637075717805
 11
716.46031080882085
 21
558.22637075717842
  0
LINE
  8
_0-0_計極細
  6
CONTINUOUS
 62
    2
 10
729.46031080882096
 20
552.62637075717805
 11
729.46031080882096
 21
558.22637075717842
  0
LINE
  8
_0-0_計極細
  6
CONTINUOUS
 62
    2
 10
716.46031080882085
 20
535.62637075717987
 11
716.46031080882085
 21
541.22637075717932
  0
LINE
  8
_0-0_計極細
  6
CONTINUOUS
 62
    2
 10
729.46031080882096
 20
535.62637075717987
 11
729.46031080882096
 21
541.22637075717932
  0
LINE
  8
_0-0_計極細
  6
CONTINUOUS
 62
    2
 10
716.46031080882085
 20
518.62637075717987
 11
716.46031080882085
 21
524.22637075718035
  0
LINE
  8
_0-0_計極細
  6
CONTINUOUS
 62
    2
 10
729.46031080882096
 20
518.62637075717987
 11
729.46031080882096
 21
524.22637075718035
  0
LINE
  8
_0-5_寸法線
  6
CONTINUOUS
 62
    7
 10
251.96031080882108
 20
805.4263707571755
 11
251.96031080882236
 21
885.4263707571755
  0
LINE
  8
_0-5_寸法線
  6
CONTINUOUS
 62
    7
 10
251.96031080882221
 20
880.4263707571755
 11
259.20475450599031
 21
882.36751359544439
  0
LINE
  8
_0-5_寸法線
  6
CONTINUOUS
 62
    7
 10
251.96031080882221
 20
880.4263707571755
 11
259.20475450599031
 21
878.48522791890673
  0
LINE
  8
_0-5_寸法線
  6
CONTINUOUS
 62
    7
 10
834.96031080882108
 20
805.4263707571755
 11
834.96031080882233
 21
885.4263707571755
  0
LINE
  8
_0-5_寸法線
  6
CONTINUOUS
 62
    7
 10
834.96031080882233
 20
880.4263707571755
 11
827.71586711165423
 21
878.48522791890673
  0
LINE
  8
_0-5_寸法線
  6
CONTINUOUS
 62
    7
 10
834.96031080882233
 20
880.4263707571755
 11
827.71586711165423
 21
882.36751359544439
  0
LINE
  8
_0-5_寸法線
  6
CONTINUOUS
 62
    7
 10
251.96031080882221
 20
880.4263707571755
 11
834.96031080882233
 21
880.4263707571755
  0
TEXT
  8
_0-5_寸法線
 62
    7
 10
535.96031080882233
 20
880.4263707571755
 40
15
 41
1
 50
0
  1
Ｌ
  0
LINE
  8
_0-5_寸法線
  6
CONTINUOUS
 62
    7
 10
251.96031080882094
 20
805.42637075717653
 11
251.96031080882085
 21
850.4263707571755
  0
LINE
  8
_0-5_寸法線
  6
CONTINUOUS
 62
    7
 10
251.96031080882085
 20
845.4263707571755
 11
261.61956907171151
 21
848.0145612082008
  0
LINE
  8
_0-5_寸法線
  6
CONTINUOUS
 62
    7
 10
251.96031080882085
 20
845.4263707571755
 11
261.61956907171151
 21
842.83818030615043
  0
LINE
  8
_0-5_寸法線
  6
CONTINUOUS
 62
    7
 10
266.96031080882096
 20
805.42637075717653
 11
266.96031080882096
 21
850.4263707571755
  0
LINE
  8
_0-5_寸法線
  6
CONTINUOUS
 62
    7
 10
266.96031080882096
 20
845.4263707571755
 11
257.30105254593025
 21
842.83818030615043
  0
LINE
  8
_0-5_寸法線
  6
CONTINUOUS
 62
    7
 10
266.96031080882096
 20
845.4263707571755
 11
257.30105254593025
 21
848.0145612082008
  0
LINE
  8
_0-5_寸法線
  6
CONTINUOUS
 62
    7
 10
251.96031080882085
 20
845.4263707571755
 11
266.96031080882096
 21
845.4263707571755
  0
TEXT
  8
_0-5_寸法線
 62
    7
 10
251.96031080882094
 20
845.4263707571755
 40
15
 41
1
 50
0
  1
Ａ
  0
LINE
  8
_0-5_寸法線
  6
CONTINUOUS
 62
    7
 10
363.96031080881846
 20
805.42637075717653
 11
363.96031080881846
 21
850.4263707571755
  0
LINE
  8
_0-5_寸法線
  6
CONTINUOUS
 62
    7
 10
363.96031080881846
 20
845.4263707571755
 11
373.61956907170912
 21
848.0145612082008
  0
LINE
  8
_0-5_寸法線
  6
CONTINUOUS
 62
    7
 10
363.96031080881846
 20
845.4263707571755
 11
373.61956907170912
 21
842.83818030615043
  0
LINE
  8
_0-5_寸法線
  6
CONTINUOUS
 62
    7
 10
460.96031080881852
 20
805.42637075717653
 11
460.96031080881852
 21
850.4263707571755
  0
LINE
  8
_0-5_寸法線
  6
CONTINUOUS
 62
    7
 10
460.96031080881852
 20
845.4263707571755
 11
451.30105254592775
 21
842.83818030615043
  0
LINE
  8
_0-5_寸法線
  6
CONTINUOUS
 62
    7
 10
460.96031080881852
 20
845.4263707571755
 11
451.30105254592786
 21
848.0145612082008
  0
LINE
  8
_0-5_寸法線
  6
CONTINUOUS
 62
    7
 10
363.96031080881846
 20
845.4263707571755
 11
460.96031080881852
 21
845.4263707571755
  0
TEXT
  8
_0-5_寸法線
 62
    7
 10
404.96031080881846
 20
845.4263707571755
 40
15
 41
1
 50
0
  1
97
  0
LINE
  8
_0-5_寸法線
  6
CONTINUOUS
 62
    7
 10
460.96031080881852
 20
845.4263707571755
 11
470.61956907170924
 21
848.0145612082008
  0
LINE
  8
_0-5_寸法線
  6
CONTINUOUS
 62
    7
 10
460.96031080881852
 20
845.4263707571755
 11
470.61956907170918
 21
842.83818030615021
  0
LINE
  8
_0-5_寸法線
  6
CONTINUOUS
 62
    7
 10
557.96031080881846
 20
805.42637075717653
 11
557.96031080881846
 21
850.4263707571755
  0
LINE
  8
_0-5_寸法線
  6
CONTINUOUS
 62
    7
 10
557.96031080881846
 20
845.4263707571755
 11
548.30105254592786
 21
842.83818030615043
  0
LINE
  8
_0-5_寸法線
  6
CONTINUOUS
 62
    7
 10
557.96031080881846
 20
845.4263707571755
 11
548.30105254592786
 21
848.0145612082008
  0
LINE
  8
_0-5_寸法線
  6
CONTINUOUS
 62
    7
 10
460.96031080881852
 20
845.4263707571755
 11
557.96031080881846
 21
845.4263707571755
  0
TEXT
  8
_0-5_寸法線
 62
    7
 10
501.96031080881852
 20
845.4263707571755
 40
15
 41
1
 50
0
  1
97
  0
LINE
  8
_0-5_寸法線
  6
CONTINUOUS
 62
    7
 10
819.96031080882085
 20
805.42637075717653
 11
819.96031080882085
 21
850.4263707571755
  0
LINE
  8
_0-5_寸法線
  6
CONTINUOUS
 62
    7
 10
819.96031080882085
 20
845.4263707571755
 11
829.61956907171157
 21
848.0145612082008
  0
LINE
  8
_0-5_寸法線
  6
CONTINUOUS
 62
    7
 10
819.96031080882085
 20
845.4263707571755
 11
829.61956907171157
 21
842.83818030615043
  0
LINE
  8
_0-5_寸法線
  6
CONTINUOUS
 62
    7
 10
834.96031080882085
 20
805.42637075717653
 11
834.96031080882085
 21
850.4263707571755
  0
LINE
  8
_0-5_寸法線
  6
CONTINUOUS
 62
    7
 10
834.96031080882085
 20
845.4263707571755
 11
825.30105254593025
 21
842.83818030615043
  0
LINE
  8
_0-5_寸法線
  6
CONTINUOUS
 62
    7
 10
834.96031080882085
 20
845.4263707571755
 11
825.30105254593025
 21
848.0145612082008
  0
LINE
  8
_0-5_寸法線
  6
CONTINUOUS
 62
    7
 10
819.96031080882085
 20
845.4263707571755
 11
834.96031080882085
 21
845.4263707571755
  0
TEXT
  8
_0-5_寸法線
 62
    7
 10
819.96031080882074
 20
845.4263707571755
 40
15
 41
1
 50
0
  1
Ａ
  0
LINE
  8
_0-5_寸法線
  6
CONTINUOUS
 62
    7
 10
557.96031080882108
 20
805.42637075717653
 11
557.96031080882108
 21
850.42637075717494
  0
LINE
  8
_0-5_寸法線
  6
CONTINUOUS
 62
    7
 10
557.96031080882108
 20
845.42637075717494
 11
567.61956907171179
 21
848.01456120820012
  0
LINE
  8
_0-5_寸法線
  6
CONTINUOUS
 62
    7
 10
557.96031080882108
 20
845.42637075717494
 11
567.61956907171179
 21
842.83818030614964
  0
LINE
  8
_0-5_寸法線
  6
CONTINUOUS
 62
    7
 10
625.96031080882085
 20
805.42637075717653
 11
625.96031080882096
 21
850.42637075717494
  0
LINE
  8
_0-5_寸法線
  6
CONTINUOUS
 62
    7
 10
625.96031080882096
 20
845.42637075717494
 11
616.30105254593025
 21
842.83818030614964
  0
LINE
  8
_0-5_寸法線
  6
CONTINUOUS
 62
    7
 10
625.96031080882096
 20
845.42637075717494
 11
616.30105254593025
 21
848.01456120820012
  0
LINE
  8
_0-5_寸法線
  6
CONTINUOUS
 62
    7
 10
557.96031080882108
 20
845.42637075717494
 11
625.96031080882096
 21
845.42637075717494
  0
TEXT
  8
_0-5_寸法線
 62
    7
 10
584.46031080882096
 20
845.42637075717494
 40
15
 41
1
 50
0
  1
Ｂ
  0
LINE
  8
_0-7_枠細線
  6
CONTINUOUS
 62
    5
 10
399.2526014874278
 20
848.04700560157755
 11
391.7526014874278
 21
863.04700560157755
  0
LINE
  8
_0-7_枠細線
  6
CONTINUOUS
 62
    5
 10
384.2526014874278
 20
848.04700560157755
 11
399.2526014874278
 21
848.04700560157755
  0
LINE
  8
_0-7_枠細線
  6
CONTINUOUS
 62
    5
 10
391.7526014874278
 20
863.04700560157755
 11
384.2526014874278
 21
848.04700560157755
  0
TEXT
  8
_0-7_枠細線
 62
    5
 10
386.61775275557596
 20
847.74000335619689
 40
12.5
 41
0.8
 50
0
  1
１
  0
TEXT
  8
_0-5_寸法線
 62
    7
 10
484.79344494418103
 20
428.20877816458517
 40
15
 41
0.8000000000000001
 50
0
  1
ＧＳＬ－２５
  0
TEXT
  8
_0-5_寸法線
 62
    7
 10
629.10751156960418
 20
428.06640419339254
 40
15
 41
0.8000000000000001
 50
0
  1
ＧＲＳ－２５Ｗ３００
  0
LINE
  8
_0-1_計細線
  6
CONTINUOUS
 62
    3
 10
251.96031080882085
 20
654.62637075717623
 11
834.96031080882085
 21
654.62637075717623
  0
LINE
  8
_0-1_計細線
  6
CONTINUOUS
 62
    3
 10
834.96031080882085
 20
654.62637075717623
 11
834.96031080882085
 21
643.22637075717478
  0
LINE
  8
_0-0_計極細
  6
CONTINUOUS
 62
    2
 10
251.96031080882085
 20
646.42637075717562
 11
834.96031080882085
 21
646.42637075717562
  0
LINE
  8
_0-0_計極細
  6
CONTINUOUS
 62
    2
 10
251.96031080882085
 20
651.42637075717562
 11
834.96031080882085
 21
651.42637075717562
  0
LINE
  8
_0-1_計細線
  6
CONTINUOUS
 62
    3
 10
251.96031080882085
 20
626.22637075717478
 11
834.96031080882085
 21
626.22637075717478
  0
LINE
  8
_0-1_計細線
  6
CONTINUOUS
 62
    3
 10
834.96031080882085
 20
637.62637075717441
 11
834.96031080882085
 21
626.22637075717478
  0
LINE
  8
_0-0_計極細
  6
CONTINUOUS
 62
    2
 10
251.96031080882085
 20
629.4263707571746
 11
834.96031080882085
 21
629.4263707571746
  0
LINE
  8
_0-0_計極細
  6
CONTINUOUS
 62
    2
 10
251.96031080882085
 20
634.4263707571746
 11
834.96031080882085
 21
634.4263707571746
  0
LINE
  8
_0-1_計細線
  6
CONTINUOUS
 62
    3
 10
251.96031080882085
 20
654.62637075717623
 11
251.96031080882085
 21
643.22637075717478
  0
LINE
  8
_0-1_計細線
  6
CONTINUOUS
 62
    3
 10
251.96031080882085
 20
643.22637075717478
 11
834.96031080882085
 21
643.22637075717478
  0
LINE
  8
_0-1_計細線
  6
CONTINUOUS
 62
    3
 10
251.96031080882085
 20
637.62637075717441
 11
834.96031080882085
 21
637.62637075717441
  0
LINE
  8
_0-1_計細線
  6
CONTINUOUS
 62
    3
 10
251.96031080882085
 20
637.62637075717441
 11
251.96031080882085
 21
626.22637075717478
  0
LINE
  8
_0-1_計細線
  6
CONTINUOUS
 62
    3
 10
318.96031080882051
 20
638.07637075717741
 11
377.96031080882051
 21
638.07637075717741
  0
LINE
  8
_0-1_計細線
  6
CONTINUOUS
 62
    3
 10
377.96031080882051
 20
642.77637075717723
 11
318.96031080882051
 21
642.77637075717723
  0
LINE
  8
_0-1_計細線
  6
CONTINUOUS
 62
    3
 10
318.96031080882051
 20
642.77637075717723
 11
318.96031080882051
 21
638.07637075717741
  0
LINE
  8
_0-1_計細線
  6
CONTINUOUS
 62
    3
 10
367.96031080882051
 20
642.77637075717723
 11
367.96031080882051
 21
638.07637075717741
  0
LINE
  8
_0-1_計細線
  6
CONTINUOUS
 62
    3
 10
375.96031080882051
 20
642.77637075717723
 11
375.96031080882051
 21
638.07637075717741
  0
LINE
  8
_0-1_計細線
  6
CONTINUOUS
 62
    3
 10
377.96031080882051
 20
642.77637075717723
 11
377.96031080882051
 21
638.07637075717741
  0
LINE
  8
_0-1_計細線
  6
CONTINUOUS
 62
    3
 10
373.96031080882051
 20
642.77637075717723
 11
373.96031080882051
 21
638.07637075717741
  0
LINE
  8
_0-1_計細線
  6
CONTINUOUS
 62
    3
 10
371.96031080882051
 20
642.77637075717723
 11
371.96031080882051
 21
638.07637075717741
  0
LINE
  8
_0-1_計細線
  6
CONTINUOUS
 62
    3
 10
369.96031080882057
 20
642.77637075717723
 11
369.96031080882057
 21
638.07637075717741
  0
LINE
  8
_0-0_計極細
  6
CONTINUOUS
 62
    2
 10
357.46031080882096
 20
643.22637075717478
 11
357.46031080882096
 21
642.77637075717723
  0
LINE
  8
_0-0_計極細
  6
CONTINUOUS
 62
    2
 10
357.46031080882096
 20
638.07637075717741
 11
357.46031080882096
 21
637.62637075717441
  0
LINE
  8
_0-0_計極細
  6
CONTINUOUS
 62
    2
 10
370.46031080882096
 20
643.22637075717478
 11
370.46031080882096
 21
642.77637075717723
  0
LINE
  8
_0-0_計極細
  6
CONTINUOUS
 62
    2
 10
370.46031080882096
 20
638.07637075717741
 11
370.46031080882096
 21
637.62637075717441
  0
TEXT
  8
_0-5_寸法線
 62
    7
 10
388.61703115465707
 20
426.29800198642414
 40
15
 41
0.8000000000000001
 50
0
  1
(標準付属)
  0
LINE
  8
_0-5_寸法線
  6
CONTINUOUS
 62
    7
 10
330.19780127288448
 20
639.14510969143919
 11
335.19780127288442
 21
630.48485565359476
  0
LINE
  8
_0-5_寸法線
  6
CONTINUOUS
 62
    7
 10
330.19780127288448
 20
639.14510969143919
 11
330.19780127288442
 21
629.14510969143919
  0
LINE
  8
_0-5_寸法線
  6
CONTINUOUS
 62
    7
 10
330.19780127288448
 20
639.14510969143919
 11
382.69878307342077
 21
443.20877816458517
  0
LINE
  8
_0-5_寸法線
  6
CONTINUOUS
 62
    7
 10
382.69878307342077
 20
443.20877816458517
 11
442.69878307342077
 21
443.20877816458517
  0
TEXT
  8
_0-5_寸法線
 62
    7
 10
382.69878307342077
 20
443.20877816458517
 40
15
 41
0.8000000000000001
 50
0
  1
取　外　具
  0
TEXT
  8
_0-7_枠細線
 62
    5
 10
385.2211505804861
 20
461.39280199036415
 40
12.5
 41
0.8
 50
0
  1
２
  0
LINE
  8
_0-7_枠細線
  6
CONTINUOUS
 62
    5
 10
397.85599931233804
 20
461.69980423574464
 11
390.35599931233804
 21
476.69980423574464
  0
LINE
  8
_0-7_枠細線
  6
CONTINUOUS
 62
    5
 10
382.85599931233799
 20
461.69980423574464
 11
397.85599931233804
 21
461.69980423574464
  0
LINE
  8
_0-7_枠細線
  6
CONTINUOUS
 62
    5
 10
390.35599931233804
 20
476.69980423574464
 11
382.85599931233799
 21
461.69980423574464
  0
LINE
  8
_0-7_枠細線
  6
CONTINUOUS
 62
    5
 10
416.56998322703436
 20
461.69980423574464
 11
409.06998322703436
 21
476.69980423574464
  0
LINE
  8
_0-7_枠細線
  6
CONTINUOUS
 62
    5
 10
401.56998322703436
 20
461.69980423574464
 11
416.56998322703436
 21
461.69980423574464
  0
LINE
  8
_0-7_枠細線
  6
CONTINUOUS
 62
    5
 10
409.06998322703436
 20
476.69980423574464
 11
401.56998322703436
 21
461.69980423574464
  0
TEXT
  8
_0-7_枠細線
 62
    5
 10
403.93513449518252
 20
461.15212034556328
 40
12.5
 41
0.8
 50
0
  1
３
  0
ARC
  8
_0-0_計極細
  6
CONTINUOUS
 62
    2
 10
864.90653196550613
 20
787.9263707571763
 40
11.295514677412786
 50
138.39585046827571
 51
221.60414953172395
  0
ARC
  8
_0-0_計極細
  6
CONTINUOUS
 62
    2
 10
848.01408965213568
 20
772.92637075717448
 40
11.295514677412786
 50
318.39585046827381
 51
41.60414953172549
  0
TEXT
  8
_0-7_枠細線
 62
    5
 10
938.85037037037023
 20
840.00000000000011
 40
12.5
 41
1
 50
0
  1
アンカー材質･厚み変更
  0
LINE
  8
_0-5_寸法線
  6
CONTINUOUS
 62
    7
 10
906.46031080881914
 20
795.42637075717653
 11
903.87212035779385
 21
805.08562902006713
  0
LINE
  8
_0-5_寸法線
  6
CONTINUOUS
 62
    7
 10
906.46031080881914
 20
795.42637075717653
 11
909.04850125984422
 21
805.08562902006713
  0
LINE
  8
_0-5_寸法線
  6
CONTINUOUS
 62
    7
 10
866.4603108088204
 20
792.42637075717653
 11
911.46031080881914
 21
792.42637075717653
  0
CIRCLE
  8
_0-5_寸法線
  6
CONTINUOUS
 62
    1
 10
906.46031080881914
 20
792.42637075717653
 40
1.5000000000000002
  0
LINE
  8
_0-5_寸法線
  6
CONTINUOUS
 62
    7
 10
906.46031080881914
 20
820.42637075717653
 11
906.46031080881914
 21
792.42637075717653
  0
TEXT
  8
_0-5_寸法線
 62
    7
 10
906.46031080881914
 20
809.36568752660708
 40
15
 41
1
 50
90
  1
3
  0
LINE
  8
_0-5_寸法線
  6
CONTINUOUS
 62
    7
 10
866.4603108088204
 20
790.42637075717732
 11
911.46031080881914
 21
790.42637075717732
  0
LINE
  8
_0-5_寸法線
  6
CONTINUOUS
 62
    7
 10
906.46031080881914
 20
792.42637075717653
 11
906.46031080881914
 21
790.42637075717732
  0
TEXT
  8
_0-5_寸法線
 62
    7
 10
926.70884651331164
 20
785.50142393681767
 40
15
 41
1
 50
90
  1
2
  0
LINE
  8
_0-5_寸法線
  6
CONTINUOUS
 62
    7
 10
906.46031080881914
 20
790.42637075717732
 11
909.04850125984422
 21
780.76711249428672
  0
LINE
  8
_0-5_寸法線
  6
CONTINUOUS
 62
    7
 10
906.46031080881914
 20
790.42637075717732
 11
903.87212035779385
 21
780.76711249428672
  0
LINE
  8
_0-5_寸法線
  6
CONTINUOUS
 62
    7
 10
866.46031080882096
 20
490.42637075717732
 11
911.46031080881994
 21
490.42637075717732
  0
LINE
  8
_0-5_寸法線
  6
CONTINUOUS
 62
    7
 10
906.46031080881994
 20
490.42637075717732
 11
903.87212035779487
 21
500.08562902006804
  0
LINE
  8
_0-5_寸法線
  6
CONTINUOUS
 62
    7
 10
906.46031080881994
 20
490.42637075717732
 11
909.04850125984524
 21
500.0856290200681
  0
LINE
  8
_0-5_寸法線
  6
CONTINUOUS
 62
    7
 10
906.46031080881914
 20
790.42637075717732
 11
906.46031080881994
 21
490.42637075717732
  0
TEXT
  8
_0-5_寸法線
 62
    7
 10
906.46031080881994
 20
629.17637075717732
 40
15
 41
1
 50
90
  1
300
  0
LINE
  8
_0-5_寸法線
  6
CONTINUOUS
 62
    7
 10
866.46031080882096
 20
488.42637075717732
 11
911.46031080881994
 21
488.42637075717732
  0
CIRCLE
  8
_0-5_寸法線
  6
CONTINUOUS
 62
    1
 10
906.46031080881994
 20
488.42637075717732
 40
1.5000000000000002
  0
LINE
  8
_0-5_寸法線
  6
CONTINUOUS
 62
    7
 10
906.46031080881994
 20
490.42637075717732
 11
906.46031080881994
 21
488.42637075717732
  0
TEXT
  8
_0-5_寸法線
 62
    7
 10
928.11321031693581
 20
488.46684575975075
 40
15
 41
1
 50
90
  1
2
  0
LINE
  8
_0-5_寸法線
  6
CONTINUOUS
 62
    7
 10
906.46031080881994
 20
485.42637075717278
 11
909.04850125984524
 21
475.76711249428206
  0
LINE
  8
_0-5_寸法線
  6
CONTINUOUS
 62
    7
 10
906.46031080881994
 20
485.42637075717278
 11
903.87212035779476
 21
475.76711249428217
  0
LINE
  8
_0-5_寸法線
  6
CONTINUOUS
 62
    7
 10
906.46031080881994
 20
488.42637075717732
 11
906.46031080881994
 21
460.42637075717278
  0
TEXT
  8
_0-5_寸法線
 62
    7
 10
906.46031080881994
 20
464.00144595645969
 40
15
 41
1
 50
90
  1
3
  0
LINE
  8
_0-d_寸法3
  6
CONTINUOUS
 62
    7
 10
234.74215731460689
 20
360.37948819900976
 11
225.08289905171623
 21
357.79129774798457
  0
LINE
  8
_0-d_寸法3
  6
CONTINUOUS
 62
    7
 10
234.74215731460689
 20
360.37948819900976
 11
225.08289905171623
 21
362.96767865003505
  0
LINE
  8
_0-d_寸法3
  6
CONTINUOUS
 62
    7
 10
239.74215731460689
 20
289.54615653402107
 11
239.74215731460689
 21
365.37948819900976
  0
CIRCLE
  8
_0-d_寸法3
  6
CONTINUOUS
 62
    1
 10
239.74215731460689
 20
360.37948819900976
 40
1.5000000000000002
  0
LINE
  8
_0-d_寸法3
  6
CONTINUOUS
 62
    7
 10
209.74215731460689
 20
360.37948819900976
 11
239.74215731460689
 21
360.37948819900976
  0
TEXT
  8
_0-d_寸法3
 62
    7
 10
213.59748937068366
 20
360.37948819900976
 40
15
 41
1
 50
0
  1
3
  0
LINE
  8
_0-d_寸法3
  6
CONTINUOUS
 62
    7
 10
243.07549064793989
 20
287.04615486567673
 11
243.0754906479404
 21
365.37948819900976
  0
LINE
  8
_0-d_寸法3
  6
CONTINUOUS
 62
    7
 10
239.74215731460689
 20
360.37948819900976
 11
243.07549064794031
 21
360.37948819900976
  0
TEXT
  8
_0-d_寸法3
 62
    7
 10
237.65882398127337
 20
360.37948819900976
 40
15
 41
1
 50
0
  1
2
  0
LINE
  8
_0-d_寸法3
  6
CONTINUOUS
 62
    7
 10
243.07549064794031
 20
360.37948819900976
 11
252.73474891083106
 21
362.96767865003494
  0
LINE
  8
_0-d_寸法3
  6
CONTINUOUS
 62
    7
 10
243.07549064794031
 20
360.37948819900976
 11
252.73474891083106
 21
357.79129774798457
  0
LINE
  8
_0-d_寸法3
  6
CONTINUOUS
 62
    7
 10
743.07549064794057
 20
287.04615486567673
 11
743.07549064794057
 21
365.37948819900976
  0
LINE
  8
_0-d_寸法3
  6
CONTINUOUS
 62
    7
 10
743.07549064794057
 20
360.37948819900976
 11
733.41623238504997
 21
357.79129774798457
  0
LINE
  8
_0-d_寸法3
  6
CONTINUOUS
 62
    7
 10
743.07549064794057
 20
360.37948819900976
 11
733.41623238504997
 21
362.96767865003505
  0
LINE
  8
_0-d_寸法3
  6
CONTINUOUS
 62
    7
 10
243.07549064794031
 20
360.37948819900976
 11
743.07549064794057
 21
360.37948819900976
  0
TEXT
  8
_0-d_寸法3
 62
    7
 10
481.8254906479404
 20
360.37948819900976
 40
15
 41
1
 50
0
  1
300
  0
LINE
  8
_0-d_寸法3
  6
CONTINUOUS
 62
    7
 10
746.4088239812736
 20
289.54615653402107
 11
746.4088239812736
 21
365.37948819900976
  0
CIRCLE
  8
_0-d_寸法3
  6
CONTINUOUS
 62
    1
 10
746.4088239812736
 20
360.37948819900976
 40
1.5000000000000002
  0
LINE
  8
_0-d_寸法3
  6
CONTINUOUS
 62
    7
 10
743.07549064794057
 20
360.37948819900976
 11
746.4088239812736
 21
360.37948819900976
  0
TEXT
  8
_0-d_寸法3
 62
    7
 10
740.99215731460754
 20
360.37948819900976
 40
15
 41
1
 50
0
  1
2
  0
LINE
  8
_0-d_寸法3
  6
CONTINUOUS
 62
    7
 10
751.4088239812736
 20
360.37948819900976
 11
761.06808224416443
 21
362.96767865003488
  0
LINE
  8
_0-d_寸法3
  6
CONTINUOUS
 62
    7
 10
751.4088239812736
 20
360.37948819900976
 11
761.06808224416443
 21
357.79129774798457
  0
LINE
  8
_0-d_寸法3
  6
CONTINUOUS
 62
    7
 10
746.4088239812736
 20
360.37948819900976
 11
776.4088239812736
 21
360.37948819900976
  0
TEXT
  8
_0-d_寸法3
 62
    7
 10
765.2960663133731
 20
360.37948819900976
 40
15
 41
1
 50
0
  1
3
  0
ENDSEC
  0
EOF
