  0
SECTION
  2
HEADER
  9
$ACADVER
  1
AC1015
  9
$ACADMAINTVER
 70
    20
  9
$DWGCODEPAGE
  3
ANSI_932
  9
$INSBASE
 10
0.0
 20
0.0
 30
0.0
  9
$EXTMIN
 10
96.0
 20
95.99999999999987
 30
0.0
  9
$EXTMAX
 10
2280.0
 20
1535.999999999999
 30
0.0
  9
$LIMMIN
 10
0.0
 20
0.0
  9
$LIMMAX
 10
2376.0
 20
1680.0
  9
$ORTHOMODE
 70
     0
  9
$REGENMODE
 70
     1
  9
$FILLMODE
 70
     1
  9
$QTEXTMODE
 70
     0
  9
$MIRRTEXT
 70
     0
  9
$LTSCALE
 40
8.0
  9
$ATTMODE
 70
     1
  9
$TEXTSIZE
 40
0.2
  9
$TRACEWID
 40
0.05
  9
$TEXTSTYLE
  7
STANDARD
  9
$CLAYER
  8
0
  9
$CELTYPE
  6
CONTINUOUS
  9
$CECOLOR
 62
   256
  9
$CELTSCALE
 40
1.0
  9
$DISPSILH
 70
     0
  9
$DIMSCALE
 40
1.0
  9
$DIMASZ
 40
0.18
  9
$DIMEXO
 40
0.0625
  9
$DIMDLI
 40
0.38
  9
$DIMRND
 40
0.0
  9
$DIMDLE
 40
0.0
  9
$DIMEXE
 40
0.18
  9
$DIMTP
 40
0.0
  9
$DIMTM
 40
0.0
  9
$DIMTXT
 40
0.18
  9
$DIMCEN
 40
0.09
  9
$DIMTSZ
 40
0.0
  9
$DIMTOL
 70
     0
  9
$DIMLIM
 70
     0
  9
$DIMTIH
 70
     1
  9
$DIMTOH
 70
     1
  9
$DIMSE1
 70
     0
  9
$DIMSE2
 70
     0
  9
$DIMTAD
 70
     0
  9
$DIMZIN
 70
     0
  9
$DIMBLK
  1

  9
$DIMASO
 70
     1
  9
$DIMSHO
 70
     1
  9
$DIMPOST
  1

  9
$DIMAPOST
  1

  9
$DIMALT
 70
     0
  9
$DIMALTD
 70
     2
  9
$DIMALTF
 40
25.4
  9
$DIMLFAC
 40
1.0
  9
$DIMTOFL
 70
     0
  9
$DIMTVP
 40
0.0
  9
$DIMTIX
 70
     0
  9
$DIMSOXD
 70
     0
  9
$DIMSAH
 70
     0
  9
$DIMBLK1
  1

  9
$DIMBLK2
  1

  9
$DIMSTYLE
  2
Standard
  9
$DIMCLRD
 70
     0
  9
$DIMCLRE
 70
     0
  9
$DIMCLRT
 70
     0
  9
$DIMTFAC
 40
1.0
  9
$DIMGAP
 40
0.09
  9
$DIMJUST
 70
     0
  9
$DIMSD1
 70
     0
  9
$DIMSD2
 70
     0
  9
$DIMTOLJ
 70
     1
  9
$DIMTZIN
 70
     0
  9
$DIMALTZ
 70
     0
  9
$DIMALTTZ
 70
     0
  9
$DIMUPT
 70
     0
  9
$DIMDEC
 70
     4
  9
$DIMTDEC
 70
     4
  9
$DIMALTU
 70
     2
  9
$DIMALTTD
 70
     2
  9
$DIMTXSTY
  7
STANDARD
  9
$DIMAUNIT
 70
     0
  9
$DIMADEC
 70
     0
  9
$DIMALTRND
 40
0.0
  9
$DIMAZIN
 70
     0
  9
$DIMDSEP
 70
    46
  9
$DIMATFIT
 70
     3
  9
$DIMFRAC
 70
     0
  9
$DIMLDRBLK
  1

  9
$DIMLUNIT
 70
     2
  9
$DIMLWD
 70
    -2
  9
$DIMLWE
 70
    -2
  9
$DIMTMOVE
 70
     0
  9
$LUNITS
 70
     2
  9
$LUPREC
 70
     4
  9
$SKETCHINC
 40
0.1
  9
$FILLETRAD
 40
0.0
  9
$AUNITS
 70
     0
  9
$AUPREC
 70
     0
  9
$MENU
  1
.
  9
$ELEVATION
 40
0.0
  9
$PELEVATION
 40
0.0
  9
$THICKNESS
 40
0.0
  9
$LIMCHECK
 70
     0
  9
$CHAMFERA
 40
0.0
  9
$CHAMFERB
 40
0.0
  9
$CHAMFERC
 40
0.0
  9
$CHAMFERD
 40
0.0
  9
$SKPOLY
 70
     0
  9
$TDCREATE
 40
2457892.637339688
  9
$TDUCREATE
 40
2457892.262339687
  9
$TDUPDATE
 40
2457892.641019155
  9
$TDUUPDATE
 40
2457892.266019155
  9
$TDINDWG
 40
0.0019157176
  9
$TDUSRTIMER
 40
0.0019157176
  9
$USRTIMER
 70
     1
  9
$ANGBASE
 50
0.0
  9
$ANGDIR
 70
     0
  9
$PDMODE
 70
     0
  9
$PDSIZE
 40
0.0
  9
$PLINEWID
 40
0.0
  9
$SPLFRAME
 70
     0
  9
$SPLINETYPE
 70
     6
  9
$SPLINESEGS
 70
     8
  9
$HANDSEED
  5
4D3
  9
$SURFTAB1
 70
     6
  9
$SURFTAB2
 70
     6
  9
$SURFTYPE
 70
     6
  9
$SURFU
 70
     6
  9
$SURFV
 70
     6
  9
$UCSBASE
  2

  9
$UCSNAME
  2

  9
$UCSORG
 10
0.0
 20
0.0
 30
0.0
  9
$UCSXDIR
 10
1.0
 20
0.0
 30
0.0
  9
$UCSYDIR
 10
0.0
 20
1.0
 30
0.0
  9
$UCSORTHOREF
  2

  9
$UCSORTHOVIEW
 70
     0
  9
$UCSORGTOP
 10
0.0
 20
0.0
 30
0.0
  9
$UCSORGBOTTOM
 10
0.0
 20
0.0
 30
0.0
  9
$UCSORGLEFT
 10
0.0
 20
0.0
 30
0.0
  9
$UCSORGRIGHT
 10
0.0
 20
0.0
 30
0.0
  9
$UCSORGFRONT
 10
0.0
 20
0.0
 30
0.0
  9
$UCSORGBACK
 10
0.0
 20
0.0
 30
0.0
  9
$PUCSBASE
  2

  9
$PUCSNAME
  2

  9
$PUCSORG
 10
0.0
 20
0.0
 30
0.0
  9
$PUCSXDIR
 10
1.0
 20
0.0
 30
0.0
  9
$PUCSYDIR
 10
0.0
 20
1.0
 30
0.0
  9
$PUCSORTHOREF
  2

  9
$PUCSORTHOVIEW
 70
     0
  9
$PUCSORGTOP
 10
0.0
 20
0.0
 30
0.0
  9
$PUCSORGBOTTOM
 10
0.0
 20
0.0
 30
0.0
  9
$PUCSORGLEFT
 10
0.0
 20
0.0
 30
0.0
  9
$PUCSORGRIGHT
 10
0.0
 20
0.0
 30
0.0
  9
$PUCSORGFRONT
 10
0.0
 20
0.0
 30
0.0
  9
$PUCSORGBACK
 10
0.0
 20
0.0
 30
0.0
  9
$USERI1
 70
     0
  9
$USERI2
 70
     0
  9
$USERI3
 70
     0
  9
$USERI4
 70
     0
  9
$USERI5
 70
     0
  9
$USERR1
 40
0.0
  9
$USERR2
 40
0.0
  9
$USERR3
 40
0.0
  9
$USERR4
 40
0.0
  9
$USERR5
 40
0.0
  9
$WORLDVIEW
 70
     1
  9
$SHADEDGE
 70
     3
  9
$SHADEDIF
 70
    70
  9
$TILEMODE
 70
     1
  9
$MAXACTVP
 70
    64
  9
$PINSBASE
 10
0.0
 20
0.0
 30
0.0
  9
$PLIMCHECK
 70
     0
  9
$PEXTMIN
 10
1.000000000000000E+20
 20
1.000000000000000E+20
 30
1.000000000000000E+20
  9
$PEXTMAX
 10
-1.000000000000000E+20
 20
-1.000000000000000E+20
 30
-1.000000000000000E+20
  9
$PLIMMIN
 10
0.0
 20
0.0
  9
$PLIMMAX
 10
12.0
 20
9.0
  9
$UNITMODE
 70
     0
  9
$VISRETAIN
 70
     1
  9
$PLINEGEN
 70
     0
  9
$PSLTSCALE
 70
     1
  9
$TREEDEPTH
 70
  3020
  9
$CMLSTYLE
  2
Standard
  9
$CMLJUST
 70
     0
  9
$CMLSCALE
 40
1.0
  9
$PROXYGRAPHICS
 70
     1
  9
$MEASUREMENT
 70
     0
  9
$CELWEIGHT
370
    -1
  9
$ENDCAPS
280
     0
  9
$JOINSTYLE
280
     0
  9
$LWDISPLAY
290
     0
  9
$INSUNITS
 70
     0
  9
$HYPERLINKBASE
  1

  9
$STYLESHEET
  1

  9
$XEDIT
290
     1
  9
$CEPSNTYPE
380
     0
  9
$PSTYLEMODE
290
     1
  9
$FINGERPRINTGUID
  2
{5E670336-0152-4C94-B5AA-A00923F839FF}
  9
$VERSIONGUID
  2
{8DE58BDD-C212-47CC-8E82-C79404E62F4A}
  9
$EXTNAMES
290
     1
  9
$PSVPSCALE
 40
0.0
  9
$OLESTARTUP
290
     0
  0
ENDSEC
  0
SECTION
  2
CLASSES
  0
CLASS
  1
ACDBDICTIONARYWDFLT
  2
AcDbDictionaryWithDefault
  3
ObjectDBX Classes
 90
        0
280
     0
281
     0
  0
CLASS
  1
MATERIAL
  2
AcDbMaterial
  3
ObjectDBX Classes
 90
     1153
280
     0
281
     0
  0
CLASS
  1
VISUALSTYLE
  2
AcDbVisualStyle
  3
ObjectDBX Classes
 90
     4095
280
     0
281
     0
  0
CLASS
  1
SCALE
  2
AcDbScale
  3
ObjectDBX Classes
 90
     1153
280
     0
281
     0
  0
CLASS
  1
TABLESTYLE
  2
AcDbTableStyle
  3
ObjectDBX Classes
 90
     4095
280
     0
281
     0
  0
CLASS
  1
MLEADERSTYLE
  2
AcDbMLeaderStyle
  3
ACDB_MLEADERSTYLE_CLASS
 90
     4095
280
     0
281
     0
  0
CLASS
  1
ACDBSECTIONVIEWSTYLE
  2
AcDbSectionViewStyle
  3
ObjectDBX Classes
 90
     1025
280
     0
281
     0
  0
CLASS
  1
ACDBDETAILVIEWSTYLE
  2
AcDbDetailViewStyle
  3
ObjectDBX Classes
 90
     1025
280
     0
281
     0
  0
CLASS
  1
DICTIONARYVAR
  2
AcDbDictionaryVar
  3
ObjectDBX Classes
 90
        0
280
     0
281
     0
  0
CLASS
  1
CELLSTYLEMAP
  2
AcDbCellStyleMap
  3
ObjectDBX Classes
 90
     1152
280
     0
281
     0
  0
CLASS
  1
ACDBPLACEHOLDER
  2
AcDbPlaceHolder
  3
ObjectDBX Classes
 90
        0
280
     0
281
     0
  0
CLASS
  1
LAYOUT
  2
AcDbLayout
  3
ObjectDBX Classes
 90
        0
280
     0
281
     0
  0
ENDSEC
  0
SECTION
  2
TABLES
  0
TABLE
  2
VPORT
  5
8
330
0
100
AcDbSymbolTable
 70
     1
  0
VPORT
  5
A4
330
8
100
AcDbSymbolTableRecord
100
AcDbViewportTableRecord
  2
*Active
 70
     0
 10
0.0
 20
0.0
 11
1.0
 21
1.0
 12
1188.000005532056
 22
816.0314980242771
 13
0.0
 23
0.0
 14
1.0
 24
1.0
 15
0.0
 25
0.0
 16
0.0
 26
0.0
 36
1.0
 17
0.0
 27
0.0
 37
0.0
 40
1452.212690127712
 41
1.78072625698324
 42
50.0
 43
0.0
 44
0.0
 50
0.0
 51
0.0
 71
     0
 72
   100
 73
     1
 74
     1
 75
     0
 76
     0
 77
     0
 78
     0
281
     0
 65
     1
110
0.0
120
0.0
130
0.0
111
1.0
121
0.0
131
0.0
112
0.0
122
1.0
132
0.0
 79
     0
146
0.0
1001
ACAD_NAV_VCDISPLAY
1070
     3
  0
ENDTAB
  0
TABLE
  2
LTYPE
  5
5
330
0
100
AcDbSymbolTable
 70
    35
  0
LTYPE
  5
5A
330
5
100
AcDbSymbolTableRecord
100
AcDbLinetypeTableRecord
  2
ByBlock
 70
     0
  3

 72
    65
 73
     0
 40
0.0
  0
LTYPE
  5
5B
330
5
100
AcDbSymbolTableRecord
100
AcDbLinetypeTableRecord
  2
ByLayer
 70
     0
  3

 72
    65
 73
     0
 40
0.0
  0
LTYPE
  5
5C
330
5
100
AcDbSymbolTableRecord
100
AcDbLinetypeTableRecord
  2
CONTINUOUS
 70
     0
  3
実線
 72
    65
 73
     0
 40
0.0
  0
LTYPE
  5
73
330
5
100
AcDbSymbolTableRecord
100
AcDbLinetypeTableRecord
  2
DASHED1
 70
     0
  3
--  --  --  --  --  --  --  --  
 72
    65
 73
     2
 40
2.5
 49
1.25
 74
     0
 49
-1.25
 74
     0
  0
LTYPE
  5
74
330
5
100
AcDbSymbolTableRecord
100
AcDbLinetypeTableRecord
  2
DASHED2
 70
     0
  3
----    ----    ----    ----    
 72
    65
 73
     2
 40
5.0
 49
2.5
 74
     0
 49
-2.5
 74
     0
  0
LTYPE
  5
75
330
5
100
AcDbSymbolTableRecord
100
AcDbLinetypeTableRecord
  2
DASHED3
 70
     0
  3
------  ------  ------  ------  
 72
    65
 73
     2
 40
5.0
 49
3.75
 74
     0
 49
-1.25
 74
     0
  0
LTYPE
  5
76
330
5
100
AcDbSymbolTableRecord
100
AcDbLinetypeTableRecord
  2
CENTER1
 70
     0
  3
----- - ----- - ----- - ----- - 
 72
    65
 73
     4
 40
10.0
 49
6.25
 74
     0
 49
-1.25
 74
     0
 49
1.25
 74
     0
 49
-1.25
 74
     0
  0
LTYPE
  5
77
330
5
100
AcDbSymbolTableRecord
100
AcDbLinetypeTableRecord
  2
CENTER2
 70
     0
  3
----------  --  ----------  --  
 72
    65
 73
     4
 40
20.0
 49
12.5
 74
     0
 49
-2.5
 74
     0
 49
2.5
 74
     0
 49
-2.5
 74
     0
  0
LTYPE
  5
78
330
5
100
AcDbSymbolTableRecord
100
AcDbLinetypeTableRecord
  2
PHANTOM1
 70
     0
  3
--- - - --- - - --- - - --- - - 
 72
    65
 73
     6
 40
10.0
 49
3.25
 74
     0
 49
-1.25
 74
     0
 49
1.25
 74
     0
 49
-1.25
 74
     0
 49
1.25
 74
     0
 49
-1.25
 74
     0
  0
LTYPE
  5
79
330
5
100
AcDbSymbolTableRecord
100
AcDbLinetypeTableRecord
  2
PHANTOM2
 70
     0
  3
--------  -  -  --------  -  -  
 72
    65
 73
     6
 40
20.0
 49
10.0
 74
     0
 49
-2.5
 74
     0
 49
1.25
 74
     0
 49
-2.5
 74
     0
 49
1.25
 74
     0
 49
-2.5
 74
     0
  0
LTYPE
  5
7A
330
5
100
AcDbSymbolTableRecord
100
AcDbLinetypeTableRecord
  2
DOT
 70
     0
  3
-   -   -   -   -   -   -   -   
 72
    65
 73
     2
 40
2.5
 49
0.625
 74
     0
 49
-1.875
 74
     0
  0
LTYPE
  5
7B
330
5
100
AcDbSymbolTableRecord
100
AcDbLinetypeTableRecord
  2
DUMMY
 70
     0
  3
ダミー
 72
    65
 73
     0
 40
0.0
  0
LTYPE
  5
7C
330
5
100
AcDbSymbolTableRecord
100
AcDbLinetypeTableRecord
  2
RAND1
 70
     0
  3
ランダム線1
 72
    65
 73
     4
 40
10.0
 49
1.0
 74
     0
 49
-2.0
 74
     0
 49
3.0
 74
     0
 49
-4.0
 74
     0
  0
LTYPE
  5
7D
330
5
100
AcDbSymbolTableRecord
100
AcDbLinetypeTableRecord
  2
RAND2
 70
     0
  3
ランダム線2
 72
    65
 73
     4
 40
14.0
 49
2.0
 74
     0
 49
-3.0
 74
     0
 49
4.0
 74
     0
 49
-5.0
 74
     0
  0
LTYPE
  5
7E
330
5
100
AcDbSymbolTableRecord
100
AcDbLinetypeTableRecord
  2
RAND3
 70
     0
  3
ランダム線3
 72
    65
 73
     4
 40
18.0
 49
3.0
 74
     0
 49
-4.0
 74
     0
 49
5.0
 74
     0
 49
-6.0
 74
     0
  0
LTYPE
  5
7F
330
5
100
AcDbSymbolTableRecord
100
AcDbLinetypeTableRecord
  2
RAND4
 70
     0
  3
ランダム線4
 72
    65
 73
     4
 40
22.0
 49
4.0
 74
     0
 49
-5.0
 74
     0
 49
6.0
 74
     0
 49
-7.0
 74
     0
  0
LTYPE
  5
80
330
5
100
AcDbSymbolTableRecord
100
AcDbLinetypeTableRecord
  2
RAND5
 70
     0
  3
ランダム線5
 72
    65
 73
     4
 40
26.0
 49
5.0
 74
     0
 49
-6.0
 74
     0
 49
7.0
 74
     0
 49
-8.0
 74
     0
  0
LTYPE
  5
81
330
5
100
AcDbSymbolTableRecord
100
AcDbLinetypeTableRecord
  2
LONG1
 70
     0
  3
----------  --  ----------  --  
 72
    65
 73
     4
 40
40.0
 49
32.5
 74
     0
 49
-2.5
 74
     0
 49
2.5
 74
     0
 49
-2.5
 74
     0
  0
LTYPE
  5
82
330
5
100
AcDbSymbolTableRecord
100
AcDbLinetypeTableRecord
  2
LONG2
 70
     0
  3
--------  -  -  --------  -  -  
 72
    65
 73
     6
 40
40.0
 49
30.0
 74
     0
 49
-2.5
 74
     0
 49
1.25
 74
     0
 49
-2.5
 74
     0
 49
1.25
 74
     0
 49
-2.5
 74
     0
  0
LTYPE
  5
83
330
5
100
AcDbSymbolTableRecord
100
AcDbLinetypeTableRecord
  2
LONG3
 70
     0
  3
+++++++++++++++..+++++++++++++++
 72
    65
 73
     2
 40
40.0
 49
37.5
 74
     0
 49
-2.5
 74
     0
  0
LTYPE
  5
84
330
5
100
AcDbSymbolTableRecord
100
AcDbLinetypeTableRecord
  2
LONG4
 70
     0
  3
+++++++++++++++..+++++++++++++++
 72
    65
 73
     2
 40
80.0
 49
75.0
 74
     0
 49
-5.0
 74
     0
  0
LTYPE
  5
85
330
5
100
AcDbSymbolTableRecord
100
AcDbLinetypeTableRecord
  2
LONG5
 70
     0
  3
----------  --  ----------  --  
 72
    65
 73
     4
 40
60.0
 49
37.5
 74
     0
 49
-7.5
 74
     0
 49
7.5
 74
     0
 49
-7.5
 74
     0
  0
LTYPE
  5
86
330
5
100
AcDbSymbolTableRecord
100
AcDbLinetypeTableRecord
  2
DASHED
 70
     0
  3
-------   -------------   ------
 72
    65
 73
     2
 40
7.5
 49
6.0
 74
     0
 49
-1.5
 74
     0
  0
LTYPE
  5
87
330
5
100
AcDbSymbolTableRecord
100
AcDbLinetypeTableRecord
  2
DASHED_SPACED
 70
     0
  3
----        --------        ----
 72
    65
 73
     2
 40
12.0
 49
6.0
 74
     0
 49
-6.0
 74
     0
  0
LTYPE
  5
88
330
5
100
AcDbSymbolTableRecord
100
AcDbLinetypeTableRecord
  2
LONG_DASHED_DOTTED
 70
     0
  3
------------- --- --------------
 72
    65
 73
     4
 40
15.25
 49
12.0
 74
     0
 49
-1.5
 74
     0
 49
0.25
 74
     0
 49
-1.5
 74
     0
  0
LTYPE
  5
89
330
5
100
AcDbSymbolTableRecord
100
AcDbLinetypeTableRecord
  2
LONG_DASHED_DOUBLE-DOTTED
 70
     0
  3
----------- --- --- ------------
 72
    65
 73
     6
 40
17.0
 49
12.0
 74
     0
 49
-1.5
 74
     0
 49
0.25
 74
     0
 49
-1.5
 74
     0
 49
0.25
 74
     0
 49
-1.5
 74
     0
  0
LTYPE
  5
8A
330
5
100
AcDbSymbolTableRecord
100
AcDbLinetypeTableRecord
  2
LONG_DASHED_TRIPLICATE-DOTTED
 70
     0
  3
--------- --- --- --- ----------
 72
    65
 73
     8
 40
18.75
 49
12.0
 74
     0
 49
-1.5
 74
     0
 49
0.25
 74
     0
 49
-1.5
 74
     0
 49
0.25
 74
     0
 49
-1.5
 74
     0
 49
0.25
 74
     0
 49
-1.5
 74
     0
  0
LTYPE
  5
8B
330
5
100
AcDbSymbolTableRecord
100
AcDbLinetypeTableRecord
  2
DOTTED
 70
     0
  3
   -       -       -       -    
 72
    65
 73
     2
 40
1.75
 49
0.25
 74
     0
 49
-1.5
 74
     0
  0
LTYPE
  5
8C
330
5
100
AcDbSymbolTableRecord
100
AcDbLinetypeTableRecord
  2
CHAIN
 70
     0
  3
-------------- -- --------------
 72
    65
 73
     4
 40
18.5
 49
12.0
 74
     0
 49
-1.5
 74
     0
 49
3.5
 74
     0
 49
-1.5
 74
     0
  0
LTYPE
  5
8D
330
5
100
AcDbSymbolTableRecord
100
AcDbLinetypeTableRecord
  2
CHAIN_DOUBLE_DASH
 70
     0
  3
------------ -- -- -------------
 72
    65
 73
     6
 40
23.5
 49
12.0
 74
     0
 49
-1.5
 74
     0
 49
3.5
 74
     0
 49
-1.5
 74
     0
 49
3.5
 74
     0
 49
-1.5
 74
     0
  0
LTYPE
  5
8E
330
5
100
AcDbSymbolTableRecord
100
AcDbLinetypeTableRecord
  2
DASHED_DOTTED
 70
     0
  3
-----------     -     ----------
 72
    65
 73
     4
 40
9.25
 49
6.0
 74
     0
 49
-1.5
 74
     0
 49
0.25
 74
     0
 49
-1.5
 74
     0
  0
LTYPE
  5
8F
330
5
100
AcDbSymbolTableRecord
100
AcDbLinetypeTableRecord
  2
DOUBLE-DASHED_DOTTED
 70
     0
  3
------   -----------   -   -----
 72
    65
 73
     6
 40
16.75
 49
6.0
 74
     0
 49
-1.5
 74
     0
 49
6.0
 74
     0
 49
-1.5
 74
     0
 49
0.25
 74
     0
 49
-1.5
 74
     0
  0
LTYPE
  5
90
330
5
100
AcDbSymbolTableRecord
100
AcDbLinetypeTableRecord
  2
DASHED_DOUBLE-DOTTED
 70
     0
  3
---------    -    -    ---------
 72
    65
 73
     6
 40
11.0
 49
6.0
 74
     0
 49
-1.5
 74
     0
 49
0.25
 74
     0
 49
-1.5
 74
     0
 49
0.25
 74
     0
 49
-1.5
 74
     0
  0
LTYPE
  5
91
330
5
100
AcDbSymbolTableRecord
100
AcDbLinetypeTableRecord
  2
DOUBLE-DASHED_DOUBLE-DOTTED
 70
     0
  3
-----   ---------   -   -   ----
 72
    65
 73
     8
 40
18.5
 49
6.0
 74
     0
 49
-1.5
 74
     0
 49
6.0
 74
     0
 49
-1.5
 74
     0
 49
0.25
 74
     0
 49
-1.5
 74
     0
 49
0.25
 74
     0
 49
-1.5
 74
     0
  0
LTYPE
  5
92
330
5
100
AcDbSymbolTableRecord
100
AcDbLinetypeTableRecord
  2
DASHED_TRIPLICATE-DOTTED
 70
     0
  3
-------    -    -    -    ------
 72
    65
 73
     8
 40
12.75
 49
6.0
 74
     0
 49
-1.5
 74
     0
 49
0.25
 74
     0
 49
-1.5
 74
     0
 49
0.25
 74
     0
 49
-1.5
 74
     0
 49
0.25
 74
     0
 49
-1.5
 74
     0
  0
LTYPE
  5
93
330
5
100
AcDbSymbolTableRecord
100
AcDbLinetypeTableRecord
  2
DOUBLE-DASHED_TRIPLICATE-DOTTED
 70
     0
  3
-----  ---------  -  -  -  -----
 72
    65
 73
    10
 40
20.25
 49
6.0
 74
     0
 49
-1.5
 74
     0
 49
6.0
 74
     0
 49
-1.5
 74
     0
 49
0.25
 74
     0
 49
-1.5
 74
     0
 49
0.25
 74
     0
 49
-1.5
 74
     0
 49
0.25
 74
     0
 49
-1.5
 74
     0
  0
LTYPE
  5
94
330
5
100
AcDbSymbolTableRecord
100
AcDbLinetypeTableRecord
  2
UNDEFINED
 70
     0
  3
--------------------------------
 72
    65
 73
     0
 40
0.0
  0
ENDTAB
  0
TABLE
  2
LAYER
  5
2
102
{ACAD_XDICTIONARY
360
47A
102
}
330
0
100
AcDbSymbolTable
 70
    13
  0
LAYER
  5
54
102
{ACAD_XDICTIONARY
360
448
102
}
330
2
100
AcDbSymbolTableRecord
100
AcDbLayerTableRecord
  2
0
 70
     0
 62
     7
  6
CONTINUOUS
370
    -3
390
F
  0
LAYER
  5
96
102
{ACAD_XDICTIONARY
360
44A
102
}
330
2
100
AcDbSymbolTableRecord
100
AcDbLayerTableRecord
  2
_0-0_計極細
 70
     0
 62
     7
  6
CONTINUOUS
370
    -3
390
F
  0
LAYER
  5
97
102
{ACAD_XDICTIONARY
360
44C
102
}
330
2
100
AcDbSymbolTableRecord
100
AcDbLayerTableRecord
  2
_0-1_計細線
 70
     0
 62
     7
  6
CONTINUOUS
370
    -3
390
F
  0
LAYER
  5
98
102
{ACAD_XDICTIONARY
360
44E
102
}
330
2
100
AcDbSymbolTableRecord
100
AcDbLayerTableRecord
  2
_0-5_寸法線
 70
     0
 62
     7
  6
CONTINUOUS
370
    -3
390
F
  0
LAYER
  5
99
102
{ACAD_XDICTIONARY
360
450
102
}
330
2
100
AcDbSymbolTableRecord
100
AcDbLayerTableRecord
  2
_0-7_枠細線
 70
     0
 62
     7
  6
CONTINUOUS
370
    -3
390
F
  0
LAYER
  5
9A
102
{ACAD_XDICTIONARY
360
452
102
}
330
2
100
AcDbSymbolTableRecord
100
AcDbLayerTableRecord
  2
_0-8_枠中線
 70
     0
 62
     7
  6
CONTINUOUS
370
    -3
390
F
  0
LAYER
  5
9B
102
{ACAD_XDICTIONARY
360
454
102
}
330
2
100
AcDbSymbolTableRecord
100
AcDbLayerTableRecord
  2
_0-A_極細1
 70
     0
 62
     7
  6
CONTINUOUS
370
    -3
390
F
  0
LAYER
  5
9C
102
{ACAD_XDICTIONARY
360
456
102
}
330
2
100
AcDbSymbolTableRecord
100
AcDbLayerTableRecord
  2
_0-B_細線1
 70
     0
 62
     7
  6
CONTINUOUS
370
    -3
390
F
  0
LAYER
  5
9D
102
{ACAD_XDICTIONARY
360
458
102
}
330
2
100
AcDbSymbolTableRecord
100
AcDbLayerTableRecord
  2
_0-D_寸法1
 70
     0
 62
     7
  6
CONTINUOUS
370
    -3
390
F
  0
LAYER
  5
9E
102
{ACAD_XDICTIONARY
360
45A
102
}
330
2
100
AcDbSymbolTableRecord
100
AcDbLayerTableRecord
  2
_0-E_極細2
 70
     0
 62
     7
  6
CONTINUOUS
370
    -3
390
F
  0
LAYER
  5
9F
102
{ACAD_XDICTIONARY
360
45C
102
}
330
2
100
AcDbSymbolTableRecord
100
AcDbLayerTableRecord
  2
_0-F_細線2
 70
     0
 62
     7
  6
CONTINUOUS
370
    -3
390
F
  0
LAYER
  5
A0
102
{ACAD_XDICTIONARY
360
45E
102
}
330
2
100
AcDbSymbolTableRecord
100
AcDbLayerTableRecord
  2
_1-1_寸法2
 70
     0
 62
     7
  6
CONTINUOUS
370
    -3
390
F
  0
LAYER
  5
A1
102
{ACAD_XDICTIONARY
360
460
102
}
330
2
100
AcDbSymbolTableRecord
100
AcDbLayerTableRecord
  2
ADD_LINE
 70
     0
 62
     7
  6
CONTINUOUS
370
    -3
390
F
  0
ENDTAB
  0
TABLE
  2
STYLE
  5
3
330
0
100
AcDbSymbolTable
 70
     3
  0
STYLE
  5
55
330
3
100
AcDbSymbolTableRecord
100
AcDbTextStyleTableRecord
  2
STANDARD
 70
     0
 40
0.0
 41
1.0
 50
0.0
 71
     0
 42
0.2
  3
txt
  4
bigfont.shx
  0
STYLE
  5
59
330
3
100
AcDbSymbolTableRecord
100
AcDbTextStyleTableRecord
  2
Annotative
 70
     0
 40
0.0
 41
1.0
 50
0.0
 71
     0
 42
0.2
  3
txt
  4

1001
AcadAnnotative
1000
AnnotativeData
1002
{
1070
     1
1070
     1
1002
}
  0
STYLE
  5
95
330
3
100
AcDbSymbolTableRecord
100
AcDbTextStyleTableRecord
  2
TATEGAKI
 70
     4
 40
0.0
 41
1.0
 50
0.0
 71
     0
 42
1.0
  3
txt
  4
bigfont.shx
  0
ENDTAB
  0
TABLE
  2
VIEW
  5
6
330
0
100
AcDbSymbolTable
 70
     0
  0
ENDTAB
  0
TABLE
  2
UCS
  5
7
330
0
100
AcDbSymbolTable
 70
     0
  0
ENDTAB
  0
TABLE
  2
APPID
  5
9
330
0
100
AcDbSymbolTable
 70
     4
  0
APPID
  5
56
330
9
100
AcDbSymbolTableRecord
100
AcDbRegAppTableRecord
  2
ACAD
 70
     0
  0
APPID
  5
5D
330
9
100
AcDbSymbolTableRecord
100
AcDbRegAppTableRecord
  2
AcadAnnotative
 70
     0
  0
APPID
  5
462
330
9
100
AcDbSymbolTableRecord
100
AcDbRegAppTableRecord
  2
ACAD_NAV_VCDISPLAY
 70
     0
  0
APPID
  5
4CC
330
9
100
AcDbSymbolTableRecord
100
AcDbRegAppTableRecord
  2
ACAD_MLEADERVER
 70
     0
  0
ENDTAB
  0
TABLE
  2
DIMSTYLE
  5
A
330
0
100
AcDbSymbolTable
 70
     2
100
AcDbDimStyleTable
 71
     0
  0
DIMSTYLE
105
57
330
A
100
AcDbSymbolTableRecord
100
AcDbDimStyleTableRecord
  2
Standard
 70
     0
340
55
  0
DIMSTYLE
105
58
330
A
100
AcDbSymbolTableRecord
100
AcDbDimStyleTableRecord
  2
Annotative
 70
     0
340
55
1001
AcadAnnotative
1000
AnnotativeData
1002
{
1070
     1
1070
     1
1002
}
  0
ENDTAB
  0
TABLE
  2
BLOCK_RECORD
  5
1
330
0
100
AcDbSymbolTable
 70
     0
  0
BLOCK_RECORD
  5
6F
330
1
100
AcDbSymbolTableRecord
100
AcDbBlockTableRecord
  2
*Model_Space
340
72
  0
BLOCK_RECORD
  5
6B
330
1
100
AcDbSymbolTableRecord
100
AcDbBlockTableRecord
  2
*Paper_Space
340
6E
  0
ENDTAB
  0
ENDSEC
  0
SECTION
  2
BLOCKS
  0
BLOCK
  5
70
330
6F
100
AcDbEntity
  8
0
100
AcDbBlockBegin
  2
*Model_Space
 70
     0
 10
0.0
 20
0.0
 30
0.0
  3
*Model_Space
  1

  0
ENDBLK
  5
71
330
6F
100
AcDbEntity
  8
0
100
AcDbBlockEnd
  0
BLOCK
  5
6C
330
6B
100
AcDbEntity
 67
     1
  8
0
100
AcDbBlockBegin
  2
*Paper_Space
 70
     0
 10
0.0
 20
0.0
 30
0.0
  3
*Paper_Space
  1

  0
ENDBLK
  5
6D
330
6B
100
AcDbEntity
 67
     1
  8
0
100
AcDbBlockEnd
  0
ENDSEC
  0
SECTION
  2
ENTITIES
  0
LINE
  5
A5
330
6F
100
AcDbEntity
  8
_0-8_枠中線
  6
Continuous
 62
     5
100
AcDbLine
 10
96.0
 20
96.0
 30
0.0
 11
96.0
 21
1535.999999999999
 31
0.0
  0
LINE
  5
A6
330
6F
100
AcDbEntity
  8
_0-8_枠中線
  6
Continuous
 62
     5
100
AcDbLine
 10
96.0
 20
1535.999999999999
 30
0.0
 11
2280.0
 21
1535.999999999999
 31
0.0
  0
LINE
  5
A7
330
6F
100
AcDbEntity
  8
_0-8_枠中線
  6
Continuous
 62
     5
100
AcDbLine
 10
2280.0
 20
1535.999999999999
 30
0.0
 11
2280.0
 21
96.0
 31
0.0
  0
LINE
  5
A8
330
6F
100
AcDbEntity
  8
_0-8_枠中線
  6
Continuous
 62
     5
100
AcDbLine
 10
2280.0
 20
96.0
 30
0.0
 11
96.0
 21
96.0
 31
0.0
  0
LINE
  5
A9
330
6F
100
AcDbEntity
  8
_0-7_枠細線
  6
Continuous
 62
     5
100
AcDbLine
 10
1896.0
 20
288.0
 30
0.0
 11
1896.0
 21
160.0
 31
0.0
  0
TEXT
  5
AA
330
6F
100
AcDbEntity
  8
_0-7_枠細線
 62
     5
100
AcDbText
 10
1499.999999999999
 20
156.0
 30
0.0
 40
26.0
  1
備考
  7
TATEGAKI
100
AcDbText
  0
TEXT
  5
AB
330
6F
100
AcDbEntity
  8
_0-7_枠細線
 62
     5
100
AcDbText
 10
1499.999999999999
 20
220.0
 30
0.0
 40
26.0
  1
品番
  7
TATEGAKI
100
AcDbText
  0
TEXT
  5
AC
330
6F
100
AcDbEntity
  8
_0-7_枠細線
 62
     5
100
AcDbText
 10
1499.999999999999
 20
284.0
 30
0.0
 40
26.0
  1
品名
  7
TATEGAKI
100
AcDbText
  0
LINE
  5
AD
330
6F
100
AcDbEntity
  8
_0-7_枠細線
  6
Continuous
 62
     5
100
AcDbLine
 10
1896.0
 20
224.0
 30
0.0
 11
1479.999999999999
 21
224.0
 31
0.0
  0
LINE
  5
AE
330
6F
100
AcDbEntity
  8
_0-7_枠細線
  6
Continuous
 62
     5
100
AcDbLine
 10
1519.999999999999
 20
288.0
 30
0.0
 11
1519.999999999999
 21
96.0
 31
0.0
  0
LINE
  5
AF
330
6F
100
AcDbEntity
  8
_0-8_枠中線
  6
Continuous
 62
     5
100
AcDbLine
 10
2280.0
 20
288.0
 30
0.0
 11
1479.999999999999
 21
288.0
 31
0.0
  0
LINE
  5
B0
330
6F
100
AcDbEntity
  8
_0-8_枠中線
  6
Continuous
 62
     5
100
AcDbLine
 10
1479.999999999999
 20
288.0
 30
0.0
 11
1479.999999999999
 21
96.0
 31
0.0
  0
LINE
  5
B1
330
6F
100
AcDbEntity
  8
_0-7_枠細線
  6
Continuous
 62
     5
100
AcDbLine
 10
1992.0
 20
288.0
 30
0.0
 11
1992.0
 21
96.0
 31
0.0
  0
TEXT
  5
B2
330
6F
100
AcDbEntity
  8
_0-7_枠細線
 62
     5
100
AcDbText
 10
1908.0
 20
256.0
 30
0.0
 40
24.0
  1
縮　尺
100
AcDbText
  0
LINE
  5
B3
330
6F
100
AcDbEntity
  8
_0-7_枠細線
  6
Continuous
 62
     5
100
AcDbLine
 10
1896.0
 20
248.0
 30
0.0
 11
1992.0
 21
248.0
 31
0.0
  0
LINE
  5
B4
330
6F
100
AcDbEntity
  8
_0-7_枠細線
  6
Continuous
 62
     5
100
AcDbLine
 10
1992.0
 20
160.0
 30
0.0
 11
1479.999999999999
 21
160.0
 31
0.0
  0
LINE
  5
B5
330
6F
100
AcDbEntity
  8
_0-7_枠細線
  6
Continuous
 62
     5
100
AcDbLine
 10
2280.0
 20
144.0
 30
0.0
 11
1992.0
 21
144.0
 31
0.0
  0
LINE
  5
B6
330
6F
100
AcDbEntity
  8
_0-7_枠細線
  6
Continuous
 62
     5
100
AcDbLine
 10
1992.0
 20
192.0
 30
0.0
 11
2280.0
 21
192.0
 31
0.0
  0
LINE
  5
B7
330
6F
100
AcDbEntity
  8
_0-7_枠細線
  6
Continuous
 62
     5
100
AcDbLine
 10
2280.0
 20
224.0
 30
0.0
 11
1992.0
 21
224.0
 31
0.0
  0
TEXT
  5
B8
330
6F
100
AcDbEntity
  8
_0-7_枠細線
 62
     5
100
AcDbText
 10
2004.0
 20
95.99999999999987
 30
0.0
 40
24.0
  1
年月日
100
AcDbText
  0
TEXT
  5
B9
330
6F
100
AcDbEntity
  8
_0-7_枠細線
 62
     5
100
AcDbText
 10
2004.0
 20
120.0
 30
0.0
 40
24.0
  1
作　成
100
AcDbText
  0
TEXT
  5
BA
330
6F
100
AcDbEntity
  8
_0-7_枠細線
 62
     5
100
AcDbText
 10
2010.0
 20
196.0
 30
0.0
 40
24.0
  1
承 認
100
AcDbText
  0
LINE
  5
BB
330
6F
100
AcDbEntity
  8
_0-7_枠細線
  6
Continuous
 62
     5
100
AcDbLine
 10
2088.0
 20
224.0
 30
0.0
 11
2088.0
 21
96.0
 31
0.0
  0
TEXT
  5
BC
330
6F
100
AcDbEntity
  8
_0-7_枠細線
 62
     5
100
AcDbText
 10
2105.999999999999
 20
196.0
 30
0.0
 40
24.0
  1
検 図
100
AcDbText
  0
LINE
  5
BD
330
6F
100
AcDbEntity
  8
_0-7_枠細線
  6
Continuous
 62
     5
100
AcDbLine
 10
2184.0
 20
224.0
 30
0.0
 11
2184.0
 21
144.0
 31
0.0
  0
TEXT
  5
BE
330
6F
100
AcDbEntity
  8
_0-7_枠細線
 62
     5
100
AcDbText
 10
2200.0
 20
152.0
 30
0.0
 40
32.0
  1
藤戸
100
AcDbText
  0
TEXT
  5
BF
330
6F
100
AcDbEntity
  8
_0-7_枠細線
 62
     5
100
AcDbText
 10
2201.999999999999
 20
196.0
 30
0.0
 40
24.0
  1
設 計
100
AcDbText
  0
LINE
  5
C0
330
6F
100
AcDbEntity
  8
_0-7_枠細線
  6
Continuous
 62
     5
100
AcDbLine
 10
2280.0
 20
1507.999999999999
 30
0.0
 11
1423.999999999999
 21
1507.999999999999
 31
0.0
  0
TEXT
  5
C1
330
6F
100
AcDbEntity
  8
_0-7_枠細線
 62
     5
100
AcDbText
 10
1431.999999999999
 20
1511.999999999999
 30
0.0
 40
20.0
  1
記号
100
AcDbText
  0
TEXT
  5
C2
330
6F
100
AcDbEntity
  8
_0-7_枠細線
 62
     5
100
AcDbText
 10
1594.999999999999
 20
1511.999999999999
 30
0.0
 40
20.0
  1
訂　 正　 記　 事
100
AcDbText
  0
TEXT
  5
C3
330
6F
100
AcDbEntity
  8
_0-7_枠細線
 62
     5
100
AcDbText
 10
1890.0
 20
1511.999999999999
 30
0.0
 40
20.0
  1
訂 正 年 月 日
 41
0.9
100
AcDbText
  0
TEXT
  5
C4
330
6F
100
AcDbEntity
  8
_0-7_枠細線
 62
     5
100
AcDbText
 10
2089.999999999999
 20
1511.999999999999
 30
0.0
 40
20.0
  1
備　　　　　考
100
AcDbText
  0
TEXT
  5
C5
330
6F
100
AcDbEntity
  8
_0-7_枠細線
 62
     5
100
AcDbText
 10
2008.0
 20
152.0
 30
0.0
 40
32.0
  1
隠塚
100
AcDbText
  0
TEXT
  5
C6
330
6F
100
AcDbEntity
  8
_0-7_枠細線
 62
     5
100
AcDbText
 10
2104.0
 20
152.0
 30
0.0
 40
32.0
  1
渋田
100
AcDbText
  0
TEXT
  5
C7
330
6F
100
AcDbEntity
  8
_0-7_枠細線
 62
     5
100
AcDbText
 10
1544.799999999999
 20
240.0
 30
0.0
 40
32.0
  1
ＫＡＧＡＮ　盗難防止タイプ
 41
0.5999999999999998
100
AcDbText
  0
LINE
  5
C8
330
6F
100
AcDbEntity
  8
_1-1_寸法2
  6
Continuous
 62
     7
100
AcDbLine
 10
2102.264509388966
 20
817.9126805696643
 30
0.0
 11
2154.264509388966
 21
817.9126805696638
 31
0.0
  0
LINE
  5
C9
330
6F
100
AcDbEntity
  8
_1-1_寸法2
  6
Continuous
 62
     7
100
AcDbLine
 10
2146.264509388966
 20
817.9126805696638
 30
0.0
 11
2150.405614110606
 21
802.4578673490388
 31
0.0
  0
LINE
  5
CA
330
6F
100
AcDbEntity
  8
_1-1_寸法2
  6
Continuous
 62
     7
100
AcDbLine
 10
2146.264509388966
 20
817.9126805696638
 30
0.0
 11
2142.123404667326
 21
802.4578673490388
 31
0.0
  0
LINE
  5
CB
330
6F
100
AcDbEntity
  8
_1-1_寸法2
  6
Continuous
 62
     7
100
AcDbLine
 10
2102.264509388966
 20
777.9126805696643
 30
0.0
 11
2154.264509388966
 21
777.9126805696637
 31
0.0
  0
LINE
  5
CC
330
6F
100
AcDbEntity
  8
_1-1_寸法2
  6
Continuous
 62
     7
100
AcDbLine
 10
2146.264509388966
 20
777.9126805696637
 30
0.0
 11
2142.123404667326
 21
793.3674937902886
 31
0.0
  0
LINE
  5
CD
330
6F
100
AcDbEntity
  8
_1-1_寸法2
  6
Continuous
 62
     7
100
AcDbLine
 10
2146.264509388966
 20
777.9126805696637
 30
0.0
 11
2150.405614110606
 21
793.3674937902886
 31
0.0
  0
LINE
  5
CE
330
6F
100
AcDbEntity
  8
_1-1_寸法2
  6
Continuous
 62
     7
100
AcDbLine
 10
2146.264509388966
 20
817.9126805696638
 30
0.0
 11
2146.264509388966
 21
777.9126805696637
 31
0.0
  0
TEXT
  5
CF
330
6F
100
AcDbEntity
  8
_1-1_寸法2
 62
     7
100
AcDbText
 10
2146.264509388966
 20
784.3856501757273
 30
0.0
 40
24.0
  1
10
 50
90.0
100
AcDbText
  0
LINE
  5
D0
330
6F
100
AcDbEntity
  8
_1-1_寸法2
  6
Continuous
 62
     7
100
AcDbLine
 10
2102.264509388966
 20
817.9126805696643
 30
0.0
 11
2194.264509388966
 21
817.9126805696643
 31
0.0
  0
LINE
  5
D1
330
6F
100
AcDbEntity
  8
_1-1_寸法2
  6
Continuous
 62
     7
100
AcDbLine
 10
2186.264509388966
 20
817.9126805696643
 30
0.0
 11
2190.405614110606
 21
802.457867349039
 31
0.0
  0
LINE
  5
D2
330
6F
100
AcDbEntity
  8
_1-1_寸法2
  6
Continuous
 62
     7
100
AcDbLine
 10
2186.264509388966
 20
817.9126805696643
 30
0.0
 11
2182.123404667326
 21
802.4578673490394
 31
0.0
  0
LINE
  5
D3
330
6F
100
AcDbEntity
  8
_1-1_寸法2
  6
Continuous
 62
     7
100
AcDbLine
 10
2092.264509388966
 20
753.9126805696643
 30
0.0
 11
2194.264509388966
 21
753.9126805696643
 31
0.0
  0
LINE
  5
D4
330
6F
100
AcDbEntity
  8
_1-1_寸法2
  6
Continuous
 62
     7
100
AcDbLine
 10
2186.264509388966
 20
753.9126805696643
 30
0.0
 11
2182.123404667326
 21
769.3674937902893
 31
0.0
  0
LINE
  5
D5
330
6F
100
AcDbEntity
  8
_1-1_寸法2
  6
Continuous
 62
     7
100
AcDbLine
 10
2186.264509388966
 20
753.9126805696643
 30
0.0
 11
2190.405614110606
 21
769.3674937902893
 31
0.0
  0
LINE
  5
D6
330
6F
100
AcDbEntity
  8
_1-1_寸法2
  6
Continuous
 62
     7
100
AcDbLine
 10
2186.264509388966
 20
817.9126805696643
 30
0.0
 11
2186.264509388966
 21
753.9126805696643
 31
0.0
  0
TEXT
  5
D7
330
6F
100
AcDbEntity
  8
_1-1_寸法2
 62
     7
100
AcDbText
 10
2186.264509388966
 20
773.9126805696643
 30
0.0
 40
24.0
  1
16
 50
90.0
100
AcDbText
  0
LINE
  5
D8
330
6F
100
AcDbEntity
  8
_1-1_寸法2
  6
Continuous
 62
     7
100
AcDbLine
 10
2186.264509388966
 20
753.9126805696643
 30
0.0
 11
2190.405614110606
 21
738.4578673490389
 31
0.0
  0
LINE
  5
D9
330
6F
100
AcDbEntity
  8
_1-1_寸法2
  6
Continuous
 62
     7
100
AcDbLine
 10
2186.264509388966
 20
753.9126805696643
 30
0.0
 11
2182.123404667326
 21
738.4578673490393
 31
0.0
  0
LINE
  5
DA
330
6F
100
AcDbEntity
  8
_1-1_寸法2
  6
Continuous
 62
     7
100
AcDbLine
 10
2092.264509388966
 20
677.9126805696641
 30
0.0
 11
2194.264509388966
 21
677.9126805696641
 31
0.0
  0
LINE
  5
DB
330
6F
100
AcDbEntity
  8
_1-1_寸法2
  6
Continuous
 62
     7
100
AcDbLine
 10
2186.264509388966
 20
677.9126805696641
 30
0.0
 11
2182.123404667326
 21
693.3674937902893
 31
0.0
  0
LINE
  5
DC
330
6F
100
AcDbEntity
  8
_1-1_寸法2
  6
Continuous
 62
     7
100
AcDbLine
 10
2186.264509388966
 20
677.9126805696641
 30
0.0
 11
2190.405614110606
 21
693.3674937902893
 31
0.0
  0
LINE
  5
DD
330
6F
100
AcDbEntity
  8
_1-1_寸法2
  6
Continuous
 62
     7
100
AcDbLine
 10
2186.264509388966
 20
753.9126805696643
 30
0.0
 11
2186.264509388966
 21
677.9126805696641
 31
0.0
  0
TEXT
  5
DE
330
6F
100
AcDbEntity
  8
_1-1_寸法2
 62
     7
100
AcDbText
 10
2186.264509388966
 20
703.9126805696643
 30
0.0
 40
24.0
  1
19
 50
90.0
100
AcDbText
  0
LINE
  5
DF
330
6F
100
AcDbEntity
  8
_1-1_寸法2
  6
Continuous
 62
     7
100
AcDbLine
 10
2102.264509388966
 20
817.9126805696643
 30
0.0
 11
2234.264509388967
 21
817.9126805696629
 31
0.0
  0
LINE
  5
E0
330
6F
100
AcDbEntity
  8
_1-1_寸法2
  6
Continuous
 62
     7
100
AcDbLine
 10
2226.264509388967
 20
817.9126805696629
 30
0.0
 11
2230.405614110607
 21
802.4578673490378
 31
0.0
  0
LINE
  5
E1
330
6F
100
AcDbEntity
  8
_1-1_寸法2
  6
Continuous
 62
     7
100
AcDbLine
 10
2226.264509388967
 20
817.9126805696629
 30
0.0
 11
2222.123404667327
 21
802.4578673490378
 31
0.0
  0
LINE
  5
E2
330
6F
100
AcDbEntity
  8
_1-1_寸法2
  6
Continuous
 62
     7
100
AcDbLine
 10
2092.264509388967
 20
677.9126805696641
 30
0.0
 11
2234.264509388967
 21
677.9126805696628
 31
0.0
  0
LINE
  5
E3
330
6F
100
AcDbEntity
  8
_1-1_寸法2
  6
Continuous
 62
     7
100
AcDbLine
 10
2226.264509388967
 20
677.9126805696628
 30
0.0
 11
2222.123404667327
 21
693.3674937902878
 31
0.0
  0
LINE
  5
E4
330
6F
100
AcDbEntity
  8
_1-1_寸法2
  6
Continuous
 62
     7
100
AcDbLine
 10
2226.264509388967
 20
677.9126805696628
 30
0.0
 11
2230.405614110607
 21
693.3674937902878
 31
0.0
  0
LINE
  5
E5
330
6F
100
AcDbEntity
  8
_1-1_寸法2
  6
Continuous
 62
     7
100
AcDbLine
 10
2226.264509388967
 20
817.9126805696629
 30
0.0
 11
2226.264509388967
 21
677.9126805696628
 31
0.0
  0
TEXT
  5
E6
330
6F
100
AcDbEntity
  8
_1-1_寸法2
 62
     7
100
AcDbText
 10
2226.264509388967
 20
733.0178797739846
 30
0.0
 40
24.0
  1
35
 50
90.0
100
AcDbText
  0
LINE
  5
E7
330
6F
100
AcDbEntity
  8
_0-E_極細2
  6
CENTER1
 62
     6
100
AcDbLine
 10
2086.264509388966
 20
753.9126805696643
 30
0.0
 11
1727.225895011629
 21
753.9126805696643
 31
0.0
  0
LINE
  5
E8
330
6F
100
AcDbEntity
  8
_0-F_細線2
  6
Continuous
 62
     3
100
AcDbLine
 10
2086.264509388966
 20
777.9126805696643
 30
0.0
 11
1727.225895011629
 21
777.9126805696643
 31
0.0
  0
LINE
  5
E9
330
6F
100
AcDbEntity
  8
_0-F_細線2
  6
Continuous
 62
     3
100
AcDbLine
 10
1727.225895011629
 20
817.9126805696643
 30
0.0
 11
2086.264509388966
 21
817.9126805696643
 31
0.0
  0
LINE
  5
EA
330
6F
100
AcDbEntity
  8
_0-F_細線2
  6
Continuous
 62
     3
100
AcDbLine
 10
2086.264509388966
 20
817.9126805696643
 30
0.0
 11
2086.264509388966
 21
777.9126805696643
 31
0.0
  0
LINE
  5
EB
330
6F
100
AcDbEntity
  8
_0-F_細線2
  6
DASHED2
 62
     3
100
AcDbLine
 10
1788.264509388966
 20
679.9126805696642
 30
0.0
 11
1727.225895011629
 21
679.9126805696642
 31
0.0
  0
LINE
  5
EC
330
6F
100
AcDbEntity
  8
_0-F_細線2
  6
DASHED2
 62
     3
100
AcDbLine
 10
1727.225895011629
 20
677.9126805696641
 30
0.0
 11
1964.264509388966
 21
677.9126805696641
 31
0.0
  0
LINE
  5
ED
330
6F
100
AcDbEntity
  8
_0-F_細線2
  6
DASHED2
 62
     3
100
AcDbLine
 10
1727.225895011629
 20
775.9126805696642
 30
0.0
 11
1788.264509388966
 21
775.9126805696642
 31
0.0
  0
ARC
  5
EE
330
6F
100
AcDbEntity
  8
_0-F_細線2
  6
DASHED2
 62
     3
100
AcDbCircle
 10
1964.264509388966
 20
685.9126805696641
 30
0.0
 40
8.0
100
AcDbArc
 50
269.9999999999997
 51
0.0000000000004579
  0
LINE
  5
EF
330
6F
100
AcDbEntity
  8
_0-F_細線2
  6
DASHED2
 62
     3
100
AcDbLine
 10
1972.264509388966
 20
685.9126805696641
 30
0.0
 11
1972.264509388966
 21
777.9126805696643
 31
0.0
  0
LINE
  5
F0
330
6F
100
AcDbEntity
  8
_0-F_細線2
  6
DASHED2
 62
     3
100
AcDbLine
 10
1788.264509388966
 20
775.9126805696642
 30
0.0
 11
1788.264509388966
 21
679.9126805696642
 31
0.0
  0
LINE
  5
F1
330
6F
100
AcDbEntity
  8
_0-F_細線2
  6
Continuous
 62
     3
100
AcDbLine
 10
2076.264509388966
 20
677.9126805696641
 30
0.0
 11
2076.264509388966
 21
777.9126805696643
 31
0.0
  0
TEXT
  5
F2
330
6F
100
AcDbEntity
  8
_0-7_枠細線
 62
     5
100
AcDbText
 10
1826.67406304446
 20
620.2944601046779
 30
0.0
 40
32.0
  1
Ｂ部拡大図（１：２）
 41
0.8
100
AcDbText
  0
LINE
  5
F3
330
6F
100
AcDbEntity
  8
_1-1_寸法2
  6
Continuous
 62
     7
100
AcDbLine
 10
2102.264509388966
 20
485.4362563615445
 30
0.0
 11
2154.264509388966
 21
485.436256361544
 31
0.0
  0
LINE
  5
F4
330
6F
100
AcDbEntity
  8
_1-1_寸法2
  6
Continuous
 62
     7
100
AcDbLine
 10
2146.264509388966
 20
485.436256361544
 30
0.0
 11
2150.405614110606
 21
469.981443140919
 31
0.0
  0
LINE
  5
F5
330
6F
100
AcDbEntity
  8
_1-1_寸法2
  6
Continuous
 62
     7
100
AcDbLine
 10
2146.264509388966
 20
485.436256361544
 30
0.0
 11
2142.123404667326
 21
469.981443140919
 31
0.0
  0
LINE
  5
F6
330
6F
100
AcDbEntity
  8
_1-1_寸法2
  6
Continuous
 62
     7
100
AcDbLine
 10
2102.264509388966
 20
445.4362563615445
 30
0.0
 11
2154.264509388966
 21
445.436256361544
 31
0.0
  0
LINE
  5
F7
330
6F
100
AcDbEntity
  8
_1-1_寸法2
  6
Continuous
 62
     7
100
AcDbLine
 10
2146.264509388966
 20
445.436256361544
 30
0.0
 11
2142.123404667326
 21
460.8910695821691
 31
0.0
  0
LINE
  5
F8
330
6F
100
AcDbEntity
  8
_1-1_寸法2
  6
Continuous
 62
     7
100
AcDbLine
 10
2146.264509388966
 20
445.436256361544
 30
0.0
 11
2150.405614110606
 21
460.8910695821691
 31
0.0
  0
LINE
  5
F9
330
6F
100
AcDbEntity
  8
_1-1_寸法2
  6
Continuous
 62
     7
100
AcDbLine
 10
2146.264509388966
 20
485.436256361544
 30
0.0
 11
2146.264509388966
 21
445.436256361544
 31
0.0
  0
TEXT
  5
FA
330
6F
100
AcDbEntity
  8
_1-1_寸法2
 62
     7
100
AcDbText
 10
2146.264509388966
 20
456.3303799825807
 30
0.0
 40
24.0
  1
10
 50
90.0
100
AcDbText
  0
LINE
  5
FB
330
6F
100
AcDbEntity
  8
_1-1_寸法2
  6
Continuous
 62
     7
100
AcDbLine
 10
2102.264509388966
 20
445.4362563615445
 30
0.0
 11
2194.264509388966
 21
445.4362563615442
 31
0.0
  0
LINE
  5
FC
330
6F
100
AcDbEntity
  8
_1-1_寸法2
  6
Continuous
 62
     7
100
AcDbLine
 10
2186.264509388966
 20
445.4362563615442
 30
0.0
 11
2182.123404667326
 21
460.8910695821692
 31
0.0
  0
LINE
  5
FD
330
6F
100
AcDbEntity
  8
_1-1_寸法2
  6
Continuous
 62
     7
100
AcDbLine
 10
2186.264509388966
 20
445.4362563615442
 30
0.0
 11
2190.405614110606
 21
460.8910695821692
 31
0.0
  0
LINE
  5
FE
330
6F
100
AcDbEntity
  8
_1-1_寸法2
  6
Continuous
 62
     7
100
AcDbLine
 10
2092.264509388966
 20
545.4362563615445
 30
0.0
 11
2194.264509388966
 21
545.4362563615442
 31
0.0
  0
LINE
  5
FF
330
6F
100
AcDbEntity
  8
_1-1_寸法2
  6
Continuous
 62
     7
100
AcDbLine
 10
2186.264509388966
 20
545.4362563615442
 30
0.0
 11
2190.405614110606
 21
529.9814431409191
 31
0.0
  0
LINE
  5
100
330
6F
100
AcDbEntity
  8
_1-1_寸法2
  6
Continuous
 62
     7
100
AcDbLine
 10
2186.264509388966
 20
545.4362563615442
 30
0.0
 11
2182.123404667326
 21
529.9814431409191
 31
0.0
  0
LINE
  5
101
330
6F
100
AcDbEntity
  8
_1-1_寸法2
  6
Continuous
 62
     7
100
AcDbLine
 10
2186.264509388966
 20
445.4362563615442
 30
0.0
 11
2186.264509388966
 21
545.4362563615442
 31
0.0
  0
TEXT
  5
102
330
6F
100
AcDbEntity
  8
_1-1_寸法2
 62
     7
100
AcDbText
 10
2186.264509388966
 20
483.4362563615441
 30
0.0
 40
24.0
  1
25
 50
90.0
100
AcDbText
  0
LINE
  5
103
330
6F
100
AcDbEntity
  8
_1-1_寸法2
  6
Continuous
 62
     7
100
AcDbLine
 10
2186.264509388966
 20
545.4362563615442
 30
0.0
 11
2182.123404667326
 21
560.8910695821692
 31
0.0
  0
LINE
  5
104
330
6F
100
AcDbEntity
  8
_1-1_寸法2
  6
Continuous
 62
     7
100
AcDbLine
 10
2186.264509388966
 20
545.4362563615442
 30
0.0
 11
2190.405614110606
 21
560.8910695821692
 31
0.0
  0
LINE
  5
105
330
6F
100
AcDbEntity
  8
_1-1_寸法2
  6
Continuous
 62
     7
100
AcDbLine
 10
2092.264509388966
 20
585.4362563615445
 30
0.0
 11
2194.264509388966
 21
585.4362563615441
 31
0.0
  0
LINE
  5
106
330
6F
100
AcDbEntity
  8
_1-1_寸法2
  6
Continuous
 62
     7
100
AcDbLine
 10
2186.264509388966
 20
585.4362563615441
 30
0.0
 11
2190.405614110606
 21
569.9814431409191
 31
0.0
  0
LINE
  5
107
330
6F
100
AcDbEntity
  8
_1-1_寸法2
  6
Continuous
 62
     7
100
AcDbLine
 10
2186.264509388966
 20
585.4362563615441
 30
0.0
 11
2182.123404667326
 21
569.9814431409192
 31
0.0
  0
LINE
  5
108
330
6F
100
AcDbEntity
  8
_1-1_寸法2
  6
Continuous
 62
     7
100
AcDbLine
 10
2186.264509388966
 20
545.4362563615442
 30
0.0
 11
2186.264509388966
 21
585.4362563615441
 31
0.0
  0
TEXT
  5
109
330
6F
100
AcDbEntity
  8
_1-1_寸法2
 62
     7
100
AcDbText
 10
2186.264509388966
 20
553.4362563615442
 30
0.0
 40
24.0
  1
10
 50
90.0
100
AcDbText
  0
LINE
  5
10A
330
6F
100
AcDbEntity
  8
_1-1_寸法2
  6
Continuous
 62
     7
100
AcDbLine
 10
2092.264509388964
 20
585.4362563615445
 30
0.0
 11
2234.264509388967
 21
585.436256361543
 31
0.0
  0
LINE
  5
10B
330
6F
100
AcDbEntity
  8
_1-1_寸法2
  6
Continuous
 62
     7
100
AcDbLine
 10
2226.264509388967
 20
585.4362563615433
 30
0.0
 11
2230.405614110607
 21
569.9814431409181
 31
0.0
  0
LINE
  5
10C
330
6F
100
AcDbEntity
  8
_1-1_寸法2
  6
Continuous
 62
     7
100
AcDbLine
 10
2226.264509388967
 20
585.4362563615433
 30
0.0
 11
2222.123404667327
 21
569.9814431409181
 31
0.0
  0
LINE
  5
10D
330
6F
100
AcDbEntity
  8
_1-1_寸法2
  6
Continuous
 62
     7
100
AcDbLine
 10
2102.264509388966
 20
445.4362563615445
 30
0.0
 11
2234.264509388967
 21
445.4362563615432
 31
0.0
  0
LINE
  5
10E
330
6F
100
AcDbEntity
  8
_1-1_寸法2
  6
Continuous
 62
     7
100
AcDbLine
 10
2226.264509388967
 20
445.4362563615432
 30
0.0
 11
2222.123404667327
 21
460.8910695821683
 31
0.0
  0
LINE
  5
10F
330
6F
100
AcDbEntity
  8
_1-1_寸法2
  6
Continuous
 62
     7
100
AcDbLine
 10
2226.264509388967
 20
445.4362563615432
 30
0.0
 11
2230.405614110607
 21
460.8910695821683
 31
0.0
  0
LINE
  5
110
330
6F
100
AcDbEntity
  8
_1-1_寸法2
  6
Continuous
 62
     7
100
AcDbLine
 10
2226.264509388967
 20
585.4362563615433
 30
0.0
 11
2226.264509388967
 21
445.4362563615432
 31
0.0
  0
TEXT
  5
111
330
6F
100
AcDbEntity
  8
_1-1_寸法2
 62
     7
100
AcDbText
 10
2226.264509388967
 20
501.8116078085877
 30
0.0
 40
24.0
  1
35
 50
90.0
100
AcDbText
  0
LINE
  5
112
330
6F
100
AcDbEntity
  8
_0-E_極細2
  6
CENTER1
 62
     6
100
AcDbLine
 10
2086.264509388966
 20
545.4362563615445
 30
0.0
 11
1727.225895011629
 21
545.4362563615445
 31
0.0
  0
LINE
  5
113
330
6F
100
AcDbEntity
  8
_0-F_細線2
  6
Continuous
 62
     3
100
AcDbLine
 10
1727.225895011629
 20
445.4362563615446
 30
0.0
 11
2086.264509388966
 21
445.4362563615446
 31
0.0
  0
LINE
  5
114
330
6F
100
AcDbEntity
  8
_0-F_細線2
  6
Continuous
 62
     3
100
AcDbLine
 10
2086.264509388966
 20
485.4362563615445
 30
0.0
 11
1727.225895011629
 21
485.4362563615445
 31
0.0
  0
LINE
  5
115
330
6F
100
AcDbEntity
  8
_0-F_細線2
  6
Continuous
 62
     3
100
AcDbLine
 10
2086.264509388966
 20
445.4362563615446
 30
0.0
 11
2086.264509388966
 21
485.4362563615445
 31
0.0
  0
LINE
  5
116
330
6F
100
AcDbEntity
  8
_0-F_細線2
  6
DASHED2
 62
     3
100
AcDbLine
 10
1788.264509388967
 20
487.4362563615446
 30
0.0
 11
1727.225895011629
 21
487.4362563615446
 31
0.0
  0
LINE
  5
117
330
6F
100
AcDbEntity
  8
_0-F_細線2
  6
DASHED2
 62
     3
100
AcDbLine
 10
1727.225895011629
 20
583.4362563615444
 30
0.0
 11
1788.264509388967
 21
583.4362563615444
 31
0.0
  0
LINE
  5
118
330
6F
100
AcDbEntity
  8
_0-F_細線2
  6
DASHED2
 62
     3
100
AcDbLine
 10
1727.225895011629
 20
585.4362563615445
 30
0.0
 11
1964.264509388966
 21
585.4362563615445
 31
0.0
  0
ARC
  5
119
330
6F
100
AcDbEntity
  8
_0-F_細線2
  6
DASHED2
 62
     3
100
AcDbCircle
 10
1964.264509388966
 20
577.4362563615444
 30
0.0
 40
8.0
100
AcDbArc
 50
0.0
 51
89.99999999999991
  0
LINE
  5
11A
330
6F
100
AcDbEntity
  8
_0-F_細線2
  6
DASHED2
 62
     3
100
AcDbLine
 10
1972.264509388966
 20
577.4362563615444
 30
0.0
 11
1972.264509388966
 21
485.4362563615445
 31
0.0
  0
LINE
  5
11B
330
6F
100
AcDbEntity
  8
_0-F_細線2
  6
DASHED2
 62
     3
100
AcDbLine
 10
1788.264509388967
 20
583.4362563615444
 30
0.0
 11
1788.264509388967
 21
487.4362563615446
 31
0.0
  0
LINE
  5
11C
330
6F
100
AcDbEntity
  8
_0-F_細線2
  6
Continuous
 62
     3
100
AcDbLine
 10
2076.264509388964
 20
585.4362563615445
 30
0.0
 11
2076.264509388964
 21
485.4362563615445
 31
0.0
  0
TEXT
  5
11D
330
6F
100
AcDbEntity
  8
_0-7_枠細線
 62
     5
100
AcDbText
 10
1826.67406304446
 20
335.962567318341
 30
0.0
 40
32.0
  1
Ｃ部拡大図（１：２）
 41
0.8
100
AcDbText
  0
TEXT
  5
11E
330
6F
100
AcDbEntity
  8
_0-7_枠細線
 62
     5
100
AcDbText
 10
2096.0
 20
107.9999999999998
 30
0.0
 40
24.0
  1
２０１１年０５月１０日
 41
0.55
100
AcDbText
  0
TEXT
  5
11F
330
6F
100
AcDbEntity
  8
_0-7_枠細線
 62
     5
100
AcDbText
 10
1853.563300403308
 20
973.8739367101937
 30
0.0
 40
32.0
  1
Ａ－Ａ\U+2019断面図（１：１）
 41
0.8
100
AcDbText
  0
LINE
  5
120
330
6F
100
AcDbEntity
  8
_0-B_細線1
  6
Continuous
 62
     7
100
AcDbLine
 10
1961.756624050974
 20
1073.104443382253
 30
0.0
 11
1961.756624050974
 21
1025.061521957799
 31
0.0
  0
LINE
  5
121
330
6F
100
AcDbEntity
  8
_0-B_細線1
  6
Continuous
 62
     7
100
AcDbLine
 10
1921.756624050975
 20
1373.104443382254
 30
0.0
 11
1921.756624050975
 21
1025.061987382253
 31
0.0
  0
LINE
  5
122
330
6F
100
AcDbEntity
  8
_0-B_細線1
  6
Continuous
 62
     7
100
AcDbLine
 10
1961.756624050974
 20
1073.104443382253
 30
0.0
 11
1921.756624050975
 21
1073.104443382253
 31
0.0
  0
LINE
  5
123
330
6F
100
AcDbEntity
  8
_0-B_細線1
  6
Continuous
 62
     7
100
AcDbLine
 10
1905.756624050975
 20
1373.104443382254
 30
0.0
 11
1921.756624050975
 21
1373.104443382254
 31
0.0
  0
LINE
  5
124
330
6F
100
AcDbEntity
  8
_0-A_極細1
  6
Continuous
 62
     7
100
AcDbLine
 10
1921.756624039699
 20
1369.414771894611
 30
0.0
 11
1918.066952552056
 21
1373.104443382254
 31
0.0
  0
LINE
  5
125
330
6F
100
AcDbEntity
  8
_0-A_極細1
  6
Continuous
 62
     7
100
AcDbLine
 10
1921.756624022412
 20
1363.757917662406
 30
0.0
 11
1912.410098302564
 21
1373.104443382254
 31
0.0
  0
LINE
  5
126
330
6F
100
AcDbEntity
  8
_0-A_極細1
  6
Continuous
 62
     7
100
AcDbLine
 10
1921.756624005124
 20
1358.101063430201
 30
0.0
 11
1906.753244053071
 21
1373.104443382254
 31
0.0
  0
LINE
  5
127
330
6F
100
AcDbEntity
  8
_0-A_極細1
  6
Continuous
 62
     7
100
AcDbLine
 10
1921.756623987837
 20
1352.444209197996
 30
0.0
 11
1905.756624050975
 21
1368.444209134858
 31
0.0
  0
LINE
  5
128
330
6F
100
AcDbEntity
  8
_0-A_極細1
  6
Continuous
 62
     7
100
AcDbLine
 10
1921.756623970549
 20
1346.787354965791
 30
0.0
 11
1905.756624050975
 21
1362.787354885366
 31
0.0
  0
LINE
  5
129
330
6F
100
AcDbEntity
  8
_0-A_極細1
  6
Continuous
 62
     7
100
AcDbLine
 10
1921.756623953262
 20
1341.130500733586
 30
0.0
 11
1905.756624050975
 21
1357.130500635874
 31
0.0
  0
LINE
  5
12A
330
6F
100
AcDbEntity
  8
_0-A_極細1
  6
Continuous
 62
     7
100
AcDbLine
 10
1921.756623935975
 20
1335.473646501381
 30
0.0
 11
1905.756624050975
 21
1351.473646386381
 31
0.0
  0
LINE
  5
12B
330
6F
100
AcDbEntity
  8
_0-A_極細1
  6
Continuous
 62
     7
100
AcDbLine
 10
1921.756623918688
 20
1329.816792269175
 30
0.0
 11
1905.756624050975
 21
1345.816792136888
 31
0.0
  0
LINE
  5
12C
330
6F
100
AcDbEntity
  8
_0-A_極細1
  6
Continuous
 62
     7
100
AcDbLine
 10
1921.7566239014
 20
1324.15993803697
 30
0.0
 11
1905.756624050975
 21
1340.159937887396
 31
0.0
  0
LINE
  5
12D
330
6F
100
AcDbEntity
  8
_0-A_極細1
  6
Continuous
 62
     7
100
AcDbLine
 10
1921.756623884112
 20
1318.503083804765
 30
0.0
 11
1905.756624050975
 21
1334.503083637903
 31
0.0
  0
LINE
  5
12E
330
6F
100
AcDbEntity
  8
_0-A_極細1
  6
Continuous
 62
     7
100
AcDbLine
 10
1921.756623866826
 20
1312.84622957256
 30
0.0
 11
1905.756624050975
 21
1328.846229388412
 31
0.0
  0
LINE
  5
12F
330
6F
100
AcDbEntity
  8
_0-A_極細1
  6
Continuous
 62
     7
100
AcDbLine
 10
1921.756623849539
 20
1307.189375340355
 30
0.0
 11
1905.756624050975
 21
1323.189375138919
 31
0.0
  0
LINE
  5
130
330
6F
100
AcDbEntity
  8
_0-A_極細1
  6
Continuous
 62
     7
100
AcDbLine
 10
1921.756623832251
 20
1301.53252110815
 30
0.0
 11
1905.756624050975
 21
1317.532520889426
 31
0.0
  0
LINE
  5
131
330
6F
100
AcDbEntity
  8
_0-A_極細1
  6
Continuous
 62
     7
100
AcDbLine
 10
1921.756623814964
 20
1295.875666875945
 30
0.0
 11
1905.756624050975
 21
1311.875666639934
 31
0.0
  0
LINE
  5
132
330
6F
100
AcDbEntity
  8
_0-A_極細1
  6
Continuous
 62
     7
100
AcDbLine
 10
1921.756623797676
 20
1290.21881264374
 30
0.0
 11
1905.756624050975
 21
1306.218812390442
 31
0.0
  0
LINE
  5
133
330
6F
100
AcDbEntity
  8
_0-A_極細1
  6
Continuous
 62
     7
100
AcDbLine
 10
1921.756623780389
 20
1284.561958411535
 30
0.0
 11
1905.756624050975
 21
1300.561958140949
 31
0.0
  0
LINE
  5
134
330
6F
100
AcDbEntity
  8
_0-A_極細1
  6
Continuous
 62
     7
100
AcDbLine
 10
1921.756623763102
 20
1278.90510417933
 30
0.0
 11
1905.756624050975
 21
1294.905103891457
 31
0.0
  0
LINE
  5
135
330
6F
100
AcDbEntity
  8
_0-A_極細1
  6
Continuous
 62
     7
100
AcDbLine
 10
1921.756623745815
 20
1273.248249947125
 30
0.0
 11
1905.756624050975
 21
1289.248249641965
 31
0.0
  0
LINE
  5
136
330
6F
100
AcDbEntity
  8
_0-A_極細1
  6
Continuous
 62
     7
100
AcDbLine
 10
1921.756623728527
 20
1267.591395714919
 30
0.0
 11
1905.756624050975
 21
1283.591395392472
 31
0.0
  0
LINE
  5
137
330
6F
100
AcDbEntity
  8
_0-A_極細1
  6
Continuous
 62
     7
100
AcDbLine
 10
1921.75662371124
 20
1261.934541482714
 30
0.0
 11
1905.756624050975
 21
1277.93454114298
 31
0.0
  0
LINE
  5
138
330
6F
100
AcDbEntity
  8
_0-A_極細1
  6
Continuous
 62
     7
100
AcDbLine
 10
1921.756623693952
 20
1256.277687250509
 30
0.0
 11
1905.756624050975
 21
1272.277686893487
 31
0.0
  0
LINE
  5
139
330
6F
100
AcDbEntity
  8
_0-A_極細1
  6
Continuous
 62
     7
100
AcDbLine
 10
1921.756623676665
 20
1250.620833018304
 30
0.0
 11
1905.756624050975
 21
1266.620832643995
 31
0.0
  0
LINE
  5
13A
330
6F
100
AcDbEntity
  8
_0-A_極細1
  6
Continuous
 62
     7
100
AcDbLine
 10
1921.756623659378
 20
1244.963978786099
 30
0.0
 11
1905.756624050975
 21
1260.963978394503
 31
0.0
  0
LINE
  5
13B
330
6F
100
AcDbEntity
  8
_0-A_極細1
  6
Continuous
 62
     7
100
AcDbLine
 10
1921.756623642091
 20
1239.307124553894
 30
0.0
 11
1905.756624050975
 21
1255.30712414501
 31
0.0
  0
LINE
  5
13C
330
6F
100
AcDbEntity
  8
_0-A_極細1
  6
Continuous
 62
     7
100
AcDbLine
 10
1921.756623624803
 20
1233.650270321689
 30
0.0
 11
1905.756624050975
 21
1249.650269895518
 31
0.0
  0
LINE
  5
13D
330
6F
100
AcDbEntity
  8
_0-A_極細1
  6
Continuous
 62
     7
100
AcDbLine
 10
1921.756623607516
 20
1227.993416089484
 30
0.0
 11
1905.756624050975
 21
1243.993415646025
 31
0.0
  0
LINE
  5
13E
330
6F
100
AcDbEntity
  8
_0-A_極細1
  6
Continuous
 62
     7
100
AcDbLine
 10
1921.756623590229
 20
1222.336561857279
 30
0.0
 11
1905.756624050975
 21
1238.336561396533
 31
0.0
  0
LINE
  5
13F
330
6F
100
AcDbEntity
  8
_0-A_極細1
  6
Continuous
 62
     7
100
AcDbLine
 10
1921.756623572941
 20
1216.679707625074
 30
0.0
 11
1905.756624050975
 21
1232.679707147041
 31
0.0
  0
LINE
  5
140
330
6F
100
AcDbEntity
  8
_0-A_極細1
  6
Continuous
 62
     7
100
AcDbLine
 10
1921.756623555654
 20
1211.022853392869
 30
0.0
 11
1905.756624050975
 21
1227.022852897548
 31
0.0
  0
LINE
  5
141
330
6F
100
AcDbEntity
  8
_0-A_極細1
  6
Continuous
 62
     7
100
AcDbLine
 10
1921.756623538367
 20
1205.365999160664
 30
0.0
 11
1905.756624050975
 21
1221.365998648056
 31
0.0
  0
LINE
  5
142
330
6F
100
AcDbEntity
  8
_0-A_極細1
  6
Continuous
 62
     7
100
AcDbLine
 10
1921.75662352108
 20
1199.709144928459
 30
0.0
 11
1905.756624050975
 21
1215.709144398563
 31
0.0
  0
LINE
  5
143
330
6F
100
AcDbEntity
  8
_0-A_極細1
  6
Continuous
 62
     7
100
AcDbLine
 10
1905.756624050975
 20
1210.052290149071
 30
0.0
 11
1921.756623503792
 21
1194.052290696253
 31
0.0
  0
LINE
  5
144
330
6F
100
AcDbEntity
  8
_0-A_極細1
  6
Continuous
 62
     7
100
AcDbLine
 10
1905.756624050975
 20
1204.395435899578
 30
0.0
 11
1921.756623486505
 21
1188.395436464048
 31
0.0
  0
LINE
  5
145
330
6F
100
AcDbEntity
  8
_0-A_極細1
  6
Continuous
 62
     7
100
AcDbLine
 10
1905.756624050975
 20
1198.738581650086
 30
0.0
 11
1921.756623469218
 21
1182.738582231844
 31
0.0
  0
LINE
  5
146
330
6F
100
AcDbEntity
  8
_0-A_極細1
  6
Continuous
 62
     7
100
AcDbLine
 10
1905.756624050975
 20
1193.081727400594
 30
0.0
 11
1921.756623451931
 21
1177.081727999638
 31
0.0
  0
LINE
  5
147
330
6F
100
AcDbEntity
  8
_0-A_極細1
  6
Continuous
 62
     7
100
AcDbLine
 10
1905.756624050975
 20
1187.424873151102
 30
0.0
 11
1921.756623434643
 21
1171.424873767433
 31
0.0
  0
LINE
  5
148
330
6F
100
AcDbEntity
  8
_0-A_極細1
  6
Continuous
 62
     7
100
AcDbLine
 10
1905.756624050975
 20
1181.768018901609
 30
0.0
 11
1921.756623417356
 21
1165.768019535228
 31
0.0
  0
LINE
  5
149
330
6F
100
AcDbEntity
  8
_0-A_極細1
  6
Continuous
 62
     7
100
AcDbLine
 10
1905.756624050975
 20
1176.111164652116
 30
0.0
 11
1921.756623400068
 21
1160.111165303023
 31
0.0
  0
LINE
  5
14A
330
6F
100
AcDbEntity
  8
_0-A_極細1
  6
Continuous
 62
     7
100
AcDbLine
 10
1905.756624050975
 20
1170.454310402624
 30
0.0
 11
1921.756623382781
 21
1154.454311070818
 31
0.0
  0
LINE
  5
14B
330
6F
100
AcDbEntity
  8
_0-A_極細1
  6
Continuous
 62
     7
100
AcDbLine
 10
1905.756624050975
 20
1164.797456153132
 30
0.0
 11
1921.756623365493
 21
1148.797456838613
 31
0.0
  0
LINE
  5
14C
330
6F
100
AcDbEntity
  8
_0-A_極細1
  6
Continuous
 62
     7
100
AcDbLine
 10
1905.756624050975
 20
1159.140601903639
 30
0.0
 11
1921.756623348206
 21
1143.140602606408
 31
0.0
  0
LINE
  5
14D
330
6F
100
AcDbEntity
  8
_0-A_極細1
  6
Continuous
 62
     7
100
AcDbLine
 10
1905.756624050975
 20
1153.483747654147
 30
0.0
 11
1921.756623330919
 21
1137.483748374203
 31
0.0
  0
LINE
  5
14E
330
6F
100
AcDbEntity
  8
_0-A_極細1
  6
Continuous
 62
     7
100
AcDbLine
 10
1905.756624050974
 20
1147.826893404655
 30
0.0
 11
1921.756623313632
 21
1131.826894141998
 31
0.0
  0
LINE
  5
14F
330
6F
100
AcDbEntity
  8
_0-A_極細1
  6
Continuous
 62
     7
100
AcDbLine
 10
1905.756624050975
 20
1142.170039155162
 30
0.0
 11
1921.756623296344
 21
1126.170039909792
 31
0.0
  0
LINE
  5
150
330
6F
100
AcDbEntity
  8
_0-A_極細1
  6
Continuous
 62
     7
100
AcDbLine
 10
1905.756624050975
 20
1136.51318490567
 30
0.0
 11
1921.756623279057
 21
1120.513185677587
 31
0.0
  0
LINE
  5
151
330
6F
100
AcDbEntity
  8
_0-A_極細1
  6
Continuous
 62
     7
100
AcDbLine
 10
1905.756624050974
 20
1130.856330656178
 30
0.0
 11
1921.75662326177
 21
1114.856331445382
 31
0.0
  0
LINE
  5
152
330
6F
100
AcDbEntity
  8
_0-A_極細1
  6
Continuous
 62
     7
100
AcDbLine
 10
1905.756624050975
 20
1125.199476406685
 30
0.0
 11
1921.756623244482
 21
1109.199477213177
 31
0.0
  0
LINE
  5
153
330
6F
100
AcDbEntity
  8
_0-A_極細1
  6
Continuous
 62
     7
100
AcDbLine
 10
1905.756624050974
 20
1119.542622157193
 30
0.0
 11
1921.756623227195
 21
1103.542622980972
 31
0.0
  0
LINE
  5
154
330
6F
100
AcDbEntity
  8
_0-A_極細1
  6
Continuous
 62
     7
100
AcDbLine
 10
1905.756624050975
 20
1113.8857679077
 30
0.0
 11
1921.756623209908
 21
1097.885768748767
 31
0.0
  0
LINE
  5
155
330
6F
100
AcDbEntity
  8
_0-A_極細1
  6
Continuous
 62
     7
100
AcDbLine
 10
1905.756624050975
 20
1108.228913658208
 30
0.0
 11
1921.756623192621
 21
1092.228914516562
 31
0.0
  0
LINE
  5
156
330
6F
100
AcDbEntity
  8
_0-A_極細1
  6
Continuous
 62
     7
100
AcDbLine
 10
1905.756624050974
 20
1102.572059408716
 30
0.0
 11
1921.756623175333
 21
1086.572060284357
 31
0.0
  0
LINE
  5
157
330
6F
100
AcDbEntity
  8
_0-A_極細1
  6
Continuous
 62
     7
100
AcDbLine
 10
1905.756624050975
 20
1096.915205159223
 30
0.0
 11
1921.756623158046
 21
1080.915206052152
 31
0.0
  0
LINE
  5
158
330
6F
100
AcDbEntity
  8
_0-A_極細1
  6
Continuous
 62
     7
100
AcDbLine
 10
1905.756624050974
 20
1091.258350909731
 30
0.0
 11
1921.756623140758
 21
1075.258351819947
 31
0.0
  0
LINE
  5
159
330
6F
100
AcDbEntity
  8
_0-A_極細1
  6
Continuous
 62
     7
100
AcDbLine
 10
1905.756624050975
 20
1085.601496660238
 30
0.0
 11
1921.756623123471
 21
1069.601497587742
 31
0.0
  0
LINE
  5
15A
330
6F
100
AcDbEntity
  8
_0-A_極細1
  6
Continuous
 62
     7
100
AcDbLine
 10
1905.756624050975
 20
1079.944642410746
 30
0.0
 11
1921.756623106184
 21
1063.944643355537
 31
0.0
  0
LINE
  5
15B
330
6F
100
AcDbEntity
  8
_0-A_極細1
  6
Continuous
 62
     7
100
AcDbLine
 10
1905.756624050974
 20
1074.287788161254
 30
0.0
 11
1921.756623088897
 21
1058.287789123331
 31
0.0
  0
LINE
  5
15C
330
6F
100
AcDbEntity
  8
_0-A_極細1
  6
Continuous
 62
     7
100
AcDbLine
 10
1905.756624050975
 20
1068.630933911761
 30
0.0
 11
1921.756623071609
 21
1052.630934891126
 31
0.0
  0
LINE
  5
15D
330
6F
100
AcDbEntity
  8
_0-A_極細1
  6
Continuous
 62
     7
100
AcDbLine
 10
1905.756624050974
 20
1062.974079662269
 30
0.0
 11
1921.756623054322
 21
1046.974080658922
 31
0.0
  0
LINE
  5
15E
330
6F
100
AcDbEntity
  8
_0-A_極細1
  6
Continuous
 62
     7
100
AcDbLine
 10
1905.756624050974
 20
1057.317225412777
 30
0.0
 11
1921.756623037035
 21
1041.317226426716
 31
0.0
  0
LINE
  5
15F
330
6F
100
AcDbEntity
  8
_0-A_極細1
  6
Continuous
 62
     7
100
AcDbLine
 10
1905.756624050974
 20
1051.660371163284
 30
0.0
 11
1921.756623019748
 21
1035.660372194511
 31
0.0
  0
LINE
  5
160
330
6F
100
AcDbEntity
  8
_0-A_極細1
  6
Continuous
 62
     7
100
AcDbLine
 10
1905.756624050974
 20
1046.003516913792
 30
0.0
 11
1921.75662300246
 21
1030.003517962306
 31
0.0
  0
LINE
  5
161
330
6F
100
AcDbEntity
  8
_0-A_極細1
  6
Continuous
 62
     7
100
AcDbLine
 10
1905.756624050975
 20
1040.346662664299
 30
0.0
 11
1921.04129933302
 21
1025.061987382253
 31
0.0
  0
LINE
  5
162
330
6F
100
AcDbEntity
  8
_0-A_極細1
  6
Continuous
 62
     7
100
AcDbLine
 10
1905.756624050974
 20
1034.689808414807
 30
0.0
 11
1915.384445083529
 21
1025.061987382253
 31
0.0
  0
LINE
  5
163
330
6F
100
AcDbEntity
  8
_0-A_極細1
  6
Continuous
 62
     7
100
AcDbLine
 10
1905.756624050974
 20
1029.032954165315
 30
0.0
 11
1909.727590834037
 21
1025.061987382253
 31
0.0
  0
LINE
  5
164
330
6F
100
AcDbEntity
  8
_0-A_極細1
  6
Continuous
 62
     7
100
AcDbLine
 10
1956.226471844033
 20
1025.061987382253
 30
0.0
 11
1961.756623784908
 21
1030.592139323128
 31
0.0
  0
LINE
  5
165
330
6F
100
AcDbEntity
  8
_0-A_極細1
  6
Continuous
 62
     7
100
AcDbLine
 10
1950.569617594542
 20
1025.061987382253
 30
0.0
 11
1961.756623820313
 21
1036.248993608024
 31
0.0
  0
LINE
  5
166
330
6F
100
AcDbEntity
  8
_0-A_極細1
  6
Continuous
 62
     7
100
AcDbLine
 10
1944.912763345049
 20
1025.061987382253
 30
0.0
 11
1961.756623855716
 21
1041.905847892921
 31
0.0
  0
LINE
  5
167
330
6F
100
AcDbEntity
  8
_0-A_極細1
  6
Continuous
 62
     7
100
AcDbLine
 10
1939.255909095557
 20
1025.061987382253
 30
0.0
 11
1961.75662389112
 21
1047.562702177816
 31
0.0
  0
LINE
  5
168
330
6F
100
AcDbEntity
  8
_0-A_極細1
  6
Continuous
 62
     7
100
AcDbLine
 10
1933.599054846064
 20
1025.061987382253
 30
0.0
 11
1961.756623926524
 21
1053.219556462712
 31
0.0
  0
LINE
  5
169
330
6F
100
AcDbEntity
  8
_0-A_極細1
  6
Continuous
 62
     7
100
AcDbLine
 10
1927.942200596572
 20
1025.061987382253
 30
0.0
 11
1961.756623961927
 21
1058.876410747608
 31
0.0
  0
LINE
  5
16A
330
6F
100
AcDbEntity
  8
_0-A_極細1
  6
Continuous
 62
     7
100
AcDbLine
 10
1922.28534634708
 20
1025.061987382253
 30
0.0
 11
1961.756623997331
 21
1064.533265032504
 31
0.0
  0
LINE
  5
16B
330
6F
100
AcDbEntity
  8
_0-A_極細1
  6
Continuous
 62
     7
100
AcDbLine
 10
1921.756624050975
 20
1030.190119335641
 30
0.0
 11
1961.756624032734
 21
1070.1901193174
 31
0.0
  0
LINE
  5
16C
330
6F
100
AcDbEntity
  8
_0-A_極細1
  6
Continuous
 62
     7
100
AcDbLine
 10
1921.756624050975
 20
1035.846973585133
 30
0.0
 11
1959.014093848094
 21
1073.104443382253
 31
0.0
  0
LINE
  5
16D
330
6F
100
AcDbEntity
  8
_0-A_極細1
  6
Continuous
 62
     7
100
AcDbLine
 10
1921.756624050975
 20
1041.503827834625
 30
0.0
 11
1953.357239598603
 21
1073.104443382253
 31
0.0
  0
LINE
  5
16E
330
6F
100
AcDbEntity
  8
_0-A_極細1
  6
Continuous
 62
     7
100
AcDbLine
 10
1921.756624050975
 20
1047.160682084118
 30
0.0
 11
1947.70038534911
 21
1073.104443382253
 31
0.0
  0
LINE
  5
16F
330
6F
100
AcDbEntity
  8
_0-A_極細1
  6
Continuous
 62
     7
100
AcDbLine
 10
1921.756624050975
 20
1052.81753633361
 30
0.0
 11
1942.043531099618
 21
1073.104443382253
 31
0.0
  0
LINE
  5
170
330
6F
100
AcDbEntity
  8
_0-A_極細1
  6
Continuous
 62
     7
100
AcDbLine
 10
1921.756624050975
 20
1058.474390583103
 30
0.0
 11
1936.386676850125
 21
1073.104443382253
 31
0.0
  0
LINE
  5
171
330
6F
100
AcDbEntity
  8
_0-A_極細1
  6
Continuous
 62
     7
100
AcDbLine
 10
1921.756624050975
 20
1064.131244832595
 30
0.0
 11
1930.729822600633
 21
1073.104443382253
 31
0.0
  0
LINE
  5
172
330
6F
100
AcDbEntity
  8
_0-A_極細1
  6
Continuous
 62
     7
100
AcDbLine
 10
1921.756624050975
 20
1069.788099082087
 30
0.0
 11
1925.072968351141
 21
1073.104443382253
 31
0.0
  0
LINE
  5
173
330
6F
100
AcDbEntity
  8
_0-B_細線1
  6
Continuous
 62
     7
100
AcDbLine
 10
1921.756624050976
 20
1373.104443382254
 30
0.0
 11
1921.756624050976
 21
1199.504443382255
 31
0.0
  0
LINE
  5
174
330
6F
100
AcDbEntity
  8
_0-B_細線1
  6
Continuous
 62
     7
100
AcDbLine
 10
1953.756624050974
 20
1133.104443382255
 30
0.0
 11
1921.756624050976
 21
1133.104443382255
 31
0.0
  0
LINE
  5
175
330
6F
100
AcDbEntity
  8
_0-B_細線1
  6
Continuous
 62
     7
100
AcDbLine
 10
1953.756624050974
 20
1317.104443382256
 30
0.0
 11
1921.756624050976
 21
1317.104443382256
 31
0.0
  0
LINE
  5
176
330
6F
100
AcDbEntity
  8
_0-D_寸法1
  6
Continuous
 62
     7
100
AcDbLine
 10
1941.003795827468
 20
1032.369013087882
 30
0.0
 11
1952.317504326452
 21
1043.682721586867
 31
0.0
  0
LINE
  5
177
330
6F
100
AcDbEntity
  8
_0-D_寸法1
  6
Continuous
 62
     7
100
AcDbLine
 10
1941.003795827468
 20
1032.369013087882
 30
0.0
 11
1956.458609048093
 21
1036.510117809522
 31
0.0
  0
LINE
  5
178
330
6F
100
AcDbEntity
  8
_0-D_寸法1
  6
Continuous
 62
     7
100
AcDbLine
 10
1941.003795827468
 20
1032.369013087882
 30
0.0
 11
2012.515367148055
 21
1073.656238039995
 31
0.0
  0
LINE
  5
179
330
6F
100
AcDbEntity
  8
_0-D_寸法1
  6
Continuous
 62
     7
100
AcDbLine
 10
2012.515367148055
 20
1073.656238039995
 30
0.0
 11
2194.915367148055
 21
1073.656238039995
 31
0.0
  0
TEXT
  5
17A
330
6F
100
AcDbEntity
  8
_0-D_寸法1
 62
     7
100
AcDbText
 10
2012.515367148055
 20
1073.656238039995
 30
0.0
 40
24.0
  1
発泡Ｐ.Ｅ. ｔ=５.０
 41
0.7999999999999999
100
AcDbText
  0
TEXT
  5
17B
330
6F
100
AcDbEntity
  8
_0-D_寸法1
 62
     7
100
AcDbText
 10
2012.515367148055
 20
1049.656238039995
 30
0.0
 40
24.0
  1
両面テープ付
 41
0.7999999999999999
100
AcDbText
  0
LINE
  5
17C
330
6F
100
AcDbEntity
  8
_0-D_寸法1
  6
Continuous
 62
     7
100
AcDbLine
 10
1914.369721753395
 20
1085.877161236031
 30
0.0
 11
1925.68343025238
 21
1097.190869735016
 31
0.0
  0
LINE
  5
17D
330
6F
100
AcDbEntity
  8
_0-D_寸法1
  6
Continuous
 62
     7
100
AcDbLine
 10
1914.369721753395
 20
1085.877161236031
 30
0.0
 11
1929.82453497402
 21
1090.018265957672
 31
0.0
  0
LINE
  5
17E
330
6F
100
AcDbEntity
  8
_0-D_寸法1
  6
Continuous
 62
     7
100
AcDbLine
 10
1914.369721753395
 20
1085.877161236031
 30
0.0
 11
2012.515367148055
 21
1142.541576024427
 31
0.0
  0
LINE
  5
17F
330
6F
100
AcDbEntity
  8
_0-D_寸法1
  6
Continuous
 62
     7
100
AcDbLine
 10
2012.515367148055
 20
1142.541576024427
 30
0.0
 11
2156.515367148055
 21
1142.541576024427
 31
0.0
  0
TEXT
  5
180
330
6F
100
AcDbEntity
  8
_0-D_寸法1
 62
     7
100
AcDbText
 10
2012.515367148055
 20
1142.541576024427
 30
0.0
 40
24.0
  1
Ｐ.Ｐ. ｔ=２.０
 41
0.7999999999999999
100
AcDbText
  0
LINE
  5
181
330
6F
100
AcDbEntity
  8
_0-B_細線1
  6
Continuous
 62
     7
100
AcDbLine
 10
1905.756624050975
 20
1381.104443382254
 30
0.0
 11
1905.756624050975
 21
1025.061987382253
 31
0.0
  0
LINE
  5
182
330
6F
100
AcDbEntity
  8
_0-B_細線1
  6
Continuous
 62
     7
100
AcDbLine
 10
1893.756624050975
 20
1381.104443382254
 30
0.0
 11
1905.756624050975
 21
1381.104443382254
 31
0.0
  0
LINE
  5
183
330
6F
100
AcDbEntity
  8
_0-B_細線1
  6
Continuous
 62
     7
100
AcDbLine
 10
1893.756624050975
 20
1381.104443382254
 30
0.0
 11
1893.756624050975
 21
1025.061987382253
 31
0.0
  0
LINE
  5
184
330
6F
100
AcDbEntity
  8
_0-A_極細1
  6
Continuous
 62
     7
100
AcDbLine
 10
1904.975421880584
 20
1381.104443382254
 30
0.0
 11
1893.756624050975
 21
1369.885645552646
 31
0.0
  0
LINE
  5
185
330
6F
100
AcDbEntity
  8
_0-A_極細1
  6
Continuous
 62
     7
100
AcDbLine
 10
1893.756624050975
 20
1358.571937053661
 30
0.0
 11
1905.756624048102
 21
1370.571937050788
 31
0.0
  0
LINE
  5
186
330
6F
100
AcDbEntity
  8
_0-A_極細1
  6
Continuous
 62
     7
100
AcDbLine
 10
1893.756624050975
 20
1347.258228554676
 30
0.0
 11
1905.756624038351
 21
1359.258228542051
 31
0.0
  0
LINE
  5
187
330
6F
100
AcDbEntity
  8
_0-A_極細1
  6
Continuous
 62
     7
100
AcDbLine
 10
1893.756624050975
 20
1335.944520055691
 30
0.0
 11
1905.756624028599
 21
1347.944520033315
 31
0.0
  0
LINE
  5
188
330
6F
100
AcDbEntity
  8
_0-A_極細1
  6
Continuous
 62
     7
100
AcDbLine
 10
1893.756624050975
 20
1324.630811556706
 30
0.0
 11
1905.756624018848
 21
1336.630811524579
 31
0.0
  0
LINE
  5
189
330
6F
100
AcDbEntity
  8
_0-A_極細1
  6
Continuous
 62
     7
100
AcDbLine
 10
1893.756624050975
 20
1313.317103057721
 30
0.0
 11
1905.756624009096
 21
1325.317103015843
 31
0.0
  0
LINE
  5
18A
330
6F
100
AcDbEntity
  8
_0-A_極細1
  6
Continuous
 62
     7
100
AcDbLine
 10
1893.756624050975
 20
1302.003394558737
 30
0.0
 11
1905.756623999345
 21
1314.003394507106
 31
0.0
  0
LINE
  5
18B
330
6F
100
AcDbEntity
  8
_0-A_極細1
  6
Continuous
 62
     7
100
AcDbLine
 10
1893.756624050975
 20
1290.689686059752
 30
0.0
 11
1905.756623989593
 21
1302.68968599837
 31
0.0
  0
LINE
  5
18C
330
6F
100
AcDbEntity
  8
_0-A_極細1
  6
Continuous
 62
     7
100
AcDbLine
 10
1893.756624050975
 20
1279.375977560767
 30
0.0
 11
1905.756623979841
 21
1291.375977489633
 31
0.0
  0
LINE
  5
18D
330
6F
100
AcDbEntity
  8
_0-A_極細1
  6
Continuous
 62
     7
100
AcDbLine
 10
1893.756624050975
 20
1268.062269061782
 30
0.0
 11
1905.756623970089
 21
1280.062268980897
 31
0.0
  0
LINE
  5
18E
330
6F
100
AcDbEntity
  8
_0-A_極細1
  6
Continuous
 62
     7
100
AcDbLine
 10
1893.756624050975
 20
1256.748560562797
 30
0.0
 11
1905.756623960338
 21
1268.748560472161
 31
0.0
  0
LINE
  5
18F
330
6F
100
AcDbEntity
  8
_0-A_極細1
  6
Continuous
 62
     7
100
AcDbLine
 10
1893.756624050975
 20
1245.434852063813
 30
0.0
 11
1905.756623950587
 21
1257.434851963424
 31
0.0
  0
LINE
  5
190
330
6F
100
AcDbEntity
  8
_0-A_極細1
  6
Continuous
 62
     7
100
AcDbLine
 10
1893.756624050975
 20
1234.121143564828
 30
0.0
 11
1905.756623940835
 21
1246.121143454688
 31
0.0
  0
LINE
  5
191
330
6F
100
AcDbEntity
  8
_0-A_極細1
  6
Continuous
 62
     7
100
AcDbLine
 10
1893.756624050975
 20
1222.807435065843
 30
0.0
 11
1905.756623931084
 21
1234.807434945952
 31
0.0
  0
LINE
  5
192
330
6F
100
AcDbEntity
  8
_0-A_極細1
  6
Continuous
 62
     7
100
AcDbLine
 10
1893.756624050975
 20
1211.493726566859
 30
0.0
 11
1905.756623921332
 21
1223.493726437216
 31
0.0
  0
LINE
  5
193
330
6F
100
AcDbEntity
  8
_0-A_極細1
  6
Continuous
 62
     7
100
AcDbLine
 10
1893.756624050975
 20
1200.180018067874
 30
0.0
 11
1905.756623911581
 21
1212.180017928479
 31
0.0
  0
LINE
  5
194
330
6F
100
AcDbEntity
  8
_0-A_極細1
  6
Continuous
 62
     7
100
AcDbLine
 10
1893.756624050975
 20
1188.866309568889
 30
0.0
 11
1905.756623901828
 21
1200.866309419743
 31
0.0
  0
LINE
  5
195
330
6F
100
AcDbEntity
  8
_0-A_極細1
  6
Continuous
 62
     7
100
AcDbLine
 10
1893.756624050975
 20
1177.552601069905
 30
0.0
 11
1905.756623892077
 21
1189.552600911007
 31
0.0
  0
LINE
  5
196
330
6F
100
AcDbEntity
  8
_0-A_極細1
  6
Continuous
 62
     7
100
AcDbLine
 10
1893.756624050975
 20
1166.23889257092
 30
0.0
 11
1905.756623882325
 21
1178.23889240227
 31
0.0
  0
LINE
  5
197
330
6F
100
AcDbEntity
  8
_0-A_極細1
  6
Continuous
 62
     7
100
AcDbLine
 10
1893.756624050975
 20
1154.925184071935
 30
0.0
 11
1905.756623872574
 21
1166.925183893534
 31
0.0
  0
LINE
  5
198
330
6F
100
AcDbEntity
  8
_0-A_極細1
  6
Continuous
 62
     7
100
AcDbLine
 10
1893.756624050975
 20
1143.61147557295
 30
0.0
 11
1905.756623862822
 21
1155.611475384798
 31
0.0
  0
LINE
  5
199
330
6F
100
AcDbEntity
  8
_0-A_極細1
  6
Continuous
 62
     7
100
AcDbLine
 10
1893.756624050975
 20
1132.297767073965
 30
0.0
 11
1905.756623853071
 21
1144.297766876061
 31
0.0
  0
LINE
  5
19A
330
6F
100
AcDbEntity
  8
_0-A_極細1
  6
Continuous
 62
     7
100
AcDbLine
 10
1893.756624050975
 20
1120.984058574981
 30
0.0
 11
1905.756623843319
 21
1132.984058367325
 31
0.0
  0
LINE
  5
19B
330
6F
100
AcDbEntity
  8
_0-A_極細1
  6
Continuous
 62
     7
100
AcDbLine
 10
1893.756624050975
 20
1109.670350075996
 30
0.0
 11
1905.756623833568
 21
1121.670349858588
 31
0.0
  0
LINE
  5
19C
330
6F
100
AcDbEntity
  8
_0-A_極細1
  6
Continuous
 62
     7
100
AcDbLine
 10
1893.756624050975
 20
1098.356641577011
 30
0.0
 11
1905.756623823816
 21
1110.356641349852
 31
0.0
  0
LINE
  5
19D
330
6F
100
AcDbEntity
  8
_0-A_極細1
  6
Continuous
 62
     7
100
AcDbLine
 10
1893.756624050975
 20
1087.042933078026
 30
0.0
 11
1905.756623814065
 21
1099.042932841116
 31
0.0
  0
LINE
  5
19E
330
6F
100
AcDbEntity
  8
_0-A_極細1
  6
Continuous
 62
     7
100
AcDbLine
 10
1893.756624050975
 20
1075.729224579042
 30
0.0
 11
1905.756623804313
 21
1087.729224332379
 31
0.0
  0
LINE
  5
19F
330
6F
100
AcDbEntity
  8
_0-A_極細1
  6
Continuous
 62
     7
100
AcDbLine
 10
1893.756624050975
 20
1064.415516080057
 30
0.0
 11
1905.756623794561
 21
1076.415515823643
 31
0.0
  0
LINE
  5
1A0
330
6F
100
AcDbEntity
  8
_0-A_極細1
  6
Continuous
 62
     7
100
AcDbLine
 10
1893.756624050975
 20
1053.101807581072
 30
0.0
 11
1905.756623784809
 21
1065.101807314907
 31
0.0
  0
LINE
  5
1A1
330
6F
100
AcDbEntity
  8
_0-A_極細1
  6
Continuous
 62
     7
100
AcDbLine
 10
1893.756624050975
 20
1041.788099082087
 30
0.0
 11
1905.756623775059
 21
1053.788098806171
 31
0.0
  0
LINE
  5
1A2
330
6F
100
AcDbEntity
  8
_0-A_極細1
  6
Continuous
 62
     7
100
AcDbLine
 10
1893.756624050975
 20
1030.474390583103
 30
0.0
 11
1905.756623765306
 21
1042.474390297434
 31
0.0
  0
LINE
  5
1A3
330
6F
100
AcDbEntity
  8
_0-A_極細1
  6
Continuous
 62
     7
100
AcDbLine
 10
1893.756624050975
 20
1019.160682084119
 30
0.0
 11
1905.756623755555
 21
1031.160681788698
 31
0.0
  0
LINE
  5
1A4
330
6F
100
AcDbEntity
  8
_0-D_寸法1
  6
Continuous
 62
     7
100
AcDbLine
 10
1899.779746647976
 20
1165.528623157488
 30
0.0
 11
1911.093455146961
 21
1176.842331656473
 31
0.0
  0
LINE
  5
1A5
330
6F
100
AcDbEntity
  8
_0-D_寸法1
  6
Continuous
 62
     7
100
AcDbLine
 10
1899.779746647976
 20
1165.528623157488
 30
0.0
 11
1915.234559868601
 21
1169.669727879129
 31
0.0
  0
LINE
  5
1A6
330
6F
100
AcDbEntity
  8
_0-D_寸法1
  6
Continuous
 62
     7
100
AcDbLine
 10
1899.779746647976
 20
1165.528623157488
 30
0.0
 11
2012.515367148055
 21
1230.616564000468
 31
0.0
  0
LINE
  5
1A7
330
6F
100
AcDbEntity
  8
_0-D_寸法1
  6
Continuous
 62
     7
100
AcDbLine
 10
2012.515367148055
 20
1230.616564000468
 30
0.0
 11
2192.87173832184
 21
1230.616564000468
 31
0.0
  0
TEXT
  5
1A8
330
6F
100
AcDbEntity
  8
_0-D_寸法1
 62
     7
100
AcDbText
 10
2016.47173832184
 20
1230.616564000468
 30
0.0
 40
24.0
  1
ＳＵＳ３０４＃８００ 
 41
0.6999999999999999
100
AcDbText
  0
TEXT
  5
1A9
330
6F
100
AcDbEntity
  8
_0-D_寸法1
 62
     7
100
AcDbText
 10
2016.47173832184
 20
1206.616564000468
 30
0.0
 40
24.0
  1
ｔ＝１．５
 41
0.6999999999999999
100
AcDbText
  0
LINE
  5
1AA
330
6F
100
AcDbEntity
  8
_0-F_細線2
  6
DASHED2
 62
     3
100
AcDbLine
 10
1727.225895011629
 20
449.4362563615446
 30
0.0
 11
2064.264509388968
 21
449.4362563615446
 31
0.0
  0
LINE
  5
1AB
330
6F
100
AcDbEntity
  8
_0-F_細線2
  6
DASHED2
 62
     3
100
AcDbLine
 10
2076.264509388968
 20
461.4362563615446
 30
0.0
 11
2076.264509388968
 21
485.4362563615445
 31
0.0
  0
ARC
  5
1AC
330
6F
100
AcDbEntity
  8
_0-F_細線2
  6
DASHED2
 62
     3
100
AcDbCircle
 10
2064.264509388968
 20
461.4362563615446
 30
0.0
 40
12.0
100
AcDbArc
 50
269.9999999999997
 51
359.9999999999997
  0
LINE
  5
1AD
330
6F
100
AcDbEntity
  8
_0-F_細線2
  6
DASHED2
 62
     3
100
AcDbLine
 10
2076.264509388967
 20
777.9126805696643
 30
0.0
 11
2076.264509388967
 21
801.9126805696647
 31
0.0
  0
ARC
  5
1AE
330
6F
100
AcDbEntity
  8
_0-F_細線2
  6
DASHED2
 62
     3
100
AcDbCircle
 10
2064.264509388967
 20
801.9126805696647
 30
0.0
 40
12.0
100
AcDbArc
 50
0.0
 51
89.99999999999991
  0
LINE
  5
1AF
330
6F
100
AcDbEntity
  8
_0-B_細線1
  6
Continuous
 62
     7
100
AcDbLine
 10
1915.356624050974
 20
1381.104443382253
 30
0.0
 11
1944.156624050974
 21
1381.104443382253
 31
0.0
  0
LINE
  5
1B0
330
6F
100
AcDbEntity
  8
_0-B_細線1
  6
Continuous
 62
     7
100
AcDbLine
 10
1881.756624050974
 20
1381.104443382254
 30
0.0
 11
1881.756624050974
 21
1309.104443382254
 31
0.0
  0
LINE
  5
1B1
330
6F
100
AcDbEntity
  8
_0-B_細線1
  6
Continuous
 62
     7
100
AcDbLine
 10
1881.756624050974
 20
1309.104443382254
 30
0.0
 11
1873.756624050974
 21
1309.104443382254
 31
0.0
  0
LINE
  5
1B2
330
6F
100
AcDbEntity
  8
_0-B_細線1
  6
Continuous
 62
     7
100
AcDbLine
 10
1873.756624050974
 20
1309.104443382254
 30
0.0
 11
1873.756624050974
 21
1389.104443382254
 31
0.0
  0
LINE
  5
1B3
330
6F
100
AcDbEntity
  8
_0-B_細線1
  6
Continuous
 62
     7
100
AcDbLine
 10
1873.756624050974
 20
1389.104443382254
 30
0.0
 11
1961.756624050974
 21
1389.104443382254
 31
0.0
  0
LINE
  5
1B4
330
6F
100
AcDbEntity
  8
_0-B_細線1
  6
Continuous
 62
     7
100
AcDbLine
 10
1961.756624050974
 20
1389.104443382254
 30
0.0
 11
1961.756624050974
 21
1109.104443382254
 31
0.0
  0
LINE
  5
1B5
330
6F
100
AcDbEntity
  8
_0-B_細線1
  6
Continuous
 62
     7
100
AcDbLine
 10
1961.756624050974
 20
1109.104443382254
 30
0.0
 11
1953.756624050974
 21
1109.104443382254
 31
0.0
  0
LINE
  5
1B6
330
6F
100
AcDbEntity
  8
_0-B_細線1
  6
Continuous
 62
     7
100
AcDbLine
 10
1953.756624050974
 20
1109.104443382254
 30
0.0
 11
1953.756624050974
 21
1381.104443382254
 31
0.0
  0
LINE
  5
1B7
330
6F
100
AcDbEntity
  8
_0-B_細線1
  6
Continuous
 62
     7
100
AcDbLine
 10
1953.756624050974
 20
1381.104443382254
 30
0.0
 11
1881.756624050974
 21
1381.104443382254
 31
0.0
  0
LINE
  5
1B8
330
6F
100
AcDbEntity
  8
_0-A_極細1
  6
Continuous
 62
     7
100
AcDbLine
 10
1957.898350984367
 20
1109.104443382254
 30
0.0
 11
1961.756624050974
 21
1112.962716448862
 31
0.0
  0
LINE
  5
1B9
330
6F
100
AcDbEntity
  8
_0-A_極細1
  6
Continuous
 62
     7
100
AcDbLine
 10
1953.756624050973
 20
1116.276424947846
 30
0.0
 11
1961.756624050974
 21
1124.276424947846
 31
0.0
  0
LINE
  5
1BA
330
6F
100
AcDbEntity
  8
_0-A_極細1
  6
Continuous
 62
     7
100
AcDbLine
 10
1953.756624050973
 20
1127.590133446831
 30
0.0
 11
1961.756624050974
 21
1135.590133446831
 31
0.0
  0
LINE
  5
1BB
330
6F
100
AcDbEntity
  8
_0-A_極細1
  6
Continuous
 62
     7
100
AcDbLine
 10
1953.756624050973
 20
1138.903841945815
 30
0.0
 11
1961.756624050974
 21
1146.903841945816
 31
0.0
  0
LINE
  5
1BC
330
6F
100
AcDbEntity
  8
_0-A_極細1
  6
Continuous
 62
     7
100
AcDbLine
 10
1953.756624050973
 20
1150.2175504448
 30
0.0
 11
1961.756624050974
 21
1158.217550444801
 31
0.0
  0
LINE
  5
1BD
330
6F
100
AcDbEntity
  8
_0-A_極細1
  6
Continuous
 62
     7
100
AcDbLine
 10
1953.756624050973
 20
1161.531258943785
 30
0.0
 11
1961.756624050974
 21
1169.531258943785
 31
0.0
  0
LINE
  5
1BE
330
6F
100
AcDbEntity
  8
_0-A_極細1
  6
Continuous
 62
     7
100
AcDbLine
 10
1953.756624050974
 20
1172.844967442769
 30
0.0
 11
1961.756624050974
 21
1180.84496744277
 31
0.0
  0
LINE
  5
1BF
330
6F
100
AcDbEntity
  8
_0-A_極細1
  6
Continuous
 62
     7
100
AcDbLine
 10
1953.756624050973
 20
1184.158675941754
 30
0.0
 11
1961.756624050974
 21
1192.158675941755
 31
0.0
  0
LINE
  5
1C0
330
6F
100
AcDbEntity
  8
_0-A_極細1
  6
Continuous
 62
     7
100
AcDbLine
 10
1953.756624050973
 20
1195.472384440739
 30
0.0
 11
1961.756624050974
 21
1203.472384440739
 31
0.0
  0
LINE
  5
1C1
330
6F
100
AcDbEntity
  8
_0-A_極細1
  6
Continuous
 62
     7
100
AcDbLine
 10
1953.756624050973
 20
1206.786092939724
 30
0.0
 11
1961.756624050974
 21
1214.786092939724
 31
0.0
  0
LINE
  5
1C2
330
6F
100
AcDbEntity
  8
_0-A_極細1
  6
Continuous
 62
     7
100
AcDbLine
 10
1953.756624050974
 20
1218.099801438708
 30
0.0
 11
1961.756624050974
 21
1226.099801438709
 31
0.0
  0
LINE
  5
1C3
330
6F
100
AcDbEntity
  8
_0-A_極細1
  6
Continuous
 62
     7
100
AcDbLine
 10
1953.756624050973
 20
1229.413509937693
 30
0.0
 11
1961.756624050974
 21
1237.413509937694
 31
0.0
  0
LINE
  5
1C4
330
6F
100
AcDbEntity
  8
_0-A_極細1
  6
Continuous
 62
     7
100
AcDbLine
 10
1953.756624050974
 20
1240.727218436678
 30
0.0
 11
1961.756624050974
 21
1248.727218436678
 31
0.0
  0
LINE
  5
1C5
330
6F
100
AcDbEntity
  8
_0-A_極細1
  6
Continuous
 62
     7
100
AcDbLine
 10
1953.756624050974
 20
1252.040926935663
 30
0.0
 11
1961.756624050974
 21
1260.040926935663
 31
0.0
  0
LINE
  5
1C6
330
6F
100
AcDbEntity
  8
_0-A_極細1
  6
Continuous
 62
     7
100
AcDbLine
 10
1953.756624050974
 20
1263.354635434648
 30
0.0
 11
1961.756624050974
 21
1271.354635434648
 31
0.0
  0
LINE
  5
1C7
330
6F
100
AcDbEntity
  8
_0-A_極細1
  6
Continuous
 62
     7
100
AcDbLine
 10
1953.756624050974
 20
1274.668343933633
 30
0.0
 11
1961.756624050974
 21
1282.668343933633
 31
0.0
  0
LINE
  5
1C8
330
6F
100
AcDbEntity
  8
_0-A_極細1
  6
Continuous
 62
     7
100
AcDbLine
 10
1953.756624050973
 20
1285.982052432617
 30
0.0
 11
1961.756624050974
 21
1293.982052432618
 31
0.0
  0
LINE
  5
1C9
330
6F
100
AcDbEntity
  8
_0-A_極細1
  6
Continuous
 62
     7
100
AcDbLine
 10
1953.756624050974
 20
1297.295760931602
 30
0.0
 11
1961.756624050974
 21
1305.295760931602
 31
0.0
  0
LINE
  5
1CA
330
6F
100
AcDbEntity
  8
_0-A_極細1
  6
Continuous
 62
     7
100
AcDbLine
 10
1953.756624050974
 20
1308.609469430587
 30
0.0
 11
1961.756624050974
 21
1316.609469430587
 31
0.0
  0
LINE
  5
1CB
330
6F
100
AcDbEntity
  8
_0-A_極細1
  6
Continuous
 62
     7
100
AcDbLine
 10
1953.756624050974
 20
1319.923177929572
 30
0.0
 11
1961.756624050974
 21
1327.923177929572
 31
0.0
  0
LINE
  5
1CC
330
6F
100
AcDbEntity
  8
_0-A_極細1
  6
Continuous
 62
     7
100
AcDbLine
 10
1953.756624050973
 20
1331.236886428556
 30
0.0
 11
1961.756624050974
 21
1339.236886428557
 31
0.0
  0
LINE
  5
1CD
330
6F
100
AcDbEntity
  8
_0-A_極細1
  6
Continuous
 62
     7
100
AcDbLine
 10
1953.756624050973
 20
1342.550594927541
 30
0.0
 11
1961.756624050974
 21
1350.550594927541
 31
0.0
  0
LINE
  5
1CE
330
6F
100
AcDbEntity
  8
_0-A_極細1
  6
Continuous
 62
     7
100
AcDbLine
 10
1953.756624050974
 20
1353.864303426526
 30
0.0
 11
1961.756624050974
 21
1361.864303426526
 31
0.0
  0
LINE
  5
1CF
330
6F
100
AcDbEntity
  8
_0-A_極細1
  6
Continuous
 62
     7
100
AcDbLine
 10
1953.756624050974
 20
1365.178011925511
 30
0.0
 11
1961.756624050974
 21
1373.178011925511
 31
0.0
  0
LINE
  5
1D0
330
6F
100
AcDbEntity
  8
_0-A_極細1
  6
Continuous
 62
     7
100
AcDbLine
 10
1953.756624050974
 20
1376.491720424495
 30
0.0
 11
1961.756624050974
 21
1384.491720424495
 31
0.0
  0
LINE
  5
1D1
330
6F
100
AcDbEntity
  8
_0-A_極細1
  6
Continuous
 62
     7
100
AcDbLine
 10
1875.055638509748
 20
1309.104443382254
 30
0.0
 11
1881.756624050974
 21
1315.805428923481
 31
0.0
  0
LINE
  5
1D2
330
6F
100
AcDbEntity
  8
_0-A_極細1
  6
Continuous
 62
     7
100
AcDbLine
 10
1947.055638509748
 20
1381.104443382255
 30
0.0
 11
1955.055638509747
 21
1389.104443382254
 31
0.0
  0
LINE
  5
1D3
330
6F
100
AcDbEntity
  8
_0-A_極細1
  6
Continuous
 62
     7
100
AcDbLine
 10
1873.756624050974
 20
1319.119137422465
 30
0.0
 11
1881.756624050974
 21
1327.119137422465
 31
0.0
  0
LINE
  5
1D4
330
6F
100
AcDbEntity
  8
_0-A_極細1
  6
Continuous
 62
     7
100
AcDbLine
 10
1935.741930010763
 20
1381.104443382255
 30
0.0
 11
1943.741930010763
 21
1389.104443382254
 31
0.0
  0
LINE
  5
1D5
330
6F
100
AcDbEntity
  8
_0-A_極細1
  6
Continuous
 62
     7
100
AcDbLine
 10
1873.756624050974
 20
1330.43284592145
 30
0.0
 11
1881.756624050974
 21
1338.43284592145
 31
0.0
  0
LINE
  5
1D6
330
6F
100
AcDbEntity
  8
_0-A_極細1
  6
Continuous
 62
     7
100
AcDbLine
 10
1924.428221511778
 20
1381.104443382254
 30
0.0
 11
1932.428221511779
 21
1389.104443382254
 31
0.0
  0
LINE
  5
1D7
330
6F
100
AcDbEntity
  8
_0-A_極細1
  6
Continuous
 62
     7
100
AcDbLine
 10
1873.756624050974
 20
1341.746554420435
 30
0.0
 11
1881.756624050974
 21
1349.746554420435
 31
0.0
  0
LINE
  5
1D8
330
6F
100
AcDbEntity
  8
_0-A_極細1
  6
Continuous
 62
     7
100
AcDbLine
 10
1913.114513012794
 20
1381.104443382254
 30
0.0
 11
1921.114513012793
 21
1389.104443382254
 31
0.0
  0
LINE
  5
1D9
330
6F
100
AcDbEntity
  8
_0-A_極細1
  6
Continuous
 62
     7
100
AcDbLine
 10
1873.756624050973
 20
1353.060262919419
 30
0.0
 11
1881.756624050974
 21
1361.060262919419
 31
0.0
  0
LINE
  5
1DA
330
6F
100
AcDbEntity
  8
_0-A_極細1
  6
Continuous
 62
     7
100
AcDbLine
 10
1901.800804513809
 20
1381.104443382255
 30
0.0
 11
1909.800804513809
 21
1389.104443382254
 31
0.0
  0
LINE
  5
1DB
330
6F
100
AcDbEntity
  8
_0-A_極細1
  6
Continuous
 62
     7
100
AcDbLine
 10
1873.756624050973
 20
1364.373971418404
 30
0.0
 11
1881.756624050974
 21
1372.373971418405
 31
0.0
  0
LINE
  5
1DC
330
6F
100
AcDbEntity
  8
_0-A_極細1
  6
Continuous
 62
     7
100
AcDbLine
 10
1890.487096014824
 20
1381.104443382255
 30
0.0
 11
1898.487096014824
 21
1389.104443382254
 31
0.0
  0
LINE
  5
1DD
330
6F
100
AcDbEntity
  8
_0-A_極細1
  6
Continuous
 62
     7
100
AcDbLine
 10
1873.756624050973
 20
1375.687679917388
 30
0.0
 11
1887.173387515839
 21
1389.104443382254
 31
0.0
  0
LINE
  5
1DE
330
6F
100
AcDbEntity
  8
_0-A_極細1
  6
Continuous
 62
     7
100
AcDbLine
 10
1873.756624050973
 20
1387.001388416373
 30
0.0
 11
1875.859679016854
 21
1389.104443382254
 31
0.0
  0
LINE
  5
1DF
330
6F
100
AcDbEntity
  8
_0-D_寸法1
  6
Continuous
 62
     7
100
AcDbLine
 10
1956.921525128846
 20
1331.835515399524
 30
0.0
 11
1968.235233627831
 21
1343.149223898509
 31
0.0
  0
LINE
  5
1E0
330
6F
100
AcDbEntity
  8
_0-D_寸法1
  6
Continuous
 62
     7
100
AcDbLine
 10
1956.921525128846
 20
1331.835515399524
 30
0.0
 11
1972.376338349472
 21
1335.976620121165
 31
0.0
  0
LINE
  5
1E1
330
6F
100
AcDbEntity
  8
_0-D_寸法1
  6
Continuous
 62
     7
100
AcDbLine
 10
1956.921525128846
 20
1331.835515399524
 30
0.0
 11
2012.601525128847
 21
1363.982378388003
 31
0.0
  0
LINE
  5
1E2
330
6F
100
AcDbEntity
  8
_0-D_寸法1
  6
Continuous
 62
     7
100
AcDbLine
 10
2012.601525128847
 20
1363.982378388003
 30
0.0
 11
2127.801525128846
 21
1363.982378388003
 31
0.0
  0
TEXT
  5
1E3
330
6F
100
AcDbEntity
  8
_0-D_寸法1
 62
     7
100
AcDbText
 10
2012.601525128847
 20
1363.982378388003
 30
0.0
 40
24.0
  1
盗難防止金具
 41
0.7999999999999999
100
AcDbText
  0
TEXT
  5
1E4
330
6F
100
AcDbEntity
  8
_0-D_寸法1
 62
     7
100
AcDbText
 10
2012.515367148055
 20
1339.982378388003
 30
0.0
 40
24.0
  1
アンカー付
 41
0.7999999999999999
100
AcDbText
  0
TEXT
  5
1E5
330
6F
100
AcDbEntity
  8
_0-7_枠細線
 62
     5
100
AcDbText
 10
2008.0
 20
236.0
 30
0.0
 40
40.0
  1
株式会社シマブン
 41
0.7
100
AcDbText
  0
LINE
  5
1E6
330
6F
100
AcDbEntity
  8
_0-7_枠細線
  6
Continuous
 62
     5
100
AcDbLine
 10
2280.0
 20
1479.999999999999
 30
0.0
 11
1423.999999999999
 21
1479.999999999999
 31
0.0
  0
TEXT
  5
1E7
330
6F
100
AcDbEntity
  8
_0-7_枠細線
 62
     5
100
AcDbText
 10
1888.0
 20
1483.999999999999
 30
0.0
 40
20.0
  1
２０１３．０３．１３
 41
0.6
100
AcDbText
  0
TEXT
  5
1E8
330
6F
100
AcDbEntity
  8
_0-7_枠細線
 62
     5
100
AcDbText
 10
1502.160592592592
 20
1483.999999999999
 30
0.0
 40
20.0
  1
品番変更
100
AcDbText
  0
LINE
  5
1EA
330
6F
100
AcDbEntity
  8
_0-0_計極細
  6
CENTER1
 62
     2
100
AcDbLine
 10
752.6166927824629
 20
780.8883950202521
 30
0.0
 11
222.881000309329
 21
780.8883950202521
 31
0.0
  0
LINE
  5
1EB
330
6F
100
AcDbEntity
  8
_0-5_寸法線
  6
Continuous
 62
     7
100
AcDbLine
 10
743.6916257372622
 20
826.8108297191869
 30
0.0
 11
743.6916257372623
 21
836.5001734210251
 31
0.0
  0
LINE
  5
1EC
330
6F
100
AcDbEntity
  8
_0-5_寸法線
  6
Continuous
 62
     7
100
AcDbLine
 10
743.6916257372622
 20
828.5001734210251
 30
0.0
 11
759.1464389578874
 21
832.6412781426652
 31
0.0
  0
LINE
  5
1ED
330
6F
100
AcDbEntity
  8
_0-5_寸法線
  6
Continuous
 62
     7
100
AcDbLine
 10
743.6916257372622
 20
828.5001734210251
 30
0.0
 11
759.1464389578874
 21
824.3590686993847
 31
0.0
  0
LINE
  5
1EE
330
6F
100
AcDbEntity
  8
_0-5_寸法線
  6
Continuous
 62
     7
100
AcDbLine
 10
735.1916257372622
 20
826.8108297191869
 30
0.0
 11
735.1916257372622
 21
836.5001734210251
 31
0.0
  0
LINE
  5
1EF
330
6F
100
AcDbEntity
  8
_0-5_寸法線
  6
Continuous
 62
     7
100
AcDbLine
 10
735.1916257372622
 20
828.5001734210251
 30
0.0
 11
719.7368125166373
 21
824.3590686993847
 31
0.0
  0
LINE
  5
1F0
330
6F
100
AcDbEntity
  8
_0-5_寸法線
  6
Continuous
 62
     7
100
AcDbLine
 10
735.1916257372622
 20
828.5001734210251
 30
0.0
 11
719.7368125166373
 21
832.6412781426656
 31
0.0
  0
LINE
  5
1F1
330
6F
100
AcDbEntity
  8
_0-5_寸法線
  6
Continuous
 62
     7
100
AcDbLine
 10
783.6916257372622
 20
828.5001734210251
 30
0.0
 11
695.1916257372623
 21
828.5001734210251
 31
0.0
  0
TEXT
  5
1F2
330
6F
100
AcDbEntity
  8
_0-5_寸法線
 62
     7
100
AcDbText
 10
747.6511672600184
 20
828.5001734210251
 30
0.0
 40
24.0
  1
8.5
100
AcDbText
  0
LINE
  5
1F3
330
6F
100
AcDbEntity
  8
_0-0_計極細
  6
CENTER1
 62
     2
100
AcDbLine
 10
1481.56716038672
 20
780.8883950202521
 30
0.0
 11
991.8571871708838
 21
780.8883950202521
 31
0.0
  0
LINE
  5
1F4
330
6F
100
AcDbEntity
  8
_1-1_寸法2
  6
Continuous
 62
     7
100
AcDbLine
 10
1870.264509388966
 20
833.9126805696643
 30
0.0
 11
1870.264509388966
 21
885.9126805696643
 31
0.0
  0
LINE
  5
1F5
330
6F
100
AcDbEntity
  8
_1-1_寸法2
  6
Continuous
 62
     7
100
AcDbLine
 10
1870.264509388966
 20
877.9126805696643
 30
0.0
 11
1885.719322609591
 21
882.0537852913046
 31
0.0
  0
LINE
  5
1F6
330
6F
100
AcDbEntity
  8
_1-1_寸法2
  6
Continuous
 62
     7
100
AcDbLine
 10
1870.264509388966
 20
877.9126805696643
 30
0.0
 11
1885.719322609591
 21
873.771575848024
 31
0.0
  0
LINE
  5
1F7
330
6F
100
AcDbEntity
  8
_1-1_寸法2
  6
Continuous
 62
     7
100
AcDbLine
 10
2086.264509388966
 20
833.9126805696643
 30
0.0
 11
2086.264509388966
 21
885.9126805696643
 31
0.0
  0
LINE
  5
1F8
330
6F
100
AcDbEntity
  8
_1-1_寸法2
  6
Continuous
 62
     7
100
AcDbLine
 10
2086.264509388966
 20
877.9126805696643
 30
0.0
 11
2070.809696168341
 21
873.771575848024
 31
0.0
  0
LINE
  5
1F9
330
6F
100
AcDbEntity
  8
_1-1_寸法2
  6
Continuous
 62
     7
100
AcDbLine
 10
2086.264509388966
 20
877.9126805696643
 30
0.0
 11
2070.809696168341
 21
882.0537852913046
 31
0.0
  0
LINE
  5
1FA
330
6F
100
AcDbEntity
  8
_1-1_寸法2
  6
Continuous
 62
     7
100
AcDbLine
 10
1870.264509388966
 20
877.9126805696643
 30
0.0
 11
2086.264509388966
 21
877.9126805696643
 31
0.0
  0
TEXT
  5
1FB
330
6F
100
AcDbEntity
  8
_1-1_寸法2
 62
     7
100
AcDbText
 10
1966.633625815889
 20
877.9126805696643
 30
0.0
 40
24.0
  1
54
100
AcDbText
  0
LINE
  5
1FC
330
6F
100
AcDbEntity
  8
_0-E_極細2
  6
CENTER1
 62
     6
100
AcDbLine
 10
1870.264509388966
 20
772.812191883696
 30
0.0
 11
1870.264509388966
 21
694.3304400588775
 31
0.0
  0
LINE
  5
1FD
330
6F
100
AcDbEntity
  8
_0-F_細線2
  6
DASHED2
 62
     3
100
AcDbLine
 10
1727.225895011629
 20
813.9126805696642
 30
0.0
 11
1926.561530922042
 21
813.9126805696642
 31
0.0
  0
LINE
  5
1FE
330
6F
100
AcDbEntity
  8
_0-F_細線2
  6
DASHED2
 62
     3
100
AcDbLine
 10
1906.264509388966
 20
718.912692059262
 30
0.0
 11
1901.864509388967
 21
736.9126888514515
 31
0.0
  0
LINE
  5
1FF
330
6F
100
AcDbEntity
  8
_0-F_細線2
  6
DASHED2
 62
     3
100
AcDbLine
 10
1900.264509388966
 20
736.9126876849746
 30
0.0
 11
1900.264509388966
 21
718.9126876849719
 31
0.0
  0
CIRCLE
  5
200
330
6F
100
AcDbEntity
  8
_0-F_細線2
  6
DASHED2
 62
     3
100
AcDbCircle
 10
1920.264509388966
 20
727.9127022659381
 30
0.0
 40
4.0
  0
LINE
  5
201
330
6F
100
AcDbEntity
  8
_0-F_細線2
  6
DASHED2
 62
     3
100
AcDbLine
 10
1930.264509388966
 20
718.9127095564194
 30
0.0
 11
1930.264509388966
 21
736.9127095564223
 31
0.0
  0
ARC
  5
202
330
6F
100
AcDbEntity
  8
_0-F_細線2
  6
DASHED2
 62
     3
100
AcDbCircle
 10
1869.264509388966
 20
761.912665667725
 30
0.0
 40
8.0
100
AcDbArc
 50
90.00000835427924
 51
179.9999999999998
  0
LINE
  5
203
330
6F
100
AcDbEntity
  8
_0-F_細線2
  6
DASHED2
 62
     3
100
AcDbLine
 10
1869.264508222489
 20
769.912665667725
 30
0.0
 11
1871.264508222489
 21
769.9126659593445
 31
0.0
  0
ARC
  5
204
330
6F
100
AcDbEntity
  8
_0-F_細線2
  6
DASHED2
 62
     3
100
AcDbCircle
 10
1871.264509388966
 20
761.9126659593445
 30
0.0
 40
8.0
100
AcDbArc
 50
0.0
 51
90.00000835427924
  0
LINE
  5
205
330
6F
100
AcDbEntity
  8
_0-F_細線2
  6
DASHED2
 62
     3
100
AcDbLine
 10
1840.264509388966
 20
736.9126876849746
 30
0.0
 11
1840.264509388966
 21
718.9126876849719
 31
0.0
  0
LINE
  5
206
330
6F
100
AcDbEntity
  8
_0-F_細線2
  6
DASHED2
 62
     3
100
AcDbLine
 10
1810.264509388966
 20
718.9126220706297
 30
0.0
 11
1810.264509388966
 21
736.9126220706315
 31
0.0
  0
CIRCLE
  5
207
330
6F
100
AcDbEntity
  8
_0-F_細線2
  6
DASHED2
 62
     3
100
AcDbCircle
 10
1820.264509388966
 20
727.9126293611129
 30
0.0
 40
4.0
  0
LINE
  5
208
330
6F
100
AcDbEntity
  8
_0-F_細線2
  6
DASHED2
 62
     3
100
AcDbLine
 10
1834.264509388966
 20
718.912692059262
 30
0.0
 11
1838.664509388966
 21
736.9126888514515
 31
0.0
  0
LINE
  5
209
330
6F
100
AcDbEntity
  8
_0-F_細線2
  6
DASHED2
 62
     3
100
AcDbLine
 10
1879.264509388966
 20
761.9126659593445
 30
0.0
 11
1879.264509388966
 21
736.912669458768
 31
0.0
  0
LINE
  5
20A
330
6F
100
AcDbEntity
  8
_0-F_細線2
  6
DASHED2
 62
     3
100
AcDbLine
 10
1861.264509388966
 20
761.912665667725
 30
0.0
 11
1861.264509388966
 21
736.9126621682856
 31
0.0
  0
LINE
  5
20B
330
6F
100
AcDbEntity
  8
_0-F_細線2
  6
DASHED2
 62
     3
100
AcDbLine
 10
1810.264509388966
 20
718.9126220706297
 30
0.0
 11
1930.264509388966
 21
718.9127095564194
 31
0.0
  0
LINE
  5
20C
330
6F
100
AcDbEntity
  8
_0-F_細線2
  6
DASHED2
 62
     3
100
AcDbLine
 10
1810.264509388966
 20
736.9126220706315
 30
0.0
 11
1930.264509388966
 21
736.9127095564223
 31
0.0
  0
ARC
  5
20D
330
6F
100
AcDbEntity
  8
_0-F_細線2
  6
DASHED2
 62
     3
100
AcDbCircle
 10
1869.264509388966
 20
693.9126656677067
 30
0.0
 40
8.0
100
AcDbArc
 50
179.9999999999998
 51
270.0000083542854
  0
ARC
  5
20E
330
6F
100
AcDbEntity
  8
_0-F_細線2
  6
DASHED2
 62
     3
100
AcDbCircle
 10
1871.264509388966
 20
693.9126659593263
 30
0.0
 40
8.0
100
AcDbArc
 50
270.0000083542853
 51
359.9999999999997
  0
LINE
  5
20F
330
6F
100
AcDbEntity
  8
_0-F_細線2
  6
DASHED2
 62
     3
100
AcDbLine
 10
1879.264509388966
 20
718.9126694587661
 30
0.0
 11
1879.264509388966
 21
693.9126659593263
 31
0.0
  0
LINE
  5
210
330
6F
100
AcDbEntity
  8
_0-F_細線2
  6
DASHED2
 62
     3
100
AcDbLine
 10
1861.264509388966
 20
718.9126621682831
 30
0.0
 11
1861.264509388966
 21
693.9126656677067
 31
0.0
  0
LINE
  5
211
330
6F
100
AcDbEntity
  8
_0-F_細線2
  6
DASHED2
 62
     3
100
AcDbLine
 10
1869.304509388966
 20
757.4326805696638
 30
0.0
 11
1869.304509388966
 21
755.192680569664
 31
0.0
  0
LINE
  5
212
330
6F
100
AcDbEntity
  8
_0-F_細線2
  6
DASHED2
 62
     3
100
AcDbLine
 10
1871.224509388967
 20
757.4326805696638
 30
0.0
 11
1871.224509388966
 21
755.192680569664
 31
0.0
  0
LINE
  5
213
330
6F
100
AcDbEntity
  8
_0-F_細線2
  6
DASHED2
 62
     3
100
AcDbLine
 10
1871.224509388967
 20
757.4326805696638
 30
0.0
 11
1871.224509388966
 21
755.192680569664
 31
0.0
  0
CIRCLE
  5
214
330
6F
100
AcDbEntity
  8
_0-F_細線2
  6
DASHED2
 62
     3
100
AcDbCircle
 10
1870.264509388966
 20
753.9126805696643
 30
0.0
 40
6.4
  0
LINE
  5
215
330
6F
100
AcDbEntity
  8
_0-F_細線2
  6
DASHED2
 62
     3
100
AcDbLine
 10
1873.784509388967
 20
752.9526805696641
 30
0.0
 11
1871.544509388966
 21
752.9526805696638
 31
0.0
  0
LINE
  5
216
330
6F
100
AcDbEntity
  8
_0-F_細線2
  6
DASHED2
 62
     3
100
AcDbLine
 10
1873.784509388967
 20
754.872680569664
 30
0.0
 11
1871.544509388966
 21
754.872680569664
 31
0.0
  0
ARC
  5
217
330
6F
100
AcDbEntity
  8
_0-F_細線2
  6
DASHED2
 62
     3
100
AcDbCircle
 10
1871.544509388966
 20
755.192680569664
 30
0.0
 40
0.32
100
AcDbArc
 50
179.9999999999998
 51
269.9999999999997
  0
ARC
  5
218
330
6F
100
AcDbEntity
  8
_0-F_細線2
  6
DASHED2
 62
     3
100
AcDbCircle
 10
1871.544509388966
 20
752.632680569664
 30
0.0
 40
0.32
100
AcDbArc
 50
89.99999999999991
 51
179.9999999999998
  0
ARC
  5
219
330
6F
100
AcDbEntity
  8
_0-F_細線2
  6
DASHED2
 62
     3
100
AcDbCircle
 10
1868.984509388966
 20
752.632680569664
 30
0.0
 40
0.32
100
AcDbArc
 50
0.0
 51
89.99999999999991
  0
ARC
  5
21A
330
6F
100
AcDbEntity
  8
_0-F_細線2
  6
DASHED2
 62
     3
100
AcDbCircle
 10
1868.984509388967
 20
755.192680569664
 30
0.0
 40
0.32
100
AcDbArc
 50
269.9999999999997
 51
359.9999999999997
  0
LINE
  5
21B
330
6F
100
AcDbEntity
  8
_0-F_細線2
  6
DASHED2
 62
     3
100
AcDbLine
 10
1871.224509388967
 20
752.632680569664
 30
0.0
 11
1871.224509388966
 21
750.3926805696639
 31
0.0
  0
LINE
  5
21C
330
6F
100
AcDbEntity
  8
_0-F_細線2
  6
DASHED2
 62
     3
100
AcDbLine
 10
1871.224509388966
 20
752.632680569664
 30
0.0
 11
1871.224509388966
 21
750.3926805696639
 31
0.0
  0
LINE
  5
21D
330
6F
100
AcDbEntity
  8
_0-F_細線2
  6
DASHED2
 62
     3
100
AcDbLine
 10
1869.304509388966
 20
752.632680569664
 30
0.0
 11
1869.304509388966
 21
750.3926805696639
 31
0.0
  0
LINE
  5
21E
330
6F
100
AcDbEntity
  8
_0-F_細線2
  6
DASHED2
 62
     3
100
AcDbLine
 10
1871.224509388967
 20
750.3926805696639
 30
0.0
 11
1869.304509388966
 21
750.3926805696639
 31
0.0
  0
LINE
  5
21F
330
6F
100
AcDbEntity
  8
_0-F_細線2
  6
DASHED2
 62
     3
100
AcDbLine
 10
1866.744509388967
 20
754.872680569664
 30
0.0
 11
1866.744509388967
 21
752.9526805696641
 31
0.0
  0
LINE
  5
220
330
6F
100
AcDbEntity
  8
_0-F_細線2
  6
DASHED2
 62
     3
100
AcDbLine
 10
1868.984509388966
 20
752.9526805696641
 30
0.0
 11
1866.744509388967
 21
752.9526805696641
 31
0.0
  0
LINE
  5
221
330
6F
100
AcDbEntity
  8
_0-F_細線2
  6
DASHED2
 62
     3
100
AcDbLine
 10
1868.984509388967
 20
754.872680569664
 30
0.0
 11
1866.744509388967
 21
754.872680569664
 31
0.0
  0
LINE
  5
222
330
6F
100
AcDbEntity
  8
_0-F_細線2
  6
DASHED2
 62
     3
100
AcDbLine
 10
1873.784509388967
 20
754.872680569664
 30
0.0
 11
1873.784509388967
 21
752.9526805696641
 31
0.0
  0
LINE
  5
223
330
6F
100
AcDbEntity
  8
_0-F_細線2
  6
DASHED2
 62
     3
100
AcDbLine
 10
1871.224509388967
 20
757.4326805696638
 30
0.0
 11
1869.304509388966
 21
757.4326805696638
 31
0.0
  0
LINE
  5
224
330
6F
100
AcDbEntity
  8
_0-F_細線2
  6
DASHED2
 62
     3
100
AcDbLine
 10
1922.264509388966
 20
813.9126805696642
 30
0.0
 11
2064.264509388967
 21
813.9126805696646
 31
0.0
  0
LINE
  5
225
330
6F
100
AcDbEntity
  8
_1-1_寸法2
  6
Continuous
 62
     7
100
AcDbLine
 10
1870.264509388966
 20
429.4362563615446
 30
0.0
 11
1870.264509388966
 21
377.4362563615446
 31
0.0
  0
LINE
  5
226
330
6F
100
AcDbEntity
  8
_1-1_寸法2
  6
Continuous
 62
     7
100
AcDbLine
 10
1870.264509388966
 20
385.4362563615446
 30
0.0
 11
1885.719322609591
 21
389.577361083185
 31
0.0
  0
LINE
  5
227
330
6F
100
AcDbEntity
  8
_1-1_寸法2
  6
Continuous
 62
     7
100
AcDbLine
 10
1870.264509388966
 20
385.4362563615446
 30
0.0
 11
1885.719322609591
 21
381.2951516399043
 31
0.0
  0
LINE
  5
228
330
6F
100
AcDbEntity
  8
_1-1_寸法2
  6
Continuous
 62
     7
100
AcDbLine
 10
2086.264509388966
 20
429.4362563615446
 30
0.0
 11
2086.264509388966
 21
377.4362563615446
 31
0.0
  0
LINE
  5
229
330
6F
100
AcDbEntity
  8
_1-1_寸法2
  6
Continuous
 62
     7
100
AcDbLine
 10
2086.264509388966
 20
385.4362563615446
 30
0.0
 11
2070.809696168341
 21
381.2951516399044
 31
0.0
  0
LINE
  5
22A
330
6F
100
AcDbEntity
  8
_1-1_寸法2
  6
Continuous
 62
     7
100
AcDbLine
 10
2086.264509388966
 20
385.4362563615446
 30
0.0
 11
2070.809696168341
 21
389.577361083185
 31
0.0
  0
LINE
  5
22B
330
6F
100
AcDbEntity
  8
_1-1_寸法2
  6
Continuous
 62
     7
100
AcDbLine
 10
1870.264509388966
 20
385.4362563615446
 30
0.0
 11
2086.264509388966
 21
385.4362563615446
 31
0.0
  0
TEXT
  5
22C
330
6F
100
AcDbEntity
  8
_1-1_寸法2
 62
     7
100
AcDbText
 10
1963.181882101372
 20
385.4362563615446
 30
0.0
 40
24.0
  1
54
100
AcDbText
  0
LINE
  5
22D
330
6F
100
AcDbEntity
  8
_0-E_極細2
  6
CENTER1
 62
     6
100
AcDbLine
 10
1870.264509388966
 20
498.0240108938366
 30
0.0
 11
1870.264509388966
 21
583.4362563615444
 31
0.0
  0
LINE
  5
22E
330
6F
100
AcDbEntity
  8
_0-F_細線2
  6
DASHED2
 62
     3
100
AcDbLine
 10
1872.664509388964
 20
536.6362563615439
 30
0.0
 11
1867.864509388968
 21
536.6362563615448
 31
0.0
  0
CIRCLE
  5
22F
330
6F
100
AcDbEntity
  8
_0-F_細線2
  6
DASHED2
 62
     3
100
AcDbCircle
 10
1870.264509388966
 20
545.4362563615445
 30
0.0
 40
11.0
  0
LINE
  5
230
330
6F
100
AcDbEntity
  8
_0-F_細線2
  6
DASHED2
 62
     3
100
AcDbLine
 10
1879.064509388965
 20
543.036256361544
 30
0.0
 11
1873.464509388966
 21
543.0362563615449
 31
0.0
  0
LINE
  5
231
330
6F
100
AcDbEntity
  8
_0-F_細線2
  6
DASHED2
 62
     3
100
AcDbLine
 10
1879.064509388965
 20
547.8362563615442
 30
0.0
 11
1873.464509388966
 21
547.8362563615442
 31
0.0
  0
CIRCLE
  5
232
330
6F
100
AcDbEntity
  8
_0-F_細線2
  6
DASHED2
 62
     3
100
AcDbCircle
 10
1870.264509388966
 20
545.4362563615445
 30
0.0
 40
16.0
  0
LINE
  5
233
330
6F
100
AcDbEntity
  8
_0-F_細線2
  6
DASHED2
 62
     3
100
AcDbLine
 10
1872.664509388964
 20
554.2362563615438
 30
0.0
 11
1867.864509388968
 21
554.2362563615447
 31
0.0
  0
ARC
  5
234
330
6F
100
AcDbEntity
  8
_0-F_細線2
  6
DASHED2
 62
     3
100
AcDbCircle
 10
1867.064509388965
 20
542.2362563615447
 30
0.0
 40
0.8
100
AcDbArc
 50
0.0
 51
89.99999999999991
  0
LINE
  5
235
330
6F
100
AcDbEntity
  8
_0-F_細線2
  6
DASHED2
 62
     3
100
AcDbLine
 10
1867.864509388968
 20
536.6362563615443
 30
0.0
 11
1867.864509388968
 21
542.2362563615447
 31
0.0
  0
ARC
  5
236
330
6F
100
AcDbEntity
  8
_0-F_細線2
  6
DASHED2
 62
     3
100
AcDbCircle
 10
1867.064509388965
 20
548.6362563615443
 30
0.0
 40
0.8
100
AcDbArc
 50
269.9999999999997
 51
359.9999999999997
  0
LINE
  5
237
330
6F
100
AcDbEntity
  8
_0-F_細線2
  6
DASHED2
 62
     3
100
AcDbLine
 10
1867.864509388965
 20
548.6362563615443
 30
0.0
 11
1867.864509388968
 21
554.2362563615447
 31
0.0
  0
LINE
  5
238
330
6F
100
AcDbEntity
  8
_0-F_細線2
  6
DASHED2
 62
     3
100
AcDbLine
 10
1861.464509388967
 20
543.036256361544
 30
0.0
 11
1861.464509388967
 21
547.8362563615442
 31
0.0
  0
LINE
  5
239
330
6F
100
AcDbEntity
  8
_0-F_細線2
  6
DASHED2
 62
     3
100
AcDbLine
 10
1867.064509388965
 20
543.0362563615449
 30
0.0
 11
1861.464509388967
 21
543.036256361544
 31
0.0
  0
LINE
  5
23A
330
6F
100
AcDbEntity
  8
_0-F_細線2
  6
DASHED2
 62
     3
100
AcDbLine
 10
1867.064509388965
 20
547.8362563615442
 30
0.0
 11
1861.464509388967
 21
547.8362563615442
 31
0.0
  0
LINE
  5
23B
330
6F
100
AcDbEntity
  8
_0-F_細線2
  6
DASHED2
 62
     3
100
AcDbLine
 10
1872.664509388964
 20
536.6362563615443
 30
0.0
 11
1872.664509388964
 21
542.2362563615447
 31
0.0
  0
LINE
  5
23C
330
6F
100
AcDbEntity
  8
_0-F_細線2
  6
DASHED2
 62
     3
100
AcDbLine
 10
1872.664509388964
 20
536.6362563615443
 30
0.0
 11
1872.664509388964
 21
542.2362563615447
 31
0.0
  0
ARC
  5
23D
330
6F
100
AcDbEntity
  8
_0-F_細線2
  6
DASHED2
 62
     3
100
AcDbCircle
 10
1873.464509388966
 20
542.2362563615447
 30
0.0
 40
0.8
100
AcDbArc
 50
89.99999999999991
 51
179.9999999999998
  0
ARC
  5
23E
330
6F
100
AcDbEntity
  8
_0-F_細線2
  6
DASHED2
 62
     3
100
AcDbCircle
 10
1873.464509388966
 20
548.6362563615443
 30
0.0
 40
0.8
100
AcDbArc
 50
179.9999999999998
 51
269.9999999999997
  0
LINE
  5
23F
330
6F
100
AcDbEntity
  8
_0-F_細線2
  6
DASHED2
 62
     3
100
AcDbLine
 10
1872.664509388964
 20
548.6362563615443
 30
0.0
 11
1872.664509388964
 21
554.2362563615447
 31
0.0
  0
LINE
  5
240
330
6F
100
AcDbEntity
  8
_0-F_細線2
  6
DASHED2
 62
     3
100
AcDbLine
 10
1872.664509388964
 20
548.6362563615443
 30
0.0
 11
1872.664509388964
 21
554.2362563615447
 31
0.0
  0
LINE
  5
241
330
6F
100
AcDbEntity
  8
_0-F_細線2
  6
DASHED2
 62
     3
100
AcDbLine
 10
1879.064509388965
 20
543.036256361544
 30
0.0
 11
1879.064509388965
 21
547.8362563615442
 31
0.0
  0
TEXT
  5
242
330
6F
100
AcDbEntity
  8
_0-7_枠細線
 62
     5
100
AcDbText
 10
1910.4
 20
188.0
 30
0.0
 40
32.0
  1
１：８
 41
0.6999999999999999
100
AcDbText
  0
LINE
  5
243
330
6F
100
AcDbEntity
  8
_0-7_枠細線
  6
Continuous
 62
     5
100
AcDbLine
 10
2280.0
 20
1451.999999999999
 30
0.0
 11
1423.999999999999
 21
1451.999999999999
 31
0.0
  0
LINE
  5
244
330
6F
100
AcDbEntity
  8
_0-7_枠細線
  6
Continuous
 62
     5
100
AcDbLine
 10
2040.0
 20
1451.999999999999
 30
0.0
 11
2040.0
 21
1535.999999999998
 31
0.0
  0
LINE
  5
245
330
6F
100
AcDbEntity
  8
_0-7_枠細線
  6
Continuous
 62
     5
100
AcDbLine
 10
1880.0
 20
1451.999999999999
 30
0.0
 11
1880.0
 21
1535.999999999998
 31
0.0
  0
LINE
  5
246
330
6F
100
AcDbEntity
  8
_0-7_枠細線
  6
Continuous
 62
     5
100
AcDbLine
 10
1479.999999999999
 20
1451.999999999999
 30
0.0
 11
1479.999999999999
 21
1535.999999999998
 31
0.0
  0
LINE
  5
247
330
6F
100
AcDbEntity
  8
_0-7_枠細線
  6
Continuous
 62
     5
100
AcDbLine
 10
1423.999999999999
 20
1451.999999999999
 30
0.0
 11
1423.999999999999
 21
1535.999999999998
 31
0.0
  0
LINE
  5
248
330
6F
100
AcDbEntity
  8
_0-7_枠細線
  6
Continuous
 62
     5
100
AcDbLine
 10
1463.999999999999
 20
1454.307734354794
 30
0.0
 11
1451.999999999999
 21
1478.307734354794
 31
0.0
  0
LINE
  5
249
330
6F
100
AcDbEntity
  8
_0-7_枠細線
  6
Continuous
 62
     5
100
AcDbLine
 10
1439.999999999999
 20
1454.307734354794
 30
0.0
 11
1463.999999999999
 21
1454.307734354794
 31
0.0
  0
LINE
  5
24A
330
6F
100
AcDbEntity
  8
_0-7_枠細線
  6
Continuous
 62
     5
100
AcDbLine
 10
1451.999999999999
 20
1478.307734354794
 30
0.0
 11
1439.999999999999
 21
1454.307734354794
 31
0.0
  0
TEXT
  5
24B
330
6F
100
AcDbEntity
  8
_0-7_枠細線
 62
     5
100
AcDbText
 10
1443.784242029036
 20
1453.816530762186
 30
0.0
 40
20.0
  1
１
 41
0.8
100
AcDbText
  0
LINE
  5
24C
330
6F
100
AcDbEntity
  8
_0-7_枠細線
  6
Continuous
 62
     5
100
AcDbLine
 10
1952.921767720724
 20
387.7439907163396
 30
0.0
 11
1940.921767720724
 21
411.7439907163396
 31
0.0
  0
LINE
  5
24D
330
6F
100
AcDbEntity
  8
_0-7_枠細線
  6
Continuous
 62
     5
100
AcDbLine
 10
1928.921767720725
 20
387.7439907163396
 30
0.0
 11
1952.921767720724
 21
387.7439907163396
 31
0.0
  0
LINE
  5
24E
330
6F
100
AcDbEntity
  8
_0-7_枠細線
  6
Continuous
 62
     5
100
AcDbLine
 10
1940.921767720724
 20
411.7439907163396
 30
0.0
 11
1928.921767720725
 21
387.7439907163396
 31
0.0
  0
TEXT
  5
24F
330
6F
100
AcDbEntity
  8
_0-7_枠細線
 62
     5
100
AcDbText
 10
1932.706009749761
 20
387.2527871237311
 30
0.0
 40
20.0
  1
１
 41
0.8
100
AcDbText
  0
LINE
  5
250
330
6F
100
AcDbEntity
  8
_0-7_枠細線
  6
Continuous
 62
     5
100
AcDbLine
 10
1952.813460980564
 20
880.2204149244595
 30
0.0
 11
1940.813460980564
 21
904.2204149244591
 31
0.0
  0
LINE
  5
251
330
6F
100
AcDbEntity
  8
_0-7_枠細線
  6
Continuous
 62
     5
100
AcDbLine
 10
1928.813460980564
 20
880.2204149244595
 30
0.0
 11
1952.813460980564
 21
880.2204149244595
 31
0.0
  0
LINE
  5
252
330
6F
100
AcDbEntity
  8
_0-7_枠細線
  6
Continuous
 62
     5
100
AcDbLine
 10
1940.813460980564
 20
904.2204149244591
 30
0.0
 11
1928.813460980564
 21
880.2204149244595
 31
0.0
  0
TEXT
  5
253
330
6F
100
AcDbEntity
  8
_0-7_枠細線
 62
     5
100
AcDbText
 10
1932.597703009601
 20
879.7292113318507
 30
0.0
 40
20.0
  1
１
 41
0.8
100
AcDbText
  0
TEXT
  5
254
330
6F
100
AcDbEntity
  8
_0-7_枠細線
 62
     5
100
AcDbText
 10
1502.160592592592
 20
1455.999999999999
 30
0.0
 40
20.0
  1
金具取付位置変更
100
AcDbText
  0
TEXT
  5
255
330
6F
100
AcDbEntity
  8
_0-7_枠細線
 62
     5
100
AcDbText
 10
1887.999999999999
 20
1455.999999999999
 30
0.0
 40
20.0
  1
２０１７．０２．０９
 41
0.6
100
AcDbText
  0
LINE
  5
256
330
6F
100
AcDbEntity
  8
_0-1_計細線
  6
DASHED2
 62
     3
100
AcDbLine
 10
331.1916257372623
 20
1076.888395020252
 30
0.0
 11
307.1916257372623
 21
1076.888395020252
 31
0.0
  0
LINE
  5
257
330
6F
100
AcDbEntity
  8
_0-1_計細線
  6
Continuous
 62
     3
100
AcDbLine
 10
235.1916257372613
 20
1052.388395020252
 30
0.0
 11
235.1916257372613
 21
1077.388395020252
 31
0.0
  0
LINE
  5
258
330
6F
100
AcDbEntity
  8
_0-1_計細線
  6
DASHED2
 62
     3
100
AcDbLine
 10
307.1916257372623
 20
1053.888395020252
 30
0.0
 11
331.1916257372623
 21
1053.888395020252
 31
0.0
  0
LINE
  5
259
330
6F
100
AcDbEntity
  8
_0-1_計細線
  6
DASHED2
 62
     3
100
AcDbLine
 10
331.1916257372623
 20
1053.888395020252
 30
0.0
 11
331.1916257372623
 21
1076.888395020252
 31
0.0
  0
LINE
  5
25A
330
6F
100
AcDbEntity
  8
_0-1_計細線
  6
DASHED2
 62
     3
100
AcDbLine
 10
307.1916257372623
 20
1076.888395020252
 30
0.0
 11
307.1916257372623
 21
1053.888395020252
 31
0.0
  0
ARC
  5
25B
330
6F
100
AcDbEntity
  8
_0-1_計細線
  6
DASHED2
 62
     3
100
AcDbCircle
 10
238.1916257372623
 20
1081.888395020252
 30
0.0
 40
3.0
100
AcDbArc
 50
89.99999999999991
 51
179.9999999999998
  0
LINE
  5
25C
330
6F
100
AcDbEntity
  8
_0-1_計細線
  6
DASHED2
 62
     3
100
AcDbLine
 10
235.1916257372622
 20
1081.888395020252
 30
0.0
 11
235.1916257372622
 21
1075.888395020252
 31
0.0
  0
LINE
  5
25D
330
6F
100
AcDbEntity
  8
_0-1_計細線
  6
DASHED2
 62
     3
100
AcDbLine
 10
261.1916257372613
 20
1052.888395020252
 30
0.0
 11
261.1916257372613
 21
1075.888395020252
 31
0.0
  0
ARC
  5
25E
330
6F
100
AcDbEntity
  8
_0-1_計細線
  6
DASHED2
 62
     3
100
AcDbCircle
 10
263.1916257372613
 20
1052.888395020252
 30
0.0
 40
2.0
100
AcDbArc
 50
179.9999999999998
 51
269.9999999999997
  0
LINE
  5
25F
330
6F
100
AcDbEntity
  8
_0-1_計細線
  6
Continuous
 62
     3
100
AcDbLine
 10
233.1916257372632
 20
1085.888395020252
 30
0.0
 11
233.1916257372632
 21
1075.888395020252
 31
0.0
  0
LINE
  5
260
330
6F
100
AcDbEntity
  8
_0-0_計極細
  6
CENTER1
 62
     2
100
AcDbLine
 10
233.1916257372632
 20
1069.888395020252
 30
0.0
 11
336.4713499234467
 21
1069.888395020252
 31
0.0
  0
LINE
  5
261
330
6F
100
AcDbEntity
  8
_0-1_計細線
  6
DASHED2
 62
     3
100
AcDbLine
 10
599.1916257372623
 20
1076.888395020252
 30
0.0
 11
623.1916257372623
 21
1076.888395020252
 31
0.0
  0
LINE
  5
262
330
6F
100
AcDbEntity
  8
_0-1_計細線
  6
Continuous
 62
     3
100
AcDbLine
 10
695.1916257372631
 20
1052.388395020252
 30
0.0
 11
695.1916257372631
 21
1077.388395020252
 31
0.0
  0
LINE
  5
263
330
6F
100
AcDbEntity
  8
_0-1_計細線
  6
DASHED2
 62
     3
100
AcDbLine
 10
623.1916257372623
 20
1053.888395020252
 30
0.0
 11
599.1916257372623
 21
1053.888395020252
 31
0.0
  0
LINE
  5
264
330
6F
100
AcDbEntity
  8
_0-1_計細線
  6
DASHED2
 62
     3
100
AcDbLine
 10
599.1916257372623
 20
1053.888395020252
 30
0.0
 11
599.1916257372623
 21
1076.888395020252
 31
0.0
  0
LINE
  5
265
330
6F
100
AcDbEntity
  8
_0-1_計細線
  6
DASHED2
 62
     3
100
AcDbLine
 10
623.1916257372623
 20
1076.888395020252
 30
0.0
 11
623.1916257372623
 21
1053.888395020252
 31
0.0
  0
ARC
  5
266
330
6F
100
AcDbEntity
  8
_0-1_計細線
  6
DASHED2
 62
     3
100
AcDbCircle
 10
692.1916257372632
 20
1081.888395020252
 30
0.0
 40
3.0
100
AcDbArc
 50
0.0
 51
89.99999999999991
  0
LINE
  5
267
330
6F
100
AcDbEntity
  8
_0-1_計細線
  6
DASHED2
 62
     3
100
AcDbLine
 10
695.1916257372631
 20
1081.888395020252
 30
0.0
 11
695.1916257372631
 21
1075.888395020252
 31
0.0
  0
LINE
  5
268
330
6F
100
AcDbEntity
  8
_0-1_計細線
  6
DASHED2
 62
     3
100
AcDbLine
 10
669.1916257372632
 20
1052.888395020252
 30
0.0
 11
669.1916257372632
 21
1075.888395020252
 31
0.0
  0
ARC
  5
269
330
6F
100
AcDbEntity
  8
_0-1_計細線
  6
DASHED2
 62
     3
100
AcDbCircle
 10
667.1916257372632
 20
1052.888395020252
 30
0.0
 40
2.0
100
AcDbArc
 50
269.9999999999997
 51
359.9999999999997
  0
LINE
  5
26A
330
6F
100
AcDbEntity
  8
_0-1_計細線
  6
Continuous
 62
     3
100
AcDbLine
 10
697.1916257372631
 20
1085.888395020252
 30
0.0
 11
697.1916257372631
 21
1075.888395020252
 31
0.0
  0
LINE
  5
26B
330
6F
100
AcDbEntity
  8
_0-1_計細線
  6
DASHED2
 62
     3
100
AcDbLine
 10
238.1916257372623
 20
1084.888395020252
 30
0.0
 11
692.1916257372632
 21
1084.888395020252
 31
0.0
  0
LINE
  5
26C
330
6F
100
AcDbEntity
  8
_0-1_計細線
  6
DASHED2
 62
     3
100
AcDbLine
 10
263.1916257372613
 20
1050.888395020252
 30
0.0
 11
667.1916257372632
 21
1050.888395020252
 31
0.0
  0
LINE
  5
26D
330
6F
100
AcDbEntity
  8
_0-1_計細線
  6
Continuous
 62
     3
100
AcDbLine
 10
233.1916257372632
 20
1075.888395020252
 30
0.0
 11
697.1916257372631
 21
1075.888395020252
 31
0.0
  0
LINE
  5
26E
330
6F
100
AcDbEntity
  8
_0-1_計細線
  6
Continuous
 62
     3
100
AcDbLine
 10
697.1916257372631
 20
1085.888395020252
 30
0.0
 11
233.1916257372632
 21
1085.888395020252
 31
0.0
  0
LINE
  5
26F
330
6F
100
AcDbEntity
  8
_0-0_計極細
  6
CENTER1
 62
     2
100
AcDbLine
 10
741.0037664277092
 20
1069.888395020252
 30
0.0
 11
336.4713499234467
 21
1069.888395020252
 31
0.0
  0
LINE
  5
270
330
6F
100
AcDbEntity
  8
_0-5_寸法線
  6
Continuous
 62
     7
100
AcDbLine
 10
233.1916257372632
 20
1103.388395020252
 30
0.0
 11
233.1916257372632
 21
1285.888395020252
 31
0.0
  0
LINE
  5
271
330
6F
100
AcDbEntity
  8
_0-5_寸法線
  6
Continuous
 62
     7
100
AcDbLine
 10
233.1916257372632
 20
1277.888395020252
 30
0.0
 11
248.6464389578883
 21
1282.029499741893
 31
0.0
  0
LINE
  5
272
330
6F
100
AcDbEntity
  8
_0-5_寸法線
  6
Continuous
 62
     7
100
AcDbLine
 10
233.1916257372632
 20
1277.888395020252
 30
0.0
 11
248.6464389578883
 21
1273.747290298611
 31
0.0
  0
LINE
  5
273
330
6F
100
AcDbEntity
  8
_0-5_寸法線
  6
Continuous
 62
     7
100
AcDbLine
 10
697.1916257372631
 20
1103.388395020252
 30
0.0
 11
697.1916257372631
 21
1285.888395020252
 31
0.0
  0
LINE
  5
274
330
6F
100
AcDbEntity
  8
_0-5_寸法線
  6
Continuous
 62
     7
100
AcDbLine
 10
697.1916257372631
 20
1277.888395020252
 30
0.0
 11
681.7368125166381
 21
1273.747290298612
 31
0.0
  0
LINE
  5
275
330
6F
100
AcDbEntity
  8
_0-5_寸法線
  6
Continuous
 62
     7
100
AcDbLine
 10
697.1916257372631
 20
1277.888395020252
 30
0.0
 11
681.7368125166381
 21
1282.029499741893
 31
0.0
  0
LINE
  5
276
330
6F
100
AcDbEntity
  8
_0-5_寸法線
  6
Continuous
 62
     7
100
AcDbLine
 10
233.1916257372632
 20
1277.888395020252
 30
0.0
 11
697.1916257372631
 21
1277.888395020252
 31
0.0
  0
TEXT
  5
277
330
6F
100
AcDbEntity
  8
_0-5_寸法線
 62
     7
100
AcDbText
 10
447.1916257372631
 20
1277.888395020252
 30
0.0
 40
24.0
  1
464
100
AcDbText
  0
LINE
  5
278
330
6F
100
AcDbEntity
  8
_0-5_寸法線
  6
Continuous
 62
     7
100
AcDbLine
 10
235.1916257372632
 20
1101.188395020252
 30
0.0
 11
235.1916257372632
 21
1229.888395020252
 31
0.0
  0
LINE
  5
279
330
6F
100
AcDbEntity
  8
_0-5_寸法線
  6
Continuous
 62
     7
100
AcDbLine
 10
235.1916257372632
 20
1221.888395020252
 30
0.0
 11
250.6464389578883
 21
1226.029499741893
 31
0.0
  0
LINE
  5
27A
330
6F
100
AcDbEntity
  8
_0-5_寸法線
  6
Continuous
 62
     7
100
AcDbLine
 10
235.1916257372632
 20
1221.888395020252
 30
0.0
 11
250.6464389578883
 21
1217.747290298611
 31
0.0
  0
LINE
  5
27B
330
6F
100
AcDbEntity
  8
_0-5_寸法線
  6
Continuous
 62
     7
100
AcDbLine
 10
695.1916257372618
 20
1101.188395020252
 30
0.0
 11
695.1916257372618
 21
1229.888395020252
 31
0.0
  0
LINE
  5
27C
330
6F
100
AcDbEntity
  8
_0-5_寸法線
  6
Continuous
 62
     7
100
AcDbLine
 10
695.1916257372618
 20
1221.888395020252
 30
0.0
 11
679.7368125166367
 21
1217.747290298612
 31
0.0
  0
LINE
  5
27D
330
6F
100
AcDbEntity
  8
_0-5_寸法線
  6
Continuous
 62
     7
100
AcDbLine
 10
695.1916257372618
 20
1221.888395020252
 30
0.0
 11
679.7368125166367
 21
1226.029499741893
 31
0.0
  0
LINE
  5
27E
330
6F
100
AcDbEntity
  8
_0-5_寸法線
  6
Continuous
 62
     7
100
AcDbLine
 10
235.1916257372632
 20
1221.888395020252
 30
0.0
 11
695.1916257372618
 21
1221.888395020252
 31
0.0
  0
TEXT
  5
27F
330
6F
100
AcDbEntity
  8
_0-5_寸法線
 62
     7
100
AcDbText
 10
447.1916257372623
 20
1221.888395020252
 30
0.0
 40
24.0
  1
460
100
AcDbText
  0
LINE
  5
280
330
6F
100
AcDbEntity
  8
_0-1_計細線
  6
Continuous
 62
     3
100
AcDbLine
 10
743.6916257372618
 20
1046.384970020252
 30
0.0
 11
742.4916257372621
 21
1046.384970020252
 31
0.0
  0
LINE
  5
281
330
6F
100
AcDbEntity
  8
_0-1_計細線
  6
Continuous
 62
     3
100
AcDbLine
 10
735.1916257372622
 20
1084.888395020252
 30
0.0
 11
736.6916257372622
 21
1084.888395020252
 31
0.0
  0
LINE
  5
282
330
6F
100
AcDbEntity
  8
_0-1_計細線
  6
Continuous
 62
     3
100
AcDbLine
 10
742.6916257372617
 20
1076.888395020252
 30
0.0
 11
738.6916257372623
 21
1076.888395020252
 31
0.0
  0
LINE
  5
283
330
6F
100
AcDbEntity
  8
_0-1_計細線
  6
Continuous
 62
     3
100
AcDbLine
 10
742.6916257372617
 20
1053.888395020252
 30
0.0
 11
738.6916257372623
 21
1053.888395020252
 31
0.0
  0
LINE
  5
284
330
6F
100
AcDbEntity
  8
_0-1_計細線
  6
Continuous
 62
     3
100
AcDbLine
 10
738.6916257372623
 20
1083.888395020252
 30
0.0
 11
738.6916257372623
 21
1062.188395020252
 31
0.0
  0
LINE
  5
285
330
6F
100
AcDbEntity
  8
_0-1_計細線
  6
Continuous
 62
     3
100
AcDbLine
 10
736.6916257372622
 20
1083.888395020252
 30
0.0
 11
738.6916257372623
 21
1083.888395020252
 31
0.0
  0
LINE
  5
286
330
6F
100
AcDbEntity
  8
_0-1_計細線
  6
Continuous
 62
     3
100
AcDbLine
 10
743.6916257372618
 20
1046.388395020252
 30
0.0
 11
738.6916257372623
 21
1046.388395020252
 31
0.0
  0
LINE
  5
287
330
6F
100
AcDbEntity
  8
_0-1_計細線
  6
Continuous
 62
     3
100
AcDbLine
 10
743.6916257372618
 20
1046.388395020252
 30
0.0
 11
743.6916257372618
 21
780.8883950202521
 31
0.0
  0
LINE
  5
288
330
6F
100
AcDbEntity
  8
_0-1_計細線
  6
Continuous
 62
     3
100
AcDbLine
 10
738.6916257372623
 20
1083.888395020252
 30
0.0
 11
738.6916257372623
 21
780.8883950202521
 31
0.0
  0
LINE
  5
289
330
6F
100
AcDbEntity
  8
_0-1_計細線
  6
Continuous
 62
     3
100
AcDbLine
 10
736.6916257372622
 20
1084.888395020252
 30
0.0
 11
736.6916257372622
 21
780.8883950202521
 31
0.0
  0
LINE
  5
28A
330
6F
100
AcDbEntity
  8
_0-1_計細線
  6
Continuous
 62
     3
100
AcDbLine
 10
735.1916257372622
 20
1084.888395020252
 30
0.0
 11
735.1916257372622
 21
780.8883950202521
 31
0.0
  0
LINE
  5
28B
330
6F
100
AcDbEntity
  8
_0-1_計細線
  6
Continuous
 62
     3
100
AcDbLine
 10
743.6916257372618
 20
1050.888395020252
 30
0.0
 11
742.6916257372617
 21
1050.888395020252
 31
0.0
  0
LINE
  5
28C
330
6F
100
AcDbEntity
  8
_0-1_計細線
  6
Continuous
 62
     3
100
AcDbLine
 10
742.6916257372617
 20
1084.888395020252
 30
0.0
 11
733.6916257372617
 21
1084.888395020252
 31
0.0
  0
LINE
  5
28D
330
6F
100
AcDbEntity
  8
_0-1_計細線
  6
Continuous
 62
     3
100
AcDbLine
 10
742.6916257372617
 20
1050.888395020252
 30
0.0
 11
742.6916257372617
 21
1084.888395020252
 31
0.0
  0
LINE
  5
28E
330
6F
100
AcDbEntity
  8
_0-1_計細線
  6
Continuous
 62
     3
100
AcDbLine
 10
743.6916257372618
 20
1050.888395020252
 30
0.0
 11
742.6916257372617
 21
1050.888395020252
 31
0.0
  0
LINE
  5
28F
330
6F
100
AcDbEntity
  8
_0-1_計細線
  6
Continuous
 62
     3
100
AcDbLine
 10
743.6916257372618
 20
1085.888395020252
 30
0.0
 11
743.6916257372618
 21
1050.888395020252
 31
0.0
  0
LINE
  5
290
330
6F
100
AcDbEntity
  8
_0-1_計細線
  6
Continuous
 62
     3
100
AcDbLine
 10
732.6916257372618
 20
1085.888395020252
 30
0.0
 11
743.6916257372618
 21
1085.888395020252
 31
0.0
  0
LINE
  5
291
330
6F
100
AcDbEntity
  8
_0-1_計細線
  6
Continuous
 62
     3
100
AcDbLine
 10
732.6916257372618
 20
1075.888395020252
 30
0.0
 11
732.6916257372618
 21
1085.888395020252
 31
0.0
  0
LINE
  5
292
330
6F
100
AcDbEntity
  8
_0-1_計細線
  6
Continuous
 62
     3
100
AcDbLine
 10
733.6916257372617
 20
1075.888395020252
 30
0.0
 11
732.6916257372618
 21
1075.888395020252
 31
0.0
  0
LINE
  5
293
330
6F
100
AcDbEntity
  8
_0-1_計細線
  6
Continuous
 62
     3
100
AcDbLine
 10
733.6916257372617
 20
1084.888395020252
 30
0.0
 11
733.6916257372617
 21
1075.888395020252
 31
0.0
  0
LINE
  5
294
330
6F
100
AcDbEntity
  8
_0-1_計細線
  6
Continuous
 62
     3
100
AcDbLine
 10
737.8916257372621
 20
1084.888395020252
 30
0.0
 11
741.491625737262
 21
1084.888395020252
 31
0.0
  0
LINE
  5
295
330
6F
100
AcDbEntity
  8
_0-5_寸法線
  6
Continuous
 62
     7
100
AcDbLine
 10
732.6916257372618
 20
1103.388395020252
 30
0.0
 11
732.6916257372618
 21
1173.888395020252
 31
0.0
  0
LINE
  5
296
330
6F
100
AcDbEntity
  8
_0-5_寸法線
  6
Continuous
 62
     7
100
AcDbLine
 10
732.6916257372618
 20
1165.888395020252
 30
0.0
 11
717.2368125166368
 21
1161.747290298612
 31
0.0
  0
LINE
  5
297
330
6F
100
AcDbEntity
  8
_0-5_寸法線
  6
Continuous
 62
     7
100
AcDbLine
 10
732.6916257372618
 20
1165.888395020252
 30
0.0
 11
717.2368125166368
 21
1170.029499741892
 31
0.0
  0
LINE
  5
298
330
6F
100
AcDbEntity
  8
_0-5_寸法線
  6
Continuous
 62
     7
100
AcDbLine
 10
743.6916257372618
 20
1103.388395020252
 30
0.0
 11
743.6916257372618
 21
1173.888395020252
 31
0.0
  0
LINE
  5
299
330
6F
100
AcDbEntity
  8
_0-5_寸法線
  6
Continuous
 62
     7
100
AcDbLine
 10
743.6916257372618
 20
1165.888395020252
 30
0.0
 11
759.1464389578868
 21
1170.029499741892
 31
0.0
  0
LINE
  5
29A
330
6F
100
AcDbEntity
  8
_0-5_寸法線
  6
Continuous
 62
     7
100
AcDbLine
 10
743.6916257372618
 20
1165.888395020252
 30
0.0
 11
759.1464389578868
 21
1161.747290298611
 31
0.0
  0
LINE
  5
29B
330
6F
100
AcDbEntity
  8
_0-5_寸法線
  6
Continuous
 62
     7
100
AcDbLine
 10
700.6916257372617
 20
1165.888395020252
 30
0.0
 11
775.6916257372617
 21
1165.888395020252
 31
0.0
  0
TEXT
  5
29C
330
6F
100
AcDbEntity
  8
_0-5_寸法線
 62
     7
100
AcDbText
 10
726.1916257372618
 20
1165.888395020252
 30
0.0
 40
24.0
  1
11
100
AcDbText
  0
LINE
  5
29D
330
6F
100
AcDbEntity
  8
_0-1_計細線
  6
DASHED2
 62
     3
100
AcDbLine
 10
1100.167962598817
 20
1076.888395020252
 30
0.0
 11
1076.167962598817
 21
1076.888395020252
 31
0.0
  0
LINE
  5
29E
330
6F
100
AcDbEntity
  8
_0-1_計細線
  6
Continuous
 62
     3
100
AcDbLine
 10
1030.167962598817
 20
1054.388395020252
 30
0.0
 11
1030.167962598817
 21
1077.388395020252
 31
0.0
  0
ARC
  5
29F
330
6F
100
AcDbEntity
  8
_0-1_計細線
  6
Continuous
 62
     3
100
AcDbCircle
 10
1032.167962598816
 20
1054.388395020252
 30
0.0
 40
2.0
100
AcDbArc
 50
179.9999999999998
 51
269.9999999999997
  0
LINE
  5
2A0
330
6F
100
AcDbEntity
  8
_0-1_計細線
  6
DASHED2
 62
     3
100
AcDbLine
 10
1076.167962598817
 20
1053.888395020252
 30
0.0
 11
1100.167962598817
 21
1053.888395020252
 31
0.0
  0
LINE
  5
2A1
330
6F
100
AcDbEntity
  8
_0-1_計細線
  6
DASHED2
 62
     3
100
AcDbLine
 10
1100.167962598817
 20
1053.888395020252
 30
0.0
 11
1100.167962598817
 21
1076.888395020252
 31
0.0
  0
LINE
  5
2A2
330
6F
100
AcDbEntity
  8
_0-1_計細線
  6
DASHED2
 62
     3
100
AcDbLine
 10
1076.167962598817
 20
1076.888395020252
 30
0.0
 11
1076.167962598817
 21
1053.888395020252
 31
0.0
  0
LINE
  5
2A3
330
6F
100
AcDbEntity
  8
_0-1_計細線
  6
DASHED2
 62
     3
100
AcDbLine
 10
1004.167962598817
 20
1081.888395020252
 30
0.0
 11
1004.167962598817
 21
1077.388395020252
 31
0.0
  0
ARC
  5
2A4
330
6F
100
AcDbEntity
  8
_0-1_計細線
  6
DASHED2
 62
     3
100
AcDbCircle
 10
1007.167962598817
 20
1081.888395020252
 30
0.0
 40
3.0
100
AcDbArc
 50
89.99999999999991
 51
179.9999999999998
  0
LINE
  5
2A5
330
6F
100
AcDbEntity
  8
_0-1_計細線
  6
DASHED2
 62
     3
100
AcDbLine
 10
1005.167962598817
 20
1083.888395020252
 30
0.0
 11
1005.167962598817
 21
1077.588395020252
 31
0.0
  0
LINE
  5
2A6
330
6F
100
AcDbEntity
  8
_0-1_計細線
  6
Continuous
 62
     3
100
AcDbLine
 10
1002.167962598817
 20
1077.388395020252
 30
0.0
 11
1030.167962598817
 21
1077.388395020252
 31
0.0
  0
LINE
  5
2A7
330
6F
100
AcDbEntity
  8
_0-1_計細線
  6
Continuous
 62
     3
100
AcDbLine
 10
1002.167962598817
 20
1085.888395020252
 30
0.0
 11
1002.167962598817
 21
1077.388395020252
 31
0.0
  0
LINE
  5
2A8
330
6F
100
AcDbEntity
  8
_0-1_計細線
  6
DASHED2
 62
     3
100
AcDbLine
 10
1368.167962598817
 20
1076.888395020252
 30
0.0
 11
1392.167962598817
 21
1076.888395020252
 31
0.0
  0
LINE
  5
2A9
330
6F
100
AcDbEntity
  8
_0-1_計細線
  6
Continuous
 62
     3
100
AcDbLine
 10
1026.167962598818
 20
1046.388395020252
 30
0.0
 11
1442.167962598817
 21
1046.388395020252
 31
0.0
  0
LINE
  5
2AA
330
6F
100
AcDbEntity
  8
_0-1_計細線
  6
Continuous
 62
     3
100
AcDbLine
 10
1032.167962598816
 20
1052.388395020252
 30
0.0
 11
1436.167962598818
 21
1052.388395020252
 31
0.0
  0
LINE
  5
2AB
330
6F
100
AcDbEntity
  8
_0-1_計細線
  6
Continuous
 62
     3
100
AcDbLine
 10
1438.167962598818
 20
1054.388395020252
 30
0.0
 11
1438.167962598818
 21
1077.388395020252
 31
0.0
  0
ARC
  5
2AC
330
6F
100
AcDbEntity
  8
_0-1_計細線
  6
Continuous
 62
     3
100
AcDbCircle
 10
1436.167962598818
 20
1054.388395020252
 30
0.0
 40
2.0
100
AcDbArc
 50
269.9999999999997
 51
359.9999999999997
  0
LINE
  5
2AD
330
6F
100
AcDbEntity
  8
_0-1_計細線
  6
DASHED2
 62
     3
100
AcDbLine
 10
1392.167962598817
 20
1053.888395020252
 30
0.0
 11
1368.167962598817
 21
1053.888395020252
 31
0.0
  0
LINE
  5
2AE
330
6F
100
AcDbEntity
  8
_0-1_計細線
  6
DASHED2
 62
     3
100
AcDbLine
 10
1368.167962598817
 20
1053.888395020252
 30
0.0
 11
1368.167962598817
 21
1076.888395020252
 31
0.0
  0
LINE
  5
2AF
330
6F
100
AcDbEntity
  8
_0-1_計細線
  6
DASHED2
 62
     3
100
AcDbLine
 10
1392.167962598817
 20
1076.888395020252
 30
0.0
 11
1392.167962598817
 21
1053.888395020252
 31
0.0
  0
LINE
  5
2B0
330
6F
100
AcDbEntity
  8
_0-1_計細線
  6
DASHED2
 62
     3
100
AcDbLine
 10
1464.167962598815
 20
1081.888395020252
 30
0.0
 11
1464.167962598815
 21
1077.388395020252
 31
0.0
  0
LINE
  5
2B1
330
6F
100
AcDbEntity
  8
_0-1_計細線
  6
DASHED2
 62
     3
100
AcDbLine
 10
1007.167962598817
 20
1084.888395020252
 30
0.0
 11
1461.167962598816
 21
1084.888395020252
 31
0.0
  0
ARC
  5
2B2
330
6F
100
AcDbEntity
  8
_0-1_計細線
  6
DASHED2
 62
     3
100
AcDbCircle
 10
1461.167962598816
 20
1081.888395020252
 30
0.0
 40
3.0
100
AcDbArc
 50
0.0
 51
89.99999999999991
  0
LINE
  5
2B3
330
6F
100
AcDbEntity
  8
_0-1_計細線
  6
DASHED2
 62
     3
100
AcDbLine
 10
1463.167962598816
 20
1083.888395020252
 30
0.0
 11
1463.167962598816
 21
1077.388395020252
 31
0.0
  0
LINE
  5
2B4
330
6F
100
AcDbEntity
  8
_0-1_計細線
  6
DASHED2
 62
     3
100
AcDbLine
 10
1005.167962598817
 20
1083.888395020252
 30
0.0
 11
1463.167962598816
 21
1083.888395020252
 31
0.0
  0
LINE
  5
2B5
330
6F
100
AcDbEntity
  8
_0-1_計細線
  6
Continuous
 62
     3
100
AcDbLine
 10
1438.167962598818
 20
1077.388395020252
 30
0.0
 11
1466.167962598817
 21
1077.388395020252
 31
0.0
  0
LINE
  5
2B6
330
6F
100
AcDbEntity
  8
_0-1_計細線
  6
Continuous
 62
     3
100
AcDbLine
 10
1466.167962598817
 20
1085.888395020252
 30
0.0
 11
1466.167962598817
 21
1077.388395020252
 31
0.0
  0
LINE
  5
2B7
330
6F
100
AcDbEntity
  8
_0-1_計細線
  6
Continuous
 62
     3
100
AcDbLine
 10
1466.167962598817
 20
1085.888395020252
 30
0.0
 11
1002.167962598817
 21
1085.888395020252
 31
0.0
  0
LINE
  5
2B8
330
6F
100
AcDbEntity
  8
_0-0_計極細
  6
CENTER1
 62
     2
100
AcDbLine
 10
1466.167962598818
 20
1069.888395020252
 30
0.0
 11
1002.167962598817
 21
1069.888395020252
 31
0.0
  0
TEXT
  5
2B9
330
6F
100
AcDbEntity
  8
_0-7_枠細線
 62
     5
100
AcDbText
 10
582.3608226309558
 20
1010.216188373056
 30
0.0
 40
24.0
  1
Ｂ部
100
AcDbText
  0
LINE
  5
2BA
330
6F
100
AcDbEntity
  8
_0-0_計極細
  6
CENTER1
 62
     2
100
AcDbLine
 10
287.1916257372628
 20
1074.61327284876
 30
0.0
 11
287.1916257372628
 21
1054.992834892556
 31
0.0
  0
LINE
  5
2BB
330
6F
100
AcDbEntity
  8
_0-1_計細線
  6
DASHED2
 62
     3
100
AcDbLine
 10
278.1916257372618
 20
1061.138397892651
 30
0.0
 11
279.2916257372617
 21
1065.638397090698
 31
0.0
  0
LINE
  5
2BC
330
6F
100
AcDbEntity
  8
_0-1_計細線
  6
DASHED2
 62
     3
100
AcDbLine
 10
279.6916257372618
 20
1065.63839679908
 30
0.0
 11
279.6916257372618
 21
1061.138396799079
 31
0.0
  0
CIRCLE
  5
2BD
330
6F
100
AcDbEntity
  8
_0-1_計細線
  6
DASHED2
 62
     3
100
AcDbCircle
 10
274.6916257372618
 20
1063.38840044432
 30
0.0
 40
1.0
  0
LINE
  5
2BE
330
6F
100
AcDbEntity
  8
_0-1_計細線
  6
DASHED2
 62
     3
100
AcDbLine
 10
272.1916257372618
 20
1061.138402266941
 30
0.0
 11
272.1916257372618
 21
1065.638402266942
 31
0.0
  0
ARC
  5
2BF
330
6F
100
AcDbEntity
  8
_0-1_計細線
  6
DASHED2
 62
     3
100
AcDbCircle
 10
287.4416257372622
 20
1071.888391294767
 30
0.0
 40
2.0
100
AcDbArc
 50
0.0
 51
89.99999164573054
  0
LINE
  5
2C0
330
6F
100
AcDbEntity
  8
_0-1_計細線
  6
DASHED2
 62
     3
100
AcDbLine
 10
287.4416260288813
 20
1073.888391294767
 30
0.0
 11
286.9416260288813
 21
1073.888391367672
 31
0.0
  0
ARC
  5
2C1
330
6F
100
AcDbEntity
  8
_0-1_計細線
  6
DASHED2
 62
     3
100
AcDbCircle
 10
286.9416257372622
 20
1071.888391367672
 30
0.0
 40
2.0
100
AcDbArc
 50
89.99999164573054
 51
179.9999999999998
  0
LINE
  5
2C2
330
6F
100
AcDbEntity
  8
_0-1_計細線
  6
DASHED2
 62
     3
100
AcDbLine
 10
294.6916257372622
 20
1065.63839679908
 30
0.0
 11
294.6916257372622
 21
1061.138396799079
 31
0.0
  0
LINE
  5
2C3
330
6F
100
AcDbEntity
  8
_0-1_計細線
  6
DASHED2
 62
     3
100
AcDbLine
 10
302.1916257372623
 20
1061.138380395493
 30
0.0
 11
302.1916257372623
 21
1065.638380395494
 31
0.0
  0
CIRCLE
  5
2C4
330
6F
100
AcDbEntity
  8
_0-1_計細線
  6
DASHED2
 62
     3
100
AcDbCircle
 10
299.6916257372622
 20
1063.388382218114
 30
0.0
 40
1.0
  0
LINE
  5
2C5
330
6F
100
AcDbEntity
  8
_0-1_計細線
  6
DASHED2
 62
     3
100
AcDbLine
 10
296.1916257372623
 20
1061.138397892651
 30
0.0
 11
295.0916257372619
 21
1065.638397090698
 31
0.0
  0
LINE
  5
2C6
330
6F
100
AcDbEntity
  8
_0-1_計細線
  6
DASHED2
 62
     3
100
AcDbLine
 10
284.9416257372622
 20
1071.888391367672
 30
0.0
 11
284.9416257372622
 21
1065.638392242528
 31
0.0
  0
LINE
  5
2C7
330
6F
100
AcDbEntity
  8
_0-1_計細線
  6
DASHED2
 62
     3
100
AcDbLine
 10
289.4416257372622
 20
1071.888391294767
 30
0.0
 11
289.4416257372622
 21
1065.638390419907
 31
0.0
  0
LINE
  5
2C8
330
6F
100
AcDbEntity
  8
_0-1_計細線
  6
DASHED2
 62
     3
100
AcDbLine
 10
302.1916257372623
 20
1061.138380395493
 30
0.0
 11
272.1916257372618
 21
1061.138402266941
 31
0.0
  0
LINE
  5
2C9
330
6F
100
AcDbEntity
  8
_0-1_計細線
  6
DASHED2
 62
     3
100
AcDbLine
 10
302.1916257372623
 20
1065.638380395494
 30
0.0
 11
272.1916257372618
 21
1065.638402266942
 31
0.0
  0
ARC
  5
2CA
330
6F
100
AcDbEntity
  8
_0-1_計細線
  6
DASHED2
 62
     3
100
AcDbCircle
 10
287.4416257372622
 20
1054.888391294762
 30
0.0
 40
2.0
100
AcDbArc
 50
269.9999916457041
 51
359.9999999999997
  0
ARC
  5
2CB
330
6F
100
AcDbEntity
  8
_0-1_計細線
  6
DASHED2
 62
     3
100
AcDbCircle
 10
286.9416257372622
 20
1054.888391367668
 30
0.0
 40
2.0
100
AcDbArc
 50
179.9999999999998
 51
269.9999916457041
  0
LINE
  5
2CC
330
6F
100
AcDbEntity
  8
_0-1_計細線
  6
DASHED2
 62
     3
100
AcDbLine
 10
284.9416257372622
 20
1061.138392242527
 30
0.0
 11
284.9416257372622
 21
1054.888391367668
 31
0.0
  0
LINE
  5
2CD
330
6F
100
AcDbEntity
  8
_0-1_計細線
  6
DASHED2
 62
     3
100
AcDbLine
 10
289.4416257372622
 20
1061.138390419906
 30
0.0
 11
289.4416257372622
 21
1054.888391294762
 31
0.0
  0
LINE
  5
2CE
330
6F
100
AcDbEntity
  8
_0-1_計細線
  6
DASHED2
 62
     3
100
AcDbLine
 10
287.4316257372621
 20
1070.768395020252
 30
0.0
 11
287.4316257372621
 21
1070.208395020252
 31
0.0
  0
LINE
  5
2CF
330
6F
100
AcDbEntity
  8
_0-1_計細線
  6
DASHED2
 62
     3
100
AcDbLine
 10
286.951625737262
 20
1070.768395020252
 30
0.0
 11
286.951625737262
 21
1070.208395020252
 31
0.0
  0
LINE
  5
2D0
330
6F
100
AcDbEntity
  8
_0-1_計細線
  6
DASHED2
 62
     3
100
AcDbLine
 10
286.951625737262
 20
1070.768395020252
 30
0.0
 11
286.951625737262
 21
1070.208395020252
 31
0.0
  0
CIRCLE
  5
2D1
330
6F
100
AcDbEntity
  8
_0-1_計細線
  6
DASHED2
 62
     3
100
AcDbCircle
 10
287.1916257372622
 20
1069.888395020252
 30
0.0
 40
1.6
  0
LINE
  5
2D2
330
6F
100
AcDbEntity
  8
_0-1_計細線
  6
DASHED2
 62
     3
100
AcDbLine
 10
286.3116257372621
 20
1069.648395020252
 30
0.0
 11
286.8716257372621
 21
1069.648395020252
 31
0.0
  0
LINE
  5
2D3
330
6F
100
AcDbEntity
  8
_0-1_計細線
  6
DASHED2
 62
     3
100
AcDbLine
 10
286.3116257372621
 20
1070.128395020252
 30
0.0
 11
286.8716257372621
 21
1070.128395020252
 31
0.0
  0
ARC
  5
2D4
330
6F
100
AcDbEntity
  8
_0-1_計細線
  6
DASHED2
 62
     3
100
AcDbCircle
 10
286.8716257372621
 20
1070.208395020252
 30
0.0
 40
0.08
100
AcDbArc
 50
269.9999999999997
 51
359.9999999999997
  0
ARC
  5
2D5
330
6F
100
AcDbEntity
  8
_0-1_計細線
  6
DASHED2
 62
     3
100
AcDbCircle
 10
286.8716257372621
 20
1069.568395020252
 30
0.0
 40
0.08
100
AcDbArc
 50
0.0
 51
89.99999999999991
  0
ARC
  5
2D6
330
6F
100
AcDbEntity
  8
_0-1_計細線
  6
DASHED2
 62
     3
100
AcDbCircle
 10
287.511625737262
 20
1069.568395020252
 30
0.0
 40
0.08
100
AcDbArc
 50
89.99999999999991
 51
179.9999999999998
  0
ARC
  5
2D7
330
6F
100
AcDbEntity
  8
_0-1_計細線
  6
DASHED2
 62
     3
100
AcDbCircle
 10
287.511625737262
 20
1070.208395020252
 30
0.0
 40
0.08
100
AcDbArc
 50
179.9999999999998
 51
269.9999999999997
  0
LINE
  5
2D8
330
6F
100
AcDbEntity
  8
_0-1_計細線
  6
DASHED2
 62
     3
100
AcDbLine
 10
286.951625737262
 20
1069.568395020252
 30
0.0
 11
286.951625737262
 21
1069.008395020252
 31
0.0
  0
LINE
  5
2D9
330
6F
100
AcDbEntity
  8
_0-1_計細線
  6
DASHED2
 62
     3
100
AcDbLine
 10
286.951625737262
 20
1069.568395020252
 30
0.0
 11
286.951625737262
 21
1069.008395020252
 31
0.0
  0
LINE
  5
2DA
330
6F
100
AcDbEntity
  8
_0-1_計細線
  6
DASHED2
 62
     3
100
AcDbLine
 10
287.4316257372621
 20
1069.568395020252
 30
0.0
 11
287.4316257372621
 21
1069.008395020252
 31
0.0
  0
LINE
  5
2DB
330
6F
100
AcDbEntity
  8
_0-1_計細線
  6
DASHED2
 62
     3
100
AcDbLine
 10
286.951625737262
 20
1069.008395020252
 30
0.0
 11
287.4316257372621
 21
1069.008395020252
 31
0.0
  0
LINE
  5
2DC
330
6F
100
AcDbEntity
  8
_0-1_計細線
  6
DASHED2
 62
     3
100
AcDbLine
 10
288.0716257372619
 20
1070.128395020252
 30
0.0
 11
288.0716257372619
 21
1069.648395020252
 31
0.0
  0
LINE
  5
2DD
330
6F
100
AcDbEntity
  8
_0-1_計細線
  6
DASHED2
 62
     3
100
AcDbLine
 10
287.511625737262
 20
1069.648395020252
 30
0.0
 11
288.0716257372619
 21
1069.648395020252
 31
0.0
  0
LINE
  5
2DE
330
6F
100
AcDbEntity
  8
_0-1_計細線
  6
DASHED2
 62
     3
100
AcDbLine
 10
287.511625737262
 20
1070.128395020252
 30
0.0
 11
288.0716257372619
 21
1070.128395020252
 31
0.0
  0
LINE
  5
2DF
330
6F
100
AcDbEntity
  8
_0-1_計細線
  6
DASHED2
 62
     3
100
AcDbLine
 10
286.3116257372621
 20
1070.128395020252
 30
0.0
 11
286.3116257372621
 21
1069.648395020252
 31
0.0
  0
LINE
  5
2E0
330
6F
100
AcDbEntity
  8
_0-1_計細線
  6
DASHED2
 62
     3
100
AcDbLine
 10
286.951625737262
 20
1070.768395020252
 30
0.0
 11
287.4316257372621
 21
1070.768395020252
 31
0.0
  0
LINE
  5
2E1
330
6F
100
AcDbEntity
  8
_0-7_枠細線
  6
Continuous
 62
     5
100
AcDbLine
 10
287.1916257372628
 20
1123.286135735819
 30
0.0
 11
299.1916077372729
 21
1126.501515942239
 31
0.0
  0
LINE
  5
2E2
330
6F
100
AcDbEntity
  8
_0-7_枠細線
  6
Continuous
 62
     5
100
AcDbLine
 10
287.1916257372628
 20
1123.286135735819
 30
0.0
 11
299.1916077372729
 21
1120.070747247201
 31
0.0
  0
LINE
  5
2E3
330
6F
100
AcDbEntity
  8
_0-7_枠細線
  6
Continuous
 62
     5
100
AcDbLine
 10
287.1916257372628
 20
1123.286135735819
 30
0.0
 11
342.3110809092409
 21
1123.286135735819
 31
0.0
  0
LINE
  5
2E4
330
6F
100
AcDbEntity
  8
_0-7_枠細線
  6
Continuous
 62
     5
100
AcDbLine
 10
287.1916257372628
 20
1010.071599514334
 30
0.0
 11
299.1916077372729
 21
1006.856211025716
 31
0.0
  0
LINE
  5
2E5
330
6F
100
AcDbEntity
  8
_0-7_枠細線
  6
Continuous
 62
     5
100
AcDbLine
 10
287.1916257372628
 20
1010.071599514334
 30
0.0
 11
299.1916077372729
 21
1013.286979720754
 31
0.0
  0
LINE
  5
2E6
330
6F
100
AcDbEntity
  8
_0-7_枠細線
  6
Continuous
 62
     5
100
AcDbLine
 10
287.1916257372628
 20
1010.071599514334
 30
0.0
 11
342.3110809092409
 21
1010.071599514334
 31
0.0
  0
LINE
  5
2E7
330
6F
100
AcDbEntity
  8
_0-7_枠細線
  6
Continuous
 62
     5
100
AcDbLine
 10
287.1916257372628
 20
1123.286135735819
 30
0.0
 11
287.1916257372628
 21
1010.071599514334
 31
0.0
  0
TEXT
  5
2E8
330
6F
100
AcDbEntity
  8
_0-7_枠細線
 62
     5
100
AcDbText
 10
312.4636368797605
 20
1124.41632567408
 30
0.0
 40
24.0
  1
Ａ\U+2019
100
AcDbText
  0
TEXT
  5
2E9
330
6F
100
AcDbEntity
  8
_0-7_枠細線
 62
     5
100
AcDbText
 10
312.3281413192576
 20
1012.864256747044
 30
0.0
 40
24.0
  1
Ａ
100
AcDbText
  0
LINE
  5
2EA
330
6F
100
AcDbEntity
  8
_0-1_計細線
  6
DASHED2
 62
     3
100
AcDbLine
 10
652.1916257372632
 20
1061.138397892651
 30
0.0
 11
651.0916257372632
 21
1065.638397090698
 31
0.0
  0
LINE
  5
2EB
330
6F
100
AcDbEntity
  8
_0-1_計細線
  6
DASHED2
 62
     3
100
AcDbLine
 10
650.6916257372632
 20
1065.63839679908
 30
0.0
 11
650.6916257372632
 21
1061.138396799079
 31
0.0
  0
CIRCLE
  5
2EC
330
6F
100
AcDbEntity
  8
_0-1_計細線
  6
DASHED2
 62
     3
100
AcDbCircle
 10
655.6916257372632
 20
1063.38840044432
 30
0.0
 40
1.0
  0
LINE
  5
2ED
330
6F
100
AcDbEntity
  8
_0-1_計細線
  6
DASHED2
 62
     3
100
AcDbLine
 10
658.1916257372633
 20
1061.138402266941
 30
0.0
 11
658.1916257372633
 21
1065.638402266942
 31
0.0
  0
ARC
  5
2EE
330
6F
100
AcDbEntity
  8
_0-1_計細線
  6
DASHED2
 62
     3
100
AcDbCircle
 10
642.9416257372627
 20
1071.888391294767
 30
0.0
 40
2.0
100
AcDbArc
 50
90.00000835426945
 51
179.9999999999998
  0
LINE
  5
2EF
330
6F
100
AcDbEntity
  8
_0-1_計細線
  6
DASHED2
 62
     3
100
AcDbLine
 10
642.9416254456436
 20
1073.888391294767
 30
0.0
 11
643.4416254456436
 21
1073.888391367672
 31
0.0
  0
ARC
  5
2F0
330
6F
100
AcDbEntity
  8
_0-1_計細線
  6
DASHED2
 62
     3
100
AcDbCircle
 10
643.4416257372626
 20
1071.888391367672
 30
0.0
 40
2.0
100
AcDbArc
 50
0.0
 51
90.00000835426945
  0
LINE
  5
2F1
330
6F
100
AcDbEntity
  8
_0-1_計細線
  6
DASHED2
 62
     3
100
AcDbLine
 10
635.6916257372627
 20
1065.63839679908
 30
0.0
 11
635.6916257372627
 21
1061.138396799079
 31
0.0
  0
LINE
  5
2F2
330
6F
100
AcDbEntity
  8
_0-1_計細線
  6
DASHED2
 62
     3
100
AcDbLine
 10
628.1916257372627
 20
1061.138380395493
 30
0.0
 11
628.1916257372627
 21
1065.638380395494
 31
0.0
  0
CIRCLE
  5
2F3
330
6F
100
AcDbEntity
  8
_0-1_計細線
  6
DASHED2
 62
     3
100
AcDbCircle
 10
630.6916257372627
 20
1063.388382218114
 30
0.0
 40
1.0
  0
LINE
  5
2F4
330
6F
100
AcDbEntity
  8
_0-1_計細線
  6
DASHED2
 62
     3
100
AcDbLine
 10
634.1916257372627
 20
1061.138397892651
 30
0.0
 11
635.2916257372631
 21
1065.638397090698
 31
0.0
  0
LINE
  5
2F5
330
6F
100
AcDbEntity
  8
_0-1_計細線
  6
DASHED2
 62
     3
100
AcDbLine
 10
645.4416257372627
 20
1071.888391367672
 30
0.0
 11
645.4416257372627
 21
1065.638392242528
 31
0.0
  0
LINE
  5
2F6
330
6F
100
AcDbEntity
  8
_0-1_計細線
  6
DASHED2
 62
     3
100
AcDbLine
 10
640.9416257372627
 20
1071.888391294767
 30
0.0
 11
640.9416257372627
 21
1065.638390419907
 31
0.0
  0
LINE
  5
2F7
330
6F
100
AcDbEntity
  8
_0-1_計細線
  6
DASHED2
 62
     3
100
AcDbLine
 10
628.1916257372627
 20
1061.138380395493
 30
0.0
 11
658.1916257372633
 21
1061.138402266941
 31
0.0
  0
LINE
  5
2F8
330
6F
100
AcDbEntity
  8
_0-1_計細線
  6
DASHED2
 62
     3
100
AcDbLine
 10
628.1916257372627
 20
1065.638380395494
 30
0.0
 11
658.1916257372633
 21
1065.638402266942
 31
0.0
  0
ARC
  5
2F9
330
6F
100
AcDbEntity
  8
_0-1_計細線
  6
DASHED2
 62
     3
100
AcDbCircle
 10
642.9416257372627
 20
1054.888391294762
 30
0.0
 40
2.0
100
AcDbArc
 50
179.9999999999998
 51
270.0000083542951
  0
ARC
  5
2FA
330
6F
100
AcDbEntity
  8
_0-1_計細線
  6
DASHED2
 62
     3
100
AcDbCircle
 10
643.4416257372626
 20
1054.888391367668
 30
0.0
 40
2.0
100
AcDbArc
 50
270.0000083542951
 51
359.9999999999997
  0
LINE
  5
2FB
330
6F
100
AcDbEntity
  8
_0-1_計細線
  6
DASHED2
 62
     3
100
AcDbLine
 10
645.4416257372627
 20
1061.138392242527
 30
0.0
 11
645.4416257372627
 21
1054.888391367668
 31
0.0
  0
LINE
  5
2FC
330
6F
100
AcDbEntity
  8
_0-1_計細線
  6
DASHED2
 62
     3
100
AcDbLine
 10
640.9416257372627
 20
1061.138390419906
 30
0.0
 11
640.9416257372627
 21
1054.888391294762
 31
0.0
  0
LINE
  5
2FD
330
6F
100
AcDbEntity
  8
_0-1_計細線
  6
DASHED2
 62
     3
100
AcDbLine
 10
642.9516257372629
 20
1070.768395020252
 30
0.0
 11
642.9516257372629
 21
1070.208395020252
 31
0.0
  0
LINE
  5
2FE
330
6F
100
AcDbEntity
  8
_0-1_計細線
  6
DASHED2
 62
     3
100
AcDbLine
 10
643.431625737263
 20
1070.768395020252
 30
0.0
 11
643.431625737263
 21
1070.208395020252
 31
0.0
  0
LINE
  5
2FF
330
6F
100
AcDbEntity
  8
_0-1_計細線
  6
DASHED2
 62
     3
100
AcDbLine
 10
643.431625737263
 20
1070.768395020252
 30
0.0
 11
643.431625737263
 21
1070.208395020252
 31
0.0
  0
CIRCLE
  5
300
330
6F
100
AcDbEntity
  8
_0-1_計細線
  6
DASHED2
 62
     3
100
AcDbCircle
 10
643.1916257372627
 20
1069.888395020252
 30
0.0
 40
1.6
  0
LINE
  5
301
330
6F
100
AcDbEntity
  8
_0-1_計細線
  6
DASHED2
 62
     3
100
AcDbLine
 10
644.0716257372627
 20
1069.648395020252
 30
0.0
 11
643.5116257372628
 21
1069.648395020252
 31
0.0
  0
LINE
  5
302
330
6F
100
AcDbEntity
  8
_0-1_計細線
  6
DASHED2
 62
     3
100
AcDbLine
 10
644.0716257372627
 20
1070.128395020252
 30
0.0
 11
643.5116257372628
 21
1070.128395020252
 31
0.0
  0
ARC
  5
303
330
6F
100
AcDbEntity
  8
_0-1_計細線
  6
DASHED2
 62
     3
100
AcDbCircle
 10
643.5116257372628
 20
1070.208395020252
 30
0.0
 40
0.08
100
AcDbArc
 50
179.9999999999998
 51
269.9999999999997
  0
ARC
  5
304
330
6F
100
AcDbEntity
  8
_0-1_計細線
  6
DASHED2
 62
     3
100
AcDbCircle
 10
643.5116257372628
 20
1069.568395020252
 30
0.0
 40
0.08
100
AcDbArc
 50
89.99999999999991
 51
179.9999999999998
  0
ARC
  5
305
330
6F
100
AcDbEntity
  8
_0-1_計細線
  6
DASHED2
 62
     3
100
AcDbCircle
 10
642.871625737263
 20
1069.568395020252
 30
0.0
 40
0.08
100
AcDbArc
 50
0.0
 51
89.99999999999991
  0
ARC
  5
306
330
6F
100
AcDbEntity
  8
_0-1_計細線
  6
DASHED2
 62
     3
100
AcDbCircle
 10
642.871625737263
 20
1070.208395020252
 30
0.0
 40
0.08
100
AcDbArc
 50
269.9999999999997
 51
359.9999999999997
  0
LINE
  5
307
330
6F
100
AcDbEntity
  8
_0-1_計細線
  6
DASHED2
 62
     3
100
AcDbLine
 10
643.431625737263
 20
1069.568395020252
 30
0.0
 11
643.431625737263
 21
1069.008395020252
 31
0.0
  0
LINE
  5
308
330
6F
100
AcDbEntity
  8
_0-1_計細線
  6
DASHED2
 62
     3
100
AcDbLine
 10
643.431625737263
 20
1069.568395020252
 30
0.0
 11
643.431625737263
 21
1069.008395020252
 31
0.0
  0
LINE
  5
309
330
6F
100
AcDbEntity
  8
_0-1_計細線
  6
DASHED2
 62
     3
100
AcDbLine
 10
642.9516257372629
 20
1069.568395020252
 30
0.0
 11
642.9516257372629
 21
1069.008395020252
 31
0.0
  0
LINE
  5
30A
330
6F
100
AcDbEntity
  8
_0-1_計細線
  6
DASHED2
 62
     3
100
AcDbLine
 10
643.431625737263
 20
1069.008395020252
 30
0.0
 11
642.9516257372629
 21
1069.008395020252
 31
0.0
  0
LINE
  5
30B
330
6F
100
AcDbEntity
  8
_0-1_計細線
  6
DASHED2
 62
     3
100
AcDbLine
 10
642.3116257372631
 20
1070.128395020252
 30
0.0
 11
642.3116257372631
 21
1069.648395020252
 31
0.0
  0
LINE
  5
30C
330
6F
100
AcDbEntity
  8
_0-1_計細線
  6
DASHED2
 62
     3
100
AcDbLine
 10
642.871625737263
 20
1069.648395020252
 30
0.0
 11
642.3116257372631
 21
1069.648395020252
 31
0.0
  0
LINE
  5
30D
330
6F
100
AcDbEntity
  8
_0-1_計細線
  6
DASHED2
 62
     3
100
AcDbLine
 10
642.871625737263
 20
1070.128395020252
 30
0.0
 11
642.3116257372631
 21
1070.128395020252
 31
0.0
  0
LINE
  5
30E
330
6F
100
AcDbEntity
  8
_0-1_計細線
  6
DASHED2
 62
     3
100
AcDbLine
 10
644.0716257372627
 20
1070.128395020252
 30
0.0
 11
644.0716257372627
 21
1069.648395020252
 31
0.0
  0
LINE
  5
30F
330
6F
100
AcDbEntity
  8
_0-1_計細線
  6
DASHED2
 62
     3
100
AcDbLine
 10
643.431625737263
 20
1070.768395020252
 30
0.0
 11
642.9516257372629
 21
1070.768395020252
 31
0.0
  0
LINE
  5
310
330
6F
100
AcDbEntity
  8
_0-0_計極細
  6
CENTER1
 62
     2
100
AcDbLine
 10
643.1916257372636
 20
1074.61327284876
 30
0.0
 11
643.1916257372636
 21
1054.992834892556
 31
0.0
  0
LINE
  5
311
330
6F
100
AcDbEntity
  8
_0-5_寸法線
  6
Continuous
 62
     7
100
AcDbLine
 10
287.1916257372632
 20
1103.388395020252
 30
0.0
 11
287.1916257372632
 21
1173.888395020252
 31
0.0
  0
LINE
  5
312
330
6F
100
AcDbEntity
  8
_0-5_寸法線
  6
Continuous
 62
     7
100
AcDbLine
 10
287.1916257372632
 20
1165.888395020252
 30
0.0
 11
302.6464389578883
 21
1170.029499741892
 31
0.0
  0
LINE
  5
313
330
6F
100
AcDbEntity
  8
_0-5_寸法線
  6
Continuous
 62
     7
100
AcDbLine
 10
287.1916257372632
 20
1165.888395020252
 30
0.0
 11
302.6464389578883
 21
1161.747290298611
 31
0.0
  0
LINE
  5
314
330
6F
100
AcDbEntity
  8
_0-5_寸法線
  6
Continuous
 62
     7
100
AcDbLine
 10
643.1916257372632
 20
1103.388395020252
 30
0.0
 11
643.1916257372632
 21
1173.888395020252
 31
0.0
  0
LINE
  5
315
330
6F
100
AcDbEntity
  8
_0-5_寸法線
  6
Continuous
 62
     7
100
AcDbLine
 10
643.1916257372632
 20
1165.888395020252
 30
0.0
 11
627.7368125166381
 21
1161.747290298612
 31
0.0
  0
LINE
  5
316
330
6F
100
AcDbEntity
  8
_0-5_寸法線
  6
Continuous
 62
     7
100
AcDbLine
 10
643.1916257372632
 20
1165.888395020252
 30
0.0
 11
627.7368125166381
 21
1170.029499741892
 31
0.0
  0
LINE
  5
317
330
6F
100
AcDbEntity
  8
_0-5_寸法線
  6
Continuous
 62
     7
100
AcDbLine
 10
287.1916257372632
 20
1165.888395020252
 30
0.0
 11
643.1916257372632
 21
1165.888395020252
 31
0.0
  0
TEXT
  5
318
330
6F
100
AcDbEntity
  8
_0-5_寸法線
 62
     7
100
AcDbText
 10
447.1916257372633
 20
1165.888395020252
 30
0.0
 40
24.0
  1
356
100
AcDbText
  0
CIRCLE
  5
319
330
6F
100
AcDbEntity
  8
_0-7_枠細線
  6
Continuous
 62
     5
100
AcDbCircle
 10
664.124316292915
 20
1068.61832439064
 30
0.0
 40
40.0
  0
LINE
  5
31A
330
6F
100
AcDbEntity
  8
_0-0_計極細
  6
CENTER1
 62
     2
100
AcDbLine
 10
1056.167962598817
 20
1074.61327284876
 30
0.0
 11
1056.167962598817
 21
1054.992834892556
 31
0.0
  0
LINE
  5
31B
330
6F
100
AcDbEntity
  8
_0-1_計細線
  6
DASHED2
 62
     3
100
AcDbLine
 10
1047.167962598816
 20
1061.138397892651
 30
0.0
 11
1048.267962598816
 21
1065.638397090698
 31
0.0
  0
LINE
  5
31C
330
6F
100
AcDbEntity
  8
_0-1_計細線
  6
DASHED2
 62
     3
100
AcDbLine
 10
1048.667962598816
 20
1065.63839679908
 30
0.0
 11
1048.667962598816
 21
1061.138396799079
 31
0.0
  0
CIRCLE
  5
31D
330
6F
100
AcDbEntity
  8
_0-1_計細線
  6
DASHED2
 62
     3
100
AcDbCircle
 10
1043.667962598816
 20
1063.38840044432
 30
0.0
 40
1.0
  0
LINE
  5
31E
330
6F
100
AcDbEntity
  8
_0-1_計細線
  6
DASHED2
 62
     3
100
AcDbLine
 10
1041.167962598816
 20
1061.138402266941
 30
0.0
 11
1041.167962598816
 21
1065.638402266942
 31
0.0
  0
ARC
  5
31F
330
6F
100
AcDbEntity
  8
_0-1_計細線
  6
DASHED2
 62
     3
100
AcDbCircle
 10
1056.417962598817
 20
1071.888391294767
 30
0.0
 40
2.0
100
AcDbArc
 50
0.0
 51
89.99999164573054
  0
LINE
  5
320
330
6F
100
AcDbEntity
  8
_0-1_計細線
  6
DASHED2
 62
     3
100
AcDbLine
 10
1056.417962890435
 20
1073.888391294767
 30
0.0
 11
1055.917962890436
 21
1073.888391367672
 31
0.0
  0
ARC
  5
321
330
6F
100
AcDbEntity
  8
_0-1_計細線
  6
DASHED2
 62
     3
100
AcDbCircle
 10
1055.917962598817
 20
1071.888391367672
 30
0.0
 40
2.0
100
AcDbArc
 50
89.99999164573054
 51
179.9999999999998
  0
LINE
  5
322
330
6F
100
AcDbEntity
  8
_0-1_計細線
  6
DASHED2
 62
     3
100
AcDbLine
 10
1063.667962598817
 20
1065.63839679908
 30
0.0
 11
1063.667962598817
 21
1061.138396799079
 31
0.0
  0
LINE
  5
323
330
6F
100
AcDbEntity
  8
_0-1_計細線
  6
DASHED2
 62
     3
100
AcDbLine
 10
1071.167962598817
 20
1061.138380395493
 30
0.0
 11
1071.167962598817
 21
1065.638380395494
 31
0.0
  0
CIRCLE
  5
324
330
6F
100
AcDbEntity
  8
_0-1_計細線
  6
DASHED2
 62
     3
100
AcDbCircle
 10
1068.667962598817
 20
1063.388382218114
 30
0.0
 40
1.0
  0
LINE
  5
325
330
6F
100
AcDbEntity
  8
_0-1_計細線
  6
DASHED2
 62
     3
100
AcDbLine
 10
1065.167962598817
 20
1061.138397892651
 30
0.0
 11
1064.067962598816
 21
1065.638397090698
 31
0.0
  0
LINE
  5
326
330
6F
100
AcDbEntity
  8
_0-1_計細線
  6
DASHED2
 62
     3
100
AcDbLine
 10
1053.917962598816
 20
1071.888391367672
 30
0.0
 11
1053.917962598816
 21
1065.638392242528
 31
0.0
  0
LINE
  5
327
330
6F
100
AcDbEntity
  8
_0-1_計細線
  6
DASHED2
 62
     3
100
AcDbLine
 10
1058.417962598817
 20
1071.888391294767
 30
0.0
 11
1058.417962598817
 21
1065.638390419907
 31
0.0
  0
LINE
  5
328
330
6F
100
AcDbEntity
  8
_0-1_計細線
  6
DASHED2
 62
     3
100
AcDbLine
 10
1071.167962598817
 20
1061.138380395493
 30
0.0
 11
1041.167962598816
 21
1061.138402266941
 31
0.0
  0
LINE
  5
329
330
6F
100
AcDbEntity
  8
_0-1_計細線
  6
DASHED2
 62
     3
100
AcDbLine
 10
1071.167962598817
 20
1065.638380395494
 30
0.0
 11
1041.167962598816
 21
1065.638402266942
 31
0.0
  0
ARC
  5
32A
330
6F
100
AcDbEntity
  8
_0-1_計細線
  6
DASHED2
 62
     3
100
AcDbCircle
 10
1056.417962598817
 20
1054.888391294762
 30
0.0
 40
2.0
100
AcDbArc
 50
269.9999916457041
 51
359.9999999999997
  0
ARC
  5
32B
330
6F
100
AcDbEntity
  8
_0-1_計細線
  6
DASHED2
 62
     3
100
AcDbCircle
 10
1055.917962598817
 20
1054.888391367668
 30
0.0
 40
2.0
100
AcDbArc
 50
179.9999999999998
 51
269.9999916457041
  0
LINE
  5
32C
330
6F
100
AcDbEntity
  8
_0-1_計細線
  6
DASHED2
 62
     3
100
AcDbLine
 10
1053.917962598816
 20
1061.138392242527
 30
0.0
 11
1053.917962598816
 21
1054.888391367668
 31
0.0
  0
LINE
  5
32D
330
6F
100
AcDbEntity
  8
_0-1_計細線
  6
DASHED2
 62
     3
100
AcDbLine
 10
1058.417962598817
 20
1061.138390419906
 30
0.0
 11
1058.417962598817
 21
1054.888391294762
 31
0.0
  0
LINE
  5
32E
330
6F
100
AcDbEntity
  8
_0-1_計細線
  6
DASHED2
 62
     3
100
AcDbLine
 10
1056.407962598816
 20
1070.768395020252
 30
0.0
 11
1056.407962598816
 21
1070.208395020252
 31
0.0
  0
LINE
  5
32F
330
6F
100
AcDbEntity
  8
_0-1_計細線
  6
DASHED2
 62
     3
100
AcDbLine
 10
1055.927962598816
 20
1070.768395020252
 30
0.0
 11
1055.927962598816
 21
1070.208395020252
 31
0.0
  0
LINE
  5
330
330
6F
100
AcDbEntity
  8
_0-1_計細線
  6
DASHED2
 62
     3
100
AcDbLine
 10
1055.927962598816
 20
1070.768395020252
 30
0.0
 11
1055.927962598816
 21
1070.208395020252
 31
0.0
  0
CIRCLE
  5
331
330
6F
100
AcDbEntity
  8
_0-1_計細線
  6
DASHED2
 62
     3
100
AcDbCircle
 10
1056.167962598816
 20
1069.888395020252
 30
0.0
 40
1.6
  0
LINE
  5
332
330
6F
100
AcDbEntity
  8
_0-1_計細線
  6
DASHED2
 62
     3
100
AcDbLine
 10
1055.287962598816
 20
1069.648395020252
 30
0.0
 11
1055.847962598816
 21
1069.648395020252
 31
0.0
  0
LINE
  5
333
330
6F
100
AcDbEntity
  8
_0-1_計細線
  6
DASHED2
 62
     3
100
AcDbLine
 10
1055.287962598816
 20
1070.128395020252
 30
0.0
 11
1055.847962598816
 21
1070.128395020252
 31
0.0
  0
ARC
  5
334
330
6F
100
AcDbEntity
  8
_0-1_計細線
  6
DASHED2
 62
     3
100
AcDbCircle
 10
1055.847962598816
 20
1070.208395020252
 30
0.0
 40
0.08
100
AcDbArc
 50
269.9999999999997
 51
359.9999999999997
  0
ARC
  5
335
330
6F
100
AcDbEntity
  8
_0-1_計細線
  6
DASHED2
 62
     3
100
AcDbCircle
 10
1055.847962598816
 20
1069.568395020252
 30
0.0
 40
0.08
100
AcDbArc
 50
0.0
 51
89.99999999999991
  0
ARC
  5
336
330
6F
100
AcDbEntity
  8
_0-1_計細線
  6
DASHED2
 62
     3
100
AcDbCircle
 10
1056.487962598816
 20
1069.568395020252
 30
0.0
 40
0.08
100
AcDbArc
 50
89.99999999999991
 51
179.9999999999998
  0
ARC
  5
337
330
6F
100
AcDbEntity
  8
_0-1_計細線
  6
DASHED2
 62
     3
100
AcDbCircle
 10
1056.487962598816
 20
1070.208395020252
 30
0.0
 40
0.08
100
AcDbArc
 50
179.9999999999998
 51
269.9999999999997
  0
LINE
  5
338
330
6F
100
AcDbEntity
  8
_0-1_計細線
  6
DASHED2
 62
     3
100
AcDbLine
 10
1055.927962598816
 20
1069.568395020252
 30
0.0
 11
1055.927962598816
 21
1069.008395020252
 31
0.0
  0
LINE
  5
339
330
6F
100
AcDbEntity
  8
_0-1_計細線
  6
DASHED2
 62
     3
100
AcDbLine
 10
1055.927962598816
 20
1069.568395020252
 30
0.0
 11
1055.927962598816
 21
1069.008395020252
 31
0.0
  0
LINE
  5
33A
330
6F
100
AcDbEntity
  8
_0-1_計細線
  6
DASHED2
 62
     3
100
AcDbLine
 10
1056.407962598816
 20
1069.568395020252
 30
0.0
 11
1056.407962598816
 21
1069.008395020252
 31
0.0
  0
LINE
  5
33B
330
6F
100
AcDbEntity
  8
_0-1_計細線
  6
DASHED2
 62
     3
100
AcDbLine
 10
1055.927962598816
 20
1069.008395020252
 30
0.0
 11
1056.407962598816
 21
1069.008395020252
 31
0.0
  0
LINE
  5
33C
330
6F
100
AcDbEntity
  8
_0-1_計細線
  6
DASHED2
 62
     3
100
AcDbLine
 10
1057.047962598816
 20
1070.128395020252
 30
0.0
 11
1057.047962598816
 21
1069.648395020252
 31
0.0
  0
LINE
  5
33D
330
6F
100
AcDbEntity
  8
_0-1_計細線
  6
DASHED2
 62
     3
100
AcDbLine
 10
1056.487962598816
 20
1069.648395020252
 30
0.0
 11
1057.047962598816
 21
1069.648395020252
 31
0.0
  0
LINE
  5
33E
330
6F
100
AcDbEntity
  8
_0-1_計細線
  6
DASHED2
 62
     3
100
AcDbLine
 10
1056.487962598816
 20
1070.128395020252
 30
0.0
 11
1057.047962598816
 21
1070.128395020252
 31
0.0
  0
LINE
  5
33F
330
6F
100
AcDbEntity
  8
_0-1_計細線
  6
DASHED2
 62
     3
100
AcDbLine
 10
1055.287962598816
 20
1070.128395020252
 30
0.0
 11
1055.287962598816
 21
1069.648395020252
 31
0.0
  0
LINE
  5
340
330
6F
100
AcDbEntity
  8
_0-1_計細線
  6
DASHED2
 62
     3
100
AcDbLine
 10
1055.927962598816
 20
1070.768395020252
 30
0.0
 11
1056.407962598816
 21
1070.768395020252
 31
0.0
  0
LINE
  5
341
330
6F
100
AcDbEntity
  8
_0-1_計細線
  6
DASHED2
 62
     3
100
AcDbLine
 10
1421.167962598817
 20
1061.138397892651
 30
0.0
 11
1420.067962598818
 21
1065.638397090698
 31
0.0
  0
LINE
  5
342
330
6F
100
AcDbEntity
  8
_0-1_計細線
  6
DASHED2
 62
     3
100
AcDbLine
 10
1419.667962598817
 20
1065.63839679908
 30
0.0
 11
1419.667962598817
 21
1061.138396799079
 31
0.0
  0
CIRCLE
  5
343
330
6F
100
AcDbEntity
  8
_0-1_計細線
  6
DASHED2
 62
     3
100
AcDbCircle
 10
1424.667962598817
 20
1063.38840044432
 30
0.0
 40
1.0
  0
LINE
  5
344
330
6F
100
AcDbEntity
  8
_0-1_計細線
  6
DASHED2
 62
     3
100
AcDbLine
 10
1427.167962598817
 20
1061.138402266941
 30
0.0
 11
1427.167962598817
 21
1065.638402266942
 31
0.0
  0
ARC
  5
345
330
6F
100
AcDbEntity
  8
_0-1_計細線
  6
DASHED2
 62
     3
100
AcDbCircle
 10
1411.917962598817
 20
1071.888391294767
 30
0.0
 40
2.0
100
AcDbArc
 50
90.00000835426945
 51
179.9999999999998
  0
LINE
  5
346
330
6F
100
AcDbEntity
  8
_0-1_計細線
  6
DASHED2
 62
     3
100
AcDbLine
 10
1411.917962307198
 20
1073.888391294767
 30
0.0
 11
1412.417962307198
 21
1073.888391367672
 31
0.0
  0
ARC
  5
347
330
6F
100
AcDbEntity
  8
_0-1_計細線
  6
DASHED2
 62
     3
100
AcDbCircle
 10
1412.417962598817
 20
1071.888391367672
 30
0.0
 40
2.0
100
AcDbArc
 50
0.0
 51
90.00000835426945
  0
LINE
  5
348
330
6F
100
AcDbEntity
  8
_0-1_計細線
  6
DASHED2
 62
     3
100
AcDbLine
 10
1404.667962598817
 20
1065.63839679908
 30
0.0
 11
1404.667962598817
 21
1061.138396799079
 31
0.0
  0
LINE
  5
349
330
6F
100
AcDbEntity
  8
_0-1_計細線
  6
DASHED2
 62
     3
100
AcDbLine
 10
1397.167962598817
 20
1061.138380395493
 30
0.0
 11
1397.167962598817
 21
1065.638380395494
 31
0.0
  0
CIRCLE
  5
34A
330
6F
100
AcDbEntity
  8
_0-1_計細線
  6
DASHED2
 62
     3
100
AcDbCircle
 10
1399.667962598817
 20
1063.388382218114
 30
0.0
 40
1.0
  0
LINE
  5
34B
330
6F
100
AcDbEntity
  8
_0-1_計細線
  6
DASHED2
 62
     3
100
AcDbLine
 10
1403.167962598817
 20
1061.138397892651
 30
0.0
 11
1404.267962598817
 21
1065.638397090698
 31
0.0
  0
LINE
  5
34C
330
6F
100
AcDbEntity
  8
_0-1_計細線
  6
DASHED2
 62
     3
100
AcDbLine
 10
1414.417962598817
 20
1071.888391367672
 30
0.0
 11
1414.417962598817
 21
1065.638392242528
 31
0.0
  0
LINE
  5
34D
330
6F
100
AcDbEntity
  8
_0-1_計細線
  6
DASHED2
 62
     3
100
AcDbLine
 10
1409.917962598817
 20
1071.888391294767
 30
0.0
 11
1409.917962598817
 21
1065.638390419907
 31
0.0
  0
LINE
  5
34E
330
6F
100
AcDbEntity
  8
_0-1_計細線
  6
DASHED2
 62
     3
100
AcDbLine
 10
1397.167962598817
 20
1061.138380395493
 30
0.0
 11
1427.167962598817
 21
1061.138402266941
 31
0.0
  0
LINE
  5
34F
330
6F
100
AcDbEntity
  8
_0-1_計細線
  6
DASHED2
 62
     3
100
AcDbLine
 10
1397.167962598817
 20
1065.638380395494
 30
0.0
 11
1427.167962598817
 21
1065.638402266942
 31
0.0
  0
ARC
  5
350
330
6F
100
AcDbEntity
  8
_0-1_計細線
  6
DASHED2
 62
     3
100
AcDbCircle
 10
1411.917962598817
 20
1054.888391294762
 30
0.0
 40
2.0
100
AcDbArc
 50
179.9999999999998
 51
270.0000083542951
  0
ARC
  5
351
330
6F
100
AcDbEntity
  8
_0-1_計細線
  6
DASHED2
 62
     3
100
AcDbCircle
 10
1412.417962598817
 20
1054.888391367668
 30
0.0
 40
2.0
100
AcDbArc
 50
270.0000083542951
 51
359.9999999999997
  0
LINE
  5
352
330
6F
100
AcDbEntity
  8
_0-1_計細線
  6
DASHED2
 62
     3
100
AcDbLine
 10
1414.417962598817
 20
1061.138392242527
 30
0.0
 11
1414.417962598817
 21
1054.888391367668
 31
0.0
  0
LINE
  5
353
330
6F
100
AcDbEntity
  8
_0-1_計細線
  6
DASHED2
 62
     3
100
AcDbLine
 10
1409.917962598817
 20
1061.138390419906
 30
0.0
 11
1409.917962598817
 21
1054.888391294762
 31
0.0
  0
LINE
  5
354
330
6F
100
AcDbEntity
  8
_0-1_計細線
  6
DASHED2
 62
     3
100
AcDbLine
 10
1411.927962598817
 20
1070.768395020252
 30
0.0
 11
1411.927962598817
 21
1070.208395020252
 31
0.0
  0
LINE
  5
355
330
6F
100
AcDbEntity
  8
_0-1_計細線
  6
DASHED2
 62
     3
100
AcDbLine
 10
1412.407962598817
 20
1070.768395020252
 30
0.0
 11
1412.407962598817
 21
1070.208395020252
 31
0.0
  0
LINE
  5
356
330
6F
100
AcDbEntity
  8
_0-1_計細線
  6
DASHED2
 62
     3
100
AcDbLine
 10
1412.407962598817
 20
1070.768395020252
 30
0.0
 11
1412.407962598817
 21
1070.208395020252
 31
0.0
  0
CIRCLE
  5
357
330
6F
100
AcDbEntity
  8
_0-1_計細線
  6
DASHED2
 62
     3
100
AcDbCircle
 10
1412.167962598817
 20
1069.888395020252
 30
0.0
 40
1.6
  0
LINE
  5
358
330
6F
100
AcDbEntity
  8
_0-1_計細線
  6
DASHED2
 62
     3
100
AcDbLine
 10
1413.047962598817
 20
1069.648395020252
 30
0.0
 11
1412.487962598817
 21
1069.648395020252
 31
0.0
  0
LINE
  5
359
330
6F
100
AcDbEntity
  8
_0-1_計細線
  6
DASHED2
 62
     3
100
AcDbLine
 10
1413.047962598817
 20
1070.128395020252
 30
0.0
 11
1412.487962598817
 21
1070.128395020252
 31
0.0
  0
ARC
  5
35A
330
6F
100
AcDbEntity
  8
_0-1_計細線
  6
DASHED2
 62
     3
100
AcDbCircle
 10
1412.487962598817
 20
1070.208395020252
 30
0.0
 40
0.08
100
AcDbArc
 50
179.9999999999998
 51
269.9999999999997
  0
ARC
  5
35B
330
6F
100
AcDbEntity
  8
_0-1_計細線
  6
DASHED2
 62
     3
100
AcDbCircle
 10
1412.487962598817
 20
1069.568395020252
 30
0.0
 40
0.08
100
AcDbArc
 50
89.99999999999991
 51
179.9999999999998
  0
ARC
  5
35C
330
6F
100
AcDbEntity
  8
_0-1_計細線
  6
DASHED2
 62
     3
100
AcDbCircle
 10
1411.847962598817
 20
1069.568395020252
 30
0.0
 40
0.08
100
AcDbArc
 50
0.0
 51
89.99999999999991
  0
ARC
  5
35D
330
6F
100
AcDbEntity
  8
_0-1_計細線
  6
DASHED2
 62
     3
100
AcDbCircle
 10
1411.847962598817
 20
1070.208395020252
 30
0.0
 40
0.08
100
AcDbArc
 50
269.9999999999997
 51
359.9999999999997
  0
LINE
  5
35E
330
6F
100
AcDbEntity
  8
_0-1_計細線
  6
DASHED2
 62
     3
100
AcDbLine
 10
1412.407962598817
 20
1069.568395020252
 30
0.0
 11
1412.407962598817
 21
1069.008395020252
 31
0.0
  0
LINE
  5
35F
330
6F
100
AcDbEntity
  8
_0-1_計細線
  6
DASHED2
 62
     3
100
AcDbLine
 10
1412.407962598817
 20
1069.568395020252
 30
0.0
 11
1412.407962598817
 21
1069.008395020252
 31
0.0
  0
LINE
  5
360
330
6F
100
AcDbEntity
  8
_0-1_計細線
  6
DASHED2
 62
     3
100
AcDbLine
 10
1411.927962598817
 20
1069.568395020252
 30
0.0
 11
1411.927962598817
 21
1069.008395020252
 31
0.0
  0
LINE
  5
361
330
6F
100
AcDbEntity
  8
_0-1_計細線
  6
DASHED2
 62
     3
100
AcDbLine
 10
1412.407962598817
 20
1069.008395020252
 30
0.0
 11
1411.927962598817
 21
1069.008395020252
 31
0.0
  0
LINE
  5
362
330
6F
100
AcDbEntity
  8
_0-1_計細線
  6
DASHED2
 62
     3
100
AcDbLine
 10
1411.287962598817
 20
1070.128395020252
 30
0.0
 11
1411.287962598817
 21
1069.648395020252
 31
0.0
  0
LINE
  5
363
330
6F
100
AcDbEntity
  8
_0-1_計細線
  6
DASHED2
 62
     3
100
AcDbLine
 10
1411.847962598817
 20
1069.648395020252
 30
0.0
 11
1411.287962598817
 21
1069.648395020252
 31
0.0
  0
LINE
  5
364
330
6F
100
AcDbEntity
  8
_0-1_計細線
  6
DASHED2
 62
     3
100
AcDbLine
 10
1411.847962598817
 20
1070.128395020252
 30
0.0
 11
1411.287962598817
 21
1070.128395020252
 31
0.0
  0
LINE
  5
365
330
6F
100
AcDbEntity
  8
_0-1_計細線
  6
DASHED2
 62
     3
100
AcDbLine
 10
1413.047962598817
 20
1070.128395020252
 30
0.0
 11
1413.047962598817
 21
1069.648395020252
 31
0.0
  0
LINE
  5
366
330
6F
100
AcDbEntity
  8
_0-1_計細線
  6
DASHED2
 62
     3
100
AcDbLine
 10
1412.407962598817
 20
1070.768395020252
 30
0.0
 11
1411.927962598817
 21
1070.768395020252
 31
0.0
  0
LINE
  5
367
330
6F
100
AcDbEntity
  8
_0-0_計極細
  6
CENTER1
 62
     2
100
AcDbLine
 10
1412.167962598818
 20
1074.61327284876
 30
0.0
 11
1412.167962598818
 21
1054.992834892556
 31
0.0
  0
LINE
  5
368
330
6F
100
AcDbEntity
  8
_0-1_計細線
  6
DASHED2
 62
     3
100
AcDbLine
 10
307.1916257372613
 20
484.8883950202519
 30
0.0
 11
331.1916257372623
 21
484.8883950202519
 31
0.0
  0
LINE
  5
369
330
6F
100
AcDbEntity
  8
_0-1_計細線
  6
Continuous
 62
     3
100
AcDbLine
 10
257.1891457372621
 20
427.1476552437471
 30
0.0
 11
270.1916257372622
 21
427.1476552437471
 31
0.0
  0
LINE
  5
36A
330
6F
100
AcDbEntity
  8
_0-1_計細線
  6
Continuous
 62
     3
100
AcDbLine
 10
270.1916257372622
 20
427.1476552437471
 30
0.0
 11
300.1916257372623
 21
427.1476552437471
 31
0.0
  0
LINE
  5
36B
330
6F
100
AcDbEntity
  8
_0-1_計細線
  6
DASHED2
 62
     3
100
AcDbLine
 10
270.1916257372622
 20
427.1476552437471
 30
0.0
 11
300.1916257372623
 21
427.1476552437471
 31
0.0
  0
ARC
  5
36C
330
6F
100
AcDbEntity
  8
_0-1_計細線
  6
DASHED2
 62
     3
100
AcDbCircle
 10
238.1916257372628
 20
479.8883950202521
 30
0.0
 40
3.0
100
AcDbArc
 50
179.9999999999998
 51
269.9999999999997
  0
LINE
  5
36D
330
6F
100
AcDbEntity
  8
_0-1_計細線
  6
DASHED2
 62
     3
100
AcDbLine
 10
257.1916257372627
 20
432.1476552437472
 30
0.0
 11
257.1916257372627
 21
427.1476552437471
 31
0.0
  0
LINE
  5
36E
330
6F
100
AcDbEntity
  8
_0-1_計細線
  6
DASHED2
 62
     3
100
AcDbLine
 10
236.1916257372628
 20
434.1476552437471
 30
0.0
 11
236.1916257372628
 21
432.1476552437472
 31
0.0
  0
LINE
  5
36F
330
6F
100
AcDbEntity
  8
_0-1_計細線
  6
DASHED2
 62
     3
100
AcDbLine
 10
235.1916257372627
 20
435.6476552437471
 30
0.0
 11
235.1916257372627
 21
434.1476552437471
 31
0.0
  0
LINE
  5
370
330
6F
100
AcDbEntity
  8
_0-1_計細線
  6
DASHED2
 62
     3
100
AcDbLine
 10
235.1916257372627
 20
479.8883950202521
 30
0.0
 11
235.1916257372627
 21
485.888395020252
 31
0.0
  0
LINE
  5
371
330
6F
100
AcDbEntity
  8
_0-1_計細線
  6
DASHED2
 62
     3
100
AcDbLine
 10
261.1916257372613
 20
508.8883950202521
 30
0.0
 11
261.1916257372613
 21
485.888395020252
 31
0.0
  0
ARC
  5
372
330
6F
100
AcDbEntity
  8
_0-1_計細線
  6
DASHED2
 62
     3
100
AcDbCircle
 10
263.1916257372613
 20
508.8883950202521
 30
0.0
 40
2.0
100
AcDbArc
 50
89.99999999999991
 51
180.0000000000013
  0
LINE
  5
373
330
6F
100
AcDbEntity
  8
_0-1_計細線
  6
DASHED2
 62
     3
100
AcDbLine
 10
307.1916257372613
 20
507.8883950202519
 30
0.0
 11
307.1916257372613
 21
484.8883950202519
 31
0.0
  0
LINE
  5
374
330
6F
100
AcDbEntity
  8
_0-1_計細線
  6
DASHED2
 62
     3
100
AcDbLine
 10
331.1916257372623
 20
507.8883950202519
 30
0.0
 11
307.1916257372613
 21
507.8883950202519
 31
0.0
  0
LINE
  5
375
330
6F
100
AcDbEntity
  8
_0-1_計細線
  6
DASHED2
 62
     3
100
AcDbLine
 10
331.1916257372623
 20
484.8883950202519
 30
0.0
 11
331.1916257372623
 21
507.8883950202519
 31
0.0
  0
LINE
  5
376
330
6F
100
AcDbEntity
  8
_0-1_計細線
  6
Continuous
 62
     3
100
AcDbLine
 10
233.1916257372632
 20
475.8883950202521
 30
0.0
 11
233.1916257372632
 21
485.888395020252
 31
0.0
  0
LINE
  5
377
330
6F
100
AcDbEntity
  8
_0-0_計極細
  6
CENTER1
 62
     2
100
AcDbLine
 10
233.1916257372632
 20
500.8883950202521
 30
0.0
 11
336.4713499234467
 21
500.8883950202521
 31
0.0
  0
LINE
  5
378
330
6F
100
AcDbEntity
  8
_0-1_計細線
  6
DASHED2
 62
     3
100
AcDbLine
 10
623.1916257372632
 20
484.8883950202519
 30
0.0
 11
599.1916257372623
 21
484.8883950202519
 31
0.0
  0
LINE
  5
379
330
6F
100
AcDbEntity
  8
_0-1_計細線
  6
Continuous
 62
     3
100
AcDbLine
 10
695.1916257372623
 20
509.3883950202519
 30
0.0
 11
695.1916257372623
 21
484.3883950202519
 31
0.0
  0
LINE
  5
37A
330
6F
100
AcDbEntity
  8
_0-1_計細線
  6
Continuous
 62
     3
100
AcDbLine
 10
630.1916257372623
 20
427.1476552437471
 30
0.0
 11
660.1916257372623
 21
427.1476552437471
 31
0.0
  0
LINE
  5
37B
330
6F
100
AcDbEntity
  8
_0-1_計細線
  6
Continuous
 62
     3
100
AcDbLine
 10
660.1916257372623
 20
427.1476552437471
 30
0.0
 11
671.6037657372624
 21
427.1476552437471
 31
0.0
  0
LINE
  5
37C
330
6F
100
AcDbEntity
  8
_0-1_計細線
  6
DASHED2
 62
     3
100
AcDbLine
 10
630.1916257372623
 20
427.1476552437471
 30
0.0
 11
660.1916257372623
 21
427.1476552437471
 31
0.0
  0
LINE
  5
37D
330
6F
100
AcDbEntity
  8
_0-1_計細線
  6
Continuous
 62
     3
100
AcDbLine
 10
671.6037657372624
 20
427.1476552437471
 30
0.0
 11
673.1893507372619
 21
427.1476552437471
 31
0.0
  0
ARC
  5
37E
330
6F
100
AcDbEntity
  8
_0-1_計細線
  6
DASHED2
 62
     3
100
AcDbCircle
 10
692.1916257372624
 20
479.8883950202521
 30
0.0
 40
3.0
100
AcDbArc
 50
269.999999999991
 51
359.9999999999985
  0
LINE
  5
37F
330
6F
100
AcDbEntity
  8
_0-1_計細線
  6
DASHED2
 62
     3
100
AcDbLine
 10
673.1916257372623
 20
432.1476552437472
 30
0.0
 11
673.1916257372623
 21
427.1476552437471
 31
0.0
  0
LINE
  5
380
330
6F
100
AcDbEntity
  8
_0-1_計細線
  6
DASHED2
 62
     3
100
AcDbLine
 10
694.1916257372623
 20
434.1476552437471
 30
0.0
 11
694.1916257372623
 21
432.1476552437472
 31
0.0
  0
LINE
  5
381
330
6F
100
AcDbEntity
  8
_0-1_計細線
  6
DASHED2
 62
     3
100
AcDbLine
 10
695.1916257372623
 20
435.6476552437471
 30
0.0
 11
695.1916257372623
 21
434.1476552437471
 31
0.0
  0
LINE
  5
382
330
6F
100
AcDbEntity
  8
_0-1_計細線
  6
DASHED2
 62
     3
100
AcDbLine
 10
695.1916257372623
 20
485.888395020252
 30
0.0
 11
695.1916257372623
 21
479.8883950202521
 31
0.0
  0
LINE
  5
383
330
6F
100
AcDbEntity
  8
_0-1_計細線
  6
DASHED2
 62
     3
100
AcDbLine
 10
669.1916257372632
 20
508.8883950202521
 30
0.0
 11
669.1916257372632
 21
485.888395020252
 31
0.0
  0
ARC
  5
384
330
6F
100
AcDbEntity
  8
_0-1_計細線
  6
DASHED2
 62
     3
100
AcDbCircle
 10
667.1916257372632
 20
508.8883950202521
 30
0.0
 40
2.0
100
AcDbArc
 50
359.999999999998
 51
90.00000000001264
  0
LINE
  5
385
330
6F
100
AcDbEntity
  8
_0-1_計細線
  6
DASHED2
 62
     3
100
AcDbLine
 10
599.1916257372623
 20
484.8883950202519
 30
0.0
 11
599.1916257372623
 21
507.8883950202519
 31
0.0
  0
LINE
  5
386
330
6F
100
AcDbEntity
  8
_0-1_計細線
  6
DASHED2
 62
     3
100
AcDbLine
 10
599.1916257372623
 20
507.8883950202519
 30
0.0
 11
623.1916257372632
 21
507.8883950202519
 31
0.0
  0
LINE
  5
387
330
6F
100
AcDbEntity
  8
_0-1_計細線
  6
DASHED2
 62
     3
100
AcDbLine
 10
623.1916257372632
 20
507.8883950202519
 30
0.0
 11
623.1916257372632
 21
484.8883950202519
 31
0.0
  0
LINE
  5
388
330
6F
100
AcDbEntity
  8
_0-1_計細線
  6
Continuous
 62
     3
100
AcDbLine
 10
697.1916257372631
 20
475.8883950202521
 30
0.0
 11
697.1916257372631
 21
485.888395020252
 31
0.0
  0
LINE
  5
389
330
6F
100
AcDbEntity
  8
_0-1_計細線
  6
Continuous
 62
     3
100
AcDbLine
 10
300.1916257372623
 20
427.1476552437471
 30
0.0
 11
630.1916257372623
 21
427.1476552437471
 31
0.0
  0
LINE
  5
38A
330
6F
100
AcDbEntity
  8
_0-1_計細線
  6
DASHED2
 62
     3
100
AcDbLine
 10
238.1916257372628
 20
476.888395020252
 30
0.0
 11
692.1916257372617
 21
476.888395020252
 31
0.0
  0
LINE
  5
38B
330
6F
100
AcDbEntity
  8
_0-1_計細線
  6
DASHED2
 62
     3
100
AcDbLine
 10
235.1916257372627
 20
434.1476552437471
 30
0.0
 11
695.1916257372623
 21
434.1476552437471
 31
0.0
  0
LINE
  5
38C
330
6F
100
AcDbEntity
  8
_0-1_計細線
  6
DASHED2
 62
     3
100
AcDbLine
 10
235.1916257372627
 20
435.6476552437457
 30
0.0
 11
695.1916257372623
 21
435.6476552437457
 31
0.0
  0
LINE
  5
38D
330
6F
100
AcDbEntity
  8
_0-1_計細線
  6
DASHED2
 62
     3
100
AcDbLine
 10
236.1916257372628
 20
432.1476552437472
 30
0.0
 11
694.1916257372623
 21
432.1476552437472
 31
0.0
  0
LINE
  5
38E
330
6F
100
AcDbEntity
  8
_0-1_計細線
  6
DASHED2
 62
     3
100
AcDbLine
 10
667.1916257372627
 20
510.888395020252
 30
0.0
 11
263.1916257372613
 21
510.888395020252
 31
0.0
  0
LINE
  5
38F
330
6F
100
AcDbEntity
  8
_0-1_計細線
  6
Continuous
 62
     3
100
AcDbLine
 10
697.1916257372636
 20
438.1476552437471
 30
0.0
 11
697.1916257372636
 21
427.1476552437471
 31
0.0
  0
LINE
  5
390
330
6F
100
AcDbEntity
  8
_0-1_計細線
  6
Continuous
 62
     3
100
AcDbLine
 10
697.1916257372636
 20
427.1476552437471
 30
0.0
 11
233.1916257372632
 21
427.1476552437471
 31
0.0
  0
LINE
  5
391
330
6F
100
AcDbEntity
  8
_0-1_計細線
  6
Continuous
 62
     3
100
AcDbLine
 10
233.1916257372632
 20
427.1476552437471
 30
0.0
 11
233.1916257372632
 21
438.1476552437471
 31
0.0
  0
LINE
  5
392
330
6F
100
AcDbEntity
  8
_0-1_計細線
  6
Continuous
 62
     3
100
AcDbLine
 10
233.1916257372632
 20
438.1476552437471
 30
0.0
 11
697.1916257372636
 21
438.1476552437471
 31
0.0
  0
LINE
  5
393
330
6F
100
AcDbEntity
  8
_0-1_計細線
  6
Continuous
 62
     3
100
AcDbLine
 10
697.1916257372631
 20
475.8883950202521
 30
0.0
 11
233.1916257372632
 21
475.8883950202521
 31
0.0
  0
LINE
  5
394
330
6F
100
AcDbEntity
  8
_0-1_計細線
  6
Continuous
 62
     3
100
AcDbLine
 10
697.1916257372631
 20
485.888395020252
 30
0.0
 11
233.1916257372632
 21
485.888395020252
 31
0.0
  0
LINE
  5
395
330
6F
100
AcDbEntity
  8
_0-0_計極細
  6
CENTER1
 62
     2
100
AcDbLine
 10
740.6590905017838
 20
500.8883950202521
 30
0.0
 11
336.4713499234467
 21
500.8883950202521
 31
0.0
  0
LINE
  5
396
330
6F
100
AcDbEntity
  8
_0-1_計細線
  6
Continuous
 62
     3
100
AcDbLine
 10
743.6916257372618
 20
515.3918200202521
 30
0.0
 11
742.4916257372621
 21
515.3918200202521
 31
0.0
  0
LINE
  5
397
330
6F
100
AcDbEntity
  8
_0-1_計細線
  6
Continuous
 62
     3
100
AcDbLine
 10
735.1916257372622
 20
476.888395020252
 30
0.0
 11
736.6916257372622
 21
476.888395020252
 31
0.0
  0
LINE
  5
398
330
6F
100
AcDbEntity
  8
_0-1_計細線
  6
Continuous
 62
     3
100
AcDbLine
 10
738.6916257372623
 20
477.888395020252
 30
0.0
 11
738.6916257372623
 21
499.588395020252
 31
0.0
  0
LINE
  5
399
330
6F
100
AcDbEntity
  8
_0-1_計細線
  6
Continuous
 62
     3
100
AcDbLine
 10
736.6916257372622
 20
477.888395020252
 30
0.0
 11
738.6916257372623
 21
477.888395020252
 31
0.0
  0
LINE
  5
39A
330
6F
100
AcDbEntity
  8
_0-1_計細線
  6
Continuous
 62
     3
100
AcDbLine
 10
743.6916257372618
 20
515.3883950202521
 30
0.0
 11
738.6916257372623
 21
515.3883950202521
 31
0.0
  0
LINE
  5
39B
330
6F
100
AcDbEntity
  8
_0-1_計細線
  6
Continuous
 62
     3
100
AcDbLine
 10
743.6916257372618
 20
515.3883950202521
 30
0.0
 11
743.6916257372618
 21
780.8883950202521
 31
0.0
  0
LINE
  5
39C
330
6F
100
AcDbEntity
  8
_0-1_計細線
  6
Continuous
 62
     3
100
AcDbLine
 10
738.6916257372623
 20
477.888395020252
 30
0.0
 11
738.6916257372623
 21
780.8883950202521
 31
0.0
  0
LINE
  5
39D
330
6F
100
AcDbEntity
  8
_0-1_計細線
  6
Continuous
 62
     3
100
AcDbLine
 10
736.6916257372622
 20
476.888395020252
 30
0.0
 11
736.6916257372622
 21
780.8883950202521
 31
0.0
  0
LINE
  5
39E
330
6F
100
AcDbEntity
  8
_0-1_計細線
  6
Continuous
 62
     3
100
AcDbLine
 10
735.1916257372622
 20
476.888395020252
 30
0.0
 11
735.1916257372622
 21
780.8883950202521
 31
0.0
  0
LINE
  5
39F
330
6F
100
AcDbEntity
  8
_0-1_計細線
  6
Continuous
 62
     3
100
AcDbLine
 10
742.6916257372617
 20
484.8883950202519
 30
0.0
 11
738.6916257372623
 21
484.8883950202519
 31
0.0
  0
LINE
  5
3A0
330
6F
100
AcDbEntity
  8
_0-1_計細線
  6
Continuous
 62
     3
100
AcDbLine
 10
742.6916257372617
 20
507.8883950202519
 30
0.0
 11
738.6916257372623
 21
507.8883950202519
 31
0.0
  0
LINE
  5
3A1
330
6F
100
AcDbEntity
  8
_0-1_計細線
  6
Continuous
 62
     3
100
AcDbLine
 10
743.6916257372618
 20
510.888395020252
 30
0.0
 11
742.6916257372617
 21
510.888395020252
 31
0.0
  0
LINE
  5
3A2
330
6F
100
AcDbEntity
  8
_0-1_計細線
  6
Continuous
 62
     3
100
AcDbLine
 10
742.6916257372617
 20
476.888395020252
 30
0.0
 11
733.6916257372617
 21
476.888395020252
 31
0.0
  0
LINE
  5
3A3
330
6F
100
AcDbEntity
  8
_0-1_計細線
  6
Continuous
 62
     3
100
AcDbLine
 10
742.6916257372617
 20
510.888395020252
 30
0.0
 11
742.6916257372617
 21
476.888395020252
 31
0.0
  0
LINE
  5
3A4
330
6F
100
AcDbEntity
  8
_0-1_計細線
  6
Continuous
 62
     3
100
AcDbLine
 10
743.6916257372618
 20
510.888395020252
 30
0.0
 11
742.6916257372617
 21
510.888395020252
 31
0.0
  0
LINE
  5
3A5
330
6F
100
AcDbEntity
  8
_0-1_計細線
  6
Continuous
 62
     3
100
AcDbLine
 10
743.6916257372618
 20
475.8883950202521
 30
0.0
 11
743.6916257372618
 21
510.888395020252
 31
0.0
  0
LINE
  5
3A6
330
6F
100
AcDbEntity
  8
_0-1_計細線
  6
Continuous
 62
     3
100
AcDbLine
 10
732.6916257372618
 20
475.8883950202521
 30
0.0
 11
743.6916257372618
 21
475.8883950202521
 31
0.0
  0
LINE
  5
3A7
330
6F
100
AcDbEntity
  8
_0-1_計細線
  6
Continuous
 62
     3
100
AcDbLine
 10
732.6916257372618
 20
485.888395020252
 30
0.0
 11
732.6916257372618
 21
475.8883950202521
 31
0.0
  0
LINE
  5
3A8
330
6F
100
AcDbEntity
  8
_0-1_計細線
  6
Continuous
 62
     3
100
AcDbLine
 10
733.6916257372617
 20
485.888395020252
 30
0.0
 11
732.6916257372618
 21
485.888395020252
 31
0.0
  0
LINE
  5
3A9
330
6F
100
AcDbEntity
  8
_0-1_計細線
  6
Continuous
 62
     3
100
AcDbLine
 10
733.6916257372617
 20
476.888395020252
 30
0.0
 11
733.6916257372617
 21
485.888395020252
 31
0.0
  0
LINE
  5
3AA
330
6F
100
AcDbEntity
  8
_0-1_計細線
  6
Continuous
 62
     3
100
AcDbLine
 10
737.8916257372621
 20
476.8883950202524
 30
0.0
 11
741.491625737262
 21
476.8883950202524
 31
0.0
  0
LINE
  5
3AB
330
6F
100
AcDbEntity
  8
_0-1_計細線
  6
DASHED2
 62
     3
100
AcDbLine
 10
1076.167962598816
 20
484.888395020252
 30
0.0
 11
1100.167962598817
 21
484.888395020252
 31
0.0
  0
LINE
  5
3AC
330
6F
100
AcDbEntity
  8
_0-1_計細線
  6
Continuous
 62
     3
100
AcDbLine
 10
1030.167962598817
 20
507.388395020252
 30
0.0
 11
1030.167962598817
 21
484.388395020252
 31
0.0
  0
ARC
  5
3AD
330
6F
100
AcDbEntity
  8
_0-1_計細線
  6
Continuous
 62
     3
100
AcDbCircle
 10
1032.167962598816
 20
507.388395020252
 30
0.0
 40
2.0
100
AcDbArc
 50
89.99999999999991
 51
179.9999999999998
  0
LINE
  5
3AE
330
6F
100
AcDbEntity
  8
_0-1_計細線
  6
DASHED2
 62
     3
100
AcDbLine
 10
1005.167962598817
 20
484.388395020252
 30
0.0
 11
1005.167962598817
 21
477.8883950202519
 31
0.0
  0
LINE
  5
3AF
330
6F
100
AcDbEntity
  8
_0-1_計細線
  6
DASHED2
 62
     3
100
AcDbLine
 10
1004.167962598817
 20
479.8883950202521
 30
0.0
 11
1004.167962598817
 21
484.388395020252
 31
0.0
  0
ARC
  5
3B0
330
6F
100
AcDbEntity
  8
_0-1_計細線
  6
DASHED2
 62
     3
100
AcDbCircle
 10
1007.167962598817
 20
479.8883950202522
 30
0.0
 40
3.0
100
AcDbArc
 50
180.0000000000018
 51
269.9999999999997
  0
LINE
  5
3B1
330
6F
100
AcDbEntity
  8
_0-1_計細線
  6
DASHED2
 62
     3
100
AcDbLine
 10
1076.167962598816
 20
507.888395020252
 30
0.0
 11
1076.167962598816
 21
484.888395020252
 31
0.0
  0
LINE
  5
3B2
330
6F
100
AcDbEntity
  8
_0-1_計細線
  6
DASHED2
 62
     3
100
AcDbLine
 10
1100.167962598817
 20
507.888395020252
 30
0.0
 11
1076.167962598816
 21
507.888395020252
 31
0.0
  0
LINE
  5
3B3
330
6F
100
AcDbEntity
  8
_0-1_計細線
  6
DASHED2
 62
     3
100
AcDbLine
 10
1100.167962598817
 20
484.888395020252
 30
0.0
 11
1100.167962598817
 21
507.888395020252
 31
0.0
  0
LINE
  5
3B4
330
6F
100
AcDbEntity
  8
_0-1_計細線
  6
Continuous
 62
     3
100
AcDbLine
 10
1030.167962598817
 20
484.388395020252
 30
0.0
 11
1002.167962598817
 21
484.388395020252
 31
0.0
  0
LINE
  5
3B5
330
6F
100
AcDbEntity
  8
_0-1_計細線
  6
Continuous
 62
     3
100
AcDbLine
 10
1002.167962598817
 20
475.888395020252
 30
0.0
 11
1002.167962598817
 21
484.388395020252
 31
0.0
  0
LINE
  5
3B6
330
6F
100
AcDbEntity
  8
_0-1_計細線
  6
DASHED2
 62
     3
100
AcDbLine
 10
1392.167962598818
 20
484.888395020252
 30
0.0
 11
1368.167962598817
 21
484.888395020252
 31
0.0
  0
LINE
  5
3B7
330
6F
100
AcDbEntity
  8
_0-1_計細線
  6
Continuous
 62
     3
100
AcDbLine
 10
1026.167962598818
 20
515.3883950202521
 30
0.0
 11
1442.167962598817
 21
515.3883950202521
 31
0.0
  0
LINE
  5
3B8
330
6F
100
AcDbEntity
  8
_0-1_計細線
  6
Continuous
 62
     3
100
AcDbLine
 10
1436.167962598818
 20
509.388395020252
 30
0.0
 11
1032.167962598816
 21
509.388395020252
 31
0.0
  0
LINE
  5
3B9
330
6F
100
AcDbEntity
  8
_0-1_計細線
  6
Continuous
 62
     3
100
AcDbLine
 10
1438.167962598818
 20
507.388395020252
 30
0.0
 11
1438.167962598818
 21
484.388395020252
 31
0.0
  0
ARC
  5
3BA
330
6F
100
AcDbEntity
  8
_0-1_計細線
  6
Continuous
 62
     3
100
AcDbCircle
 10
1436.167962598818
 20
507.388395020252
 30
0.0
 40
2.0
100
AcDbArc
 50
0.0
 51
89.99999999999991
  0
LINE
  5
3BB
330
6F
100
AcDbEntity
  8
_0-1_計細線
  6
DASHED2
 62
     3
100
AcDbLine
 10
1005.167962598817
 20
477.8883950202519
 30
0.0
 11
1463.167962598817
 21
477.8883950202519
 31
0.0
  0
LINE
  5
3BC
330
6F
100
AcDbEntity
  8
_0-1_計細線
  6
DASHED2
 62
     3
100
AcDbLine
 10
1463.167962598817
 20
484.1883950202518
 30
0.0
 11
1463.167962598817
 21
477.8883950202519
 31
0.0
  0
LINE
  5
3BD
330
6F
100
AcDbEntity
  8
_0-1_計細線
  6
DASHED2
 62
     3
100
AcDbLine
 10
1007.167962598817
 20
476.8883950202521
 30
0.0
 11
1461.167962598817
 21
476.8883950202521
 31
0.0
  0
LINE
  5
3BE
330
6F
100
AcDbEntity
  8
_0-1_計細線
  6
DASHED2
 62
     3
100
AcDbLine
 10
1464.167962598817
 20
484.388395020252
 30
0.0
 11
1464.167962598817
 21
479.8883950202522
 31
0.0
  0
ARC
  5
3BF
330
6F
100
AcDbEntity
  8
_0-1_計細線
  6
DASHED2
 62
     3
100
AcDbCircle
 10
1461.167962598817
 20
479.8883950202522
 30
0.0
 40
3.0
100
AcDbArc
 50
269.9999999999997
 51
359.9999999999997
  0
LINE
  5
3C0
330
6F
100
AcDbEntity
  8
_0-1_計細線
  6
DASHED2
 62
     3
100
AcDbLine
 10
1368.167962598817
 20
484.888395020252
 30
0.0
 11
1368.167962598817
 21
507.888395020252
 31
0.0
  0
LINE
  5
3C1
330
6F
100
AcDbEntity
  8
_0-1_計細線
  6
DASHED2
 62
     3
100
AcDbLine
 10
1368.167962598817
 20
507.888395020252
 30
0.0
 11
1392.167962598818
 21
507.888395020252
 31
0.0
  0
LINE
  5
3C2
330
6F
100
AcDbEntity
  8
_0-1_計細線
  6
DASHED2
 62
     3
100
AcDbLine
 10
1392.167962598818
 20
507.888395020252
 30
0.0
 11
1392.167962598818
 21
484.888395020252
 31
0.0
  0
LINE
  5
3C3
330
6F
100
AcDbEntity
  8
_0-1_計細線
  6
Continuous
 62
     3
100
AcDbLine
 10
1466.167962598817
 20
484.388395020252
 30
0.0
 11
1438.167962598818
 21
484.388395020252
 31
0.0
  0
LINE
  5
3C4
330
6F
100
AcDbEntity
  8
_0-1_計細線
  6
Continuous
 62
     3
100
AcDbLine
 10
1466.167962598817
 20
475.888395020252
 30
0.0
 11
1466.167962598817
 21
484.388395020252
 31
0.0
  0
LINE
  5
3C5
330
6F
100
AcDbEntity
  8
_0-1_計細線
  6
Continuous
 62
     3
100
AcDbLine
 10
1466.167962598817
 20
475.888395020252
 30
0.0
 11
1002.167962598817
 21
475.888395020252
 31
0.0
  0
LINE
  5
3C6
330
6F
100
AcDbEntity
  8
_0-0_計極細
  6
CENTER1
 62
     2
100
AcDbLine
 10
1466.167962598817
 20
500.8883950202521
 30
0.0
 11
1002.167962598817
 21
500.8883950202521
 31
0.0
  0
TEXT
  5
3C7
330
6F
100
AcDbEntity
  8
_0-7_枠細線
 62
     5
100
AcDbText
 10
189.5862645178136
 20
355.6963237076682
 30
0.0
 40
24.0
  1
仕様：SUS304#800とＰ.Ｐ.及び発泡Ｐ.Ｅ.を両面テープにて貼り付け
 41
0.7999999999999999
100
AcDbText
  0
TEXT
  5
3C8
330
6F
100
AcDbEntity
  8
_0-7_枠細線
 62
     5
100
AcDbText
 10
594.2179877450115
 20
526.2753913746762
 30
0.0
 40
24.0
  1
Ｃ部
100
AcDbText
  0
LINE
  5
3C9
330
6F
100
AcDbEntity
  8
_0-1_計細線
  6
DASHED2
 62
     3
100
AcDbLine
 10
286.5916257372628
 20
498.6883950202519
 30
0.0
 11
287.7916257372617
 21
498.6883950202521
 31
0.0
  0
CIRCLE
  5
3CA
330
6F
100
AcDbEntity
  8
_0-1_計細線
  6
DASHED2
 62
     3
100
AcDbCircle
 10
287.1916257372622
 20
500.8883950202521
 30
0.0
 40
2.75
  0
LINE
  5
3CB
330
6F
100
AcDbEntity
  8
_0-1_計細線
  6
DASHED2
 62
     3
100
AcDbLine
 10
284.9916257372624
 20
500.2883950202519
 30
0.0
 11
286.3916257372621
 21
500.2883950202521
 31
0.0
  0
LINE
  5
3CC
330
6F
100
AcDbEntity
  8
_0-1_計細線
  6
DASHED2
 62
     3
100
AcDbLine
 10
284.9916257372624
 20
501.4883950202519
 30
0.0
 11
286.3916257372621
 21
501.4883950202519
 31
0.0
  0
CIRCLE
  5
3CD
330
6F
100
AcDbEntity
  8
_0-1_計細線
  6
DASHED2
 62
     3
100
AcDbCircle
 10
287.1916257372622
 20
500.8883950202521
 30
0.0
 40
4.0
  0
LINE
  5
3CE
330
6F
100
AcDbEntity
  8
_0-1_計細線
  6
DASHED2
 62
     3
100
AcDbLine
 10
286.5916257372628
 20
503.088395020252
 30
0.0
 11
287.7916257372617
 21
503.0883950202521
 31
0.0
  0
ARC
  5
3CF
330
6F
100
AcDbEntity
  8
_0-1_計細線
  6
DASHED2
 62
     3
100
AcDbCircle
 10
287.9916257372624
 20
500.0883950202521
 30
0.0
 40
0.2
100
AcDbArc
 50
89.99999999999991
 51
179.9999999999998
  0
LINE
  5
3D0
330
6F
100
AcDbEntity
  8
_0-1_計細線
  6
DASHED2
 62
     3
100
AcDbLine
 10
287.7916257372617
 20
498.688395020252
 30
0.0
 11
287.7916257372617
 21
500.0883950202521
 31
0.0
  0
ARC
  5
3D1
330
6F
100
AcDbEntity
  8
_0-1_計細線
  6
DASHED2
 62
     3
100
AcDbCircle
 10
287.9916257372624
 20
501.6883950202521
 30
0.0
 40
0.2
100
AcDbArc
 50
179.9999999999998
 51
269.9999999999997
  0
LINE
  5
3D2
330
6F
100
AcDbEntity
  8
_0-1_計細線
  6
DASHED2
 62
     3
100
AcDbLine
 10
287.7916257372626
 20
501.6883950202521
 30
0.0
 11
287.7916257372617
 21
503.0883950202521
 31
0.0
  0
LINE
  5
3D3
330
6F
100
AcDbEntity
  8
_0-1_計細線
  6
DASHED2
 62
     3
100
AcDbLine
 10
289.3916257372621
 20
500.2883950202519
 30
0.0
 11
289.3916257372621
 21
501.4883950202519
 31
0.0
  0
LINE
  5
3D4
330
6F
100
AcDbEntity
  8
_0-1_計細線
  6
DASHED2
 62
     3
100
AcDbLine
 10
287.9916257372624
 20
500.2883950202521
 30
0.0
 11
289.3916257372621
 21
500.2883950202519
 31
0.0
  0
LINE
  5
3D5
330
6F
100
AcDbEntity
  8
_0-1_計細線
  6
DASHED2
 62
     3
100
AcDbLine
 10
287.9916257372624
 20
501.4883950202519
 30
0.0
 11
289.3916257372621
 21
501.4883950202519
 31
0.0
  0
LINE
  5
3D6
330
6F
100
AcDbEntity
  8
_0-1_計細線
  6
DASHED2
 62
     3
100
AcDbLine
 10
286.5916257372628
 20
498.688395020252
 30
0.0
 11
286.5916257372628
 21
500.0883950202521
 31
0.0
  0
LINE
  5
3D7
330
6F
100
AcDbEntity
  8
_0-1_計細線
  6
DASHED2
 62
     3
100
AcDbLine
 10
286.5916257372628
 20
498.688395020252
 30
0.0
 11
286.5916257372628
 21
500.0883950202521
 31
0.0
  0
ARC
  5
3D8
330
6F
100
AcDbEntity
  8
_0-1_計細線
  6
DASHED2
 62
     3
100
AcDbCircle
 10
286.3916257372621
 20
500.0883950202521
 30
0.0
 40
0.2
100
AcDbArc
 50
0.0
 51
89.99999999999991
  0
ARC
  5
3D9
330
6F
100
AcDbEntity
  8
_0-1_計細線
  6
DASHED2
 62
     3
100
AcDbCircle
 10
286.3916257372621
 20
501.6883950202521
 30
0.0
 40
0.2
100
AcDbArc
 50
269.9999999999997
 51
359.9999999999997
  0
LINE
  5
3DA
330
6F
100
AcDbEntity
  8
_0-1_計細線
  6
DASHED2
 62
     3
100
AcDbLine
 10
286.5916257372628
 20
501.6883950202521
 30
0.0
 11
286.5916257372628
 21
503.0883950202521
 31
0.0
  0
LINE
  5
3DB
330
6F
100
AcDbEntity
  8
_0-1_計細線
  6
DASHED2
 62
     3
100
AcDbLine
 10
286.5916257372628
 20
501.6883950202521
 30
0.0
 11
286.5916257372628
 21
503.0883950202521
 31
0.0
  0
LINE
  5
3DC
330
6F
100
AcDbEntity
  8
_0-1_計細線
  6
DASHED2
 62
     3
100
AcDbLine
 10
284.9916257372624
 20
500.2883950202519
 30
0.0
 11
284.9916257372624
 21
501.4883950202519
 31
0.0
  0
LINE
  5
3DD
330
6F
100
AcDbEntity
  8
_0-0_計極細
  6
CENTER1
 62
     2
100
AcDbLine
 10
287.1916257372622
 20
488.1706636548314
 30
0.0
 11
287.1916257372622
 21
510.388395020252
 31
0.0
  0
LINE
  5
3DE
330
6F
100
AcDbEntity
  8
_0-1_計細線
  6
DASHED2
 62
     3
100
AcDbLine
 10
643.7916257372624
 20
498.6883950202519
 30
0.0
 11
642.5916257372636
 21
498.6883950202521
 31
0.0
  0
CIRCLE
  5
3DF
330
6F
100
AcDbEntity
  8
_0-1_計細線
  6
DASHED2
 62
     3
100
AcDbCircle
 10
643.1916257372632
 20
500.8883950202521
 30
0.0
 40
2.75
  0
LINE
  5
3E0
330
6F
100
AcDbEntity
  8
_0-1_計細線
  6
DASHED2
 62
     3
100
AcDbLine
 10
645.391625737263
 20
500.2883950202519
 30
0.0
 11
643.9916257372634
 21
500.2883950202521
 31
0.0
  0
LINE
  5
3E1
330
6F
100
AcDbEntity
  8
_0-1_計細線
  6
DASHED2
 62
     3
100
AcDbLine
 10
645.391625737263
 20
501.4883950202519
 30
0.0
 11
643.9916257372634
 21
501.4883950202519
 31
0.0
  0
CIRCLE
  5
3E2
330
6F
100
AcDbEntity
  8
_0-1_計細線
  6
DASHED2
 62
     3
100
AcDbCircle
 10
643.1916257372632
 20
500.8883950202521
 30
0.0
 40
4.0
  0
LINE
  5
3E3
330
6F
100
AcDbEntity
  8
_0-1_計細線
  6
DASHED2
 62
     3
100
AcDbLine
 10
643.7916257372624
 20
503.088395020252
 30
0.0
 11
642.5916257372636
 21
503.0883950202521
 31
0.0
  0
ARC
  5
3E4
330
6F
100
AcDbEntity
  8
_0-1_計細線
  6
DASHED2
 62
     3
100
AcDbCircle
 10
642.391625737263
 20
500.0883950202521
 30
0.0
 40
0.2
100
AcDbArc
 50
0.0
 51
89.99999999999991
  0
LINE
  5
3E5
330
6F
100
AcDbEntity
  8
_0-1_計細線
  6
DASHED2
 62
     3
100
AcDbLine
 10
642.5916257372636
 20
498.688395020252
 30
0.0
 11
642.5916257372636
 21
500.0883950202521
 31
0.0
  0
ARC
  5
3E6
330
6F
100
AcDbEntity
  8
_0-1_計細線
  6
DASHED2
 62
     3
100
AcDbCircle
 10
642.391625737263
 20
501.6883950202521
 30
0.0
 40
0.2
100
AcDbArc
 50
269.9999999999997
 51
359.9999999999997
  0
LINE
  5
3E7
330
6F
100
AcDbEntity
  8
_0-1_計細線
  6
DASHED2
 62
     3
100
AcDbLine
 10
642.5916257372627
 20
501.6883950202521
 30
0.0
 11
642.5916257372636
 21
503.0883950202521
 31
0.0
  0
LINE
  5
3E8
330
6F
100
AcDbEntity
  8
_0-1_計細線
  6
DASHED2
 62
     3
100
AcDbLine
 10
640.9916257372635
 20
500.2883950202519
 30
0.0
 11
640.9916257372635
 21
501.4883950202519
 31
0.0
  0
LINE
  5
3E9
330
6F
100
AcDbEntity
  8
_0-1_計細線
  6
DASHED2
 62
     3
100
AcDbLine
 10
642.391625737263
 20
500.2883950202521
 30
0.0
 11
640.9916257372635
 21
500.2883950202519
 31
0.0
  0
LINE
  5
3EA
330
6F
100
AcDbEntity
  8
_0-1_計細線
  6
DASHED2
 62
     3
100
AcDbLine
 10
642.391625737263
 20
501.4883950202519
 30
0.0
 11
640.9916257372635
 21
501.4883950202519
 31
0.0
  0
LINE
  5
3EB
330
6F
100
AcDbEntity
  8
_0-1_計細線
  6
DASHED2
 62
     3
100
AcDbLine
 10
643.7916257372624
 20
498.688395020252
 30
0.0
 11
643.7916257372624
 21
500.0883950202521
 31
0.0
  0
LINE
  5
3EC
330
6F
100
AcDbEntity
  8
_0-1_計細線
  6
DASHED2
 62
     3
100
AcDbLine
 10
643.7916257372624
 20
498.688395020252
 30
0.0
 11
643.7916257372624
 21
500.0883950202521
 31
0.0
  0
ARC
  5
3ED
330
6F
100
AcDbEntity
  8
_0-1_計細線
  6
DASHED2
 62
     3
100
AcDbCircle
 10
643.9916257372634
 20
500.0883950202521
 30
0.0
 40
0.2
100
AcDbArc
 50
89.99999999999991
 51
179.9999999999998
  0
ARC
  5
3EE
330
6F
100
AcDbEntity
  8
_0-1_計細線
  6
DASHED2
 62
     3
100
AcDbCircle
 10
643.9916257372634
 20
501.6883950202521
 30
0.0
 40
0.2
100
AcDbArc
 50
179.9999999999998
 51
269.9999999999997
  0
LINE
  5
3EF
330
6F
100
AcDbEntity
  8
_0-1_計細線
  6
DASHED2
 62
     3
100
AcDbLine
 10
643.7916257372624
 20
501.6883950202521
 30
0.0
 11
643.7916257372624
 21
503.0883950202521
 31
0.0
  0
LINE
  5
3F0
330
6F
100
AcDbEntity
  8
_0-1_計細線
  6
DASHED2
 62
     3
100
AcDbLine
 10
643.7916257372624
 20
501.6883950202521
 30
0.0
 11
643.7916257372624
 21
503.0883950202521
 31
0.0
  0
LINE
  5
3F1
330
6F
100
AcDbEntity
  8
_0-1_計細線
  6
DASHED2
 62
     3
100
AcDbLine
 10
645.391625737263
 20
500.2883950202519
 30
0.0
 11
645.391625737263
 21
501.4883950202519
 31
0.0
  0
LINE
  5
3F2
330
6F
100
AcDbEntity
  8
_0-0_計極細
  6
CENTER1
 62
     2
100
AcDbLine
 10
643.1916257372632
 20
487.7002932844611
 30
0.0
 11
643.1916257372632
 21
510.388395020252
 31
0.0
  0
CIRCLE
  5
3F3
330
6F
100
AcDbEntity
  8
_0-7_枠細線
  6
Continuous
 62
     5
100
AcDbCircle
 10
664.124316292915
 20
493.1584656498633
 30
0.0
 40
40.0
  0
LINE
  5
3F4
330
6F
100
AcDbEntity
  8
_0-1_計細線
  6
DASHED2
 62
     3
100
AcDbLine
 10
1055.567962598817
 20
498.6883950202519
 30
0.0
 11
1056.767962598816
 21
498.6883950202521
 31
0.0
  0
CIRCLE
  5
3F5
330
6F
100
AcDbEntity
  8
_0-1_計細線
  6
DASHED2
 62
     3
100
AcDbCircle
 10
1056.167962598816
 20
500.8883950202521
 30
0.0
 40
2.75
  0
LINE
  5
3F6
330
6F
100
AcDbEntity
  8
_0-1_計細線
  6
DASHED2
 62
     3
100
AcDbLine
 10
1053.967962598816
 20
500.2883950202519
 30
0.0
 11
1055.367962598816
 21
500.2883950202521
 31
0.0
  0
LINE
  5
3F7
330
6F
100
AcDbEntity
  8
_0-1_計細線
  6
DASHED2
 62
     3
100
AcDbLine
 10
1053.967962598816
 20
501.4883950202519
 30
0.0
 11
1055.367962598816
 21
501.4883950202519
 31
0.0
  0
CIRCLE
  5
3F8
330
6F
100
AcDbEntity
  8
_0-1_計細線
  6
DASHED2
 62
     3
100
AcDbCircle
 10
1056.167962598816
 20
500.8883950202521
 30
0.0
 40
4.0
  0
LINE
  5
3F9
330
6F
100
AcDbEntity
  8
_0-1_計細線
  6
DASHED2
 62
     3
100
AcDbLine
 10
1055.567962598817
 20
503.0883950202519
 30
0.0
 11
1056.767962598816
 21
503.088395020252
 31
0.0
  0
ARC
  5
3FA
330
6F
100
AcDbEntity
  8
_0-1_計細線
  6
DASHED2
 62
     3
100
AcDbCircle
 10
1056.967962598816
 20
500.088395020252
 30
0.0
 40
0.2
100
AcDbArc
 50
89.99999999999991
 51
179.9999999999998
  0
LINE
  5
3FB
330
6F
100
AcDbEntity
  8
_0-1_計細線
  6
DASHED2
 62
     3
100
AcDbLine
 10
1056.767962598816
 20
498.6883950202519
 30
0.0
 11
1056.767962598816
 21
500.088395020252
 31
0.0
  0
ARC
  5
3FC
330
6F
100
AcDbEntity
  8
_0-1_計細線
  6
DASHED2
 62
     3
100
AcDbCircle
 10
1056.967962598816
 20
501.688395020252
 30
0.0
 40
0.2
100
AcDbArc
 50
179.9999999999998
 51
269.9999999999997
  0
LINE
  5
3FD
330
6F
100
AcDbEntity
  8
_0-1_計細線
  6
DASHED2
 62
     3
100
AcDbLine
 10
1056.767962598817
 20
501.688395020252
 30
0.0
 11
1056.767962598816
 21
503.088395020252
 31
0.0
  0
LINE
  5
3FE
330
6F
100
AcDbEntity
  8
_0-1_計細線
  6
DASHED2
 62
     3
100
AcDbLine
 10
1058.367962598816
 20
500.2883950202519
 30
0.0
 11
1058.367962598816
 21
501.4883950202519
 31
0.0
  0
LINE
  5
3FF
330
6F
100
AcDbEntity
  8
_0-1_計細線
  6
DASHED2
 62
     3
100
AcDbLine
 10
1056.967962598816
 20
500.2883950202521
 30
0.0
 11
1058.367962598816
 21
500.2883950202519
 31
0.0
  0
LINE
  5
400
330
6F
100
AcDbEntity
  8
_0-1_計細線
  6
DASHED2
 62
     3
100
AcDbLine
 10
1056.967962598816
 20
501.4883950202519
 30
0.0
 11
1058.367962598816
 21
501.4883950202519
 31
0.0
  0
LINE
  5
401
330
6F
100
AcDbEntity
  8
_0-1_計細線
  6
DASHED2
 62
     3
100
AcDbLine
 10
1055.567962598817
 20
498.6883950202519
 30
0.0
 11
1055.567962598817
 21
500.088395020252
 31
0.0
  0
LINE
  5
402
330
6F
100
AcDbEntity
  8
_0-1_計細線
  6
DASHED2
 62
     3
100
AcDbLine
 10
1055.567962598817
 20
498.6883950202519
 30
0.0
 11
1055.567962598817
 21
500.088395020252
 31
0.0
  0
ARC
  5
403
330
6F
100
AcDbEntity
  8
_0-1_計細線
  6
DASHED2
 62
     3
100
AcDbCircle
 10
1055.367962598816
 20
500.088395020252
 30
0.0
 40
0.2
100
AcDbArc
 50
0.0
 51
89.99999999999991
  0
ARC
  5
404
330
6F
100
AcDbEntity
  8
_0-1_計細線
  6
DASHED2
 62
     3
100
AcDbCircle
 10
1055.367962598816
 20
501.688395020252
 30
0.0
 40
0.2
100
AcDbArc
 50
269.9999999999997
 51
359.9999999999997
  0
LINE
  5
405
330
6F
100
AcDbEntity
  8
_0-1_計細線
  6
DASHED2
 62
     3
100
AcDbLine
 10
1055.567962598817
 20
501.688395020252
 30
0.0
 11
1055.567962598817
 21
503.088395020252
 31
0.0
  0
LINE
  5
406
330
6F
100
AcDbEntity
  8
_0-1_計細線
  6
DASHED2
 62
     3
100
AcDbLine
 10
1055.567962598817
 20
501.688395020252
 30
0.0
 11
1055.567962598817
 21
503.088395020252
 31
0.0
  0
LINE
  5
407
330
6F
100
AcDbEntity
  8
_0-1_計細線
  6
DASHED2
 62
     3
100
AcDbLine
 10
1053.967962598816
 20
500.2883950202519
 30
0.0
 11
1053.967962598816
 21
501.4883950202519
 31
0.0
  0
LINE
  5
408
330
6F
100
AcDbEntity
  8
_0-0_計極細
  6
CENTER1
 62
     2
100
AcDbLine
 10
1056.167962598816
 20
488.1706636548314
 30
0.0
 11
1056.167962598816
 21
510.388395020252
 31
0.0
  0
LINE
  5
409
330
6F
100
AcDbEntity
  8
_0-1_計細線
  6
DASHED2
 62
     3
100
AcDbLine
 10
1412.767962598817
 20
498.6883950202519
 30
0.0
 11
1411.567962598818
 21
498.6883950202521
 31
0.0
  0
CIRCLE
  5
40A
330
6F
100
AcDbEntity
  8
_0-1_計細線
  6
DASHED2
 62
     3
100
AcDbCircle
 10
1412.167962598817
 20
500.8883950202521
 30
0.0
 40
2.75
  0
LINE
  5
40B
330
6F
100
AcDbEntity
  8
_0-1_計細線
  6
DASHED2
 62
     3
100
AcDbLine
 10
1414.367962598817
 20
500.2883950202519
 30
0.0
 11
1412.967962598818
 21
500.2883950202521
 31
0.0
  0
LINE
  5
40C
330
6F
100
AcDbEntity
  8
_0-1_計細線
  6
DASHED2
 62
     3
100
AcDbLine
 10
1414.367962598817
 20
501.4883950202519
 30
0.0
 11
1412.967962598818
 21
501.4883950202519
 31
0.0
  0
CIRCLE
  5
40D
330
6F
100
AcDbEntity
  8
_0-1_計細線
  6
DASHED2
 62
     3
100
AcDbCircle
 10
1412.167962598817
 20
500.8883950202521
 30
0.0
 40
4.0
  0
LINE
  5
40E
330
6F
100
AcDbEntity
  8
_0-1_計細線
  6
DASHED2
 62
     3
100
AcDbLine
 10
1412.767962598817
 20
503.0883950202519
 30
0.0
 11
1411.567962598818
 21
503.088395020252
 31
0.0
  0
ARC
  5
40F
330
6F
100
AcDbEntity
  8
_0-1_計細線
  6
DASHED2
 62
     3
100
AcDbCircle
 10
1411.367962598817
 20
500.088395020252
 30
0.0
 40
0.2
100
AcDbArc
 50
0.0
 51
89.99999999999991
  0
LINE
  5
410
330
6F
100
AcDbEntity
  8
_0-1_計細線
  6
DASHED2
 62
     3
100
AcDbLine
 10
1411.567962598818
 20
498.6883950202519
 30
0.0
 11
1411.567962598818
 21
500.088395020252
 31
0.0
  0
ARC
  5
411
330
6F
100
AcDbEntity
  8
_0-1_計細線
  6
DASHED2
 62
     3
100
AcDbCircle
 10
1411.367962598817
 20
501.688395020252
 30
0.0
 40
0.2
100
AcDbArc
 50
269.9999999999997
 51
359.9999999999997
  0
LINE
  5
412
330
6F
100
AcDbEntity
  8
_0-1_計細線
  6
DASHED2
 62
     3
100
AcDbLine
 10
1411.567962598817
 20
501.688395020252
 30
0.0
 11
1411.567962598818
 21
503.088395020252
 31
0.0
  0
LINE
  5
413
330
6F
100
AcDbEntity
  8
_0-1_計細線
  6
DASHED2
 62
     3
100
AcDbLine
 10
1409.967962598818
 20
500.2883950202519
 30
0.0
 11
1409.967962598818
 21
501.4883950202519
 31
0.0
  0
LINE
  5
414
330
6F
100
AcDbEntity
  8
_0-1_計細線
  6
DASHED2
 62
     3
100
AcDbLine
 10
1411.367962598817
 20
500.2883950202521
 30
0.0
 11
1409.967962598818
 21
500.2883950202519
 31
0.0
  0
LINE
  5
415
330
6F
100
AcDbEntity
  8
_0-1_計細線
  6
DASHED2
 62
     3
100
AcDbLine
 10
1411.367962598817
 20
501.4883950202519
 30
0.0
 11
1409.967962598818
 21
501.4883950202519
 31
0.0
  0
LINE
  5
416
330
6F
100
AcDbEntity
  8
_0-1_計細線
  6
DASHED2
 62
     3
100
AcDbLine
 10
1412.767962598817
 20
498.6883950202519
 30
0.0
 11
1412.767962598817
 21
500.088395020252
 31
0.0
  0
LINE
  5
417
330
6F
100
AcDbEntity
  8
_0-1_計細線
  6
DASHED2
 62
     3
100
AcDbLine
 10
1412.767962598817
 20
498.6883950202519
 30
0.0
 11
1412.767962598817
 21
500.088395020252
 31
0.0
  0
ARC
  5
418
330
6F
100
AcDbEntity
  8
_0-1_計細線
  6
DASHED2
 62
     3
100
AcDbCircle
 10
1412.967962598818
 20
500.088395020252
 30
0.0
 40
0.2
100
AcDbArc
 50
89.99999999999991
 51
179.9999999999998
  0
ARC
  5
419
330
6F
100
AcDbEntity
  8
_0-1_計細線
  6
DASHED2
 62
     3
100
AcDbCircle
 10
1412.967962598818
 20
501.688395020252
 30
0.0
 40
0.2
100
AcDbArc
 50
179.9999999999998
 51
269.9999999999997
  0
LINE
  5
41A
330
6F
100
AcDbEntity
  8
_0-1_計細線
  6
DASHED2
 62
     3
100
AcDbLine
 10
1412.767962598817
 20
501.688395020252
 30
0.0
 11
1412.767962598817
 21
503.088395020252
 31
0.0
  0
LINE
  5
41B
330
6F
100
AcDbEntity
  8
_0-1_計細線
  6
DASHED2
 62
     3
100
AcDbLine
 10
1412.767962598817
 20
501.688395020252
 30
0.0
 11
1412.767962598817
 21
503.088395020252
 31
0.0
  0
LINE
  5
41C
330
6F
100
AcDbEntity
  8
_0-1_計細線
  6
DASHED2
 62
     3
100
AcDbLine
 10
1414.367962598817
 20
500.2883950202519
 30
0.0
 11
1414.367962598817
 21
501.4883950202519
 31
0.0
  0
LINE
  5
41D
330
6F
100
AcDbEntity
  8
_0-0_計極細
  6
CENTER1
 62
     2
100
AcDbLine
 10
1412.167962598817
 20
487.7002932844611
 30
0.0
 11
1412.167962598817
 21
510.388395020252
 31
0.0
  0
LINE
  5
41E
330
6F
100
AcDbEntity
  8
_0-0_計極細
  6
CENTER1
 62
     2
100
AcDbLine
 10
465.1916257372623
 20
1116.036535020252
 30
0.0
 11
465.1916257372623
 21
414.0370299935351
 31
0.0
  0
LINE
  5
41F
330
6F
100
AcDbEntity
  8
_0-1_計細線
  6
Continuous
 62
     3
100
AcDbLine
 10
235.1916257372627
 20
485.888395020252
 30
0.0
 11
235.1916257372627
 21
1075.888395020252
 31
0.0
  0
LINE
  5
420
330
6F
100
AcDbEntity
  8
_0-1_計細線
  6
Continuous
 62
     3
100
AcDbLine
 10
695.1916257372623
 20
1075.888395020252
 30
0.0
 11
695.1916257372623
 21
485.888395020252
 31
0.0
  0
LINE
  5
421
330
6F
100
AcDbEntity
  8
_0-5_寸法線
  6
Continuous
 62
     7
100
AcDbLine
 10
759.6916257372618
 20
1085.888395020252
 30
0.0
 11
943.6916257372617
 21
1085.888395020252
 31
0.0
  0
LINE
  5
422
330
6F
100
AcDbEntity
  8
_0-5_寸法線
  6
Continuous
 62
     7
100
AcDbLine
 10
935.6916257372617
 20
1085.888395020252
 30
0.0
 11
939.832730458902
 21
1070.433581799627
 31
0.0
  0
LINE
  5
423
330
6F
100
AcDbEntity
  8
_0-5_寸法線
  6
Continuous
 62
     7
100
AcDbLine
 10
935.6916257372617
 20
1085.888395020252
 30
0.0
 11
931.5505210156212
 21
1070.433581799627
 31
0.0
  0
LINE
  5
424
330
6F
100
AcDbEntity
  8
_0-5_寸法線
  6
Continuous
 62
     7
100
AcDbLine
 10
759.6916257372618
 20
475.8883950202521
 30
0.0
 11
943.6916257372617
 21
475.8883950202521
 31
0.0
  0
LINE
  5
425
330
6F
100
AcDbEntity
  8
_0-5_寸法線
  6
Continuous
 62
     7
100
AcDbLine
 10
935.6916257372617
 20
475.8883950202521
 30
0.0
 11
931.5505210156215
 21
491.3432082408771
 31
0.0
  0
LINE
  5
426
330
6F
100
AcDbEntity
  8
_0-5_寸法線
  6
Continuous
 62
     7
100
AcDbLine
 10
935.6916257372617
 20
475.8883950202521
 30
0.0
 11
939.832730458902
 21
491.3432082408771
 31
0.0
  0
LINE
  5
427
330
6F
100
AcDbEntity
  8
_0-5_寸法線
  6
Continuous
 62
     7
100
AcDbLine
 10
935.6916257372617
 20
1085.888395020252
 30
0.0
 11
935.6916257372617
 21
475.8883950202521
 31
0.0
  0
TEXT
  5
428
330
6F
100
AcDbEntity
  8
_0-5_寸法線
 62
     7
100
AcDbText
 10
935.6916257372628
 20
762.8883950202521
 30
0.0
 40
24.0
  1
610
 50
90.0
100
AcDbText
  0
LINE
  5
429
330
6F
100
AcDbEntity
  8
_0-5_寸法線
  6
Continuous
 62
     7
100
AcDbLine
 10
759.6916257372618
 20
1084.888395020252
 30
0.0
 11
887.6916257372618
 21
1084.888395020252
 31
0.0
  0
LINE
  5
42A
330
6F
100
AcDbEntity
  8
_0-5_寸法線
  6
Continuous
 62
     7
100
AcDbLine
 10
879.6916257372618
 20
1084.888395020252
 30
0.0
 11
883.8327304589022
 21
1069.433581799627
 31
0.0
  0
LINE
  5
42B
330
6F
100
AcDbEntity
  8
_0-5_寸法線
  6
Continuous
 62
     7
100
AcDbLine
 10
879.6916257372618
 20
1084.888395020252
 30
0.0
 11
875.5505210156211
 21
1069.433581799627
 31
0.0
  0
LINE
  5
42C
330
6F
100
AcDbEntity
  8
_0-5_寸法線
  6
Continuous
 62
     7
100
AcDbLine
 10
759.6916257372618
 20
476.888395020252
 30
0.0
 11
887.6916257372618
 21
476.888395020252
 31
0.0
  0
LINE
  5
42D
330
6F
100
AcDbEntity
  8
_0-5_寸法線
  6
Continuous
 62
     7
100
AcDbLine
 10
879.6916257372618
 20
476.888395020252
 30
0.0
 11
875.5505210156215
 21
492.3432082408772
 31
0.0
  0
LINE
  5
42E
330
6F
100
AcDbEntity
  8
_0-5_寸法線
  6
Continuous
 62
     7
100
AcDbLine
 10
879.6916257372618
 20
476.888395020252
 30
0.0
 11
883.8327304589022
 21
492.3432082408772
 31
0.0
  0
LINE
  5
42F
330
6F
100
AcDbEntity
  8
_0-5_寸法線
  6
Continuous
 62
     7
100
AcDbLine
 10
879.6916257372618
 20
1084.888395020252
 30
0.0
 11
879.6916257372618
 21
476.888395020252
 31
0.0
  0
TEXT
  5
430
330
6F
100
AcDbEntity
  8
_0-5_寸法線
 62
     7
100
AcDbText
 10
879.6916257372618
 20
762.8883950202521
 30
0.0
 40
24.0
  1
608
 50
90.0
100
AcDbText
  0
LINE
  5
431
330
6F
100
AcDbEntity
  8
_0-5_寸法線
  6
Continuous
 62
     7
100
AcDbLine
 10
759.6916257372618
 20
500.8883950202521
 30
0.0
 11
831.6916257372618
 21
500.8883950202517
 31
0.0
  0
LINE
  5
432
330
6F
100
AcDbEntity
  8
_0-5_寸法線
  6
Continuous
 62
     7
100
AcDbLine
 10
823.6916257372618
 20
500.8883950202518
 30
0.0
 11
819.5505210156214
 21
516.3432082408769
 31
0.0
  0
LINE
  5
433
330
6F
100
AcDbEntity
  8
_0-5_寸法線
  6
Continuous
 62
     7
100
AcDbLine
 10
823.6916257372618
 20
500.8883950202518
 30
0.0
 11
827.8327304589021
 21
516.3432082408769
 31
0.0
  0
LINE
  5
434
330
6F
100
AcDbEntity
  8
_0-5_寸法線
  6
Continuous
 62
     7
100
AcDbLine
 10
759.6916257372618
 20
1069.888395020252
 30
0.0
 11
831.6916257372618
 21
1069.888395020252
 31
0.0
  0
LINE
  5
435
330
6F
100
AcDbEntity
  8
_0-5_寸法線
  6
Continuous
 62
     7
100
AcDbLine
 10
823.6916257372618
 20
1069.888395020252
 30
0.0
 11
827.8327304589021
 21
1054.433581799627
 31
0.0
  0
LINE
  5
436
330
6F
100
AcDbEntity
  8
_0-5_寸法線
  6
Continuous
 62
     7
100
AcDbLine
 10
823.6916257372618
 20
1069.888395020252
 30
0.0
 11
819.5505210156214
 21
1054.433581799627
 31
0.0
  0
LINE
  5
437
330
6F
100
AcDbEntity
  8
_0-5_寸法線
  6
Continuous
 62
     7
100
AcDbLine
 10
823.6916257372618
 20
500.8883950202518
 30
0.0
 11
823.6916257372618
 21
1069.888395020252
 31
0.0
  0
TEXT
  5
438
330
6F
100
AcDbEntity
  8
_0-5_寸法線
 62
     7
100
AcDbText
 10
823.6916257372618
 20
767.3883950202521
 30
0.0
 40
24.0
  1
569
 50
90.0
100
AcDbText
  0
LINE
  5
439
330
6F
100
AcDbEntity
  8
_0-1_計細線
  6
Continuous
 62
     3
100
AcDbLine
 10
1026.167962598818
 20
1046.388395020252
 30
0.0
 11
1026.167962598818
 21
515.3883950202521
 31
0.0
  0
LINE
  5
43A
330
6F
100
AcDbEntity
  8
_0-1_計細線
  6
Continuous
 62
     3
100
AcDbLine
 10
1004.167962598817
 20
484.388395020252
 30
0.0
 11
1004.167962598817
 21
1077.388395020252
 31
0.0
  0
LINE
  5
43B
330
6F
100
AcDbEntity
  8
_0-1_計細線
  6
Continuous
 62
     3
100
AcDbLine
 10
1005.167962598817
 20
1077.388395020252
 30
0.0
 11
1005.167962598817
 21
484.388395020252
 31
0.0
  0
LINE
  5
43C
330
6F
100
AcDbEntity
  8
_0-0_計極細
  6
CENTER1
 62
     2
100
AcDbLine
 10
1234.167962598817
 20
1116.039960020251
 30
0.0
 11
1234.167962598817
 21
450.3874607836834
 31
0.0
  0
LINE
  5
43D
330
6F
100
AcDbEntity
  8
_0-1_計細線
  6
Continuous
 62
     3
100
AcDbLine
 10
1442.167962598817
 20
1046.388395020252
 30
0.0
 11
1442.167962598817
 21
515.3883950202521
 31
0.0
  0
LINE
  5
43E
330
6F
100
AcDbEntity
  8
_0-1_計細線
  6
Continuous
 62
     3
100
AcDbLine
 10
1464.167962598817
 20
1077.388395020252
 30
0.0
 11
1464.167962598817
 21
484.388395020252
 31
0.0
  0
LINE
  5
43F
330
6F
100
AcDbEntity
  8
_0-1_計細線
  6
Continuous
 62
     3
100
AcDbLine
 10
1463.167962598816
 20
1077.388395020252
 30
0.0
 11
1463.167962598816
 21
484.388395020252
 31
0.0
  0
LINE
  5
440
330
6F
100
AcDbEntity
  8
_0-0_計極細
  6
Continuous
 62
     2
100
AcDbLine
 10
1057.475421461494
 20
641.4687086818069
 30
0.0
 11
1403.840376494857
 21
987.8336637151681
 31
0.0
  0
LINE
  5
441
330
6F
100
AcDbEntity
  8
_0-0_計極細
  6
Continuous
 62
     2
100
AcDbLine
 10
1057.475421461494
 20
989.6961063726935
 30
0.0
 11
1085.236427553745
 21
1017.457112464944
 31
0.0
  0
LINE
  5
442
330
6F
100
AcDbEntity
  8
_0-0_計極細
  6
Continuous
 62
     2
100
AcDbLine
 10
1057.475421461494
 20
815.6123537217675
 30
0.0
 11
1259.320180204671
 21
1017.457112464945
 31
0.0
  0
LINE
  5
443
330
6F
100
AcDbEntity
  8
_0-0_計極細
  6
Continuous
 62
     2
100
AcDbLine
 10
1303.739586840009
 20
539.5029494147494
 30
0.0
 11
1403.840376494857
 21
639.6037390695958
 31
0.0
  0
LINE
  5
444
330
6F
100
AcDbEntity
  8
_0-0_計極細
  6
Continuous
 62
     2
100
AcDbLine
 10
1129.603140247867
 20
539.5029495309087
 30
0.0
 11
1403.840376494857
 21
813.7401857778954
 31
0.0
  0
TEXT
  5
445
330
6F
100
AcDbEntity
  8
_0-7_枠細線
 62
     5
100
AcDbText
 10
1544.799999999999
 20
176.0
 30
0.0
 40
32.0
  1
ＫＳＮ－４５６０
 41
0.5999999999999998
100
AcDbText
  0
ENDSEC
  0
SECTION
  2
OBJECTS
  0
DICTIONARY
  5
C
330
0
100
AcDbDictionary
281
     1
  3
ACAD_CIP_PREVIOUS_PRODUCT_INFO
350
447
  3
ACAD_COLOR
350
62
  3
ACAD_DETAILVIEWSTYLE
350
69
  3
ACAD_GROUP
350
D
  3
ACAD_LAYOUT
350
61
  3
ACAD_MATERIAL
350
10
  3
ACAD_MLEADERSTYLE
350
65
  3
ACAD_MLINESTYLE
350
5E
  3
ACAD_PLOTSETTINGS
350
60
  3
ACAD_PLOTSTYLENAME
350
E
  3
ACAD_SCALELIST
350
42
  3
ACAD_SECTIONVIEWSTYLE
350
67
  3
ACAD_TABLESTYLE
350
63
  3
ACAD_VISUALSTYLE
350
29
  3
ACDB_RECOMPOSE_DATA
350
48E
  3
AcDbVariableDictionary
350
468
  3
AcDsDecomposeData
350
495
  3
DWGPROPS
350
48F
  0
DICTIONARY
  5
47A
330
2
100
AcDbDictionary
280
     1
281
     1
  3
ACAD_LAYERSTATES
360
47B
  0
DICTIONARY
  5
448
330
54
100
AcDbDictionary
280
     1
281
     1
  3
ADSK_XREC_LAYER_RECONCILED
360
449
  0
DICTIONARY
  5
44A
330
96
100
AcDbDictionary
280
     1
281
     1
  3
ADSK_XREC_LAYER_RECONCILED
360
44B
  0
DICTIONARY
  5
44C
330
97
100
AcDbDictionary
280
     1
281
     1
  3
ADSK_XREC_LAYER_RECONCILED
360
44D
  0
DICTIONARY
  5
44E
330
98
100
AcDbDictionary
280
     1
281
     1
  3
ADSK_XREC_LAYER_RECONCILED
360
44F
  0
DICTIONARY
  5
450
330
99
100
AcDbDictionary
280
     1
281
     1
  3
ADSK_XREC_LAYER_RECONCILED
360
451
  0
DICTIONARY
  5
452
330
9A
100
AcDbDictionary
280
     1
281
     1
  3
ADSK_XREC_LAYER_RECONCILED
360
453
  0
DICTIONARY
  5
454
330
9B
100
AcDbDictionary
280
     1
281
     1
  3
ADSK_XREC_LAYER_RECONCILED
360
455
  0
DICTIONARY
  5
456
330
9C
100
AcDbDictionary
280
     1
281
     1
  3
ADSK_XREC_LAYER_RECONCILED
360
457
  0
DICTIONARY
  5
458
330
9D
100
AcDbDictionary
280
     1
281
     1
  3
ADSK_XREC_LAYER_RECONCILED
360
459
  0
DICTIONARY
  5
45A
330
9E
100
AcDbDictionary
280
     1
281
     1
  3
ADSK_XREC_LAYER_RECONCILED
360
45B
  0
DICTIONARY
  5
45C
330
9F
100
AcDbDictionary
280
     1
281
     1
  3
ADSK_XREC_LAYER_RECONCILED
360
45D
  0
DICTIONARY
  5
45E
330
A0
100
AcDbDictionary
280
     1
281
     1
  3
ADSK_XREC_LAYER_RECONCILED
360
45F
  0
DICTIONARY
  5
460
330
A1
100
AcDbDictionary
280
     1
281
     1
  3
ADSK_XREC_LAYER_RECONCILED
360
461
  0
XRECORD
  5
447
102
{ACAD_REACTORS
330
C
102
}
330
C
100
AcDbXrecord
280
     1
300
ACDLT
300
2014
300
ACDLT_F_S
  0
DICTIONARY
  5
62
102
{ACAD_REACTORS
330
C
102
}
330
C
100
AcDbDictionary
281
     1
  0
DICTIONARY
  5
69
102
{ACAD_REACTORS
330
C
102
}
330
C
100
AcDbDictionary
281
     1
  3
Imperial24
350
6A
  0
DICTIONARY
  5
D
102
{ACAD_REACTORS
330
C
102
}
330
C
100
AcDbDictionary
281
     1
  0
DICTIONARY
  5
61
102
{ACAD_REACTORS
330
C
102
}
330
C
100
AcDbDictionary
281
     1
  3
Model
350
72
  3
レイアウト1
350
6E
  0
DICTIONARY
  5
10
102
{ACAD_REACTORS
330
C
102
}
330
C
100
AcDbDictionary
281
     1
  3
ByBlock
350
19
  3
ByLayer
350
11
  3
Global
350
21
  0
DICTIONARY
  5
65
102
{ACAD_REACTORS
330
C
102
}
330
C
100
AcDbDictionary
281
     1
  3
Standard
350
66
  0
DICTIONARY
  5
5E
102
{ACAD_REACTORS
330
C
102
}
330
C
100
AcDbDictionary
281
     1
  3
Standard
350
5F
  0
DICTIONARY
  5
60
102
{ACAD_REACTORS
330
C
102
}
330
C
100
AcDbDictionary
281
     1
  0
ACDBDICTIONARYWDFLT
  5
E
102
{ACAD_REACTORS
330
C
102
}
330
C
100
AcDbDictionary
281
     1
  3
Normal
350
F
100
AcDbDictionaryWithDefault
340
F
  0
DICTIONARY
  5
42
102
{ACAD_REACTORS
330
C
102
}
330
C
100
AcDbDictionary
281
     1
  3
A0
350
43
  3
A1
350
44
  3
A2
350
45
  3
A3
350
46
  3
A4
350
47
  3
A5
350
48
  3
A6
350
49
  3
A7
350
4A
  3
A8
350
4B
  3
A9
350
4C
  3
B0
350
4D
  3
B1
350
4E
  3
B2
350
4F
  3
B3
350
50
  3
B4
350
51
  3
B5
350
52
  3
B6
350
53
  0
DICTIONARY
  5
67
102
{ACAD_REACTORS
330
C
102
}
330
C
100
AcDbDictionary
281
     1
  3
Imperial24
350
68
  0
DICTIONARY
  5
63
102
{ACAD_REACTORS
330
C
102
}
330
C
100
AcDbDictionary
281
     1
  3
Standard
350
64
  0
DICTIONARY
  5
29
102
{ACAD_REACTORS
330
C
102
}
330
C
100
AcDbDictionary
281
     1
  3
2dWireframe
350
2F
  3
Basic
350
2E
  3
Brighten
350
35
  3
ColorChange
350
39
  3
Conceptual
350
32
  3
Dim
350
34
  3
EdgeColorOff
350
41
  3
Facepattern
350
38
  3
Flat
350
2A
  3
FlatWithEdges
350
2B
  3
Gouraud
350
2C
  3
GouraudWithEdges
350
2D
  3
Hidden
350
31
  3
JitterOff
350
3F
  3
Linepattern
350
37
  3
OverhangOff
350
40
  3
Realistic
350
33
  3
Shaded
350
3E
  3
Shaded with edges
350
3D
  3
Shades of Gray
350
3A
  3
Sketchy
350
3B
  3
Thicken
350
36
  3
Wireframe
350
30
  3
X-Ray
350
3C
  0
XRECORD
  5
48E
102
{ACAD_REACTORS
330
C
102
}
330
C
100
AcDbXrecord
280
     1
 90
        1
330
64
  0
DICTIONARY
  5
468
102
{ACAD_REACTORS
330
C
102
}
330
C
100
AcDbDictionary
281
     1
  3
CANNOSCALE
350
46E
  3
CMLEADERSTYLE
350
46A
  3
CTABLESTYLE
350
469
  3
CVIEWDETAILSTYLE
350
46B
  3
CVIEWSECTIONSTYLE
350
46C
  3
DIMASSOC
350
48A
  3
INDEXCTL
350
489
  3
LAYEREVAL
350
470
  3
LAYERNOTIFY
350
471
  3
LIGHTINGUNITS
350
46F
  3
MSLTSCALE
350
46D
  3
SORTENTS
350
488
  3
XCLIPFRAME
350
48B
  0
DICTIONARY
  5
495
102
{ACAD_REACTORS
330
C
102
}
330
C
100
AcDbDictionary
281
     1
  3
AcDsRecords
350
497
  3
AcDsSchemas
350
496
1001
ACAD
1070
     2
  0
XRECORD
  5
48F
102
{ACAD_REACTORS
330
C
102
}
330
C
100
AcDbXrecord
280
     1
  1
DWGPROPS COOKIE
  2

  3

  4

  6

  7

  8
shima022
  9

300
=
301
=
302
=
303
=
304
=
305
=
306
=
307
=
308
=
309
=
 40
0.0019124652777778
 41
2457892.637339688
 42
2457892.641019155
  1

 90
        0
  0
DICTIONARY
  5
47B
102
{ACAD_REACTORS
330
47A
102
}
330
47A
100
AcDbDictionary
281
     1
  0
XRECORD
  5
449
102
{ACAD_REACTORS
330
448
102
}
330
448
100
AcDbXrecord
280
     1
290
     1
  0
XRECORD
  5
44B
102
{ACAD_REACTORS
330
44A
102
}
330
44A
100
AcDbXrecord
280
     1
290
     1
  0
XRECORD
  5
44D
102
{ACAD_REACTORS
330
44C
102
}
330
44C
100
AcDbXrecord
280
     1
290
     1
  0
XRECORD
  5
44F
102
{ACAD_REACTORS
330
44E
102
}
330
44E
100
AcDbXrecord
280
     1
290
     1
  0
XRECORD
  5
451
102
{ACAD_REACTORS
330
450
102
}
330
450
100
AcDbXrecord
280
     1
290
     1
  0
XRECORD
  5
453
102
{ACAD_REACTORS
330
452
102
}
330
452
100
AcDbXrecord
280
     1
290
     1
  0
XRECORD
  5
455
102
{ACAD_REACTORS
330
454
102
}
330
454
100
AcDbXrecord
280
     1
290
     1
  0
XRECORD
  5
457
102
{ACAD_REACTORS
330
456
102
}
330
456
100
AcDbXrecord
280
     1
290
     1
  0
XRECORD
  5
459
102
{ACAD_REACTORS
330
458
102
}
330
458
100
AcDbXrecord
280
     1
290
     1
  0
XRECORD
  5
45B
102
{ACAD_REACTORS
330
45A
102
}
330
45A
100
AcDbXrecord
280
     1
290
     1
  0
XRECORD
  5
45D
102
{ACAD_REACTORS
330
45C
102
}
330
45C
100
AcDbXrecord
280
     1
290
     1
  0
XRECORD
  5
45F
102
{ACAD_REACTORS
330
45E
102
}
330
45E
100
AcDbXrecord
280
     1
290
     1
  0
XRECORD
  5
461
102
{ACAD_REACTORS
330
460
102
}
330
460
100
AcDbXrecord
280
     1
290
     1
  0
ACDBDETAILVIEWSTYLE
  5
6A
102
{ACAD_XDICTIONARY
360
465
102
}
102
{ACAD_REACTORS
330
69
102
}
330
69
100
AcDbModelDocViewStyle
 70
     0
  3
Imperial24
290
     0
100
AcDbDetailViewStyle
 70
     0
 71
     0
 90
        3
 71
     1
340
55
 40
0.24
340
0
 40
0.24
300

 40
0.36
280
     3
 71
     2
340
5C
 90
       25
 71
     3
340
55
 40
0.24
 90
        1
 40
0.75
 90
        1
300
%<\AcVar ViewType \f "%tc1">% %<\AcVar ViewDetailId>%\PSCALE %<\AcVar ViewScale \f "%sn">%
 71
     4
340
5C
 90
       25
340
5C
 90
       25
280
     0
  0
LAYOUT
  5
72
102
{ACAD_XDICTIONARY
360
4D1
102
}
102
{ACAD_REACTORS
330
61
102
}
330
61
100
AcDbPlotSettings
  1

  2
RICOH MP C3503 JPN RPCS
  4

  6

 40
0.0
 41
0.0
 42
0.0
 43
0.0
 44
0.0
 45
0.0
 46
0.0
 47
0.0
 48
0.0
 49
0.0
140
0.0
141
0.0
142
1.0
143
1.0
 70
  1712
 72
     0
 73
     0
 74
     0
  7

 75
     0
147
1.0
148
0.0
149
0.0
100
AcDbLayout
  1
Model
 70
     1
 71
     0
 10
0.0
 20
0.0
 11
12.0
 21
9.0
 12
0.0
 22
0.0
 32
0.0
 14
0.0
 24
0.0
 34
0.0
 15
0.0
 25
0.0
 35
0.0
146
0.0
 13
0.0
 23
0.0
 33
0.0
 16
1.0
 26
0.0
 36
0.0
 17
0.0
 27
1.0
 37
0.0
 76
     0
330
6F
331
A4
  0
LAYOUT
  5
6E
102
{ACAD_XDICTIONARY
360
4CF
102
}
102
{ACAD_REACTORS
330
61
102
}
330
61
100
AcDbPlotSettings
  1

  2
RICOH MP C3503 JPN RPCS
  4

  6

 40
0.0
 41
0.0
 42
0.0
 43
0.0
 44
0.0
 45
0.0
 46
0.0
 47
0.0
 48
0.0
 49
0.0
140
0.0
141
0.0
142
1.0
143
1.0
 70
   688
 72
     0
 73
     0
 74
     5
  7

 75
    16
147
1.0
148
0.0
149
0.0
100
AcDbLayout
  1
レイアウト1
 70
     1
 71
     1
 10
0.0
 20
0.0
 11
12.0
 21
9.0
 12
0.0
 22
0.0
 32
0.0
 14
1.000000000000000E+20
 24
1.000000000000000E+20
 34
1.000000000000000E+20
 15
-1.000000000000000E+20
 25
-1.000000000000000E+20
 35
-1.000000000000000E+20
146
0.0
 13
0.0
 23
0.0
 33
0.0
 16
1.0
 26
0.0
 36
0.0
 17
0.0
 27
1.0
 37
0.0
 76
     0
330
6B
  0
MATERIAL
  5
19
102
{ACAD_XDICTIONARY
360
1A
102
}
102
{ACAD_REACTORS
330
10
102
}
330
10
100
AcDbMaterial
  1
ByBlock
 72
     0
 43
0.0208333333333333
 43
0.0
 43
0.0
 43
0.0
 43
0.0
 43
0.0208333333333333
 43
0.0
 43
0.0
 43
0.0
 43
0.0
 43
1.0
 43
0.0
 43
0.0
 43
0.0
 43
0.0
 43
1.0
 77
     0
 47
0.0208333333333333
 47
0.0
 47
0.0
 47
0.0
 47
0.0
 47
0.0208333333333333
 47
0.0
 47
0.0
 47
0.0
 47
0.0
 47
1.0
 47
0.0
 47
0.0
 47
0.0
 47
0.0
 47
1.0
171
     0
 49
0.0208333333333333
 49
0.0
 49
0.0
 49
0.0
 49
0.0
 49
0.0208333333333333
 49
0.0
 49
0.0
 49
0.0
 49
0.0
 49
1.0
 49
0.0
 49
0.0
 49
0.0
 49
0.0
 49
1.0
175
     0
142
0.0208333333333333
142
0.0
142
0.0
142
0.0
142
0.0
142
0.0208333333333333
142
0.0
142
0.0
142
0.0
142
0.0
142
1.0
142
0.0
142
0.0
142
0.0
142
0.0
142
1.0
179
     0
144
0.0208333333333333
144
0.0
144
0.0
144
0.0
144
0.0
144
0.0208333333333333
144
0.0
144
0.0
144
0.0
144
0.0
144
1.0
144
0.0
144
0.0
144
0.0
144
0.0
144
1.0
147
0.0208333333333333
147
0.0
147
0.0
147
0.0
147
0.0
147
0.0208333333333333
147
0.0
147
0.0
147
0.0
147
0.0
147
1.0
147
0.0
147
0.0
147
0.0
147
0.0
147
1.0
  0
MATERIAL
  5
11
102
{ACAD_XDICTIONARY
360
12
102
}
102
{ACAD_REACTORS
330
10
102
}
330
10
100
AcDbMaterial
  1
ByLayer
 72
     0
 43
0.0208333333333333
 43
0.0
 43
0.0
 43
0.0
 43
0.0
 43
0.0208333333333333
 43
0.0
 43
0.0
 43
0.0
 43
0.0
 43
1.0
 43
0.0
 43
0.0
 43
0.0
 43
0.0
 43
1.0
 77
     0
 47
0.0208333333333333
 47
0.0
 47
0.0
 47
0.0
 47
0.0
 47
0.0208333333333333
 47
0.0
 47
0.0
 47
0.0
 47
0.0
 47
1.0
 47
0.0
 47
0.0
 47
0.0
 47
0.0
 47
1.0
171
     0
 49
0.0208333333333333
 49
0.0
 49
0.0
 49
0.0
 49
0.0
 49
0.0208333333333333
 49
0.0
 49
0.0
 49
0.0
 49
0.0
 49
1.0
 49
0.0
 49
0.0
 49
0.0
 49
0.0
 49
1.0
175
     0
142
0.0208333333333333
142
0.0
142
0.0
142
0.0
142
0.0
142
0.0208333333333333
142
0.0
142
0.0
142
0.0
142
0.0
142
1.0
142
0.0
142
0.0
142
0.0
142
0.0
142
1.0
179
     0
144
0.0208333333333333
144
0.0
144
0.0
144
0.0
144
0.0
144
0.0208333333333333
144
0.0
144
0.0
144
0.0
144
0.0
144
1.0
144
0.0
144
0.0
144
0.0
144
0.0
144
1.0
147
0.0208333333333333
147
0.0
147
0.0
147
0.0
147
0.0
147
0.0208333333333333
147
0.0
147
0.0
147
0.0
147
0.0
147
1.0
147
0.0
147
0.0
147
0.0
147
0.0
147
1.0
  0
MATERIAL
  5
21
102
{ACAD_XDICTIONARY
360
22
102
}
102
{ACAD_REACTORS
330
10
102
}
330
10
100
AcDbMaterial
  1
Global
 72
     0
 43
0.0208333333333333
 43
0.0
 43
0.0
 43
0.0
 43
0.0
 43
0.0208333333333333
 43
0.0
 43
0.0
 43
0.0
 43
0.0
 43
1.0
 43
0.0
 43
0.0
 43
0.0
 43
0.0
 43
1.0
 77
     0
 47
0.0208333333333333
 47
0.0
 47
0.0
 47
0.0
 47
0.0
 47
0.0208333333333333
 47
0.0
 47
0.0
 47
0.0
 47
0.0
 47
1.0
 47
0.0
 47
0.0
 47
0.0
 47
0.0
 47
1.0
171
     0
 49
0.0208333333333333
 49
0.0
 49
0.0
 49
0.0
 49
0.0
 49
0.0208333333333333
 49
0.0
 49
0.0
 49
0.0
 49
0.0
 49
1.0
 49
0.0
 49
0.0
 49
0.0
 49
0.0
 49
1.0
175
     0
142
0.0208333333333333
142
0.0
142
0.0
142
0.0
142
0.0
142
0.0208333333333333
142
0.0
142
0.0
142
0.0
142
0.0
142
1.0
142
0.0
142
0.0
142
0.0
142
0.0
142
1.0
179
     0
144
0.0208333333333333
144
0.0
144
0.0
144
0.0
144
0.0
144
0.0208333333333333
144
0.0
144
0.0
144
0.0
144
0.0
144
1.0
144
0.0
144
0.0
144
0.0
144
0.0
144
1.0
147
0.0208333333333333
147
0.0
147
0.0
147
0.0
147
0.0
147
0.0208333333333333
147
0.0
147
0.0
147
0.0
147
0.0
147
1.0
147
0.0
147
0.0
147
0.0
147
0.0
147
1.0
  0
MLEADERSTYLE
  5
66
102
{ACAD_REACTORS
330
65
102
}
330
65
100
AcDbMLeaderStyle
170
     2
171
     1
172
     0
 90
        2
 40
0.0
 41
0.0
173
     1
 91
-1056964608
340
5A
 92
       -2
290
     1
 42
0.09
291
     1
 43
0.36
  3
Standard
 44
0.18
300

342
55
174
     1
178
     6
175
     1
176
     0
 93
-1056964608
 45
0.18
292
     0
297
     0
 46
0.18
 94
-1056964608
 47
1.0
 49
1.0
140
1.0
293
     1
141
0.0
294
     1
177
     0
142
1.0
295
     0
296
     0
143
0.125
1001
ACAD_MLEADERVER
1070
     2
  0
MLINESTYLE
  5
5F
102
{ACAD_REACTORS
330
5E
102
}
330
5E
100
AcDbMlineStyle
  2
STANDARD
 70
     0
  3

 62
   256
 51
90.0
 52
90.0
 71
     2
 49
0.5
 62
   256
  6
BYLAYER
 49
-0.5
 62
   256
  6
BYLAYER
  0
ACDBPLACEHOLDER
  5
F
102
{ACAD_REACTORS
330
E
102
}
330
E
  0
SCALE
  5
43
102
{ACAD_REACTORS
330
42
102
}
330
42
100
AcDbScale
 70
     0
300
1:1
140
1.0
141
1.0
290
     1
  0
SCALE
  5
44
102
{ACAD_REACTORS
330
42
102
}
330
42
100
AcDbScale
 70
     0
300
1/128" = 1'-0"
140
0.0078125
141
12.0
290
     0
  0
SCALE
  5
45
102
{ACAD_REACTORS
330
42
102
}
330
42
100
AcDbScale
 70
     0
300
1/64" = 1'-0"
140
0.015625
141
12.0
290
     0
  0
SCALE
  5
46
102
{ACAD_REACTORS
330
42
102
}
330
42
100
AcDbScale
 70
     0
300
1/32" = 1'-0"
140
0.03125
141
12.0
290
     0
  0
SCALE
  5
47
102
{ACAD_REACTORS
330
42
102
}
330
42
100
AcDbScale
 70
     0
300
1/16" = 1'-0"
140
0.0625
141
12.0
290
     0
  0
SCALE
  5
48
102
{ACAD_REACTORS
330
42
102
}
330
42
100
AcDbScale
 70
     0
300
3/32" = 1'-0"
140
0.09375
141
12.0
290
     0
  0
SCALE
  5
49
102
{ACAD_REACTORS
330
42
102
}
330
42
100
AcDbScale
 70
     0
300
1/8" = 1'-0"
140
0.125
141
12.0
290
     0
  0
SCALE
  5
4A
102
{ACAD_REACTORS
330
42
102
}
330
42
100
AcDbScale
 70
     0
300
3/16" = 1'-0"
140
0.1875
141
12.0
290
     0
  0
SCALE
  5
4B
102
{ACAD_REACTORS
330
42
102
}
330
42
100
AcDbScale
 70
     0
300
1/4" = 1'-0"
140
0.25
141
12.0
290
     0
  0
SCALE
  5
4C
102
{ACAD_REACTORS
330
42
102
}
330
42
100
AcDbScale
 70
     0
300
3/8" = 1'-0"
140
0.375
141
12.0
290
     0
  0
SCALE
  5
4D
102
{ACAD_REACTORS
330
42
102
}
330
42
100
AcDbScale
 70
     0
300
1/2" = 1'-0"
140
0.5
141
12.0
290
     0
  0
SCALE
  5
4E
102
{ACAD_REACTORS
330
42
102
}
330
42
100
AcDbScale
 70
     0
300
3/4" = 1'-0"
140
0.75
141
12.0
290
     0
  0
SCALE
  5
4F
102
{ACAD_REACTORS
330
42
102
}
330
42
100
AcDbScale
 70
     0
300
1" = 1'-0"
140
1.0
141
12.0
290
     0
  0
SCALE
  5
50
102
{ACAD_REACTORS
330
42
102
}
330
42
100
AcDbScale
 70
     0
300
1-1/2" = 1'-0"
140
1.5
141
12.0
290
     0
  0
SCALE
  5
51
102
{ACAD_REACTORS
330
42
102
}
330
42
100
AcDbScale
 70
     0
300
3" = 1'-0"
140
3.0
141
12.0
290
     0
  0
SCALE
  5
52
102
{ACAD_REACTORS
330
42
102
}
330
42
100
AcDbScale
 70
     0
300
6" = 1'-0"
140
6.0
141
12.0
290
     0
  0
SCALE
  5
53
102
{ACAD_REACTORS
330
42
102
}
330
42
100
AcDbScale
 70
     0
300
1'-0" = 1'-0"
140
12.0
141
12.0
290
     0
  0
ACDBSECTIONVIEWSTYLE
  5
68
102
{ACAD_XDICTIONARY
360
463
102
}
102
{ACAD_REACTORS
330
67
102
}
330
67
100
AcDbModelDocViewStyle
 70
     0
  3
Imperial24
290
     0
100
AcDbSectionViewStyle
 70
     0
 71
     0
 90
       78
 71
     1
340
55
 40
0.24
340
0
340
0
 40
0.24
300
I, O, Q, S, X, Z
 40
0.48
 90
        3
 40
0.18
 90
        1
 71
     2
340
5C
 90
       25
340
5C
 90
       50
 40
0.24
 40
0.0
 40
0.24
 71
     3
340
55
 40
0.24
 90
        1
 40
0.75
 90
        1
300
%<\AcVar ViewType \f "%tc1">% %<\AcVar ViewSectionStartId>%-%<\AcVar ViewSectionEndId>%\PSCALE %<\AcVar ViewScale \f "%sn">%
 71
     4
300
ANSI31
 40
1.0
 90
        0
290
     0
290
     0
 90
        6
 40
0.0
 40
1.570796326794896
 40
0.2617993877991494
 40
1.308996938995747
 40
-0.2617993877991494
 40
1.832595714594046
  0
TABLESTYLE
  5
64
102
{ACAD_XDICTIONARY
360
48C
102
}
102
{ACAD_REACTORS
330
63
102
}
330
63
100
AcDbTableStyle
  3
Standard
 70
     0
 71
     0
 40
0.06
 41
0.06
280
     0
281
     0
  7
STANDARD
140
0.18
170
     2
 62
     0
 63
     7
283
     0
274
    -2
284
     1
 64
     0
275
    -2
285
     1
 65
     0
276
    -2
286
     1
 66
     0
277
    -2
287
     1
 67
     0
278
    -2
288
     1
 68
     0
279
    -2
289
     1
 69
     0
  7
STANDARD
140
0.25
170
     5
 62
     0
 63
     7
283
     0
274
    -2
284
     1
 64
     0
275
    -2
285
     1
 65
     0
276
    -2
286
     1
 66
     0
277
    -2
287
     1
 67
     0
278
    -2
288
     1
 68
     0
279
    -2
289
     1
 69
     0
  7
STANDARD
140
0.18
170
     5
 62
     0
 63
     7
283
     0
274
    -2
284
     1
 64
     0
275
    -2
285
     1
 65
     0
276
    -2
286
     1
 66
     0
277
    -2
287
     1
 67
     0
278
    -2
288
     1
 68
     0
279
    -2
289
     1
 69
     0
  0
VISUALSTYLE
  5
2F
102
{ACAD_XDICTIONARY
360
4A5
102
}
102
{ACAD_REACTORS
330
29
102
}
330
29
100
AcDbVisualStyle
  2
2dWireframe
 70
     4
 71
     0
 72
     2
 73
     0
 90
        0
 40
-0.6
 41
-30.0
 62
     5
 63
     7
 74
     1
 91
        4
 64
     7
 65
   257
 75
     1
175
     1
 42
1.0
 92
        0
 66
   257
 43
1.0
 76
     1
 77
     6
 78
     2
 67
     7
 79
     5
170
     0
171
     0
290
     0
174
     0
 93
        1
 44
0.0
173
     0
291
     0
 45
0.0
1001
ACAD
1000
AcDbSavedByObjectVersion
1070
     0
  0
VISUALSTYLE
  5
2E
102
{ACAD_XDICTIONARY
360
4A3
102
}
102
{ACAD_REACTORS
330
29
102
}
330
29
100
AcDbVisualStyle
  2
Basic
 70
     7
 71
     1
 72
     0
 73
     1
 90
        0
 40
-0.6
 41
-30.0
 62
     5
 63
     7
 74
     0
 91
        4
 64
     7
 65
   257
 75
     1
175
     1
 42
1.0
 92
        8
 66
     7
 43
1.0
 76
     1
 77
     6
 78
     2
 67
     7
 79
     5
170
     0
171
     0
290
     0
174
     0
 93
        1
 44
0.0
173
     0
291
     1
 45
0.0
1001
ACAD
1000
AcDbSavedByObjectVersion
1070
     0
  0
VISUALSTYLE
  5
35
102
{ACAD_XDICTIONARY
360
4B1
102
}
102
{ACAD_REACTORS
330
29
102
}
330
29
100
AcDbVisualStyle
  2
Brighten
 70
    12
 71
     2
 72
     2
 73
     0
 90
        0
 40
-0.6
 41
-30.0
 62
     5
 63
     7
 74
     1
 91
        4
 64
     7
 65
   257
 75
     1
175
     1
 42
1.0
 92
        8
 66
     7
 43
1.0
 76
     1
 77
     6
 78
     2
 67
     7
 79
     5
170
     0
171
     0
290
     0
174
     0
 93
        1
 44
50.0
173
     0
291
     1
 45
0.0
1001
ACAD
1000
AcDbSavedByObjectVersion
1070
     0
  0
VISUALSTYLE
  5
39
102
{ACAD_XDICTIONARY
360
4B9
102
}
102
{ACAD_REACTORS
330
29
102
}
330
29
100
AcDbVisualStyle
  2
ColorChange
 70
    16
 71
     2
 72
     2
 73
     3
 90
        0
 40
-0.6
 41
-30.0
 62
     5
 63
     8
 74
     1
 91
        4
 64
     7
 65
   257
 75
     1
175
     1
 42
1.0
 92
        8
 66
     8
 43
1.0
 76
     1
 77
     6
 78
     2
 67
     7
 79
     5
170
     0
171
     0
290
     0
174
     0
 93
        1
 44
0.0
173
     0
291
     1
 45
0.0
1001
ACAD
1000
AcDbSavedByObjectVersion
1070
     0
  0
VISUALSTYLE
  5
32
102
{ACAD_XDICTIONARY
360
4AB
102
}
102
{ACAD_REACTORS
330
29
102
}
330
29
100
AcDbVisualStyle
  2
Conceptual
 70
     9
 71
     3
 72
     2
 73
     0
 90
        0
 40
-0.6
 41
-30.0
 62
     5
 63
     7
 74
     2
 91
        2
 64
     7
 65
   257
 75
     1
175
     1
 42
179.0
 92
        8
 66
     7
 43
1.0
 76
     1
 77
     6
 78
     2
 67
     7
 79
     3
170
     0
171
     0
290
     0
174
     0
 93
        1
 44
0.0
173
     0
291
     0
 45
0.0
1001
ACAD
1000
AcDbSavedByObjectVersion
1070
     0
  0
VISUALSTYLE
  5
34
102
{ACAD_XDICTIONARY
360
4AF
102
}
102
{ACAD_REACTORS
330
29
102
}
330
29
100
AcDbVisualStyle
  2
Dim
 70
    11
 71
     2
 72
     2
 73
     0
 90
        0
 40
-0.6
 41
-30.0
 62
     5
 63
     7
 74
     1
 91
        4
 64
     7
 65
   257
 75
     1
175
     1
 42
1.0
 92
        8
 66
     7
 43
1.0
 76
     1
 77
     6
 78
     2
 67
     7
 79
     5
170
     0
171
     0
290
     0
174
     0
 93
        1
 44
-50.0
173
     0
291
     1
 45
0.0
1001
ACAD
1000
AcDbSavedByObjectVersion
1070
     0
  0
VISUALSTYLE
  5
41
102
{ACAD_XDICTIONARY
360
4C9
102
}
102
{ACAD_REACTORS
330
29
102
}
330
29
100
AcDbVisualStyle
  2
EdgeColorOff
 70
    22
 71
     2
 72
     2
 73
     0
 90
        0
 40
-0.6
 41
-30.0
 62
     5
 63
     7
 74
     1
 91
        4
 64
     7
 65
   257
 75
     1
175
     1
 42
1.0
 92
        8
 66
     7
 43
1.0
 76
     1
 77
     6
 78
     2
 67
     7
 79
     5
170
     0
171
     0
290
     0
174
     0
 93
        1
 44
0.0
173
     0
291
     1
 45
0.0
1001
ACAD
1000
AcDbSavedByObjectVersion
1070
     0
  0
VISUALSTYLE
  5
38
102
{ACAD_XDICTIONARY
360
4B7
102
}
102
{ACAD_REACTORS
330
29
102
}
330
29
100
AcDbVisualStyle
  2
Facepattern
 70
    15
 71
     2
 72
     2
 73
     0
 90
        0
 40
-0.6
 41
-30.0
 62
     5
 63
     7
 74
     1
 91
        4
 64
     7
 65
   257
 75
     1
175
     1
 42
1.0
 92
        8
 66
     7
 43
1.0
 76
     1
 77
     6
 78
     2
 67
     7
 79
     5
170
     0
171
     0
290
     0
174
     0
 93
        1
 44
0.0
173
     0
291
     1
 45
0.0
1001
ACAD
1000
AcDbSavedByObjectVersion
1070
     0
  0
VISUALSTYLE
  5
2A
102
{ACAD_XDICTIONARY
360
49B
102
}
102
{ACAD_REACTORS
330
29
102
}
330
29
100
AcDbVisualStyle
  2
Flat
 70
     0
 71
     2
 72
     1
 73
     1
 90
        2
 40
-0.6
 41
30.0
 62
     5
 63
     7
 74
     0
 91
        0
 64
     7
 65
   257
 75
     1
175
     1
 42
1.0
 92
        8
 66
     7
 43
1.0
 76
     1
 77
     6
 78
     2
 67
     7
 79
     5
170
     0
171
     0
290
     0
174
     0
 93
       13
 44
0.0
173
     0
291
     1
 45
0.0
1001
ACAD
1000
AcDbSavedByObjectVersion
1070
     0
  0
VISUALSTYLE
  5
2B
102
{ACAD_XDICTIONARY
360
49D
102
}
102
{ACAD_REACTORS
330
29
102
}
330
29
100
AcDbVisualStyle
  2
FlatWithEdges
 70
     1
 71
     2
 72
     1
 73
     1
 90
        2
 40
-0.6
 41
30.0
 62
     5
 63
     7
 74
     1
 91
        0
 64
     7
 65
   257
 75
     1
175
     1
 42
1.0
 92
        0
 66
   257
 43
1.0
 76
     1
 77
     6
 78
     2
 67
     7
 79
     5
170
     0
171
     0
290
     0
174
     0
 93
       13
 44
0.0
173
     0
291
     1
 45
0.0
1001
ACAD
1000
AcDbSavedByObjectVersion
1070
     0
  0
VISUALSTYLE
  5
2C
102
{ACAD_XDICTIONARY
360
49F
102
}
102
{ACAD_REACTORS
330
29
102
}
330
29
100
AcDbVisualStyle
  2
Gouraud
 70
     2
 71
     2
 72
     2
 73
     1
 90
        2
 40
-0.6
 41
30.0
 62
     5
 63
     7
 74
     0
 91
        0
 64
     7
 65
   257
 75
     1
175
     1
 42
1.0
 92
        0
 66
     7
 43
1.0
 76
     1
 77
     6
 78
     2
 67
     7
 79
     5
170
     0
171
     0
290
     0
174
     0
 93
       13
 44
0.0
173
     0
291
     1
 45
0.0
1001
ACAD
1000
AcDbSavedByObjectVersion
1070
     0
  0
VISUALSTYLE
  5
2D
102
{ACAD_XDICTIONARY
360
4A1
102
}
102
{ACAD_REACTORS
330
29
102
}
330
29
100
AcDbVisualStyle
  2
GouraudWithEdges
 70
     3
 71
     2
 72
     2
 73
     1
 90
        2
 40
-0.6
 41
30.0
 62
     5
 63
     7
 74
     1
 91
        0
 64
     7
 65
   257
 75
     1
175
     1
 42
1.0
 92
        0
 66
   257
 43
1.0
 76
     1
 77
     6
 78
     2
 67
     7
 79
     5
170
     0
171
     0
290
     0
174
     0
 93
       13
 44
0.0
173
     0
291
     1
 45
0.0
1001
ACAD
1000
AcDbSavedByObjectVersion
1070
     0
  0
VISUALSTYLE
  5
31
102
{ACAD_XDICTIONARY
360
4A9
102
}
102
{ACAD_REACTORS
330
29
102
}
330
29
100
AcDbVisualStyle
  2
Hidden
 70
     6
 71
     1
 72
     2
 73
     2
 90
        0
 40
-0.6
 41
-30.0
 62
     5
 63
     7
 74
     2
 91
        2
 64
     7
 65
   257
 75
     2
175
     1
 42
40.0
 92
        0
 66
   257
 43
1.0
 76
     1
 77
     6
 78
     2
 67
     7
 79
     3
170
     0
171
     0
290
     0
174
     0
 93
        1
 44
0.0
173
     0
291
     0
 45
0.0
1001
ACAD
1000
AcDbSavedByObjectVersion
1070
     0
  0
VISUALSTYLE
  5
3F
102
{ACAD_XDICTIONARY
360
4C5
102
}
102
{ACAD_REACTORS
330
29
102
}
330
29
100
AcDbVisualStyle
  2
JitterOff
 70
    20
 71
     2
 72
     2
 73
     0
 90
        0
 40
-0.6
 41
-30.0
 62
     5
 63
     7
 74
     1
 91
        4
 64
     7
 65
   257
 75
     1
175
     1
 42
1.0
 92
       10
 66
     7
 43
1.0
 76
     1
 77
     6
 78
     2
 67
     7
 79
     5
170
     0
171
     0
290
     0
174
     0
 93
        1
 44
0.0
173
     0
291
     1
 45
0.0
1001
ACAD
1000
AcDbSavedByObjectVersion
1070
     0
  0
VISUALSTYLE
  5
37
102
{ACAD_XDICTIONARY
360
4B5
102
}
102
{ACAD_REACTORS
330
29
102
}
330
29
100
AcDbVisualStyle
  2
Linepattern
 70
    14
 71
     2
 72
     2
 73
     0
 90
        0
 40
-0.6
 41
-30.0
 62
     5
 63
     7
 74
     1
 91
        4
 64
     7
 65
   257
 75
     7
175
     7
 42
1.0
 92
        8
 66
     7
 43
1.0
 76
     1
 77
     6
 78
     2
 67
     7
 79
     5
170
     0
171
     0
290
     0
174
     0
 93
        1
 44
0.0
173
     0
291
     1
 45
0.0
1001
ACAD
1000
AcDbSavedByObjectVersion
1070
     0
  0
VISUALSTYLE
  5
40
102
{ACAD_XDICTIONARY
360
4C7
102
}
102
{ACAD_REACTORS
330
29
102
}
330
29
100
AcDbVisualStyle
  2
OverhangOff
 70
    21
 71
     2
 72
     2
 73
     0
 90
        0
 40
-0.6
 41
-30.0
 62
     5
 63
     7
 74
     1
 91
        4
 64
     7
 65
   257
 75
     1
175
     1
 42
1.0
 92
        9
 66
     7
 43
1.0
 76
     1
 77
     6
 78
     2
 67
     7
 79
     5
170
     0
171
     0
290
     0
174
     0
 93
        1
 44
0.0
173
     0
291
     1
 45
0.0
1001
ACAD
1000
AcDbSavedByObjectVersion
1070
     0
  0
VISUALSTYLE
  5
33
102
{ACAD_XDICTIONARY
360
4AD
102
}
102
{ACAD_REACTORS
330
29
102
}
330
29
100
AcDbVisualStyle
  2
Realistic
 70
     8
 71
     2
 72
     3
 73
     0
 90
        2
 40
-0.6
 41
30.0
 62
     5
 63
     7
 74
     0
 91
        0
 64
     7
 65
   257
 75
     1
175
     1
 42
1.0
 92
        8
 66
   257
 43
1.0
 76
     1
 77
     6
 78
     2
 67
     7
 79
     3
170
     0
171
     0
290
     0
174
     0
 93
       13
 44
0.0
173
     0
291
     0
 45
0.0
1001
ACAD
1000
AcDbSavedByObjectVersion
1070
     0
  0
VISUALSTYLE
  5
3E
102
{ACAD_XDICTIONARY
360
4C3
102
}
102
{ACAD_REACTORS
330
29
102
}
330
29
100
AcDbVisualStyle
  2
Shaded
 70
    27
 71
     2
 72
     2
 73
     1
 90
        2
 40
-0.6
 41
30.0
 62
     5
 63
     7
 74
     0
 91
        4
 64
     7
 65
   257
 75
     1
175
     1
 42
1.0
 92
        8
 66
   257
 43
1.0
 76
     1
 77
     6
 78
     2
 67
     8
 79
     3
170
     0
171
     0
290
     0
174
     0
 93
        5
 44
0.0
173
     0
291
     0
 45
0.0
1001
ACAD
1000
AcDbSavedByObjectVersion
1070
     0
  0
VISUALSTYLE
  5
3D
102
{ACAD_XDICTIONARY
360
4C1
102
}
102
{ACAD_REACTORS
330
29
102
}
330
29
100
AcDbVisualStyle
  2
Shaded with edges
 70
    26
 71
     2
 72
     2
 73
     1
 90
        2
 40
-0.6
 41
30.0
 62
     5
 63
     7
 74
     1
 91
       10
 64
     7
 65
   257
 75
     2
175
     1
 42
1.0
 92
        8
 66
   257
 43
1.0
 76
     1
 77
     6
 78
     2
 67
     7
 79
     3
170
     0
171
     0
290
     0
174
     0
 93
        5
 44
0.0
173
     0
291
     0
 45
0.0
1001
ACAD
1000
AcDbSavedByObjectVersion
1070
     0
  0
VISUALSTYLE
  5
3A
102
{ACAD_XDICTIONARY
360
4BB
102
}
102
{ACAD_REACTORS
330
29
102
}
330
29
100
AcDbVisualStyle
  2
Shades of Gray
 70
    23
 71
     2
 72
     2
 73
     3
 90
        0
 40
-0.6
 41
-30.0
 62
     5
 63
     7
 74
     2
 91
        2
 64
     7
 65
     7
 75
     1
175
     1
 42
40.0
 92
        8
 66
     7
 43
1.0
 76
     1
 77
     6
 78
     2
 67
     7
 79
     3
170
     0
171
     0
290
     0
174
     0
 93
        1
 44
0.0
173
     0
291
     0
 45
0.0
1001
ACAD
1000
AcDbSavedByObjectVersion
1070
     0
  0
VISUALSTYLE
  5
3B
102
{ACAD_XDICTIONARY
360
4BD
102
}
102
{ACAD_REACTORS
330
29
102
}
330
29
100
AcDbVisualStyle
  2
Sketchy
 70
    24
 71
     1
 72
     2
 73
     2
 90
        0
 40
-0.6
 41
-30.0
 62
     5
 63
     7
 74
     2
 91
        2
 64
     7
 65
     7
 75
     1
175
     1
 42
40.0
 92
       11
 66
     7
 43
1.0
 76
     1
 77
     6
 78
     2
 67
     7
 79
     6
170
     0
171
     0
290
     0
174
     0
 93
        1
 44
0.0
173
     0
291
     0
 45
0.0
1001
ACAD
1000
AcDbSavedByObjectVersion
1070
     0
  0
VISUALSTYLE
  5
36
102
{ACAD_XDICTIONARY
360
4B3
102
}
102
{ACAD_REACTORS
330
29
102
}
330
29
100
AcDbVisualStyle
  2
Thicken
 70
    13
 71
     2
 72
     2
 73
     0
 90
        0
 40
-0.6
 41
-30.0
 62
     5
 63
     7
 74
     1
 91
        4
 64
     7
 65
   257
 75
     1
175
     1
 42
1.0
 92
       12
 66
     7
 43
1.0
 76
     1
 77
     6
 78
     2
 67
     7
 79
     5
170
     0
171
     0
290
     0
174
     0
 93
        1
 44
0.0
173
     0
291
     1
 45
0.0
1001
ACAD
1000
AcDbSavedByObjectVersion
1070
     0
  0
VISUALSTYLE
  5
30
102
{ACAD_XDICTIONARY
360
4A7
102
}
102
{ACAD_REACTORS
330
29
102
}
330
29
100
AcDbVisualStyle
  2
Wireframe
 70
     5
 71
     0
 72
     2
 73
     0
 90
        0
 40
-0.6
 41
-30.0
 62
     5
 63
     7
 74
     1
 91
        4
 64
     7
 65
   257
 75
     1
175
     1
 42
1.0
 92
        0
 66
   257
 43
1.0
 76
     1
 77
     6
 78
     2
 67
     7
 79
     3
170
     0
171
     0
290
     0
174
     0
 93
        1
 44
0.0
173
     0
291
     0
 45
0.0
1001
ACAD
1000
AcDbSavedByObjectVersion
1070
     0
  0
VISUALSTYLE
  5
3C
102
{ACAD_XDICTIONARY
360
4BF
102
}
102
{ACAD_REACTORS
330
29
102
}
330
29
100
AcDbVisualStyle
  2
X-Ray
 70
    25
 71
     2
 72
     2
 73
     1
 90
        1
 40
0.5
 41
-30.0
 62
     5
 63
     7
 74
     1
 91
        0
 64
     7
 65
   257
 75
     1
175
     1
 42
1.0
 92
        8
 66
     7
 43
1.0
 76
     1
 77
     6
 78
     2
 67
     7
 79
     3
170
     0
171
     0
290
     0
174
     0
 93
       13
 44
0.0
173
     0
291
     0
 45
0.0
1001
ACAD
1000
AcDbSavedByObjectVersion
1070
     0
  0
DICTIONARYVAR
  5
46E
102
{ACAD_REACTORS
330
468
102
}
330
468
100
DictionaryVariables
280
     0
  1
1:1
  0
DICTIONARYVAR
  5
46A
102
{ACAD_REACTORS
330
468
102
}
330
468
100
DictionaryVariables
280
     0
  1
STANDARD
  0
DICTIONARYVAR
  5
469
102
{ACAD_REACTORS
330
468
102
}
330
468
100
DictionaryVariables
280
     0
  1
STANDARD
  0
DICTIONARYVAR
  5
46B
102
{ACAD_REACTORS
330
468
102
}
330
468
100
DictionaryVariables
280
     0
  1
Imperial24
  0
DICTIONARYVAR
  5
46C
102
{ACAD_REACTORS
330
468
102
}
330
468
100
DictionaryVariables
280
     0
  1
Imperial24
  0
DICTIONARYVAR
  5
48A
102
{ACAD_REACTORS
330
468
102
}
330
468
100
DictionaryVariables
280
     0
  1
1
  0
DICTIONARYVAR
  5
489
102
{ACAD_REACTORS
330
468
102
}
330
468
100
DictionaryVariables
280
     0
  1
0
  0
DICTIONARYVAR
  5
470
102
{ACAD_REACTORS
330
468
102
}
330
468
100
DictionaryVariables
280
     0
  1
1
  0
DICTIONARYVAR
  5
471
102
{ACAD_REACTORS
330
468
102
}
330
468
100
DictionaryVariables
280
     0
  1
15
  0
DICTIONARYVAR
  5
46F
102
{ACAD_REACTORS
330
468
102
}
330
468
100
DictionaryVariables
280
     0
  1
0
  0
DICTIONARYVAR
  5
46D
102
{ACAD_REACTORS
330
468
102
}
330
468
100
DictionaryVariables
280
     0
  1
0
  0
DICTIONARYVAR
  5
488
102
{ACAD_REACTORS
330
468
102
}
330
468
100
DictionaryVariables
280
     0
  1
127
  0
DICTIONARYVAR
  5
48B
102
{ACAD_REACTORS
330
468
102
}
330
468
100
DictionaryVariables
280
     0
  1
2
  0
DICTIONARY
  5
497
102
{ACAD_REACTORS
330
495
102
}
330
495
100
AcDbDictionary
281
     1
  0
DICTIONARY
  5
496
102
{ACAD_REACTORS
330
495
102
}
330
495
100
AcDbDictionary
281
     1
  3
140698482496896
350
490
  3
140698482496912
350
491
  3
140698482496928
350
492
  3
140698482496944
350
493
  3
140698482496960
350
494
  0
DICTIONARY
  5
465
330
6A
100
AcDbDictionary
280
     1
281
     1
  3
ACAD_XREC_ROUNDTRIP
360
4CE
  0
DICTIONARY
  5
4D1
330
72
100
AcDbDictionary
280
     1
281
     1
  3
ACAD_XREC_ROUNDTRIP
360
4D2
  0
DICTIONARY
  5
4CF
330
6E
100
AcDbDictionary
280
     1
281
     1
  3
ACAD_XREC_ROUNDTRIP
360
4D0
  0
DICTIONARY
  5
1A
330
19
100
AcDbDictionary
280
     1
281
     1
  3
ACAD_XREC_ROUNDTRIP
360
499
  3
BUMPTILE
360
1C
  3
DIFFUSETILE
360
1B
  3
OPACITYTILE
360
1F
  3
REFLECTIONTILE
360
1E
  3
REFRACTIONTILE
360
20
  3
SPECULARTILE
360
1D
  0
DICTIONARY
  5
12
330
11
100
AcDbDictionary
280
     1
281
     1
  3
ACAD_XREC_ROUNDTRIP
360
498
  3
BUMPTILE
360
14
  3
DIFFUSETILE
360
13
  3
OPACITYTILE
360
17
  3
REFLECTIONTILE
360
16
  3
REFRACTIONTILE
360
18
  3
SPECULARTILE
360
15
  0
DICTIONARY
  5
22
330
21
100
AcDbDictionary
280
     1
281
     1
  3
ACAD_XREC_ROUNDTRIP
360
49A
  3
BUMPTILE
360
24
  3
DIFFUSETILE
360
23
  3
OPACITYTILE
360
27
  3
REFLECTIONTILE
360
26
  3
REFRACTIONTILE
360
28
  3
SPECULARTILE
360
25
  0
DICTIONARY
  5
463
330
68
100
AcDbDictionary
280
     1
281
     1
  3
ACAD_XREC_ROUNDTRIP
360
4CD
  0
DICTIONARY
  5
48C
330
64
100
AcDbDictionary
280
     1
281
     1
  3
ACAD_ROUNDTRIP_2008_TABLESTYLE_CELLSTYLEMAP
360
48D
  3
ACAD_XREC_ROUNDTRIP
360
4CB
  0
DICTIONARY
  5
4A5
330
2F
100
AcDbDictionary
280
     1
281
     1
  3
ACAD_XREC_ROUNDTRIP
360
4A6
  0
DICTIONARY
  5
4A3
330
2E
100
AcDbDictionary
280
     1
281
     1
  3
ACAD_XREC_ROUNDTRIP
360
4A4
  0
DICTIONARY
  5
4B1
330
35
100
AcDbDictionary
280
     1
281
     1
  3
ACAD_XREC_ROUNDTRIP
360
4B2
  0
DICTIONARY
  5
4B9
330
39
100
AcDbDictionary
280
     1
281
     1
  3
ACAD_XREC_ROUNDTRIP
360
4BA
  0
DICTIONARY
  5
4AB
330
32
100
AcDbDictionary
280
     1
281
     1
  3
ACAD_XREC_ROUNDTRIP
360
4AC
  0
DICTIONARY
  5
4AF
330
34
100
AcDbDictionary
280
     1
281
     1
  3
ACAD_XREC_ROUNDTRIP
360
4B0
  0
DICTIONARY
  5
4C9
330
41
100
AcDbDictionary
280
     1
281
     1
  3
ACAD_XREC_ROUNDTRIP
360
4CA
  0
DICTIONARY
  5
4B7
330
38
100
AcDbDictionary
280
     1
281
     1
  3
ACAD_XREC_ROUNDTRIP
360
4B8
  0
DICTIONARY
  5
49B
330
2A
100
AcDbDictionary
280
     1
281
     1
  3
ACAD_XREC_ROUNDTRIP
360
49C
  0
DICTIONARY
  5
49D
330
2B
100
AcDbDictionary
280
     1
281
     1
  3
ACAD_XREC_ROUNDTRIP
360
49E
  0
DICTIONARY
  5
49F
330
2C
100
AcDbDictionary
280
     1
281
     1
  3
ACAD_XREC_ROUNDTRIP
360
4A0
  0
DICTIONARY
  5
4A1
330
2D
100
AcDbDictionary
280
     1
281
     1
  3
ACAD_XREC_ROUNDTRIP
360
4A2
  0
DICTIONARY
  5
4A9
330
31
100
AcDbDictionary
280
     1
281
     1
  3
ACAD_XREC_ROUNDTRIP
360
4AA
  0
DICTIONARY
  5
4C5
330
3F
100
AcDbDictionary
280
     1
281
     1
  3
ACAD_XREC_ROUNDTRIP
360
4C6
  0
DICTIONARY
  5
4B5
330
37
100
AcDbDictionary
280
     1
281
     1
  3
ACAD_XREC_ROUNDTRIP
360
4B6
  0
DICTIONARY
  5
4C7
330
40
100
AcDbDictionary
280
     1
281
     1
  3
ACAD_XREC_ROUNDTRIP
360
4C8
  0
DICTIONARY
  5
4AD
330
33
100
AcDbDictionary
280
     1
281
     1
  3
ACAD_XREC_ROUNDTRIP
360
4AE
  0
DICTIONARY
  5
4C3
330
3E
100
AcDbDictionary
280
     1
281
     1
  3
ACAD_XREC_ROUNDTRIP
360
4C4
  0
DICTIONARY
  5
4C1
330
3D
100
AcDbDictionary
280
     1
281
     1
  3
ACAD_XREC_ROUNDTRIP
360
4C2
  0
DICTIONARY
  5
4BB
330
3A
100
AcDbDictionary
280
     1
281
     1
  3
ACAD_XREC_ROUNDTRIP
360
4BC
  0
DICTIONARY
  5
4BD
330
3B
100
AcDbDictionary
280
     1
281
     1
  3
ACAD_XREC_ROUNDTRIP
360
4BE
  0
DICTIONARY
  5
4B3
330
36
100
AcDbDictionary
280
     1
281
     1
  3
ACAD_XREC_ROUNDTRIP
360
4B4
  0
DICTIONARY
  5
4A7
330
30
100
AcDbDictionary
280
     1
281
     1
  3
ACAD_XREC_ROUNDTRIP
360
4A8
  0
DICTIONARY
  5
4BF
330
3C
100
AcDbDictionary
280
     1
281
     1
  3
ACAD_XREC_ROUNDTRIP
360
4C0
  0
XRECORD
  5
490
102
{ACAD_REACTORS
330
496
102
}
330
496
100
AcDbXrecord
280
     1
  1
AcDb_Thumbnail_Schema
102
{ATTRRECORD
341
491
  2
AcDbDs::TreatedAsObjectData
280
     1
291
     1
102
ATTRRECORD}
102
{ATTRRECORD
341
492
  2
AcDbDs::Legacy
280
     1
291
     1
102
ATTRRECORD}
  2
AcDbDs::ID
280
    10
 91
        8
102
{ATTRRECORD
341
493
  2
AcDs:Indexable
280
     1
291
     1
102
ATTRRECORD}
102
{ATTRRECORD
341
494
  2
AcDbDs::HandleAttribute
280
     7
282
     1
102
ATTRRECORD}
  2
Thumbnail_Data
280
    15
 91
        0
  0
XRECORD
  5
491
102
{ACAD_REACTORS
330
496
102
}
330
496
100
AcDbXrecord
280
     1
  1
AcDbDs::TreatedAsObjectDataSchema
  2
AcDbDs::TreatedAsObjectData
280
     1
 91
        0
  0
XRECORD
  5
492
102
{ACAD_REACTORS
330
496
102
}
330
496
100
AcDbXrecord
280
     1
  1
AcDbDs::LegacySchema
  2
AcDbDs::Legacy
280
     1
 91
        0
  0
XRECORD
  5
493
102
{ACAD_REACTORS
330
496
102
}
330
496
100
AcDbXrecord
280
     1
  1
AcDbDs::IndexedPropertySchema
  2
AcDs:Indexable
280
     1
 91
        0
  0
XRECORD
  5
494
102
{ACAD_REACTORS
330
496
102
}
330
496
100
AcDbXrecord
280
     1
  1
AcDbDs::HandleAttributeSchema
  2
AcDbDs::HandleAttribute
280
     7
 91
        1
284
     1
  0
XRECORD
  5
4CE
102
{ACAD_REACTORS
330
465
102
}
330
465
100
AcDbXrecord
280
     1
102
DISPLAYNAME
  1
Imperial24
102
FLAGS
 90
        0
  0
XRECORD
  5
4D2
102
{ACAD_REACTORS
330
4D1
102
}
330
4D1
100
AcDbXrecord
280
     1
102
SHADEPLOT
 70
     0
102
SHADEPLOTRESLEVEL
 70
     2
102
SHADEPLOTCUSTOMDPI
 70
   300
  0
XRECORD
  5
4D0
102
{ACAD_REACTORS
330
4CF
102
}
330
4CF
100
AcDbXrecord
280
     1
102
SHADEPLOT
 70
     0
102
SHADEPLOTRESLEVEL
 70
     2
102
SHADEPLOTCUSTOMDPI
 70
   300
  0
XRECORD
  5
499
102
{ACAD_REACTORS
330
1A
102
}
330
1A
100
AcDbXrecord
280
     1
102
MATERIAL
148
0.0
149
0.0
149
0.0
 93
        0
 94
      127
282
     0
 72
     0
 77
     0
171
     0
175
     0
179
     0
273
     0
  0
XRECORD
  5
1C
102
{ACAD_REACTORS
330
1A
102
}
330
1A
100
AcDbXrecord
280
     1
270
     1
271
     1
  0
XRECORD
  5
1B
102
{ACAD_REACTORS
330
1A
102
}
330
1A
100
AcDbXrecord
280
     1
270
     1
271
     1
  0
XRECORD
  5
1F
102
{ACAD_REACTORS
330
1A
102
}
330
1A
100
AcDbXrecord
280
     1
270
     1
271
     1
  0
XRECORD
  5
1E
102
{ACAD_REACTORS
330
1A
102
}
330
1A
100
AcDbXrecord
280
     1
270
     1
271
     1
  0
XRECORD
  5
20
102
{ACAD_REACTORS
330
1A
102
}
330
1A
100
AcDbXrecord
280
     1
270
     1
271
     1
  0
XRECORD
  5
1D
102
{ACAD_REACTORS
330
1A
102
}
330
1A
100
AcDbXrecord
280
     1
270
     1
271
     1
  0
XRECORD
  5
498
102
{ACAD_REACTORS
330
12
102
}
330
12
100
AcDbXrecord
280
     1
102
MATERIAL
148
0.0
149
0.0
149
0.0
 93
        0
 94
      127
282
     0
 72
     0
 77
     0
171
     0
175
     0
179
     0
273
     0
  0
XRECORD
  5
14
102
{ACAD_REACTORS
330
12
102
}
330
12
100
AcDbXrecord
280
     1
270
     1
271
     1
  0
XRECORD
  5
13
102
{ACAD_REACTORS
330
12
102
}
330
12
100
AcDbXrecord
280
     1
270
     1
271
     1
  0
XRECORD
  5
17
102
{ACAD_REACTORS
330
12
102
}
330
12
100
AcDbXrecord
280
     1
270
     1
271
     1
  0
XRECORD
  5
16
102
{ACAD_REACTORS
330
12
102
}
330
12
100
AcDbXrecord
280
     1
270
     1
271
     1
  0
XRECORD
  5
18
102
{ACAD_REACTORS
330
12
102
}
330
12
100
AcDbXrecord
280
     1
270
     1
271
     1
  0
XRECORD
  5
15
102
{ACAD_REACTORS
330
12
102
}
330
12
100
AcDbXrecord
280
     1
270
     1
271
     1
  0
XRECORD
  5
49A
102
{ACAD_REACTORS
330
22
102
}
330
22
100
AcDbXrecord
280
     1
102
MATERIAL
148
0.0
149
0.0
149
0.0
 93
        0
 94
      127
282
     0
 72
     0
 77
     0
171
     0
175
     0
179
     0
273
     0
  0
XRECORD
  5
24
102
{ACAD_REACTORS
330
22
102
}
330
22
100
AcDbXrecord
280
     1
270
     1
271
     1
  0
XRECORD
  5
23
102
{ACAD_REACTORS
330
22
102
}
330
22
100
AcDbXrecord
280
     1
270
     1
271
     1
  0
XRECORD
  5
27
102
{ACAD_REACTORS
330
22
102
}
330
22
100
AcDbXrecord
280
     1
270
     1
271
     1
  0
XRECORD
  5
26
102
{ACAD_REACTORS
330
22
102
}
330
22
100
AcDbXrecord
280
     1
270
     1
271
     1
  0
XRECORD
  5
28
102
{ACAD_REACTORS
330
22
102
}
330
22
100
AcDbXrecord
280
     1
270
     1
271
     1
  0
XRECORD
  5
25
102
{ACAD_REACTORS
330
22
102
}
330
22
100
AcDbXrecord
280
     1
270
     1
271
     1
  0
XRECORD
  5
4CD
102
{ACAD_REACTORS
330
463
102
}
330
463
100
AcDbXrecord
280
     1
102
DISPLAYNAME
  1
Imperial24
102
FLAGS
 90
        0
  0
CELLSTYLEMAP
  5
48D
102
{ACAD_REACTORS
330
48C
102
}
330
48C
100
AcDbCellStyleMap
 90
        3
300
CELLSTYLE
  1
TABLEFORMAT_BEGIN
 90
        5
170
     1
 91
        0
 92
    32768
 62
   257
 93
        1
300
CONTENTFORMAT
  1
CONTENTFORMAT_BEGIN
 90
        0
 91
        0
 92
      512
 93
        0
300

 40
0.0
140
1.0
 94
        5
 62
     0
340
55
144
0.25
309
CONTENTFORMAT_END
171
     0
 94
        0
309
TABLEFORMAT_END
  1
CELLSTYLE_BEGIN
 90
        1
 91
        1
300
_TITLE
309
CELLSTYLE_END
300
CELLSTYLE
  1
TABLEFORMAT_BEGIN
 90
        5
170
     1
 91
        0
 92
        0
 62
   257
 93
        1
300
CONTENTFORMAT
  1
CONTENTFORMAT_BEGIN
 90
        0
 91
        0
 92
      512
 93
        0
300

 40
0.0
140
1.0
 94
        5
 62
     0
340
55
144
0.18
309
CONTENTFORMAT_END
171
     0
 94
        0
309
TABLEFORMAT_END
  1
CELLSTYLE_BEGIN
 90
        2
 91
        1
300
_HEADER
309
CELLSTYLE_END
300
CELLSTYLE
  1
TABLEFORMAT_BEGIN
 90
        5
170
     1
 91
        0
 92
        0
 62
   257
 93
        1
300
CONTENTFORMAT
  1
CONTENTFORMAT_BEGIN
 90
        0
 91
        0
 92
      512
 93
        0
300

 40
0.0
140
1.0
 94
        2
 62
     0
340
55
144
0.18
309
CONTENTFORMAT_END
171
     0
 94
        0
309
TABLEFORMAT_END
  1
CELLSTYLE_BEGIN
 90
        3
 91
        2
300
_DATA
309
CELLSTYLE_END
  0
XRECORD
  5
4CB
102
{ACAD_REACTORS
330
48C
102
}
330
48C
100
AcDbXrecord
280
     1
102
ACAD_ROUNDTRIP_PRE2007_TABLESTYLE
 90
      512
 91
        0
  1

 92
      512
 93
        0
  2

 94
      512
 95
        0
  3

  0
XRECORD
  5
4A6
102
{ACAD_REACTORS
330
4A5
102
}
330
4A5
100
AcDbXrecord
280
     1
102
RTVSPost2010Prop28
280
     1
102
RTVSPost2010PropOp28
 70
     1
102
RTVSPost2010Prop29
280
     1
102
RTVSPost2010PropOp29
 70
     1
102
RTVSPost2010Prop30
280
     0
102
RTVSPost2010PropOp30
 70
     1
102
RTVSPost2010Prop31
280
     0
102
RTVSPost2010PropOp31
 70
     1
102
RTVSPost2010Prop32
280
     0
102
RTVSPost2010PropOp32
 70
     1
102
RTVSPost2010Prop33
280
     0
102
RTVSPost2010PropOp33
 70
     1
102
RTVSPost2010Prop34
280
     0
102
RTVSPost2010PropOp34
 70
     1
102
RTVSPost2010Prop35
280
     0
102
RTVSPost2010PropOp35
 70
     1
102
RTVSPost2010Prop36
280
     0
102
RTVSPost2010PropOp36
 70
     1
102
RTVSPost2010Prop37
 90
       50
102
RTVSPost2010PropOp37
 70
     1
102
RTVSPost2010Prop38
140
0.0
102
RTVSPost2010PropOp38
 70
     1
102
RTVSPost2010Prop39
140
1.0
102
RTVSPost2010PropOp39
 70
     1
102
RTVSPost2010Prop40
 90
        0
102
RTVSPost2010PropOp40
 70
     1
102
RTVSPost2010Prop41ColorIndex
 90
       18
102
RTVSPost2010Prop41ColorRGB
 90
        0
102
RTVSPost2010PropOp41
 70
     1
102
RTVSPost2010Prop42
 90
       50
102
RTVSPost2010PropOp42
 70
     1
102
RTVSPost2010Prop43
 90
        3
102
RTVSPost2010PropOp43
 70
     1
102
RTVSPost2010Prop44ColorIndex
 90
        5
102
RTVSPost2010Prop44ColorRGB
 90
      255
102
RTVSPost2010PropOp44
 70
     1
102
RTVSPost2010Prop45
280
     0
102
RTVSPost2010PropOp45
 70
     1
102
RTVSPost2010Prop46
 90
       50
102
RTVSPost2010PropOp46
 70
     1
102
RTVSPost2010Prop47
 90
       50
102
RTVSPost2010PropOp47
 70
     1
102
RTVSPost2010Prop48
 90
       50
102
RTVSPost2010PropOp48
 70
     1
102
RTVSPost2010Prop49
280
     0
102
RTVSPost2010PropOp49
 70
     1
102
RTVSPost2010Prop50
 90
       50
102
RTVSPost2010PropOp50
 70
     1
102
RTVSPost2010Prop51ColorIndex
 90
      256
102
RTVSPost2010Prop51ColorRGB
 90
-16777216
102
RTVSPost2010PropOp51
 70
     0
102
RTVSPost2010Prop52
140
1.0
102
RTVSPost2010PropOp52
 70
     0
102
RTVSPost2010Prop53
 90
        2
102
RTVSPost2010PropOp53
 70
     1
102
RTVSPost2010Prop54
  1
strokes_ogs.tif
102
RTVSPost2010PropOp54
 70
     1
102
RTVSPost2010Prop55
280
     0
102
RTVSPost2010PropOp55
 70
     1
102
RTVSPost2010Prop56
140
1.0
102
RTVSPost2010PropOp56
 70
     1
102
RTVSPost2010Prop57
140
1.0
102
RTVSPost2010PropOp57
 70
     1
102
RTVSPropertyOp0
 70
     1
102
RTVSPropertyOp1
 70
     1
102
RTVSPropertyOp2
 70
     1
102
RTVSPropertyOp3
 70
     1
102
RTVSPropertyOp4
 70
     1
102
RTVSPropertyOp5
 70
     1
102
RTVSPropertyOp6
 70
     1
102
RTVSPropertyOp7
 70
     1
102
RTVSPropertyOp8
 70
     1
102
RTVSPropertyOp9
 70
     1
102
RTVSPropertyOp10
 70
     1
102
RTVSPropertyOp11
 70
     1
102
RTVSPropertyOp12
 70
     1
102
RTVSPropertyOp13
 70
     1
102
RTVSPropertyOp14
 70
     1
102
RTVSPropertyOp15
 70
     1
102
RTVSPropertyOp16
 70
     1
102
RTVSPropertyOp17
 70
     1
102
RTVSPropertyOp18
 70
     1
102
RTVSPropertyOp19
 70
     1
102
RTVSPropertyOp20
 70
     1
102
RTVSPropertyOp21
 70
     1
102
RTVSPropertyOp22
 70
     1
102
RTVSPropertyOp23
 70
     1
102
RTVSPropertyOp24
 70
     1
102
RTVSPropertyOp25
 70
     1
102
RTVSPropertyOp26
 70
     1
102
RTVSPropertyOp27
 70
     1
102
RTVSPropertyOp28
 70
     1
102
RTVSPropertyOp29
 70
     1
102
RTVSPropertyOp30
 70
     1
102
RTVSPropertyOp31
 70
     1
102
RTVSPropertyOp32
 70
     1
102
RTVSPropertyOp33
 70
     1
102
RTVSPropertyOp34
 70
     1
102
RTVSPropertyOp35
 70
     1
102
RTVSPropertyOp36
 70
     1
102
RTVSPropertyOp37
 70
     1
102
RTVSPropertyOp38
 70
     1
102
RTVSPropertyOp39
 70
     1
102
RTVSPropertyOp40
 70
     1
102
RTVSPropertyOp41
 70
     1
102
RTVSPropertyOp42
 70
     1
102
RTVSPropertyOp43
 70
     1
102
RTVSPropertyOp44
 70
     1
102
RTVSPropertyOp45
 70
     1
102
RTVSPropertyOp46
 70
     1
102
RTVSPropertyOp47
 70
     1
102
RTVSPropertyOp48
 70
     1
102
RTVSPropertyOp49
 70
     1
102
RTVSPropertyOp50
 70
     1
102
RTVSPropertyOp51
 70
     0
102
RTVSPropertyOp52
 70
     0
102
RTVSPropertyOp53
 70
     1
102
RTVSPropertyOp54
 70
     1
102
RTVSPropertyOp55
 70
     1
102
RTVSPropertyOp56
 70
     1
102
RTVSPropertyOp57
 70
     1
102
RTVSPropertyOp58
 70
     1
102
RTVSPropertyOp59
 70
     1
102
RTVSPropertyOp60
 70
     1
102
RTVSPropertyOp61
 70
     1
102
RTVSPropertyOp62
 70
     1
  0
XRECORD
  5
4A4
102
{ACAD_REACTORS
330
4A3
102
}
330
4A3
100
AcDbXrecord
280
     1
102
RTVSPost2010Prop28
280
     0
102
RTVSPost2010PropOp28
 70
     1
102
RTVSPost2010Prop29
280
     1
102
RTVSPost2010PropOp29
 70
     1
102
RTVSPost2010Prop30
280
     1
102
RTVSPost2010PropOp30
 70
     1
102
RTVSPost2010Prop31
280
     0
102
RTVSPost2010PropOp31
 70
     1
102
RTVSPost2010Prop32
280
     0
102
RTVSPost2010PropOp32
 70
     1
102
RTVSPost2010Prop33
280
     0
102
RTVSPost2010PropOp33
 70
     1
102
RTVSPost2010Prop34
280
     0
102
RTVSPost2010PropOp34
 70
     1
102
RTVSPost2010Prop35
280
     0
102
RTVSPost2010PropOp35
 70
     1
102
RTVSPost2010Prop36
280
     0
102
RTVSPost2010PropOp36
 70
     1
102
RTVSPost2010Prop37
 90
       50
102
RTVSPost2010PropOp37
 70
     1
102
RTVSPost2010Prop38
140
0.0
102
RTVSPost2010PropOp38
 70
     1
102
RTVSPost2010Prop39
140
1.0
102
RTVSPost2010PropOp39
 70
     1
102
RTVSPost2010Prop40
 90
        0
102
RTVSPost2010PropOp40
 70
     1
102
RTVSPost2010Prop41ColorIndex
 90
       18
102
RTVSPost2010Prop41ColorRGB
 90
        0
102
RTVSPost2010PropOp41
 70
     1
102
RTVSPost2010Prop42
 90
       50
102
RTVSPost2010PropOp42
 70
     1
102
RTVSPost2010Prop43
 90
        3
102
RTVSPost2010PropOp43
 70
     1
102
RTVSPost2010Prop44ColorIndex
 90
        5
102
RTVSPost2010Prop44ColorRGB
 90
      255
102
RTVSPost2010PropOp44
 70
     1
102
RTVSPost2010Prop45
280
     0
102
RTVSPost2010PropOp45
 70
     1
102
RTVSPost2010Prop46
 90
       50
102
RTVSPost2010PropOp46
 70
     1
102
RTVSPost2010Prop47
 90
       50
102
RTVSPost2010PropOp47
 70
     1
102
RTVSPost2010Prop48
 90
       50
102
RTVSPost2010PropOp48
 70
     1
102
RTVSPost2010Prop49
280
     0
102
RTVSPost2010PropOp49
 70
     1
102
RTVSPost2010Prop50
 90
       50
102
RTVSPost2010PropOp50
 70
     1
102
RTVSPost2010Prop51ColorIndex
 90
      256
102
RTVSPost2010Prop51ColorRGB
 90
-16777216
102
RTVSPost2010PropOp51
 70
     0
102
RTVSPost2010Prop52
140
1.0
102
RTVSPost2010PropOp52
 70
     0
102
RTVSPost2010Prop53
 90
        2
102
RTVSPost2010PropOp53
 70
     1
102
RTVSPost2010Prop54
  1
strokes_ogs.tif
102
RTVSPost2010PropOp54
 70
     1
102
RTVSPost2010Prop55
280
     0
102
RTVSPost2010PropOp55
 70
     1
102
RTVSPost2010Prop56
140
1.0
102
RTVSPost2010PropOp56
 70
     1
102
RTVSPost2010Prop57
140
1.0
102
RTVSPost2010PropOp57
 70
     1
102
RTVSPropertyOp0
 70
     1
102
RTVSPropertyOp1
 70
     1
102
RTVSPropertyOp2
 70
     1
102
RTVSPropertyOp3
 70
     1
102
RTVSPropertyOp4
 70
     1
102
RTVSPropertyOp5
 70
     1
102
RTVSPropertyOp6
 70
     1
102
RTVSPropertyOp7
 70
     1
102
RTVSPropertyOp8
 70
     1
102
RTVSPropertyOp9
 70
     1
102
RTVSPropertyOp10
 70
     1
102
RTVSPropertyOp11
 70
     1
102
RTVSPropertyOp12
 70
     1
102
RTVSPropertyOp13
 70
     1
102
RTVSPropertyOp14
 70
     1
102
RTVSPropertyOp15
 70
     1
102
RTVSPropertyOp16
 70
     1
102
RTVSPropertyOp17
 70
     1
102
RTVSPropertyOp18
 70
     1
102
RTVSPropertyOp19
 70
     1
102
RTVSPropertyOp20
 70
     1
102
RTVSPropertyOp21
 70
     1
102
RTVSPropertyOp22
 70
     1
102
RTVSPropertyOp23
 70
     1
102
RTVSPropertyOp24
 70
     1
102
RTVSPropertyOp25
 70
     1
102
RTVSPropertyOp26
 70
     1
102
RTVSPropertyOp27
 70
     1
102
RTVSPropertyOp28
 70
     1
102
RTVSPropertyOp29
 70
     1
102
RTVSPropertyOp30
 70
     1
102
RTVSPropertyOp31
 70
     1
102
RTVSPropertyOp32
 70
     1
102
RTVSPropertyOp33
 70
     1
102
RTVSPropertyOp34
 70
     1
102
RTVSPropertyOp35
 70
     1
102
RTVSPropertyOp36
 70
     1
102
RTVSPropertyOp37
 70
     1
102
RTVSPropertyOp38
 70
     1
102
RTVSPropertyOp39
 70
     1
102
RTVSPropertyOp40
 70
     1
102
RTVSPropertyOp41
 70
     1
102
RTVSPropertyOp42
 70
     1
102
RTVSPropertyOp43
 70
     1
102
RTVSPropertyOp44
 70
     1
102
RTVSPropertyOp45
 70
     1
102
RTVSPropertyOp46
 70
     1
102
RTVSPropertyOp47
 70
     1
102
RTVSPropertyOp48
 70
     1
102
RTVSPropertyOp49
 70
     1
102
RTVSPropertyOp50
 70
     1
102
RTVSPropertyOp51
 70
     0
102
RTVSPropertyOp52
 70
     0
102
RTVSPropertyOp53
 70
     1
102
RTVSPropertyOp54
 70
     1
102
RTVSPropertyOp55
 70
     1
102
RTVSPropertyOp56
 70
     1
102
RTVSPropertyOp57
 70
     1
102
RTVSPropertyOp58
 70
     1
102
RTVSPropertyOp59
 70
     1
102
RTVSPropertyOp60
 70
     1
102
RTVSPropertyOp61
 70
     1
102
RTVSPropertyOp62
 70
     1
  0
XRECORD
  5
4B2
102
{ACAD_REACTORS
330
4B1
102
}
330
4B1
100
AcDbXrecord
280
     1
102
RTVSPost2010Prop28
280
     0
102
RTVSPost2010PropOp28
 70
     1
102
RTVSPost2010Prop29
280
     1
102
RTVSPost2010PropOp29
 70
     1
102
RTVSPost2010Prop30
280
     1
102
RTVSPost2010PropOp30
 70
     1
102
RTVSPost2010Prop31
280
     0
102
RTVSPost2010PropOp31
 70
     1
102
RTVSPost2010Prop32
280
     0
102
RTVSPost2010PropOp32
 70
     1
102
RTVSPost2010Prop33
280
     0
102
RTVSPost2010PropOp33
 70
     1
102
RTVSPost2010Prop34
280
     0
102
RTVSPost2010PropOp34
 70
     1
102
RTVSPost2010Prop35
280
     0
102
RTVSPost2010PropOp35
 70
     1
102
RTVSPost2010Prop36
280
     0
102
RTVSPost2010PropOp36
 70
     1
102
RTVSPost2010Prop37
 90
       50
102
RTVSPost2010PropOp37
 70
     1
102
RTVSPost2010Prop38
140
0.0
102
RTVSPost2010PropOp38
 70
     1
102
RTVSPost2010Prop39
140
1.0
102
RTVSPost2010PropOp39
 70
     1
102
RTVSPost2010Prop40
 90
        0
102
RTVSPost2010PropOp40
 70
     1
102
RTVSPost2010Prop41ColorIndex
 90
       18
102
RTVSPost2010Prop41ColorRGB
 90
        0
102
RTVSPost2010PropOp41
 70
     1
102
RTVSPost2010Prop42
 90
       50
102
RTVSPost2010PropOp42
 70
     1
102
RTVSPost2010Prop43
 90
        3
102
RTVSPost2010PropOp43
 70
     1
102
RTVSPost2010Prop44ColorIndex
 90
        5
102
RTVSPost2010Prop44ColorRGB
 90
      255
102
RTVSPost2010PropOp44
 70
     1
102
RTVSPost2010Prop45
280
     0
102
RTVSPost2010PropOp45
 70
     1
102
RTVSPost2010Prop46
 90
       50
102
RTVSPost2010PropOp46
 70
     1
102
RTVSPost2010Prop47
 90
       50
102
RTVSPost2010PropOp47
 70
     1
102
RTVSPost2010Prop48
 90
       50
102
RTVSPost2010PropOp48
 70
     1
102
RTVSPost2010Prop49
280
     0
102
RTVSPost2010PropOp49
 70
     1
102
RTVSPost2010Prop50
 90
       50
102
RTVSPost2010PropOp50
 70
     1
102
RTVSPost2010Prop51ColorIndex
 90
      256
102
RTVSPost2010Prop51ColorRGB
 90
-16777216
102
RTVSPost2010PropOp51
 70
     0
102
RTVSPost2010Prop52
140
1.0
102
RTVSPost2010PropOp52
 70
     0
102
RTVSPost2010Prop53
 90
        2
102
RTVSPost2010PropOp53
 70
     1
102
RTVSPost2010Prop54
  1
strokes_ogs.tif
102
RTVSPost2010PropOp54
 70
     1
102
RTVSPost2010Prop55
280
     0
102
RTVSPost2010PropOp55
 70
     1
102
RTVSPost2010Prop56
140
1.0
102
RTVSPost2010PropOp56
 70
     1
102
RTVSPost2010Prop57
140
1.0
102
RTVSPost2010PropOp57
 70
     1
102
RTVSPropertyOp0
 70
     1
102
RTVSPropertyOp1
 70
     1
102
RTVSPropertyOp2
 70
     1
102
RTVSPropertyOp3
 70
     1
102
RTVSPropertyOp4
 70
     1
102
RTVSPropertyOp5
 70
     1
102
RTVSPropertyOp6
 70
     1
102
RTVSPropertyOp7
 70
     1
102
RTVSPropertyOp8
 70
     1
102
RTVSPropertyOp9
 70
     1
102
RTVSPropertyOp10
 70
     1
102
RTVSPropertyOp11
 70
     1
102
RTVSPropertyOp12
 70
     1
102
RTVSPropertyOp13
 70
     1
102
RTVSPropertyOp14
 70
     1
102
RTVSPropertyOp15
 70
     1
102
RTVSPropertyOp16
 70
     1
102
RTVSPropertyOp17
 70
     1
102
RTVSPropertyOp18
 70
     1
102
RTVSPropertyOp19
 70
     1
102
RTVSPropertyOp20
 70
     1
102
RTVSPropertyOp21
 70
     1
102
RTVSPropertyOp22
 70
     1
102
RTVSPropertyOp23
 70
     1
102
RTVSPropertyOp24
 70
     1
102
RTVSPropertyOp25
 70
     1
102
RTVSPropertyOp26
 70
     1
102
RTVSPropertyOp27
 70
     1
102
RTVSPropertyOp28
 70
     1
102
RTVSPropertyOp29
 70
     1
102
RTVSPropertyOp30
 70
     1
102
RTVSPropertyOp31
 70
     1
102
RTVSPropertyOp32
 70
     1
102
RTVSPropertyOp33
 70
     1
102
RTVSPropertyOp34
 70
     1
102
RTVSPropertyOp35
 70
     1
102
RTVSPropertyOp36
 70
     1
102
RTVSPropertyOp37
 70
     1
102
RTVSPropertyOp38
 70
     1
102
RTVSPropertyOp39
 70
     1
102
RTVSPropertyOp40
 70
     1
102
RTVSPropertyOp41
 70
     1
102
RTVSPropertyOp42
 70
     1
102
RTVSPropertyOp43
 70
     1
102
RTVSPropertyOp44
 70
     1
102
RTVSPropertyOp45
 70
     1
102
RTVSPropertyOp46
 70
     1
102
RTVSPropertyOp47
 70
     1
102
RTVSPropertyOp48
 70
     1
102
RTVSPropertyOp49
 70
     1
102
RTVSPropertyOp50
 70
     1
102
RTVSPropertyOp51
 70
     0
102
RTVSPropertyOp52
 70
     0
102
RTVSPropertyOp53
 70
     1
102
RTVSPropertyOp54
 70
     1
102
RTVSPropertyOp55
 70
     1
102
RTVSPropertyOp56
 70
     1
102
RTVSPropertyOp57
 70
     1
102
RTVSPropertyOp58
 70
     1
102
RTVSPropertyOp59
 70
     1
102
RTVSPropertyOp60
 70
     1
102
RTVSPropertyOp61
 70
     1
102
RTVSPropertyOp62
 70
     1
  0
XRECORD
  5
4BA
102
{ACAD_REACTORS
330
4B9
102
}
330
4B9
100
AcDbXrecord
280
     1
102
RTVSPost2010Prop28
280
     0
102
RTVSPost2010PropOp28
 70
     1
102
RTVSPost2010Prop29
280
     1
102
RTVSPost2010PropOp29
 70
     1
102
RTVSPost2010Prop30
280
     1
102
RTVSPost2010PropOp30
 70
     1
102
RTVSPost2010Prop31
280
     0
102
RTVSPost2010PropOp31
 70
     1
102
RTVSPost2010Prop32
280
     0
102
RTVSPost2010PropOp32
 70
     1
102
RTVSPost2010Prop33
280
     0
102
RTVSPost2010PropOp33
 70
     1
102
RTVSPost2010Prop34
280
     0
102
RTVSPost2010PropOp34
 70
     1
102
RTVSPost2010Prop35
280
     0
102
RTVSPost2010PropOp35
 70
     1
102
RTVSPost2010Prop36
280
     0
102
RTVSPost2010PropOp36
 70
     1
102
RTVSPost2010Prop37
 90
       50
102
RTVSPost2010PropOp37
 70
     1
102
RTVSPost2010Prop38
140
0.0
102
RTVSPost2010PropOp38
 70
     1
102
RTVSPost2010Prop39
140
1.0
102
RTVSPost2010PropOp39
 70
     1
102
RTVSPost2010Prop40
 90
        0
102
RTVSPost2010PropOp40
 70
     1
102
RTVSPost2010Prop41ColorIndex
 90
       18
102
RTVSPost2010Prop41ColorRGB
 90
        0
102
RTVSPost2010PropOp41
 70
     1
102
RTVSPost2010Prop42
 90
       50
102
RTVSPost2010PropOp42
 70
     1
102
RTVSPost2010Prop43
 90
        3
102
RTVSPost2010PropOp43
 70
     1
102
RTVSPost2010Prop44ColorIndex
 90
        5
102
RTVSPost2010Prop44ColorRGB
 90
      255
102
RTVSPost2010PropOp44
 70
     1
102
RTVSPost2010Prop45
280
     0
102
RTVSPost2010PropOp45
 70
     1
102
RTVSPost2010Prop46
 90
       50
102
RTVSPost2010PropOp46
 70
     1
102
RTVSPost2010Prop47
 90
       50
102
RTVSPost2010PropOp47
 70
     1
102
RTVSPost2010Prop48
 90
       50
102
RTVSPost2010PropOp48
 70
     1
102
RTVSPost2010Prop49
280
     0
102
RTVSPost2010PropOp49
 70
     1
102
RTVSPost2010Prop50
 90
       50
102
RTVSPost2010PropOp50
 70
     1
102
RTVSPost2010Prop51ColorIndex
 90
      256
102
RTVSPost2010Prop51ColorRGB
 90
-16777216
102
RTVSPost2010PropOp51
 70
     0
102
RTVSPost2010Prop52
140
1.0
102
RTVSPost2010PropOp52
 70
     0
102
RTVSPost2010Prop53
 90
        2
102
RTVSPost2010PropOp53
 70
     1
102
RTVSPost2010Prop54
  1
strokes_ogs.tif
102
RTVSPost2010PropOp54
 70
     1
102
RTVSPost2010Prop55
280
     0
102
RTVSPost2010PropOp55
 70
     1
102
RTVSPost2010Prop56
140
1.0
102
RTVSPost2010PropOp56
 70
     1
102
RTVSPost2010Prop57
140
1.0
102
RTVSPost2010PropOp57
 70
     1
102
RTVSPropertyOp0
 70
     1
102
RTVSPropertyOp1
 70
     1
102
RTVSPropertyOp2
 70
     1
102
RTVSPropertyOp3
 70
     1
102
RTVSPropertyOp4
 70
     1
102
RTVSPropertyOp5
 70
     1
102
RTVSPropertyOp6
 70
     1
102
RTVSPropertyOp7
 70
     1
102
RTVSPropertyOp8
 70
     1
102
RTVSPropertyOp9
 70
     1
102
RTVSPropertyOp10
 70
     1
102
RTVSPropertyOp11
 70
     1
102
RTVSPropertyOp12
 70
     1
102
RTVSPropertyOp13
 70
     1
102
RTVSPropertyOp14
 70
     1
102
RTVSPropertyOp15
 70
     1
102
RTVSPropertyOp16
 70
     1
102
RTVSPropertyOp17
 70
     1
102
RTVSPropertyOp18
 70
     1
102
RTVSPropertyOp19
 70
     1
102
RTVSPropertyOp20
 70
     1
102
RTVSPropertyOp21
 70
     1
102
RTVSPropertyOp22
 70
     1
102
RTVSPropertyOp23
 70
     1
102
RTVSPropertyOp24
 70
     1
102
RTVSPropertyOp25
 70
     1
102
RTVSPropertyOp26
 70
     1
102
RTVSPropertyOp27
 70
     1
102
RTVSPropertyOp28
 70
     1
102
RTVSPropertyOp29
 70
     1
102
RTVSPropertyOp30
 70
     1
102
RTVSPropertyOp31
 70
     1
102
RTVSPropertyOp32
 70
     1
102
RTVSPropertyOp33
 70
     1
102
RTVSPropertyOp34
 70
     1
102
RTVSPropertyOp35
 70
     1
102
RTVSPropertyOp36
 70
     1
102
RTVSPropertyOp37
 70
     1
102
RTVSPropertyOp38
 70
     1
102
RTVSPropertyOp39
 70
     1
102
RTVSPropertyOp40
 70
     1
102
RTVSPropertyOp41
 70
     1
102
RTVSPropertyOp42
 70
     1
102
RTVSPropertyOp43
 70
     1
102
RTVSPropertyOp44
 70
     1
102
RTVSPropertyOp45
 70
     1
102
RTVSPropertyOp46
 70
     1
102
RTVSPropertyOp47
 70
     1
102
RTVSPropertyOp48
 70
     1
102
RTVSPropertyOp49
 70
     1
102
RTVSPropertyOp50
 70
     1
102
RTVSPropertyOp51
 70
     0
102
RTVSPropertyOp52
 70
     0
102
RTVSPropertyOp53
 70
     1
102
RTVSPropertyOp54
 70
     1
102
RTVSPropertyOp55
 70
     1
102
RTVSPropertyOp56
 70
     1
102
RTVSPropertyOp57
 70
     1
102
RTVSPropertyOp58
 70
     1
102
RTVSPropertyOp59
 70
     1
102
RTVSPropertyOp60
 70
     1
102
RTVSPropertyOp61
 70
     1
102
RTVSPropertyOp62
 70
     1
  0
XRECORD
  5
4AC
102
{ACAD_REACTORS
330
4AB
102
}
330
4AB
100
AcDbXrecord
280
     1
102
RTVSPost2010Prop28
280
     0
102
RTVSPost2010PropOp28
 70
     1
102
RTVSPost2010Prop29
280
     1
102
RTVSPost2010PropOp29
 70
     1
102
RTVSPost2010Prop30
280
     1
102
RTVSPost2010PropOp30
 70
     1
102
RTVSPost2010Prop31
280
     0
102
RTVSPost2010PropOp31
 70
     1
102
RTVSPost2010Prop32
280
     0
102
RTVSPost2010PropOp32
 70
     1
102
RTVSPost2010Prop33
280
     0
102
RTVSPost2010PropOp33
 70
     1
102
RTVSPost2010Prop34
280
     0
102
RTVSPost2010PropOp34
 70
     1
102
RTVSPost2010Prop35
280
     0
102
RTVSPost2010PropOp35
 70
     1
102
RTVSPost2010Prop36
280
     0
102
RTVSPost2010PropOp36
 70
     1
102
RTVSPost2010Prop37
 90
       50
102
RTVSPost2010PropOp37
 70
     1
102
RTVSPost2010Prop38
140
0.0
102
RTVSPost2010PropOp38
 70
     1
102
RTVSPost2010Prop39
140
1.0
102
RTVSPost2010PropOp39
 70
     1
102
RTVSPost2010Prop40
 90
        0
102
RTVSPost2010PropOp40
 70
     1
102
RTVSPost2010Prop41ColorIndex
 90
       18
102
RTVSPost2010Prop41ColorRGB
 90
        0
102
RTVSPost2010PropOp41
 70
     1
102
RTVSPost2010Prop42
 90
       50
102
RTVSPost2010PropOp42
 70
     1
102
RTVSPost2010Prop43
 90
        3
102
RTVSPost2010PropOp43
 70
     1
102
RTVSPost2010Prop44ColorIndex
 90
        5
102
RTVSPost2010Prop44ColorRGB
 90
      255
102
RTVSPost2010PropOp44
 70
     1
102
RTVSPost2010Prop45
280
     0
102
RTVSPost2010PropOp45
 70
     1
102
RTVSPost2010Prop46
 90
       50
102
RTVSPost2010PropOp46
 70
     1
102
RTVSPost2010Prop47
 90
       50
102
RTVSPost2010PropOp47
 70
     1
102
RTVSPost2010Prop48
 90
       50
102
RTVSPost2010PropOp48
 70
     1
102
RTVSPost2010Prop49
280
     0
102
RTVSPost2010PropOp49
 70
     1
102
RTVSPost2010Prop50
 90
       50
102
RTVSPost2010PropOp50
 70
     1
102
RTVSPost2010Prop51ColorIndex
 90
      256
102
RTVSPost2010Prop51ColorRGB
 90
-16777216
102
RTVSPost2010PropOp51
 70
     0
102
RTVSPost2010Prop52
140
1.0
102
RTVSPost2010PropOp52
 70
     0
102
RTVSPost2010Prop53
 90
        2
102
RTVSPost2010PropOp53
 70
     1
102
RTVSPost2010Prop54
  1
strokes_ogs.tif
102
RTVSPost2010PropOp54
 70
     1
102
RTVSPost2010Prop55
280
     0
102
RTVSPost2010PropOp55
 70
     1
102
RTVSPost2010Prop56
140
1.0
102
RTVSPost2010PropOp56
 70
     1
102
RTVSPost2010Prop57
140
1.0
102
RTVSPost2010PropOp57
 70
     1
102
RTVSPropertyOp0
 70
     1
102
RTVSPropertyOp1
 70
     1
102
RTVSPropertyOp2
 70
     1
102
RTVSPropertyOp3
 70
     1
102
RTVSPropertyOp4
 70
     1
102
RTVSPropertyOp5
 70
     1
102
RTVSPropertyOp6
 70
     1
102
RTVSPropertyOp7
 70
     1
102
RTVSPropertyOp8
 70
     1
102
RTVSPropertyOp9
 70
     1
102
RTVSPropertyOp10
 70
     1
102
RTVSPropertyOp11
 70
     1
102
RTVSPropertyOp12
 70
     1
102
RTVSPropertyOp13
 70
     1
102
RTVSPropertyOp14
 70
     1
102
RTVSPropertyOp15
 70
     1
102
RTVSPropertyOp16
 70
     1
102
RTVSPropertyOp17
 70
     1
102
RTVSPropertyOp18
 70
     1
102
RTVSPropertyOp19
 70
     1
102
RTVSPropertyOp20
 70
     1
102
RTVSPropertyOp21
 70
     1
102
RTVSPropertyOp22
 70
     1
102
RTVSPropertyOp23
 70
     1
102
RTVSPropertyOp24
 70
     1
102
RTVSPropertyOp25
 70
     1
102
RTVSPropertyOp26
 70
     1
102
RTVSPropertyOp27
 70
     1
102
RTVSPropertyOp28
 70
     1
102
RTVSPropertyOp29
 70
     1
102
RTVSPropertyOp30
 70
     1
102
RTVSPropertyOp31
 70
     1
102
RTVSPropertyOp32
 70
     1
102
RTVSPropertyOp33
 70
     1
102
RTVSPropertyOp34
 70
     1
102
RTVSPropertyOp35
 70
     1
102
RTVSPropertyOp36
 70
     1
102
RTVSPropertyOp37
 70
     1
102
RTVSPropertyOp38
 70
     1
102
RTVSPropertyOp39
 70
     1
102
RTVSPropertyOp40
 70
     1
102
RTVSPropertyOp41
 70
     1
102
RTVSPropertyOp42
 70
     1
102
RTVSPropertyOp43
 70
     1
102
RTVSPropertyOp44
 70
     1
102
RTVSPropertyOp45
 70
     1
102
RTVSPropertyOp46
 70
     1
102
RTVSPropertyOp47
 70
     1
102
RTVSPropertyOp48
 70
     1
102
RTVSPropertyOp49
 70
     1
102
RTVSPropertyOp50
 70
     1
102
RTVSPropertyOp51
 70
     0
102
RTVSPropertyOp52
 70
     0
102
RTVSPropertyOp53
 70
     1
102
RTVSPropertyOp54
 70
     1
102
RTVSPropertyOp55
 70
     1
102
RTVSPropertyOp56
 70
     1
102
RTVSPropertyOp57
 70
     1
102
RTVSPropertyOp58
 70
     1
102
RTVSPropertyOp59
 70
     1
102
RTVSPropertyOp60
 70
     1
102
RTVSPropertyOp61
 70
     1
102
RTVSPropertyOp62
 70
     1
  0
XRECORD
  5
4B0
102
{ACAD_REACTORS
330
4AF
102
}
330
4AF
100
AcDbXrecord
280
     1
102
RTVSPost2010Prop28
280
     0
102
RTVSPost2010PropOp28
 70
     1
102
RTVSPost2010Prop29
280
     1
102
RTVSPost2010PropOp29
 70
     1
102
RTVSPost2010Prop30
280
     1
102
RTVSPost2010PropOp30
 70
     1
102
RTVSPost2010Prop31
280
     0
102
RTVSPost2010PropOp31
 70
     1
102
RTVSPost2010Prop32
280
     0
102
RTVSPost2010PropOp32
 70
     1
102
RTVSPost2010Prop33
280
     0
102
RTVSPost2010PropOp33
 70
     1
102
RTVSPost2010Prop34
280
     0
102
RTVSPost2010PropOp34
 70
     1
102
RTVSPost2010Prop35
280
     0
102
RTVSPost2010PropOp35
 70
     1
102
RTVSPost2010Prop36
280
     0
102
RTVSPost2010PropOp36
 70
     1
102
RTVSPost2010Prop37
 90
       50
102
RTVSPost2010PropOp37
 70
     1
102
RTVSPost2010Prop38
140
0.0
102
RTVSPost2010PropOp38
 70
     1
102
RTVSPost2010Prop39
140
1.0
102
RTVSPost2010PropOp39
 70
     1
102
RTVSPost2010Prop40
 90
        0
102
RTVSPost2010PropOp40
 70
     1
102
RTVSPost2010Prop41ColorIndex
 90
       18
102
RTVSPost2010Prop41ColorRGB
 90
        0
102
RTVSPost2010PropOp41
 70
     1
102
RTVSPost2010Prop42
 90
       50
102
RTVSPost2010PropOp42
 70
     1
102
RTVSPost2010Prop43
 90
        3
102
RTVSPost2010PropOp43
 70
     1
102
RTVSPost2010Prop44ColorIndex
 90
        5
102
RTVSPost2010Prop44ColorRGB
 90
      255
102
RTVSPost2010PropOp44
 70
     1
102
RTVSPost2010Prop45
280
     0
102
RTVSPost2010PropOp45
 70
     1
102
RTVSPost2010Prop46
 90
       50
102
RTVSPost2010PropOp46
 70
     1
102
RTVSPost2010Prop47
 90
       50
102
RTVSPost2010PropOp47
 70
     1
102
RTVSPost2010Prop48
 90
       50
102
RTVSPost2010PropOp48
 70
     1
102
RTVSPost2010Prop49
280
     0
102
RTVSPost2010PropOp49
 70
     1
102
RTVSPost2010Prop50
 90
       50
102
RTVSPost2010PropOp50
 70
     1
102
RTVSPost2010Prop51ColorIndex
 90
      256
102
RTVSPost2010Prop51ColorRGB
 90
-16777216
102
RTVSPost2010PropOp51
 70
     0
102
RTVSPost2010Prop52
140
1.0
102
RTVSPost2010PropOp52
 70
     0
102
RTVSPost2010Prop53
 90
        2
102
RTVSPost2010PropOp53
 70
     1
102
RTVSPost2010Prop54
  1
strokes_ogs.tif
102
RTVSPost2010PropOp54
 70
     1
102
RTVSPost2010Prop55
280
     0
102
RTVSPost2010PropOp55
 70
     1
102
RTVSPost2010Prop56
140
1.0
102
RTVSPost2010PropOp56
 70
     1
102
RTVSPost2010Prop57
140
1.0
102
RTVSPost2010PropOp57
 70
     1
102
RTVSPropertyOp0
 70
     1
102
RTVSPropertyOp1
 70
     1
102
RTVSPropertyOp2
 70
     1
102
RTVSPropertyOp3
 70
     1
102
RTVSPropertyOp4
 70
     1
102
RTVSPropertyOp5
 70
     1
102
RTVSPropertyOp6
 70
     1
102
RTVSPropertyOp7
 70
     1
102
RTVSPropertyOp8
 70
     1
102
RTVSPropertyOp9
 70
     1
102
RTVSPropertyOp10
 70
     1
102
RTVSPropertyOp11
 70
     1
102
RTVSPropertyOp12
 70
     1
102
RTVSPropertyOp13
 70
     1
102
RTVSPropertyOp14
 70
     1
102
RTVSPropertyOp15
 70
     1
102
RTVSPropertyOp16
 70
     1
102
RTVSPropertyOp17
 70
     1
102
RTVSPropertyOp18
 70
     1
102
RTVSPropertyOp19
 70
     1
102
RTVSPropertyOp20
 70
     1
102
RTVSPropertyOp21
 70
     1
102
RTVSPropertyOp22
 70
     1
102
RTVSPropertyOp23
 70
     1
102
RTVSPropertyOp24
 70
     1
102
RTVSPropertyOp25
 70
     1
102
RTVSPropertyOp26
 70
     1
102
RTVSPropertyOp27
 70
     1
102
RTVSPropertyOp28
 70
     1
102
RTVSPropertyOp29
 70
     1
102
RTVSPropertyOp30
 70
     1
102
RTVSPropertyOp31
 70
     1
102
RTVSPropertyOp32
 70
     1
102
RTVSPropertyOp33
 70
     1
102
RTVSPropertyOp34
 70
     1
102
RTVSPropertyOp35
 70
     1
102
RTVSPropertyOp36
 70
     1
102
RTVSPropertyOp37
 70
     1
102
RTVSPropertyOp38
 70
     1
102
RTVSPropertyOp39
 70
     1
102
RTVSPropertyOp40
 70
     1
102
RTVSPropertyOp41
 70
     1
102
RTVSPropertyOp42
 70
     1
102
RTVSPropertyOp43
 70
     1
102
RTVSPropertyOp44
 70
     1
102
RTVSPropertyOp45
 70
     1
102
RTVSPropertyOp46
 70
     1
102
RTVSPropertyOp47
 70
     1
102
RTVSPropertyOp48
 70
     1
102
RTVSPropertyOp49
 70
     1
102
RTVSPropertyOp50
 70
     1
102
RTVSPropertyOp51
 70
     0
102
RTVSPropertyOp52
 70
     0
102
RTVSPropertyOp53
 70
     1
102
RTVSPropertyOp54
 70
     1
102
RTVSPropertyOp55
 70
     1
102
RTVSPropertyOp56
 70
     1
102
RTVSPropertyOp57
 70
     1
102
RTVSPropertyOp58
 70
     1
102
RTVSPropertyOp59
 70
     1
102
RTVSPropertyOp60
 70
     1
102
RTVSPropertyOp61
 70
     1
102
RTVSPropertyOp62
 70
     1
  0
XRECORD
  5
4CA
102
{ACAD_REACTORS
330
4C9
102
}
330
4C9
100
AcDbXrecord
280
     1
102
RTVSPost2010Prop28
280
     0
102
RTVSPost2010PropOp28
 70
     1
102
RTVSPost2010Prop29
280
     1
102
RTVSPost2010PropOp29
 70
     1
102
RTVSPost2010Prop30
280
     1
102
RTVSPost2010PropOp30
 70
     1
102
RTVSPost2010Prop31
280
     0
102
RTVSPost2010PropOp31
 70
     1
102
RTVSPost2010Prop32
280
     0
102
RTVSPost2010PropOp32
 70
     1
102
RTVSPost2010Prop33
280
     0
102
RTVSPost2010PropOp33
 70
     1
102
RTVSPost2010Prop34
280
     0
102
RTVSPost2010PropOp34
 70
     1
102
RTVSPost2010Prop35
280
     0
102
RTVSPost2010PropOp35
 70
     1
102
RTVSPost2010Prop36
280
     0
102
RTVSPost2010PropOp36
 70
     1
102
RTVSPost2010Prop37
 90
       50
102
RTVSPost2010PropOp37
 70
     0
102
RTVSPost2010Prop38
140
0.0
102
RTVSPost2010PropOp38
 70
     0
102
RTVSPost2010Prop39
140
1.0
102
RTVSPost2010PropOp39
 70
     0
102
RTVSPost2010Prop40
 90
        0
102
RTVSPost2010PropOp40
 70
     0
102
RTVSPost2010Prop41ColorIndex
 90
       18
102
RTVSPost2010Prop41ColorRGB
 90
        0
102
RTVSPost2010PropOp41
 70
     0
102
RTVSPost2010Prop42
 90
       50
102
RTVSPost2010PropOp42
 70
     0
102
RTVSPost2010Prop43
 90
        3
102
RTVSPost2010PropOp43
 70
     0
102
RTVSPost2010Prop44ColorIndex
 90
        5
102
RTVSPost2010Prop44ColorRGB
 90
      255
102
RTVSPost2010PropOp44
 70
     0
102
RTVSPost2010Prop45
280
     0
102
RTVSPost2010PropOp45
 70
     1
102
RTVSPost2010Prop46
 90
       50
102
RTVSPost2010PropOp46
 70
     0
102
RTVSPost2010Prop47
 90
       50
102
RTVSPost2010PropOp47
 70
     0
102
RTVSPost2010Prop48
 90
       50
102
RTVSPost2010PropOp48
 70
     0
102
RTVSPost2010Prop49
280
     0
102
RTVSPost2010PropOp49
 70
     1
102
RTVSPost2010Prop50
 90
       50
102
RTVSPost2010PropOp50
 70
     0
102
RTVSPost2010Prop51ColorIndex
 90
      256
102
RTVSPost2010Prop51ColorRGB
 90
-16777216
102
RTVSPost2010PropOp51
 70
     0
102
RTVSPost2010Prop52
140
1.0
102
RTVSPost2010PropOp52
 70
     0
102
RTVSPost2010Prop53
 90
        2
102
RTVSPost2010PropOp53
 70
     0
102
RTVSPost2010Prop54
  1
strokes_ogs.tif
102
RTVSPost2010PropOp54
 70
     0
102
RTVSPost2010Prop55
280
     0
102
RTVSPost2010PropOp55
 70
     1
102
RTVSPost2010Prop56
140
1.0
102
RTVSPost2010PropOp56
 70
     0
102
RTVSPost2010Prop57
140
1.0
102
RTVSPost2010PropOp57
 70
     0
102
RTVSPropertyOp0
 70
     0
102
RTVSPropertyOp1
 70
     0
102
RTVSPropertyOp2
 70
     0
102
RTVSPropertyOp3
 70
     0
102
RTVSPropertyOp4
 70
     0
102
RTVSPropertyOp5
 70
     0
102
RTVSPropertyOp6
 70
     0
102
RTVSPropertyOp7
 70
     0
102
RTVSPropertyOp8
 70
     0
102
RTVSPropertyOp9
 70
     0
102
RTVSPropertyOp10
 70
     0
102
RTVSPropertyOp11
 70
     0
102
RTVSPropertyOp12
 70
     0
102
RTVSPropertyOp13
 70
     0
102
RTVSPropertyOp14
 70
     2
102
RTVSPropertyOp15
 70
     0
102
RTVSPropertyOp16
 70
     0
102
RTVSPropertyOp17
 70
     0
102
RTVSPropertyOp18
 70
     0
102
RTVSPropertyOp19
 70
     0
102
RTVSPropertyOp20
 70
     0
102
RTVSPropertyOp21
 70
     0
102
RTVSPropertyOp22
 70
     0
102
RTVSPropertyOp23
 70
     0
102
RTVSPropertyOp24
 70
     0
102
RTVSPropertyOp25
 70
     0
102
RTVSPropertyOp26
 70
     0
102
RTVSPropertyOp27
 70
     0
102
RTVSPropertyOp28
 70
     1
102
RTVSPropertyOp29
 70
     1
102
RTVSPropertyOp30
 70
     1
102
RTVSPropertyOp31
 70
     1
102
RTVSPropertyOp32
 70
     1
102
RTVSPropertyOp33
 70
     1
102
RTVSPropertyOp34
 70
     1
102
RTVSPropertyOp35
 70
     1
102
RTVSPropertyOp36
 70
     1
102
RTVSPropertyOp37
 70
     0
102
RTVSPropertyOp38
 70
     0
102
RTVSPropertyOp39
 70
     0
102
RTVSPropertyOp40
 70
     0
102
RTVSPropertyOp41
 70
     0
102
RTVSPropertyOp42
 70
     0
102
RTVSPropertyOp43
 70
     0
102
RTVSPropertyOp44
 70
     0
102
RTVSPropertyOp45
 70
     1
102
RTVSPropertyOp46
 70
     0
102
RTVSPropertyOp47
 70
     0
102
RTVSPropertyOp48
 70
     0
102
RTVSPropertyOp49
 70
     1
102
RTVSPropertyOp50
 70
     0
102
RTVSPropertyOp51
 70
     0
102
RTVSPropertyOp52
 70
     0
102
RTVSPropertyOp53
 70
     0
102
RTVSPropertyOp54
 70
     0
102
RTVSPropertyOp55
 70
     1
102
RTVSPropertyOp56
 70
     0
102
RTVSPropertyOp57
 70
     0
102
RTVSPropertyOp58
 70
     1
102
RTVSPropertyOp59
 70
     1
102
RTVSPropertyOp60
 70
     1
102
RTVSPropertyOp61
 70
     1
102
RTVSPropertyOp62
 70
     1
  0
XRECORD
  5
4B8
102
{ACAD_REACTORS
330
4B7
102
}
330
4B7
100
AcDbXrecord
280
     1
102
RTVSPost2010Prop28
280
     0
102
RTVSPost2010PropOp28
 70
     1
102
RTVSPost2010Prop29
280
     1
102
RTVSPost2010PropOp29
 70
     1
102
RTVSPost2010Prop30
280
     1
102
RTVSPost2010PropOp30
 70
     1
102
RTVSPost2010Prop31
280
     0
102
RTVSPost2010PropOp31
 70
     1
102
RTVSPost2010Prop32
280
     0
102
RTVSPost2010PropOp32
 70
     1
102
RTVSPost2010Prop33
280
     0
102
RTVSPost2010PropOp33
 70
     1
102
RTVSPost2010Prop34
280
     0
102
RTVSPost2010PropOp34
 70
     1
102
RTVSPost2010Prop35
280
     0
102
RTVSPost2010PropOp35
 70
     1
102
RTVSPost2010Prop36
280
     0
102
RTVSPost2010PropOp36
 70
     1
102
RTVSPost2010Prop37
 90
       50
102
RTVSPost2010PropOp37
 70
     1
102
RTVSPost2010Prop38
140
0.0
102
RTVSPost2010PropOp38
 70
     1
102
RTVSPost2010Prop39
140
1.0
102
RTVSPost2010PropOp39
 70
     1
102
RTVSPost2010Prop40
 90
        0
102
RTVSPost2010PropOp40
 70
     1
102
RTVSPost2010Prop41ColorIndex
 90
       18
102
RTVSPost2010Prop41ColorRGB
 90
        0
102
RTVSPost2010PropOp41
 70
     1
102
RTVSPost2010Prop42
 90
       50
102
RTVSPost2010PropOp42
 70
     1
102
RTVSPost2010Prop43
 90
        3
102
RTVSPost2010PropOp43
 70
     1
102
RTVSPost2010Prop44ColorIndex
 90
        5
102
RTVSPost2010Prop44ColorRGB
 90
      255
102
RTVSPost2010PropOp44
 70
     1
102
RTVSPost2010Prop45
280
     0
102
RTVSPost2010PropOp45
 70
     1
102
RTVSPost2010Prop46
 90
       50
102
RTVSPost2010PropOp46
 70
     1
102
RTVSPost2010Prop47
 90
       50
102
RTVSPost2010PropOp47
 70
     1
102
RTVSPost2010Prop48
 90
       50
102
RTVSPost2010PropOp48
 70
     1
102
RTVSPost2010Prop49
280
     0
102
RTVSPost2010PropOp49
 70
     1
102
RTVSPost2010Prop50
 90
       50
102
RTVSPost2010PropOp50
 70
     1
102
RTVSPost2010Prop51ColorIndex
 90
      256
102
RTVSPost2010Prop51ColorRGB
 90
-16777216
102
RTVSPost2010PropOp51
 70
     0
102
RTVSPost2010Prop52
140
1.0
102
RTVSPost2010PropOp52
 70
     0
102
RTVSPost2010Prop53
 90
        2
102
RTVSPost2010PropOp53
 70
     1
102
RTVSPost2010Prop54
  1
strokes_ogs.tif
102
RTVSPost2010PropOp54
 70
     1
102
RTVSPost2010Prop55
280
     0
102
RTVSPost2010PropOp55
 70
     1
102
RTVSPost2010Prop56
140
1.0
102
RTVSPost2010PropOp56
 70
     1
102
RTVSPost2010Prop57
140
1.0
102
RTVSPost2010PropOp57
 70
     1
102
RTVSPropertyOp0
 70
     1
102
RTVSPropertyOp1
 70
     1
102
RTVSPropertyOp2
 70
     1
102
RTVSPropertyOp3
 70
     1
102
RTVSPropertyOp4
 70
     1
102
RTVSPropertyOp5
 70
     1
102
RTVSPropertyOp6
 70
     1
102
RTVSPropertyOp7
 70
     1
102
RTVSPropertyOp8
 70
     1
102
RTVSPropertyOp9
 70
     1
102
RTVSPropertyOp10
 70
     1
102
RTVSPropertyOp11
 70
     1
102
RTVSPropertyOp12
 70
     1
102
RTVSPropertyOp13
 70
     1
102
RTVSPropertyOp14
 70
     1
102
RTVSPropertyOp15
 70
     1
102
RTVSPropertyOp16
 70
     1
102
RTVSPropertyOp17
 70
     1
102
RTVSPropertyOp18
 70
     1
102
RTVSPropertyOp19
 70
     1
102
RTVSPropertyOp20
 70
     1
102
RTVSPropertyOp21
 70
     1
102
RTVSPropertyOp22
 70
     1
102
RTVSPropertyOp23
 70
     1
102
RTVSPropertyOp24
 70
     1
102
RTVSPropertyOp25
 70
     1
102
RTVSPropertyOp26
 70
     1
102
RTVSPropertyOp27
 70
     1
102
RTVSPropertyOp28
 70
     1
102
RTVSPropertyOp29
 70
     1
102
RTVSPropertyOp30
 70
     1
102
RTVSPropertyOp31
 70
     1
102
RTVSPropertyOp32
 70
     1
102
RTVSPropertyOp33
 70
     1
102
RTVSPropertyOp34
 70
     1
102
RTVSPropertyOp35
 70
     1
102
RTVSPropertyOp36
 70
     1
102
RTVSPropertyOp37
 70
     1
102
RTVSPropertyOp38
 70
     1
102
RTVSPropertyOp39
 70
     1
102
RTVSPropertyOp40
 70
     1
102
RTVSPropertyOp41
 70
     1
102
RTVSPropertyOp42
 70
     1
102
RTVSPropertyOp43
 70
     1
102
RTVSPropertyOp44
 70
     1
102
RTVSPropertyOp45
 70
     1
102
RTVSPropertyOp46
 70
     1
102
RTVSPropertyOp47
 70
     1
102
RTVSPropertyOp48
 70
     1
102
RTVSPropertyOp49
 70
     1
102
RTVSPropertyOp50
 70
     1
102
RTVSPropertyOp51
 70
     0
102
RTVSPropertyOp52
 70
     0
102
RTVSPropertyOp53
 70
     1
102
RTVSPropertyOp54
 70
     1
102
RTVSPropertyOp55
 70
     1
102
RTVSPropertyOp56
 70
     1
102
RTVSPropertyOp57
 70
     1
102
RTVSPropertyOp58
 70
     1
102
RTVSPropertyOp59
 70
     1
102
RTVSPropertyOp60
 70
     1
102
RTVSPropertyOp61
 70
     1
102
RTVSPropertyOp62
 70
     1
  0
XRECORD
  5
49C
102
{ACAD_REACTORS
330
49B
102
}
330
49B
100
AcDbXrecord
280
     1
102
RTVSPost2010Prop28
280
     0
102
RTVSPost2010PropOp28
 70
     1
102
RTVSPost2010Prop29
280
     1
102
RTVSPost2010PropOp29
 70
     1
102
RTVSPost2010Prop30
280
     1
102
RTVSPost2010PropOp30
 70
     1
102
RTVSPost2010Prop31
280
     0
102
RTVSPost2010PropOp31
 70
     1
102
RTVSPost2010Prop32
280
     0
102
RTVSPost2010PropOp32
 70
     1
102
RTVSPost2010Prop33
280
     0
102
RTVSPost2010PropOp33
 70
     1
102
RTVSPost2010Prop34
280
     0
102
RTVSPost2010PropOp34
 70
     1
102
RTVSPost2010Prop35
280
     0
102
RTVSPost2010PropOp35
 70
     1
102
RTVSPost2010Prop36
280
     0
102
RTVSPost2010PropOp36
 70
     1
102
RTVSPost2010Prop37
 90
       50
102
RTVSPost2010PropOp37
 70
     1
102
RTVSPost2010Prop38
140
0.0
102
RTVSPost2010PropOp38
 70
     1
102
RTVSPost2010Prop39
140
1.0
102
RTVSPost2010PropOp39
 70
     1
102
RTVSPost2010Prop40
 90
        0
102
RTVSPost2010PropOp40
 70
     1
102
RTVSPost2010Prop41ColorIndex
 90
       18
102
RTVSPost2010Prop41ColorRGB
 90
        0
102
RTVSPost2010PropOp41
 70
     1
102
RTVSPost2010Prop42
 90
       50
102
RTVSPost2010PropOp42
 70
     1
102
RTVSPost2010Prop43
 90
        3
102
RTVSPost2010PropOp43
 70
     1
102
RTVSPost2010Prop44ColorIndex
 90
        5
102
RTVSPost2010Prop44ColorRGB
 90
      255
102
RTVSPost2010PropOp44
 70
     1
102
RTVSPost2010Prop45
280
     0
102
RTVSPost2010PropOp45
 70
     1
102
RTVSPost2010Prop46
 90
       50
102
RTVSPost2010PropOp46
 70
     1
102
RTVSPost2010Prop47
 90
       50
102
RTVSPost2010PropOp47
 70
     1
102
RTVSPost2010Prop48
 90
       50
102
RTVSPost2010PropOp48
 70
     1
102
RTVSPost2010Prop49
280
     0
102
RTVSPost2010PropOp49
 70
     1
102
RTVSPost2010Prop50
 90
       50
102
RTVSPost2010PropOp50
 70
     1
102
RTVSPost2010Prop51ColorIndex
 90
      256
102
RTVSPost2010Prop51ColorRGB
 90
-16777216
102
RTVSPost2010PropOp51
 70
     0
102
RTVSPost2010Prop52
140
1.0
102
RTVSPost2010PropOp52
 70
     0
102
RTVSPost2010Prop53
 90
        2
102
RTVSPost2010PropOp53
 70
     1
102
RTVSPost2010Prop54
  1
strokes_ogs.tif
102
RTVSPost2010PropOp54
 70
     1
102
RTVSPost2010Prop55
280
     0
102
RTVSPost2010PropOp55
 70
     1
102
RTVSPost2010Prop56
140
1.0
102
RTVSPost2010PropOp56
 70
     1
102
RTVSPost2010Prop57
140
1.0
102
RTVSPost2010PropOp57
 70
     1
102
RTVSPropertyOp0
 70
     1
102
RTVSPropertyOp1
 70
     1
102
RTVSPropertyOp2
 70
     1
102
RTVSPropertyOp3
 70
     1
102
RTVSPropertyOp4
 70
     1
102
RTVSPropertyOp5
 70
     1
102
RTVSPropertyOp6
 70
     1
102
RTVSPropertyOp7
 70
     1
102
RTVSPropertyOp8
 70
     1
102
RTVSPropertyOp9
 70
     1
102
RTVSPropertyOp10
 70
     1
102
RTVSPropertyOp11
 70
     1
102
RTVSPropertyOp12
 70
     1
102
RTVSPropertyOp13
 70
     1
102
RTVSPropertyOp14
 70
     1
102
RTVSPropertyOp15
 70
     1
102
RTVSPropertyOp16
 70
     1
102
RTVSPropertyOp17
 70
     1
102
RTVSPropertyOp18
 70
     1
102
RTVSPropertyOp19
 70
     1
102
RTVSPropertyOp20
 70
     1
102
RTVSPropertyOp21
 70
     1
102
RTVSPropertyOp22
 70
     1
102
RTVSPropertyOp23
 70
     1
102
RTVSPropertyOp24
 70
     1
102
RTVSPropertyOp25
 70
     1
102
RTVSPropertyOp26
 70
     1
102
RTVSPropertyOp27
 70
     1
102
RTVSPropertyOp28
 70
     1
102
RTVSPropertyOp29
 70
     1
102
RTVSPropertyOp30
 70
     1
102
RTVSPropertyOp31
 70
     1
102
RTVSPropertyOp32
 70
     1
102
RTVSPropertyOp33
 70
     1
102
RTVSPropertyOp34
 70
     1
102
RTVSPropertyOp35
 70
     1
102
RTVSPropertyOp36
 70
     1
102
RTVSPropertyOp37
 70
     1
102
RTVSPropertyOp38
 70
     1
102
RTVSPropertyOp39
 70
     1
102
RTVSPropertyOp40
 70
     1
102
RTVSPropertyOp41
 70
     1
102
RTVSPropertyOp42
 70
     1
102
RTVSPropertyOp43
 70
     1
102
RTVSPropertyOp44
 70
     1
102
RTVSPropertyOp45
 70
     1
102
RTVSPropertyOp46
 70
     1
102
RTVSPropertyOp47
 70
     1
102
RTVSPropertyOp48
 70
     1
102
RTVSPropertyOp49
 70
     1
102
RTVSPropertyOp50
 70
     1
102
RTVSPropertyOp51
 70
     0
102
RTVSPropertyOp52
 70
     0
102
RTVSPropertyOp53
 70
     1
102
RTVSPropertyOp54
 70
     1
102
RTVSPropertyOp55
 70
     1
102
RTVSPropertyOp56
 70
     1
102
RTVSPropertyOp57
 70
     1
102
RTVSPropertyOp58
 70
     1
102
RTVSPropertyOp59
 70
     1
102
RTVSPropertyOp60
 70
     1
102
RTVSPropertyOp61
 70
     1
102
RTVSPropertyOp62
 70
     1
  0
XRECORD
  5
49E
102
{ACAD_REACTORS
330
49D
102
}
330
49D
100
AcDbXrecord
280
     1
102
RTVSPost2010Prop28
280
     0
102
RTVSPost2010PropOp28
 70
     1
102
RTVSPost2010Prop29
280
     1
102
RTVSPost2010PropOp29
 70
     1
102
RTVSPost2010Prop30
280
     1
102
RTVSPost2010PropOp30
 70
     1
102
RTVSPost2010Prop31
280
     0
102
RTVSPost2010PropOp31
 70
     1
102
RTVSPost2010Prop32
280
     0
102
RTVSPost2010PropOp32
 70
     1
102
RTVSPost2010Prop33
280
     0
102
RTVSPost2010PropOp33
 70
     1
102
RTVSPost2010Prop34
280
     0
102
RTVSPost2010PropOp34
 70
     1
102
RTVSPost2010Prop35
280
     0
102
RTVSPost2010PropOp35
 70
     1
102
RTVSPost2010Prop36
280
     0
102
RTVSPost2010PropOp36
 70
     1
102
RTVSPost2010Prop37
 90
       50
102
RTVSPost2010PropOp37
 70
     1
102
RTVSPost2010Prop38
140
0.0
102
RTVSPost2010PropOp38
 70
     1
102
RTVSPost2010Prop39
140
1.0
102
RTVSPost2010PropOp39
 70
     1
102
RTVSPost2010Prop40
 90
        0
102
RTVSPost2010PropOp40
 70
     1
102
RTVSPost2010Prop41ColorIndex
 90
       18
102
RTVSPost2010Prop41ColorRGB
 90
        0
102
RTVSPost2010PropOp41
 70
     1
102
RTVSPost2010Prop42
 90
       50
102
RTVSPost2010PropOp42
 70
     1
102
RTVSPost2010Prop43
 90
        3
102
RTVSPost2010PropOp43
 70
     1
102
RTVSPost2010Prop44ColorIndex
 90
        5
102
RTVSPost2010Prop44ColorRGB
 90
      255
102
RTVSPost2010PropOp44
 70
     1
102
RTVSPost2010Prop45
280
     0
102
RTVSPost2010PropOp45
 70
     1
102
RTVSPost2010Prop46
 90
       50
102
RTVSPost2010PropOp46
 70
     1
102
RTVSPost2010Prop47
 90
       50
102
RTVSPost2010PropOp47
 70
     1
102
RTVSPost2010Prop48
 90
       50
102
RTVSPost2010PropOp48
 70
     1
102
RTVSPost2010Prop49
280
     0
102
RTVSPost2010PropOp49
 70
     1
102
RTVSPost2010Prop50
 90
       50
102
RTVSPost2010PropOp50
 70
     1
102
RTVSPost2010Prop51ColorIndex
 90
      256
102
RTVSPost2010Prop51ColorRGB
 90
-16777216
102
RTVSPost2010PropOp51
 70
     0
102
RTVSPost2010Prop52
140
1.0
102
RTVSPost2010PropOp52
 70
     0
102
RTVSPost2010Prop53
 90
        2
102
RTVSPost2010PropOp53
 70
     1
102
RTVSPost2010Prop54
  1
strokes_ogs.tif
102
RTVSPost2010PropOp54
 70
     1
102
RTVSPost2010Prop55
280
     0
102
RTVSPost2010PropOp55
 70
     1
102
RTVSPost2010Prop56
140
1.0
102
RTVSPost2010PropOp56
 70
     1
102
RTVSPost2010Prop57
140
1.0
102
RTVSPost2010PropOp57
 70
     1
102
RTVSPropertyOp0
 70
     1
102
RTVSPropertyOp1
 70
     1
102
RTVSPropertyOp2
 70
     1
102
RTVSPropertyOp3
 70
     1
102
RTVSPropertyOp4
 70
     1
102
RTVSPropertyOp5
 70
     1
102
RTVSPropertyOp6
 70
     1
102
RTVSPropertyOp7
 70
     1
102
RTVSPropertyOp8
 70
     1
102
RTVSPropertyOp9
 70
     1
102
RTVSPropertyOp10
 70
     1
102
RTVSPropertyOp11
 70
     1
102
RTVSPropertyOp12
 70
     1
102
RTVSPropertyOp13
 70
     1
102
RTVSPropertyOp14
 70
     1
102
RTVSPropertyOp15
 70
     1
102
RTVSPropertyOp16
 70
     1
102
RTVSPropertyOp17
 70
     1
102
RTVSPropertyOp18
 70
     1
102
RTVSPropertyOp19
 70
     1
102
RTVSPropertyOp20
 70
     1
102
RTVSPropertyOp21
 70
     1
102
RTVSPropertyOp22
 70
     1
102
RTVSPropertyOp23
 70
     1
102
RTVSPropertyOp24
 70
     1
102
RTVSPropertyOp25
 70
     1
102
RTVSPropertyOp26
 70
     1
102
RTVSPropertyOp27
 70
     1
102
RTVSPropertyOp28
 70
     1
102
RTVSPropertyOp29
 70
     1
102
RTVSPropertyOp30
 70
     1
102
RTVSPropertyOp31
 70
     1
102
RTVSPropertyOp32
 70
     1
102
RTVSPropertyOp33
 70
     1
102
RTVSPropertyOp34
 70
     1
102
RTVSPropertyOp35
 70
     1
102
RTVSPropertyOp36
 70
     1
102
RTVSPropertyOp37
 70
     1
102
RTVSPropertyOp38
 70
     1
102
RTVSPropertyOp39
 70
     1
102
RTVSPropertyOp40
 70
     1
102
RTVSPropertyOp41
 70
     1
102
RTVSPropertyOp42
 70
     1
102
RTVSPropertyOp43
 70
     1
102
RTVSPropertyOp44
 70
     1
102
RTVSPropertyOp45
 70
     1
102
RTVSPropertyOp46
 70
     1
102
RTVSPropertyOp47
 70
     1
102
RTVSPropertyOp48
 70
     1
102
RTVSPropertyOp49
 70
     1
102
RTVSPropertyOp50
 70
     1
102
RTVSPropertyOp51
 70
     0
102
RTVSPropertyOp52
 70
     0
102
RTVSPropertyOp53
 70
     1
102
RTVSPropertyOp54
 70
     1
102
RTVSPropertyOp55
 70
     1
102
RTVSPropertyOp56
 70
     1
102
RTVSPropertyOp57
 70
     1
102
RTVSPropertyOp58
 70
     1
102
RTVSPropertyOp59
 70
     1
102
RTVSPropertyOp60
 70
     1
102
RTVSPropertyOp61
 70
     1
102
RTVSPropertyOp62
 70
     1
  0
XRECORD
  5
4A0
102
{ACAD_REACTORS
330
49F
102
}
330
49F
100
AcDbXrecord
280
     1
102
RTVSPost2010Prop28
280
     0
102
RTVSPost2010PropOp28
 70
     1
102
RTVSPost2010Prop29
280
     1
102
RTVSPost2010PropOp29
 70
     1
102
RTVSPost2010Prop30
280
     1
102
RTVSPost2010PropOp30
 70
     1
102
RTVSPost2010Prop31
280
     0
102
RTVSPost2010PropOp31
 70
     1
102
RTVSPost2010Prop32
280
     0
102
RTVSPost2010PropOp32
 70
     1
102
RTVSPost2010Prop33
280
     0
102
RTVSPost2010PropOp33
 70
     1
102
RTVSPost2010Prop34
280
     0
102
RTVSPost2010PropOp34
 70
     1
102
RTVSPost2010Prop35
280
     0
102
RTVSPost2010PropOp35
 70
     1
102
RTVSPost2010Prop36
280
     0
102
RTVSPost2010PropOp36
 70
     1
102
RTVSPost2010Prop37
 90
       50
102
RTVSPost2010PropOp37
 70
     1
102
RTVSPost2010Prop38
140
0.0
102
RTVSPost2010PropOp38
 70
     1
102
RTVSPost2010Prop39
140
1.0
102
RTVSPost2010PropOp39
 70
     1
102
RTVSPost2010Prop40
 90
        0
102
RTVSPost2010PropOp40
 70
     1
102
RTVSPost2010Prop41ColorIndex
 90
       18
102
RTVSPost2010Prop41ColorRGB
 90
        0
102
RTVSPost2010PropOp41
 70
     1
102
RTVSPost2010Prop42
 90
       50
102
RTVSPost2010PropOp42
 70
     1
102
RTVSPost2010Prop43
 90
        3
102
RTVSPost2010PropOp43
 70
     1
102
RTVSPost2010Prop44ColorIndex
 90
        5
102
RTVSPost2010Prop44ColorRGB
 90
      255
102
RTVSPost2010PropOp44
 70
     1
102
RTVSPost2010Prop45
280
     0
102
RTVSPost2010PropOp45
 70
     1
102
RTVSPost2010Prop46
 90
       50
102
RTVSPost2010PropOp46
 70
     1
102
RTVSPost2010Prop47
 90
       50
102
RTVSPost2010PropOp47
 70
     1
102
RTVSPost2010Prop48
 90
       50
102
RTVSPost2010PropOp48
 70
     1
102
RTVSPost2010Prop49
280
     0
102
RTVSPost2010PropOp49
 70
     1
102
RTVSPost2010Prop50
 90
       50
102
RTVSPost2010PropOp50
 70
     1
102
RTVSPost2010Prop51ColorIndex
 90
      256
102
RTVSPost2010Prop51ColorRGB
 90
-16777216
102
RTVSPost2010PropOp51
 70
     0
102
RTVSPost2010Prop52
140
1.0
102
RTVSPost2010PropOp52
 70
     0
102
RTVSPost2010Prop53
 90
        2
102
RTVSPost2010PropOp53
 70
     1
102
RTVSPost2010Prop54
  1
strokes_ogs.tif
102
RTVSPost2010PropOp54
 70
     1
102
RTVSPost2010Prop55
280
     0
102
RTVSPost2010PropOp55
 70
     1
102
RTVSPost2010Prop56
140
1.0
102
RTVSPost2010PropOp56
 70
     1
102
RTVSPost2010Prop57
140
1.0
102
RTVSPost2010PropOp57
 70
     1
102
RTVSPropertyOp0
 70
     1
102
RTVSPropertyOp1
 70
     1
102
RTVSPropertyOp2
 70
     1
102
RTVSPropertyOp3
 70
     1
102
RTVSPropertyOp4
 70
     1
102
RTVSPropertyOp5
 70
     1
102
RTVSPropertyOp6
 70
     1
102
RTVSPropertyOp7
 70
     1
102
RTVSPropertyOp8
 70
     1
102
RTVSPropertyOp9
 70
     1
102
RTVSPropertyOp10
 70
     1
102
RTVSPropertyOp11
 70
     1
102
RTVSPropertyOp12
 70
     1
102
RTVSPropertyOp13
 70
     1
102
RTVSPropertyOp14
 70
     1
102
RTVSPropertyOp15
 70
     1
102
RTVSPropertyOp16
 70
     1
102
RTVSPropertyOp17
 70
     1
102
RTVSPropertyOp18
 70
     1
102
RTVSPropertyOp19
 70
     1
102
RTVSPropertyOp20
 70
     1
102
RTVSPropertyOp21
 70
     1
102
RTVSPropertyOp22
 70
     1
102
RTVSPropertyOp23
 70
     1
102
RTVSPropertyOp24
 70
     1
102
RTVSPropertyOp25
 70
     1
102
RTVSPropertyOp26
 70
     1
102
RTVSPropertyOp27
 70
     1
102
RTVSPropertyOp28
 70
     1
102
RTVSPropertyOp29
 70
     1
102
RTVSPropertyOp30
 70
     1
102
RTVSPropertyOp31
 70
     1
102
RTVSPropertyOp32
 70
     1
102
RTVSPropertyOp33
 70
     1
102
RTVSPropertyOp34
 70
     1
102
RTVSPropertyOp35
 70
     1
102
RTVSPropertyOp36
 70
     1
102
RTVSPropertyOp37
 70
     1
102
RTVSPropertyOp38
 70
     1
102
RTVSPropertyOp39
 70
     1
102
RTVSPropertyOp40
 70
     1
102
RTVSPropertyOp41
 70
     1
102
RTVSPropertyOp42
 70
     1
102
RTVSPropertyOp43
 70
     1
102
RTVSPropertyOp44
 70
     1
102
RTVSPropertyOp45
 70
     1
102
RTVSPropertyOp46
 70
     1
102
RTVSPropertyOp47
 70
     1
102
RTVSPropertyOp48
 70
     1
102
RTVSPropertyOp49
 70
     1
102
RTVSPropertyOp50
 70
     1
102
RTVSPropertyOp51
 70
     0
102
RTVSPropertyOp52
 70
     0
102
RTVSPropertyOp53
 70
     1
102
RTVSPropertyOp54
 70
     1
102
RTVSPropertyOp55
 70
     1
102
RTVSPropertyOp56
 70
     1
102
RTVSPropertyOp57
 70
     1
102
RTVSPropertyOp58
 70
     1
102
RTVSPropertyOp59
 70
     1
102
RTVSPropertyOp60
 70
     1
102
RTVSPropertyOp61
 70
     1
102
RTVSPropertyOp62
 70
     1
  0
XRECORD
  5
4A2
102
{ACAD_REACTORS
330
4A1
102
}
330
4A1
100
AcDbXrecord
280
     1
102
RTVSPost2010Prop28
280
     0
102
RTVSPost2010PropOp28
 70
     1
102
RTVSPost2010Prop29
280
     1
102
RTVSPost2010PropOp29
 70
     1
102
RTVSPost2010Prop30
280
     1
102
RTVSPost2010PropOp30
 70
     1
102
RTVSPost2010Prop31
280
     0
102
RTVSPost2010PropOp31
 70
     1
102
RTVSPost2010Prop32
280
     0
102
RTVSPost2010PropOp32
 70
     1
102
RTVSPost2010Prop33
280
     0
102
RTVSPost2010PropOp33
 70
     1
102
RTVSPost2010Prop34
280
     0
102
RTVSPost2010PropOp34
 70
     1
102
RTVSPost2010Prop35
280
     0
102
RTVSPost2010PropOp35
 70
     1
102
RTVSPost2010Prop36
280
     0
102
RTVSPost2010PropOp36
 70
     1
102
RTVSPost2010Prop37
 90
       50
102
RTVSPost2010PropOp37
 70
     1
102
RTVSPost2010Prop38
140
0.0
102
RTVSPost2010PropOp38
 70
     1
102
RTVSPost2010Prop39
140
1.0
102
RTVSPost2010PropOp39
 70
     1
102
RTVSPost2010Prop40
 90
        0
102
RTVSPost2010PropOp40
 70
     1
102
RTVSPost2010Prop41ColorIndex
 90
       18
102
RTVSPost2010Prop41ColorRGB
 90
        0
102
RTVSPost2010PropOp41
 70
     1
102
RTVSPost2010Prop42
 90
       50
102
RTVSPost2010PropOp42
 70
     1
102
RTVSPost2010Prop43
 90
        3
102
RTVSPost2010PropOp43
 70
     1
102
RTVSPost2010Prop44ColorIndex
 90
        5
102
RTVSPost2010Prop44ColorRGB
 90
      255
102
RTVSPost2010PropOp44
 70
     1
102
RTVSPost2010Prop45
280
     0
102
RTVSPost2010PropOp45
 70
     1
102
RTVSPost2010Prop46
 90
       50
102
RTVSPost2010PropOp46
 70
     1
102
RTVSPost2010Prop47
 90
       50
102
RTVSPost2010PropOp47
 70
     1
102
RTVSPost2010Prop48
 90
       50
102
RTVSPost2010PropOp48
 70
     1
102
RTVSPost2010Prop49
280
     0
102
RTVSPost2010PropOp49
 70
     1
102
RTVSPost2010Prop50
 90
       50
102
RTVSPost2010PropOp50
 70
     1
102
RTVSPost2010Prop51ColorIndex
 90
      256
102
RTVSPost2010Prop51ColorRGB
 90
-16777216
102
RTVSPost2010PropOp51
 70
     0
102
RTVSPost2010Prop52
140
1.0
102
RTVSPost2010PropOp52
 70
     0
102
RTVSPost2010Prop53
 90
        2
102
RTVSPost2010PropOp53
 70
     1
102
RTVSPost2010Prop54
  1
strokes_ogs.tif
102
RTVSPost2010PropOp54
 70
     1
102
RTVSPost2010Prop55
280
     0
102
RTVSPost2010PropOp55
 70
     1
102
RTVSPost2010Prop56
140
1.0
102
RTVSPost2010PropOp56
 70
     1
102
RTVSPost2010Prop57
140
1.0
102
RTVSPost2010PropOp57
 70
     1
102
RTVSPropertyOp0
 70
     1
102
RTVSPropertyOp1
 70
     1
102
RTVSPropertyOp2
 70
     1
102
RTVSPropertyOp3
 70
     1
102
RTVSPropertyOp4
 70
     1
102
RTVSPropertyOp5
 70
     1
102
RTVSPropertyOp6
 70
     1
102
RTVSPropertyOp7
 70
     1
102
RTVSPropertyOp8
 70
     1
102
RTVSPropertyOp9
 70
     1
102
RTVSPropertyOp10
 70
     1
102
RTVSPropertyOp11
 70
     1
102
RTVSPropertyOp12
 70
     1
102
RTVSPropertyOp13
 70
     1
102
RTVSPropertyOp14
 70
     1
102
RTVSPropertyOp15
 70
     1
102
RTVSPropertyOp16
 70
     1
102
RTVSPropertyOp17
 70
     1
102
RTVSPropertyOp18
 70
     1
102
RTVSPropertyOp19
 70
     1
102
RTVSPropertyOp20
 70
     1
102
RTVSPropertyOp21
 70
     1
102
RTVSPropertyOp22
 70
     1
102
RTVSPropertyOp23
 70
     1
102
RTVSPropertyOp24
 70
     1
102
RTVSPropertyOp25
 70
     1
102
RTVSPropertyOp26
 70
     1
102
RTVSPropertyOp27
 70
     1
102
RTVSPropertyOp28
 70
     1
102
RTVSPropertyOp29
 70
     1
102
RTVSPropertyOp30
 70
     1
102
RTVSPropertyOp31
 70
     1
102
RTVSPropertyOp32
 70
     1
102
RTVSPropertyOp33
 70
     1
102
RTVSPropertyOp34
 70
     1
102
RTVSPropertyOp35
 70
     1
102
RTVSPropertyOp36
 70
     1
102
RTVSPropertyOp37
 70
     1
102
RTVSPropertyOp38
 70
     1
102
RTVSPropertyOp39
 70
     1
102
RTVSPropertyOp40
 70
     1
102
RTVSPropertyOp41
 70
     1
102
RTVSPropertyOp42
 70
     1
102
RTVSPropertyOp43
 70
     1
102
RTVSPropertyOp44
 70
     1
102
RTVSPropertyOp45
 70
     1
102
RTVSPropertyOp46
 70
     1
102
RTVSPropertyOp47
 70
     1
102
RTVSPropertyOp48
 70
     1
102
RTVSPropertyOp49
 70
     1
102
RTVSPropertyOp50
 70
     1
102
RTVSPropertyOp51
 70
     0
102
RTVSPropertyOp52
 70
     0
102
RTVSPropertyOp53
 70
     1
102
RTVSPropertyOp54
 70
     1
102
RTVSPropertyOp55
 70
     1
102
RTVSPropertyOp56
 70
     1
102
RTVSPropertyOp57
 70
     1
102
RTVSPropertyOp58
 70
     1
102
RTVSPropertyOp59
 70
     1
102
RTVSPropertyOp60
 70
     1
102
RTVSPropertyOp61
 70
     1
102
RTVSPropertyOp62
 70
     1
  0
XRECORD
  5
4AA
102
{ACAD_REACTORS
330
4A9
102
}
330
4A9
100
AcDbXrecord
280
     1
102
RTVSPost2010Prop28
280
     0
102
RTVSPost2010PropOp28
 70
     1
102
RTVSPost2010Prop29
280
     1
102
RTVSPost2010PropOp29
 70
     1
102
RTVSPost2010Prop30
280
     1
102
RTVSPost2010PropOp30
 70
     1
102
RTVSPost2010Prop31
280
     0
102
RTVSPost2010PropOp31
 70
     1
102
RTVSPost2010Prop32
280
     0
102
RTVSPost2010PropOp32
 70
     1
102
RTVSPost2010Prop33
280
     0
102
RTVSPost2010PropOp33
 70
     1
102
RTVSPost2010Prop34
280
     0
102
RTVSPost2010PropOp34
 70
     1
102
RTVSPost2010Prop35
280
     0
102
RTVSPost2010PropOp35
 70
     1
102
RTVSPost2010Prop36
280
     0
102
RTVSPost2010PropOp36
 70
     1
102
RTVSPost2010Prop37
 90
       50
102
RTVSPost2010PropOp37
 70
     1
102
RTVSPost2010Prop38
140
0.0
102
RTVSPost2010PropOp38
 70
     1
102
RTVSPost2010Prop39
140
1.0
102
RTVSPost2010PropOp39
 70
     1
102
RTVSPost2010Prop40
 90
        0
102
RTVSPost2010PropOp40
 70
     1
102
RTVSPost2010Prop41ColorIndex
 90
       18
102
RTVSPost2010Prop41ColorRGB
 90
        0
102
RTVSPost2010PropOp41
 70
     1
102
RTVSPost2010Prop42
 90
       50
102
RTVSPost2010PropOp42
 70
     1
102
RTVSPost2010Prop43
 90
        3
102
RTVSPost2010PropOp43
 70
     1
102
RTVSPost2010Prop44ColorIndex
 90
        5
102
RTVSPost2010Prop44ColorRGB
 90
      255
102
RTVSPost2010PropOp44
 70
     1
102
RTVSPost2010Prop45
280
     0
102
RTVSPost2010PropOp45
 70
     1
102
RTVSPost2010Prop46
 90
       50
102
RTVSPost2010PropOp46
 70
     1
102
RTVSPost2010Prop47
 90
       50
102
RTVSPost2010PropOp47
 70
     1
102
RTVSPost2010Prop48
 90
       50
102
RTVSPost2010PropOp48
 70
     1
102
RTVSPost2010Prop49
280
     0
102
RTVSPost2010PropOp49
 70
     1
102
RTVSPost2010Prop50
 90
       50
102
RTVSPost2010PropOp50
 70
     1
102
RTVSPost2010Prop51ColorIndex
 90
      256
102
RTVSPost2010Prop51ColorRGB
 90
-16777216
102
RTVSPost2010PropOp51
 70
     0
102
RTVSPost2010Prop52
140
1.0
102
RTVSPost2010PropOp52
 70
     0
102
RTVSPost2010Prop53
 90
        2
102
RTVSPost2010PropOp53
 70
     1
102
RTVSPost2010Prop54
  1
strokes_ogs.tif
102
RTVSPost2010PropOp54
 70
     1
102
RTVSPost2010Prop55
280
     0
102
RTVSPost2010PropOp55
 70
     1
102
RTVSPost2010Prop56
140
1.0
102
RTVSPost2010PropOp56
 70
     1
102
RTVSPost2010Prop57
140
1.0
102
RTVSPost2010PropOp57
 70
     1
102
RTVSPropertyOp0
 70
     1
102
RTVSPropertyOp1
 70
     1
102
RTVSPropertyOp2
 70
     1
102
RTVSPropertyOp3
 70
     1
102
RTVSPropertyOp4
 70
     1
102
RTVSPropertyOp5
 70
     1
102
RTVSPropertyOp6
 70
     1
102
RTVSPropertyOp7
 70
     1
102
RTVSPropertyOp8
 70
     1
102
RTVSPropertyOp9
 70
     1
102
RTVSPropertyOp10
 70
     1
102
RTVSPropertyOp11
 70
     1
102
RTVSPropertyOp12
 70
     1
102
RTVSPropertyOp13
 70
     1
102
RTVSPropertyOp14
 70
     1
102
RTVSPropertyOp15
 70
     1
102
RTVSPropertyOp16
 70
     1
102
RTVSPropertyOp17
 70
     1
102
RTVSPropertyOp18
 70
     1
102
RTVSPropertyOp19
 70
     1
102
RTVSPropertyOp20
 70
     1
102
RTVSPropertyOp21
 70
     1
102
RTVSPropertyOp22
 70
     1
102
RTVSPropertyOp23
 70
     1
102
RTVSPropertyOp24
 70
     1
102
RTVSPropertyOp25
 70
     1
102
RTVSPropertyOp26
 70
     1
102
RTVSPropertyOp27
 70
     1
102
RTVSPropertyOp28
 70
     1
102
RTVSPropertyOp29
 70
     1
102
RTVSPropertyOp30
 70
     1
102
RTVSPropertyOp31
 70
     1
102
RTVSPropertyOp32
 70
     1
102
RTVSPropertyOp33
 70
     1
102
RTVSPropertyOp34
 70
     1
102
RTVSPropertyOp35
 70
     1
102
RTVSPropertyOp36
 70
     1
102
RTVSPropertyOp37
 70
     1
102
RTVSPropertyOp38
 70
     1
102
RTVSPropertyOp39
 70
     1
102
RTVSPropertyOp40
 70
     1
102
RTVSPropertyOp41
 70
     1
102
RTVSPropertyOp42
 70
     1
102
RTVSPropertyOp43
 70
     1
102
RTVSPropertyOp44
 70
     1
102
RTVSPropertyOp45
 70
     1
102
RTVSPropertyOp46
 70
     1
102
RTVSPropertyOp47
 70
     1
102
RTVSPropertyOp48
 70
     1
102
RTVSPropertyOp49
 70
     1
102
RTVSPropertyOp50
 70
     1
102
RTVSPropertyOp51
 70
     0
102
RTVSPropertyOp52
 70
     0
102
RTVSPropertyOp53
 70
     1
102
RTVSPropertyOp54
 70
     1
102
RTVSPropertyOp55
 70
     1
102
RTVSPropertyOp56
 70
     1
102
RTVSPropertyOp57
 70
     1
102
RTVSPropertyOp58
 70
     1
102
RTVSPropertyOp59
 70
     1
102
RTVSPropertyOp60
 70
     1
102
RTVSPropertyOp61
 70
     1
102
RTVSPropertyOp62
 70
     1
  0
XRECORD
  5
4C6
102
{ACAD_REACTORS
330
4C5
102
}
330
4C5
100
AcDbXrecord
280
     1
102
RTVSPost2010Prop28
280
     0
102
RTVSPost2010PropOp28
 70
     1
102
RTVSPost2010Prop29
280
     1
102
RTVSPost2010PropOp29
 70
     1
102
RTVSPost2010Prop30
280
     1
102
RTVSPost2010PropOp30
 70
     1
102
RTVSPost2010Prop31
280
     0
102
RTVSPost2010PropOp31
 70
     1
102
RTVSPost2010Prop32
280
     0
102
RTVSPost2010PropOp32
 70
     1
102
RTVSPost2010Prop33
280
     0
102
RTVSPost2010PropOp33
 70
     1
102
RTVSPost2010Prop34
280
     0
102
RTVSPost2010PropOp34
 70
     1
102
RTVSPost2010Prop35
280
     0
102
RTVSPost2010PropOp35
 70
     1
102
RTVSPost2010Prop36
280
     0
102
RTVSPost2010PropOp36
 70
     1
102
RTVSPost2010Prop37
 90
       50
102
RTVSPost2010PropOp37
 70
     0
102
RTVSPost2010Prop38
140
0.0
102
RTVSPost2010PropOp38
 70
     0
102
RTVSPost2010Prop39
140
1.0
102
RTVSPost2010PropOp39
 70
     0
102
RTVSPost2010Prop40
 90
        0
102
RTVSPost2010PropOp40
 70
     0
102
RTVSPost2010Prop41ColorIndex
 90
       18
102
RTVSPost2010Prop41ColorRGB
 90
        0
102
RTVSPost2010PropOp41
 70
     0
102
RTVSPost2010Prop42
 90
       50
102
RTVSPost2010PropOp42
 70
     0
102
RTVSPost2010Prop43
 90
        3
102
RTVSPost2010PropOp43
 70
     0
102
RTVSPost2010Prop44ColorIndex
 90
        5
102
RTVSPost2010Prop44ColorRGB
 90
      255
102
RTVSPost2010PropOp44
 70
     0
102
RTVSPost2010Prop45
280
     0
102
RTVSPost2010PropOp45
 70
     1
102
RTVSPost2010Prop46
 90
       50
102
RTVSPost2010PropOp46
 70
     0
102
RTVSPost2010Prop47
 90
       50
102
RTVSPost2010PropOp47
 70
     0
102
RTVSPost2010Prop48
 90
       50
102
RTVSPost2010PropOp48
 70
     0
102
RTVSPost2010Prop49
280
     0
102
RTVSPost2010PropOp49
 70
     1
102
RTVSPost2010Prop50
 90
       50
102
RTVSPost2010PropOp50
 70
     0
102
RTVSPost2010Prop51ColorIndex
 90
      256
102
RTVSPost2010Prop51ColorRGB
 90
-16777216
102
RTVSPost2010PropOp51
 70
     0
102
RTVSPost2010Prop52
140
1.0
102
RTVSPost2010PropOp52
 70
     0
102
RTVSPost2010Prop53
 90
        2
102
RTVSPost2010PropOp53
 70
     0
102
RTVSPost2010Prop54
  1
strokes_ogs.tif
102
RTVSPost2010PropOp54
 70
     0
102
RTVSPost2010Prop55
280
     0
102
RTVSPost2010PropOp55
 70
     1
102
RTVSPost2010Prop56
140
1.0
102
RTVSPost2010PropOp56
 70
     0
102
RTVSPost2010Prop57
140
1.0
102
RTVSPost2010PropOp57
 70
     0
102
RTVSPropertyOp0
 70
     0
102
RTVSPropertyOp1
 70
     0
102
RTVSPropertyOp2
 70
     0
102
RTVSPropertyOp3
 70
     0
102
RTVSPropertyOp4
 70
     0
102
RTVSPropertyOp5
 70
     0
102
RTVSPropertyOp6
 70
     0
102
RTVSPropertyOp7
 70
     0
102
RTVSPropertyOp8
 70
     0
102
RTVSPropertyOp9
 70
     0
102
RTVSPropertyOp10
 70
     0
102
RTVSPropertyOp11
 70
     0
102
RTVSPropertyOp12
 70
     0
102
RTVSPropertyOp13
 70
     0
102
RTVSPropertyOp14
 70
     2
102
RTVSPropertyOp15
 70
     0
102
RTVSPropertyOp16
 70
     0
102
RTVSPropertyOp17
 70
     0
102
RTVSPropertyOp18
 70
     0
102
RTVSPropertyOp19
 70
     0
102
RTVSPropertyOp20
 70
     0
102
RTVSPropertyOp21
 70
     0
102
RTVSPropertyOp22
 70
     0
102
RTVSPropertyOp23
 70
     0
102
RTVSPropertyOp24
 70
     0
102
RTVSPropertyOp25
 70
     0
102
RTVSPropertyOp26
 70
     0
102
RTVSPropertyOp27
 70
     0
102
RTVSPropertyOp28
 70
     1
102
RTVSPropertyOp29
 70
     1
102
RTVSPropertyOp30
 70
     1
102
RTVSPropertyOp31
 70
     1
102
RTVSPropertyOp32
 70
     1
102
RTVSPropertyOp33
 70
     1
102
RTVSPropertyOp34
 70
     1
102
RTVSPropertyOp35
 70
     1
102
RTVSPropertyOp36
 70
     1
102
RTVSPropertyOp37
 70
     0
102
RTVSPropertyOp38
 70
     0
102
RTVSPropertyOp39
 70
     0
102
RTVSPropertyOp40
 70
     0
102
RTVSPropertyOp41
 70
     0
102
RTVSPropertyOp42
 70
     0
102
RTVSPropertyOp43
 70
     0
102
RTVSPropertyOp44
 70
     0
102
RTVSPropertyOp45
 70
     1
102
RTVSPropertyOp46
 70
     0
102
RTVSPropertyOp47
 70
     0
102
RTVSPropertyOp48
 70
     0
102
RTVSPropertyOp49
 70
     1
102
RTVSPropertyOp50
 70
     0
102
RTVSPropertyOp51
 70
     0
102
RTVSPropertyOp52
 70
     0
102
RTVSPropertyOp53
 70
     0
102
RTVSPropertyOp54
 70
     0
102
RTVSPropertyOp55
 70
     1
102
RTVSPropertyOp56
 70
     0
102
RTVSPropertyOp57
 70
     0
102
RTVSPropertyOp58
 70
     1
102
RTVSPropertyOp59
 70
     1
102
RTVSPropertyOp60
 70
     1
102
RTVSPropertyOp61
 70
     1
102
RTVSPropertyOp62
 70
     1
  0
XRECORD
  5
4B6
102
{ACAD_REACTORS
330
4B5
102
}
330
4B5
100
AcDbXrecord
280
     1
102
RTVSPost2010Prop28
280
     0
102
RTVSPost2010PropOp28
 70
     1
102
RTVSPost2010Prop29
280
     1
102
RTVSPost2010PropOp29
 70
     1
102
RTVSPost2010Prop30
280
     1
102
RTVSPost2010PropOp30
 70
     1
102
RTVSPost2010Prop31
280
     0
102
RTVSPost2010PropOp31
 70
     1
102
RTVSPost2010Prop32
280
     0
102
RTVSPost2010PropOp32
 70
     1
102
RTVSPost2010Prop33
280
     0
102
RTVSPost2010PropOp33
 70
     1
102
RTVSPost2010Prop34
280
     0
102
RTVSPost2010PropOp34
 70
     1
102
RTVSPost2010Prop35
280
     0
102
RTVSPost2010PropOp35
 70
     1
102
RTVSPost2010Prop36
280
     0
102
RTVSPost2010PropOp36
 70
     1
102
RTVSPost2010Prop37
 90
       50
102
RTVSPost2010PropOp37
 70
     1
102
RTVSPost2010Prop38
140
0.0
102
RTVSPost2010PropOp38
 70
     1
102
RTVSPost2010Prop39
140
1.0
102
RTVSPost2010PropOp39
 70
     1
102
RTVSPost2010Prop40
 90
        0
102
RTVSPost2010PropOp40
 70
     1
102
RTVSPost2010Prop41ColorIndex
 90
       18
102
RTVSPost2010Prop41ColorRGB
 90
        0
102
RTVSPost2010PropOp41
 70
     1
102
RTVSPost2010Prop42
 90
       50
102
RTVSPost2010PropOp42
 70
     1
102
RTVSPost2010Prop43
 90
        3
102
RTVSPost2010PropOp43
 70
     1
102
RTVSPost2010Prop44ColorIndex
 90
        5
102
RTVSPost2010Prop44ColorRGB
 90
      255
102
RTVSPost2010PropOp44
 70
     1
102
RTVSPost2010Prop45
280
     0
102
RTVSPost2010PropOp45
 70
     1
102
RTVSPost2010Prop46
 90
       50
102
RTVSPost2010PropOp46
 70
     1
102
RTVSPost2010Prop47
 90
       50
102
RTVSPost2010PropOp47
 70
     1
102
RTVSPost2010Prop48
 90
       50
102
RTVSPost2010PropOp48
 70
     1
102
RTVSPost2010Prop49
280
     0
102
RTVSPost2010PropOp49
 70
     1
102
RTVSPost2010Prop50
 90
       50
102
RTVSPost2010PropOp50
 70
     1
102
RTVSPost2010Prop51ColorIndex
 90
      256
102
RTVSPost2010Prop51ColorRGB
 90
-16777216
102
RTVSPost2010PropOp51
 70
     0
102
RTVSPost2010Prop52
140
1.0
102
RTVSPost2010PropOp52
 70
     0
102
RTVSPost2010Prop53
 90
        2
102
RTVSPost2010PropOp53
 70
     1
102
RTVSPost2010Prop54
  1
strokes_ogs.tif
102
RTVSPost2010PropOp54
 70
     1
102
RTVSPost2010Prop55
280
     0
102
RTVSPost2010PropOp55
 70
     1
102
RTVSPost2010Prop56
140
1.0
102
RTVSPost2010PropOp56
 70
     1
102
RTVSPost2010Prop57
140
1.0
102
RTVSPost2010PropOp57
 70
     1
102
RTVSPropertyOp0
 70
     1
102
RTVSPropertyOp1
 70
     1
102
RTVSPropertyOp2
 70
     1
102
RTVSPropertyOp3
 70
     1
102
RTVSPropertyOp4
 70
     1
102
RTVSPropertyOp5
 70
     1
102
RTVSPropertyOp6
 70
     1
102
RTVSPropertyOp7
 70
     1
102
RTVSPropertyOp8
 70
     1
102
RTVSPropertyOp9
 70
     1
102
RTVSPropertyOp10
 70
     1
102
RTVSPropertyOp11
 70
     1
102
RTVSPropertyOp12
 70
     1
102
RTVSPropertyOp13
 70
     1
102
RTVSPropertyOp14
 70
     1
102
RTVSPropertyOp15
 70
     1
102
RTVSPropertyOp16
 70
     1
102
RTVSPropertyOp17
 70
     1
102
RTVSPropertyOp18
 70
     1
102
RTVSPropertyOp19
 70
     1
102
RTVSPropertyOp20
 70
     1
102
RTVSPropertyOp21
 70
     1
102
RTVSPropertyOp22
 70
     1
102
RTVSPropertyOp23
 70
     1
102
RTVSPropertyOp24
 70
     1
102
RTVSPropertyOp25
 70
     1
102
RTVSPropertyOp26
 70
     1
102
RTVSPropertyOp27
 70
     1
102
RTVSPropertyOp28
 70
     1
102
RTVSPropertyOp29
 70
     1
102
RTVSPropertyOp30
 70
     1
102
RTVSPropertyOp31
 70
     1
102
RTVSPropertyOp32
 70
     1
102
RTVSPropertyOp33
 70
     1
102
RTVSPropertyOp34
 70
     1
102
RTVSPropertyOp35
 70
     1
102
RTVSPropertyOp36
 70
     1
102
RTVSPropertyOp37
 70
     1
102
RTVSPropertyOp38
 70
     1
102
RTVSPropertyOp39
 70
     1
102
RTVSPropertyOp40
 70
     1
102
RTVSPropertyOp41
 70
     1
102
RTVSPropertyOp42
 70
     1
102
RTVSPropertyOp43
 70
     1
102
RTVSPropertyOp44
 70
     1
102
RTVSPropertyOp45
 70
     1
102
RTVSPropertyOp46
 70
     1
102
RTVSPropertyOp47
 70
     1
102
RTVSPropertyOp48
 70
     1
102
RTVSPropertyOp49
 70
     1
102
RTVSPropertyOp50
 70
     1
102
RTVSPropertyOp51
 70
     0
102
RTVSPropertyOp52
 70
     0
102
RTVSPropertyOp53
 70
     1
102
RTVSPropertyOp54
 70
     1
102
RTVSPropertyOp55
 70
     1
102
RTVSPropertyOp56
 70
     1
102
RTVSPropertyOp57
 70
     1
102
RTVSPropertyOp58
 70
     1
102
RTVSPropertyOp59
 70
     1
102
RTVSPropertyOp60
 70
     1
102
RTVSPropertyOp61
 70
     1
102
RTVSPropertyOp62
 70
     1
  0
XRECORD
  5
4C8
102
{ACAD_REACTORS
330
4C7
102
}
330
4C7
100
AcDbXrecord
280
     1
102
RTVSPost2010Prop28
280
     0
102
RTVSPost2010PropOp28
 70
     1
102
RTVSPost2010Prop29
280
     1
102
RTVSPost2010PropOp29
 70
     1
102
RTVSPost2010Prop30
280
     1
102
RTVSPost2010PropOp30
 70
     1
102
RTVSPost2010Prop31
280
     0
102
RTVSPost2010PropOp31
 70
     1
102
RTVSPost2010Prop32
280
     0
102
RTVSPost2010PropOp32
 70
     1
102
RTVSPost2010Prop33
280
     0
102
RTVSPost2010PropOp33
 70
     1
102
RTVSPost2010Prop34
280
     0
102
RTVSPost2010PropOp34
 70
     1
102
RTVSPost2010Prop35
280
     0
102
RTVSPost2010PropOp35
 70
     1
102
RTVSPost2010Prop36
280
     0
102
RTVSPost2010PropOp36
 70
     1
102
RTVSPost2010Prop37
 90
       50
102
RTVSPost2010PropOp37
 70
     0
102
RTVSPost2010Prop38
140
0.0
102
RTVSPost2010PropOp38
 70
     0
102
RTVSPost2010Prop39
140
1.0
102
RTVSPost2010PropOp39
 70
     0
102
RTVSPost2010Prop40
 90
        0
102
RTVSPost2010PropOp40
 70
     0
102
RTVSPost2010Prop41ColorIndex
 90
       18
102
RTVSPost2010Prop41ColorRGB
 90
        0
102
RTVSPost2010PropOp41
 70
     0
102
RTVSPost2010Prop42
 90
       50
102
RTVSPost2010PropOp42
 70
     0
102
RTVSPost2010Prop43
 90
        3
102
RTVSPost2010PropOp43
 70
     0
102
RTVSPost2010Prop44ColorIndex
 90
        5
102
RTVSPost2010Prop44ColorRGB
 90
      255
102
RTVSPost2010PropOp44
 70
     0
102
RTVSPost2010Prop45
280
     0
102
RTVSPost2010PropOp45
 70
     1
102
RTVSPost2010Prop46
 90
       50
102
RTVSPost2010PropOp46
 70
     0
102
RTVSPost2010Prop47
 90
       50
102
RTVSPost2010PropOp47
 70
     0
102
RTVSPost2010Prop48
 90
       50
102
RTVSPost2010PropOp48
 70
     0
102
RTVSPost2010Prop49
280
     0
102
RTVSPost2010PropOp49
 70
     1
102
RTVSPost2010Prop50
 90
       50
102
RTVSPost2010PropOp50
 70
     0
102
RTVSPost2010Prop51ColorIndex
 90
      256
102
RTVSPost2010Prop51ColorRGB
 90
-16777216
102
RTVSPost2010PropOp51
 70
     0
102
RTVSPost2010Prop52
140
1.0
102
RTVSPost2010PropOp52
 70
     0
102
RTVSPost2010Prop53
 90
        2
102
RTVSPost2010PropOp53
 70
     0
102
RTVSPost2010Prop54
  1
strokes_ogs.tif
102
RTVSPost2010PropOp54
 70
     0
102
RTVSPost2010Prop55
280
     0
102
RTVSPost2010PropOp55
 70
     1
102
RTVSPost2010Prop56
140
1.0
102
RTVSPost2010PropOp56
 70
     0
102
RTVSPost2010Prop57
140
1.0
102
RTVSPost2010PropOp57
 70
     0
102
RTVSPropertyOp0
 70
     0
102
RTVSPropertyOp1
 70
     0
102
RTVSPropertyOp2
 70
     0
102
RTVSPropertyOp3
 70
     0
102
RTVSPropertyOp4
 70
     0
102
RTVSPropertyOp5
 70
     0
102
RTVSPropertyOp6
 70
     0
102
RTVSPropertyOp7
 70
     0
102
RTVSPropertyOp8
 70
     0
102
RTVSPropertyOp9
 70
     0
102
RTVSPropertyOp10
 70
     0
102
RTVSPropertyOp11
 70
     0
102
RTVSPropertyOp12
 70
     0
102
RTVSPropertyOp13
 70
     0
102
RTVSPropertyOp14
 70
     2
102
RTVSPropertyOp15
 70
     0
102
RTVSPropertyOp16
 70
     0
102
RTVSPropertyOp17
 70
     0
102
RTVSPropertyOp18
 70
     0
102
RTVSPropertyOp19
 70
     0
102
RTVSPropertyOp20
 70
     0
102
RTVSPropertyOp21
 70
     0
102
RTVSPropertyOp22
 70
     0
102
RTVSPropertyOp23
 70
     0
102
RTVSPropertyOp24
 70
     0
102
RTVSPropertyOp25
 70
     0
102
RTVSPropertyOp26
 70
     0
102
RTVSPropertyOp27
 70
     0
102
RTVSPropertyOp28
 70
     1
102
RTVSPropertyOp29
 70
     1
102
RTVSPropertyOp30
 70
     1
102
RTVSPropertyOp31
 70
     1
102
RTVSPropertyOp32
 70
     1
102
RTVSPropertyOp33
 70
     1
102
RTVSPropertyOp34
 70
     1
102
RTVSPropertyOp35
 70
     1
102
RTVSPropertyOp36
 70
     1
102
RTVSPropertyOp37
 70
     0
102
RTVSPropertyOp38
 70
     0
102
RTVSPropertyOp39
 70
     0
102
RTVSPropertyOp40
 70
     0
102
RTVSPropertyOp41
 70
     0
102
RTVSPropertyOp42
 70
     0
102
RTVSPropertyOp43
 70
     0
102
RTVSPropertyOp44
 70
     0
102
RTVSPropertyOp45
 70
     1
102
RTVSPropertyOp46
 70
     0
102
RTVSPropertyOp47
 70
     0
102
RTVSPropertyOp48
 70
     0
102
RTVSPropertyOp49
 70
     1
102
RTVSPropertyOp50
 70
     0
102
RTVSPropertyOp51
 70
     0
102
RTVSPropertyOp52
 70
     0
102
RTVSPropertyOp53
 70
     0
102
RTVSPropertyOp54
 70
     0
102
RTVSPropertyOp55
 70
     1
102
RTVSPropertyOp56
 70
     0
102
RTVSPropertyOp57
 70
     0
102
RTVSPropertyOp58
 70
     1
102
RTVSPropertyOp59
 70
     1
102
RTVSPropertyOp60
 70
     1
102
RTVSPropertyOp61
 70
     1
102
RTVSPropertyOp62
 70
     1
  0
XRECORD
  5
4AE
102
{ACAD_REACTORS
330
4AD
102
}
330
4AD
100
AcDbXrecord
280
     1
102
RTVSPost2010Prop28
280
     0
102
RTVSPost2010PropOp28
 70
     1
102
RTVSPost2010Prop29
280
     1
102
RTVSPost2010PropOp29
 70
     1
102
RTVSPost2010Prop30
280
     1
102
RTVSPost2010PropOp30
 70
     1
102
RTVSPost2010Prop31
280
     0
102
RTVSPost2010PropOp31
 70
     1
102
RTVSPost2010Prop32
280
     0
102
RTVSPost2010PropOp32
 70
     1
102
RTVSPost2010Prop33
280
     0
102
RTVSPost2010PropOp33
 70
     1
102
RTVSPost2010Prop34
280
     0
102
RTVSPost2010PropOp34
 70
     1
102
RTVSPost2010Prop35
280
     0
102
RTVSPost2010PropOp35
 70
     1
102
RTVSPost2010Prop36
280
     0
102
RTVSPost2010PropOp36
 70
     1
102
RTVSPost2010Prop37
 90
       50
102
RTVSPost2010PropOp37
 70
     1
102
RTVSPost2010Prop38
140
0.0
102
RTVSPost2010PropOp38
 70
     1
102
RTVSPost2010Prop39
140
1.0
102
RTVSPost2010PropOp39
 70
     1
102
RTVSPost2010Prop40
 90
        0
102
RTVSPost2010PropOp40
 70
     1
102
RTVSPost2010Prop41ColorIndex
 90
       18
102
RTVSPost2010Prop41ColorRGB
 90
        0
102
RTVSPost2010PropOp41
 70
     1
102
RTVSPost2010Prop42
 90
       50
102
RTVSPost2010PropOp42
 70
     1
102
RTVSPost2010Prop43
 90
        3
102
RTVSPost2010PropOp43
 70
     1
102
RTVSPost2010Prop44ColorIndex
 90
        5
102
RTVSPost2010Prop44ColorRGB
 90
      255
102
RTVSPost2010PropOp44
 70
     1
102
RTVSPost2010Prop45
280
     0
102
RTVSPost2010PropOp45
 70
     1
102
RTVSPost2010Prop46
 90
       50
102
RTVSPost2010PropOp46
 70
     1
102
RTVSPost2010Prop47
 90
       50
102
RTVSPost2010PropOp47
 70
     1
102
RTVSPost2010Prop48
 90
       50
102
RTVSPost2010PropOp48
 70
     1
102
RTVSPost2010Prop49
280
     0
102
RTVSPost2010PropOp49
 70
     1
102
RTVSPost2010Prop50
 90
       50
102
RTVSPost2010PropOp50
 70
     1
102
RTVSPost2010Prop51ColorIndex
 90
      256
102
RTVSPost2010Prop51ColorRGB
 90
-16777216
102
RTVSPost2010PropOp51
 70
     0
102
RTVSPost2010Prop52
140
1.0
102
RTVSPost2010PropOp52
 70
     0
102
RTVSPost2010Prop53
 90
        2
102
RTVSPost2010PropOp53
 70
     1
102
RTVSPost2010Prop54
  1
strokes_ogs.tif
102
RTVSPost2010PropOp54
 70
     1
102
RTVSPost2010Prop55
280
     0
102
RTVSPost2010PropOp55
 70
     1
102
RTVSPost2010Prop56
140
1.0
102
RTVSPost2010PropOp56
 70
     1
102
RTVSPost2010Prop57
140
1.0
102
RTVSPost2010PropOp57
 70
     1
102
RTVSPropertyOp0
 70
     1
102
RTVSPropertyOp1
 70
     1
102
RTVSPropertyOp2
 70
     1
102
RTVSPropertyOp3
 70
     1
102
RTVSPropertyOp4
 70
     1
102
RTVSPropertyOp5
 70
     1
102
RTVSPropertyOp6
 70
     1
102
RTVSPropertyOp7
 70
     1
102
RTVSPropertyOp8
 70
     1
102
RTVSPropertyOp9
 70
     1
102
RTVSPropertyOp10
 70
     1
102
RTVSPropertyOp11
 70
     1
102
RTVSPropertyOp12
 70
     1
102
RTVSPropertyOp13
 70
     1
102
RTVSPropertyOp14
 70
     1
102
RTVSPropertyOp15
 70
     1
102
RTVSPropertyOp16
 70
     1
102
RTVSPropertyOp17
 70
     1
102
RTVSPropertyOp18
 70
     1
102
RTVSPropertyOp19
 70
     1
102
RTVSPropertyOp20
 70
     1
102
RTVSPropertyOp21
 70
     1
102
RTVSPropertyOp22
 70
     1
102
RTVSPropertyOp23
 70
     1
102
RTVSPropertyOp24
 70
     1
102
RTVSPropertyOp25
 70
     1
102
RTVSPropertyOp26
 70
     1
102
RTVSPropertyOp27
 70
     1
102
RTVSPropertyOp28
 70
     1
102
RTVSPropertyOp29
 70
     1
102
RTVSPropertyOp30
 70
     1
102
RTVSPropertyOp31
 70
     1
102
RTVSPropertyOp32
 70
     1
102
RTVSPropertyOp33
 70
     1
102
RTVSPropertyOp34
 70
     1
102
RTVSPropertyOp35
 70
     1
102
RTVSPropertyOp36
 70
     1
102
RTVSPropertyOp37
 70
     1
102
RTVSPropertyOp38
 70
     1
102
RTVSPropertyOp39
 70
     1
102
RTVSPropertyOp40
 70
     1
102
RTVSPropertyOp41
 70
     1
102
RTVSPropertyOp42
 70
     1
102
RTVSPropertyOp43
 70
     1
102
RTVSPropertyOp44
 70
     1
102
RTVSPropertyOp45
 70
     1
102
RTVSPropertyOp46
 70
     1
102
RTVSPropertyOp47
 70
     1
102
RTVSPropertyOp48
 70
     1
102
RTVSPropertyOp49
 70
     1
102
RTVSPropertyOp50
 70
     1
102
RTVSPropertyOp51
 70
     0
102
RTVSPropertyOp52
 70
     0
102
RTVSPropertyOp53
 70
     1
102
RTVSPropertyOp54
 70
     1
102
RTVSPropertyOp55
 70
     1
102
RTVSPropertyOp56
 70
     1
102
RTVSPropertyOp57
 70
     1
102
RTVSPropertyOp58
 70
     1
102
RTVSPropertyOp59
 70
     1
102
RTVSPropertyOp60
 70
     1
102
RTVSPropertyOp61
 70
     1
102
RTVSPropertyOp62
 70
     1
  0
XRECORD
  5
4C4
102
{ACAD_REACTORS
330
4C3
102
}
330
4C3
100
AcDbXrecord
280
     1
102
RTVSPost2010Prop28
280
     0
102
RTVSPost2010PropOp28
 70
     1
102
RTVSPost2010Prop29
280
     1
102
RTVSPost2010PropOp29
 70
     1
102
RTVSPost2010Prop30
280
     1
102
RTVSPost2010PropOp30
 70
     1
102
RTVSPost2010Prop31
280
     0
102
RTVSPost2010PropOp31
 70
     1
102
RTVSPost2010Prop32
280
     0
102
RTVSPost2010PropOp32
 70
     1
102
RTVSPost2010Prop33
280
     0
102
RTVSPost2010PropOp33
 70
     1
102
RTVSPost2010Prop34
280
     0
102
RTVSPost2010PropOp34
 70
     1
102
RTVSPost2010Prop35
280
     0
102
RTVSPost2010PropOp35
 70
     1
102
RTVSPost2010Prop36
280
     0
102
RTVSPost2010PropOp36
 70
     1
102
RTVSPost2010Prop37
 90
       50
102
RTVSPost2010PropOp37
 70
     1
102
RTVSPost2010Prop38
140
0.0
102
RTVSPost2010PropOp38
 70
     1
102
RTVSPost2010Prop39
140
1.0
102
RTVSPost2010PropOp39
 70
     1
102
RTVSPost2010Prop40
 90
        0
102
RTVSPost2010PropOp40
 70
     1
102
RTVSPost2010Prop41ColorIndex
 90
       18
102
RTVSPost2010Prop41ColorRGB
 90
        0
102
RTVSPost2010PropOp41
 70
     1
102
RTVSPost2010Prop42
 90
       50
102
RTVSPost2010PropOp42
 70
     1
102
RTVSPost2010Prop43
 90
        3
102
RTVSPost2010PropOp43
 70
     1
102
RTVSPost2010Prop44ColorIndex
 90
        5
102
RTVSPost2010Prop44ColorRGB
 90
      255
102
RTVSPost2010PropOp44
 70
     1
102
RTVSPost2010Prop45
280
     0
102
RTVSPost2010PropOp45
 70
     1
102
RTVSPost2010Prop46
 90
       50
102
RTVSPost2010PropOp46
 70
     1
102
RTVSPost2010Prop47
 90
       50
102
RTVSPost2010PropOp47
 70
     1
102
RTVSPost2010Prop48
 90
       50
102
RTVSPost2010PropOp48
 70
     1
102
RTVSPost2010Prop49
280
     0
102
RTVSPost2010PropOp49
 70
     1
102
RTVSPost2010Prop50
 90
       50
102
RTVSPost2010PropOp50
 70
     1
102
RTVSPost2010Prop51ColorIndex
 90
      256
102
RTVSPost2010Prop51ColorRGB
 90
-16777216
102
RTVSPost2010PropOp51
 70
     0
102
RTVSPost2010Prop52
140
1.0
102
RTVSPost2010PropOp52
 70
     0
102
RTVSPost2010Prop53
 90
        2
102
RTVSPost2010PropOp53
 70
     1
102
RTVSPost2010Prop54
  1
strokes_ogs.tif
102
RTVSPost2010PropOp54
 70
     1
102
RTVSPost2010Prop55
280
     0
102
RTVSPost2010PropOp55
 70
     1
102
RTVSPost2010Prop56
140
1.0
102
RTVSPost2010PropOp56
 70
     1
102
RTVSPost2010Prop57
140
1.0
102
RTVSPost2010PropOp57
 70
     1
102
RTVSPropertyOp0
 70
     1
102
RTVSPropertyOp1
 70
     1
102
RTVSPropertyOp2
 70
     1
102
RTVSPropertyOp3
 70
     1
102
RTVSPropertyOp4
 70
     1
102
RTVSPropertyOp5
 70
     1
102
RTVSPropertyOp6
 70
     1
102
RTVSPropertyOp7
 70
     1
102
RTVSPropertyOp8
 70
     1
102
RTVSPropertyOp9
 70
     1
102
RTVSPropertyOp10
 70
     1
102
RTVSPropertyOp11
 70
     1
102
RTVSPropertyOp12
 70
     1
102
RTVSPropertyOp13
 70
     1
102
RTVSPropertyOp14
 70
     1
102
RTVSPropertyOp15
 70
     1
102
RTVSPropertyOp16
 70
     1
102
RTVSPropertyOp17
 70
     1
102
RTVSPropertyOp18
 70
     1
102
RTVSPropertyOp19
 70
     1
102
RTVSPropertyOp20
 70
     1
102
RTVSPropertyOp21
 70
     1
102
RTVSPropertyOp22
 70
     1
102
RTVSPropertyOp23
 70
     1
102
RTVSPropertyOp24
 70
     1
102
RTVSPropertyOp25
 70
     1
102
RTVSPropertyOp26
 70
     1
102
RTVSPropertyOp27
 70
     1
102
RTVSPropertyOp28
 70
     1
102
RTVSPropertyOp29
 70
     1
102
RTVSPropertyOp30
 70
     1
102
RTVSPropertyOp31
 70
     1
102
RTVSPropertyOp32
 70
     1
102
RTVSPropertyOp33
 70
     1
102
RTVSPropertyOp34
 70
     1
102
RTVSPropertyOp35
 70
     1
102
RTVSPropertyOp36
 70
     1
102
RTVSPropertyOp37
 70
     1
102
RTVSPropertyOp38
 70
     1
102
RTVSPropertyOp39
 70
     1
102
RTVSPropertyOp40
 70
     1
102
RTVSPropertyOp41
 70
     1
102
RTVSPropertyOp42
 70
     1
102
RTVSPropertyOp43
 70
     1
102
RTVSPropertyOp44
 70
     1
102
RTVSPropertyOp45
 70
     1
102
RTVSPropertyOp46
 70
     1
102
RTVSPropertyOp47
 70
     1
102
RTVSPropertyOp48
 70
     1
102
RTVSPropertyOp49
 70
     1
102
RTVSPropertyOp50
 70
     1
102
RTVSPropertyOp51
 70
     0
102
RTVSPropertyOp52
 70
     0
102
RTVSPropertyOp53
 70
     1
102
RTVSPropertyOp54
 70
     1
102
RTVSPropertyOp55
 70
     1
102
RTVSPropertyOp56
 70
     1
102
RTVSPropertyOp57
 70
     1
102
RTVSPropertyOp58
 70
     1
102
RTVSPropertyOp59
 70
     1
102
RTVSPropertyOp60
 70
     1
102
RTVSPropertyOp61
 70
     1
102
RTVSPropertyOp62
 70
     1
  0
XRECORD
  5
4C2
102
{ACAD_REACTORS
330
4C1
102
}
330
4C1
100
AcDbXrecord
280
     1
102
RTVSPost2010Prop28
280
     0
102
RTVSPost2010PropOp28
 70
     1
102
RTVSPost2010Prop29
280
     1
102
RTVSPost2010PropOp29
 70
     1
102
RTVSPost2010Prop30
280
     1
102
RTVSPost2010PropOp30
 70
     1
102
RTVSPost2010Prop31
280
     0
102
RTVSPost2010PropOp31
 70
     1
102
RTVSPost2010Prop32
280
     0
102
RTVSPost2010PropOp32
 70
     1
102
RTVSPost2010Prop33
280
     0
102
RTVSPost2010PropOp33
 70
     1
102
RTVSPost2010Prop34
280
     0
102
RTVSPost2010PropOp34
 70
     1
102
RTVSPost2010Prop35
280
     0
102
RTVSPost2010PropOp35
 70
     1
102
RTVSPost2010Prop36
280
     0
102
RTVSPost2010PropOp36
 70
     1
102
RTVSPost2010Prop37
 90
       50
102
RTVSPost2010PropOp37
 70
     1
102
RTVSPost2010Prop38
140
0.0
102
RTVSPost2010PropOp38
 70
     1
102
RTVSPost2010Prop39
140
1.0
102
RTVSPost2010PropOp39
 70
     1
102
RTVSPost2010Prop40
 90
        0
102
RTVSPost2010PropOp40
 70
     1
102
RTVSPost2010Prop41ColorIndex
 90
       18
102
RTVSPost2010Prop41ColorRGB
 90
        0
102
RTVSPost2010PropOp41
 70
     1
102
RTVSPost2010Prop42
 90
       50
102
RTVSPost2010PropOp42
 70
     1
102
RTVSPost2010Prop43
 90
        3
102
RTVSPost2010PropOp43
 70
     1
102
RTVSPost2010Prop44ColorIndex
 90
        5
102
RTVSPost2010Prop44ColorRGB
 90
      255
102
RTVSPost2010PropOp44
 70
     1
102
RTVSPost2010Prop45
280
     0
102
RTVSPost2010PropOp45
 70
     1
102
RTVSPost2010Prop46
 90
       50
102
RTVSPost2010PropOp46
 70
     1
102
RTVSPost2010Prop47
 90
       50
102
RTVSPost2010PropOp47
 70
     1
102
RTVSPost2010Prop48
 90
       50
102
RTVSPost2010PropOp48
 70
     1
102
RTVSPost2010Prop49
280
     0
102
RTVSPost2010PropOp49
 70
     1
102
RTVSPost2010Prop50
 90
       50
102
RTVSPost2010PropOp50
 70
     1
102
RTVSPost2010Prop51ColorIndex
 90
      256
102
RTVSPost2010Prop51ColorRGB
 90
-16777216
102
RTVSPost2010PropOp51
 70
     0
102
RTVSPost2010Prop52
140
1.0
102
RTVSPost2010PropOp52
 70
     0
102
RTVSPost2010Prop53
 90
        2
102
RTVSPost2010PropOp53
 70
     1
102
RTVSPost2010Prop54
  1
strokes_ogs.tif
102
RTVSPost2010PropOp54
 70
     1
102
RTVSPost2010Prop55
280
     0
102
RTVSPost2010PropOp55
 70
     1
102
RTVSPost2010Prop56
140
1.0
102
RTVSPost2010PropOp56
 70
     1
102
RTVSPost2010Prop57
140
1.0
102
RTVSPost2010PropOp57
 70
     1
102
RTVSPropertyOp0
 70
     1
102
RTVSPropertyOp1
 70
     1
102
RTVSPropertyOp2
 70
     1
102
RTVSPropertyOp3
 70
     1
102
RTVSPropertyOp4
 70
     1
102
RTVSPropertyOp5
 70
     1
102
RTVSPropertyOp6
 70
     1
102
RTVSPropertyOp7
 70
     1
102
RTVSPropertyOp8
 70
     1
102
RTVSPropertyOp9
 70
     1
102
RTVSPropertyOp10
 70
     1
102
RTVSPropertyOp11
 70
     1
102
RTVSPropertyOp12
 70
     1
102
RTVSPropertyOp13
 70
     1
102
RTVSPropertyOp14
 70
     1
102
RTVSPropertyOp15
 70
     1
102
RTVSPropertyOp16
 70
     1
102
RTVSPropertyOp17
 70
     1
102
RTVSPropertyOp18
 70
     1
102
RTVSPropertyOp19
 70
     1
102
RTVSPropertyOp20
 70
     1
102
RTVSPropertyOp21
 70
     1
102
RTVSPropertyOp22
 70
     1
102
RTVSPropertyOp23
 70
     1
102
RTVSPropertyOp24
 70
     1
102
RTVSPropertyOp25
 70
     1
102
RTVSPropertyOp26
 70
     1
102
RTVSPropertyOp27
 70
     1
102
RTVSPropertyOp28
 70
     1
102
RTVSPropertyOp29
 70
     1
102
RTVSPropertyOp30
 70
     1
102
RTVSPropertyOp31
 70
     1
102
RTVSPropertyOp32
 70
     1
102
RTVSPropertyOp33
 70
     1
102
RTVSPropertyOp34
 70
     1
102
RTVSPropertyOp35
 70
     1
102
RTVSPropertyOp36
 70
     1
102
RTVSPropertyOp37
 70
     1
102
RTVSPropertyOp38
 70
     1
102
RTVSPropertyOp39
 70
     1
102
RTVSPropertyOp40
 70
     1
102
RTVSPropertyOp41
 70
     1
102
RTVSPropertyOp42
 70
     1
102
RTVSPropertyOp43
 70
     1
102
RTVSPropertyOp44
 70
     1
102
RTVSPropertyOp45
 70
     1
102
RTVSPropertyOp46
 70
     1
102
RTVSPropertyOp47
 70
     1
102
RTVSPropertyOp48
 70
     1
102
RTVSPropertyOp49
 70
     1
102
RTVSPropertyOp50
 70
     1
102
RTVSPropertyOp51
 70
     0
102
RTVSPropertyOp52
 70
     0
102
RTVSPropertyOp53
 70
     1
102
RTVSPropertyOp54
 70
     1
102
RTVSPropertyOp55
 70
     1
102
RTVSPropertyOp56
 70
     1
102
RTVSPropertyOp57
 70
     1
102
RTVSPropertyOp58
 70
     1
102
RTVSPropertyOp59
 70
     1
102
RTVSPropertyOp60
 70
     1
102
RTVSPropertyOp61
 70
     1
102
RTVSPropertyOp62
 70
     1
  0
XRECORD
  5
4BC
102
{ACAD_REACTORS
330
4BB
102
}
330
4BB
100
AcDbXrecord
280
     1
102
RTVSPost2010Prop28
280
     0
102
RTVSPost2010PropOp28
 70
     1
102
RTVSPost2010Prop29
280
     1
102
RTVSPost2010PropOp29
 70
     1
102
RTVSPost2010Prop30
280
     1
102
RTVSPost2010PropOp30
 70
     1
102
RTVSPost2010Prop31
280
     0
102
RTVSPost2010PropOp31
 70
     1
102
RTVSPost2010Prop32
280
     0
102
RTVSPost2010PropOp32
 70
     1
102
RTVSPost2010Prop33
280
     0
102
RTVSPost2010PropOp33
 70
     1
102
RTVSPost2010Prop34
280
     0
102
RTVSPost2010PropOp34
 70
     1
102
RTVSPost2010Prop35
280
     0
102
RTVSPost2010PropOp35
 70
     1
102
RTVSPost2010Prop36
280
     0
102
RTVSPost2010PropOp36
 70
     1
102
RTVSPost2010Prop37
 90
       50
102
RTVSPost2010PropOp37
 70
     1
102
RTVSPost2010Prop38
140
0.0
102
RTVSPost2010PropOp38
 70
     1
102
RTVSPost2010Prop39
140
1.0
102
RTVSPost2010PropOp39
 70
     1
102
RTVSPost2010Prop40
 90
        0
102
RTVSPost2010PropOp40
 70
     1
102
RTVSPost2010Prop41ColorIndex
 90
       18
102
RTVSPost2010Prop41ColorRGB
 90
        0
102
RTVSPost2010PropOp41
 70
     1
102
RTVSPost2010Prop42
 90
       50
102
RTVSPost2010PropOp42
 70
     1
102
RTVSPost2010Prop43
 90
        3
102
RTVSPost2010PropOp43
 70
     1
102
RTVSPost2010Prop44ColorIndex
 90
        5
102
RTVSPost2010Prop44ColorRGB
 90
      255
102
RTVSPost2010PropOp44
 70
     1
102
RTVSPost2010Prop45
280
     0
102
RTVSPost2010PropOp45
 70
     1
102
RTVSPost2010Prop46
 90
       50
102
RTVSPost2010PropOp46
 70
     1
102
RTVSPost2010Prop47
 90
       50
102
RTVSPost2010PropOp47
 70
     1
102
RTVSPost2010Prop48
 90
       50
102
RTVSPost2010PropOp48
 70
     1
102
RTVSPost2010Prop49
280
     0
102
RTVSPost2010PropOp49
 70
     1
102
RTVSPost2010Prop50
 90
       50
102
RTVSPost2010PropOp50
 70
     1
102
RTVSPost2010Prop51ColorIndex
 90
      256
102
RTVSPost2010Prop51ColorRGB
 90
-16777216
102
RTVSPost2010PropOp51
 70
     0
102
RTVSPost2010Prop52
140
1.0
102
RTVSPost2010PropOp52
 70
     0
102
RTVSPost2010Prop53
 90
        2
102
RTVSPost2010PropOp53
 70
     1
102
RTVSPost2010Prop54
  1
strokes_ogs.tif
102
RTVSPost2010PropOp54
 70
     1
102
RTVSPost2010Prop55
280
     0
102
RTVSPost2010PropOp55
 70
     1
102
RTVSPost2010Prop56
140
1.0
102
RTVSPost2010PropOp56
 70
     1
102
RTVSPost2010Prop57
140
1.0
102
RTVSPost2010PropOp57
 70
     1
102
RTVSPropertyOp0
 70
     1
102
RTVSPropertyOp1
 70
     1
102
RTVSPropertyOp2
 70
     1
102
RTVSPropertyOp3
 70
     1
102
RTVSPropertyOp4
 70
     1
102
RTVSPropertyOp5
 70
     1
102
RTVSPropertyOp6
 70
     1
102
RTVSPropertyOp7
 70
     1
102
RTVSPropertyOp8
 70
     1
102
RTVSPropertyOp9
 70
     1
102
RTVSPropertyOp10
 70
     1
102
RTVSPropertyOp11
 70
     1
102
RTVSPropertyOp12
 70
     1
102
RTVSPropertyOp13
 70
     1
102
RTVSPropertyOp14
 70
     1
102
RTVSPropertyOp15
 70
     1
102
RTVSPropertyOp16
 70
     1
102
RTVSPropertyOp17
 70
     1
102
RTVSPropertyOp18
 70
     1
102
RTVSPropertyOp19
 70
     1
102
RTVSPropertyOp20
 70
     1
102
RTVSPropertyOp21
 70
     1
102
RTVSPropertyOp22
 70
     1
102
RTVSPropertyOp23
 70
     1
102
RTVSPropertyOp24
 70
     1
102
RTVSPropertyOp25
 70
     1
102
RTVSPropertyOp26
 70
     1
102
RTVSPropertyOp27
 70
     1
102
RTVSPropertyOp28
 70
     1
102
RTVSPropertyOp29
 70
     1
102
RTVSPropertyOp30
 70
     1
102
RTVSPropertyOp31
 70
     1
102
RTVSPropertyOp32
 70
     1
102
RTVSPropertyOp33
 70
     1
102
RTVSPropertyOp34
 70
     1
102
RTVSPropertyOp35
 70
     1
102
RTVSPropertyOp36
 70
     1
102
RTVSPropertyOp37
 70
     1
102
RTVSPropertyOp38
 70
     1
102
RTVSPropertyOp39
 70
     1
102
RTVSPropertyOp40
 70
     1
102
RTVSPropertyOp41
 70
     1
102
RTVSPropertyOp42
 70
     1
102
RTVSPropertyOp43
 70
     1
102
RTVSPropertyOp44
 70
     1
102
RTVSPropertyOp45
 70
     1
102
RTVSPropertyOp46
 70
     1
102
RTVSPropertyOp47
 70
     1
102
RTVSPropertyOp48
 70
     1
102
RTVSPropertyOp49
 70
     1
102
RTVSPropertyOp50
 70
     1
102
RTVSPropertyOp51
 70
     0
102
RTVSPropertyOp52
 70
     0
102
RTVSPropertyOp53
 70
     1
102
RTVSPropertyOp54
 70
     1
102
RTVSPropertyOp55
 70
     1
102
RTVSPropertyOp56
 70
     1
102
RTVSPropertyOp57
 70
     1
102
RTVSPropertyOp58
 70
     1
102
RTVSPropertyOp59
 70
     1
102
RTVSPropertyOp60
 70
     1
102
RTVSPropertyOp61
 70
     1
102
RTVSPropertyOp62
 70
     1
  0
XRECORD
  5
4BE
102
{ACAD_REACTORS
330
4BD
102
}
330
4BD
100
AcDbXrecord
280
     1
102
RTVSPost2010Prop28
280
     0
102
RTVSPost2010PropOp28
 70
     1
102
RTVSPost2010Prop29
280
     1
102
RTVSPost2010PropOp29
 70
     1
102
RTVSPost2010Prop30
280
     1
102
RTVSPost2010PropOp30
 70
     1
102
RTVSPost2010Prop31
280
     0
102
RTVSPost2010PropOp31
 70
     1
102
RTVSPost2010Prop32
280
     0
102
RTVSPost2010PropOp32
 70
     1
102
RTVSPost2010Prop33
280
     0
102
RTVSPost2010PropOp33
 70
     1
102
RTVSPost2010Prop34
280
     0
102
RTVSPost2010PropOp34
 70
     1
102
RTVSPost2010Prop35
280
     0
102
RTVSPost2010PropOp35
 70
     1
102
RTVSPost2010Prop36
280
     0
102
RTVSPost2010PropOp36
 70
     1
102
RTVSPost2010Prop37
 90
       50
102
RTVSPost2010PropOp37
 70
     1
102
RTVSPost2010Prop38
140
0.0
102
RTVSPost2010PropOp38
 70
     1
102
RTVSPost2010Prop39
140
1.0
102
RTVSPost2010PropOp39
 70
     1
102
RTVSPost2010Prop40
 90
        0
102
RTVSPost2010PropOp40
 70
     1
102
RTVSPost2010Prop41ColorIndex
 90
       18
102
RTVSPost2010Prop41ColorRGB
 90
        0
102
RTVSPost2010PropOp41
 70
     1
102
RTVSPost2010Prop42
 90
       50
102
RTVSPost2010PropOp42
 70
     1
102
RTVSPost2010Prop43
 90
        3
102
RTVSPost2010PropOp43
 70
     1
102
RTVSPost2010Prop44ColorIndex
 90
        5
102
RTVSPost2010Prop44ColorRGB
 90
      255
102
RTVSPost2010PropOp44
 70
     1
102
RTVSPost2010Prop45
280
     0
102
RTVSPost2010PropOp45
 70
     1
102
RTVSPost2010Prop46
 90
       50
102
RTVSPost2010PropOp46
 70
     1
102
RTVSPost2010Prop47
 90
       50
102
RTVSPost2010PropOp47
 70
     1
102
RTVSPost2010Prop48
 90
       50
102
RTVSPost2010PropOp48
 70
     1
102
RTVSPost2010Prop49
280
     0
102
RTVSPost2010PropOp49
 70
     1
102
RTVSPost2010Prop50
 90
       50
102
RTVSPost2010PropOp50
 70
     1
102
RTVSPost2010Prop51ColorIndex
 90
      256
102
RTVSPost2010Prop51ColorRGB
 90
-16777216
102
RTVSPost2010PropOp51
 70
     0
102
RTVSPost2010Prop52
140
1.0
102
RTVSPost2010PropOp52
 70
     0
102
RTVSPost2010Prop53
 90
        2
102
RTVSPost2010PropOp53
 70
     1
102
RTVSPost2010Prop54
  1
strokes_ogs.tif
102
RTVSPost2010PropOp54
 70
     1
102
RTVSPost2010Prop55
280
     0
102
RTVSPost2010PropOp55
 70
     1
102
RTVSPost2010Prop56
140
1.0
102
RTVSPost2010PropOp56
 70
     1
102
RTVSPost2010Prop57
140
1.0
102
RTVSPost2010PropOp57
 70
     1
102
RTVSPropertyOp0
 70
     1
102
RTVSPropertyOp1
 70
     1
102
RTVSPropertyOp2
 70
     1
102
RTVSPropertyOp3
 70
     1
102
RTVSPropertyOp4
 70
     1
102
RTVSPropertyOp5
 70
     1
102
RTVSPropertyOp6
 70
     1
102
RTVSPropertyOp7
 70
     1
102
RTVSPropertyOp8
 70
     1
102
RTVSPropertyOp9
 70
     1
102
RTVSPropertyOp10
 70
     1
102
RTVSPropertyOp11
 70
     1
102
RTVSPropertyOp12
 70
     1
102
RTVSPropertyOp13
 70
     1
102
RTVSPropertyOp14
 70
     1
102
RTVSPropertyOp15
 70
     1
102
RTVSPropertyOp16
 70
     1
102
RTVSPropertyOp17
 70
     1
102
RTVSPropertyOp18
 70
     1
102
RTVSPropertyOp19
 70
     1
102
RTVSPropertyOp20
 70
     1
102
RTVSPropertyOp21
 70
     1
102
RTVSPropertyOp22
 70
     1
102
RTVSPropertyOp23
 70
     1
102
RTVSPropertyOp24
 70
     1
102
RTVSPropertyOp25
 70
     1
102
RTVSPropertyOp26
 70
     1
102
RTVSPropertyOp27
 70
     1
102
RTVSPropertyOp28
 70
     1
102
RTVSPropertyOp29
 70
     1
102
RTVSPropertyOp30
 70
     1
102
RTVSPropertyOp31
 70
     1
102
RTVSPropertyOp32
 70
     1
102
RTVSPropertyOp33
 70
     1
102
RTVSPropertyOp34
 70
     1
102
RTVSPropertyOp35
 70
     1
102
RTVSPropertyOp36
 70
     1
102
RTVSPropertyOp37
 70
     1
102
RTVSPropertyOp38
 70
     1
102
RTVSPropertyOp39
 70
     1
102
RTVSPropertyOp40
 70
     1
102
RTVSPropertyOp41
 70
     1
102
RTVSPropertyOp42
 70
     1
102
RTVSPropertyOp43
 70
     1
102
RTVSPropertyOp44
 70
     1
102
RTVSPropertyOp45
 70
     1
102
RTVSPropertyOp46
 70
     1
102
RTVSPropertyOp47
 70
     1
102
RTVSPropertyOp48
 70
     1
102
RTVSPropertyOp49
 70
     1
102
RTVSPropertyOp50
 70
     1
102
RTVSPropertyOp51
 70
     0
102
RTVSPropertyOp52
 70
     0
102
RTVSPropertyOp53
 70
     1
102
RTVSPropertyOp54
 70
     1
102
RTVSPropertyOp55
 70
     1
102
RTVSPropertyOp56
 70
     1
102
RTVSPropertyOp57
 70
     1
102
RTVSPropertyOp58
 70
     1
102
RTVSPropertyOp59
 70
     1
102
RTVSPropertyOp60
 70
     1
102
RTVSPropertyOp61
 70
     1
102
RTVSPropertyOp62
 70
     1
  0
XRECORD
  5
4B4
102
{ACAD_REACTORS
330
4B3
102
}
330
4B3
100
AcDbXrecord
280
     1
102
RTVSPost2010Prop28
280
     0
102
RTVSPost2010PropOp28
 70
     1
102
RTVSPost2010Prop29
280
     1
102
RTVSPost2010PropOp29
 70
     1
102
RTVSPost2010Prop30
280
     1
102
RTVSPost2010PropOp30
 70
     1
102
RTVSPost2010Prop31
280
     0
102
RTVSPost2010PropOp31
 70
     1
102
RTVSPost2010Prop32
280
     0
102
RTVSPost2010PropOp32
 70
     1
102
RTVSPost2010Prop33
280
     0
102
RTVSPost2010PropOp33
 70
     1
102
RTVSPost2010Prop34
280
     0
102
RTVSPost2010PropOp34
 70
     1
102
RTVSPost2010Prop35
280
     0
102
RTVSPost2010PropOp35
 70
     1
102
RTVSPost2010Prop36
280
     0
102
RTVSPost2010PropOp36
 70
     1
102
RTVSPost2010Prop37
 90
       50
102
RTVSPost2010PropOp37
 70
     1
102
RTVSPost2010Prop38
140
0.0
102
RTVSPost2010PropOp38
 70
     1
102
RTVSPost2010Prop39
140
1.0
102
RTVSPost2010PropOp39
 70
     1
102
RTVSPost2010Prop40
 90
        0
102
RTVSPost2010PropOp40
 70
     1
102
RTVSPost2010Prop41ColorIndex
 90
       18
102
RTVSPost2010Prop41ColorRGB
 90
        0
102
RTVSPost2010PropOp41
 70
     1
102
RTVSPost2010Prop42
 90
       50
102
RTVSPost2010PropOp42
 70
     1
102
RTVSPost2010Prop43
 90
        3
102
RTVSPost2010PropOp43
 70
     1
102
RTVSPost2010Prop44ColorIndex
 90
        5
102
RTVSPost2010Prop44ColorRGB
 90
      255
102
RTVSPost2010PropOp44
 70
     1
102
RTVSPost2010Prop45
280
     0
102
RTVSPost2010PropOp45
 70
     1
102
RTVSPost2010Prop46
 90
       50
102
RTVSPost2010PropOp46
 70
     1
102
RTVSPost2010Prop47
 90
       50
102
RTVSPost2010PropOp47
 70
     1
102
RTVSPost2010Prop48
 90
       50
102
RTVSPost2010PropOp48
 70
     1
102
RTVSPost2010Prop49
280
     0
102
RTVSPost2010PropOp49
 70
     1
102
RTVSPost2010Prop50
 90
       50
102
RTVSPost2010PropOp50
 70
     1
102
RTVSPost2010Prop51ColorIndex
 90
      256
102
RTVSPost2010Prop51ColorRGB
 90
-16777216
102
RTVSPost2010PropOp51
 70
     0
102
RTVSPost2010Prop52
140
1.0
102
RTVSPost2010PropOp52
 70
     0
102
RTVSPost2010Prop53
 90
        2
102
RTVSPost2010PropOp53
 70
     1
102
RTVSPost2010Prop54
  1
strokes_ogs.tif
102
RTVSPost2010PropOp54
 70
     1
102
RTVSPost2010Prop55
280
     0
102
RTVSPost2010PropOp55
 70
     1
102
RTVSPost2010Prop56
140
1.0
102
RTVSPost2010PropOp56
 70
     1
102
RTVSPost2010Prop57
140
1.0
102
RTVSPost2010PropOp57
 70
     1
102
RTVSPropertyOp0
 70
     1
102
RTVSPropertyOp1
 70
     1
102
RTVSPropertyOp2
 70
     1
102
RTVSPropertyOp3
 70
     1
102
RTVSPropertyOp4
 70
     1
102
RTVSPropertyOp5
 70
     1
102
RTVSPropertyOp6
 70
     1
102
RTVSPropertyOp7
 70
     1
102
RTVSPropertyOp8
 70
     1
102
RTVSPropertyOp9
 70
     1
102
RTVSPropertyOp10
 70
     1
102
RTVSPropertyOp11
 70
     1
102
RTVSPropertyOp12
 70
     1
102
RTVSPropertyOp13
 70
     1
102
RTVSPropertyOp14
 70
     1
102
RTVSPropertyOp15
 70
     1
102
RTVSPropertyOp16
 70
     1
102
RTVSPropertyOp17
 70
     1
102
RTVSPropertyOp18
 70
     1
102
RTVSPropertyOp19
 70
     1
102
RTVSPropertyOp20
 70
     1
102
RTVSPropertyOp21
 70
     1
102
RTVSPropertyOp22
 70
     1
102
RTVSPropertyOp23
 70
     1
102
RTVSPropertyOp24
 70
     1
102
RTVSPropertyOp25
 70
     1
102
RTVSPropertyOp26
 70
     1
102
RTVSPropertyOp27
 70
     1
102
RTVSPropertyOp28
 70
     1
102
RTVSPropertyOp29
 70
     1
102
RTVSPropertyOp30
 70
     1
102
RTVSPropertyOp31
 70
     1
102
RTVSPropertyOp32
 70
     1
102
RTVSPropertyOp33
 70
     1
102
RTVSPropertyOp34
 70
     1
102
RTVSPropertyOp35
 70
     1
102
RTVSPropertyOp36
 70
     1
102
RTVSPropertyOp37
 70
     1
102
RTVSPropertyOp38
 70
     1
102
RTVSPropertyOp39
 70
     1
102
RTVSPropertyOp40
 70
     1
102
RTVSPropertyOp41
 70
     1
102
RTVSPropertyOp42
 70
     1
102
RTVSPropertyOp43
 70
     1
102
RTVSPropertyOp44
 70
     1
102
RTVSPropertyOp45
 70
     1
102
RTVSPropertyOp46
 70
     1
102
RTVSPropertyOp47
 70
     1
102
RTVSPropertyOp48
 70
     1
102
RTVSPropertyOp49
 70
     1
102
RTVSPropertyOp50
 70
     1
102
RTVSPropertyOp51
 70
     0
102
RTVSPropertyOp52
 70
     0
102
RTVSPropertyOp53
 70
     1
102
RTVSPropertyOp54
 70
     1
102
RTVSPropertyOp55
 70
     1
102
RTVSPropertyOp56
 70
     1
102
RTVSPropertyOp57
 70
     1
102
RTVSPropertyOp58
 70
     1
102
RTVSPropertyOp59
 70
     1
102
RTVSPropertyOp60
 70
     1
102
RTVSPropertyOp61
 70
     1
102
RTVSPropertyOp62
 70
     1
  0
XRECORD
  5
4A8
102
{ACAD_REACTORS
330
4A7
102
}
330
4A7
100
AcDbXrecord
280
     1
102
RTVSPost2010Prop28
280
     0
102
RTVSPost2010PropOp28
 70
     1
102
RTVSPost2010Prop29
280
     1
102
RTVSPost2010PropOp29
 70
     1
102
RTVSPost2010Prop30
280
     1
102
RTVSPost2010PropOp30
 70
     1
102
RTVSPost2010Prop31
280
     0
102
RTVSPost2010PropOp31
 70
     1
102
RTVSPost2010Prop32
280
     0
102
RTVSPost2010PropOp32
 70
     1
102
RTVSPost2010Prop33
280
     0
102
RTVSPost2010PropOp33
 70
     1
102
RTVSPost2010Prop34
280
     0
102
RTVSPost2010PropOp34
 70
     1
102
RTVSPost2010Prop35
280
     0
102
RTVSPost2010PropOp35
 70
     1
102
RTVSPost2010Prop36
280
     0
102
RTVSPost2010PropOp36
 70
     1
102
RTVSPost2010Prop37
 90
       50
102
RTVSPost2010PropOp37
 70
     1
102
RTVSPost2010Prop38
140
0.0
102
RTVSPost2010PropOp38
 70
     1
102
RTVSPost2010Prop39
140
1.0
102
RTVSPost2010PropOp39
 70
     1
102
RTVSPost2010Prop40
 90
        0
102
RTVSPost2010PropOp40
 70
     1
102
RTVSPost2010Prop41ColorIndex
 90
       18
102
RTVSPost2010Prop41ColorRGB
 90
        0
102
RTVSPost2010PropOp41
 70
     1
102
RTVSPost2010Prop42
 90
       50
102
RTVSPost2010PropOp42
 70
     1
102
RTVSPost2010Prop43
 90
        3
102
RTVSPost2010PropOp43
 70
     1
102
RTVSPost2010Prop44ColorIndex
 90
        5
102
RTVSPost2010Prop44ColorRGB
 90
      255
102
RTVSPost2010PropOp44
 70
     1
102
RTVSPost2010Prop45
280
     0
102
RTVSPost2010PropOp45
 70
     1
102
RTVSPost2010Prop46
 90
       50
102
RTVSPost2010PropOp46
 70
     1
102
RTVSPost2010Prop47
 90
       50
102
RTVSPost2010PropOp47
 70
     1
102
RTVSPost2010Prop48
 90
       50
102
RTVSPost2010PropOp48
 70
     1
102
RTVSPost2010Prop49
280
     0
102
RTVSPost2010PropOp49
 70
     1
102
RTVSPost2010Prop50
 90
       50
102
RTVSPost2010PropOp50
 70
     1
102
RTVSPost2010Prop51ColorIndex
 90
      256
102
RTVSPost2010Prop51ColorRGB
 90
-16777216
102
RTVSPost2010PropOp51
 70
     0
102
RTVSPost2010Prop52
140
1.0
102
RTVSPost2010PropOp52
 70
     0
102
RTVSPost2010Prop53
 90
        2
102
RTVSPost2010PropOp53
 70
     1
102
RTVSPost2010Prop54
  1
strokes_ogs.tif
102
RTVSPost2010PropOp54
 70
     1
102
RTVSPost2010Prop55
280
     0
102
RTVSPost2010PropOp55
 70
     1
102
RTVSPost2010Prop56
140
1.0
102
RTVSPost2010PropOp56
 70
     1
102
RTVSPost2010Prop57
140
1.0
102
RTVSPost2010PropOp57
 70
     1
102
RTVSPropertyOp0
 70
     1
102
RTVSPropertyOp1
 70
     1
102
RTVSPropertyOp2
 70
     1
102
RTVSPropertyOp3
 70
     1
102
RTVSPropertyOp4
 70
     1
102
RTVSPropertyOp5
 70
     1
102
RTVSPropertyOp6
 70
     1
102
RTVSPropertyOp7
 70
     1
102
RTVSPropertyOp8
 70
     1
102
RTVSPropertyOp9
 70
     1
102
RTVSPropertyOp10
 70
     1
102
RTVSPropertyOp11
 70
     1
102
RTVSPropertyOp12
 70
     1
102
RTVSPropertyOp13
 70
     1
102
RTVSPropertyOp14
 70
     1
102
RTVSPropertyOp15
 70
     1
102
RTVSPropertyOp16
 70
     1
102
RTVSPropertyOp17
 70
     1
102
RTVSPropertyOp18
 70
     1
102
RTVSPropertyOp19
 70
     1
102
RTVSPropertyOp20
 70
     1
102
RTVSPropertyOp21
 70
     1
102
RTVSPropertyOp22
 70
     1
102
RTVSPropertyOp23
 70
     1
102
RTVSPropertyOp24
 70
     1
102
RTVSPropertyOp25
 70
     1
102
RTVSPropertyOp26
 70
     1
102
RTVSPropertyOp27
 70
     1
102
RTVSPropertyOp28
 70
     1
102
RTVSPropertyOp29
 70
     1
102
RTVSPropertyOp30
 70
     1
102
RTVSPropertyOp31
 70
     1
102
RTVSPropertyOp32
 70
     1
102
RTVSPropertyOp33
 70
     1
102
RTVSPropertyOp34
 70
     1
102
RTVSPropertyOp35
 70
     1
102
RTVSPropertyOp36
 70
     1
102
RTVSPropertyOp37
 70
     1
102
RTVSPropertyOp38
 70
     1
102
RTVSPropertyOp39
 70
     1
102
RTVSPropertyOp40
 70
     1
102
RTVSPropertyOp41
 70
     1
102
RTVSPropertyOp42
 70
     1
102
RTVSPropertyOp43
 70
     1
102
RTVSPropertyOp44
 70
     1
102
RTVSPropertyOp45
 70
     1
102
RTVSPropertyOp46
 70
     1
102
RTVSPropertyOp47
 70
     1
102
RTVSPropertyOp48
 70
     1
102
RTVSPropertyOp49
 70
     1
102
RTVSPropertyOp50
 70
     1
102
RTVSPropertyOp51
 70
     0
102
RTVSPropertyOp52
 70
     0
102
RTVSPropertyOp53
 70
     1
102
RTVSPropertyOp54
 70
     1
102
RTVSPropertyOp55
 70
     1
102
RTVSPropertyOp56
 70
     1
102
RTVSPropertyOp57
 70
     1
102
RTVSPropertyOp58
 70
     1
102
RTVSPropertyOp59
 70
     1
102
RTVSPropertyOp60
 70
     1
102
RTVSPropertyOp61
 70
     1
102
RTVSPropertyOp62
 70
     1
  0
XRECORD
  5
4C0
102
{ACAD_REACTORS
330
4BF
102
}
330
4BF
100
AcDbXrecord
280
     1
102
RTVSPost2010Prop28
280
     0
102
RTVSPost2010PropOp28
 70
     1
102
RTVSPost2010Prop29
280
     1
102
RTVSPost2010PropOp29
 70
     1
102
RTVSPost2010Prop30
280
     1
102
RTVSPost2010PropOp30
 70
     1
102
RTVSPost2010Prop31
280
     0
102
RTVSPost2010PropOp31
 70
     1
102
RTVSPost2010Prop32
280
     0
102
RTVSPost2010PropOp32
 70
     1
102
RTVSPost2010Prop33
280
     0
102
RTVSPost2010PropOp33
 70
     1
102
RTVSPost2010Prop34
280
     0
102
RTVSPost2010PropOp34
 70
     1
102
RTVSPost2010Prop35
280
     0
102
RTVSPost2010PropOp35
 70
     1
102
RTVSPost2010Prop36
280
     0
102
RTVSPost2010PropOp36
 70
     1
102
RTVSPost2010Prop37
 90
       50
102
RTVSPost2010PropOp37
 70
     1
102
RTVSPost2010Prop38
140
0.0
102
RTVSPost2010PropOp38
 70
     1
102
RTVSPost2010Prop39
140
1.0
102
RTVSPost2010PropOp39
 70
     1
102
RTVSPost2010Prop40
 90
        0
102
RTVSPost2010PropOp40
 70
     1
102
RTVSPost2010Prop41ColorIndex
 90
       18
102
RTVSPost2010Prop41ColorRGB
 90
        0
102
RTVSPost2010PropOp41
 70
     1
102
RTVSPost2010Prop42
 90
       50
102
RTVSPost2010PropOp42
 70
     1
102
RTVSPost2010Prop43
 90
        3
102
RTVSPost2010PropOp43
 70
     1
102
RTVSPost2010Prop44ColorIndex
 90
        5
102
RTVSPost2010Prop44ColorRGB
 90
      255
102
RTVSPost2010PropOp44
 70
     1
102
RTVSPost2010Prop45
280
     0
102
RTVSPost2010PropOp45
 70
     1
102
RTVSPost2010Prop46
 90
       50
102
RTVSPost2010PropOp46
 70
     1
102
RTVSPost2010Prop47
 90
       50
102
RTVSPost2010PropOp47
 70
     1
102
RTVSPost2010Prop48
 90
       50
102
RTVSPost2010PropOp48
 70
     1
102
RTVSPost2010Prop49
280
     0
102
RTVSPost2010PropOp49
 70
     1
102
RTVSPost2010Prop50
 90
       50
102
RTVSPost2010PropOp50
 70
     1
102
RTVSPost2010Prop51ColorIndex
 90
      256
102
RTVSPost2010Prop51ColorRGB
 90
-16777216
102
RTVSPost2010PropOp51
 70
     0
102
RTVSPost2010Prop52
140
1.0
102
RTVSPost2010PropOp52
 70
     0
102
RTVSPost2010Prop53
 90
        2
102
RTVSPost2010PropOp53
 70
     1
102
RTVSPost2010Prop54
  1
strokes_ogs.tif
102
RTVSPost2010PropOp54
 70
     1
102
RTVSPost2010Prop55
280
     0
102
RTVSPost2010PropOp55
 70
     1
102
RTVSPost2010Prop56
140
1.0
102
RTVSPost2010PropOp56
 70
     1
102
RTVSPost2010Prop57
140
1.0
102
RTVSPost2010PropOp57
 70
     1
102
RTVSPropertyOp0
 70
     1
102
RTVSPropertyOp1
 70
     1
102
RTVSPropertyOp2
 70
     1
102
RTVSPropertyOp3
 70
     1
102
RTVSPropertyOp4
 70
     1
102
RTVSPropertyOp5
 70
     1
102
RTVSPropertyOp6
 70
     1
102
RTVSPropertyOp7
 70
     1
102
RTVSPropertyOp8
 70
     1
102
RTVSPropertyOp9
 70
     1
102
RTVSPropertyOp10
 70
     1
102
RTVSPropertyOp11
 70
     1
102
RTVSPropertyOp12
 70
     1
102
RTVSPropertyOp13
 70
     1
102
RTVSPropertyOp14
 70
     1
102
RTVSPropertyOp15
 70
     1
102
RTVSPropertyOp16
 70
     1
102
RTVSPropertyOp17
 70
     1
102
RTVSPropertyOp18
 70
     1
102
RTVSPropertyOp19
 70
     1
102
RTVSPropertyOp20
 70
     1
102
RTVSPropertyOp21
 70
     1
102
RTVSPropertyOp22
 70
     1
102
RTVSPropertyOp23
 70
     1
102
RTVSPropertyOp24
 70
     1
102
RTVSPropertyOp25
 70
     1
102
RTVSPropertyOp26
 70
     1
102
RTVSPropertyOp27
 70
     1
102
RTVSPropertyOp28
 70
     1
102
RTVSPropertyOp29
 70
     1
102
RTVSPropertyOp30
 70
     1
102
RTVSPropertyOp31
 70
     1
102
RTVSPropertyOp32
 70
     1
102
RTVSPropertyOp33
 70
     1
102
RTVSPropertyOp34
 70
     1
102
RTVSPropertyOp35
 70
     1
102
RTVSPropertyOp36
 70
     1
102
RTVSPropertyOp37
 70
     1
102
RTVSPropertyOp38
 70
     1
102
RTVSPropertyOp39
 70
     1
102
RTVSPropertyOp40
 70
     1
102
RTVSPropertyOp41
 70
     1
102
RTVSPropertyOp42
 70
     1
102
RTVSPropertyOp43
 70
     1
102
RTVSPropertyOp44
 70
     1
102
RTVSPropertyOp45
 70
     1
102
RTVSPropertyOp46
 70
     1
102
RTVSPropertyOp47
 70
     1
102
RTVSPropertyOp48
 70
     1
102
RTVSPropertyOp49
 70
     1
102
RTVSPropertyOp50
 70
     1
102
RTVSPropertyOp51
 70
     0
102
RTVSPropertyOp52
 70
     0
102
RTVSPropertyOp53
 70
     1
102
RTVSPropertyOp54
 70
     1
102
RTVSPropertyOp55
 70
     1
102
RTVSPropertyOp56
 70
     1
102
RTVSPropertyOp57
 70
     1
102
RTVSPropertyOp58
 70
     1
102
RTVSPropertyOp59
 70
     1
102
RTVSPropertyOp60
 70
     1
102
RTVSPropertyOp61
 70
     1
102
RTVSPropertyOp62
 70
     1
  0
ENDSEC
  0
EOF
