  0
SECTION
  2
HEADER
  9
$ACADVER
  1
AC1015
  9
$ACADMAINTVER
 70
    20
  9
$DWGCODEPAGE
  3
ANSI_932
  9
$INSBASE
 10
0.0
 20
0.0
 30
0.0
  9
$EXTMIN
 10
60.0
 20
60.0
 30
0.0
  9
$EXTMAX
 10
1425.0
 20
960.0
 30
0.0
  9
$LIMMIN
 10
0.0
 20
0.0
  9
$LIMMAX
 10
1485.0
 20
1050.0
  9
$ORTHOMODE
 70
     0
  9
$REGENMODE
 70
     1
  9
$FILLMODE
 70
     1
  9
$QTEXTMODE
 70
     0
  9
$MIRRTEXT
 70
     0
  9
$LTSCALE
 40
5.0
  9
$ATTMODE
 70
     1
  9
$TEXTSIZE
 40
0.2
  9
$TRACEWID
 40
0.05
  9
$TEXTSTYLE
  7
STANDARD
  9
$CLAYER
  8
0
  9
$CELTYPE
  6
CONTINUOUS
  9
$CECOLOR
 62
   256
  9
$CELTSCALE
 40
1.0
  9
$DISPSILH
 70
     0
  9
$DIMSCALE
 40
1.0
  9
$DIMASZ
 40
0.18
  9
$DIMEXO
 40
0.0625
  9
$DIMDLI
 40
0.38
  9
$DIMRND
 40
0.0
  9
$DIMDLE
 40
0.0
  9
$DIMEXE
 40
0.18
  9
$DIMTP
 40
0.0
  9
$DIMTM
 40
0.0
  9
$DIMTXT
 40
0.18
  9
$DIMCEN
 40
0.09
  9
$DIMTSZ
 40
0.0
  9
$DIMTOL
 70
     0
  9
$DIMLIM
 70
     0
  9
$DIMTIH
 70
     1
  9
$DIMTOH
 70
     1
  9
$DIMSE1
 70
     0
  9
$DIMSE2
 70
     0
  9
$DIMTAD
 70
     0
  9
$DIMZIN
 70
     0
  9
$DIMBLK
  1

  9
$DIMASO
 70
     1
  9
$DIMSHO
 70
     1
  9
$DIMPOST
  1

  9
$DIMAPOST
  1

  9
$DIMALT
 70
     0
  9
$DIMALTD
 70
     2
  9
$DIMALTF
 40
25.4
  9
$DIMLFAC
 40
1.0
  9
$DIMTOFL
 70
     0
  9
$DIMTVP
 40
0.0
  9
$DIMTIX
 70
     0
  9
$DIMSOXD
 70
     0
  9
$DIMSAH
 70
     0
  9
$DIMBLK1
  1

  9
$DIMBLK2
  1

  9
$DIMSTYLE
  2
Standard
  9
$DIMCLRD
 70
     0
  9
$DIMCLRE
 70
     0
  9
$DIMCLRT
 70
     0
  9
$DIMTFAC
 40
1.0
  9
$DIMGAP
 40
0.09
  9
$DIMJUST
 70
     0
  9
$DIMSD1
 70
     0
  9
$DIMSD2
 70
     0
  9
$DIMTOLJ
 70
     1
  9
$DIMTZIN
 70
     0
  9
$DIMALTZ
 70
     0
  9
$DIMALTTZ
 70
     0
  9
$DIMUPT
 70
     0
  9
$DIMDEC
 70
     4
  9
$DIMTDEC
 70
     4
  9
$DIMALTU
 70
     2
  9
$DIMALTTD
 70
     2
  9
$DIMTXSTY
  7
STANDARD
  9
$DIMAUNIT
 70
     0
  9
$DIMADEC
 70
     0
  9
$DIMALTRND
 40
0.0
  9
$DIMAZIN
 70
     0
  9
$DIMDSEP
 70
    46
  9
$DIMATFIT
 70
     3
  9
$DIMFRAC
 70
     0
  9
$DIMLDRBLK
  1

  9
$DIMLUNIT
 70
     2
  9
$DIMLWD
 70
    -2
  9
$DIMLWE
 70
    -2
  9
$DIMTMOVE
 70
     0
  9
$LUNITS
 70
     2
  9
$LUPREC
 70
     4
  9
$SKETCHINC
 40
0.1
  9
$FILLETRAD
 40
0.0
  9
$AUNITS
 70
     0
  9
$AUPREC
 70
     0
  9
$MENU
  1
.
  9
$ELEVATION
 40
0.0
  9
$PELEVATION
 40
0.0
  9
$THICKNESS
 40
0.0
  9
$LIMCHECK
 70
     0
  9
$CHAMFERA
 40
0.0
  9
$CHAMFERB
 40
0.0
  9
$CHAMFERC
 40
0.0
  9
$CHAMFERD
 40
0.0
  9
$SKPOLY
 70
     0
  9
$TDCREATE
 40
2457892.637342396
  9
$TDUCREATE
 40
2457892.262342396
  9
$TDUPDATE
 40
2457892.641157512
  9
$TDUUPDATE
 40
2457892.266157512
  9
$TDINDWG
 40
0.0023668519
  9
$TDUSRTIMER
 40
0.0023668519
  9
$USRTIMER
 70
     1
  9
$ANGBASE
 50
0.0
  9
$ANGDIR
 70
     0
  9
$PDMODE
 70
     0
  9
$PDSIZE
 40
0.0
  9
$PLINEWID
 40
0.0
  9
$SPLFRAME
 70
     0
  9
$SPLINETYPE
 70
     6
  9
$SPLINESEGS
 70
     8
  9
$HANDSEED
  5
4DD
  9
$SURFTAB1
 70
     6
  9
$SURFTAB2
 70
     6
  9
$SURFTYPE
 70
     6
  9
$SURFU
 70
     6
  9
$SURFV
 70
     6
  9
$UCSBASE
  2

  9
$UCSNAME
  2

  9
$UCSORG
 10
0.0
 20
0.0
 30
0.0
  9
$UCSXDIR
 10
1.0
 20
0.0
 30
0.0
  9
$UCSYDIR
 10
0.0
 20
1.0
 30
0.0
  9
$UCSORTHOREF
  2

  9
$UCSORTHOVIEW
 70
     0
  9
$UCSORGTOP
 10
0.0
 20
0.0
 30
0.0
  9
$UCSORGBOTTOM
 10
0.0
 20
0.0
 30
0.0
  9
$UCSORGLEFT
 10
0.0
 20
0.0
 30
0.0
  9
$UCSORGRIGHT
 10
0.0
 20
0.0
 30
0.0
  9
$UCSORGFRONT
 10
0.0
 20
0.0
 30
0.0
  9
$UCSORGBACK
 10
0.0
 20
0.0
 30
0.0
  9
$PUCSBASE
  2

  9
$PUCSNAME
  2

  9
$PUCSORG
 10
0.0
 20
0.0
 30
0.0
  9
$PUCSXDIR
 10
1.0
 20
0.0
 30
0.0
  9
$PUCSYDIR
 10
0.0
 20
1.0
 30
0.0
  9
$PUCSORTHOREF
  2

  9
$PUCSORTHOVIEW
 70
     0
  9
$PUCSORGTOP
 10
0.0
 20
0.0
 30
0.0
  9
$PUCSORGBOTTOM
 10
0.0
 20
0.0
 30
0.0
  9
$PUCSORGLEFT
 10
0.0
 20
0.0
 30
0.0
  9
$PUCSORGRIGHT
 10
0.0
 20
0.0
 30
0.0
  9
$PUCSORGFRONT
 10
0.0
 20
0.0
 30
0.0
  9
$PUCSORGBACK
 10
0.0
 20
0.0
 30
0.0
  9
$USERI1
 70
     0
  9
$USERI2
 70
     0
  9
$USERI3
 70
     0
  9
$USERI4
 70
     0
  9
$USERI5
 70
     0
  9
$USERR1
 40
0.0
  9
$USERR2
 40
0.0
  9
$USERR3
 40
0.0
  9
$USERR4
 40
0.0
  9
$USERR5
 40
0.0
  9
$WORLDVIEW
 70
     1
  9
$SHADEDGE
 70
     3
  9
$SHADEDIF
 70
    70
  9
$TILEMODE
 70
     1
  9
$MAXACTVP
 70
    64
  9
$PINSBASE
 10
0.0
 20
0.0
 30
0.0
  9
$PLIMCHECK
 70
     0
  9
$PEXTMIN
 10
1.000000000000000E+20
 20
1.000000000000000E+20
 30
1.000000000000000E+20
  9
$PEXTMAX
 10
-1.000000000000000E+20
 20
-1.000000000000000E+20
 30
-1.000000000000000E+20
  9
$PLIMMIN
 10
0.0
 20
0.0
  9
$PLIMMAX
 10
12.0
 20
9.0
  9
$UNITMODE
 70
     0
  9
$VISRETAIN
 70
     1
  9
$PLINEGEN
 70
     0
  9
$PSLTSCALE
 70
     1
  9
$TREEDEPTH
 70
  3020
  9
$CMLSTYLE
  2
Standard
  9
$CMLJUST
 70
     0
  9
$CMLSCALE
 40
1.0
  9
$PROXYGRAPHICS
 70
     1
  9
$MEASUREMENT
 70
     0
  9
$CELWEIGHT
370
    -1
  9
$ENDCAPS
280
     0
  9
$JOINSTYLE
280
     0
  9
$LWDISPLAY
290
     0
  9
$INSUNITS
 70
     0
  9
$HYPERLINKBASE
  1

  9
$STYLESHEET
  1

  9
$XEDIT
290
     1
  9
$CEPSNTYPE
380
     0
  9
$PSTYLEMODE
290
     1
  9
$FINGERPRINTGUID
  2
{43952AC4-AB2A-4B47-9348-638A24BAD80B}
  9
$VERSIONGUID
  2
{8376097E-3967-48C8-AFC4-1C23E7F58C9A}
  9
$EXTNAMES
290
     1
  9
$PSVPSCALE
 40
0.0
  9
$OLESTARTUP
290
     0
  0
ENDSEC
  0
SECTION
  2
CLASSES
  0
CLASS
  1
ACDBDICTIONARYWDFLT
  2
AcDbDictionaryWithDefault
  3
ObjectDBX Classes
 90
        0
280
     0
281
     0
  0
CLASS
  1
MATERIAL
  2
AcDbMaterial
  3
ObjectDBX Classes
 90
     1153
280
     0
281
     0
  0
CLASS
  1
VISUALSTYLE
  2
AcDbVisualStyle
  3
ObjectDBX Classes
 90
     4095
280
     0
281
     0
  0
CLASS
  1
SCALE
  2
AcDbScale
  3
ObjectDBX Classes
 90
     1153
280
     0
281
     0
  0
CLASS
  1
TABLESTYLE
  2
AcDbTableStyle
  3
ObjectDBX Classes
 90
     4095
280
     0
281
     0
  0
CLASS
  1
MLEADERSTYLE
  2
AcDbMLeaderStyle
  3
ACDB_MLEADERSTYLE_CLASS
 90
     4095
280
     0
281
     0
  0
CLASS
  1
ACDBSECTIONVIEWSTYLE
  2
AcDbSectionViewStyle
  3
ObjectDBX Classes
 90
     1025
280
     0
281
     0
  0
CLASS
  1
ACDBDETAILVIEWSTYLE
  2
AcDbDetailViewStyle
  3
ObjectDBX Classes
 90
     1025
280
     0
281
     0
  0
CLASS
  1
DICTIONARYVAR
  2
AcDbDictionaryVar
  3
ObjectDBX Classes
 90
        0
280
     0
281
     0
  0
CLASS
  1
CELLSTYLEMAP
  2
AcDbCellStyleMap
  3
ObjectDBX Classes
 90
     1152
280
     0
281
     0
  0
CLASS
  1
ACDBPLACEHOLDER
  2
AcDbPlaceHolder
  3
ObjectDBX Classes
 90
        0
280
     0
281
     0
  0
CLASS
  1
LAYOUT
  2
AcDbLayout
  3
ObjectDBX Classes
 90
        0
280
     0
281
     0
  0
ENDSEC
  0
SECTION
  2
TABLES
  0
TABLE
  2
VPORT
  5
8
330
0
100
AcDbSymbolTable
 70
     1
  0
VPORT
  5
A4
330
8
100
AcDbSymbolTableRecord
100
AcDbViewportTableRecord
  2
*Active
 70
     0
 10
0.0
 20
0.0
 11
1.0
 21
1.0
 12
742.5000034575344
 22
510.0196862651729
 13
0.0
 23
0.0
 14
1.0
 24
1.0
 15
0.0
 25
0.0
 16
0.0
 26
0.0
 36
1.0
 17
0.0
 27
0.0
 37
0.0
 40
907.7444460261299
 41
1.78072625698324
 42
50.0
 43
0.0
 44
0.0
 50
0.0
 51
0.0
 71
     0
 72
   100
 73
     1
 74
     1
 75
     0
 76
     0
 77
     0
 78
     0
281
     0
 65
     1
110
0.0
120
0.0
130
0.0
111
1.0
121
0.0
131
0.0
112
0.0
122
1.0
132
0.0
 79
     0
146
0.0
1001
ACAD_NAV_VCDISPLAY
1070
     3
  0
ENDTAB
  0
TABLE
  2
LTYPE
  5
5
330
0
100
AcDbSymbolTable
 70
    35
  0
LTYPE
  5
5A
330
5
100
AcDbSymbolTableRecord
100
AcDbLinetypeTableRecord
  2
ByBlock
 70
     0
  3

 72
    65
 73
     0
 40
0.0
  0
LTYPE
  5
5B
330
5
100
AcDbSymbolTableRecord
100
AcDbLinetypeTableRecord
  2
ByLayer
 70
     0
  3

 72
    65
 73
     0
 40
0.0
  0
LTYPE
  5
5C
330
5
100
AcDbSymbolTableRecord
100
AcDbLinetypeTableRecord
  2
CONTINUOUS
 70
     0
  3
実線
 72
    65
 73
     0
 40
0.0
  0
LTYPE
  5
73
330
5
100
AcDbSymbolTableRecord
100
AcDbLinetypeTableRecord
  2
DASHED1
 70
     0
  3
--  --  --  --  --  --  --  --  
 72
    65
 73
     2
 40
2.5
 49
1.25
 74
     0
 49
-1.25
 74
     0
  0
LTYPE
  5
74
330
5
100
AcDbSymbolTableRecord
100
AcDbLinetypeTableRecord
  2
DASHED2
 70
     0
  3
----    ----    ----    ----    
 72
    65
 73
     2
 40
5.0
 49
2.5
 74
     0
 49
-2.5
 74
     0
  0
LTYPE
  5
75
330
5
100
AcDbSymbolTableRecord
100
AcDbLinetypeTableRecord
  2
DASHED3
 70
     0
  3
------  ------  ------  ------  
 72
    65
 73
     2
 40
5.0
 49
3.75
 74
     0
 49
-1.25
 74
     0
  0
LTYPE
  5
76
330
5
100
AcDbSymbolTableRecord
100
AcDbLinetypeTableRecord
  2
CENTER1
 70
     0
  3
----- - ----- - ----- - ----- - 
 72
    65
 73
     4
 40
10.0
 49
6.25
 74
     0
 49
-1.25
 74
     0
 49
1.25
 74
     0
 49
-1.25
 74
     0
  0
LTYPE
  5
77
330
5
100
AcDbSymbolTableRecord
100
AcDbLinetypeTableRecord
  2
CENTER2
 70
     0
  3
----------  --  ----------  --  
 72
    65
 73
     4
 40
20.0
 49
12.5
 74
     0
 49
-2.5
 74
     0
 49
2.5
 74
     0
 49
-2.5
 74
     0
  0
LTYPE
  5
78
330
5
100
AcDbSymbolTableRecord
100
AcDbLinetypeTableRecord
  2
PHANTOM1
 70
     0
  3
--- - - --- - - --- - - --- - - 
 72
    65
 73
     6
 40
10.0
 49
3.25
 74
     0
 49
-1.25
 74
     0
 49
1.25
 74
     0
 49
-1.25
 74
     0
 49
1.25
 74
     0
 49
-1.25
 74
     0
  0
LTYPE
  5
79
330
5
100
AcDbSymbolTableRecord
100
AcDbLinetypeTableRecord
  2
PHANTOM2
 70
     0
  3
--------  -  -  --------  -  -  
 72
    65
 73
     6
 40
20.0
 49
10.0
 74
     0
 49
-2.5
 74
     0
 49
1.25
 74
     0
 49
-2.5
 74
     0
 49
1.25
 74
     0
 49
-2.5
 74
     0
  0
LTYPE
  5
7A
330
5
100
AcDbSymbolTableRecord
100
AcDbLinetypeTableRecord
  2
DOT
 70
     0
  3
-   -   -   -   -   -   -   -   
 72
    65
 73
     2
 40
2.5
 49
0.625
 74
     0
 49
-1.875
 74
     0
  0
LTYPE
  5
7B
330
5
100
AcDbSymbolTableRecord
100
AcDbLinetypeTableRecord
  2
DUMMY
 70
     0
  3
ダミー
 72
    65
 73
     0
 40
0.0
  0
LTYPE
  5
7C
330
5
100
AcDbSymbolTableRecord
100
AcDbLinetypeTableRecord
  2
RAND1
 70
     0
  3
ランダム線1
 72
    65
 73
     4
 40
10.0
 49
1.0
 74
     0
 49
-2.0
 74
     0
 49
3.0
 74
     0
 49
-4.0
 74
     0
  0
LTYPE
  5
7D
330
5
100
AcDbSymbolTableRecord
100
AcDbLinetypeTableRecord
  2
RAND2
 70
     0
  3
ランダム線2
 72
    65
 73
     4
 40
14.0
 49
2.0
 74
     0
 49
-3.0
 74
     0
 49
4.0
 74
     0
 49
-5.0
 74
     0
  0
LTYPE
  5
7E
330
5
100
AcDbSymbolTableRecord
100
AcDbLinetypeTableRecord
  2
RAND3
 70
     0
  3
ランダム線3
 72
    65
 73
     4
 40
18.0
 49
3.0
 74
     0
 49
-4.0
 74
     0
 49
5.0
 74
     0
 49
-6.0
 74
     0
  0
LTYPE
  5
7F
330
5
100
AcDbSymbolTableRecord
100
AcDbLinetypeTableRecord
  2
RAND4
 70
     0
  3
ランダム線4
 72
    65
 73
     4
 40
22.0
 49
4.0
 74
     0
 49
-5.0
 74
     0
 49
6.0
 74
     0
 49
-7.0
 74
     0
  0
LTYPE
  5
80
330
5
100
AcDbSymbolTableRecord
100
AcDbLinetypeTableRecord
  2
RAND5
 70
     0
  3
ランダム線5
 72
    65
 73
     4
 40
26.0
 49
5.0
 74
     0
 49
-6.0
 74
     0
 49
7.0
 74
     0
 49
-8.0
 74
     0
  0
LTYPE
  5
81
330
5
100
AcDbSymbolTableRecord
100
AcDbLinetypeTableRecord
  2
LONG1
 70
     0
  3
----------  --  ----------  --  
 72
    65
 73
     4
 40
40.0
 49
32.5
 74
     0
 49
-2.5
 74
     0
 49
2.5
 74
     0
 49
-2.5
 74
     0
  0
LTYPE
  5
82
330
5
100
AcDbSymbolTableRecord
100
AcDbLinetypeTableRecord
  2
LONG2
 70
     0
  3
--------  -  -  --------  -  -  
 72
    65
 73
     6
 40
40.0
 49
30.0
 74
     0
 49
-2.5
 74
     0
 49
1.25
 74
     0
 49
-2.5
 74
     0
 49
1.25
 74
     0
 49
-2.5
 74
     0
  0
LTYPE
  5
83
330
5
100
AcDbSymbolTableRecord
100
AcDbLinetypeTableRecord
  2
LONG3
 70
     0
  3
+++++++++++++++..+++++++++++++++
 72
    65
 73
     2
 40
40.0
 49
37.5
 74
     0
 49
-2.5
 74
     0
  0
LTYPE
  5
84
330
5
100
AcDbSymbolTableRecord
100
AcDbLinetypeTableRecord
  2
LONG4
 70
     0
  3
+++++++++++++++..+++++++++++++++
 72
    65
 73
     2
 40
80.0
 49
75.0
 74
     0
 49
-5.0
 74
     0
  0
LTYPE
  5
85
330
5
100
AcDbSymbolTableRecord
100
AcDbLinetypeTableRecord
  2
LONG5
 70
     0
  3
----------  --  ----------  --  
 72
    65
 73
     4
 40
60.0
 49
37.5
 74
     0
 49
-7.5
 74
     0
 49
7.5
 74
     0
 49
-7.5
 74
     0
  0
LTYPE
  5
86
330
5
100
AcDbSymbolTableRecord
100
AcDbLinetypeTableRecord
  2
DASHED
 70
     0
  3
-------   -------------   ------
 72
    65
 73
     2
 40
7.5
 49
6.0
 74
     0
 49
-1.5
 74
     0
  0
LTYPE
  5
87
330
5
100
AcDbSymbolTableRecord
100
AcDbLinetypeTableRecord
  2
DASHED_SPACED
 70
     0
  3
----        --------        ----
 72
    65
 73
     2
 40
12.0
 49
6.0
 74
     0
 49
-6.0
 74
     0
  0
LTYPE
  5
88
330
5
100
AcDbSymbolTableRecord
100
AcDbLinetypeTableRecord
  2
LONG_DASHED_DOTTED
 70
     0
  3
------------- --- --------------
 72
    65
 73
     4
 40
15.25
 49
12.0
 74
     0
 49
-1.5
 74
     0
 49
0.25
 74
     0
 49
-1.5
 74
     0
  0
LTYPE
  5
89
330
5
100
AcDbSymbolTableRecord
100
AcDbLinetypeTableRecord
  2
LONG_DASHED_DOUBLE-DOTTED
 70
     0
  3
----------- --- --- ------------
 72
    65
 73
     6
 40
17.0
 49
12.0
 74
     0
 49
-1.5
 74
     0
 49
0.25
 74
     0
 49
-1.5
 74
     0
 49
0.25
 74
     0
 49
-1.5
 74
     0
  0
LTYPE
  5
8A
330
5
100
AcDbSymbolTableRecord
100
AcDbLinetypeTableRecord
  2
LONG_DASHED_TRIPLICATE-DOTTED
 70
     0
  3
--------- --- --- --- ----------
 72
    65
 73
     8
 40
18.75
 49
12.0
 74
     0
 49
-1.5
 74
     0
 49
0.25
 74
     0
 49
-1.5
 74
     0
 49
0.25
 74
     0
 49
-1.5
 74
     0
 49
0.25
 74
     0
 49
-1.5
 74
     0
  0
LTYPE
  5
8B
330
5
100
AcDbSymbolTableRecord
100
AcDbLinetypeTableRecord
  2
DOTTED
 70
     0
  3
   -       -       -       -    
 72
    65
 73
     2
 40
1.75
 49
0.25
 74
     0
 49
-1.5
 74
     0
  0
LTYPE
  5
8C
330
5
100
AcDbSymbolTableRecord
100
AcDbLinetypeTableRecord
  2
CHAIN
 70
     0
  3
-------------- -- --------------
 72
    65
 73
     4
 40
18.5
 49
12.0
 74
     0
 49
-1.5
 74
     0
 49
3.5
 74
     0
 49
-1.5
 74
     0
  0
LTYPE
  5
8D
330
5
100
AcDbSymbolTableRecord
100
AcDbLinetypeTableRecord
  2
CHAIN_DOUBLE_DASH
 70
     0
  3
------------ -- -- -------------
 72
    65
 73
     6
 40
23.5
 49
12.0
 74
     0
 49
-1.5
 74
     0
 49
3.5
 74
     0
 49
-1.5
 74
     0
 49
3.5
 74
     0
 49
-1.5
 74
     0
  0
LTYPE
  5
8E
330
5
100
AcDbSymbolTableRecord
100
AcDbLinetypeTableRecord
  2
DASHED_DOTTED
 70
     0
  3
-----------     -     ----------
 72
    65
 73
     4
 40
9.25
 49
6.0
 74
     0
 49
-1.5
 74
     0
 49
0.25
 74
     0
 49
-1.5
 74
     0
  0
LTYPE
  5
8F
330
5
100
AcDbSymbolTableRecord
100
AcDbLinetypeTableRecord
  2
DOUBLE-DASHED_DOTTED
 70
     0
  3
------   -----------   -   -----
 72
    65
 73
     6
 40
16.75
 49
6.0
 74
     0
 49
-1.5
 74
     0
 49
6.0
 74
     0
 49
-1.5
 74
     0
 49
0.25
 74
     0
 49
-1.5
 74
     0
  0
LTYPE
  5
90
330
5
100
AcDbSymbolTableRecord
100
AcDbLinetypeTableRecord
  2
DASHED_DOUBLE-DOTTED
 70
     0
  3
---------    -    -    ---------
 72
    65
 73
     6
 40
11.0
 49
6.0
 74
     0
 49
-1.5
 74
     0
 49
0.25
 74
     0
 49
-1.5
 74
     0
 49
0.25
 74
     0
 49
-1.5
 74
     0
  0
LTYPE
  5
91
330
5
100
AcDbSymbolTableRecord
100
AcDbLinetypeTableRecord
  2
DOUBLE-DASHED_DOUBLE-DOTTED
 70
     0
  3
-----   ---------   -   -   ----
 72
    65
 73
     8
 40
18.5
 49
6.0
 74
     0
 49
-1.5
 74
     0
 49
6.0
 74
     0
 49
-1.5
 74
     0
 49
0.25
 74
     0
 49
-1.5
 74
     0
 49
0.25
 74
     0
 49
-1.5
 74
     0
  0
LTYPE
  5
92
330
5
100
AcDbSymbolTableRecord
100
AcDbLinetypeTableRecord
  2
DASHED_TRIPLICATE-DOTTED
 70
     0
  3
-------    -    -    -    ------
 72
    65
 73
     8
 40
12.75
 49
6.0
 74
     0
 49
-1.5
 74
     0
 49
0.25
 74
     0
 49
-1.5
 74
     0
 49
0.25
 74
     0
 49
-1.5
 74
     0
 49
0.25
 74
     0
 49
-1.5
 74
     0
  0
LTYPE
  5
93
330
5
100
AcDbSymbolTableRecord
100
AcDbLinetypeTableRecord
  2
DOUBLE-DASHED_TRIPLICATE-DOTTED
 70
     0
  3
-----  ---------  -  -  -  -----
 72
    65
 73
    10
 40
20.25
 49
6.0
 74
     0
 49
-1.5
 74
     0
 49
6.0
 74
     0
 49
-1.5
 74
     0
 49
0.25
 74
     0
 49
-1.5
 74
     0
 49
0.25
 74
     0
 49
-1.5
 74
     0
 49
0.25
 74
     0
 49
-1.5
 74
     0
  0
LTYPE
  5
94
330
5
100
AcDbSymbolTableRecord
100
AcDbLinetypeTableRecord
  2
UNDEFINED
 70
     0
  3
--------------------------------
 72
    65
 73
     0
 40
0.0
  0
ENDTAB
  0
TABLE
  2
LAYER
  5
2
102
{ACAD_XDICTIONARY
360
469
102
}
330
0
100
AcDbSymbolTable
 70
    13
  0
LAYER
  5
54
102
{ACAD_XDICTIONARY
360
43C
102
}
330
2
100
AcDbSymbolTableRecord
100
AcDbLayerTableRecord
  2
0
 70
     0
 62
     7
  6
CONTINUOUS
370
    -3
390
F
  0
LAYER
  5
96
102
{ACAD_XDICTIONARY
360
43E
102
}
330
2
100
AcDbSymbolTableRecord
100
AcDbLayerTableRecord
  2
_0-0_計極細
 70
     0
 62
     7
  6
CONTINUOUS
370
    -3
390
F
  0
LAYER
  5
97
102
{ACAD_XDICTIONARY
360
440
102
}
330
2
100
AcDbSymbolTableRecord
100
AcDbLayerTableRecord
  2
_0-1_計細線
 70
     0
 62
     7
  6
CONTINUOUS
370
    -3
390
F
  0
LAYER
  5
98
102
{ACAD_XDICTIONARY
360
442
102
}
330
2
100
AcDbSymbolTableRecord
100
AcDbLayerTableRecord
  2
_0-5_寸法線
 70
     0
 62
     7
  6
CONTINUOUS
370
    -3
390
F
  0
LAYER
  5
99
102
{ACAD_XDICTIONARY
360
444
102
}
330
2
100
AcDbSymbolTableRecord
100
AcDbLayerTableRecord
  2
_0-7_枠細線
 70
     0
 62
     7
  6
CONTINUOUS
370
    -3
390
F
  0
LAYER
  5
9A
102
{ACAD_XDICTIONARY
360
446
102
}
330
2
100
AcDbSymbolTableRecord
100
AcDbLayerTableRecord
  2
_0-8_枠中線
 70
     0
 62
     7
  6
CONTINUOUS
370
    -3
390
F
  0
LAYER
  5
9B
102
{ACAD_XDICTIONARY
360
448
102
}
330
2
100
AcDbSymbolTableRecord
100
AcDbLayerTableRecord
  2
_0-A_極細1
 70
     0
 62
     7
  6
CONTINUOUS
370
    -3
390
F
  0
LAYER
  5
9C
102
{ACAD_XDICTIONARY
360
44A
102
}
330
2
100
AcDbSymbolTableRecord
100
AcDbLayerTableRecord
  2
_0-B_細線1
 70
     0
 62
     7
  6
CONTINUOUS
370
    -3
390
F
  0
LAYER
  5
9D
102
{ACAD_XDICTIONARY
360
44C
102
}
330
2
100
AcDbSymbolTableRecord
100
AcDbLayerTableRecord
  2
_0-D_寸法1
 70
     0
 62
     7
  6
CONTINUOUS
370
    -3
390
F
  0
LAYER
  5
9E
102
{ACAD_XDICTIONARY
360
44E
102
}
330
2
100
AcDbSymbolTableRecord
100
AcDbLayerTableRecord
  2
_0-E_極細2
 70
     0
 62
     7
  6
CONTINUOUS
370
    -3
390
F
  0
LAYER
  5
9F
102
{ACAD_XDICTIONARY
360
450
102
}
330
2
100
AcDbSymbolTableRecord
100
AcDbLayerTableRecord
  2
_0-F_細線2
 70
     0
 62
     7
  6
CONTINUOUS
370
    -3
390
F
  0
LAYER
  5
A0
102
{ACAD_XDICTIONARY
360
452
102
}
330
2
100
AcDbSymbolTableRecord
100
AcDbLayerTableRecord
  2
_1-1_寸法2
 70
     0
 62
     7
  6
CONTINUOUS
370
    -3
390
F
  0
LAYER
  5
A1
102
{ACAD_XDICTIONARY
360
454
102
}
330
2
100
AcDbSymbolTableRecord
100
AcDbLayerTableRecord
  2
ADD_LINE
 70
     0
 62
     7
  6
CONTINUOUS
370
    -3
390
F
  0
ENDTAB
  0
TABLE
  2
STYLE
  5
3
330
0
100
AcDbSymbolTable
 70
     3
  0
STYLE
  5
55
330
3
100
AcDbSymbolTableRecord
100
AcDbTextStyleTableRecord
  2
STANDARD
 70
     0
 40
0.0
 41
1.0
 50
0.0
 71
     0
 42
0.2
  3
txt
  4
bigfont.shx
  0
STYLE
  5
59
330
3
100
AcDbSymbolTableRecord
100
AcDbTextStyleTableRecord
  2
Annotative
 70
     0
 40
0.0
 41
1.0
 50
0.0
 71
     0
 42
0.2
  3
txt
  4

1001
AcadAnnotative
1000
AnnotativeData
1002
{
1070
     1
1070
     1
1002
}
  0
STYLE
  5
95
330
3
100
AcDbSymbolTableRecord
100
AcDbTextStyleTableRecord
  2
TATEGAKI
 70
     4
 40
0.0
 41
1.0
 50
0.0
 71
     0
 42
1.0
  3
txt
  4
bigfont.shx
  0
ENDTAB
  0
TABLE
  2
VIEW
  5
6
330
0
100
AcDbSymbolTable
 70
     0
  0
ENDTAB
  0
TABLE
  2
UCS
  5
7
330
0
100
AcDbSymbolTable
 70
     0
  0
ENDTAB
  0
TABLE
  2
APPID
  5
9
330
0
100
AcDbSymbolTable
 70
     4
  0
APPID
  5
56
330
9
100
AcDbSymbolTableRecord
100
AcDbRegAppTableRecord
  2
ACAD
 70
     0
  0
APPID
  5
5D
330
9
100
AcDbSymbolTableRecord
100
AcDbRegAppTableRecord
  2
AcadAnnotative
 70
     0
  0
APPID
  5
456
330
9
100
AcDbSymbolTableRecord
100
AcDbRegAppTableRecord
  2
ACAD_NAV_VCDISPLAY
 70
     0
  0
APPID
  5
4D6
330
9
100
AcDbSymbolTableRecord
100
AcDbRegAppTableRecord
  2
ACAD_MLEADERVER
 70
     0
  0
ENDTAB
  0
TABLE
  2
DIMSTYLE
  5
A
330
0
100
AcDbSymbolTable
 70
     2
100
AcDbDimStyleTable
 71
     0
  0
DIMSTYLE
105
57
330
A
100
AcDbSymbolTableRecord
100
AcDbDimStyleTableRecord
  2
Standard
 70
     0
340
55
  0
DIMSTYLE
105
58
330
A
100
AcDbSymbolTableRecord
100
AcDbDimStyleTableRecord
  2
Annotative
 70
     0
340
55
1001
AcadAnnotative
1000
AnnotativeData
1002
{
1070
     1
1070
     1
1002
}
  0
ENDTAB
  0
TABLE
  2
BLOCK_RECORD
  5
1
330
0
100
AcDbSymbolTable
 70
     0
  0
BLOCK_RECORD
  5
6F
330
1
100
AcDbSymbolTableRecord
100
AcDbBlockTableRecord
  2
*Model_Space
340
72
  0
BLOCK_RECORD
  5
6B
330
1
100
AcDbSymbolTableRecord
100
AcDbBlockTableRecord
  2
*Paper_Space
340
6E
  0
ENDTAB
  0
ENDSEC
  0
SECTION
  2
BLOCKS
  0
BLOCK
  5
70
330
6F
100
AcDbEntity
  8
0
100
AcDbBlockBegin
  2
*Model_Space
 70
     0
 10
0.0
 20
0.0
 30
0.0
  3
*Model_Space
  1

  0
ENDBLK
  5
71
330
6F
100
AcDbEntity
  8
0
100
AcDbBlockEnd
  0
BLOCK
  5
6C
330
6B
100
AcDbEntity
 67
     1
  8
0
100
AcDbBlockBegin
  2
*Paper_Space
 70
     0
 10
0.0
 20
0.0
 30
0.0
  3
*Paper_Space
  1

  0
ENDBLK
  5
6D
330
6B
100
AcDbEntity
 67
     1
  8
0
100
AcDbBlockEnd
  0
ENDSEC
  0
SECTION
  2
ENTITIES
  0
LINE
  5
A5
330
6F
100
AcDbEntity
  8
_0-8_枠中線
  6
Continuous
 62
     5
100
AcDbLine
 10
60.0
 20
60.0
 30
0.0
 11
60.0
 21
960.0
 31
0.0
  0
LINE
  5
A6
330
6F
100
AcDbEntity
  8
_0-8_枠中線
  6
Continuous
 62
     5
100
AcDbLine
 10
60.0
 20
960.0
 30
0.0
 11
1425.0
 21
960.0
 31
0.0
  0
LINE
  5
A7
330
6F
100
AcDbEntity
  8
_0-8_枠中線
  6
Continuous
 62
     5
100
AcDbLine
 10
1425.0
 20
960.0
 30
0.0
 11
1425.0
 21
60.0
 31
0.0
  0
LINE
  5
A8
330
6F
100
AcDbEntity
  8
_0-8_枠中線
  6
Continuous
 62
     5
100
AcDbLine
 10
1425.0
 20
60.0
 30
0.0
 11
60.0
 21
60.0
 31
0.0
  0
LINE
  5
A9
330
6F
100
AcDbEntity
  8
_0-7_枠細線
  6
Continuous
 62
     5
100
AcDbLine
 10
1185.0
 20
180.0
 30
0.0
 11
1185.0
 21
100.0
 31
0.0
  0
TEXT
  5
AA
330
6F
100
AcDbEntity
  8
_0-7_枠細線
 62
     5
100
AcDbText
 10
937.5
 20
97.5
 30
0.0
 40
15.0
  1
備考
  7
TATEGAKI
100
AcDbText
  0
TEXT
  5
AB
330
6F
100
AcDbEntity
  8
_0-7_枠細線
 62
     5
100
AcDbText
 10
937.5
 20
137.5
 30
0.0
 40
15.0
  1
品番
  7
TATEGAKI
100
AcDbText
  0
TEXT
  5
AC
330
6F
100
AcDbEntity
  8
_0-7_枠細線
 62
     5
100
AcDbText
 10
937.5
 20
177.5
 30
0.0
 40
15.0
  1
品名
  7
TATEGAKI
100
AcDbText
  0
LINE
  5
AD
330
6F
100
AcDbEntity
  8
_0-7_枠細線
  6
Continuous
 62
     5
100
AcDbLine
 10
1185.0
 20
140.0
 30
0.0
 11
925.0
 21
140.0
 31
0.0
  0
LINE
  5
AE
330
6F
100
AcDbEntity
  8
_0-7_枠細線
  6
Continuous
 62
     5
100
AcDbLine
 10
950.0
 20
180.0
 30
0.0
 11
950.0
 21
60.0
 31
0.0
  0
LINE
  5
AF
330
6F
100
AcDbEntity
  8
_0-8_枠中線
  6
Continuous
 62
     5
100
AcDbLine
 10
1425.0
 20
180.0
 30
0.0
 11
925.0
 21
180.0
 31
0.0
  0
LINE
  5
B0
330
6F
100
AcDbEntity
  8
_0-8_枠中線
  6
Continuous
 62
     5
100
AcDbLine
 10
925.0
 20
180.0
 30
0.0
 11
925.0
 21
60.0
 31
0.0
  0
LINE
  5
B1
330
6F
100
AcDbEntity
  8
_0-7_枠細線
  6
Continuous
 62
     5
100
AcDbLine
 10
1245.0
 20
180.0
 30
0.0
 11
1245.0
 21
60.0
 31
0.0
  0
TEXT
  5
B2
330
6F
100
AcDbEntity
  8
_0-7_枠細線
 62
     5
100
AcDbText
 10
1192.5
 20
160.0
 30
0.0
 40
15.0
  1
縮　尺
100
AcDbText
  0
TEXT
  5
B3
330
6F
100
AcDbEntity
  8
_0-7_枠細線
 62
     5
100
AcDbText
 10
1193.999999999999
 20
117.5
 30
0.0
 40
20.0
  1
１：５
 41
0.7
100
AcDbText
  0
LINE
  5
B4
330
6F
100
AcDbEntity
  8
_0-7_枠細線
  6
Continuous
 62
     5
100
AcDbLine
 10
1185.0
 20
155.0
 30
0.0
 11
1245.0
 21
155.0
 31
0.0
  0
LINE
  5
B5
330
6F
100
AcDbEntity
  8
_0-7_枠細線
  6
Continuous
 62
     5
100
AcDbLine
 10
1245.0
 20
100.0
 30
0.0
 11
925.0
 21
100.0
 31
0.0
  0
LINE
  5
B6
330
6F
100
AcDbEntity
  8
_0-7_枠細線
  6
Continuous
 62
     5
100
AcDbLine
 10
1425.0
 20
90.0
 30
0.0
 11
1245.0
 21
90.0
 31
0.0
  0
LINE
  5
B7
330
6F
100
AcDbEntity
  8
_0-7_枠細線
  6
Continuous
 62
     5
100
AcDbLine
 10
1245.0
 20
120.0
 30
0.0
 11
1425.0
 21
120.0
 31
0.0
  0
LINE
  5
B8
330
6F
100
AcDbEntity
  8
_0-7_枠細線
  6
Continuous
 62
     5
100
AcDbLine
 10
1425.0
 20
140.0
 30
0.0
 11
1245.0
 21
140.0
 31
0.0
  0
TEXT
  5
B9
330
6F
100
AcDbEntity
  8
_0-7_枠細線
 62
     5
100
AcDbText
 10
1252.5
 20
60.0
 30
0.0
 40
15.0
  1
年月日
100
AcDbText
  0
TEXT
  5
BA
330
6F
100
AcDbEntity
  8
_0-7_枠細線
 62
     5
100
AcDbText
 10
1252.5
 20
75.0
 30
0.0
 40
15.0
  1
作　成
100
AcDbText
  0
TEXT
  5
BB
330
6F
100
AcDbEntity
  8
_0-7_枠細線
 62
     5
100
AcDbText
 10
1256.25
 20
122.5
 30
0.0
 40
15.0
  1
承 認
100
AcDbText
  0
LINE
  5
BC
330
6F
100
AcDbEntity
  8
_0-7_枠細線
  6
Continuous
 62
     5
100
AcDbLine
 10
1304.999999999999
 20
140.0
 30
0.0
 11
1304.999999999999
 21
60.0
 31
0.0
  0
TEXT
  5
BD
330
6F
100
AcDbEntity
  8
_0-7_枠細線
 62
     5
100
AcDbText
 10
1316.25
 20
122.5
 30
0.0
 40
15.0
  1
検 図
100
AcDbText
  0
LINE
  5
BE
330
6F
100
AcDbEntity
  8
_0-7_枠細線
  6
Continuous
 62
     5
100
AcDbLine
 10
1365.0
 20
140.0
 30
0.0
 11
1365.0
 21
90.0
 31
0.0
  0
TEXT
  5
BF
330
6F
100
AcDbEntity
  8
_0-7_枠細線
 62
     5
100
AcDbText
 10
1375.0
 20
95.0
 30
0.0
 40
20.0
  1
藤戸
100
AcDbText
  0
TEXT
  5
C0
330
6F
100
AcDbEntity
  8
_0-7_枠細線
 62
     5
100
AcDbText
 10
1376.249999999999
 20
122.5
 30
0.0
 40
15.0
  1
設 計
100
AcDbText
  0
LINE
  5
C1
330
6F
100
AcDbEntity
  8
_0-7_枠細線
  6
Continuous
 62
     5
100
AcDbLine
 10
1425.0
 20
942.5
 30
0.0
 11
890.0
 21
942.5
 31
0.0
  0
TEXT
  5
C2
330
6F
100
AcDbEntity
  8
_0-7_枠細線
 62
     5
100
AcDbText
 10
895.0
 20
945.0
 30
0.0
 40
12.5
  1
記号
100
AcDbText
  0
TEXT
  5
C3
330
6F
100
AcDbEntity
  8
_0-7_枠細線
 62
     5
100
AcDbText
 10
996.875
 20
945.0
 30
0.0
 40
12.5
  1
訂　 正　 記　 事
100
AcDbText
  0
TEXT
  5
C4
330
6F
100
AcDbEntity
  8
_0-7_枠細線
 62
     5
100
AcDbText
 10
1181.25
 20
945.0
 30
0.0
 40
12.5
  1
訂 正 年 月 日
 41
0.9
100
AcDbText
  0
TEXT
  5
C5
330
6F
100
AcDbEntity
  8
_0-7_枠細線
 62
     5
100
AcDbText
 10
1306.25
 20
945.0
 30
0.0
 40
12.5
  1
備　　　　　考
100
AcDbText
  0
TEXT
  5
C6
330
6F
100
AcDbEntity
  8
_0-7_枠細線
 62
     5
100
AcDbText
 10
1255.0
 20
95.0
 30
0.0
 40
20.0
  1
隠塚
100
AcDbText
  0
TEXT
  5
C7
330
6F
100
AcDbEntity
  8
_0-7_枠細線
 62
     5
100
AcDbText
 10
1315.0
 20
95.0
 30
0.0
 40
20.0
  1
渋田
100
AcDbText
  0
TEXT
  5
C8
330
6F
100
AcDbEntity
  8
_0-7_枠細線
 62
     5
100
AcDbText
 10
965.4999999999999
 20
150.0
 30
0.0
 40
20.0
  1
ＫＡＧＡＮ　盗難防止タイプ
 41
0.6
100
AcDbText
  0
LINE
  5
C9
330
6F
100
AcDbEntity
  8
_1-1_寸法2
  6
Continuous
 62
     7
100
AcDbLine
 10
1313.915318368104
 20
511.1954253560401
 30
0.0
 11
1346.415318368104
 21
511.1954253560401
 31
0.0
  0
LINE
  5
CA
330
6F
100
AcDbEntity
  8
_1-1_寸法2
  6
Continuous
 62
     7
100
AcDbLine
 10
1341.415318368104
 20
511.1954253560401
 30
0.0
 11
1344.003508819129
 21
501.5361670931493
 31
0.0
  0
LINE
  5
CB
330
6F
100
AcDbEntity
  8
_1-1_寸法2
  6
Continuous
 62
     7
100
AcDbLine
 10
1341.415318368104
 20
511.1954253560401
 30
0.0
 11
1338.827127917079
 21
501.5361670931493
 31
0.0
  0
LINE
  5
CC
330
6F
100
AcDbEntity
  8
_1-1_寸法2
  6
Continuous
 62
     7
100
AcDbLine
 10
1313.915318368104
 20
486.1954253560401
 30
0.0
 11
1346.415318368104
 21
486.1954253560398
 31
0.0
  0
LINE
  5
CD
330
6F
100
AcDbEntity
  8
_1-1_寸法2
  6
Continuous
 62
     7
100
AcDbLine
 10
1341.415318368104
 20
486.1954253560399
 30
0.0
 11
1338.827127917079
 21
495.8546836189306
 31
0.0
  0
LINE
  5
CE
330
6F
100
AcDbEntity
  8
_1-1_寸法2
  6
Continuous
 62
     7
100
AcDbLine
 10
1341.415318368104
 20
486.1954253560399
 30
0.0
 11
1344.003508819129
 21
495.8546836189306
 31
0.0
  0
LINE
  5
CF
330
6F
100
AcDbEntity
  8
_1-1_寸法2
  6
Continuous
 62
     7
100
AcDbLine
 10
1341.415318368104
 20
511.1954253560401
 30
0.0
 11
1341.415318368104
 21
486.1954253560399
 31
0.0
  0
TEXT
  5
D0
330
6F
100
AcDbEntity
  8
_1-1_寸法2
 62
     7
100
AcDbText
 10
1341.415318368104
 20
490.2410313598296
 30
0.0
 40
15.0
  1
10
 50
90.0
100
AcDbText
  0
LINE
  5
D1
330
6F
100
AcDbEntity
  8
_1-1_寸法2
  6
Continuous
 62
     7
100
AcDbLine
 10
1313.915318368104
 20
511.1954253560401
 30
0.0
 11
1371.415318368104
 21
511.1954253560401
 31
0.0
  0
LINE
  5
D2
330
6F
100
AcDbEntity
  8
_1-1_寸法2
  6
Continuous
 62
     7
100
AcDbLine
 10
1366.415318368104
 20
511.1954253560401
 30
0.0
 11
1369.003508819129
 21
501.5361670931495
 31
0.0
  0
LINE
  5
D3
330
6F
100
AcDbEntity
  8
_1-1_寸法2
  6
Continuous
 62
     7
100
AcDbLine
 10
1366.415318368104
 20
511.1954253560401
 30
0.0
 11
1363.827127917079
 21
501.5361670931496
 31
0.0
  0
LINE
  5
D4
330
6F
100
AcDbEntity
  8
_1-1_寸法2
  6
Continuous
 62
     7
100
AcDbLine
 10
1307.665318368104
 20
471.1954253560401
 30
0.0
 11
1371.415318368104
 21
471.1954253560401
 31
0.0
  0
LINE
  5
D5
330
6F
100
AcDbEntity
  8
_1-1_寸法2
  6
Continuous
 62
     7
100
AcDbLine
 10
1366.415318368104
 20
471.1954253560401
 30
0.0
 11
1363.827127917079
 21
480.8546836189309
 31
0.0
  0
LINE
  5
D6
330
6F
100
AcDbEntity
  8
_1-1_寸法2
  6
Continuous
 62
     7
100
AcDbLine
 10
1366.415318368104
 20
471.1954253560401
 30
0.0
 11
1369.003508819129
 21
480.8546836189309
 31
0.0
  0
LINE
  5
D7
330
6F
100
AcDbEntity
  8
_1-1_寸法2
  6
Continuous
 62
     7
100
AcDbLine
 10
1366.415318368104
 20
511.1954253560401
 30
0.0
 11
1366.415318368104
 21
471.1954253560401
 31
0.0
  0
TEXT
  5
D8
330
6F
100
AcDbEntity
  8
_1-1_寸法2
 62
     7
100
AcDbText
 10
1366.415318368104
 20
483.6954253560401
 30
0.0
 40
15.0
  1
16
 50
90.0
100
AcDbText
  0
LINE
  5
D9
330
6F
100
AcDbEntity
  8
_1-1_寸法2
  6
Continuous
 62
     7
100
AcDbLine
 10
1366.415318368104
 20
471.1954253560401
 30
0.0
 11
1369.003508819129
 21
461.5361670931495
 31
0.0
  0
LINE
  5
DA
330
6F
100
AcDbEntity
  8
_1-1_寸法2
  6
Continuous
 62
     7
100
AcDbLine
 10
1366.415318368104
 20
471.1954253560401
 30
0.0
 11
1363.827127917079
 21
461.5361670931496
 31
0.0
  0
LINE
  5
DB
330
6F
100
AcDbEntity
  8
_1-1_寸法2
  6
Continuous
 62
     7
100
AcDbLine
 10
1307.665318368104
 20
423.6954253560401
 30
0.0
 11
1371.415318368104
 21
423.6954253560401
 31
0.0
  0
LINE
  5
DC
330
6F
100
AcDbEntity
  8
_1-1_寸法2
  6
Continuous
 62
     7
100
AcDbLine
 10
1366.415318368104
 20
423.6954253560401
 30
0.0
 11
1363.827127917079
 21
433.3546836189309
 31
0.0
  0
LINE
  5
DD
330
6F
100
AcDbEntity
  8
_1-1_寸法2
  6
Continuous
 62
     7
100
AcDbLine
 10
1366.415318368104
 20
423.6954253560401
 30
0.0
 11
1369.003508819129
 21
433.3546836189309
 31
0.0
  0
LINE
  5
DE
330
6F
100
AcDbEntity
  8
_1-1_寸法2
  6
Continuous
 62
     7
100
AcDbLine
 10
1366.415318368104
 20
471.1954253560401
 30
0.0
 11
1366.415318368104
 21
423.6954253560401
 31
0.0
  0
TEXT
  5
DF
330
6F
100
AcDbEntity
  8
_1-1_寸法2
 62
     7
100
AcDbText
 10
1366.415318368104
 20
439.9454253560401
 30
0.0
 40
15.0
  1
19
 50
90.0
100
AcDbText
  0
LINE
  5
E0
330
6F
100
AcDbEntity
  8
_1-1_寸法2
  6
Continuous
 62
     7
100
AcDbLine
 10
1313.915318368104
 20
511.1954253560401
 30
0.0
 11
1396.415318368104
 21
511.1954253560393
 31
0.0
  0
LINE
  5
E1
330
6F
100
AcDbEntity
  8
_1-1_寸法2
  6
Continuous
 62
     7
100
AcDbLine
 10
1391.415318368104
 20
511.1954253560394
 30
0.0
 11
1394.003508819129
 21
501.5361670931487
 31
0.0
  0
LINE
  5
E2
330
6F
100
AcDbEntity
  8
_1-1_寸法2
  6
Continuous
 62
     7
100
AcDbLine
 10
1391.415318368104
 20
511.1954253560394
 30
0.0
 11
1388.827127917079
 21
501.5361670931487
 31
0.0
  0
LINE
  5
E3
330
6F
100
AcDbEntity
  8
_1-1_寸法2
  6
Continuous
 62
     7
100
AcDbLine
 10
1307.665318368104
 20
423.6954253560401
 30
0.0
 11
1396.415318368104
 21
423.6954253560393
 31
0.0
  0
LINE
  5
E4
330
6F
100
AcDbEntity
  8
_1-1_寸法2
  6
Continuous
 62
     7
100
AcDbLine
 10
1391.415318368104
 20
423.6954253560393
 30
0.0
 11
1388.827127917079
 21
433.35468361893
 31
0.0
  0
LINE
  5
E5
330
6F
100
AcDbEntity
  8
_1-1_寸法2
  6
Continuous
 62
     7
100
AcDbLine
 10
1391.415318368104
 20
423.6954253560393
 30
0.0
 11
1394.003508819129
 21
433.35468361893
 31
0.0
  0
LINE
  5
E6
330
6F
100
AcDbEntity
  8
_1-1_寸法2
  6
Continuous
 62
     7
100
AcDbLine
 10
1391.415318368104
 20
511.1954253560394
 30
0.0
 11
1391.415318368104
 21
423.6954253560393
 31
0.0
  0
TEXT
  5
E7
330
6F
100
AcDbEntity
  8
_1-1_寸法2
 62
     7
100
AcDbText
 10
1391.415318368104
 20
458.1361748587406
 30
0.0
 40
15.0
  1
35
 50
90.0
100
AcDbText
  0
LINE
  5
E8
330
6F
100
AcDbEntity
  8
_0-E_極細2
  6
CENTER1
 62
     6
100
AcDbLine
 10
1303.915318368104
 20
471.1954253560401
 30
0.0
 11
1079.516184382268
 21
471.1954253560401
 31
0.0
  0
LINE
  5
E9
330
6F
100
AcDbEntity
  8
_0-F_細線2
  6
Continuous
 62
     3
100
AcDbLine
 10
1303.915318368104
 20
486.1954253560401
 30
0.0
 11
1079.516184382268
 21
486.1954253560401
 31
0.0
  0
LINE
  5
EA
330
6F
100
AcDbEntity
  8
_0-F_細線2
  6
Continuous
 62
     3
100
AcDbLine
 10
1079.516184382268
 20
511.1954253560403
 30
0.0
 11
1303.915318368104
 21
511.1954253560403
 31
0.0
  0
LINE
  5
EB
330
6F
100
AcDbEntity
  8
_0-F_細線2
  6
Continuous
 62
     3
100
AcDbLine
 10
1303.915318368104
 20
511.1954253560403
 30
0.0
 11
1303.915318368104
 21
486.1954253560401
 31
0.0
  0
LINE
  5
EC
330
6F
100
AcDbEntity
  8
_0-F_細線2
  6
DASHED2
 62
     3
100
AcDbLine
 10
1117.665318368104
 20
424.9454253560402
 30
0.0
 11
1079.516184382268
 21
424.9454253560402
 31
0.0
  0
LINE
  5
ED
330
6F
100
AcDbEntity
  8
_0-F_細線2
  6
DASHED2
 62
     3
100
AcDbLine
 10
1079.516184382268
 20
423.6954253560401
 30
0.0
 11
1227.665318368104
 21
423.6954253560401
 31
0.0
  0
LINE
  5
EE
330
6F
100
AcDbEntity
  8
_0-F_細線2
  6
DASHED2
 62
     3
100
AcDbLine
 10
1079.516184382268
 20
484.9454253560401
 30
0.0
 11
1117.665318368104
 21
484.9454253560401
 31
0.0
  0
ARC
  5
EF
330
6F
100
AcDbEntity
  8
_0-F_細線2
  6
DASHED2
 62
     3
100
AcDbCircle
 10
1227.665318368104
 20
428.6954253560401
 30
0.0
 40
5.0
100
AcDbArc
 50
269.9999999999997
 51
0.0000000000003053
  0
LINE
  5
F0
330
6F
100
AcDbEntity
  8
_0-F_細線2
  6
DASHED2
 62
     3
100
AcDbLine
 10
1232.665318368104
 20
428.6954253560401
 30
0.0
 11
1232.665318368104
 21
486.1954253560401
 31
0.0
  0
LINE
  5
F1
330
6F
100
AcDbEntity
  8
_0-F_細線2
  6
DASHED2
 62
     3
100
AcDbLine
 10
1117.665318368104
 20
484.9454253560401
 30
0.0
 11
1117.665318368104
 21
424.9454253560402
 31
0.0
  0
LINE
  5
F2
330
6F
100
AcDbEntity
  8
_0-F_細線2
  6
Continuous
 62
     3
100
AcDbLine
 10
1297.665318368104
 20
423.6954253560401
 30
0.0
 11
1297.665318368104
 21
486.1954253560401
 31
0.0
  0
TEXT
  5
F3
330
6F
100
AcDbEntity
  8
_0-7_枠細線
 62
     5
100
AcDbText
 10
1141.671289402787
 20
387.6840375654238
 30
0.0
 40
20.0
  1
Ｂ部拡大図（１：２）
 41
0.8
100
AcDbText
  0
LINE
  5
F4
330
6F
100
AcDbEntity
  8
_1-1_寸法2
  6
Continuous
 62
     7
100
AcDbLine
 10
1313.915318368104
 20
303.3976602259653
 30
0.0
 11
1346.415318368104
 21
303.397660225965
 31
0.0
  0
LINE
  5
F5
330
6F
100
AcDbEntity
  8
_1-1_寸法2
  6
Continuous
 62
     7
100
AcDbLine
 10
1341.415318368104
 20
303.3976602259651
 30
0.0
 11
1344.003508819129
 21
293.7384019630743
 31
0.0
  0
LINE
  5
F6
330
6F
100
AcDbEntity
  8
_1-1_寸法2
  6
Continuous
 62
     7
100
AcDbLine
 10
1341.415318368104
 20
303.3976602259651
 30
0.0
 11
1338.827127917079
 21
293.7384019630743
 31
0.0
  0
LINE
  5
F7
330
6F
100
AcDbEntity
  8
_1-1_寸法2
  6
Continuous
 62
     7
100
AcDbLine
 10
1313.915318368104
 20
278.3976602259653
 30
0.0
 11
1346.415318368104
 21
278.397660225965
 31
0.0
  0
LINE
  5
F8
330
6F
100
AcDbEntity
  8
_1-1_寸法2
  6
Continuous
 62
     7
100
AcDbLine
 10
1341.415318368104
 20
278.3976602259651
 30
0.0
 11
1338.827127917079
 21
288.0569184888557
 31
0.0
  0
LINE
  5
F9
330
6F
100
AcDbEntity
  8
_1-1_寸法2
  6
Continuous
 62
     7
100
AcDbLine
 10
1341.415318368104
 20
278.3976602259651
 30
0.0
 11
1344.003508819129
 21
288.0569184888557
 31
0.0
  0
LINE
  5
FA
330
6F
100
AcDbEntity
  8
_1-1_寸法2
  6
Continuous
 62
     7
100
AcDbLine
 10
1341.415318368104
 20
303.3976602259651
 30
0.0
 11
1341.415318368104
 21
278.3976602259651
 31
0.0
  0
TEXT
  5
FB
330
6F
100
AcDbEntity
  8
_1-1_寸法2
 62
     7
100
AcDbText
 10
1341.415318368104
 20
285.2064874891129
 30
0.0
 40
15.0
  1
10
 50
90.0
100
AcDbText
  0
LINE
  5
FC
330
6F
100
AcDbEntity
  8
_1-1_寸法2
  6
Continuous
 62
     7
100
AcDbLine
 10
1313.915318368104
 20
278.3976602259653
 30
0.0
 11
1371.415318368104
 21
278.3976602259652
 31
0.0
  0
LINE
  5
FD
330
6F
100
AcDbEntity
  8
_1-1_寸法2
  6
Continuous
 62
     7
100
AcDbLine
 10
1366.415318368104
 20
278.3976602259652
 30
0.0
 11
1363.827127917079
 21
288.0569184888559
 31
0.0
  0
LINE
  5
FE
330
6F
100
AcDbEntity
  8
_1-1_寸法2
  6
Continuous
 62
     7
100
AcDbLine
 10
1366.415318368104
 20
278.3976602259652
 30
0.0
 11
1369.003508819129
 21
288.0569184888559
 31
0.0
  0
LINE
  5
FF
330
6F
100
AcDbEntity
  8
_1-1_寸法2
  6
Continuous
 62
     7
100
AcDbLine
 10
1307.665318368104
 20
340.8976602259653
 30
0.0
 11
1371.415318368104
 21
340.8976602259652
 31
0.0
  0
LINE
  5
100
330
6F
100
AcDbEntity
  8
_1-1_寸法2
  6
Continuous
 62
     7
100
AcDbLine
 10
1366.415318368104
 20
340.8976602259652
 30
0.0
 11
1369.003508819129
 21
331.2384019630745
 31
0.0
  0
LINE
  5
101
330
6F
100
AcDbEntity
  8
_1-1_寸法2
  6
Continuous
 62
     7
100
AcDbLine
 10
1366.415318368104
 20
340.8976602259652
 30
0.0
 11
1363.827127917079
 21
331.2384019630746
 31
0.0
  0
LINE
  5
102
330
6F
100
AcDbEntity
  8
_1-1_寸法2
  6
Continuous
 62
     7
100
AcDbLine
 10
1366.415318368104
 20
278.3976602259652
 30
0.0
 11
1366.415318368104
 21
340.8976602259652
 31
0.0
  0
TEXT
  5
103
330
6F
100
AcDbEntity
  8
_1-1_寸法2
 62
     7
100
AcDbText
 10
1366.415318368104
 20
302.1476602259652
 30
0.0
 40
15.0
  1
25
 50
90.0
100
AcDbText
  0
LINE
  5
104
330
6F
100
AcDbEntity
  8
_1-1_寸法2
  6
Continuous
 62
     7
100
AcDbLine
 10
1366.415318368104
 20
340.8976602259652
 30
0.0
 11
1363.827127917079
 21
350.5569184888559
 31
0.0
  0
LINE
  5
105
330
6F
100
AcDbEntity
  8
_1-1_寸法2
  6
Continuous
 62
     7
100
AcDbLine
 10
1366.415318368104
 20
340.8976602259652
 30
0.0
 11
1369.003508819129
 21
350.5569184888559
 31
0.0
  0
LINE
  5
106
330
6F
100
AcDbEntity
  8
_1-1_寸法2
  6
Continuous
 62
     7
100
AcDbLine
 10
1307.665318368104
 20
365.8976602259654
 30
0.0
 11
1371.415318368104
 21
365.8976602259652
 31
0.0
  0
LINE
  5
107
330
6F
100
AcDbEntity
  8
_1-1_寸法2
  6
Continuous
 62
     7
100
AcDbLine
 10
1366.415318368104
 20
365.8976602259652
 30
0.0
 11
1369.003508819129
 21
356.2384019630745
 31
0.0
  0
LINE
  5
108
330
6F
100
AcDbEntity
  8
_1-1_寸法2
  6
Continuous
 62
     7
100
AcDbLine
 10
1366.415318368104
 20
365.8976602259652
 30
0.0
 11
1363.827127917079
 21
356.2384019630746
 31
0.0
  0
LINE
  5
109
330
6F
100
AcDbEntity
  8
_1-1_寸法2
  6
Continuous
 62
     7
100
AcDbLine
 10
1366.415318368104
 20
340.8976602259652
 30
0.0
 11
1366.415318368104
 21
365.8976602259652
 31
0.0
  0
TEXT
  5
10A
330
6F
100
AcDbEntity
  8
_1-1_寸法2
 62
     7
100
AcDbText
 10
1366.415318368104
 20
345.8976602259652
 30
0.0
 40
15.0
  1
10
 50
90.0
100
AcDbText
  0
LINE
  5
10B
330
6F
100
AcDbEntity
  8
_1-1_寸法2
  6
Continuous
 62
     7
100
AcDbLine
 10
1307.665318368102
 20
365.8976602259654
 30
0.0
 11
1396.415318368104
 21
365.8976602259645
 31
0.0
  0
LINE
  5
10C
330
6F
100
AcDbEntity
  8
_1-1_寸法2
  6
Continuous
 62
     7
100
AcDbLine
 10
1391.415318368104
 20
365.8976602259646
 30
0.0
 11
1394.003508819129
 21
356.2384019630739
 31
0.0
  0
LINE
  5
10D
330
6F
100
AcDbEntity
  8
_1-1_寸法2
  6
Continuous
 62
     7
100
AcDbLine
 10
1391.415318368104
 20
365.8976602259646
 30
0.0
 11
1388.827127917079
 21
356.2384019630739
 31
0.0
  0
LINE
  5
10E
330
6F
100
AcDbEntity
  8
_1-1_寸法2
  6
Continuous
 62
     7
100
AcDbLine
 10
1313.915318368104
 20
278.3976602259653
 30
0.0
 11
1396.415318368104
 21
278.3976602259646
 31
0.0
  0
LINE
  5
10F
330
6F
100
AcDbEntity
  8
_1-1_寸法2
  6
Continuous
 62
     7
100
AcDbLine
 10
1391.415318368104
 20
278.3976602259646
 30
0.0
 11
1388.827127917079
 21
288.0569184888553
 31
0.0
  0
LINE
  5
110
330
6F
100
AcDbEntity
  8
_1-1_寸法2
  6
Continuous
 62
     7
100
AcDbLine
 10
1391.415318368104
 20
278.3976602259646
 30
0.0
 11
1394.003508819129
 21
288.0569184888553
 31
0.0
  0
LINE
  5
111
330
6F
100
AcDbEntity
  8
_1-1_寸法2
  6
Continuous
 62
     7
100
AcDbLine
 10
1391.415318368104
 20
365.8976602259646
 30
0.0
 11
1391.415318368104
 21
278.3976602259646
 31
0.0
  0
TEXT
  5
112
330
6F
100
AcDbEntity
  8
_1-1_寸法2
 62
     7
100
AcDbText
 10
1391.415318368104
 20
313.6322548803673
 30
0.0
 40
15.0
  1
35
 50
90.0
100
AcDbText
  0
LINE
  5
113
330
6F
100
AcDbEntity
  8
_0-E_極細2
  6
CENTER1
 62
     6
100
AcDbLine
 10
1303.915318368104
 20
340.8976602259654
 30
0.0
 11
1079.516184382268
 21
340.8976602259654
 31
0.0
  0
LINE
  5
114
330
6F
100
AcDbEntity
  8
_0-F_細線2
  6
Continuous
 62
     3
100
AcDbLine
 10
1079.516184382268
 20
278.3976602259654
 30
0.0
 11
1303.915318368104
 21
278.3976602259654
 31
0.0
  0
LINE
  5
115
330
6F
100
AcDbEntity
  8
_0-F_細線2
  6
Continuous
 62
     3
100
AcDbLine
 10
1303.915318368104
 20
303.3976602259654
 30
0.0
 11
1079.516184382268
 21
303.3976602259654
 31
0.0
  0
LINE
  5
116
330
6F
100
AcDbEntity
  8
_0-F_細線2
  6
Continuous
 62
     3
100
AcDbLine
 10
1303.915318368104
 20
278.3976602259654
 30
0.0
 11
1303.915318368104
 21
303.3976602259654
 31
0.0
  0
LINE
  5
117
330
6F
100
AcDbEntity
  8
_0-F_細線2
  6
DASHED2
 62
     3
100
AcDbLine
 10
1117.665318368104
 20
304.6476602259654
 30
0.0
 11
1079.516184382268
 21
304.6476602259654
 31
0.0
  0
LINE
  5
118
330
6F
100
AcDbEntity
  8
_0-F_細線2
  6
DASHED2
 62
     3
100
AcDbLine
 10
1079.516184382268
 20
364.6476602259654
 30
0.0
 11
1117.665318368104
 21
364.6476602259654
 31
0.0
  0
LINE
  5
119
330
6F
100
AcDbEntity
  8
_0-F_細線2
  6
DASHED2
 62
     3
100
AcDbLine
 10
1079.516184382268
 20
365.8976602259654
 30
0.0
 11
1227.665318368104
 21
365.8976602259654
 31
0.0
  0
ARC
  5
11A
330
6F
100
AcDbEntity
  8
_0-F_細線2
  6
DASHED2
 62
     3
100
AcDbCircle
 10
1227.665318368104
 20
360.8976602259654
 30
0.0
 40
5.0
100
AcDbArc
 50
0.0
 51
89.99999999999991
  0
LINE
  5
11B
330
6F
100
AcDbEntity
  8
_0-F_細線2
  6
DASHED2
 62
     3
100
AcDbLine
 10
1232.665318368104
 20
360.8976602259654
 30
0.0
 11
1232.665318368104
 21
303.3976602259654
 31
0.0
  0
LINE
  5
11C
330
6F
100
AcDbEntity
  8
_0-F_細線2
  6
DASHED2
 62
     3
100
AcDbLine
 10
1117.665318368104
 20
364.6476602259654
 30
0.0
 11
1117.665318368104
 21
304.6476602259654
 31
0.0
  0
LINE
  5
11D
330
6F
100
AcDbEntity
  8
_0-F_細線2
  6
Continuous
 62
     3
100
AcDbLine
 10
1297.665318368103
 20
365.8976602259654
 30
0.0
 11
1297.665318368103
 21
303.3976602259654
 31
0.0
  0
TEXT
  5
11E
330
6F
100
AcDbEntity
  8
_0-7_枠細線
 62
     5
100
AcDbText
 10
1141.671289402787
 20
209.9766045739631
 30
0.0
 40
20.0
  1
Ｃ部拡大図（１：２）
 41
0.8
100
AcDbText
  0
TEXT
  5
11F
330
6F
100
AcDbEntity
  8
_0-7_枠細線
 62
     5
100
AcDbText
 10
1310.0
 20
67.5
 30
0.0
 40
15.0
  1
２０１１年０５月１０日
 41
0.55
100
AcDbText
  0
TEXT
  5
120
330
6F
100
AcDbEntity
  8
_0-7_枠細線
 62
     5
100
AcDbText
 10
1158.477062752067
 20
608.671210443871
 30
0.0
 40
20.0
  1
Ａ－Ａ\U+2019断面図（１：１）
 41
0.8
100
AcDbText
  0
LINE
  5
121
330
6F
100
AcDbEntity
  8
_0-B_細線1
  6
Continuous
 62
     7
100
AcDbLine
 10
1226.097890031859
 20
670.6902771139084
 30
0.0
 11
1226.097890031859
 21
640.6634512236248
 31
0.0
  0
LINE
  5
122
330
6F
100
AcDbEntity
  8
_0-B_細線1
  6
Continuous
 62
     7
100
AcDbLine
 10
1201.097890031859
 20
858.1902771139089
 30
0.0
 11
1201.097890031859
 21
640.6637421139083
 31
0.0
  0
LINE
  5
123
330
6F
100
AcDbEntity
  8
_0-B_細線1
  6
Continuous
 62
     7
100
AcDbLine
 10
1226.097890031859
 20
670.6902771139084
 30
0.0
 11
1201.097890031859
 21
670.6902771139084
 31
0.0
  0
LINE
  5
124
330
6F
100
AcDbEntity
  8
_0-B_細線1
  6
Continuous
 62
     7
100
AcDbLine
 10
1191.097890031859
 20
858.1902771139089
 30
0.0
 11
1201.097890031859
 21
858.1902771139089
 31
0.0
  0
LINE
  5
125
330
6F
100
AcDbEntity
  8
_0-A_極細1
  6
Continuous
 62
     7
100
AcDbLine
 10
1201.097890024812
 20
855.884232434132
 30
0.0
 11
1198.791845345035
 21
858.1902771139089
 31
0.0
  0
LINE
  5
126
330
6F
100
AcDbEntity
  8
_0-A_極細1
  6
Continuous
 62
     7
100
AcDbLine
 10
1201.097890014007
 20
852.3486985390038
 30
0.0
 11
1195.256311439102
 21
858.1902771139089
 31
0.0
  0
LINE
  5
127
330
6F
100
AcDbEntity
  8
_0-A_極細1
  6
Continuous
 62
     7
100
AcDbLine
 10
1201.097890003203
 20
848.8131646438754
 30
0.0
 11
1191.720777533169
 21
858.1902771139089
 31
0.0
  0
LINE
  5
128
330
6F
100
AcDbEntity
  8
_0-A_極細1
  6
Continuous
 62
     7
100
AcDbLine
 10
1201.097889992398
 20
845.2776307487477
 30
0.0
 11
1191.097890031859
 21
855.2776307092866
 31
0.0
  0
LINE
  5
129
330
6F
100
AcDbEntity
  8
_0-A_極細1
  6
Continuous
 62
     7
100
AcDbLine
 10
1201.097889981593
 20
841.7420968536195
 30
0.0
 11
1191.097890031859
 21
851.7420968033537
 31
0.0
  0
LINE
  5
12A
330
6F
100
AcDbEntity
  8
_0-A_極細1
  6
Continuous
 62
     7
100
AcDbLine
 10
1201.097889970789
 20
838.2065629584911
 30
0.0
 11
1191.097890031859
 21
848.206562897421
 31
0.0
  0
LINE
  5
12B
330
6F
100
AcDbEntity
  8
_0-A_極細1
  6
Continuous
 62
     7
100
AcDbLine
 10
1201.097889959984
 20
834.671029063363
 30
0.0
 11
1191.097890031859
 21
844.6710289914882
 31
0.0
  0
LINE
  5
12C
330
6F
100
AcDbEntity
  8
_0-A_極細1
  6
Continuous
 62
     7
100
AcDbLine
 10
1201.09788994918
 20
831.1354951682348
 30
0.0
 11
1191.097890031859
 21
841.1354950855555
 31
0.0
  0
LINE
  5
12D
330
6F
100
AcDbEntity
  8
_0-A_極細1
  6
Continuous
 62
     7
100
AcDbLine
 10
1201.097889938375
 20
827.5999612731066
 30
0.0
 11
1191.097890031859
 21
837.5999611796228
 31
0.0
  0
LINE
  5
12E
330
6F
100
AcDbEntity
  8
_0-A_極細1
  6
Continuous
 62
     7
100
AcDbLine
 10
1201.097889927571
 20
824.0644273779786
 30
0.0
 11
1191.097890031859
 21
834.0644272736899
 31
0.0
  0
LINE
  5
12F
330
6F
100
AcDbEntity
  8
_0-A_極細1
  6
Continuous
 62
     7
100
AcDbLine
 10
1201.097889916766
 20
820.5288934828502
 30
0.0
 11
1191.097890031859
 21
830.5288933677573
 31
0.0
  0
LINE
  5
130
330
6F
100
AcDbEntity
  8
_0-A_極細1
  6
Continuous
 62
     7
100
AcDbLine
 10
1201.097889905961
 20
816.9933595877223
 30
0.0
 11
1191.097890031859
 21
826.9933594618246
 31
0.0
  0
LINE
  5
131
330
6F
100
AcDbEntity
  8
_0-A_極細1
  6
Continuous
 62
     7
100
AcDbLine
 10
1201.097889895157
 20
813.4578256925941
 30
0.0
 11
1191.097890031859
 21
823.4578255558915
 31
0.0
  0
LINE
  5
132
330
6F
100
AcDbEntity
  8
_0-A_極細1
  6
Continuous
 62
     7
100
AcDbLine
 10
1201.097889884352
 20
809.9222917974659
 30
0.0
 11
1191.097890031859
 21
819.9222916499591
 31
0.0
  0
LINE
  5
133
330
6F
100
AcDbEntity
  8
_0-A_極細1
  6
Continuous
 62
     7
100
AcDbLine
 10
1201.097889873548
 20
806.3867579023376
 30
0.0
 11
1191.097890031859
 21
816.3867577440262
 31
0.0
  0
LINE
  5
134
330
6F
100
AcDbEntity
  8
_0-A_極細1
  6
Continuous
 62
     7
100
AcDbLine
 10
1201.097889862744
 20
802.8512240072094
 30
0.0
 11
1191.097890031859
 21
812.8512238380936
 31
0.0
  0
LINE
  5
135
330
6F
100
AcDbEntity
  8
_0-A_極細1
  6
Continuous
 62
     7
100
AcDbLine
 10
1201.097889851939
 20
799.3156901120812
 30
0.0
 11
1191.097890031859
 21
809.3156899321607
 31
0.0
  0
LINE
  5
136
330
6F
100
AcDbEntity
  8
_0-A_極細1
  6
Continuous
 62
     7
100
AcDbLine
 10
1201.097889841134
 20
795.7801562169532
 30
0.0
 11
1191.097890031859
 21
805.7801560262282
 31
0.0
  0
LINE
  5
137
330
6F
100
AcDbEntity
  8
_0-A_極細1
  6
Continuous
 62
     7
100
AcDbLine
 10
1201.097889830329
 20
792.2446223218247
 30
0.0
 11
1191.097890031859
 21
802.2446221202956
 31
0.0
  0
LINE
  5
138
330
6F
100
AcDbEntity
  8
_0-A_極細1
  6
Continuous
 62
     7
100
AcDbLine
 10
1201.097889819525
 20
788.7090884266966
 30
0.0
 11
1191.097890031859
 21
798.7090882143625
 31
0.0
  0
LINE
  5
139
330
6F
100
AcDbEntity
  8
_0-A_極細1
  6
Continuous
 62
     7
100
AcDbLine
 10
1201.097889808721
 20
785.1735545315688
 30
0.0
 11
1191.097890031859
 21
795.1735543084297
 31
0.0
  0
LINE
  5
13A
330
6F
100
AcDbEntity
  8
_0-A_極細1
  6
Continuous
 62
     7
100
AcDbLine
 10
1201.097889797916
 20
781.6380206364404
 30
0.0
 11
1191.097890031859
 21
791.6380204024972
 31
0.0
  0
LINE
  5
13B
330
6F
100
AcDbEntity
  8
_0-A_極細1
  6
Continuous
 62
     7
100
AcDbLine
 10
1201.097889787111
 20
778.1024867413123
 30
0.0
 11
1191.097890031859
 21
788.1024864965644
 31
0.0
  0
LINE
  5
13C
330
6F
100
AcDbEntity
  8
_0-A_極細1
  6
Continuous
 62
     7
100
AcDbLine
 10
1201.097889776307
 20
774.5669528461839
 30
0.0
 11
1191.097890031859
 21
784.5669525906315
 31
0.0
  0
LINE
  5
13D
330
6F
100
AcDbEntity
  8
_0-A_極細1
  6
Continuous
 62
     7
100
AcDbLine
 10
1201.097889765502
 20
771.0314189510559
 30
0.0
 11
1191.097890031859
 21
781.0314186846989
 31
0.0
  0
LINE
  5
13E
330
6F
100
AcDbEntity
  8
_0-A_極細1
  6
Continuous
 62
     7
100
AcDbLine
 10
1201.097889754697
 20
767.4958850559276
 30
0.0
 11
1191.097890031859
 21
777.4958847787661
 31
0.0
  0
LINE
  5
13F
330
6F
100
AcDbEntity
  8
_0-A_極細1
  6
Continuous
 62
     7
100
AcDbLine
 10
1201.097889743893
 20
763.9603511607995
 30
0.0
 11
1191.097890031859
 21
773.9603508728333
 31
0.0
  0
LINE
  5
140
330
6F
100
AcDbEntity
  8
_0-A_極細1
  6
Continuous
 62
     7
100
AcDbLine
 10
1201.097889733089
 20
760.4248172656714
 30
0.0
 11
1191.097890031859
 21
770.4248169669006
 31
0.0
  0
LINE
  5
141
330
6F
100
AcDbEntity
  8
_0-A_極細1
  6
Continuous
 62
     7
100
AcDbLine
 10
1201.097889722284
 20
756.8892833705432
 30
0.0
 11
1191.097890031859
 21
766.8892830609678
 31
0.0
  0
LINE
  5
142
330
6F
100
AcDbEntity
  8
_0-A_極細1
  6
Continuous
 62
     7
100
AcDbLine
 10
1201.097889711479
 20
753.353749475415
 30
0.0
 11
1191.097890031859
 21
763.3537491550352
 31
0.0
  0
LINE
  5
143
330
6F
100
AcDbEntity
  8
_0-A_極細1
  6
Continuous
 62
     7
100
AcDbLine
 10
1201.097889700675
 20
749.8182155802867
 30
0.0
 11
1191.097890031859
 21
759.8182152491022
 31
0.0
  0
LINE
  5
144
330
6F
100
AcDbEntity
  8
_0-A_極細1
  6
Continuous
 62
     7
100
AcDbLine
 10
1191.097890031859
 20
756.2826813431695
 30
0.0
 11
1201.09788968987
 21
746.2826816851586
 31
0.0
  0
LINE
  5
145
330
6F
100
AcDbEntity
  8
_0-A_極細1
  6
Continuous
 62
     7
100
AcDbLine
 10
1191.097890031859
 20
752.7471474372369
 30
0.0
 11
1201.097889679065
 21
742.7471477900303
 31
0.0
  0
LINE
  5
146
330
6F
100
AcDbEntity
  8
_0-A_極細1
  6
Continuous
 62
     7
100
AcDbLine
 10
1191.097890031859
 20
749.211613531304
 30
0.0
 11
1201.097889668261
 21
739.2116138949021
 31
0.0
  0
LINE
  5
147
330
6F
100
AcDbEntity
  8
_0-A_極細1
  6
Continuous
 62
     7
100
AcDbLine
 10
1191.097890031859
 20
745.6760796253713
 30
0.0
 11
1201.097889657456
 21
735.6760799997742
 31
0.0
  0
LINE
  5
148
330
6F
100
AcDbEntity
  8
_0-A_極細1
  6
Continuous
 62
     7
100
AcDbLine
 10
1191.097890031859
 20
742.1405457194388
 30
0.0
 11
1201.097889646652
 21
732.1405461046461
 31
0.0
  0
LINE
  5
149
330
6F
100
AcDbEntity
  8
_0-A_極細1
  6
Continuous
 62
     7
100
AcDbLine
 10
1191.097890031859
 20
738.6050118135058
 30
0.0
 11
1201.097889635847
 21
728.6050122095177
 31
0.0
  0
LINE
  5
14A
330
6F
100
AcDbEntity
  8
_0-A_極細1
  6
Continuous
 62
     7
100
AcDbLine
 10
1191.097890031859
 20
735.069477907573
 30
0.0
 11
1201.097889625043
 21
725.0694783143898
 31
0.0
  0
LINE
  5
14B
330
6F
100
AcDbEntity
  8
_0-A_極細1
  6
Continuous
 62
     7
100
AcDbLine
 10
1191.097890031859
 20
731.5339440016405
 30
0.0
 11
1201.097889614238
 21
721.5339444192615
 31
0.0
  0
LINE
  5
14C
330
6F
100
AcDbEntity
  8
_0-A_極細1
  6
Continuous
 62
     7
100
AcDbLine
 10
1191.097890031859
 20
727.9984100957078
 30
0.0
 11
1201.097889603433
 21
717.9984105241333
 31
0.0
  0
LINE
  5
14D
330
6F
100
AcDbEntity
  8
_0-A_極細1
  6
Continuous
 62
     7
100
AcDbLine
 10
1191.097890031859
 20
724.4628761897749
 30
0.0
 11
1201.097889592629
 21
714.462876629005
 31
0.0
  0
LINE
  5
14E
330
6F
100
AcDbEntity
  8
_0-A_極細1
  6
Continuous
 62
     7
100
AcDbLine
 10
1191.097890031859
 20
720.9273422838423
 30
0.0
 11
1201.097889581824
 21
710.9273427338767
 31
0.0
  0
LINE
  5
14F
330
6F
100
AcDbEntity
  8
_0-A_極細1
  6
Continuous
 62
     7
100
AcDbLine
 10
1191.097890031859
 20
717.3918083779097
 30
0.0
 11
1201.09788957102
 21
707.3918088387488
 31
0.0
  0
LINE
  5
150
330
6F
100
AcDbEntity
  8
_0-A_極細1
  6
Continuous
 62
     7
100
AcDbLine
 10
1191.097890031859
 20
713.8562744719767
 30
0.0
 11
1201.097889560215
 21
703.8562749436204
 31
0.0
  0
LINE
  5
151
330
6F
100
AcDbEntity
  8
_0-A_極細1
  6
Continuous
 62
     7
100
AcDbLine
 10
1191.097890031859
 20
710.320740566044
 30
0.0
 11
1201.097889549411
 21
700.3207410484924
 31
0.0
  0
LINE
  5
152
330
6F
100
AcDbEntity
  8
_0-A_極細1
  6
Continuous
 62
     7
100
AcDbLine
 10
1191.097890031859
 20
706.7852066601112
 30
0.0
 11
1201.097889538606
 21
696.7852071533643
 31
0.0
  0
LINE
  5
153
330
6F
100
AcDbEntity
  8
_0-A_極細1
  6
Continuous
 62
     7
100
AcDbLine
 10
1191.097890031859
 20
703.2496727541785
 30
0.0
 11
1201.097889527801
 21
693.2496732582359
 31
0.0
  0
LINE
  5
154
330
6F
100
AcDbEntity
  8
_0-A_極細1
  6
Continuous
 62
     7
100
AcDbLine
 10
1191.097890031859
 20
699.7141388482457
 30
0.0
 11
1201.097889516997
 21
689.714139363108
 31
0.0
  0
LINE
  5
155
330
6F
100
AcDbEntity
  8
_0-A_極細1
  6
Continuous
 62
     7
100
AcDbLine
 10
1191.097890031859
 20
696.1786049423129
 30
0.0
 11
1201.097889506193
 21
686.1786054679797
 31
0.0
  0
LINE
  5
156
330
6F
100
AcDbEntity
  8
_0-A_極細1
  6
Continuous
 62
     7
100
AcDbLine
 10
1191.097890031859
 20
692.6430710363802
 30
0.0
 11
1201.097889495388
 21
682.6430715728514
 31
0.0
  0
LINE
  5
157
330
6F
100
AcDbEntity
  8
_0-A_極細1
  6
Continuous
 62
     7
100
AcDbLine
 10
1191.097890031859
 20
689.1075371304476
 30
0.0
 11
1201.097889484583
 21
679.1075376777233
 31
0.0
  0
LINE
  5
158
330
6F
100
AcDbEntity
  8
_0-A_極細1
  6
Continuous
 62
     7
100
AcDbLine
 10
1191.097890031859
 20
685.5720032245147
 30
0.0
 11
1201.097889473779
 21
675.5720037825952
 31
0.0
  0
LINE
  5
159
330
6F
100
AcDbEntity
  8
_0-A_極細1
  6
Continuous
 62
     7
100
AcDbLine
 10
1191.097890031859
 20
682.036469318582
 30
0.0
 11
1201.097889462974
 21
672.0364698874668
 31
0.0
  0
LINE
  5
15A
330
6F
100
AcDbEntity
  8
_0-A_極細1
  6
Continuous
 62
     7
100
AcDbLine
 10
1191.097890031859
 20
678.5009354126493
 30
0.0
 11
1201.097889452169
 21
668.5009359923388
 31
0.0
  0
LINE
  5
15B
330
6F
100
AcDbEntity
  8
_0-A_極細1
  6
Continuous
 62
     7
100
AcDbLine
 10
1191.097890031859
 20
674.9654015067164
 30
0.0
 11
1201.097889441365
 21
664.9654020972108
 31
0.0
  0
LINE
  5
15C
330
6F
100
AcDbEntity
  8
_0-A_極細1
  6
Continuous
 62
     7
100
AcDbLine
 10
1191.097890031859
 20
671.4298676007835
 30
0.0
 11
1201.09788943056
 21
661.4298682020823
 31
0.0
  0
LINE
  5
15D
330
6F
100
AcDbEntity
  8
_0-A_極細1
  6
Continuous
 62
     7
100
AcDbLine
 10
1191.097890031859
 20
667.8943336948512
 30
0.0
 11
1201.097889419756
 21
657.8943343069543
 31
0.0
  0
LINE
  5
15E
330
6F
100
AcDbEntity
  8
_0-A_極細1
  6
Continuous
 62
     7
100
AcDbLine
 10
1191.097890031859
 20
664.3587997889182
 30
0.0
 11
1201.097889408951
 21
654.3588004118262
 31
0.0
  0
LINE
  5
15F
330
6F
100
AcDbEntity
  8
_0-A_極細1
  6
Continuous
 62
     7
100
AcDbLine
 10
1191.097890031859
 20
660.8232658829856
 30
0.0
 11
1201.097889398147
 21
650.8232665166977
 31
0.0
  0
LINE
  5
160
330
6F
100
AcDbEntity
  8
_0-A_極細1
  6
Continuous
 62
     7
100
AcDbLine
 10
1191.097890031859
 20
657.2877319770527
 30
0.0
 11
1201.097889387342
 21
647.2877326215697
 31
0.0
  0
LINE
  5
161
330
6F
100
AcDbEntity
  8
_0-A_極細1
  6
Continuous
 62
     7
100
AcDbLine
 10
1191.097890031859
 20
653.7521980711201
 30
0.0
 11
1201.097889376538
 21
643.7521987264415
 31
0.0
  0
LINE
  5
162
330
6F
100
AcDbEntity
  8
_0-A_極細1
  6
Continuous
 62
     7
100
AcDbLine
 10
1191.097890031859
 20
650.2166641651872
 30
0.0
 11
1200.650812083138
 21
640.6637421139082
 31
0.0
  0
LINE
  5
163
330
6F
100
AcDbEntity
  8
_0-A_極細1
  6
Continuous
 62
     7
100
AcDbLine
 10
1191.097890031859
 20
646.6811302592546
 30
0.0
 11
1197.115278177205
 21
640.6637421139082
 31
0.0
  0
LINE
  5
164
330
6F
100
AcDbEntity
  8
_0-A_極細1
  6
Continuous
 62
     7
100
AcDbLine
 10
1191.097890031859
 20
643.1455963533221
 30
0.0
 11
1193.579744271272
 21
640.6637421139082
 31
0.0
  0
LINE
  5
165
330
6F
100
AcDbEntity
  8
_0-A_極細1
  6
Continuous
 62
     7
100
AcDbLine
 10
1222.641544902521
 20
640.6637421139083
 30
0.0
 11
1226.097889865568
 21
644.1200870769553
 31
0.0
  0
LINE
  5
166
330
6F
100
AcDbEntity
  8
_0-A_極細1
  6
Continuous
 62
     7
100
AcDbLine
 10
1219.106010996588
 20
640.6637421139083
 30
0.0
 11
1226.097889887695
 21
647.6556210050154
 31
0.0
  0
LINE
  5
167
330
6F
100
AcDbEntity
  8
_0-A_極細1
  6
Continuous
 62
     7
100
AcDbLine
 10
1215.570477090656
 20
640.6637421139085
 30
0.0
 11
1226.097889909822
 21
651.1911549330754
 31
0.0
  0
LINE
  5
168
330
6F
100
AcDbEntity
  8
_0-A_極細1
  6
Continuous
 62
     7
100
AcDbLine
 10
1212.034943184723
 20
640.6637421139083
 30
0.0
 11
1226.09788993195
 21
654.7266888611353
 31
0.0
  0
LINE
  5
169
330
6F
100
AcDbEntity
  8
_0-A_極細1
  6
Continuous
 62
     7
100
AcDbLine
 10
1208.49940927879
 20
640.6637421139085
 30
0.0
 11
1226.097889954077
 21
658.2622227891954
 31
0.0
  0
LINE
  5
16A
330
6F
100
AcDbEntity
  8
_0-A_極細1
  6
Continuous
 62
     7
100
AcDbLine
 10
1204.963875372857
 20
640.6637421139085
 30
0.0
 11
1226.097889976205
 21
661.7977567172554
 31
0.0
  0
LINE
  5
16B
330
6F
100
AcDbEntity
  8
_0-A_極細1
  6
Continuous
 62
     7
100
AcDbLine
 10
1201.428341466925
 20
640.6637421139083
 30
0.0
 11
1226.097889998332
 21
665.3332906453154
 31
0.0
  0
LINE
  5
16C
330
6F
100
AcDbEntity
  8
_0-A_極細1
  6
Continuous
 62
     7
100
AcDbLine
 10
1201.097890031859
 20
643.8688245847757
 30
0.0
 11
1226.097890020459
 21
668.8688245733754
 31
0.0
  0
LINE
  5
16D
330
6F
100
AcDbEntity
  8
_0-A_極細1
  6
Continuous
 62
     7
100
AcDbLine
 10
1201.097890031859
 20
647.4043584907084
 30
0.0
 11
1224.38380865506
 21
670.6902771139084
 31
0.0
  0
LINE
  5
16E
330
6F
100
AcDbEntity
  8
_0-A_極細1
  6
Continuous
 62
     7
100
AcDbLine
 10
1201.097890031859
 20
650.939892396641
 30
0.0
 11
1220.848274749126
 21
670.6902771139084
 31
0.0
  0
LINE
  5
16F
330
6F
100
AcDbEntity
  8
_0-A_極細1
  6
Continuous
 62
     7
100
AcDbLine
 10
1201.097890031859
 20
654.4754263025738
 30
0.0
 11
1217.312740843194
 21
670.6902771139084
 31
0.0
  0
LINE
  5
170
330
6F
100
AcDbEntity
  8
_0-A_極細1
  6
Continuous
 62
     7
100
AcDbLine
 10
1201.097890031859
 20
658.0109602085065
 30
0.0
 11
1213.777206937261
 21
670.6902771139084
 31
0.0
  0
LINE
  5
171
330
6F
100
AcDbEntity
  8
_0-A_極細1
  6
Continuous
 62
     7
100
AcDbLine
 10
1201.097890031859
 20
661.5464941144393
 30
0.0
 11
1210.241673031329
 21
670.6902771139088
 31
0.0
  0
LINE
  5
172
330
6F
100
AcDbEntity
  8
_0-A_極細1
  6
Continuous
 62
     7
100
AcDbLine
 10
1201.097890031859
 20
665.0820280203721
 30
0.0
 11
1206.706139125396
 21
670.6902771139084
 31
0.0
  0
LINE
  5
173
330
6F
100
AcDbEntity
  8
_0-A_極細1
  6
Continuous
 62
     7
100
AcDbLine
 10
1201.097890031859
 20
668.6175619263048
 30
0.0
 11
1203.170605219463
 21
670.6902771139084
 31
0.0
  0
LINE
  5
174
330
6F
100
AcDbEntity
  8
_0-B_細線1
  6
Continuous
 62
     7
100
AcDbLine
 10
1201.09789003186
 20
858.1902771139089
 30
0.0
 11
1201.09789003186
 21
749.6902771139095
 31
0.0
  0
LINE
  5
175
330
6F
100
AcDbEntity
  8
_0-B_細線1
  6
Continuous
 62
     7
100
AcDbLine
 10
1221.097890031859
 20
708.1902771139098
 30
0.0
 11
1201.09789003186
 21
708.1902771139098
 31
0.0
  0
LINE
  5
176
330
6F
100
AcDbEntity
  8
_0-B_細線1
  6
Continuous
 62
     7
100
AcDbLine
 10
1221.097890031859
 20
823.1902771139099
 30
0.0
 11
1201.09789003186
 21
823.1902771139099
 31
0.0
  0
LINE
  5
177
330
6F
100
AcDbEntity
  8
_0-D_寸法1
  6
Continuous
 62
     7
100
AcDbLine
 10
1213.127372392168
 20
645.2306331799263
 30
0.0
 11
1220.198440204033
 21
652.3017009917918
 31
0.0
  0
LINE
  5
178
330
6F
100
AcDbEntity
  8
_0-D_寸法1
  6
Continuous
 62
     7
100
AcDbLine
 10
1213.127372392168
 20
645.2306331799263
 30
0.0
 11
1222.786630655058
 21
647.8188236309517
 31
0.0
  0
LINE
  5
179
330
6F
100
AcDbEntity
  8
_0-D_寸法1
  6
Continuous
 62
     7
100
AcDbLine
 10
1213.127372392168
 20
645.2306331799263
 30
0.0
 11
1257.822104467534
 21
671.0351487749975
 31
0.0
  0
LINE
  5
17A
330
6F
100
AcDbEntity
  8
_0-D_寸法1
  6
Continuous
 62
     7
100
AcDbLine
 10
1257.822104467534
 20
671.0351487749975
 30
0.0
 11
1371.822104467535
 21
671.0351487749975
 31
0.0
  0
TEXT
  5
17B
330
6F
100
AcDbEntity
  8
_0-D_寸法1
 62
     7
100
AcDbText
 10
1257.822104467534
 20
671.0351487749975
 30
0.0
 40
15.0
  1
発泡Ｐ.Ｅ. ｔ=５.０
 41
0.8000000000000001
100
AcDbText
  0
TEXT
  5
17C
330
6F
100
AcDbEntity
  8
_0-D_寸法1
 62
     7
100
AcDbText
 10
1257.822104467534
 20
656.0351487749975
 30
0.0
 40
15.0
  1
両面テープ付
 41
0.8000000000000001
100
AcDbText
  0
LINE
  5
17D
330
6F
100
AcDbEntity
  8
_0-D_寸法1
  6
Continuous
 62
     7
100
AcDbLine
 10
1196.481076095872
 20
678.6732257725195
 30
0.0
 11
1203.552143907737
 21
685.7442935843851
 31
0.0
  0
LINE
  5
17E
330
6F
100
AcDbEntity
  8
_0-D_寸法1
  6
Continuous
 62
     7
100
AcDbLine
 10
1196.481076095872
 20
678.6732257725195
 30
0.0
 11
1206.140334358763
 21
681.2614162235448
 31
0.0
  0
LINE
  5
17F
330
6F
100
AcDbEntity
  8
_0-D_寸法1
  6
Continuous
 62
     7
100
AcDbLine
 10
1196.481076095872
 20
678.6732257725195
 30
0.0
 11
1257.822104467534
 21
714.0884850152672
 31
0.0
  0
LINE
  5
180
330
6F
100
AcDbEntity
  8
_0-D_寸法1
  6
Continuous
 62
     7
100
AcDbLine
 10
1257.822104467534
 20
714.0884850152672
 30
0.0
 11
1347.822104467534
 21
714.0884850152672
 31
0.0
  0
TEXT
  5
181
330
6F
100
AcDbEntity
  8
_0-D_寸法1
 62
     7
100
AcDbText
 10
1257.822104467534
 20
714.0884850152672
 30
0.0
 40
15.0
  1
Ｐ.Ｐ. ｔ=２.０
 41
0.8000000000000001
100
AcDbText
  0
LINE
  5
182
330
6F
100
AcDbEntity
  8
_0-B_細線1
  6
Continuous
 62
     7
100
AcDbLine
 10
1191.097890031859
 20
863.190277113909
 30
0.0
 11
1191.097890031859
 21
640.6637421139083
 31
0.0
  0
LINE
  5
183
330
6F
100
AcDbEntity
  8
_0-B_細線1
  6
Continuous
 62
     7
100
AcDbLine
 10
1183.597890031859
 20
863.190277113909
 30
0.0
 11
1191.097890031859
 21
863.190277113909
 31
0.0
  0
LINE
  5
184
330
6F
100
AcDbEntity
  8
_0-B_細線1
  6
Continuous
 62
     7
100
AcDbLine
 10
1183.597890031859
 20
863.190277113909
 30
0.0
 11
1183.597890031859
 21
640.6637421139083
 31
0.0
  0
LINE
  5
185
330
6F
100
AcDbEntity
  8
_0-A_極細1
  6
Continuous
 62
     7
100
AcDbLine
 10
1190.609638675365
 20
863.190277113909
 30
0.0
 11
1183.597890031859
 21
856.1785284704034
 31
0.0
  0
LINE
  5
186
330
6F
100
AcDbEntity
  8
_0-A_極細1
  6
Continuous
 62
     7
100
AcDbLine
 10
1183.597890031859
 20
849.107460658538
 30
0.0
 11
1191.097890030064
 21
856.6074606567426
 31
0.0
  0
LINE
  5
187
330
6F
100
AcDbEntity
  8
_0-A_極細1
  6
Continuous
 62
     7
100
AcDbLine
 10
1183.597890031859
 20
842.0363928466723
 30
0.0
 11
1191.097890023969
 21
849.5363928387824
 31
0.0
  0
LINE
  5
188
330
6F
100
AcDbEntity
  8
_0-A_極細1
  6
Continuous
 62
     7
100
AcDbLine
 10
1183.597890031859
 20
834.9653250348069
 30
0.0
 11
1191.097890017874
 21
842.4653250208223
 31
0.0
  0
LINE
  5
189
330
6F
100
AcDbEntity
  8
_0-A_極細1
  6
Continuous
 62
     7
100
AcDbLine
 10
1183.597890031859
 20
827.8942572229416
 30
0.0
 11
1191.097890011779
 21
835.394257202862
 31
0.0
  0
LINE
  5
18A
330
6F
100
AcDbEntity
  8
_0-A_極細1
  6
Continuous
 62
     7
100
AcDbLine
 10
1183.597890031859
 20
820.8231894110761
 30
0.0
 11
1191.097890005685
 21
828.3231893849022
 31
0.0
  0
LINE
  5
18B
330
6F
100
AcDbEntity
  8
_0-A_極細1
  6
Continuous
 62
     7
100
AcDbLine
 10
1183.597890031859
 20
813.7521215992105
 30
0.0
 11
1191.09788999959
 21
821.2521215669417
 31
0.0
  0
LINE
  5
18C
330
6F
100
AcDbEntity
  8
_0-A_極細1
  6
Continuous
 62
     7
100
AcDbLine
 10
1183.597890031859
 20
806.6810537873456
 30
0.0
 11
1191.097889993496
 21
814.1810537489815
 31
0.0
  0
LINE
  5
18D
330
6F
100
AcDbEntity
  8
_0-A_極細1
  6
Continuous
 62
     7
100
AcDbLine
 10
1183.597890031859
 20
799.6099859754798
 30
0.0
 11
1191.097889987401
 21
807.109985931021
 31
0.0
  0
LINE
  5
18E
330
6F
100
AcDbEntity
  8
_0-A_極細1
  6
Continuous
 62
     7
100
AcDbLine
 10
1183.597890031859
 20
792.5389181636142
 30
0.0
 11
1191.097889981306
 21
800.0389181130611
 31
0.0
  0
LINE
  5
18F
330
6F
100
AcDbEntity
  8
_0-A_極細1
  6
Continuous
 62
     7
100
AcDbLine
 10
1183.597890031859
 20
785.4678503517487
 30
0.0
 11
1191.097889975211
 21
792.9678502951008
 31
0.0
  0
LINE
  5
190
330
6F
100
AcDbEntity
  8
_0-A_極細1
  6
Continuous
 62
     7
100
AcDbLine
 10
1183.597890031859
 20
778.3967825398836
 30
0.0
 11
1191.097889969117
 21
785.8967824771406
 31
0.0
  0
LINE
  5
191
330
6F
100
AcDbEntity
  8
_0-A_極細1
  6
Continuous
 62
     7
100
AcDbLine
 10
1183.597890031859
 20
771.3257147280176
 30
0.0
 11
1191.097889963022
 21
778.8257146591804
 31
0.0
  0
LINE
  5
192
330
6F
100
AcDbEntity
  8
_0-A_極細1
  6
Continuous
 62
     7
100
AcDbLine
 10
1183.597890031859
 20
764.2546469161522
 30
0.0
 11
1191.097889956927
 21
771.7546468412201
 31
0.0
  0
LINE
  5
193
330
6F
100
AcDbEntity
  8
_0-A_極細1
  6
Continuous
 62
     7
100
AcDbLine
 10
1183.597890031859
 20
757.183579104287
 30
0.0
 11
1191.097889950832
 21
764.6835790232602
 31
0.0
  0
LINE
  5
194
330
6F
100
AcDbEntity
  8
_0-A_極細1
  6
Continuous
 62
     7
100
AcDbLine
 10
1183.597890031859
 20
750.1125112924215
 30
0.0
 11
1191.097889944737
 21
757.6125112052998
 31
0.0
  0
LINE
  5
195
330
6F
100
AcDbEntity
  8
_0-A_極細1
  6
Continuous
 62
     7
100
AcDbLine
 10
1183.597890031859
 20
743.041443480556
 30
0.0
 11
1191.097889938643
 21
750.5414433873394
 31
0.0
  0
LINE
  5
196
330
6F
100
AcDbEntity
  8
_0-A_極細1
  6
Continuous
 62
     7
100
AcDbLine
 10
1183.597890031859
 20
735.9703756686904
 30
0.0
 11
1191.097889932548
 21
743.4703755693793
 31
0.0
  0
LINE
  5
197
330
6F
100
AcDbEntity
  8
_0-A_極細1
  6
Continuous
 62
     7
100
AcDbLine
 10
1183.597890031859
 20
728.8993078568251
 30
0.0
 11
1191.097889926453
 21
736.3993077514192
 31
0.0
  0
LINE
  5
198
330
6F
100
AcDbEntity
  8
_0-A_極細1
  6
Continuous
 62
     7
100
AcDbLine
 10
1183.597890031859
 20
721.8282400449595
 30
0.0
 11
1191.097889920359
 21
729.3282399334588
 31
0.0
  0
LINE
  5
199
330
6F
100
AcDbEntity
  8
_0-A_極細1
  6
Continuous
 62
     7
100
AcDbLine
 10
1183.597890031859
 20
714.7571722330941
 30
0.0
 11
1191.097889914264
 21
722.2571721154984
 31
0.0
  0
LINE
  5
19A
330
6F
100
AcDbEntity
  8
_0-A_極細1
  6
Continuous
 62
     7
100
AcDbLine
 10
1183.597890031859
 20
707.6861044212286
 30
0.0
 11
1191.097889908169
 21
715.1861042975384
 31
0.0
  0
LINE
  5
19B
330
6F
100
AcDbEntity
  8
_0-A_極細1
  6
Continuous
 62
     7
100
AcDbLine
 10
1183.597890031859
 20
700.6150366093633
 30
0.0
 11
1191.097889902074
 21
708.1150364795783
 31
0.0
  0
LINE
  5
19C
330
6F
100
AcDbEntity
  8
_0-A_極細1
  6
Continuous
 62
     7
100
AcDbLine
 10
1183.597890031859
 20
693.5439687974975
 30
0.0
 11
1191.097889895979
 21
701.0439686616182
 31
0.0
  0
LINE
  5
19D
330
6F
100
AcDbEntity
  8
_0-A_極細1
  6
Continuous
 62
     7
100
AcDbLine
 10
1183.597890031859
 20
686.4729009856323
 30
0.0
 11
1191.097889889885
 21
693.9729008436579
 31
0.0
  0
LINE
  5
19E
330
6F
100
AcDbEntity
  8
_0-A_極細1
  6
Continuous
 62
     7
100
AcDbLine
 10
1183.597890031859
 20
679.4018331737667
 30
0.0
 11
1191.09788988379
 21
686.9018330256976
 31
0.0
  0
LINE
  5
19F
330
6F
100
AcDbEntity
  8
_0-A_極細1
  6
Continuous
 62
     7
100
AcDbLine
 10
1183.597890031859
 20
672.3307653619013
 30
0.0
 11
1191.097889877695
 21
679.8307652077373
 31
0.0
  0
LINE
  5
1A0
330
6F
100
AcDbEntity
  8
_0-A_極細1
  6
Continuous
 62
     7
100
AcDbLine
 10
1183.597890031859
 20
665.2596975500357
 30
0.0
 11
1191.097889871601
 21
672.7596973897771
 31
0.0
  0
LINE
  5
1A1
330
6F
100
AcDbEntity
  8
_0-A_極細1
  6
Continuous
 62
     7
100
AcDbLine
 10
1183.597890031859
 20
658.1886297381704
 30
0.0
 11
1191.097889865506
 21
665.6886295718172
 31
0.0
  0
LINE
  5
1A2
330
6F
100
AcDbEntity
  8
_0-A_極細1
  6
Continuous
 62
     7
100
AcDbLine
 10
1183.597890031859
 20
651.1175619263048
 30
0.0
 11
1191.097889859411
 21
658.617561753857
 31
0.0
  0
LINE
  5
1A3
330
6F
100
AcDbEntity
  8
_0-A_極細1
  6
Continuous
 62
     7
100
AcDbLine
 10
1183.597890031859
 20
644.0464941144393
 30
0.0
 11
1191.097889853317
 21
651.5464939358967
 31
0.0
  0
LINE
  5
1A4
330
6F
100
AcDbEntity
  8
_0-A_極細1
  6
Continuous
 62
     7
100
AcDbLine
 10
1183.597890031859
 20
636.9754263025744
 30
0.0
 11
1191.097889847222
 21
644.4754261179364
 31
0.0
  0
LINE
  5
1A5
330
6F
100
AcDbEntity
  8
_0-D_寸法1
  6
Continuous
 62
     7
100
AcDbLine
 10
1187.362341654985
 20
728.4553894734301
 30
0.0
 11
1194.43340946685
 21
735.5264572852959
 31
0.0
  0
LINE
  5
1A6
330
6F
100
AcDbEntity
  8
_0-D_寸法1
  6
Continuous
 62
     7
100
AcDbLine
 10
1187.362341654985
 20
728.4553894734301
 30
0.0
 11
1197.021599917876
 21
731.0435799244554
 31
0.0
  0
LINE
  5
1A7
330
6F
100
AcDbEntity
  8
_0-D_寸法1
  6
Continuous
 62
     7
100
AcDbLine
 10
1187.362341654985
 20
728.4553894734301
 30
0.0
 11
1257.822104467534
 21
769.1353525002928
 31
0.0
  0
LINE
  5
1A8
330
6F
100
AcDbEntity
  8
_0-D_寸法1
  6
Continuous
 62
     7
100
AcDbLine
 10
1257.822104467534
 20
769.1353525002928
 30
0.0
 11
1370.54483645115
 21
769.1353525002928
 31
0.0
  0
TEXT
  5
1A9
330
6F
100
AcDbEntity
  8
_0-D_寸法1
 62
     7
100
AcDbText
 10
1260.29483645115
 20
769.1353525002928
 30
0.0
 40
15.0
  1
ＳＵＳ３０４＃８００ 
 41
0.7
100
AcDbText
  0
TEXT
  5
1AA
330
6F
100
AcDbEntity
  8
_0-D_寸法1
 62
     7
100
AcDbText
 10
1260.29483645115
 20
754.1353525002928
 30
0.0
 40
15.0
  1
ｔ＝１．５
 41
0.7
100
AcDbText
  0
LINE
  5
1AB
330
6F
100
AcDbEntity
  8
_0-F_細線2
  6
DASHED2
 62
     3
100
AcDbLine
 10
1079.516184382268
 20
280.8976602259654
 30
0.0
 11
1290.165318368105
 21
280.8976602259654
 31
0.0
  0
LINE
  5
1AC
330
6F
100
AcDbEntity
  8
_0-F_細線2
  6
DASHED2
 62
     3
100
AcDbLine
 10
1297.665318368104
 20
288.3976602259654
 30
0.0
 11
1297.665318368104
 21
303.3976602259654
 31
0.0
  0
ARC
  5
1AD
330
6F
100
AcDbEntity
  8
_0-F_細線2
  6
DASHED2
 62
     3
100
AcDbCircle
 10
1290.165318368105
 20
288.3976602259654
 30
0.0
 40
7.5
100
AcDbArc
 50
269.9999999999997
 51
359.9999999999997
  0
LINE
  5
1AE
330
6F
100
AcDbEntity
  8
_0-F_細線2
  6
DASHED2
 62
     3
100
AcDbLine
 10
1297.665318368104
 20
486.1954253560401
 30
0.0
 11
1297.665318368104
 21
501.1954253560404
 31
0.0
  0
ARC
  5
1AF
330
6F
100
AcDbEntity
  8
_0-F_細線2
  6
DASHED2
 62
     3
100
AcDbCircle
 10
1290.165318368105
 20
501.1954253560404
 30
0.0
 40
7.5
100
AcDbArc
 50
0.0
 51
89.99999999999991
  0
LINE
  5
1B0
330
6F
100
AcDbEntity
  8
_0-B_細線1
  6
Continuous
 62
     7
100
AcDbLine
 10
1197.097890031859
 20
863.1902771139079
 30
0.0
 11
1215.097890031859
 21
863.1902771139079
 31
0.0
  0
LINE
  5
1B1
330
6F
100
AcDbEntity
  8
_0-B_細線1
  6
Continuous
 62
     7
100
AcDbLine
 10
1176.097890031859
 20
863.190277113909
 30
0.0
 11
1176.097890031859
 21
818.1902771139089
 31
0.0
  0
LINE
  5
1B2
330
6F
100
AcDbEntity
  8
_0-B_細線1
  6
Continuous
 62
     7
100
AcDbLine
 10
1176.097890031859
 20
818.1902771139089
 30
0.0
 11
1171.097890031859
 21
818.1902771139089
 31
0.0
  0
LINE
  5
1B3
330
6F
100
AcDbEntity
  8
_0-B_細線1
  6
Continuous
 62
     7
100
AcDbLine
 10
1171.097890031859
 20
818.1902771139089
 30
0.0
 11
1171.097890031859
 21
868.1902771139091
 31
0.0
  0
LINE
  5
1B4
330
6F
100
AcDbEntity
  8
_0-B_細線1
  6
Continuous
 62
     7
100
AcDbLine
 10
1171.097890031859
 20
868.1902771139091
 30
0.0
 11
1226.097890031859
 21
868.1902771139091
 31
0.0
  0
LINE
  5
1B5
330
6F
100
AcDbEntity
  8
_0-B_細線1
  6
Continuous
 62
     7
100
AcDbLine
 10
1226.097890031859
 20
868.1902771139091
 30
0.0
 11
1226.097890031859
 21
693.1902771139087
 31
0.0
  0
LINE
  5
1B6
330
6F
100
AcDbEntity
  8
_0-B_細線1
  6
Continuous
 62
     7
100
AcDbLine
 10
1226.097890031859
 20
693.1902771139087
 30
0.0
 11
1221.097890031859
 21
693.1902771139087
 31
0.0
  0
LINE
  5
1B7
330
6F
100
AcDbEntity
  8
_0-B_細線1
  6
Continuous
 62
     7
100
AcDbLine
 10
1221.097890031859
 20
693.1902771139087
 30
0.0
 11
1221.097890031859
 21
863.190277113909
 31
0.0
  0
LINE
  5
1B8
330
6F
100
AcDbEntity
  8
_0-B_細線1
  6
Continuous
 62
     7
100
AcDbLine
 10
1221.097890031859
 20
863.190277113909
 30
0.0
 11
1176.097890031859
 21
863.190277113909
 31
0.0
  0
LINE
  5
1B9
330
6F
100
AcDbEntity
  8
_0-A_極細1
  6
Continuous
 62
     7
100
AcDbLine
 10
1223.686469365229
 20
693.1902771139087
 30
0.0
 11
1226.097890031859
 21
695.6016977805385
 31
0.0
  0
LINE
  5
1BA
330
6F
100
AcDbEntity
  8
_0-A_極細1
  6
Continuous
 62
     7
100
AcDbLine
 10
1221.097890031859
 20
697.672765592404
 30
0.0
 11
1226.097890031859
 21
702.6727655924041
 31
0.0
  0
LINE
  5
1BB
330
6F
100
AcDbEntity
  8
_0-A_極細1
  6
Continuous
 62
     7
100
AcDbLine
 10
1221.097890031859
 20
704.7438334042692
 30
0.0
 11
1226.097890031859
 21
709.7438334042696
 31
0.0
  0
LINE
  5
1BC
330
6F
100
AcDbEntity
  8
_0-A_極細1
  6
Continuous
 62
     7
100
AcDbLine
 10
1221.097890031859
 20
711.8149012161348
 30
0.0
 11
1226.097890031859
 21
716.8149012161348
 31
0.0
  0
LINE
  5
1BD
330
6F
100
AcDbEntity
  8
_0-A_極細1
  6
Continuous
 62
     7
100
AcDbLine
 10
1221.097890031859
 20
718.8859690280003
 30
0.0
 11
1226.097890031859
 21
723.8859690280004
 31
0.0
  0
LINE
  5
1BE
330
6F
100
AcDbEntity
  8
_0-A_極細1
  6
Continuous
 62
     7
100
AcDbLine
 10
1221.097890031859
 20
725.9570368398657
 30
0.0
 11
1226.097890031859
 21
730.9570368398659
 31
0.0
  0
LINE
  5
1BF
330
6F
100
AcDbEntity
  8
_0-A_極細1
  6
Continuous
 62
     7
100
AcDbLine
 10
1221.097890031859
 20
733.0281046517312
 30
0.0
 11
1226.097890031859
 21
738.0281046517316
 31
0.0
  0
LINE
  5
1C0
330
6F
100
AcDbEntity
  8
_0-A_極細1
  6
Continuous
 62
     7
100
AcDbLine
 10
1221.097890031859
 20
740.0991724635968
 30
0.0
 11
1226.097890031859
 21
745.0991724635969
 31
0.0
  0
LINE
  5
1C1
330
6F
100
AcDbEntity
  8
_0-A_極細1
  6
Continuous
 62
     7
100
AcDbLine
 10
1221.097890031859
 20
747.1702402754622
 30
0.0
 11
1226.097890031859
 21
752.1702402754621
 31
0.0
  0
LINE
  5
1C2
330
6F
100
AcDbEntity
  8
_0-A_極細1
  6
Continuous
 62
     7
100
AcDbLine
 10
1221.097890031859
 20
754.2413080873274
 30
0.0
 11
1226.097890031859
 21
759.2413080873278
 31
0.0
  0
LINE
  5
1C3
330
6F
100
AcDbEntity
  8
_0-A_極細1
  6
Continuous
 62
     7
100
AcDbLine
 10
1221.097890031859
 20
761.3123758991933
 30
0.0
 11
1226.097890031859
 21
766.3123758991933
 31
0.0
  0
LINE
  5
1C4
330
6F
100
AcDbEntity
  8
_0-A_極細1
  6
Continuous
 62
     7
100
AcDbLine
 10
1221.097890031859
 20
768.3834437110588
 30
0.0
 11
1226.097890031859
 21
773.3834437110588
 31
0.0
  0
LINE
  5
1C5
330
6F
100
AcDbEntity
  8
_0-A_極細1
  6
Continuous
 62
     7
100
AcDbLine
 10
1221.097890031859
 20
775.4545115229243
 30
0.0
 11
1226.097890031859
 21
780.4545115229243
 31
0.0
  0
LINE
  5
1C6
330
6F
100
AcDbEntity
  8
_0-A_極細1
  6
Continuous
 62
     7
100
AcDbLine
 10
1221.097890031859
 20
782.5255793347897
 30
0.0
 11
1226.097890031859
 21
787.5255793347897
 31
0.0
  0
LINE
  5
1C7
330
6F
100
AcDbEntity
  8
_0-A_極細1
  6
Continuous
 62
     7
100
AcDbLine
 10
1221.097890031859
 20
789.5966471466554
 30
0.0
 11
1226.097890031859
 21
794.5966471466554
 31
0.0
  0
LINE
  5
1C8
330
6F
100
AcDbEntity
  8
_0-A_極細1
  6
Continuous
 62
     7
100
AcDbLine
 10
1221.097890031859
 20
796.6677149585206
 30
0.0
 11
1226.097890031859
 21
801.6677149585206
 31
0.0
  0
LINE
  5
1C9
330
6F
100
AcDbEntity
  8
_0-A_極細1
  6
Continuous
 62
     7
100
AcDbLine
 10
1221.097890031859
 20
803.7387827703863
 30
0.0
 11
1226.097890031859
 21
808.7387827703862
 31
0.0
  0
LINE
  5
1CA
330
6F
100
AcDbEntity
  8
_0-A_極細1
  6
Continuous
 62
     7
100
AcDbLine
 10
1221.097890031859
 20
810.8098505822514
 30
0.0
 11
1226.097890031859
 21
815.8098505822515
 31
0.0
  0
LINE
  5
1CB
330
6F
100
AcDbEntity
  8
_0-A_極細1
  6
Continuous
 62
     7
100
AcDbLine
 10
1221.097890031859
 20
817.880918394117
 30
0.0
 11
1226.097890031859
 21
822.8809183941173
 31
0.0
  0
LINE
  5
1CC
330
6F
100
AcDbEntity
  8
_0-A_極細1
  6
Continuous
 62
     7
100
AcDbLine
 10
1221.097890031859
 20
824.9519862059829
 30
0.0
 11
1226.097890031859
 21
829.9519862059828
 31
0.0
  0
LINE
  5
1CD
330
6F
100
AcDbEntity
  8
_0-A_極細1
  6
Continuous
 62
     7
100
AcDbLine
 10
1221.097890031859
 20
832.023054017848
 30
0.0
 11
1226.097890031859
 21
837.023054017848
 31
0.0
  0
LINE
  5
1CE
330
6F
100
AcDbEntity
  8
_0-A_極細1
  6
Continuous
 62
     7
100
AcDbLine
 10
1221.097890031859
 20
839.0941218297133
 30
0.0
 11
1226.097890031859
 21
844.0941218297137
 31
0.0
  0
LINE
  5
1CF
330
6F
100
AcDbEntity
  8
_0-A_極細1
  6
Continuous
 62
     7
100
AcDbLine
 10
1221.097890031859
 20
846.1651896415789
 30
0.0
 11
1226.097890031859
 21
851.1651896415793
 31
0.0
  0
LINE
  5
1D0
330
6F
100
AcDbEntity
  8
_0-A_極細1
  6
Continuous
 62
     7
100
AcDbLine
 10
1221.097890031859
 20
853.2362574534445
 30
0.0
 11
1226.097890031859
 21
858.2362574534444
 31
0.0
  0
LINE
  5
1D1
330
6F
100
AcDbEntity
  8
_0-A_極細1
  6
Continuous
 62
     7
100
AcDbLine
 10
1221.097890031859
 20
860.30732526531
 30
0.0
 11
1226.097890031859
 21
865.3073252653099
 31
0.0
  0
LINE
  5
1D2
330
6F
100
AcDbEntity
  8
_0-A_極細1
  6
Continuous
 62
     7
100
AcDbLine
 10
1171.909774068592
 20
818.1902771139089
 30
0.0
 11
1176.097890031859
 21
822.3783930771755
 31
0.0
  0
LINE
  5
1D3
330
6F
100
AcDbEntity
  8
_0-A_極細1
  6
Continuous
 62
     7
100
AcDbLine
 10
1216.909774068592
 20
863.190277113909
 30
0.0
 11
1221.909774068592
 21
868.1902771139091
 31
0.0
  0
LINE
  5
1D4
330
6F
100
AcDbEntity
  8
_0-A_極細1
  6
Continuous
 62
     7
100
AcDbLine
 10
1171.097890031859
 20
824.4494608890409
 30
0.0
 11
1176.097890031859
 21
829.449460889041
 31
0.0
  0
LINE
  5
1D5
330
6F
100
AcDbEntity
  8
_0-A_極細1
  6
Continuous
 62
     7
100
AcDbLine
 10
1209.838706256727
 20
863.190277113909
 30
0.0
 11
1214.838706256726
 21
868.1902771139091
 31
0.0
  0
LINE
  5
1D6
330
6F
100
AcDbEntity
  8
_0-A_極細1
  6
Continuous
 62
     7
100
AcDbLine
 10
1171.097890031859
 20
831.5205287009064
 30
0.0
 11
1176.097890031859
 21
836.5205287009064
 31
0.0
  0
LINE
  5
1D7
330
6F
100
AcDbEntity
  8
_0-A_極細1
  6
Continuous
 62
     7
100
AcDbLine
 10
1202.767638444861
 20
863.190277113909
 30
0.0
 11
1207.767638444861
 21
868.1902771139091
 31
0.0
  0
LINE
  5
1D8
330
6F
100
AcDbEntity
  8
_0-A_極細1
  6
Continuous
 62
     7
100
AcDbLine
 10
1171.097890031859
 20
838.5915965127718
 30
0.0
 11
1176.097890031859
 21
843.5915965127719
 31
0.0
  0
LINE
  5
1D9
330
6F
100
AcDbEntity
  8
_0-A_極細1
  6
Continuous
 62
     7
100
AcDbLine
 10
1195.696570632996
 20
863.190277113909
 30
0.0
 11
1200.696570632996
 21
868.1902771139091
 31
0.0
  0
LINE
  5
1DA
330
6F
100
AcDbEntity
  8
_0-A_極細1
  6
Continuous
 62
     7
100
AcDbLine
 10
1171.097890031859
 20
845.6626643246371
 30
0.0
 11
1176.097890031859
 21
850.6626643246374
 31
0.0
  0
LINE
  5
1DB
330
6F
100
AcDbEntity
  8
_0-A_極細1
  6
Continuous
 62
     7
100
AcDbLine
 10
1188.62550282113
 20
863.190277113909
 30
0.0
 11
1193.62550282113
 21
868.1902771139091
 31
0.0
  0
LINE
  5
1DC
330
6F
100
AcDbEntity
  8
_0-A_極細1
  6
Continuous
 62
     7
100
AcDbLine
 10
1171.097890031859
 20
852.7337321365026
 30
0.0
 11
1176.097890031859
 21
857.7337321365028
 31
0.0
  0
LINE
  5
1DD
330
6F
100
AcDbEntity
  8
_0-A_極細1
  6
Continuous
 62
     7
100
AcDbLine
 10
1181.554435009265
 20
863.190277113909
 30
0.0
 11
1186.554435009265
 21
868.1902771139091
 31
0.0
  0
LINE
  5
1DE
330
6F
100
AcDbEntity
  8
_0-A_極細1
  6
Continuous
 62
     7
100
AcDbLine
 10
1171.097890031859
 20
859.804799948368
 30
0.0
 11
1179.483367197399
 21
868.1902771139091
 31
0.0
  0
LINE
  5
1DF
330
6F
100
AcDbEntity
  8
_0-A_極細1
  6
Continuous
 62
     7
100
AcDbLine
 10
1171.097890031859
 20
866.8758677602333
 30
0.0
 11
1172.412299385534
 21
868.1902771139091
 31
0.0
  0
LINE
  5
1E0
330
6F
100
AcDbEntity
  8
_0-D_寸法1
  6
Continuous
 62
     7
100
AcDbLine
 10
1223.075953205529
 20
832.3971971247031
 30
0.0
 11
1230.147021017395
 21
839.4682649365686
 31
0.0
  0
LINE
  5
1E1
330
6F
100
AcDbEntity
  8
_0-D_寸法1
  6
Continuous
 62
     7
100
AcDbLine
 10
1223.075953205529
 20
832.3971971247031
 30
0.0
 11
1232.73521146842
 21
834.9853875757283
 31
0.0
  0
LINE
  5
1E2
330
6F
100
AcDbEntity
  8
_0-D_寸法1
  6
Continuous
 62
     7
100
AcDbLine
 10
1223.075953205529
 20
832.3971971247031
 30
0.0
 11
1257.875953205529
 21
852.4889864925022
 31
0.0
  0
LINE
  5
1E3
330
6F
100
AcDbEntity
  8
_0-D_寸法1
  6
Continuous
 62
     7
100
AcDbLine
 10
1257.875953205529
 20
852.4889864925022
 30
0.0
 11
1329.875953205529
 21
852.4889864925022
 31
0.0
  0
TEXT
  5
1E4
330
6F
100
AcDbEntity
  8
_0-D_寸法1
 62
     7
100
AcDbText
 10
1257.875953205529
 20
852.4889864925022
 30
0.0
 40
15.0
  1
盗難防止金具
 41
0.8000000000000001
100
AcDbText
  0
TEXT
  5
1E5
330
6F
100
AcDbEntity
  8
_0-D_寸法1
 62
     7
100
AcDbText
 10
1257.822104467534
 20
837.4889864925021
 30
0.0
 40
15.0
  1
アンカー付
 41
0.8000000000000001
100
AcDbText
  0
TEXT
  5
1E6
330
6F
100
AcDbEntity
  8
_0-7_枠細線
 62
     5
100
AcDbText
 10
1255.0
 20
147.5
 30
0.0
 40
25.0
  1
株式会社シマブン
 41
0.7
100
AcDbText
  0
LINE
  5
1E7
330
6F
100
AcDbEntity
  8
_0-7_枠細線
  6
Continuous
 62
     5
100
AcDbLine
 10
1425.0
 20
925.0
 30
0.0
 11
890.0
 21
925.0
 31
0.0
  0
TEXT
  5
1E8
330
6F
100
AcDbEntity
  8
_0-7_枠細線
 62
     5
100
AcDbText
 10
1180.0
 20
927.5
 30
0.0
 40
12.5
  1
２０１３．０３．１３
 41
0.6
100
AcDbText
  0
TEXT
  5
1E9
330
6F
100
AcDbEntity
  8
_0-7_枠細線
 62
     5
100
AcDbText
 10
938.8503703703703
 20
927.5
 30
0.0
 40
12.5
  1
品番変更
100
AcDbText
  0
LINE
  5
1EA
330
6F
100
AcDbEntity
  8
_0-7_枠細線
  6
Continuous
 62
     5
100
AcDbLine
 10
890.0
 20
925.0
 30
0.0
 11
890.0
 21
959.9999999999994
 31
0.0
  0
LINE
  5
1EB
330
6F
100
AcDbEntity
  8
_0-7_枠細線
  6
Continuous
 62
     5
100
AcDbLine
 10
925.0
 20
925.0
 30
0.0
 11
925.0
 21
959.9999999999994
 31
0.0
  0
LINE
  5
1EC
330
6F
100
AcDbEntity
  8
_0-7_枠細線
  6
Continuous
 62
     5
100
AcDbLine
 10
1175.0
 20
925.0
 30
0.0
 11
1175.0
 21
959.9999999999994
 31
0.0
  0
LINE
  5
1ED
330
6F
100
AcDbEntity
  8
_0-7_枠細線
  6
Continuous
 62
     5
100
AcDbLine
 10
1275.0
 20
925.0
 30
0.0
 11
1275.0
 21
959.9999999999994
 31
0.0
  0
LINE
  5
1EF
330
6F
100
AcDbEntity
  8
_0-0_計極細
  6
Continuous
 62
     2
100
AcDbLine
 10
1177.040319097152
 20
428.6954160423168
 30
0.0
 11
1178.290319097152
 21
428.6954162245791
 31
0.0
  0
LINE
  5
1F0
330
6F
100
AcDbEntity
  8
_1-1_寸法2
  6
Continuous
 62
     7
100
AcDbLine
 10
1177.665318368104
 20
521.1954253560405
 30
0.0
 11
1177.665318368104
 21
553.6954253560402
 31
0.0
  0
LINE
  5
1F1
330
6F
100
AcDbEntity
  8
_1-1_寸法2
  6
Continuous
 62
     7
100
AcDbLine
 10
1177.665318368104
 20
548.6954253560402
 30
0.0
 11
1187.324576630994
 21
551.2836158070654
 31
0.0
  0
LINE
  5
1F2
330
6F
100
AcDbEntity
  8
_1-1_寸法2
  6
Continuous
 62
     7
100
AcDbLine
 10
1177.665318368104
 20
548.6954253560402
 30
0.0
 11
1187.324576630994
 21
546.1072349050152
 31
0.0
  0
LINE
  5
1F3
330
6F
100
AcDbEntity
  8
_1-1_寸法2
  6
Continuous
 62
     7
100
AcDbLine
 10
1303.915318368104
 20
521.1954253560405
 30
0.0
 11
1303.915318368104
 21
553.6954253560402
 31
0.0
  0
LINE
  5
1F4
330
6F
100
AcDbEntity
  8
_1-1_寸法2
  6
Continuous
 62
     7
100
AcDbLine
 10
1303.915318368104
 20
548.6954253560402
 30
0.0
 11
1294.256060105213
 21
546.1072349050152
 31
0.0
  0
LINE
  5
1F5
330
6F
100
AcDbEntity
  8
_1-1_寸法2
  6
Continuous
 62
     7
100
AcDbLine
 10
1303.915318368104
 20
548.6954253560402
 30
0.0
 11
1294.256060105213
 21
551.2836158070654
 31
0.0
  0
LINE
  5
1F6
330
6F
100
AcDbEntity
  8
_1-1_寸法2
  6
Continuous
 62
     7
100
AcDbLine
 10
1177.665318368104
 20
548.6954253560402
 30
0.0
 11
1303.915318368104
 21
548.6954253560402
 31
0.0
  0
TEXT
  5
1F7
330
6F
100
AcDbEntity
  8
_1-1_寸法2
 62
     7
100
AcDbText
 10
1226.021016134931
 20
548.6954253560402
 30
0.0
 40
15.0
  1
50.5
100
AcDbText
  0
LINE
  5
1F8
330
6F
100
AcDbEntity
  8
_0-E_極細2
  6
CENTER1
 62
     6
100
AcDbLine
 10
1177.665318368104
 20
483.00761992731
 30
0.0
 11
1177.665318368104
 21
433.9565250367985
 31
0.0
  0
LINE
  5
1F9
330
6F
100
AcDbEntity
  8
_0-F_細線2
  6
DASHED2
 62
     3
100
AcDbLine
 10
1079.516184382268
 20
508.6954253560401
 30
0.0
 11
1212.850956826276
 21
508.6954253560401
 31
0.0
  0
LINE
  5
1FA
330
6F
100
AcDbEntity
  8
_0-F_細線2
  6
DASHED2
 62
     3
100
AcDbLine
 10
1200.165318368104
 20
449.3204325370388
 30
0.0
 11
1197.415318368104
 21
460.5704305321572
 31
0.0
  0
LINE
  5
1FB
330
6F
100
AcDbEntity
  8
_0-F_細線2
  6
DASHED2
 62
     3
100
AcDbLine
 10
1196.415318368104
 20
460.5704298031092
 30
0.0
 11
1196.415318368104
 21
449.3204298031074
 31
0.0
  0
CIRCLE
  5
1FC
330
6F
100
AcDbEntity
  8
_0-F_細線2
  6
DASHED2
 62
     3
100
AcDbCircle
 10
1208.915318368104
 20
454.9454389162113
 30
0.0
 40
2.5
  0
LINE
  5
1FD
330
6F
100
AcDbEntity
  8
_0-F_細線2
  6
DASHED2
 62
     3
100
AcDbLine
 10
1215.165318368104
 20
449.3204434727622
 30
0.0
 11
1215.165318368104
 21
460.5704434727639
 31
0.0
  0
ARC
  5
1FE
330
6F
100
AcDbEntity
  8
_0-F_細線2
  6
DASHED2
 62
     3
100
AcDbCircle
 10
1177.040318368104
 20
476.195416042328
 30
0.0
 40
5.0
100
AcDbArc
 50
90.00000835427989
 51
179.9999999999998
  0
LINE
  5
1FF
330
6F
100
AcDbEntity
  8
_0-F_細線2
  6
DASHED2
 62
     3
100
AcDbLine
 10
1177.040317639055
 20
481.195416042328
 30
0.0
 11
1178.290317639055
 21
481.1954162245902
 31
0.0
  0
ARC
  5
200
330
6F
100
AcDbEntity
  8
_0-F_細線2
  6
DASHED2
 62
     3
100
AcDbCircle
 10
1178.290318368104
 20
476.1954162245903
 30
0.0
 40
5.0
100
AcDbArc
 50
0.0
 51
90.00000835427989
  0
LINE
  5
201
330
6F
100
AcDbEntity
  8
_0-F_細線2
  6
DASHED2
 62
     3
100
AcDbLine
 10
1158.915318368104
 20
460.5704298031092
 30
0.0
 11
1158.915318368104
 21
449.3204298031074
 31
0.0
  0
LINE
  5
202
330
6F
100
AcDbEntity
  8
_0-F_細線2
  6
DASHED2
 62
     3
100
AcDbLine
 10
1140.165318368104
 20
449.3203887941437
 30
0.0
 11
1140.165318368104
 21
460.5703887941448
 31
0.0
  0
CIRCLE
  5
203
330
6F
100
AcDbEntity
  8
_0-F_細線2
  6
DASHED2
 62
     3
100
AcDbCircle
 10
1146.415318368104
 20
454.9453933506957
 30
0.0
 40
2.5
  0
LINE
  5
204
330
6F
100
AcDbEntity
  8
_0-F_細線2
  6
DASHED2
 62
     3
100
AcDbLine
 10
1155.165318368104
 20
449.3204325370388
 30
0.0
 11
1157.915318368104
 21
460.5704305321572
 31
0.0
  0
LINE
  5
205
330
6F
100
AcDbEntity
  8
_0-F_細線2
  6
DASHED2
 62
     3
100
AcDbLine
 10
1183.290318368104
 20
476.1954162245903
 30
0.0
 11
1183.290318368104
 21
460.57041841173
 31
0.0
  0
LINE
  5
206
330
6F
100
AcDbEntity
  8
_0-F_細線2
  6
DASHED2
 62
     3
100
AcDbLine
 10
1172.040318368104
 20
476.195416042328
 30
0.0
 11
1172.040318368104
 21
460.5704138551786
 31
0.0
  0
LINE
  5
207
330
6F
100
AcDbEntity
  8
_0-F_細線2
  6
DASHED2
 62
     3
100
AcDbLine
 10
1140.165318368104
 20
449.3203887941437
 30
0.0
 11
1215.165318368104
 21
449.3204434727622
 31
0.0
  0
LINE
  5
208
330
6F
100
AcDbEntity
  8
_0-F_細線2
  6
DASHED2
 62
     3
100
AcDbLine
 10
1140.165318368104
 20
460.5703887941448
 30
0.0
 11
1215.165318368104
 21
460.5704434727639
 31
0.0
  0
ARC
  5
209
330
6F
100
AcDbEntity
  8
_0-F_細線2
  6
DASHED2
 62
     3
100
AcDbCircle
 10
1177.040318368104
 20
433.6954160423167
 30
0.0
 40
5.0
100
AcDbArc
 50
179.9999999999994
 51
270.0000083542847
  0
ARC
  5
20A
330
6F
100
AcDbEntity
  8
_0-F_細線2
  6
DASHED2
 62
     3
100
AcDbCircle
 10
1178.290318368104
 20
433.6954162245788
 30
0.0
 40
5.0
100
AcDbArc
 50
270.0000083542847
 51
359.9999999999997
  0
LINE
  5
20B
330
6F
100
AcDbEntity
  8
_0-F_細線2
  6
DASHED2
 62
     3
100
AcDbLine
 10
1183.290318368104
 20
449.3204184117289
 30
0.0
 11
1183.290318368104
 21
433.6954162245788
 31
0.0
  0
LINE
  5
20C
330
6F
100
AcDbEntity
  8
_0-F_細線2
  6
DASHED2
 62
     3
100
AcDbLine
 10
1172.040318368104
 20
449.3204138551768
 30
0.0
 11
1172.040318368104
 21
433.6954160423167
 31
0.0
  0
LINE
  5
20D
330
6F
100
AcDbEntity
  8
_0-F_細線2
  6
DASHED2
 62
     3
100
AcDbLine
 10
1177.065318368104
 20
473.39542535604
 30
0.0
 11
1177.065318368104
 21
471.99542535604
 31
0.0
  0
LINE
  5
20E
330
6F
100
AcDbEntity
  8
_0-F_細線2
  6
DASHED2
 62
     3
100
AcDbLine
 10
1178.265318368104
 20
473.39542535604
 30
0.0
 11
1178.265318368103
 21
471.99542535604
 31
0.0
  0
LINE
  5
20F
330
6F
100
AcDbEntity
  8
_0-F_細線2
  6
DASHED2
 62
     3
100
AcDbLine
 10
1178.265318368104
 20
473.39542535604
 30
0.0
 11
1178.265318368103
 21
471.99542535604
 31
0.0
  0
CIRCLE
  5
210
330
6F
100
AcDbEntity
  8
_0-F_細線2
  6
DASHED2
 62
     3
100
AcDbCircle
 10
1177.665318368104
 20
471.19542535604
 30
0.0
 40
4.000000000000001
  0
LINE
  5
211
330
6F
100
AcDbEntity
  8
_0-F_細線2
  6
DASHED2
 62
     3
100
AcDbLine
 10
1179.865318368104
 20
470.5954253560401
 30
0.0
 11
1178.465318368104
 21
470.5954253560399
 31
0.0
  0
LINE
  5
212
330
6F
100
AcDbEntity
  8
_0-F_細線2
  6
DASHED2
 62
     3
100
AcDbLine
 10
1179.865318368104
 20
471.7954253560399
 30
0.0
 11
1178.465318368104
 21
471.7954253560399
 31
0.0
  0
ARC
  5
213
330
6F
100
AcDbEntity
  8
_0-F_細線2
  6
DASHED2
 62
     3
100
AcDbCircle
 10
1178.465318368104
 20
471.99542535604
 30
0.0
 40
0.2
100
AcDbArc
 50
179.9999999999998
 51
269.9999999999997
  0
ARC
  5
214
330
6F
100
AcDbEntity
  8
_0-F_細線2
  6
DASHED2
 62
     3
100
AcDbCircle
 10
1178.465318368104
 20
470.39542535604
 30
0.0
 40
0.2
100
AcDbArc
 50
89.99999999999991
 51
179.9999999999998
  0
ARC
  5
215
330
6F
100
AcDbEntity
  8
_0-F_細線2
  6
DASHED2
 62
     3
100
AcDbCircle
 10
1176.865318368104
 20
470.39542535604
 30
0.0
 40
0.2
100
AcDbArc
 50
0.0
 51
89.99999999999991
  0
ARC
  5
216
330
6F
100
AcDbEntity
  8
_0-F_細線2
  6
DASHED2
 62
     3
100
AcDbCircle
 10
1176.865318368104
 20
471.99542535604
 30
0.0
 40
0.2
100
AcDbArc
 50
269.9999999999997
 51
359.9999999999997
  0
LINE
  5
217
330
6F
100
AcDbEntity
  8
_0-F_細線2
  6
DASHED2
 62
     3
100
AcDbLine
 10
1178.265318368104
 20
470.39542535604
 30
0.0
 11
1178.265318368103
 21
468.99542535604
 31
0.0
  0
LINE
  5
218
330
6F
100
AcDbEntity
  8
_0-F_細線2
  6
DASHED2
 62
     3
100
AcDbLine
 10
1178.265318368103
 20
470.39542535604
 30
0.0
 11
1178.265318368103
 21
468.99542535604
 31
0.0
  0
LINE
  5
219
330
6F
100
AcDbEntity
  8
_0-F_細線2
  6
DASHED2
 62
     3
100
AcDbLine
 10
1177.065318368104
 20
470.39542535604
 30
0.0
 11
1177.065318368104
 21
468.99542535604
 31
0.0
  0
LINE
  5
21A
330
6F
100
AcDbEntity
  8
_0-F_細線2
  6
DASHED2
 62
     3
100
AcDbLine
 10
1178.265318368104
 20
468.99542535604
 30
0.0
 11
1177.065318368104
 21
468.99542535604
 31
0.0
  0
LINE
  5
21B
330
6F
100
AcDbEntity
  8
_0-F_細線2
  6
DASHED2
 62
     3
100
AcDbLine
 10
1175.465318368104
 20
471.7954253560399
 30
0.0
 11
1175.465318368104
 21
470.5954253560401
 31
0.0
  0
LINE
  5
21C
330
6F
100
AcDbEntity
  8
_0-F_細線2
  6
DASHED2
 62
     3
100
AcDbLine
 10
1176.865318368104
 20
470.5954253560401
 30
0.0
 11
1175.465318368104
 21
470.5954253560401
 31
0.0
  0
LINE
  5
21D
330
6F
100
AcDbEntity
  8
_0-F_細線2
  6
DASHED2
 62
     3
100
AcDbLine
 10
1176.865318368104
 20
471.7954253560399
 30
0.0
 11
1175.465318368104
 21
471.7954253560399
 31
0.0
  0
LINE
  5
21E
330
6F
100
AcDbEntity
  8
_0-F_細線2
  6
DASHED2
 62
     3
100
AcDbLine
 10
1179.865318368104
 20
471.7954253560399
 30
0.0
 11
1179.865318368104
 21
470.5954253560401
 31
0.0
  0
LINE
  5
21F
330
6F
100
AcDbEntity
  8
_0-F_細線2
  6
DASHED2
 62
     3
100
AcDbLine
 10
1178.265318368104
 20
473.39542535604
 30
0.0
 11
1177.065318368104
 21
473.39542535604
 31
0.0
  0
LINE
  5
220
330
6F
100
AcDbEntity
  8
_0-F_細線2
  6
DASHED2
 62
     3
100
AcDbLine
 10
1210.165318368104
 20
508.6954253560401
 30
0.0
 11
1290.165318368105
 21
508.6954253560405
 31
0.0
  0
LINE
  5
221
330
6F
100
AcDbEntity
  8
_1-1_寸法2
  6
Continuous
 62
     7
100
AcDbLine
 10
1177.665318368104
 20
268.3976602259654
 30
0.0
 11
1177.665318368104
 21
235.8976602259654
 31
0.0
  0
LINE
  5
222
330
6F
100
AcDbEntity
  8
_1-1_寸法2
  6
Continuous
 62
     7
100
AcDbLine
 10
1177.665318368104
 20
240.8976602259654
 30
0.0
 11
1187.324576630994
 21
243.4858506769906
 31
0.0
  0
LINE
  5
223
330
6F
100
AcDbEntity
  8
_1-1_寸法2
  6
Continuous
 62
     7
100
AcDbLine
 10
1177.665318368104
 20
240.8976602259654
 30
0.0
 11
1187.324576630994
 21
238.3094697749402
 31
0.0
  0
LINE
  5
224
330
6F
100
AcDbEntity
  8
_1-1_寸法2
  6
Continuous
 62
     7
100
AcDbLine
 10
1303.915318368104
 20
268.3976602259654
 30
0.0
 11
1303.915318368104
 21
235.8976602259654
 31
0.0
  0
LINE
  5
225
330
6F
100
AcDbEntity
  8
_1-1_寸法2
  6
Continuous
 62
     7
100
AcDbLine
 10
1303.915318368104
 20
240.8976602259654
 30
0.0
 11
1294.256060105213
 21
238.3094697749402
 31
0.0
  0
LINE
  5
226
330
6F
100
AcDbEntity
  8
_1-1_寸法2
  6
Continuous
 62
     7
100
AcDbLine
 10
1303.915318368104
 20
240.8976602259654
 30
0.0
 11
1294.256060105213
 21
243.4858506769906
 31
0.0
  0
LINE
  5
227
330
6F
100
AcDbEntity
  8
_1-1_寸法2
  6
Continuous
 62
     7
100
AcDbLine
 10
1177.665318368104
 20
240.8976602259654
 30
0.0
 11
1303.915318368104
 21
240.8976602259654
 31
0.0
  0
TEXT
  5
228
330
6F
100
AcDbEntity
  8
_1-1_寸法2
 62
     7
100
AcDbText
 10
1223.863676313357
 20
240.8976602259654
 30
0.0
 40
15.0
  1
50.5
100
AcDbText
  0
LINE
  5
229
330
6F
100
AcDbEntity
  8
_0-E_極細2
  6
CENTER1
 62
     6
100
AcDbLine
 10
1177.665318368104
 20
311.265006808648
 30
0.0
 11
1177.665318368104
 21
364.6476602259654
 31
0.0
  0
LINE
  5
22A
330
6F
100
AcDbEntity
  8
_0-F_細線2
  6
DASHED2
 62
     3
100
AcDbLine
 10
1179.165318368103
 20
335.397660225965
 30
0.0
 11
1176.165318368105
 21
335.3976602259657
 31
0.0
  0
CIRCLE
  5
22B
330
6F
100
AcDbEntity
  8
_0-F_細線2
  6
DASHED2
 62
     3
100
AcDbCircle
 10
1177.665318368104
 20
340.8976602259654
 30
0.0
 40
6.875
  0
LINE
  5
22C
330
6F
100
AcDbEntity
  8
_0-F_細線2
  6
DASHED2
 62
     3
100
AcDbLine
 10
1183.165318368103
 20
339.3976602259651
 30
0.0
 11
1179.665318368104
 21
339.3976602259656
 31
0.0
  0
LINE
  5
22D
330
6F
100
AcDbEntity
  8
_0-F_細線2
  6
DASHED2
 62
     3
100
AcDbLine
 10
1183.165318368103
 20
342.3976602259652
 30
0.0
 11
1179.665318368104
 21
342.3976602259652
 31
0.0
  0
CIRCLE
  5
22E
330
6F
100
AcDbEntity
  8
_0-F_細線2
  6
DASHED2
 62
     3
100
AcDbCircle
 10
1177.665318368104
 20
340.8976602259654
 30
0.0
 40
10.0
  0
LINE
  5
22F
330
6F
100
AcDbEntity
  8
_0-F_細線2
  6
DASHED2
 62
     3
100
AcDbLine
 10
1179.165318368103
 20
346.3976602259649
 30
0.0
 11
1176.165318368105
 21
346.3976602259655
 31
0.0
  0
ARC
  5
230
330
6F
100
AcDbEntity
  8
_0-F_細線2
  6
DASHED2
 62
     3
100
AcDbCircle
 10
1175.665318368103
 20
338.8976602259655
 30
0.0
 40
0.5000000000000002
100
AcDbArc
 50
0.0
 51
89.99999999999991
  0
LINE
  5
231
330
6F
100
AcDbEntity
  8
_0-F_細線2
  6
DASHED2
 62
     3
100
AcDbLine
 10
1176.165318368105
 20
335.3976602259653
 30
0.0
 11
1176.165318368105
 21
338.8976602259655
 31
0.0
  0
ARC
  5
232
330
6F
100
AcDbEntity
  8
_0-F_細線2
  6
DASHED2
 62
     3
100
AcDbCircle
 10
1175.665318368103
 20
342.8976602259653
 30
0.0
 40
0.5000000000000002
100
AcDbArc
 50
269.9999999999997
 51
359.9999999999997
  0
LINE
  5
233
330
6F
100
AcDbEntity
  8
_0-F_細線2
  6
DASHED2
 62
     3
100
AcDbLine
 10
1176.165318368103
 20
342.8976602259653
 30
0.0
 11
1176.165318368105
 21
346.3976602259655
 31
0.0
  0
LINE
  5
234
330
6F
100
AcDbEntity
  8
_0-F_細線2
  6
DASHED2
 62
     3
100
AcDbLine
 10
1172.165318368104
 20
339.3976602259651
 30
0.0
 11
1172.165318368104
 21
342.3976602259652
 31
0.0
  0
LINE
  5
235
330
6F
100
AcDbEntity
  8
_0-F_細線2
  6
DASHED2
 62
     3
100
AcDbLine
 10
1175.665318368103
 20
339.3976602259656
 30
0.0
 11
1172.165318368104
 21
339.3976602259651
 31
0.0
  0
LINE
  5
236
330
6F
100
AcDbEntity
  8
_0-F_細線2
  6
DASHED2
 62
     3
100
AcDbLine
 10
1175.665318368103
 20
342.3976602259652
 30
0.0
 11
1172.165318368104
 21
342.3976602259652
 31
0.0
  0
LINE
  5
237
330
6F
100
AcDbEntity
  8
_0-F_細線2
  6
DASHED2
 62
     3
100
AcDbLine
 10
1179.165318368103
 20
335.3976602259653
 30
0.0
 11
1179.165318368103
 21
338.8976602259655
 31
0.0
  0
LINE
  5
238
330
6F
100
AcDbEntity
  8
_0-F_細線2
  6
DASHED2
 62
     3
100
AcDbLine
 10
1179.165318368103
 20
335.3976602259653
 30
0.0
 11
1179.165318368103
 21
338.8976602259655
 31
0.0
  0
ARC
  5
239
330
6F
100
AcDbEntity
  8
_0-F_細線2
  6
DASHED2
 62
     3
100
AcDbCircle
 10
1179.665318368104
 20
338.8976602259655
 30
0.0
 40
0.5000000000000002
100
AcDbArc
 50
89.99999999999991
 51
179.9999999999998
  0
ARC
  5
23A
330
6F
100
AcDbEntity
  8
_0-F_細線2
  6
DASHED2
 62
     3
100
AcDbCircle
 10
1179.665318368104
 20
342.8976602259653
 30
0.0
 40
0.5000000000000002
100
AcDbArc
 50
179.9999999999998
 51
269.9999999999997
  0
LINE
  5
23B
330
6F
100
AcDbEntity
  8
_0-F_細線2
  6
DASHED2
 62
     3
100
AcDbLine
 10
1179.165318368103
 20
342.8976602259653
 30
0.0
 11
1179.165318368103
 21
346.3976602259655
 31
0.0
  0
LINE
  5
23C
330
6F
100
AcDbEntity
  8
_0-F_細線2
  6
DASHED2
 62
     3
100
AcDbLine
 10
1179.165318368103
 20
342.8976602259653
 30
0.0
 11
1179.165318368103
 21
346.3976602259655
 31
0.0
  0
LINE
  5
23D
330
6F
100
AcDbEntity
  8
_0-F_細線2
  6
DASHED2
 62
     3
100
AcDbLine
 10
1183.165318368103
 20
339.3976602259651
 30
0.0
 11
1183.165318368103
 21
342.3976602259652
 31
0.0
  0
LINE
  5
23E
330
6F
100
AcDbEntity
  8
_0-5_寸法線
  6
Continuous
 62
     7
100
AcDbLine
 10
511.0106331013373
 20
536.3787148366765
 30
0.0
 11
511.0106331013373
 21
549.0680585385148
 31
0.0
  0
LINE
  5
23F
330
6F
100
AcDbEntity
  8
_0-5_寸法線
  6
Continuous
 62
     7
100
AcDbLine
 10
511.0106331013373
 20
544.0680585385148
 30
0.0
 11
520.6698913642278
 21
546.6562489895399
 31
0.0
  0
LINE
  5
240
330
6F
100
AcDbEntity
  8
_0-5_寸法線
  6
Continuous
 62
     7
100
AcDbLine
 10
511.0106331013373
 20
544.0680585385148
 30
0.0
 11
520.6698913642278
 21
541.4798680874894
 31
0.0
  0
LINE
  5
241
330
6F
100
AcDbEntity
  8
_0-5_寸法線
  6
Continuous
 62
     7
100
AcDbLine
 10
502.5106331013373
 20
536.3787148366765
 30
0.0
 11
502.5106331013373
 21
549.0680585385148
 31
0.0
  0
LINE
  5
242
330
6F
100
AcDbEntity
  8
_0-5_寸法線
  6
Continuous
 62
     7
100
AcDbLine
 10
502.5106331013373
 20
544.0680585385148
 30
0.0
 11
492.8513748384466
 21
541.4798680874896
 31
0.0
  0
LINE
  5
243
330
6F
100
AcDbEntity
  8
_0-5_寸法線
  6
Continuous
 62
     7
100
AcDbLine
 10
502.5106331013373
 20
544.0680585385148
 30
0.0
 11
492.8513748384466
 21
546.6562489895399
 31
0.0
  0
LINE
  5
244
330
6F
100
AcDbEntity
  8
_0-5_寸法線
  6
Continuous
 62
     7
100
AcDbLine
 10
536.0106331013371
 20
544.0680585385148
 30
0.0
 11
477.5106331013373
 21
544.0680585385148
 31
0.0
  0
TEXT
  5
245
330
6F
100
AcDbEntity
  8
_0-5_寸法線
 62
     7
100
AcDbText
 10
513.4853465530601
 20
544.0680585385148
 30
0.0
 40
15.0
  1
8.5
100
AcDbText
  0
LINE
  5
246
330
6F
100
AcDbEntity
  8
_0-0_計極細
  6
CENTER1
 62
     2
100
AcDbLine
 10
526.4629175579782
 20
496.4562801377417
 30
0.0
 11
99.72722508484437
 21
496.4562801377417
 31
0.0
  0
LINE
  5
247
330
6F
100
AcDbEntity
  8
_0-0_計極細
  6
Continuous
 62
     2
100
AcDbLine
 10
698.6602989735518
 20
435.78976346766
 30
0.0
 11
928.364320643632
 21
666.9937851377424
 31
0.0
  0
LINE
  5
248
330
6F
100
AcDbEntity
  8
_0-0_計極細
  6
Continuous
 62
     2
100
AcDbLine
 10
698.6602989735518
 20
521.1230967975836
 30
0.0
 11
843.0309873137103
 21
666.9937851377424
 31
0.0
  0
LINE
  5
249
330
6F
100
AcDbEntity
  8
_0-0_計極細
  6
Continuous
 62
     2
100
AcDbLine
 10
698.6602989735518
 20
607.9564301275066
 30
0.0
 11
757.6976539837878
 21
666.9937851377424
 31
0.0
  0
LINE
  5
24A
330
6F
100
AcDbEntity
  8
_0-1_計細線
  6
DASHED2
 62
     3
100
AcDbLine
 10
208.0378505127775
 20
715.9562801377421
 30
0.0
 11
184.0378505127773
 21
715.9562801377421
 31
0.0
  0
LINE
  5
24B
330
6F
100
AcDbEntity
  8
_0-1_計細線
  6
DASHED2
 62
     3
100
AcDbLine
 10
373.0378505127778
 20
715.9562801377421
 30
0.0
 11
397.0378505127778
 21
715.9562801377421
 31
0.0
  0
LINE
  5
24C
330
6F
100
AcDbEntity
  8
_0-1_計細線
  6
DASHED2
 62
     3
100
AcDbLine
 10
927.1604014735521
 20
715.9562801377421
 30
0.0
 11
951.1604014735523
 21
715.9562801377421
 31
0.0
  0
LINE
  5
24D
330
6F
100
AcDbEntity
  8
_0-1_計細線
  6
DASHED2
 62
     3
100
AcDbLine
 10
762.1604014735519
 20
715.9562801377421
 30
0.0
 11
738.1604014735519
 21
715.9562801377421
 31
0.0
  0
LINE
  5
24E
330
6F
100
AcDbEntity
  8
_0-1_計細線
  6
Continuous
 62
     3
100
AcDbLine
 10
112.0378505127769
 20
691.4562801377418
 30
0.0
 11
112.0378505127769
 21
716.4562801377418
 31
0.0
  0
LINE
  5
24F
330
6F
100
AcDbEntity
  8
_0-1_計細線
  6
Continuous
 62
     3
100
AcDbLine
 10
469.0378505127783
 20
691.4562801377418
 30
0.0
 11
469.0378505127783
 21
716.4562801377418
 31
0.0
  0
LINE
  5
250
330
6F
100
AcDbEntity
  8
_0-1_計細線
  6
Continuous
 62
     3
100
AcDbLine
 10
688.1604014735522
 20
685.4562801377418
 30
0.0
 11
1001.160401473552
 21
685.4562801377418
 31
0.0
  0
LINE
  5
251
330
6F
100
AcDbEntity
  8
_0-1_計細線
  6
Continuous
 62
     3
100
AcDbLine
 10
511.0106331013369
 20
685.4528551377417
 30
0.0
 11
509.8106331013372
 21
685.4528551377417
 31
0.0
  0
LINE
  5
252
330
6F
100
AcDbEntity
  8
_0-5_寸法線
  6
Continuous
 62
     7
100
AcDbLine
 10
500.0106331013369
 20
736.4562801377421
 30
0.0
 11
500.0106331013371
 21
780.4562801377421
 31
0.0
  0
LINE
  5
253
330
6F
100
AcDbEntity
  8
_0-5_寸法線
  6
Continuous
 62
     7
100
AcDbLine
 10
500.0106331013371
 20
775.4562801377422
 30
0.0
 11
490.3513748384463
 21
772.8680896867171
 31
0.0
  0
LINE
  5
254
330
6F
100
AcDbEntity
  8
_0-5_寸法線
  6
Continuous
 62
     7
100
AcDbLine
 10
500.0106331013371
 20
775.4562801377422
 30
0.0
 11
490.3513748384463
 21
778.0444705887673
 31
0.0
  0
LINE
  5
255
330
6F
100
AcDbEntity
  8
_0-5_寸法線
  6
Continuous
 62
     7
100
AcDbLine
 10
511.0106331013371
 20
736.4562801377421
 30
0.0
 11
511.0106331013372
 21
780.4562801377421
 31
0.0
  0
LINE
  5
256
330
6F
100
AcDbEntity
  8
_0-5_寸法線
  6
Continuous
 62
     7
100
AcDbLine
 10
511.0106331013372
 20
775.4562801377422
 30
0.0
 11
520.6698913642278
 21
778.0444705887673
 31
0.0
  0
LINE
  5
257
330
6F
100
AcDbEntity
  8
_0-5_寸法線
  6
Continuous
 62
     7
100
AcDbLine
 10
511.0106331013372
 20
775.4562801377422
 30
0.0
 11
520.6698913642278
 21
772.8680896867166
 31
0.0
  0
LINE
  5
258
330
6F
100
AcDbEntity
  8
_0-5_寸法線
  6
Continuous
 62
     7
100
AcDbLine
 10
480.010633101337
 20
775.4562801377422
 30
0.0
 11
531.0106331013371
 21
775.4562801377422
 31
0.0
  0
TEXT
  5
259
330
6F
100
AcDbEntity
  8
_0-5_寸法線
 62
     7
100
AcDbText
 10
497.6004013378049
 20
775.4562801377422
 30
0.0
 40
15.0
  1
11
100
AcDbText
  0
LINE
  5
25A
330
6F
100
AcDbEntity
  8
_0-1_計細線
  6
Continuous
 62
     3
100
AcDbLine
 10
694.1604014735514
 20
691.4562801377418
 30
0.0
 11
995.1604014735528
 21
691.4562801377418
 31
0.0
  0
LINE
  5
25B
330
6F
100
AcDbEntity
  8
_0-1_計細線
  6
Continuous
 62
     3
100
AcDbLine
 10
997.1604014735527
 20
693.4562801377421
 30
0.0
 11
997.1604014735527
 21
716.4562801377418
 31
0.0
  0
ARC
  5
25C
330
6F
100
AcDbEntity
  8
_0-1_計細線
  6
Continuous
 62
     3
100
AcDbCircle
 10
995.1604014735528
 20
693.4562801377421
 30
0.0
 40
2.0
100
AcDbArc
 50
269.9999999999997
 51
359.9999999999997
  0
LINE
  5
25D
330
6F
100
AcDbEntity
  8
_0-1_計細線
  6
Continuous
 62
     3
100
AcDbLine
 10
692.1604014735514
 20
693.4562801377421
 30
0.0
 11
692.1604014735514
 21
716.4562801377418
 31
0.0
  0
ARC
  5
25E
330
6F
100
AcDbEntity
  8
_0-1_計細線
  6
Continuous
 62
     3
100
AcDbCircle
 10
694.1604014735514
 20
693.4562801377421
 30
0.0
 40
2.0
100
AcDbArc
 50
179.9999999999998
 51
269.9999999999997
  0
LINE
  5
25F
330
6F
100
AcDbEntity
  8
_0-7_枠細線
  6
Continuous
 62
     5
100
AcDbLine
 10
196.0378505127774
 20
740.0691560402899
 30
0.0
 11
203.5378392627838
 21
742.0787686693028
 31
0.0
  0
LINE
  5
260
330
6F
100
AcDbEntity
  8
_0-7_枠細線
  6
Continuous
 62
     5
100
AcDbLine
 10
196.0378505127774
 20
740.0691560402899
 30
0.0
 11
203.5378392627838
 21
738.0595382349041
 31
0.0
  0
LINE
  5
261
330
6F
100
AcDbEntity
  8
_0-7_枠細線
  6
Continuous
 62
     5
100
AcDbLine
 10
196.0378505127774
 20
740.0691560402899
 30
0.0
 11
230.4875099952637
 21
740.0691560402899
 31
0.0
  0
LINE
  5
262
330
6F
100
AcDbEntity
  8
_0-7_枠細線
  6
Continuous
 62
     5
100
AcDbLine
 10
196.0378505127774
 20
669.3100709018619
 30
0.0
 11
203.5378392627838
 21
667.3004530964759
 31
0.0
  0
LINE
  5
263
330
6F
100
AcDbEntity
  8
_0-7_枠細線
  6
Continuous
 62
     5
100
AcDbLine
 10
196.0378505127774
 20
669.3100709018619
 30
0.0
 11
203.5378392627838
 21
671.3196835308744
 31
0.0
  0
LINE
  5
264
330
6F
100
AcDbEntity
  8
_0-7_枠細線
  6
Continuous
 62
     5
100
AcDbLine
 10
196.0378505127774
 20
669.3100709018619
 30
0.0
 11
230.4875099952637
 21
669.3100709018619
 31
0.0
  0
LINE
  5
265
330
6F
100
AcDbEntity
  8
_0-7_枠細線
  6
Continuous
 62
     5
100
AcDbLine
 10
196.0378505127774
 20
740.0691560402899
 30
0.0
 11
196.0378505127774
 21
669.3100709018619
 31
0.0
  0
LINE
  5
266
330
6F
100
AcDbEntity
  8
_0-1_計細線
  6
DASHED2
 62
     3
100
AcDbLine
 10
951.1604014735523
 20
692.9562801377418
 30
0.0
 11
927.1604014735521
 21
692.9562801377418
 31
0.0
  0
LINE
  5
267
330
6F
100
AcDbEntity
  8
_0-1_計細線
  6
DASHED2
 62
     3
100
AcDbLine
 10
738.1604014735519
 20
692.9562801377418
 30
0.0
 11
762.1604014735519
 21
692.9562801377418
 31
0.0
  0
LINE
  5
268
330
6F
100
AcDbEntity
  8
_0-1_計細線
  6
DASHED2
 62
     3
100
AcDbLine
 10
762.1604014735519
 20
692.9562801377418
 30
0.0
 11
762.1604014735519
 21
715.9562801377421
 31
0.0
  0
LINE
  5
269
330
6F
100
AcDbEntity
  8
_0-1_計細線
  6
DASHED2
 62
     3
100
AcDbLine
 10
927.1604014735521
 20
692.9562801377418
 30
0.0
 11
927.1604014735521
 21
715.9562801377421
 31
0.0
  0
LINE
  5
26A
330
6F
100
AcDbEntity
  8
_0-1_計細線
  6
DASHED2
 62
     3
100
AcDbLine
 10
738.1604014735519
 20
715.9562801377421
 30
0.0
 11
738.1604014735519
 21
692.9562801377418
 31
0.0
  0
LINE
  5
26B
330
6F
100
AcDbEntity
  8
_0-1_計細線
  6
DASHED2
 62
     3
100
AcDbLine
 10
951.1604014735523
 20
715.9562801377421
 30
0.0
 11
951.1604014735523
 21
692.9562801377418
 31
0.0
  0
LINE
  5
26C
330
6F
100
AcDbEntity
  8
_0-1_計細線
  6
DASHED2
 62
     3
100
AcDbLine
 10
184.0378505127773
 20
692.9562801377418
 30
0.0
 11
208.0378505127775
 21
692.9562801377418
 31
0.0
  0
LINE
  5
26D
330
6F
100
AcDbEntity
  8
_0-1_計細線
  6
DASHED2
 62
     3
100
AcDbLine
 10
397.0378505127778
 20
692.9562801377418
 30
0.0
 11
373.0378505127778
 21
692.9562801377418
 31
0.0
  0
LINE
  5
26E
330
6F
100
AcDbEntity
  8
_0-1_計細線
  6
DASHED2
 62
     3
100
AcDbLine
 10
208.0378505127775
 20
692.9562801377418
 30
0.0
 11
208.0378505127775
 21
715.9562801377421
 31
0.0
  0
LINE
  5
26F
330
6F
100
AcDbEntity
  8
_0-1_計細線
  6
DASHED2
 62
     3
100
AcDbLine
 10
373.0378505127778
 20
692.9562801377418
 30
0.0
 11
373.0378505127778
 21
715.9562801377421
 31
0.0
  0
LINE
  5
270
330
6F
100
AcDbEntity
  8
_0-1_計細線
  6
DASHED2
 62
     3
100
AcDbLine
 10
184.0378505127773
 20
715.9562801377421
 30
0.0
 11
184.0378505127773
 21
692.9562801377418
 31
0.0
  0
LINE
  5
271
330
6F
100
AcDbEntity
  8
_0-1_計細線
  6
DASHED2
 62
     3
100
AcDbLine
 10
397.0378505127778
 20
715.9562801377421
 30
0.0
 11
397.0378505127778
 21
692.9562801377418
 31
0.0
  0
LINE
  5
272
330
6F
100
AcDbEntity
  8
_0-1_計細線
  6
Continuous
 62
     3
100
AcDbLine
 10
502.5106331013373
 20
723.9562801377417
 30
0.0
 11
504.0106331013372
 21
723.9562801377417
 31
0.0
  0
LINE
  5
273
330
6F
100
AcDbEntity
  8
_0-1_計細線
  6
Continuous
 62
     3
100
AcDbLine
 10
510.0106331013371
 20
715.9562801377421
 30
0.0
 11
506.0106331013373
 21
715.9562801377421
 31
0.0
  0
LINE
  5
274
330
6F
100
AcDbEntity
  8
_0-1_計細線
  6
Continuous
 62
     3
100
AcDbLine
 10
510.0106331013371
 20
692.9562801377421
 30
0.0
 11
506.0106331013373
 21
692.9562801377421
 31
0.0
  0
LINE
  5
275
330
6F
100
AcDbEntity
  8
_0-1_計細線
  6
Continuous
 62
     3
100
AcDbLine
 10
506.0106331013373
 20
722.9562801377418
 30
0.0
 11
506.0106331013373
 21
701.256280137742
 31
0.0
  0
LINE
  5
276
330
6F
100
AcDbEntity
  8
_0-1_計細線
  6
Continuous
 62
     3
100
AcDbLine
 10
504.0106331013372
 20
722.9562801377418
 30
0.0
 11
506.0106331013373
 21
722.9562801377418
 31
0.0
  0
LINE
  5
277
330
6F
100
AcDbEntity
  8
_0-1_計細線
  6
Continuous
 62
     3
100
AcDbLine
 10
511.0106331013372
 20
685.4562801377418
 30
0.0
 11
506.0106331013373
 21
685.4562801377418
 31
0.0
  0
LINE
  5
278
330
6F
100
AcDbEntity
  8
_0-1_計細線
  6
Continuous
 62
     3
100
AcDbLine
 10
511.0106331013372
 20
685.4562801377418
 30
0.0
 11
511.0106331013372
 21
496.4562801377417
 31
0.0
  0
LINE
  5
279
330
6F
100
AcDbEntity
  8
_0-1_計細線
  6
Continuous
 62
     3
100
AcDbLine
 10
506.0106331013373
 20
722.9562801377418
 30
0.0
 11
506.0106331013373
 21
496.4562801377417
 31
0.0
  0
LINE
  5
27A
330
6F
100
AcDbEntity
  8
_0-1_計細線
  6
Continuous
 62
     3
100
AcDbLine
 10
504.0106331013372
 20
723.9562801377417
 30
0.0
 11
504.0106331013372
 21
496.4562801377417
 31
0.0
  0
LINE
  5
27B
330
6F
100
AcDbEntity
  8
_0-1_計細線
  6
Continuous
 62
     3
100
AcDbLine
 10
502.5106331013373
 20
723.9562801377417
 30
0.0
 11
502.5106331013373
 21
496.4562801377417
 31
0.0
  0
ARC
  5
27C
330
6F
100
AcDbEntity
  8
_0-1_計細線
  6
DASHED2
 62
     3
100
AcDbCircle
 10
466.0378505127783
 20
720.9562801377418
 30
0.0
 40
3.0
100
AcDbArc
 50
0.0
 51
89.99999999999991
  0
LINE
  5
27D
330
6F
100
AcDbEntity
  8
_0-1_計細線
  6
DASHED2
 62
     3
100
AcDbLine
 10
115.0378505127778
 20
723.9562801377417
 30
0.0
 11
466.0378505127783
 21
723.9562801377417
 31
0.0
  0
ARC
  5
27E
330
6F
100
AcDbEntity
  8
_0-1_計細線
  6
DASHED2
 62
     3
100
AcDbCircle
 10
115.0378505127778
 20
720.9562801377418
 30
0.0
 40
3.0
100
AcDbArc
 50
89.99999999999991
 51
179.9999999999998
  0
LINE
  5
27F
330
6F
100
AcDbEntity
  8
_0-1_計細線
  6
DASHED2
 62
     3
100
AcDbLine
 10
666.1604014735523
 20
720.9562801377416
 30
0.0
 11
666.1604014735523
 21
716.4562801377418
 31
0.0
  0
ARC
  5
280
330
6F
100
AcDbEntity
  8
_0-1_計細線
  6
DASHED2
 62
     3
100
AcDbCircle
 10
669.1604014735523
 20
720.9562801377418
 30
0.0
 40
3.0
100
AcDbArc
 50
90.00000000000218
 51
180.0000000000018
  0
LINE
  5
281
330
6F
100
AcDbEntity
  8
_0-1_計細線
  6
DASHED2
 62
     3
100
AcDbLine
 10
667.1604014735522
 20
722.9562801377421
 30
0.0
 11
667.1604014735522
 21
716.656280137742
 31
0.0
  0
LINE
  5
282
330
6F
100
AcDbEntity
  8
_0-1_計細線
  6
DASHED2
 62
     3
100
AcDbLine
 10
1023.160401473551
 20
720.9562801377416
 30
0.0
 11
1023.160401473551
 21
716.4562801377418
 31
0.0
  0
LINE
  5
283
330
6F
100
AcDbEntity
  8
_0-1_計細線
  6
DASHED2
 62
     3
100
AcDbLine
 10
669.160401473552
 20
723.9562801377417
 30
0.0
 11
1020.160401473551
 21
723.9562801377417
 31
0.0
  0
ARC
  5
284
330
6F
100
AcDbEntity
  8
_0-1_計細線
  6
DASHED2
 62
     3
100
AcDbCircle
 10
1020.160401473551
 20
720.9562801377418
 30
0.0
 40
3.0
100
AcDbArc
 50
359.9999999999974
 51
89.99999999999955
  0
LINE
  5
285
330
6F
100
AcDbEntity
  8
_0-1_計細線
  6
DASHED2
 62
     3
100
AcDbLine
 10
1022.160401473551
 20
722.9562801377421
 30
0.0
 11
1022.160401473551
 21
716.4562801377418
 31
0.0
  0
LINE
  5
286
330
6F
100
AcDbEntity
  8
_0-1_計細線
  6
DASHED2
 62
     3
100
AcDbLine
 10
667.1604014735522
 20
722.9562801377421
 30
0.0
 11
1022.160401473551
 21
722.9562801377421
 31
0.0
  0
LINE
  5
287
330
6F
100
AcDbEntity
  8
_0-1_計細線
  6
Continuous
 62
     3
100
AcDbLine
 10
511.0106331013371
 20
689.9562801377417
 30
0.0
 11
510.0106331013369
 21
689.9562801377417
 31
0.0
  0
LINE
  5
288
330
6F
100
AcDbEntity
  8
_0-1_計細線
  6
Continuous
 62
     3
100
AcDbLine
 10
510.0106331013371
 20
723.9562801377417
 30
0.0
 11
501.0106331013371
 21
723.9562801377417
 31
0.0
  0
LINE
  5
289
330
6F
100
AcDbEntity
  8
_0-1_計細線
  6
Continuous
 62
     3
100
AcDbLine
 10
510.0106331013371
 20
689.9562801377417
 30
0.0
 11
510.0106331013371
 21
723.9562801377417
 31
0.0
  0
LINE
  5
28A
330
6F
100
AcDbEntity
  8
_0-1_計細線
  6
Continuous
 62
     3
100
AcDbLine
 10
511.0106331013372
 20
689.9562801377417
 30
0.0
 11
510.0106331013371
 21
689.9562801377417
 31
0.0
  0
LINE
  5
28B
330
6F
100
AcDbEntity
  8
_0-1_計細線
  6
Continuous
 62
     3
100
AcDbLine
 10
511.0106331013372
 20
724.9562801377416
 30
0.0
 11
511.0106331013372
 21
689.9562801377417
 31
0.0
  0
LINE
  5
28C
330
6F
100
AcDbEntity
  8
_0-1_計細線
  6
Continuous
 62
     3
100
AcDbLine
 10
500.0106331013371
 20
724.9562801377416
 30
0.0
 11
511.0106331013372
 21
724.9562801377416
 31
0.0
  0
LINE
  5
28D
330
6F
100
AcDbEntity
  8
_0-1_計細線
  6
Continuous
 62
     3
100
AcDbLine
 10
500.0106331013371
 20
714.9562801377417
 30
0.0
 11
500.0106331013371
 21
724.9562801377416
 31
0.0
  0
LINE
  5
28E
330
6F
100
AcDbEntity
  8
_0-1_計細線
  6
Continuous
 62
     3
100
AcDbLine
 10
501.0106331013371
 20
714.9562801377417
 30
0.0
 11
500.0106331013371
 21
714.9562801377417
 31
0.0
  0
LINE
  5
28F
330
6F
100
AcDbEntity
  8
_0-1_計細線
  6
Continuous
 62
     3
100
AcDbLine
 10
501.0106331013371
 20
723.9562801377417
 30
0.0
 11
501.0106331013371
 21
714.9562801377417
 31
0.0
  0
LINE
  5
290
330
6F
100
AcDbEntity
  8
_0-1_計細線
  6
Continuous
 62
     3
100
AcDbLine
 10
505.2106331013371
 20
723.9562801377417
 30
0.0
 11
508.8106331013372
 21
723.9562801377417
 31
0.0
  0
LINE
  5
291
330
6F
100
AcDbEntity
  8
_0-1_計細線
  6
DASHED2
 62
     3
100
AcDbLine
 10
469.0378505127783
 20
720.9562801377418
 30
0.0
 11
469.0378505127783
 21
714.9562801377417
 31
0.0
  0
LINE
  5
292
330
6F
100
AcDbEntity
  8
_0-1_計細線
  6
DASHED2
 62
     3
100
AcDbLine
 10
112.0378505127778
 20
720.9562801377418
 30
0.0
 11
112.0378505127778
 21
714.9562801377417
 31
0.0
  0
LINE
  5
293
330
6F
100
AcDbEntity
  8
_0-1_計細線
  6
DASHED2
 62
     3
100
AcDbLine
 10
443.0378505127783
 20
691.9562801377416
 30
0.0
 11
443.0378505127783
 21
714.9562801377417
 31
0.0
  0
ARC
  5
294
330
6F
100
AcDbEntity
  8
_0-1_計細線
  6
DASHED2
 62
     3
100
AcDbCircle
 10
441.0378505127783
 20
691.9562801377416
 30
0.0
 40
2.0
100
AcDbArc
 50
269.999999999998
 51
359.9999999999997
  0
LINE
  5
295
330
6F
100
AcDbEntity
  8
_0-1_計細線
  6
DASHED2
 62
     3
100
AcDbLine
 10
140.0378505127769
 20
689.9562801377417
 30
0.0
 11
441.0378505127783
 21
689.9562801377417
 31
0.0
  0
LINE
  5
296
330
6F
100
AcDbEntity
  8
_0-1_計細線
  6
DASHED2
 62
     3
100
AcDbLine
 10
138.0378505127769
 20
691.9562801377416
 30
0.0
 11
138.0378505127769
 21
714.9562801377417
 31
0.0
  0
ARC
  5
297
330
6F
100
AcDbEntity
  8
_0-1_計細線
  6
DASHED2
 62
     3
100
AcDbCircle
 10
140.0378505127769
 20
691.9562801377416
 30
0.0
 40
2.0
100
AcDbArc
 50
179.9999999999998
 51
269.9999999999997
  0
TEXT
  5
298
330
6F
100
AcDbEntity
  8
_0-7_枠細線
 62
     5
100
AcDbText
 10
211.8328574768385
 20
740.7755247517036
 30
0.0
 40
15.0
  1
Ａ\U+2019
100
AcDbText
  0
TEXT
  5
299
330
6F
100
AcDbEntity
  8
_0-7_枠細線
 62
     5
100
AcDbText
 10
211.7481727515244
 20
671.0554816723065
 30
0.0
 40
15.0
  1
Ａ
100
AcDbText
  0
LINE
  5
29A
330
6F
100
AcDbEntity
  8
_0-5_寸法線
  6
Continuous
 62
     7
100
AcDbLine
 10
112.0378505127783
 20
734.2562801377421
 30
0.0
 11
112.0378505127785
 21
815.4562801377421
 31
0.0
  0
LINE
  5
29B
330
6F
100
AcDbEntity
  8
_0-5_寸法線
  6
Continuous
 62
     7
100
AcDbLine
 10
112.0378505127785
 20
810.4562801377422
 30
0.0
 11
121.6971087756692
 21
813.0444705887674
 31
0.0
  0
LINE
  5
29C
330
6F
100
AcDbEntity
  8
_0-5_寸法線
  6
Continuous
 62
     7
100
AcDbLine
 10
112.0378505127785
 20
810.4562801377422
 30
0.0
 11
121.6971087756692
 21
807.8680896867171
 31
0.0
  0
LINE
  5
29D
330
6F
100
AcDbEntity
  8
_0-5_寸法線
  6
Continuous
 62
     7
100
AcDbLine
 10
469.037850512777
 20
734.2562801377421
 30
0.0
 11
469.0378505127772
 21
815.4562801377421
 31
0.0
  0
LINE
  5
29E
330
6F
100
AcDbEntity
  8
_0-5_寸法線
  6
Continuous
 62
     7
100
AcDbLine
 10
469.0378505127772
 20
810.4562801377422
 30
0.0
 11
459.3785922498865
 21
807.8680896867171
 31
0.0
  0
LINE
  5
29F
330
6F
100
AcDbEntity
  8
_0-5_寸法線
  6
Continuous
 62
     7
100
AcDbLine
 10
469.0378505127772
 20
810.4562801377422
 30
0.0
 11
459.3785922498865
 21
813.0444705887674
 31
0.0
  0
LINE
  5
2A0
330
6F
100
AcDbEntity
  8
_0-5_寸法線
  6
Continuous
 62
     7
100
AcDbLine
 10
112.0378505127785
 20
810.4562801377422
 30
0.0
 11
469.0378505127772
 21
810.4562801377422
 31
0.0
  0
TEXT
  5
2A1
330
6F
100
AcDbEntity
  8
_0-5_寸法線
 62
     7
100
AcDbText
 10
279.2878505127779
 20
810.4562801377422
 30
0.0
 40
15.0
  1
357
100
AcDbText
  0
LINE
  5
2A2
330
6F
100
AcDbEntity
  8
_0-1_計細線
  6
Continuous
 62
     3
100
AcDbLine
 10
110.0378505127783
 20
724.9562801377416
 30
0.0
 11
110.0378505127783
 21
714.9562801377417
 31
0.0
  0
LINE
  5
2A3
330
6F
100
AcDbEntity
  8
_0-1_計細線
  6
Continuous
 62
     3
100
AcDbLine
 10
471.0378505127783
 20
724.9562801377416
 30
0.0
 11
471.0378505127783
 21
714.9562801377417
 31
0.0
  0
LINE
  5
2A4
330
6F
100
AcDbEntity
  8
_0-1_計細線
  6
Continuous
 62
     3
100
AcDbLine
 10
110.0378505127783
 20
714.9562801377417
 30
0.0
 11
471.0378505127783
 21
714.9562801377417
 31
0.0
  0
LINE
  5
2A5
330
6F
100
AcDbEntity
  8
_0-1_計細線
  6
Continuous
 62
     3
100
AcDbLine
 10
471.0378505127783
 20
724.9562801377416
 30
0.0
 11
110.0378505127783
 21
724.9562801377416
 31
0.0
  0
LINE
  5
2A6
330
6F
100
AcDbEntity
  8
_0-5_寸法線
  6
Continuous
 62
     7
100
AcDbLine
 10
110.0378505127783
 20
736.4562801377421
 30
0.0
 11
110.0378505127785
 21
850.4562801377421
 31
0.0
  0
LINE
  5
2A7
330
6F
100
AcDbEntity
  8
_0-5_寸法線
  6
Continuous
 62
     7
100
AcDbLine
 10
110.0378505127785
 20
845.4562801377422
 30
0.0
 11
119.6971087756692
 21
848.0444705887673
 31
0.0
  0
LINE
  5
2A8
330
6F
100
AcDbEntity
  8
_0-5_寸法線
  6
Continuous
 62
     7
100
AcDbLine
 10
110.0378505127785
 20
845.4562801377422
 30
0.0
 11
119.6971087756692
 21
842.868089686717
 31
0.0
  0
LINE
  5
2A9
330
6F
100
AcDbEntity
  8
_0-5_寸法線
  6
Continuous
 62
     7
100
AcDbLine
 10
471.0378505127783
 20
736.4562801377421
 30
0.0
 11
471.0378505127784
 21
850.4562801377421
 31
0.0
  0
LINE
  5
2AA
330
6F
100
AcDbEntity
  8
_0-5_寸法線
  6
Continuous
 62
     7
100
AcDbLine
 10
471.0378505127784
 20
845.4562801377422
 30
0.0
 11
461.3785922498876
 21
842.868089686717
 31
0.0
  0
LINE
  5
2AB
330
6F
100
AcDbEntity
  8
_0-5_寸法線
  6
Continuous
 62
     7
100
AcDbLine
 10
471.0378505127784
 20
845.4562801377422
 30
0.0
 11
461.3785922498878
 21
848.0444705887673
 31
0.0
  0
LINE
  5
2AC
330
6F
100
AcDbEntity
  8
_0-5_寸法線
  6
Continuous
 62
     7
100
AcDbLine
 10
110.0378505127785
 20
845.4562801377422
 30
0.0
 11
471.0378505127784
 21
845.4562801377422
 31
0.0
  0
TEXT
  5
2AD
330
6F
100
AcDbEntity
  8
_0-5_寸法線
 62
     7
100
AcDbText
 10
279.2878505127784
 20
845.4562801377422
 30
0.0
 40
15.0
  1
361
100
AcDbText
  0
LINE
  5
2AE
330
6F
100
AcDbEntity
  8
_0-0_計極細
  6
Continuous
 62
     2
100
AcDbLine
 10
760.9559773034744
 20
325.9187751377419
 30
0.0
 11
990.660503973552
 21
557.1233018078196
 31
0.0
  0
LINE
  5
2AF
330
6F
100
AcDbEntity
  8
_0-0_計極細
  6
Continuous
 62
     2
100
AcDbLine
 10
931.6226439633116
 20
325.9187751377419
 30
0.0
 11
990.660503973552
 21
384.956635147982
 31
0.0
  0
LINE
  5
2B0
330
6F
100
AcDbEntity
  8
_0-0_計極細
  6
Continuous
 62
     2
100
AcDbLine
 10
846.2893106333932
 20
325.9187751377419
 30
0.0
 11
990.660503973552
 21
471.7899684779
 31
0.0
  0
TEXT
  5
2B1
330
6F
100
AcDbEntity
  8
_0-7_枠細線
 62
     5
100
AcDbText
 10
105.3749999999995
 20
169.3549151110247
 30
0.0
 40
15.0
  1
仕様：SUS304#800とＰ.Ｐ.及び発泡Ｐ.Ｅ.を両面テープにて貼り付け
 41
0.8000000000000001
100
AcDbText
  0
LINE
  5
2B2
330
6F
100
AcDbEntity
  8
_0-1_計細線
  6
DASHED2
 62
     3
100
AcDbLine
 10
397.0378505127783
 20
276.9562801377416
 30
0.0
 11
373.0378505127778
 21
276.9562801377416
 31
0.0
  0
LINE
  5
2B3
330
6F
100
AcDbEntity
  8
_0-1_計細線
  6
DASHED2
 62
     3
100
AcDbLine
 10
184.0378505127769
 20
276.9562801377416
 30
0.0
 11
208.0378505127775
 21
276.9562801377416
 31
0.0
  0
LINE
  5
2B4
330
6F
100
AcDbEntity
  8
_0-1_計細線
  6
DASHED2
 62
     3
100
AcDbLine
 10
951.1604014735526
 20
276.9562801377416
 30
0.0
 11
927.1604014735521
 21
276.9562801377416
 31
0.0
  0
LINE
  5
2B5
330
6F
100
AcDbEntity
  8
_0-1_計細線
  6
DASHED2
 62
     3
100
AcDbLine
 10
738.1604014735513
 20
276.9562801377416
 30
0.0
 11
762.1604014735519
 21
276.9562801377416
 31
0.0
  0
LINE
  5
2B6
330
6F
100
AcDbEntity
  8
_0-1_計細線
  6
Continuous
 62
     3
100
AcDbLine
 10
469.0378505127777
 20
301.4562801377416
 30
0.0
 11
469.0378505127777
 21
276.4562801377416
 31
0.0
  0
LINE
  5
2B7
330
6F
100
AcDbEntity
  8
_0-1_計細線
  6
Continuous
 62
     3
100
AcDbLine
 10
688.1604014735522
 20
307.4562801377417
 30
0.0
 11
1001.160401473552
 21
307.4562801377417
 31
0.0
  0
LINE
  5
2B8
330
6F
100
AcDbEntity
  8
_0-1_計細線
  6
Continuous
 62
     3
100
AcDbLine
 10
177.0378505127777
 20
219.2155403612369
 30
0.0
 11
404.0378505127774
 21
219.2155403612369
 31
0.0
  0
LINE
  5
2B9
330
6F
100
AcDbEntity
  8
_0-1_計細線
  6
Continuous
 62
     3
100
AcDbLine
 10
404.0378505127774
 20
219.2155403612369
 30
0.0
 11
434.0378505127774
 21
219.2155403612369
 31
0.0
  0
LINE
  5
2BA
330
6F
100
AcDbEntity
  8
_0-1_計細線
  6
Continuous
 62
     3
100
AcDbLine
 10
434.0378505127774
 20
219.2155403612369
 30
0.0
 11
445.449990512778
 21
219.2155403612369
 31
0.0
  0
LINE
  5
2BB
330
6F
100
AcDbEntity
  8
_0-1_計細線
  6
DASHED2
 62
     3
100
AcDbLine
 10
404.0378505127774
 20
219.2155403612369
 30
0.0
 11
434.0378505127774
 21
219.2155403612369
 31
0.0
  0
LINE
  5
2BC
330
6F
100
AcDbEntity
  8
_0-1_計細線
  6
Continuous
 62
     3
100
AcDbLine
 10
134.0353705127777
 20
219.2155403612369
 30
0.0
 11
147.0378505127777
 21
219.2155403612369
 31
0.0
  0
LINE
  5
2BD
330
6F
100
AcDbEntity
  8
_0-1_計細線
  6
Continuous
 62
     3
100
AcDbLine
 10
147.0378505127777
 20
219.2155403612369
 30
0.0
 11
177.0378505127777
 21
219.2155403612369
 31
0.0
  0
LINE
  5
2BE
330
6F
100
AcDbEntity
  8
_0-1_計細線
  6
DASHED2
 62
     3
100
AcDbLine
 10
147.0378505127777
 20
219.2155403612369
 30
0.0
 11
177.0378505127777
 21
219.2155403612369
 31
0.0
  0
LINE
  5
2BF
330
6F
100
AcDbEntity
  8
_0-1_計細線
  6
Continuous
 62
     3
100
AcDbLine
 10
445.449990512778
 20
219.2155403612369
 30
0.0
 11
447.0355755127774
 21
219.2155403612369
 31
0.0
  0
LINE
  5
2C0
330
6F
100
AcDbEntity
  8
_0-1_計細線
  6
Continuous
 62
     3
100
AcDbLine
 10
995.1604014735528
 20
301.4562801377416
 30
0.0
 11
694.1604014735514
 21
301.4562801377416
 31
0.0
  0
LINE
  5
2C1
330
6F
100
AcDbEntity
  8
_0-1_計細線
  6
Continuous
 62
     3
100
AcDbLine
 10
997.1604014735527
 20
299.4562801377416
 30
0.0
 11
997.1604014735527
 21
276.4562801377416
 31
0.0
  0
ARC
  5
2C2
330
6F
100
AcDbEntity
  8
_0-1_計細線
  6
Continuous
 62
     3
100
AcDbCircle
 10
995.1604014735528
 20
299.4562801377416
 30
0.0
 40
2.0
100
AcDbArc
 50
0.0
 51
89.99999999999991
  0
LINE
  5
2C3
330
6F
100
AcDbEntity
  8
_0-1_計細線
  6
Continuous
 62
     3
100
AcDbLine
 10
692.1604014735514
 20
299.4562801377416
 30
0.0
 11
692.1604014735514
 21
276.4562801377416
 31
0.0
  0
ARC
  5
2C4
330
6F
100
AcDbEntity
  8
_0-1_計細線
  6
Continuous
 62
     3
100
AcDbCircle
 10
694.1604014735514
 20
299.4562801377416
 30
0.0
 40
2.0
100
AcDbArc
 50
89.99999999999991
 51
179.9999999999998
  0
LINE
  5
2C5
330
6F
100
AcDbEntity
  8
_0-1_計細線
  6
Continuous
 62
     3
100
AcDbLine
 10
511.0106331013369
 20
307.4597051377418
 30
0.0
 11
509.8106331013372
 21
307.4597051377418
 31
0.0
  0
LINE
  5
2C6
330
6F
100
AcDbEntity
  8
_0-1_計細線
  6
Continuous
 62
     3
100
AcDbLine
 10
502.5106331013373
 20
268.9562801377417
 30
0.0
 11
504.0106331013372
 21
268.9562801377417
 31
0.0
  0
LINE
  5
2C7
330
6F
100
AcDbEntity
  8
_0-1_計細線
  6
Continuous
 62
     3
100
AcDbLine
 10
506.0106331013373
 20
269.9562801377418
 30
0.0
 11
506.0106331013373
 21
291.6562801377416
 31
0.0
  0
LINE
  5
2C8
330
6F
100
AcDbEntity
  8
_0-1_計細線
  6
Continuous
 62
     3
100
AcDbLine
 10
504.0106331013372
 20
269.9562801377418
 30
0.0
 11
506.0106331013373
 21
269.9562801377418
 31
0.0
  0
LINE
  5
2C9
330
6F
100
AcDbEntity
  8
_0-1_計細線
  6
Continuous
 62
     3
100
AcDbLine
 10
511.0106331013372
 20
307.4562801377418
 30
0.0
 11
506.0106331013373
 21
307.4562801377418
 31
0.0
  0
LINE
  5
2CA
330
6F
100
AcDbEntity
  8
_0-1_計細線
  6
Continuous
 62
     3
100
AcDbLine
 10
511.0106331013372
 20
307.4562801377418
 30
0.0
 11
511.0106331013372
 21
496.4562801377417
 31
0.0
  0
LINE
  5
2CB
330
6F
100
AcDbEntity
  8
_0-1_計細線
  6
Continuous
 62
     3
100
AcDbLine
 10
506.0106331013373
 20
269.9562801377418
 30
0.0
 11
506.0106331013373
 21
496.4562801377417
 31
0.0
  0
LINE
  5
2CC
330
6F
100
AcDbEntity
  8
_0-1_計細線
  6
Continuous
 62
     3
100
AcDbLine
 10
504.0106331013372
 20
268.9562801377417
 30
0.0
 11
504.0106331013372
 21
496.4562801377417
 31
0.0
  0
LINE
  5
2CD
330
6F
100
AcDbEntity
  8
_0-1_計細線
  6
Continuous
 62
     3
100
AcDbLine
 10
502.5106331013373
 20
268.9562801377417
 30
0.0
 11
502.5106331013373
 21
496.4562801377417
 31
0.0
  0
LINE
  5
2CE
330
6F
100
AcDbEntity
  8
_0-1_計細線
  6
Continuous
 62
     3
100
AcDbLine
 10
510.0106331013371
 20
276.9562801377416
 30
0.0
 11
506.0106331013373
 21
276.9562801377416
 31
0.0
  0
LINE
  5
2CF
330
6F
100
AcDbEntity
  8
_0-1_計細線
  6
Continuous
 62
     3
100
AcDbLine
 10
510.0106331013371
 20
299.9562801377416
 30
0.0
 11
506.0106331013373
 21
299.9562801377416
 31
0.0
  0
ARC
  5
2D0
330
6F
100
AcDbEntity
  8
_0-1_計細線
  6
DASHED2
 62
     3
100
AcDbCircle
 10
466.0378505127773
 20
271.9562801377417
 30
0.0
 40
3.0
100
AcDbArc
 50
269.9999999999985
 51
359.9999999999985
  0
LINE
  5
2D1
330
6F
100
AcDbEntity
  8
_0-1_計細線
  6
DASHED2
 62
     3
100
AcDbLine
 10
115.0378505127779
 20
268.9562801377417
 30
0.0
 11
466.0378505127773
 21
268.9562801377417
 31
0.0
  0
ARC
  5
2D2
330
6F
100
AcDbEntity
  8
_0-1_計細線
  6
DASHED2
 62
     3
100
AcDbCircle
 10
115.0378505127779
 20
271.9562801377417
 30
0.0
 40
3.0
100
AcDbArc
 50
179.9999999999998
 51
269.9999999999997
  0
LINE
  5
2D3
330
6F
100
AcDbEntity
  8
_0-1_計細線
  6
DASHED2
 62
     3
100
AcDbLine
 10
667.1604014735524
 20
276.4562801377416
 30
0.0
 11
667.1604014735524
 21
269.9562801377415
 31
0.0
  0
LINE
  5
2D4
330
6F
100
AcDbEntity
  8
_0-1_計細線
  6
DASHED2
 62
     3
100
AcDbLine
 10
666.1604014735523
 20
271.9562801377417
 30
0.0
 11
666.1604014735523
 21
276.4562801377416
 31
0.0
  0
ARC
  5
2D5
330
6F
100
AcDbEntity
  8
_0-1_計細線
  6
DASHED2
 62
     3
100
AcDbCircle
 10
669.1604014735524
 20
271.9562801377417
 30
0.0
 40
3.0
100
AcDbArc
 50
180.0000000000007
 51
269.9999999999997
  0
LINE
  5
2D6
330
6F
100
AcDbEntity
  8
_0-1_計細線
  6
DASHED2
 62
     3
100
AcDbLine
 10
667.1604014735524
 20
269.9562801377415
 30
0.0
 11
1022.160401473552
 21
269.9562801377415
 31
0.0
  0
LINE
  5
2D7
330
6F
100
AcDbEntity
  8
_0-1_計細線
  6
DASHED2
 62
     3
100
AcDbLine
 10
1022.160401473552
 20
276.2562801377415
 30
0.0
 11
1022.160401473552
 21
269.9562801377415
 31
0.0
  0
LINE
  5
2D8
330
6F
100
AcDbEntity
  8
_0-1_計細線
  6
DASHED2
 62
     3
100
AcDbLine
 10
669.1604014735524
 20
268.9562801377417
 30
0.0
 11
1020.160401473552
 21
268.9562801377417
 31
0.0
  0
LINE
  5
2D9
330
6F
100
AcDbEntity
  8
_0-1_計細線
  6
DASHED2
 62
     3
100
AcDbLine
 10
1023.160401473552
 20
276.4562801377416
 30
0.0
 11
1023.160401473552
 21
271.9562801377418
 31
0.0
  0
ARC
  5
2DA
330
6F
100
AcDbEntity
  8
_0-1_計細線
  6
DASHED2
 62
     3
100
AcDbCircle
 10
1020.160401473552
 20
271.9562801377417
 30
0.0
 40
3.0
100
AcDbArc
 50
270.0000000000018
 51
0.0000000000007124
  0
LINE
  5
2DB
330
6F
100
AcDbEntity
  8
_0-1_計細線
  6
DASHED2
 62
     3
100
AcDbLine
 10
134.0378505127779
 20
224.2155403612369
 30
0.0
 11
134.0378505127779
 21
219.2155403612369
 31
0.0
  0
LINE
  5
2DC
330
6F
100
AcDbEntity
  8
_0-1_計細線
  6
DASHED2
 62
     3
100
AcDbLine
 10
113.0378505127779
 20
226.2155403612369
 30
0.0
 11
113.0378505127779
 21
224.2155403612369
 31
0.0
  0
LINE
  5
2DD
330
6F
100
AcDbEntity
  8
_0-1_計細線
  6
DASHED2
 62
     3
100
AcDbLine
 10
112.0378505127779
 20
227.7155403612369
 30
0.0
 11
112.0378505127779
 21
226.2155403612369
 31
0.0
  0
LINE
  5
2DE
330
6F
100
AcDbEntity
  8
_0-1_計細線
  6
DASHED2
 62
     3
100
AcDbLine
 10
447.0378505127774
 20
224.2155403612369
 30
0.0
 11
447.0378505127774
 21
219.2155403612369
 31
0.0
  0
LINE
  5
2DF
330
6F
100
AcDbEntity
  8
_0-1_計細線
  6
DASHED2
 62
     3
100
AcDbLine
 10
468.0378505127774
 20
226.2155403612369
 30
0.0
 11
468.0378505127774
 21
224.2155403612369
 31
0.0
  0
LINE
  5
2E0
330
6F
100
AcDbEntity
  8
_0-1_計細線
  6
DASHED2
 62
     3
100
AcDbLine
 10
469.0378505127774
 20
227.7155403612369
 30
0.0
 11
469.0378505127774
 21
226.2155403612369
 31
0.0
  0
LINE
  5
2E1
330
6F
100
AcDbEntity
  8
_0-1_計細線
  6
DASHED2
 62
     3
100
AcDbLine
 10
112.0378505127779
 20
226.2155403612369
 30
0.0
 11
469.0378505127774
 21
226.2155403612369
 31
0.0
  0
LINE
  5
2E2
330
6F
100
AcDbEntity
  8
_0-1_計細線
  6
DASHED2
 62
     3
100
AcDbLine
 10
112.0378505127779
 20
227.7155403612354
 30
0.0
 11
469.0378505127774
 21
227.7155403612354
 31
0.0
  0
LINE
  5
2E3
330
6F
100
AcDbEntity
  8
_0-1_計細線
  6
DASHED2
 62
     3
100
AcDbLine
 10
113.0378505127779
 20
224.2155403612369
 30
0.0
 11
468.0378505127774
 21
224.2155403612369
 31
0.0
  0
LINE
  5
2E4
330
6F
100
AcDbEntity
  8
_0-1_計細線
  6
Continuous
 62
     3
100
AcDbLine
 10
511.0106331013371
 20
302.9562801377417
 30
0.0
 11
510.0106331013369
 21
302.9562801377417
 31
0.0
  0
LINE
  5
2E5
330
6F
100
AcDbEntity
  8
_0-1_計細線
  6
Continuous
 62
     3
100
AcDbLine
 10
510.0106331013371
 20
268.9562801377417
 30
0.0
 11
501.0106331013371
 21
268.9562801377417
 31
0.0
  0
LINE
  5
2E6
330
6F
100
AcDbEntity
  8
_0-1_計細線
  6
Continuous
 62
     3
100
AcDbLine
 10
510.0106331013371
 20
302.9562801377417
 30
0.0
 11
510.0106331013371
 21
268.9562801377417
 31
0.0
  0
LINE
  5
2E7
330
6F
100
AcDbEntity
  8
_0-1_計細線
  6
Continuous
 62
     3
100
AcDbLine
 10
511.0106331013372
 20
302.9562801377417
 30
0.0
 11
510.0106331013371
 21
302.9562801377417
 31
0.0
  0
LINE
  5
2E8
330
6F
100
AcDbEntity
  8
_0-1_計細線
  6
Continuous
 62
     3
100
AcDbLine
 10
511.0106331013372
 20
267.9562801377417
 30
0.0
 11
511.0106331013372
 21
302.9562801377417
 31
0.0
  0
LINE
  5
2E9
330
6F
100
AcDbEntity
  8
_0-1_計細線
  6
Continuous
 62
     3
100
AcDbLine
 10
500.0106331013371
 20
267.9562801377417
 30
0.0
 11
511.0106331013372
 21
267.9562801377417
 31
0.0
  0
LINE
  5
2EA
330
6F
100
AcDbEntity
  8
_0-1_計細線
  6
Continuous
 62
     3
100
AcDbLine
 10
500.0106331013371
 20
277.9562801377417
 30
0.0
 11
500.0106331013371
 21
267.9562801377417
 31
0.0
  0
LINE
  5
2EB
330
6F
100
AcDbEntity
  8
_0-1_計細線
  6
Continuous
 62
     3
100
AcDbLine
 10
501.0106331013371
 20
277.9562801377417
 30
0.0
 11
500.0106331013371
 21
277.9562801377417
 31
0.0
  0
LINE
  5
2EC
330
6F
100
AcDbEntity
  8
_0-1_計細線
  6
Continuous
 62
     3
100
AcDbLine
 10
501.0106331013371
 20
268.9562801377417
 30
0.0
 11
501.0106331013371
 21
277.9562801377417
 31
0.0
  0
LINE
  5
2ED
330
6F
100
AcDbEntity
  8
_0-1_計細線
  6
Continuous
 62
     3
100
AcDbLine
 10
505.2106331013371
 20
268.956280137742
 30
0.0
 11
508.8106331013372
 21
268.956280137742
 31
0.0
  0
LINE
  5
2EE
330
6F
100
AcDbEntity
  8
_0-1_計細線
  6
DASHED2
 62
     3
100
AcDbLine
 10
469.0378505127774
 20
277.9562801377417
 30
0.0
 11
469.0378505127774
 21
271.9562801377417
 31
0.0
  0
LINE
  5
2EF
330
6F
100
AcDbEntity
  8
_0-1_計細線
  6
DASHED2
 62
     3
100
AcDbLine
 10
112.0378505127779
 20
271.9562801377417
 30
0.0
 11
112.0378505127779
 21
277.9562801377417
 31
0.0
  0
LINE
  5
2F0
330
6F
100
AcDbEntity
  8
_0-1_計細線
  6
DASHED2
 62
     3
100
AcDbLine
 10
138.0378505127769
 20
300.9562801377417
 30
0.0
 11
138.0378505127769
 21
277.9562801377417
 31
0.0
  0
ARC
  5
2F1
330
6F
100
AcDbEntity
  8
_0-1_計細線
  6
DASHED2
 62
     3
100
AcDbCircle
 10
140.0378505127769
 20
300.9562801377417
 30
0.0
 40
2.0
100
AcDbArc
 50
89.99999999999991
 51
180.0000000000013
  0
LINE
  5
2F2
330
6F
100
AcDbEntity
  8
_0-1_計細線
  6
DASHED2
 62
     3
100
AcDbLine
 10
443.0378505127783
 20
300.9562801377417
 30
0.0
 11
443.0378505127783
 21
277.9562801377417
 31
0.0
  0
LINE
  5
2F3
330
6F
100
AcDbEntity
  8
_0-1_計細線
  6
DASHED2
 62
     3
100
AcDbLine
 10
441.0378505127783
 20
302.9562801377417
 30
0.0
 11
140.0378505127769
 21
302.9562801377417
 31
0.0
  0
ARC
  5
2F4
330
6F
100
AcDbEntity
  8
_0-1_計細線
  6
DASHED2
 62
     3
100
AcDbCircle
 10
441.0378505127783
 20
300.9562801377417
 30
0.0
 40
2.0
100
AcDbArc
 50
359.999999999998
 51
90.00000000000126
  0
LINE
  5
2F5
330
6F
100
AcDbEntity
  8
_0-1_計細線
  6
DASHED2
 62
     3
100
AcDbLine
 10
373.0378505127778
 20
276.9562801377416
 30
0.0
 11
373.0378505127778
 21
299.9562801377416
 31
0.0
  0
LINE
  5
2F6
330
6F
100
AcDbEntity
  8
_0-1_計細線
  6
DASHED2
 62
     3
100
AcDbLine
 10
373.0378505127778
 20
299.9562801377416
 30
0.0
 11
397.0378505127783
 21
299.9562801377416
 31
0.0
  0
LINE
  5
2F7
330
6F
100
AcDbEntity
  8
_0-1_計細線
  6
DASHED2
 62
     3
100
AcDbLine
 10
397.0378505127783
 20
299.9562801377416
 30
0.0
 11
397.0378505127783
 21
276.9562801377416
 31
0.0
  0
LINE
  5
2F8
330
6F
100
AcDbEntity
  8
_0-1_計細線
  6
DASHED2
 62
     3
100
AcDbLine
 10
184.0378505127769
 20
299.9562801377416
 30
0.0
 11
184.0378505127769
 21
276.9562801377416
 31
0.0
  0
LINE
  5
2F9
330
6F
100
AcDbEntity
  8
_0-1_計細線
  6
DASHED2
 62
     3
100
AcDbLine
 10
208.0378505127775
 20
299.9562801377416
 30
0.0
 11
184.0378505127769
 21
299.9562801377416
 31
0.0
  0
LINE
  5
2FA
330
6F
100
AcDbEntity
  8
_0-1_計細線
  6
DASHED2
 62
     3
100
AcDbLine
 10
208.0378505127775
 20
276.9562801377416
 30
0.0
 11
208.0378505127775
 21
299.9562801377416
 31
0.0
  0
LINE
  5
2FB
330
6F
100
AcDbEntity
  8
_0-1_計細線
  6
DASHED2
 62
     3
100
AcDbLine
 10
927.1604014735521
 20
276.9562801377416
 30
0.0
 11
927.1604014735521
 21
299.9562801377416
 31
0.0
  0
LINE
  5
2FC
330
6F
100
AcDbEntity
  8
_0-1_計細線
  6
DASHED2
 62
     3
100
AcDbLine
 10
927.1604014735521
 20
299.9562801377416
 30
0.0
 11
951.1604014735526
 21
299.9562801377416
 31
0.0
  0
LINE
  5
2FD
330
6F
100
AcDbEntity
  8
_0-1_計細線
  6
DASHED2
 62
     3
100
AcDbLine
 10
951.1604014735526
 20
299.9562801377416
 30
0.0
 11
951.1604014735526
 21
276.9562801377416
 31
0.0
  0
LINE
  5
2FE
330
6F
100
AcDbEntity
  8
_0-1_計細線
  6
DASHED2
 62
     3
100
AcDbLine
 10
738.1604014735513
 20
299.9562801377416
 30
0.0
 11
738.1604014735513
 21
276.9562801377416
 31
0.0
  0
LINE
  5
2FF
330
6F
100
AcDbEntity
  8
_0-1_計細線
  6
DASHED2
 62
     3
100
AcDbLine
 10
762.1604014735519
 20
299.9562801377416
 30
0.0
 11
738.1604014735513
 21
299.9562801377416
 31
0.0
  0
LINE
  5
300
330
6F
100
AcDbEntity
  8
_0-1_計細線
  6
DASHED2
 62
     3
100
AcDbLine
 10
762.1604014735519
 20
276.9562801377416
 30
0.0
 11
762.1604014735519
 21
299.9562801377416
 31
0.0
  0
LINE
  5
301
330
6F
100
AcDbEntity
  8
_0-1_計細線
  6
Continuous
 62
     3
100
AcDbLine
 10
110.0378505127783
 20
267.9562801377417
 30
0.0
 11
110.0378505127783
 21
277.9562801377417
 31
0.0
  0
LINE
  5
302
330
6F
100
AcDbEntity
  8
_0-1_計細線
  6
Continuous
 62
     3
100
AcDbLine
 10
471.0378505127783
 20
267.9562801377417
 30
0.0
 11
471.0378505127783
 21
277.9562801377417
 31
0.0
  0
LINE
  5
303
330
6F
100
AcDbEntity
  8
_0-1_計細線
  6
Continuous
 62
     3
100
AcDbLine
 10
471.0378505127788
 20
230.2155403612369
 30
0.0
 11
471.0378505127788
 21
219.2155403612369
 31
0.0
  0
LINE
  5
304
330
6F
100
AcDbEntity
  8
_0-1_計細線
  6
Continuous
 62
     3
100
AcDbLine
 10
471.0378505127788
 20
219.2155403612369
 30
0.0
 11
110.0378505127783
 21
219.2155403612369
 31
0.0
  0
LINE
  5
305
330
6F
100
AcDbEntity
  8
_0-1_計細線
  6
Continuous
 62
     3
100
AcDbLine
 10
110.0378505127783
 20
219.2155403612369
 30
0.0
 11
110.0378505127783
 21
230.2155403612369
 31
0.0
  0
LINE
  5
306
330
6F
100
AcDbEntity
  8
_0-1_計細線
  6
Continuous
 62
     3
100
AcDbLine
 10
110.0378505127783
 20
230.2155403612369
 30
0.0
 11
471.0378505127788
 21
230.2155403612369
 31
0.0
  0
LINE
  5
307
330
6F
100
AcDbEntity
  8
_0-1_計細線
  6
Continuous
 62
     3
100
AcDbLine
 10
471.0378505127783
 20
267.9562801377417
 30
0.0
 11
110.0378505127783
 21
267.9562801377417
 31
0.0
  0
LINE
  5
308
330
6F
100
AcDbEntity
  8
_0-1_計細線
  6
Continuous
 62
     3
100
AcDbLine
 10
471.0378505127783
 20
277.9562801377417
 30
0.0
 11
110.0378505127783
 21
277.9562801377417
 31
0.0
  0
LINE
  5
309
330
6F
100
AcDbEntity
  8
_0-0_計極細
  6
Continuous
 62
     2
100
AcDbLine
 10
698.6602989735518
 20
348.9564301377408
 30
0.0
 11
990.660503973552
 21
643.9566351377439
 31
0.0
  0
LINE
  5
30A
330
6F
100
AcDbEntity
  8
_0-0_計極細
  6
CENTER1
 62
     2
100
AcDbLine
 10
844.660401473552
 20
755.107845137741
 30
0.0
 11
844.660401473552
 21
242.4553459011732
 31
0.0
  0
LINE
  5
30B
330
6F
100
AcDbEntity
  8
_0-0_計極細
  6
CENTER1
 62
     2
100
AcDbLine
 10
290.5378505127777
 20
755.1044201377417
 30
0.0
 11
290.5378505127777
 21
206.1049151110248
 31
0.0
  0
LINE
  5
30C
330
6F
100
AcDbEntity
  8
_0-1_計細線
  6
Continuous
 62
     3
100
AcDbLine
 10
688.1604014735522
 20
685.4562801377418
 30
0.0
 11
688.1604014735522
 21
307.4562801377417
 31
0.0
  0
LINE
  5
30D
330
6F
100
AcDbEntity
  8
_0-1_計細線
  6
Continuous
 62
     3
100
AcDbLine
 10
1001.160401473552
 20
685.4562801377418
 30
0.0
 11
1001.160401473552
 21
307.4562801377417
 31
0.0
  0
LINE
  5
30E
330
6F
100
AcDbEntity
  8
_0-1_計細線
  6
Continuous
 62
     3
100
AcDbLine
 10
666.1604014735523
 20
276.4562801377416
 30
0.0
 11
666.1604014735523
 21
716.4562801377418
 31
0.0
  0
LINE
  5
30F
330
6F
100
AcDbEntity
  8
_0-1_計細線
  6
Continuous
 62
     3
100
AcDbLine
 10
667.1604014735524
 20
716.4562801377418
 30
0.0
 11
667.1604014735524
 21
276.4562801377416
 31
0.0
  0
LINE
  5
310
330
6F
100
AcDbEntity
  8
_0-1_計細線
  6
Continuous
 62
     3
100
AcDbLine
 10
1023.160401473551
 20
716.4562801377418
 30
0.0
 11
1023.160401473551
 21
276.4562801377416
 31
0.0
  0
LINE
  5
311
330
6F
100
AcDbEntity
  8
_0-1_計細線
  6
Continuous
 62
     3
100
AcDbLine
 10
1022.160401473551
 20
716.4562801377418
 30
0.0
 11
1022.160401473551
 21
276.4562801377416
 31
0.0
  0
LINE
  5
312
330
6F
100
AcDbEntity
  8
_0-1_計細線
  6
Continuous
 62
     3
100
AcDbLine
 10
469.0378505127774
 20
714.9562801377417
 30
0.0
 11
469.0378505127774
 21
277.9562801377417
 31
0.0
  0
LINE
  5
313
330
6F
100
AcDbEntity
  8
_0-1_計細線
  6
Continuous
 62
     3
100
AcDbLine
 10
112.0378505127779
 20
277.9562801377417
 30
0.0
 11
112.0378505127779
 21
714.9562801377417
 31
0.0
  0
LINE
  5
314
330
6F
100
AcDbEntity
  8
_0-5_寸法線
  6
Continuous
 62
     7
100
AcDbLine
 10
521.0106331013371
 20
724.9562801377416
 30
0.0
 11
636.0106331013311
 21
724.9562801377408
 31
0.0
  0
LINE
  5
315
330
6F
100
AcDbEntity
  8
_0-5_寸法線
  6
Continuous
 62
     7
100
AcDbLine
 10
631.0106331013311
 20
724.9562801377408
 30
0.0
 11
633.5988235523562
 21
715.29702187485
 31
0.0
  0
LINE
  5
316
330
6F
100
AcDbEntity
  8
_0-5_寸法線
  6
Continuous
 62
     7
100
AcDbLine
 10
631.0106331013311
 20
724.9562801377408
 30
0.0
 11
628.4224426503058
 21
715.29702187485
 31
0.0
  0
LINE
  5
317
330
6F
100
AcDbEntity
  8
_0-5_寸法線
  6
Continuous
 62
     7
100
AcDbLine
 10
521.0106331013371
 20
267.9562801377417
 30
0.0
 11
636.0106331013311
 21
267.9562801377406
 31
0.0
  0
LINE
  5
318
330
6F
100
AcDbEntity
  8
_0-5_寸法線
  6
Continuous
 62
     7
100
AcDbLine
 10
631.0106331013311
 20
267.9562801377407
 30
0.0
 11
628.4224426503058
 21
277.6155384006313
 31
0.0
  0
LINE
  5
319
330
6F
100
AcDbEntity
  8
_0-5_寸法線
  6
Continuous
 62
     7
100
AcDbLine
 10
631.0106331013311
 20
267.9562801377407
 30
0.0
 11
633.5988235523562
 21
277.6155384006313
 31
0.0
  0
LINE
  5
31A
330
6F
100
AcDbEntity
  8
_0-5_寸法線
  6
Continuous
 62
     7
100
AcDbLine
 10
631.0106331013311
 20
724.9562801377408
 30
0.0
 11
631.0106331013311
 21
267.9562801377407
 31
0.0
  0
TEXT
  5
31B
330
6F
100
AcDbEntity
  8
_0-5_寸法線
 62
     7
100
AcDbText
 10
631.0106331013312
 20
485.2062801377408
 30
0.0
 40
15.0
  1
457
 50
90.0
100
AcDbText
  0
LINE
  5
31C
330
6F
100
AcDbEntity
  8
_0-5_寸法線
  6
Continuous
 62
     7
100
AcDbLine
 10
521.0106331013371
 20
723.9562801377417
 30
0.0
 11
601.0106331013316
 21
723.9562801377409
 31
0.0
  0
LINE
  5
31D
330
6F
100
AcDbEntity
  8
_0-5_寸法線
  6
Continuous
 62
     7
100
AcDbLine
 10
596.0106331013316
 20
723.9562801377409
 30
0.0
 11
598.5988235523567
 21
714.2970218748502
 31
0.0
  0
LINE
  5
31E
330
6F
100
AcDbEntity
  8
_0-5_寸法線
  6
Continuous
 62
     7
100
AcDbLine
 10
596.0106331013316
 20
723.9562801377409
 30
0.0
 11
593.4224426503065
 21
714.2970218748502
 31
0.0
  0
LINE
  5
31F
330
6F
100
AcDbEntity
  8
_0-5_寸法線
  6
Continuous
 62
     7
100
AcDbLine
 10
521.0106331013371
 20
268.9562801377417
 30
0.0
 11
601.0106331013316
 21
268.9562801377409
 31
0.0
  0
LINE
  5
320
330
6F
100
AcDbEntity
  8
_0-5_寸法線
  6
Continuous
 62
     7
100
AcDbLine
 10
596.0106331013316
 20
268.956280137741
 30
0.0
 11
593.4224426503065
 21
278.6155384006316
 31
0.0
  0
LINE
  5
321
330
6F
100
AcDbEntity
  8
_0-5_寸法線
  6
Continuous
 62
     7
100
AcDbLine
 10
596.0106331013316
 20
268.956280137741
 30
0.0
 11
598.5988235523567
 21
278.6155384006316
 31
0.0
  0
LINE
  5
322
330
6F
100
AcDbEntity
  8
_0-5_寸法線
  6
Continuous
 62
     7
100
AcDbLine
 10
596.0106331013316
 20
723.9562801377409
 30
0.0
 11
596.0106331013316
 21
268.956280137741
 31
0.0
  0
TEXT
  5
323
330
6F
100
AcDbEntity
  8
_0-5_寸法線
 62
     7
100
AcDbText
 10
596.0106331013316
 20
485.206280137741
 30
0.0
 40
15.0
  1
455
 50
90.0
100
AcDbText
  0
LINE
  5
324
330
6F
100
AcDbEntity
  8
_0-0_計極細
  6
CENTER1
 62
     2
100
AcDbLine
 10
514.5053152772991
 20
292.9562801377417
 30
0.0
 11
213.3175746989619
 21
292.9562801377417
 31
0.0
  0
LINE
  5
325
330
6F
100
AcDbEntity
  8
_0-0_計極細
  6
CENTER1
 62
     2
100
AcDbLine
 10
110.0378505127783
 20
292.9562801377417
 30
0.0
 11
213.3175746989619
 21
292.9562801377417
 31
0.0
  0
LINE
  5
326
330
6F
100
AcDbEntity
  8
_0-0_計極細
  6
CENTER1
 62
     2
100
AcDbLine
 10
514.8499912032246
 20
708.9562801377417
 30
0.0
 11
213.3175746989623
 21
708.9562801377417
 31
0.0
  0
LINE
  5
327
330
6F
100
AcDbEntity
  8
_0-0_計極細
  6
CENTER1
 62
     2
100
AcDbLine
 10
110.0378505127787
 20
708.9562801377417
 30
0.0
 11
213.3175746989623
 21
708.9562801377417
 31
0.0
  0
LINE
  5
328
330
6F
100
AcDbEntity
  8
_0-5_寸法線
  6
Continuous
 62
     7
100
AcDbLine
 10
521.0106331013371
 20
292.9562801377417
 30
0.0
 11
566.0106331013317
 21
292.9562801377412
 31
0.0
  0
LINE
  5
329
330
6F
100
AcDbEntity
  8
_0-5_寸法線
  6
Continuous
 62
     7
100
AcDbLine
 10
561.0106331013317
 20
292.9562801377413
 30
0.0
 11
558.4224426503064
 21
302.6155384006319
 31
0.0
  0
LINE
  5
32A
330
6F
100
AcDbEntity
  8
_0-5_寸法線
  6
Continuous
 62
     7
100
AcDbLine
 10
561.0106331013317
 20
292.9562801377413
 30
0.0
 11
563.5988235523567
 21
302.6155384006319
 31
0.0
  0
LINE
  5
32B
330
6F
100
AcDbEntity
  8
_0-5_寸法線
  6
Continuous
 62
     7
100
AcDbLine
 10
521.0106331013371
 20
708.9562801377417
 30
0.0
 11
566.0106331013317
 21
708.9562801377415
 31
0.0
  0
LINE
  5
32C
330
6F
100
AcDbEntity
  8
_0-5_寸法線
  6
Continuous
 62
     7
100
AcDbLine
 10
561.0106331013317
 20
708.9562801377415
 30
0.0
 11
563.5988235523567
 21
699.2970218748506
 31
0.0
  0
LINE
  5
32D
330
6F
100
AcDbEntity
  8
_0-5_寸法線
  6
Continuous
 62
     7
100
AcDbLine
 10
561.0106331013317
 20
708.9562801377415
 30
0.0
 11
558.4224426503064
 21
699.2970218748506
 31
0.0
  0
LINE
  5
32E
330
6F
100
AcDbEntity
  8
_0-5_寸法線
  6
Continuous
 62
     7
100
AcDbLine
 10
561.0106331013317
 20
292.9562801377413
 30
0.0
 11
561.0106331013317
 21
708.9562801377415
 31
0.0
  0
TEXT
  5
32F
330
6F
100
AcDbEntity
  8
_0-5_寸法線
 62
     7
100
AcDbText
 10
561.0106331013317
 20
489.7062801377412
 30
0.0
 40
15.0
  1
416
 50
90.0
100
AcDbText
  0
LINE
  5
330
330
6F
100
AcDbEntity
  8
_0-1_計細線
  6
DASHED2
 62
     3
100
AcDbLine
 10
159.9378505127779
 20
290.7562801377417
 30
0.0
 11
161.1378505127769
 21
290.7562801377419
 31
0.0
  0
CIRCLE
  5
331
330
6F
100
AcDbEntity
  8
_0-1_計細線
  6
DASHED2
 62
     3
100
AcDbCircle
 10
160.5378505127774
 20
292.9562801377417
 30
0.0
 40
2.75
  0
LINE
  5
332
330
6F
100
AcDbEntity
  8
_0-1_計細線
  6
DASHED2
 62
     3
100
AcDbLine
 10
158.3378505127776
 20
292.3562801377416
 30
0.0
 11
159.7378505127771
 21
292.3562801377419
 31
0.0
  0
LINE
  5
333
330
6F
100
AcDbEntity
  8
_0-1_計細線
  6
DASHED2
 62
     3
100
AcDbLine
 10
158.3378505127776
 20
293.5562801377417
 30
0.0
 11
159.7378505127771
 21
293.5562801377417
 31
0.0
  0
CIRCLE
  5
334
330
6F
100
AcDbEntity
  8
_0-1_計細線
  6
DASHED2
 62
     3
100
AcDbCircle
 10
160.5378505127774
 20
292.9562801377417
 30
0.0
 40
4.000000000000001
  0
LINE
  5
335
330
6F
100
AcDbEntity
  8
_0-1_計細線
  6
DASHED2
 62
     3
100
AcDbLine
 10
159.9378505127779
 20
295.1562801377416
 30
0.0
 11
161.1378505127769
 21
295.1562801377418
 31
0.0
  0
ARC
  5
336
330
6F
100
AcDbEntity
  8
_0-1_計細線
  6
DASHED2
 62
     3
100
AcDbCircle
 10
161.3378505127775
 20
292.1562801377418
 30
0.0
 40
0.2000000000000001
100
AcDbArc
 50
89.99999999999991
 51
179.9999999999998
  0
LINE
  5
337
330
6F
100
AcDbEntity
  8
_0-1_計細線
  6
DASHED2
 62
     3
100
AcDbLine
 10
161.1378505127769
 20
290.7562801377417
 30
0.0
 11
161.1378505127769
 21
292.1562801377418
 31
0.0
  0
ARC
  5
338
330
6F
100
AcDbEntity
  8
_0-1_計細線
  6
DASHED2
 62
     3
100
AcDbCircle
 10
161.3378505127775
 20
293.7562801377417
 30
0.0
 40
0.2000000000000001
100
AcDbArc
 50
179.9999999999998
 51
269.9999999999997
  0
LINE
  5
339
330
6F
100
AcDbEntity
  8
_0-1_計細線
  6
DASHED2
 62
     3
100
AcDbLine
 10
161.1378505127777
 20
293.7562801377417
 30
0.0
 11
161.1378505127769
 21
295.1562801377418
 31
0.0
  0
LINE
  5
33A
330
6F
100
AcDbEntity
  8
_0-1_計細線
  6
DASHED2
 62
     3
100
AcDbLine
 10
162.7378505127772
 20
292.3562801377416
 30
0.0
 11
162.7378505127772
 21
293.5562801377417
 31
0.0
  0
LINE
  5
33B
330
6F
100
AcDbEntity
  8
_0-1_計細線
  6
DASHED2
 62
     3
100
AcDbLine
 10
161.3378505127775
 20
292.3562801377419
 30
0.0
 11
162.7378505127772
 21
292.3562801377416
 31
0.0
  0
LINE
  5
33C
330
6F
100
AcDbEntity
  8
_0-1_計細線
  6
DASHED2
 62
     3
100
AcDbLine
 10
161.3378505127775
 20
293.5562801377417
 30
0.0
 11
162.7378505127772
 21
293.5562801377417
 31
0.0
  0
LINE
  5
33D
330
6F
100
AcDbEntity
  8
_0-1_計細線
  6
DASHED2
 62
     3
100
AcDbLine
 10
159.9378505127779
 20
290.7562801377417
 30
0.0
 11
159.9378505127779
 21
292.1562801377418
 31
0.0
  0
LINE
  5
33E
330
6F
100
AcDbEntity
  8
_0-1_計細線
  6
DASHED2
 62
     3
100
AcDbLine
 10
159.9378505127779
 20
290.7562801377417
 30
0.0
 11
159.9378505127779
 21
292.1562801377418
 31
0.0
  0
ARC
  5
33F
330
6F
100
AcDbEntity
  8
_0-1_計細線
  6
DASHED2
 62
     3
100
AcDbCircle
 10
159.7378505127771
 20
292.1562801377418
 30
0.0
 40
0.2000000000000001
100
AcDbArc
 50
0.0
 51
89.99999999999991
  0
ARC
  5
340
330
6F
100
AcDbEntity
  8
_0-1_計細線
  6
DASHED2
 62
     3
100
AcDbCircle
 10
159.7378505127771
 20
293.7562801377417
 30
0.0
 40
0.2000000000000001
100
AcDbArc
 50
269.9999999999997
 51
359.9999999999997
  0
LINE
  5
341
330
6F
100
AcDbEntity
  8
_0-1_計細線
  6
DASHED2
 62
     3
100
AcDbLine
 10
159.9378505127779
 20
293.7562801377417
 30
0.0
 11
159.9378505127779
 21
295.1562801377418
 31
0.0
  0
LINE
  5
342
330
6F
100
AcDbEntity
  8
_0-1_計細線
  6
DASHED2
 62
     3
100
AcDbLine
 10
159.9378505127779
 20
293.7562801377417
 30
0.0
 11
159.9378505127779
 21
295.1562801377418
 31
0.0
  0
LINE
  5
343
330
6F
100
AcDbEntity
  8
_0-1_計細線
  6
DASHED2
 62
     3
100
AcDbLine
 10
158.3378505127776
 20
292.3562801377416
 30
0.0
 11
158.3378505127776
 21
293.5562801377417
 31
0.0
  0
LINE
  5
344
330
6F
100
AcDbEntity
  8
_0-0_計極細
  6
CENTER1
 62
     2
100
AcDbLine
 10
160.5378505127774
 20
280.2385487723211
 30
0.0
 11
160.5378505127774
 21
302.4562801377418
 31
0.0
  0
LINE
  5
345
330
6F
100
AcDbEntity
  8
_0-0_計極細
  6
CENTER1
 62
     2
100
AcDbLine
 10
160.5378505127781
 20
713.6811579662496
 30
0.0
 11
160.5378505127781
 21
694.0607200100453
 31
0.0
  0
LINE
  5
346
330
6F
100
AcDbEntity
  8
_0-1_計細線
  6
DASHED2
 62
     3
100
AcDbLine
 10
151.5378505127772
 20
700.2062830101412
 30
0.0
 11
152.6378505127771
 21
704.7062822081888
 31
0.0
  0
LINE
  5
347
330
6F
100
AcDbEntity
  8
_0-1_計細線
  6
DASHED2
 62
     3
100
AcDbLine
 10
153.0378505127773
 20
704.7062819165695
 30
0.0
 11
153.0378505127773
 21
700.2062819165688
 31
0.0
  0
CIRCLE
  5
348
330
6F
100
AcDbEntity
  8
_0-1_計細線
  6
DASHED2
 62
     3
100
AcDbCircle
 10
148.0378505127773
 20
702.4562855618103
 30
0.0
 40
1.0
  0
LINE
  5
349
330
6F
100
AcDbEntity
  8
_0-1_計細線
  6
DASHED2
 62
     3
100
AcDbLine
 10
145.5378505127773
 20
700.2062873844306
 30
0.0
 11
145.5378505127773
 21
704.7062873844313
 31
0.0
  0
ARC
  5
34A
330
6F
100
AcDbEntity
  8
_0-1_計細線
  6
DASHED2
 62
     3
100
AcDbCircle
 10
160.7878505127777
 20
710.9562764122569
 30
0.0
 40
2.0
100
AcDbArc
 50
0.0
 51
89.99999164573054
  0
LINE
  5
34B
330
6F
100
AcDbEntity
  8
_0-1_計細線
  6
DASHED2
 62
     3
100
AcDbLine
 10
160.7878508043967
 20
712.9562764122568
 30
0.0
 11
160.2878508043967
 21
712.9562764851619
 31
0.0
  0
ARC
  5
34C
330
6F
100
AcDbEntity
  8
_0-1_計細線
  6
DASHED2
 62
     3
100
AcDbCircle
 10
160.2878505127777
 20
710.9562764851618
 30
0.0
 40
2.0
100
AcDbArc
 50
89.99999164573054
 51
179.9999999999998
  0
LINE
  5
34D
330
6F
100
AcDbEntity
  8
_0-1_計細線
  6
DASHED2
 62
     3
100
AcDbLine
 10
168.0378505127777
 20
704.7062819165695
 30
0.0
 11
168.0378505127777
 21
700.2062819165688
 31
0.0
  0
LINE
  5
34E
330
6F
100
AcDbEntity
  8
_0-1_計細線
  6
DASHED2
 62
     3
100
AcDbLine
 10
175.5378505127777
 20
700.2062655129832
 30
0.0
 11
175.5378505127777
 21
704.7062655129836
 31
0.0
  0
CIRCLE
  5
34F
330
6F
100
AcDbEntity
  8
_0-1_計細線
  6
DASHED2
 62
     3
100
AcDbCircle
 10
173.0378505127777
 20
702.4562673356038
 30
0.0
 40
1.0
  0
LINE
  5
350
330
6F
100
AcDbEntity
  8
_0-1_計細線
  6
DASHED2
 62
     3
100
AcDbLine
 10
169.5378505127777
 20
700.2062830101412
 30
0.0
 11
168.4378505127773
 21
704.7062822081888
 31
0.0
  0
LINE
  5
351
330
6F
100
AcDbEntity
  8
_0-1_計細線
  6
DASHED2
 62
     3
100
AcDbLine
 10
158.2878505127777
 20
710.9562764851618
 30
0.0
 11
158.2878505127777
 21
704.7062773600178
 31
0.0
  0
LINE
  5
352
330
6F
100
AcDbEntity
  8
_0-1_計細線
  6
DASHED2
 62
     3
100
AcDbLine
 10
162.7878505127777
 20
710.9562764122569
 30
0.0
 11
162.7878505127777
 21
704.7062755373973
 31
0.0
  0
LINE
  5
353
330
6F
100
AcDbEntity
  8
_0-1_計細線
  6
DASHED2
 62
     3
100
AcDbLine
 10
175.5378505127777
 20
700.2062655129832
 30
0.0
 11
145.5378505127773
 21
700.2062873844306
 31
0.0
  0
LINE
  5
354
330
6F
100
AcDbEntity
  8
_0-1_計細線
  6
DASHED2
 62
     3
100
AcDbLine
 10
175.5378505127777
 20
704.7062655129836
 30
0.0
 11
145.5378505127773
 21
704.7062873844313
 31
0.0
  0
ARC
  5
355
330
6F
100
AcDbEntity
  8
_0-1_計細線
  6
DASHED2
 62
     3
100
AcDbCircle
 10
160.7878505127777
 20
693.9562764122524
 30
0.0
 40
2.0
100
AcDbArc
 50
269.9999916457041
 51
359.9999999999997
  0
ARC
  5
356
330
6F
100
AcDbEntity
  8
_0-1_計細線
  6
DASHED2
 62
     3
100
AcDbCircle
 10
160.2878505127777
 20
693.9562764851574
 30
0.0
 40
2.0
100
AcDbArc
 50
179.9999999999998
 51
269.9999916457041
  0
LINE
  5
357
330
6F
100
AcDbEntity
  8
_0-1_計細線
  6
DASHED2
 62
     3
100
AcDbLine
 10
158.2878505127777
 20
700.2062773600175
 30
0.0
 11
158.2878505127777
 21
693.9562764851574
 31
0.0
  0
LINE
  5
358
330
6F
100
AcDbEntity
  8
_0-1_計細線
  6
DASHED2
 62
     3
100
AcDbLine
 10
162.7878505127777
 20
700.2062755373965
 30
0.0
 11
162.7878505127777
 21
693.9562764122524
 31
0.0
  0
LINE
  5
359
330
6F
100
AcDbEntity
  8
_0-1_計細線
  6
DASHED2
 62
     3
100
AcDbLine
 10
160.7778505127774
 20
709.8362801377417
 30
0.0
 11
160.7778505127774
 21
709.2762801377419
 31
0.0
  0
LINE
  5
35A
330
6F
100
AcDbEntity
  8
_0-1_計細線
  6
DASHED2
 62
     3
100
AcDbLine
 10
160.2978505127774
 20
709.8362801377417
 30
0.0
 11
160.2978505127774
 21
709.2762801377419
 31
0.0
  0
LINE
  5
35B
330
6F
100
AcDbEntity
  8
_0-1_計細線
  6
DASHED2
 62
     3
100
AcDbLine
 10
160.2978505127774
 20
709.8362801377417
 30
0.0
 11
160.2978505127774
 21
709.2762801377419
 31
0.0
  0
CIRCLE
  5
35C
330
6F
100
AcDbEntity
  8
_0-1_計細線
  6
DASHED2
 62
     3
100
AcDbCircle
 10
160.5378505127777
 20
708.9562801377417
 30
0.0
 40
1.6
  0
LINE
  5
35D
330
6F
100
AcDbEntity
  8
_0-1_計細線
  6
DASHED2
 62
     3
100
AcDbLine
 10
159.6578505127776
 20
708.7162801377417
 30
0.0
 11
160.2178505127776
 21
708.7162801377417
 31
0.0
  0
LINE
  5
35E
330
6F
100
AcDbEntity
  8
_0-1_計細線
  6
DASHED2
 62
     3
100
AcDbLine
 10
159.6578505127776
 20
709.1962801377417
 30
0.0
 11
160.2178505127776
 21
709.1962801377417
 31
0.0
  0
ARC
  5
35F
330
6F
100
AcDbEntity
  8
_0-1_計細線
  6
DASHED2
 62
     3
100
AcDbCircle
 10
160.2178505127776
 20
709.2762801377419
 30
0.0
 40
0.08
100
AcDbArc
 50
269.9999999999997
 51
359.9999999999997
  0
ARC
  5
360
330
6F
100
AcDbEntity
  8
_0-1_計細線
  6
DASHED2
 62
     3
100
AcDbCircle
 10
160.2178505127776
 20
708.6362801377417
 30
0.0
 40
0.08
100
AcDbArc
 50
0.0
 51
89.99999999999991
  0
ARC
  5
361
330
6F
100
AcDbEntity
  8
_0-1_計細線
  6
DASHED2
 62
     3
100
AcDbCircle
 10
160.8578505127774
 20
708.6362801377417
 30
0.0
 40
0.08
100
AcDbArc
 50
89.99999999999991
 51
179.9999999999998
  0
ARC
  5
362
330
6F
100
AcDbEntity
  8
_0-1_計細線
  6
DASHED2
 62
     3
100
AcDbCircle
 10
160.8578505127774
 20
709.2762801377419
 30
0.0
 40
0.08
100
AcDbArc
 50
179.9999999999998
 51
269.9999999999997
  0
LINE
  5
363
330
6F
100
AcDbEntity
  8
_0-1_計細線
  6
DASHED2
 62
     3
100
AcDbLine
 10
160.2978505127774
 20
708.6362801377417
 30
0.0
 11
160.2978505127774
 21
708.076280137742
 31
0.0
  0
LINE
  5
364
330
6F
100
AcDbEntity
  8
_0-1_計細線
  6
DASHED2
 62
     3
100
AcDbLine
 10
160.2978505127774
 20
708.6362801377417
 30
0.0
 11
160.2978505127774
 21
708.076280137742
 31
0.0
  0
LINE
  5
365
330
6F
100
AcDbEntity
  8
_0-1_計細線
  6
DASHED2
 62
     3
100
AcDbLine
 10
160.7778505127774
 20
708.6362801377417
 30
0.0
 11
160.7778505127774
 21
708.076280137742
 31
0.0
  0
LINE
  5
366
330
6F
100
AcDbEntity
  8
_0-1_計細線
  6
DASHED2
 62
     3
100
AcDbLine
 10
160.2978505127774
 20
708.076280137742
 30
0.0
 11
160.7778505127774
 21
708.076280137742
 31
0.0
  0
LINE
  5
367
330
6F
100
AcDbEntity
  8
_0-1_計細線
  6
DASHED2
 62
     3
100
AcDbLine
 10
161.4178505127773
 20
709.1962801377417
 30
0.0
 11
161.4178505127773
 21
708.7162801377417
 31
0.0
  0
LINE
  5
368
330
6F
100
AcDbEntity
  8
_0-1_計細線
  6
DASHED2
 62
     3
100
AcDbLine
 10
160.8578505127774
 20
708.7162801377417
 30
0.0
 11
161.4178505127773
 21
708.7162801377417
 31
0.0
  0
LINE
  5
369
330
6F
100
AcDbEntity
  8
_0-1_計細線
  6
DASHED2
 62
     3
100
AcDbLine
 10
160.8578505127774
 20
709.1962801377417
 30
0.0
 11
161.4178505127773
 21
709.1962801377417
 31
0.0
  0
LINE
  5
36A
330
6F
100
AcDbEntity
  8
_0-1_計細線
  6
DASHED2
 62
     3
100
AcDbLine
 10
159.6578505127776
 20
709.1962801377417
 30
0.0
 11
159.6578505127776
 21
708.7162801377417
 31
0.0
  0
LINE
  5
36B
330
6F
100
AcDbEntity
  8
_0-1_計細線
  6
DASHED2
 62
     3
100
AcDbLine
 10
160.2978505127774
 20
709.8362801377417
 30
0.0
 11
160.7778505127774
 21
709.8362801377417
 31
0.0
  0
LINE
  5
36C
330
6F
100
AcDbEntity
  8
_0-1_計細線
  6
DASHED2
 62
     3
100
AcDbLine
 10
421.1378505127777
 20
290.7562801377417
 30
0.0
 11
419.9378505127787
 21
290.7562801377419
 31
0.0
  0
CIRCLE
  5
36D
330
6F
100
AcDbEntity
  8
_0-1_計細線
  6
DASHED2
 62
     3
100
AcDbCircle
 10
420.5378505127781
 20
292.9562801377417
 30
0.0
 40
2.75
  0
LINE
  5
36E
330
6F
100
AcDbEntity
  8
_0-1_計細線
  6
DASHED2
 62
     3
100
AcDbLine
 10
422.737850512778
 20
292.3562801377416
 30
0.0
 11
421.3378505127783
 21
292.3562801377419
 31
0.0
  0
LINE
  5
36F
330
6F
100
AcDbEntity
  8
_0-1_計細線
  6
DASHED2
 62
     3
100
AcDbLine
 10
422.737850512778
 20
293.5562801377417
 30
0.0
 11
421.3378505127783
 21
293.5562801377417
 31
0.0
  0
CIRCLE
  5
370
330
6F
100
AcDbEntity
  8
_0-1_計細線
  6
DASHED2
 62
     3
100
AcDbCircle
 10
420.5378505127781
 20
292.9562801377417
 30
0.0
 40
4.000000000000001
  0
LINE
  5
371
330
6F
100
AcDbEntity
  8
_0-1_計細線
  6
DASHED2
 62
     3
100
AcDbLine
 10
421.1378505127777
 20
295.1562801377416
 30
0.0
 11
419.9378505127787
 21
295.1562801377418
 31
0.0
  0
ARC
  5
372
330
6F
100
AcDbEntity
  8
_0-1_計細線
  6
DASHED2
 62
     3
100
AcDbCircle
 10
419.737850512778
 20
292.1562801377418
 30
0.0
 40
0.2000000000000001
100
AcDbArc
 50
0.0
 51
89.99999999999991
  0
LINE
  5
373
330
6F
100
AcDbEntity
  8
_0-1_計細線
  6
DASHED2
 62
     3
100
AcDbLine
 10
419.9378505127787
 20
290.7562801377417
 30
0.0
 11
419.9378505127787
 21
292.1562801377418
 31
0.0
  0
ARC
  5
374
330
6F
100
AcDbEntity
  8
_0-1_計細線
  6
DASHED2
 62
     3
100
AcDbCircle
 10
419.737850512778
 20
293.7562801377417
 30
0.0
 40
0.2000000000000001
100
AcDbArc
 50
269.9999999999997
 51
359.9999999999997
  0
LINE
  5
375
330
6F
100
AcDbEntity
  8
_0-1_計細線
  6
DASHED2
 62
     3
100
AcDbLine
 10
419.9378505127778
 20
293.7562801377417
 30
0.0
 11
419.9378505127787
 21
295.1562801377418
 31
0.0
  0
LINE
  5
376
330
6F
100
AcDbEntity
  8
_0-1_計細線
  6
DASHED2
 62
     3
100
AcDbLine
 10
418.3378505127784
 20
292.3562801377416
 30
0.0
 11
418.3378505127784
 21
293.5562801377417
 31
0.0
  0
LINE
  5
377
330
6F
100
AcDbEntity
  8
_0-1_計細線
  6
DASHED2
 62
     3
100
AcDbLine
 10
419.737850512778
 20
292.3562801377419
 30
0.0
 11
418.3378505127784
 21
292.3562801377416
 31
0.0
  0
LINE
  5
378
330
6F
100
AcDbEntity
  8
_0-1_計細線
  6
DASHED2
 62
     3
100
AcDbLine
 10
419.737850512778
 20
293.5562801377417
 30
0.0
 11
418.3378505127784
 21
293.5562801377417
 31
0.0
  0
LINE
  5
379
330
6F
100
AcDbEntity
  8
_0-1_計細線
  6
DASHED2
 62
     3
100
AcDbLine
 10
421.1378505127777
 20
290.7562801377417
 30
0.0
 11
421.1378505127777
 21
292.1562801377418
 31
0.0
  0
LINE
  5
37A
330
6F
100
AcDbEntity
  8
_0-1_計細線
  6
DASHED2
 62
     3
100
AcDbLine
 10
421.1378505127777
 20
290.7562801377417
 30
0.0
 11
421.1378505127777
 21
292.1562801377418
 31
0.0
  0
ARC
  5
37B
330
6F
100
AcDbEntity
  8
_0-1_計細線
  6
DASHED2
 62
     3
100
AcDbCircle
 10
421.3378505127783
 20
292.1562801377418
 30
0.0
 40
0.2000000000000001
100
AcDbArc
 50
89.99999999999991
 51
179.9999999999998
  0
ARC
  5
37C
330
6F
100
AcDbEntity
  8
_0-1_計細線
  6
DASHED2
 62
     3
100
AcDbCircle
 10
421.3378505127783
 20
293.7562801377417
 30
0.0
 40
0.2000000000000001
100
AcDbArc
 50
179.9999999999998
 51
269.9999999999997
  0
LINE
  5
37D
330
6F
100
AcDbEntity
  8
_0-1_計細線
  6
DASHED2
 62
     3
100
AcDbLine
 10
421.1378505127777
 20
293.7562801377417
 30
0.0
 11
421.1378505127777
 21
295.1562801377418
 31
0.0
  0
LINE
  5
37E
330
6F
100
AcDbEntity
  8
_0-1_計細線
  6
DASHED2
 62
     3
100
AcDbLine
 10
421.1378505127777
 20
293.7562801377417
 30
0.0
 11
421.1378505127777
 21
295.1562801377418
 31
0.0
  0
LINE
  5
37F
330
6F
100
AcDbEntity
  8
_0-1_計細線
  6
DASHED2
 62
     3
100
AcDbLine
 10
422.737850512778
 20
292.3562801377416
 30
0.0
 11
422.737850512778
 21
293.5562801377417
 31
0.0
  0
LINE
  5
380
330
6F
100
AcDbEntity
  8
_0-0_計極細
  6
CENTER1
 62
     2
100
AcDbLine
 10
420.5378505127781
 20
279.7681784019508
 30
0.0
 11
420.5378505127781
 21
302.4562801377418
 31
0.0
  0
LINE
  5
381
330
6F
100
AcDbEntity
  8
_0-1_計細線
  6
DASHED2
 62
     3
100
AcDbLine
 10
429.5378505127781
 20
700.2062830101412
 30
0.0
 11
428.4378505127783
 21
704.7062822081888
 31
0.0
  0
LINE
  5
382
330
6F
100
AcDbEntity
  8
_0-1_計細線
  6
DASHED2
 62
     3
100
AcDbLine
 10
428.0378505127782
 20
704.7062819165695
 30
0.0
 11
428.0378505127782
 21
700.2062819165688
 31
0.0
  0
CIRCLE
  5
383
330
6F
100
AcDbEntity
  8
_0-1_計細線
  6
DASHED2
 62
     3
100
AcDbCircle
 10
433.0378505127781
 20
702.4562855618103
 30
0.0
 40
1.0
  0
LINE
  5
384
330
6F
100
AcDbEntity
  8
_0-1_計細線
  6
DASHED2
 62
     3
100
AcDbLine
 10
435.5378505127782
 20
700.2062873844306
 30
0.0
 11
435.5378505127782
 21
704.7062873844313
 31
0.0
  0
ARC
  5
385
330
6F
100
AcDbEntity
  8
_0-1_計細線
  6
DASHED2
 62
     3
100
AcDbCircle
 10
420.2878505127777
 20
710.9562764122569
 30
0.0
 40
2.0
100
AcDbArc
 50
90.00000835426945
 51
179.9999999999998
  0
LINE
  5
386
330
6F
100
AcDbEntity
  8
_0-1_計細線
  6
DASHED2
 62
     3
100
AcDbLine
 10
420.2878502211586
 20
712.9562764122568
 30
0.0
 11
420.7878502211587
 21
712.9562764851619
 31
0.0
  0
ARC
  5
387
330
6F
100
AcDbEntity
  8
_0-1_計細線
  6
DASHED2
 62
     3
100
AcDbCircle
 10
420.7878505127777
 20
710.9562764851618
 30
0.0
 40
2.0
100
AcDbArc
 50
0.0
 51
90.00000835426945
  0
LINE
  5
388
330
6F
100
AcDbEntity
  8
_0-1_計細線
  6
DASHED2
 62
     3
100
AcDbLine
 10
413.0378505127777
 20
704.7062819165695
 30
0.0
 11
413.0378505127777
 21
700.2062819165688
 31
0.0
  0
LINE
  5
389
330
6F
100
AcDbEntity
  8
_0-1_計細線
  6
DASHED2
 62
     3
100
AcDbLine
 10
405.5378505127777
 20
700.2062655129832
 30
0.0
 11
405.5378505127777
 21
704.7062655129836
 31
0.0
  0
CIRCLE
  5
38A
330
6F
100
AcDbEntity
  8
_0-1_計細線
  6
DASHED2
 62
     3
100
AcDbCircle
 10
408.0378505127777
 20
702.4562673356038
 30
0.0
 40
1.0
  0
LINE
  5
38B
330
6F
100
AcDbEntity
  8
_0-1_計細線
  6
DASHED2
 62
     3
100
AcDbLine
 10
411.5378505127777
 20
700.2062830101412
 30
0.0
 11
412.637850512778
 21
704.7062822081888
 31
0.0
  0
LINE
  5
38C
330
6F
100
AcDbEntity
  8
_0-1_計細線
  6
DASHED2
 62
     3
100
AcDbLine
 10
422.7878505127777
 20
710.9562764851618
 30
0.0
 11
422.7878505127777
 21
704.7062773600178
 31
0.0
  0
LINE
  5
38D
330
6F
100
AcDbEntity
  8
_0-1_計細線
  6
DASHED2
 62
     3
100
AcDbLine
 10
418.2878505127777
 20
710.9562764122569
 30
0.0
 11
418.2878505127777
 21
704.7062755373973
 31
0.0
  0
LINE
  5
38E
330
6F
100
AcDbEntity
  8
_0-1_計細線
  6
DASHED2
 62
     3
100
AcDbLine
 10
405.5378505127777
 20
700.2062655129832
 30
0.0
 11
435.5378505127782
 21
700.2062873844306
 31
0.0
  0
LINE
  5
38F
330
6F
100
AcDbEntity
  8
_0-1_計細線
  6
DASHED2
 62
     3
100
AcDbLine
 10
405.5378505127777
 20
704.7062655129836
 30
0.0
 11
435.5378505127782
 21
704.7062873844313
 31
0.0
  0
ARC
  5
390
330
6F
100
AcDbEntity
  8
_0-1_計細線
  6
DASHED2
 62
     3
100
AcDbCircle
 10
420.2878505127777
 20
693.9562764122524
 30
0.0
 40
2.0
100
AcDbArc
 50
179.9999999999998
 51
270.0000083542951
  0
ARC
  5
391
330
6F
100
AcDbEntity
  8
_0-1_計細線
  6
DASHED2
 62
     3
100
AcDbCircle
 10
420.7878505127777
 20
693.9562764851574
 30
0.0
 40
2.0
100
AcDbArc
 50
270.0000083542951
 51
359.9999999999997
  0
LINE
  5
392
330
6F
100
AcDbEntity
  8
_0-1_計細線
  6
DASHED2
 62
     3
100
AcDbLine
 10
422.7878505127777
 20
700.2062773600175
 30
0.0
 11
422.7878505127777
 21
693.9562764851574
 31
0.0
  0
LINE
  5
393
330
6F
100
AcDbEntity
  8
_0-1_計細線
  6
DASHED2
 62
     3
100
AcDbLine
 10
418.2878505127777
 20
700.2062755373965
 30
0.0
 11
418.2878505127777
 21
693.9562764122524
 31
0.0
  0
LINE
  5
394
330
6F
100
AcDbEntity
  8
_0-1_計細線
  6
DASHED2
 62
     3
100
AcDbLine
 10
420.297850512778
 20
709.8362801377417
 30
0.0
 11
420.297850512778
 21
709.2762801377419
 31
0.0
  0
LINE
  5
395
330
6F
100
AcDbEntity
  8
_0-1_計細線
  6
DASHED2
 62
     3
100
AcDbLine
 10
420.7778505127779
 20
709.8362801377417
 30
0.0
 11
420.7778505127779
 21
709.2762801377419
 31
0.0
  0
LINE
  5
396
330
6F
100
AcDbEntity
  8
_0-1_計細線
  6
DASHED2
 62
     3
100
AcDbLine
 10
420.7778505127779
 20
709.8362801377417
 30
0.0
 11
420.7778505127779
 21
709.2762801377419
 31
0.0
  0
CIRCLE
  5
397
330
6F
100
AcDbEntity
  8
_0-1_計細線
  6
DASHED2
 62
     3
100
AcDbCircle
 10
420.5378505127777
 20
708.9562801377417
 30
0.0
 40
1.6
  0
LINE
  5
398
330
6F
100
AcDbEntity
  8
_0-1_計細線
  6
DASHED2
 62
     3
100
AcDbLine
 10
421.4178505127777
 20
708.7162801377417
 30
0.0
 11
420.8578505127777
 21
708.7162801377417
 31
0.0
  0
LINE
  5
399
330
6F
100
AcDbEntity
  8
_0-1_計細線
  6
DASHED2
 62
     3
100
AcDbLine
 10
421.4178505127777
 20
709.1962801377417
 30
0.0
 11
420.8578505127777
 21
709.1962801377417
 31
0.0
  0
ARC
  5
39A
330
6F
100
AcDbEntity
  8
_0-1_計細線
  6
DASHED2
 62
     3
100
AcDbCircle
 10
420.8578505127777
 20
709.2762801377419
 30
0.0
 40
0.08
100
AcDbArc
 50
179.9999999999998
 51
269.9999999999997
  0
ARC
  5
39B
330
6F
100
AcDbEntity
  8
_0-1_計細線
  6
DASHED2
 62
     3
100
AcDbCircle
 10
420.8578505127777
 20
708.6362801377417
 30
0.0
 40
0.08
100
AcDbArc
 50
89.99999999999991
 51
179.9999999999998
  0
ARC
  5
39C
330
6F
100
AcDbEntity
  8
_0-1_計細線
  6
DASHED2
 62
     3
100
AcDbCircle
 10
420.217850512778
 20
708.6362801377417
 30
0.0
 40
0.08
100
AcDbArc
 50
0.0
 51
89.99999999999991
  0
ARC
  5
39D
330
6F
100
AcDbEntity
  8
_0-1_計細線
  6
DASHED2
 62
     3
100
AcDbCircle
 10
420.217850512778
 20
709.2762801377419
 30
0.0
 40
0.08
100
AcDbArc
 50
269.9999999999997
 51
359.9999999999997
  0
LINE
  5
39E
330
6F
100
AcDbEntity
  8
_0-1_計細線
  6
DASHED2
 62
     3
100
AcDbLine
 10
420.7778505127779
 20
708.6362801377417
 30
0.0
 11
420.7778505127779
 21
708.076280137742
 31
0.0
  0
LINE
  5
39F
330
6F
100
AcDbEntity
  8
_0-1_計細線
  6
DASHED2
 62
     3
100
AcDbLine
 10
420.7778505127779
 20
708.6362801377417
 30
0.0
 11
420.7778505127779
 21
708.076280137742
 31
0.0
  0
LINE
  5
3A0
330
6F
100
AcDbEntity
  8
_0-1_計細線
  6
DASHED2
 62
     3
100
AcDbLine
 10
420.297850512778
 20
708.6362801377417
 30
0.0
 11
420.297850512778
 21
708.076280137742
 31
0.0
  0
LINE
  5
3A1
330
6F
100
AcDbEntity
  8
_0-1_計細線
  6
DASHED2
 62
     3
100
AcDbLine
 10
420.7778505127779
 20
708.076280137742
 30
0.0
 11
420.297850512778
 21
708.076280137742
 31
0.0
  0
LINE
  5
3A2
330
6F
100
AcDbEntity
  8
_0-1_計細線
  6
DASHED2
 62
     3
100
AcDbLine
 10
419.6578505127781
 20
709.1962801377417
 30
0.0
 11
419.6578505127781
 21
708.7162801377417
 31
0.0
  0
LINE
  5
3A3
330
6F
100
AcDbEntity
  8
_0-1_計細線
  6
DASHED2
 62
     3
100
AcDbLine
 10
420.217850512778
 20
708.7162801377417
 30
0.0
 11
419.6578505127781
 21
708.7162801377417
 31
0.0
  0
LINE
  5
3A4
330
6F
100
AcDbEntity
  8
_0-1_計細線
  6
DASHED2
 62
     3
100
AcDbLine
 10
420.217850512778
 20
709.1962801377417
 30
0.0
 11
419.6578505127781
 21
709.1962801377417
 31
0.0
  0
LINE
  5
3A5
330
6F
100
AcDbEntity
  8
_0-1_計細線
  6
DASHED2
 62
     3
100
AcDbLine
 10
421.4178505127777
 20
709.1962801377417
 30
0.0
 11
421.4178505127777
 21
708.7162801377417
 31
0.0
  0
LINE
  5
3A6
330
6F
100
AcDbEntity
  8
_0-1_計細線
  6
DASHED2
 62
     3
100
AcDbLine
 10
420.7778505127779
 20
709.8362801377417
 30
0.0
 11
420.297850512778
 21
709.8362801377417
 31
0.0
  0
LINE
  5
3A7
330
6F
100
AcDbEntity
  8
_0-0_計極細
  6
CENTER1
 62
     2
100
AcDbLine
 10
420.5378505127785
 20
713.6811579662496
 30
0.0
 11
420.5378505127785
 21
694.0607200100453
 31
0.0
  0
LINE
  5
3A8
330
6F
100
AcDbEntity
  8
_0-5_寸法線
  6
Continuous
 62
     7
100
AcDbLine
 10
160.5378505127783
 20
736.4562801377421
 30
0.0
 11
160.5378505127783
 21
780.4562801377421
 31
0.0
  0
LINE
  5
3A9
330
6F
100
AcDbEntity
  8
_0-5_寸法線
  6
Continuous
 62
     7
100
AcDbLine
 10
160.5378505127783
 20
775.4562801377422
 30
0.0
 11
170.1971087756689
 21
778.0444705887673
 31
0.0
  0
LINE
  5
3AA
330
6F
100
AcDbEntity
  8
_0-5_寸法線
  6
Continuous
 62
     7
100
AcDbLine
 10
160.5378505127783
 20
775.4562801377422
 30
0.0
 11
170.1971087756689
 21
772.8680896867171
 31
0.0
  0
LINE
  5
3AB
330
6F
100
AcDbEntity
  8
_0-5_寸法線
  6
Continuous
 62
     7
100
AcDbLine
 10
420.5378505127781
 20
736.4562801377421
 30
0.0
 11
420.5378505127783
 21
780.4562801377421
 31
0.0
  0
LINE
  5
3AC
330
6F
100
AcDbEntity
  8
_0-5_寸法線
  6
Continuous
 62
     7
100
AcDbLine
 10
420.5378505127783
 20
775.4562801377422
 30
0.0
 11
410.8785922498876
 21
772.8680896867171
 31
0.0
  0
LINE
  5
3AD
330
6F
100
AcDbEntity
  8
_0-5_寸法線
  6
Continuous
 62
     7
100
AcDbLine
 10
420.5378505127783
 20
775.4562801377422
 30
0.0
 11
410.8785922498876
 21
778.0444705887673
 31
0.0
  0
LINE
  5
3AE
330
6F
100
AcDbEntity
  8
_0-5_寸法線
  6
Continuous
 62
     7
100
AcDbLine
 10
160.5378505127783
 20
775.4562801377422
 30
0.0
 11
420.5378505127783
 21
775.4562801377422
 31
0.0
  0
TEXT
  5
3AF
330
6F
100
AcDbEntity
  8
_0-5_寸法線
 62
     7
100
AcDbText
 10
279.2878505127783
 20
775.4562801377422
 30
0.0
 40
15.0
  1
260
100
AcDbText
  0
CIRCLE
  5
3B0
330
6F
100
AcDbEntity
  8
_0-7_枠細線
  6
Continuous
 62
     5
100
AcDbCircle
 10
442.7415099045776
 20
708.2041981319441
 30
0.0
 40
40.0
  0
LINE
  5
3B1
330
6F
100
AcDbEntity
  8
_0-1_計細線
  6
DASHED2
 62
     3
100
AcDbLine
 10
714.0604014735522
 20
290.7562801377417
 30
0.0
 11
715.2604014735511
 21
290.7562801377419
 31
0.0
  0
CIRCLE
  5
3B2
330
6F
100
AcDbEntity
  8
_0-1_計細線
  6
DASHED2
 62
     3
100
AcDbCircle
 10
714.6604014735518
 20
292.9562801377417
 30
0.0
 40
2.75
  0
LINE
  5
3B3
330
6F
100
AcDbEntity
  8
_0-1_計細線
  6
DASHED2
 62
     3
100
AcDbLine
 10
712.460401473552
 20
292.3562801377416
 30
0.0
 11
713.8604014735516
 21
292.3562801377419
 31
0.0
  0
LINE
  5
3B4
330
6F
100
AcDbEntity
  8
_0-1_計細線
  6
DASHED2
 62
     3
100
AcDbLine
 10
712.460401473552
 20
293.5562801377417
 30
0.0
 11
713.8604014735516
 21
293.5562801377417
 31
0.0
  0
CIRCLE
  5
3B5
330
6F
100
AcDbEntity
  8
_0-1_計細線
  6
DASHED2
 62
     3
100
AcDbCircle
 10
714.6604014735518
 20
292.9562801377417
 30
0.0
 40
4.000000000000001
  0
LINE
  5
3B6
330
6F
100
AcDbEntity
  8
_0-1_計細線
  6
DASHED2
 62
     3
100
AcDbLine
 10
714.0604014735522
 20
295.1562801377416
 30
0.0
 11
715.2604014735511
 21
295.1562801377418
 31
0.0
  0
ARC
  5
3B7
330
6F
100
AcDbEntity
  8
_0-1_計細線
  6
DASHED2
 62
     3
100
AcDbCircle
 10
715.460401473552
 20
292.1562801377418
 30
0.0
 40
0.2000000000000001
100
AcDbArc
 50
89.99999999999991
 51
179.9999999999998
  0
LINE
  5
3B8
330
6F
100
AcDbEntity
  8
_0-1_計細線
  6
DASHED2
 62
     3
100
AcDbLine
 10
715.2604014735511
 20
290.7562801377417
 30
0.0
 11
715.2604014735511
 21
292.1562801377418
 31
0.0
  0
ARC
  5
3B9
330
6F
100
AcDbEntity
  8
_0-1_計細線
  6
DASHED2
 62
     3
100
AcDbCircle
 10
715.460401473552
 20
293.7562801377417
 30
0.0
 40
0.2000000000000001
100
AcDbArc
 50
179.9999999999998
 51
269.9999999999997
  0
LINE
  5
3BA
330
6F
100
AcDbEntity
  8
_0-1_計細線
  6
DASHED2
 62
     3
100
AcDbLine
 10
715.260401473552
 20
293.7562801377417
 30
0.0
 11
715.2604014735511
 21
295.1562801377418
 31
0.0
  0
LINE
  5
3BB
330
6F
100
AcDbEntity
  8
_0-1_計細線
  6
DASHED2
 62
     3
100
AcDbLine
 10
716.8604014735515
 20
292.3562801377416
 30
0.0
 11
716.8604014735515
 21
293.5562801377417
 31
0.0
  0
LINE
  5
3BC
330
6F
100
AcDbEntity
  8
_0-1_計細線
  6
DASHED2
 62
     3
100
AcDbLine
 10
715.460401473552
 20
292.3562801377419
 30
0.0
 11
716.8604014735515
 21
292.3562801377416
 31
0.0
  0
LINE
  5
3BD
330
6F
100
AcDbEntity
  8
_0-1_計細線
  6
DASHED2
 62
     3
100
AcDbLine
 10
715.460401473552
 20
293.5562801377417
 30
0.0
 11
716.8604014735515
 21
293.5562801377417
 31
0.0
  0
LINE
  5
3BE
330
6F
100
AcDbEntity
  8
_0-1_計細線
  6
DASHED2
 62
     3
100
AcDbLine
 10
714.0604014735522
 20
290.7562801377417
 30
0.0
 11
714.0604014735522
 21
292.1562801377418
 31
0.0
  0
LINE
  5
3BF
330
6F
100
AcDbEntity
  8
_0-1_計細線
  6
DASHED2
 62
     3
100
AcDbLine
 10
714.0604014735522
 20
290.7562801377417
 30
0.0
 11
714.0604014735522
 21
292.1562801377418
 31
0.0
  0
ARC
  5
3C0
330
6F
100
AcDbEntity
  8
_0-1_計細線
  6
DASHED2
 62
     3
100
AcDbCircle
 10
713.8604014735516
 20
292.1562801377418
 30
0.0
 40
0.2000000000000001
100
AcDbArc
 50
0.0
 51
89.99999999999991
  0
ARC
  5
3C1
330
6F
100
AcDbEntity
  8
_0-1_計細線
  6
DASHED2
 62
     3
100
AcDbCircle
 10
713.8604014735516
 20
293.7562801377417
 30
0.0
 40
0.2000000000000001
100
AcDbArc
 50
269.9999999999997
 51
359.9999999999997
  0
LINE
  5
3C2
330
6F
100
AcDbEntity
  8
_0-1_計細線
  6
DASHED2
 62
     3
100
AcDbLine
 10
714.0604014735522
 20
293.7562801377417
 30
0.0
 11
714.0604014735522
 21
295.1562801377418
 31
0.0
  0
LINE
  5
3C3
330
6F
100
AcDbEntity
  8
_0-1_計細線
  6
DASHED2
 62
     3
100
AcDbLine
 10
714.0604014735522
 20
293.7562801377417
 30
0.0
 11
714.0604014735522
 21
295.1562801377418
 31
0.0
  0
LINE
  5
3C4
330
6F
100
AcDbEntity
  8
_0-1_計細線
  6
DASHED2
 62
     3
100
AcDbLine
 10
712.460401473552
 20
292.3562801377416
 30
0.0
 11
712.460401473552
 21
293.5562801377417
 31
0.0
  0
LINE
  5
3C5
330
6F
100
AcDbEntity
  8
_0-0_計極細
  6
CENTER1
 62
     2
100
AcDbLine
 10
714.6604014735518
 20
280.2385487723211
 30
0.0
 11
714.6604014735518
 21
302.4562801377418
 31
0.0
  0
LINE
  5
3C6
330
6F
100
AcDbEntity
  8
_0-0_計極細
  6
CENTER1
 62
     2
100
AcDbLine
 10
714.6604014735524
 20
713.6811579662496
 30
0.0
 11
714.6604014735524
 21
694.0607200100453
 31
0.0
  0
LINE
  5
3C7
330
6F
100
AcDbEntity
  8
_0-1_計細線
  6
DASHED2
 62
     3
100
AcDbLine
 10
705.6604014735518
 20
700.2062830101412
 30
0.0
 11
706.7604014735516
 21
704.7062822081888
 31
0.0
  0
LINE
  5
3C8
330
6F
100
AcDbEntity
  8
_0-1_計細線
  6
DASHED2
 62
     3
100
AcDbLine
 10
707.1604014735518
 20
704.7062819165695
 30
0.0
 11
707.1604014735518
 21
700.2062819165688
 31
0.0
  0
CIRCLE
  5
3C9
330
6F
100
AcDbEntity
  8
_0-1_計細線
  6
DASHED2
 62
     3
100
AcDbCircle
 10
702.1604014735518
 20
702.4562855618103
 30
0.0
 40
1.0
  0
LINE
  5
3CA
330
6F
100
AcDbEntity
  8
_0-1_計細線
  6
DASHED2
 62
     3
100
AcDbLine
 10
699.6604014735518
 20
700.2062873844306
 30
0.0
 11
699.6604014735518
 21
704.7062873844313
 31
0.0
  0
ARC
  5
3CB
330
6F
100
AcDbEntity
  8
_0-1_計細線
  6
DASHED2
 62
     3
100
AcDbCircle
 10
714.910401473552
 20
710.9562764122569
 30
0.0
 40
2.0
100
AcDbArc
 50
0.0
 51
89.99999164573054
  0
LINE
  5
3CC
330
6F
100
AcDbEntity
  8
_0-1_計細線
  6
DASHED2
 62
     3
100
AcDbLine
 10
714.9104017651711
 20
712.9562764122568
 30
0.0
 11
714.4104017651711
 21
712.9562764851619
 31
0.0
  0
ARC
  5
3CD
330
6F
100
AcDbEntity
  8
_0-1_計細線
  6
DASHED2
 62
     3
100
AcDbCircle
 10
714.4104014735522
 20
710.9562764851618
 30
0.0
 40
2.0
100
AcDbArc
 50
89.99999164573054
 51
179.9999999999998
  0
LINE
  5
3CE
330
6F
100
AcDbEntity
  8
_0-1_計細線
  6
DASHED2
 62
     3
100
AcDbLine
 10
722.160401473552
 20
704.7062819165695
 30
0.0
 11
722.160401473552
 21
700.2062819165688
 31
0.0
  0
LINE
  5
3CF
330
6F
100
AcDbEntity
  8
_0-1_計細線
  6
DASHED2
 62
     3
100
AcDbLine
 10
729.660401473552
 20
700.2062655129832
 30
0.0
 11
729.660401473552
 21
704.7062655129836
 31
0.0
  0
CIRCLE
  5
3D0
330
6F
100
AcDbEntity
  8
_0-1_計細線
  6
DASHED2
 62
     3
100
AcDbCircle
 10
727.160401473552
 20
702.4562673356038
 30
0.0
 40
1.0
  0
LINE
  5
3D1
330
6F
100
AcDbEntity
  8
_0-1_計細線
  6
DASHED2
 62
     3
100
AcDbLine
 10
723.660401473552
 20
700.2062830101412
 30
0.0
 11
722.5604014735519
 21
704.7062822081888
 31
0.0
  0
LINE
  5
3D2
330
6F
100
AcDbEntity
  8
_0-1_計細線
  6
DASHED2
 62
     3
100
AcDbLine
 10
712.410401473552
 20
710.9562764851618
 30
0.0
 11
712.410401473552
 21
704.7062773600178
 31
0.0
  0
LINE
  5
3D3
330
6F
100
AcDbEntity
  8
_0-1_計細線
  6
DASHED2
 62
     3
100
AcDbLine
 10
716.9104014735522
 20
710.9562764122569
 30
0.0
 11
716.9104014735522
 21
704.7062755373973
 31
0.0
  0
LINE
  5
3D4
330
6F
100
AcDbEntity
  8
_0-1_計細線
  6
DASHED2
 62
     3
100
AcDbLine
 10
729.660401473552
 20
700.2062655129832
 30
0.0
 11
699.6604014735518
 21
700.2062873844306
 31
0.0
  0
LINE
  5
3D5
330
6F
100
AcDbEntity
  8
_0-1_計細線
  6
DASHED2
 62
     3
100
AcDbLine
 10
729.660401473552
 20
704.7062655129836
 30
0.0
 11
699.6604014735518
 21
704.7062873844313
 31
0.0
  0
ARC
  5
3D6
330
6F
100
AcDbEntity
  8
_0-1_計細線
  6
DASHED2
 62
     3
100
AcDbCircle
 10
714.910401473552
 20
693.9562764122524
 30
0.0
 40
2.0
100
AcDbArc
 50
269.9999916457041
 51
359.9999999999997
  0
ARC
  5
3D7
330
6F
100
AcDbEntity
  8
_0-1_計細線
  6
DASHED2
 62
     3
100
AcDbCircle
 10
714.4104014735522
 20
693.9562764851574
 30
0.0
 40
2.0
100
AcDbArc
 50
179.9999999999998
 51
269.9999916457041
  0
LINE
  5
3D8
330
6F
100
AcDbEntity
  8
_0-1_計細線
  6
DASHED2
 62
     3
100
AcDbLine
 10
712.410401473552
 20
700.2062773600175
 30
0.0
 11
712.410401473552
 21
693.9562764851574
 31
0.0
  0
LINE
  5
3D9
330
6F
100
AcDbEntity
  8
_0-1_計細線
  6
DASHED2
 62
     3
100
AcDbLine
 10
716.9104014735522
 20
700.2062755373965
 30
0.0
 11
716.9104014735522
 21
693.9562764122524
 31
0.0
  0
LINE
  5
3DA
330
6F
100
AcDbEntity
  8
_0-1_計細線
  6
DASHED2
 62
     3
100
AcDbLine
 10
714.900401473552
 20
709.8362801377417
 30
0.0
 11
714.900401473552
 21
709.2762801377419
 31
0.0
  0
LINE
  5
3DB
330
6F
100
AcDbEntity
  8
_0-1_計細線
  6
DASHED2
 62
     3
100
AcDbLine
 10
714.4204014735519
 20
709.8362801377417
 30
0.0
 11
714.4204014735519
 21
709.2762801377419
 31
0.0
  0
LINE
  5
3DC
330
6F
100
AcDbEntity
  8
_0-1_計細線
  6
DASHED2
 62
     3
100
AcDbLine
 10
714.4204014735519
 20
709.8362801377417
 30
0.0
 11
714.4204014735519
 21
709.2762801377419
 31
0.0
  0
CIRCLE
  5
3DD
330
6F
100
AcDbEntity
  8
_0-1_計細線
  6
DASHED2
 62
     3
100
AcDbCircle
 10
714.660401473552
 20
708.9562801377417
 30
0.0
 40
1.6
  0
LINE
  5
3DE
330
6F
100
AcDbEntity
  8
_0-1_計細線
  6
DASHED2
 62
     3
100
AcDbLine
 10
713.780401473552
 20
708.7162801377417
 30
0.0
 11
714.3404014735519
 21
708.7162801377417
 31
0.0
  0
LINE
  5
3DF
330
6F
100
AcDbEntity
  8
_0-1_計細線
  6
DASHED2
 62
     3
100
AcDbLine
 10
713.780401473552
 20
709.1962801377417
 30
0.0
 11
714.3404014735519
 21
709.1962801377417
 31
0.0
  0
ARC
  5
3E0
330
6F
100
AcDbEntity
  8
_0-1_計細線
  6
DASHED2
 62
     3
100
AcDbCircle
 10
714.3404014735519
 20
709.2762801377419
 30
0.0
 40
0.08
100
AcDbArc
 50
269.9999999999997
 51
359.9999999999997
  0
ARC
  5
3E1
330
6F
100
AcDbEntity
  8
_0-1_計細線
  6
DASHED2
 62
     3
100
AcDbCircle
 10
714.3404014735519
 20
708.6362801377417
 30
0.0
 40
0.08
100
AcDbArc
 50
0.0
 51
89.99999999999991
  0
ARC
  5
3E2
330
6F
100
AcDbEntity
  8
_0-1_計細線
  6
DASHED2
 62
     3
100
AcDbCircle
 10
714.9804014735519
 20
708.6362801377417
 30
0.0
 40
0.08
100
AcDbArc
 50
89.99999999999991
 51
179.9999999999998
  0
ARC
  5
3E3
330
6F
100
AcDbEntity
  8
_0-1_計細線
  6
DASHED2
 62
     3
100
AcDbCircle
 10
714.9804014735519
 20
709.2762801377419
 30
0.0
 40
0.08
100
AcDbArc
 50
179.9999999999998
 51
269.9999999999997
  0
LINE
  5
3E4
330
6F
100
AcDbEntity
  8
_0-1_計細線
  6
DASHED2
 62
     3
100
AcDbLine
 10
714.4204014735519
 20
708.6362801377417
 30
0.0
 11
714.4204014735519
 21
708.076280137742
 31
0.0
  0
LINE
  5
3E5
330
6F
100
AcDbEntity
  8
_0-1_計細線
  6
DASHED2
 62
     3
100
AcDbLine
 10
714.4204014735519
 20
708.6362801377417
 30
0.0
 11
714.4204014735519
 21
708.076280137742
 31
0.0
  0
LINE
  5
3E6
330
6F
100
AcDbEntity
  8
_0-1_計細線
  6
DASHED2
 62
     3
100
AcDbLine
 10
714.900401473552
 20
708.6362801377417
 30
0.0
 11
714.900401473552
 21
708.076280137742
 31
0.0
  0
LINE
  5
3E7
330
6F
100
AcDbEntity
  8
_0-1_計細線
  6
DASHED2
 62
     3
100
AcDbLine
 10
714.4204014735519
 20
708.076280137742
 30
0.0
 11
714.900401473552
 21
708.076280137742
 31
0.0
  0
LINE
  5
3E8
330
6F
100
AcDbEntity
  8
_0-1_計細線
  6
DASHED2
 62
     3
100
AcDbLine
 10
715.5404014735519
 20
709.1962801377417
 30
0.0
 11
715.5404014735519
 21
708.7162801377417
 31
0.0
  0
LINE
  5
3E9
330
6F
100
AcDbEntity
  8
_0-1_計細線
  6
DASHED2
 62
     3
100
AcDbLine
 10
714.9804014735519
 20
708.7162801377417
 30
0.0
 11
715.5404014735519
 21
708.7162801377417
 31
0.0
  0
LINE
  5
3EA
330
6F
100
AcDbEntity
  8
_0-1_計細線
  6
DASHED2
 62
     3
100
AcDbLine
 10
714.9804014735519
 20
709.1962801377417
 30
0.0
 11
715.5404014735519
 21
709.1962801377417
 31
0.0
  0
LINE
  5
3EB
330
6F
100
AcDbEntity
  8
_0-1_計細線
  6
DASHED2
 62
     3
100
AcDbLine
 10
713.780401473552
 20
709.1962801377417
 30
0.0
 11
713.780401473552
 21
708.7162801377417
 31
0.0
  0
LINE
  5
3EC
330
6F
100
AcDbEntity
  8
_0-1_計細線
  6
DASHED2
 62
     3
100
AcDbLine
 10
714.4204014735519
 20
709.8362801377417
 30
0.0
 11
714.900401473552
 21
709.8362801377417
 31
0.0
  0
LINE
  5
3ED
330
6F
100
AcDbEntity
  8
_0-1_計細線
  6
DASHED2
 62
     3
100
AcDbLine
 10
975.2604014735519
 20
290.7562801377417
 30
0.0
 11
974.0604014735533
 21
290.7562801377419
 31
0.0
  0
CIRCLE
  5
3EE
330
6F
100
AcDbEntity
  8
_0-1_計細線
  6
DASHED2
 62
     3
100
AcDbCircle
 10
974.6604014735527
 20
292.9562801377417
 30
0.0
 40
2.75
  0
LINE
  5
3EF
330
6F
100
AcDbEntity
  8
_0-1_計細線
  6
DASHED2
 62
     3
100
AcDbLine
 10
976.8604014735524
 20
292.3562801377416
 30
0.0
 11
975.460401473553
 21
292.3562801377419
 31
0.0
  0
LINE
  5
3F0
330
6F
100
AcDbEntity
  8
_0-1_計細線
  6
DASHED2
 62
     3
100
AcDbLine
 10
976.8604014735524
 20
293.5562801377417
 30
0.0
 11
975.460401473553
 21
293.5562801377417
 31
0.0
  0
CIRCLE
  5
3F1
330
6F
100
AcDbEntity
  8
_0-1_計細線
  6
DASHED2
 62
     3
100
AcDbCircle
 10
974.6604014735527
 20
292.9562801377417
 30
0.0
 40
4.000000000000001
  0
LINE
  5
3F2
330
6F
100
AcDbEntity
  8
_0-1_計細線
  6
DASHED2
 62
     3
100
AcDbLine
 10
975.2604014735519
 20
295.1562801377416
 30
0.0
 11
974.0604014735533
 21
295.1562801377418
 31
0.0
  0
ARC
  5
3F3
330
6F
100
AcDbEntity
  8
_0-1_計細線
  6
DASHED2
 62
     3
100
AcDbCircle
 10
973.8604014735525
 20
292.1562801377418
 30
0.0
 40
0.2000000000000001
100
AcDbArc
 50
0.0
 51
89.99999999999991
  0
LINE
  5
3F4
330
6F
100
AcDbEntity
  8
_0-1_計細線
  6
DASHED2
 62
     3
100
AcDbLine
 10
974.0604014735533
 20
290.7562801377417
 30
0.0
 11
974.0604014735533
 21
292.1562801377418
 31
0.0
  0
ARC
  5
3F5
330
6F
100
AcDbEntity
  8
_0-1_計細線
  6
DASHED2
 62
     3
100
AcDbCircle
 10
973.8604014735525
 20
293.7562801377417
 30
0.0
 40
0.2000000000000001
100
AcDbArc
 50
269.9999999999997
 51
359.9999999999997
  0
LINE
  5
3F6
330
6F
100
AcDbEntity
  8
_0-1_計細線
  6
DASHED2
 62
     3
100
AcDbLine
 10
974.0604014735522
 20
293.7562801377417
 30
0.0
 11
974.0604014735533
 21
295.1562801377418
 31
0.0
  0
LINE
  5
3F7
330
6F
100
AcDbEntity
  8
_0-1_計細線
  6
DASHED2
 62
     3
100
AcDbLine
 10
972.4604014735527
 20
292.3562801377416
 30
0.0
 11
972.4604014735527
 21
293.5562801377417
 31
0.0
  0
LINE
  5
3F8
330
6F
100
AcDbEntity
  8
_0-1_計細線
  6
DASHED2
 62
     3
100
AcDbLine
 10
973.8604014735525
 20
292.3562801377419
 30
0.0
 11
972.4604014735527
 21
292.3562801377416
 31
0.0
  0
LINE
  5
3F9
330
6F
100
AcDbEntity
  8
_0-1_計細線
  6
DASHED2
 62
     3
100
AcDbLine
 10
973.8604014735525
 20
293.5562801377417
 30
0.0
 11
972.4604014735527
 21
293.5562801377417
 31
0.0
  0
LINE
  5
3FA
330
6F
100
AcDbEntity
  8
_0-1_計細線
  6
DASHED2
 62
     3
100
AcDbLine
 10
975.2604014735519
 20
290.7562801377417
 30
0.0
 11
975.2604014735519
 21
292.1562801377418
 31
0.0
  0
LINE
  5
3FB
330
6F
100
AcDbEntity
  8
_0-1_計細線
  6
DASHED2
 62
     3
100
AcDbLine
 10
975.2604014735519
 20
290.7562801377417
 30
0.0
 11
975.2604014735519
 21
292.1562801377418
 31
0.0
  0
ARC
  5
3FC
330
6F
100
AcDbEntity
  8
_0-1_計細線
  6
DASHED2
 62
     3
100
AcDbCircle
 10
975.460401473553
 20
292.1562801377418
 30
0.0
 40
0.2000000000000001
100
AcDbArc
 50
89.99999999999991
 51
179.9999999999998
  0
ARC
  5
3FD
330
6F
100
AcDbEntity
  8
_0-1_計細線
  6
DASHED2
 62
     3
100
AcDbCircle
 10
975.460401473553
 20
293.7562801377417
 30
0.0
 40
0.2000000000000001
100
AcDbArc
 50
179.9999999999998
 51
269.9999999999997
  0
LINE
  5
3FE
330
6F
100
AcDbEntity
  8
_0-1_計細線
  6
DASHED2
 62
     3
100
AcDbLine
 10
975.2604014735519
 20
293.7562801377417
 30
0.0
 11
975.2604014735519
 21
295.1562801377418
 31
0.0
  0
LINE
  5
3FF
330
6F
100
AcDbEntity
  8
_0-1_計細線
  6
DASHED2
 62
     3
100
AcDbLine
 10
975.2604014735519
 20
293.7562801377417
 30
0.0
 11
975.2604014735519
 21
295.1562801377418
 31
0.0
  0
LINE
  5
400
330
6F
100
AcDbEntity
  8
_0-1_計細線
  6
DASHED2
 62
     3
100
AcDbLine
 10
976.8604014735524
 20
292.3562801377416
 30
0.0
 11
976.8604014735524
 21
293.5562801377417
 31
0.0
  0
LINE
  5
401
330
6F
100
AcDbEntity
  8
_0-0_計極細
  6
CENTER1
 62
     2
100
AcDbLine
 10
974.6604014735527
 20
279.7681784019508
 30
0.0
 11
974.6604014735527
 21
302.4562801377418
 31
0.0
  0
LINE
  5
402
330
6F
100
AcDbEntity
  8
_0-1_計細線
  6
DASHED2
 62
     3
100
AcDbLine
 10
983.6604014735526
 20
700.2062830101412
 30
0.0
 11
982.5604014735526
 21
704.7062822081888
 31
0.0
  0
LINE
  5
403
330
6F
100
AcDbEntity
  8
_0-1_計細線
  6
DASHED2
 62
     3
100
AcDbLine
 10
982.1604014735527
 20
704.7062819165695
 30
0.0
 11
982.1604014735527
 21
700.2062819165688
 31
0.0
  0
CIRCLE
  5
404
330
6F
100
AcDbEntity
  8
_0-1_計細線
  6
DASHED2
 62
     3
100
AcDbCircle
 10
987.1604014735527
 20
702.4562855618103
 30
0.0
 40
1.0
  0
LINE
  5
405
330
6F
100
AcDbEntity
  8
_0-1_計細線
  6
DASHED2
 62
     3
100
AcDbLine
 10
989.6604014735528
 20
700.2062873844306
 30
0.0
 11
989.6604014735528
 21
704.7062873844313
 31
0.0
  0
ARC
  5
406
330
6F
100
AcDbEntity
  8
_0-1_計細線
  6
DASHED2
 62
     3
100
AcDbCircle
 10
974.4104014735521
 20
710.9562764122569
 30
0.0
 40
2.0
100
AcDbArc
 50
90.00000835426945
 51
179.9999999999998
  0
LINE
  5
407
330
6F
100
AcDbEntity
  8
_0-1_計細線
  6
DASHED2
 62
     3
100
AcDbLine
 10
974.4104011819331
 20
712.9562764122568
 30
0.0
 11
974.9104011819332
 21
712.9562764851619
 31
0.0
  0
ARC
  5
408
330
6F
100
AcDbEntity
  8
_0-1_計細線
  6
DASHED2
 62
     3
100
AcDbCircle
 10
974.910401473552
 20
710.9562764851618
 30
0.0
 40
2.0
100
AcDbArc
 50
0.0
 51
90.00000835426945
  0
LINE
  5
409
330
6F
100
AcDbEntity
  8
_0-1_計細線
  6
DASHED2
 62
     3
100
AcDbLine
 10
967.1604014735519
 20
704.7062819165695
 30
0.0
 11
967.1604014735519
 21
700.2062819165688
 31
0.0
  0
LINE
  5
40A
330
6F
100
AcDbEntity
  8
_0-1_計細線
  6
DASHED2
 62
     3
100
AcDbLine
 10
959.6604014735518
 20
700.2062655129832
 30
0.0
 11
959.6604014735518
 21
704.7062655129836
 31
0.0
  0
CIRCLE
  5
40B
330
6F
100
AcDbEntity
  8
_0-1_計細線
  6
DASHED2
 62
     3
100
AcDbCircle
 10
962.1604014735519
 20
702.4562673356038
 30
0.0
 40
1.0
  0
LINE
  5
40C
330
6F
100
AcDbEntity
  8
_0-1_計細線
  6
DASHED2
 62
     3
100
AcDbLine
 10
965.660401473552
 20
700.2062830101412
 30
0.0
 11
966.7604014735523
 21
704.7062822081888
 31
0.0
  0
LINE
  5
40D
330
6F
100
AcDbEntity
  8
_0-1_計細線
  6
DASHED2
 62
     3
100
AcDbLine
 10
976.9104014735519
 20
710.9562764851618
 30
0.0
 11
976.9104014735519
 21
704.7062773600178
 31
0.0
  0
LINE
  5
40E
330
6F
100
AcDbEntity
  8
_0-1_計細線
  6
DASHED2
 62
     3
100
AcDbLine
 10
972.4104014735519
 20
710.9562764122569
 30
0.0
 11
972.4104014735519
 21
704.7062755373973
 31
0.0
  0
LINE
  5
40F
330
6F
100
AcDbEntity
  8
_0-1_計細線
  6
DASHED2
 62
     3
100
AcDbLine
 10
959.6604014735518
 20
700.2062655129832
 30
0.0
 11
989.6604014735528
 21
700.2062873844306
 31
0.0
  0
LINE
  5
410
330
6F
100
AcDbEntity
  8
_0-1_計細線
  6
DASHED2
 62
     3
100
AcDbLine
 10
959.6604014735518
 20
704.7062655129836
 30
0.0
 11
989.6604014735528
 21
704.7062873844313
 31
0.0
  0
ARC
  5
411
330
6F
100
AcDbEntity
  8
_0-1_計細線
  6
DASHED2
 62
     3
100
AcDbCircle
 10
974.4104014735521
 20
693.9562764122524
 30
0.0
 40
2.0
100
AcDbArc
 50
179.9999999999998
 51
270.0000083542951
  0
ARC
  5
412
330
6F
100
AcDbEntity
  8
_0-1_計細線
  6
DASHED2
 62
     3
100
AcDbCircle
 10
974.910401473552
 20
693.9562764851574
 30
0.0
 40
2.0
100
AcDbArc
 50
270.0000083542951
 51
359.9999999999997
  0
LINE
  5
413
330
6F
100
AcDbEntity
  8
_0-1_計細線
  6
DASHED2
 62
     3
100
AcDbLine
 10
976.9104014735519
 20
700.2062773600175
 30
0.0
 11
976.9104014735519
 21
693.9562764851574
 31
0.0
  0
LINE
  5
414
330
6F
100
AcDbEntity
  8
_0-1_計細線
  6
DASHED2
 62
     3
100
AcDbLine
 10
972.4104014735519
 20
700.2062755373965
 30
0.0
 11
972.4104014735519
 21
693.9562764122524
 31
0.0
  0
LINE
  5
415
330
6F
100
AcDbEntity
  8
_0-1_計細線
  6
DASHED2
 62
     3
100
AcDbLine
 10
974.4204014735524
 20
709.8362801377417
 30
0.0
 11
974.4204014735524
 21
709.2762801377419
 31
0.0
  0
LINE
  5
416
330
6F
100
AcDbEntity
  8
_0-1_計細線
  6
DASHED2
 62
     3
100
AcDbLine
 10
974.9004014735525
 20
709.8362801377417
 30
0.0
 11
974.9004014735525
 21
709.2762801377419
 31
0.0
  0
LINE
  5
417
330
6F
100
AcDbEntity
  8
_0-1_計細線
  6
DASHED2
 62
     3
100
AcDbLine
 10
974.9004014735525
 20
709.8362801377417
 30
0.0
 11
974.9004014735525
 21
709.2762801377419
 31
0.0
  0
CIRCLE
  5
418
330
6F
100
AcDbEntity
  8
_0-1_計細線
  6
DASHED2
 62
     3
100
AcDbCircle
 10
974.6604014735519
 20
708.9562801377417
 30
0.0
 40
1.6
  0
LINE
  5
419
330
6F
100
AcDbEntity
  8
_0-1_計細線
  6
DASHED2
 62
     3
100
AcDbLine
 10
975.5404014735523
 20
708.7162801377417
 30
0.0
 11
974.9804014735524
 21
708.7162801377417
 31
0.0
  0
LINE
  5
41A
330
6F
100
AcDbEntity
  8
_0-1_計細線
  6
DASHED2
 62
     3
100
AcDbLine
 10
975.5404014735523
 20
709.1962801377417
 30
0.0
 11
974.9804014735524
 21
709.1962801377417
 31
0.0
  0
ARC
  5
41B
330
6F
100
AcDbEntity
  8
_0-1_計細線
  6
DASHED2
 62
     3
100
AcDbCircle
 10
974.9804014735524
 20
709.2762801377419
 30
0.0
 40
0.08
100
AcDbArc
 50
179.9999999999998
 51
269.9999999999997
  0
ARC
  5
41C
330
6F
100
AcDbEntity
  8
_0-1_計細線
  6
DASHED2
 62
     3
100
AcDbCircle
 10
974.9804014735524
 20
708.6362801377417
 30
0.0
 40
0.08
100
AcDbArc
 50
89.99999999999991
 51
179.9999999999998
  0
ARC
  5
41D
330
6F
100
AcDbEntity
  8
_0-1_計細線
  6
DASHED2
 62
     3
100
AcDbCircle
 10
974.3404014735524
 20
708.6362801377417
 30
0.0
 40
0.08
100
AcDbArc
 50
0.0
 51
89.99999999999991
  0
ARC
  5
41E
330
6F
100
AcDbEntity
  8
_0-1_計細線
  6
DASHED2
 62
     3
100
AcDbCircle
 10
974.3404014735524
 20
709.2762801377419
 30
0.0
 40
0.08
100
AcDbArc
 50
269.9999999999997
 51
359.9999999999997
  0
LINE
  5
41F
330
6F
100
AcDbEntity
  8
_0-1_計細線
  6
DASHED2
 62
     3
100
AcDbLine
 10
974.9004014735525
 20
708.6362801377417
 30
0.0
 11
974.9004014735525
 21
708.076280137742
 31
0.0
  0
LINE
  5
420
330
6F
100
AcDbEntity
  8
_0-1_計細線
  6
DASHED2
 62
     3
100
AcDbLine
 10
974.9004014735525
 20
708.6362801377417
 30
0.0
 11
974.9004014735525
 21
708.076280137742
 31
0.0
  0
LINE
  5
421
330
6F
100
AcDbEntity
  8
_0-1_計細線
  6
DASHED2
 62
     3
100
AcDbLine
 10
974.4204014735524
 20
708.6362801377417
 30
0.0
 11
974.4204014735524
 21
708.076280137742
 31
0.0
  0
LINE
  5
422
330
6F
100
AcDbEntity
  8
_0-1_計細線
  6
DASHED2
 62
     3
100
AcDbLine
 10
974.9004014735525
 20
708.076280137742
 30
0.0
 11
974.4204014735524
 21
708.076280137742
 31
0.0
  0
LINE
  5
423
330
6F
100
AcDbEntity
  8
_0-1_計細線
  6
DASHED2
 62
     3
100
AcDbLine
 10
973.7804014735523
 20
709.1962801377417
 30
0.0
 11
973.7804014735523
 21
708.7162801377417
 31
0.0
  0
LINE
  5
424
330
6F
100
AcDbEntity
  8
_0-1_計細線
  6
DASHED2
 62
     3
100
AcDbLine
 10
974.3404014735524
 20
708.7162801377417
 30
0.0
 11
973.7804014735523
 21
708.7162801377417
 31
0.0
  0
LINE
  5
425
330
6F
100
AcDbEntity
  8
_0-1_計細線
  6
DASHED2
 62
     3
100
AcDbLine
 10
974.3404014735524
 20
709.1962801377417
 30
0.0
 11
973.7804014735523
 21
709.1962801377417
 31
0.0
  0
LINE
  5
426
330
6F
100
AcDbEntity
  8
_0-1_計細線
  6
DASHED2
 62
     3
100
AcDbLine
 10
975.5404014735523
 20
709.1962801377417
 30
0.0
 11
975.5404014735523
 21
708.7162801377417
 31
0.0
  0
LINE
  5
427
330
6F
100
AcDbEntity
  8
_0-1_計細線
  6
DASHED2
 62
     3
100
AcDbLine
 10
974.9004014735525
 20
709.8362801377417
 30
0.0
 11
974.4204014735524
 21
709.8362801377417
 31
0.0
  0
LINE
  5
428
330
6F
100
AcDbEntity
  8
_0-0_計極細
  6
CENTER1
 62
     2
100
AcDbLine
 10
974.6604014735533
 20
713.6811579662496
 30
0.0
 11
974.6604014735533
 21
694.0607200100453
 31
0.0
  0
LINE
  5
429
330
6F
100
AcDbEntity
  8
_0-1_計細線
  6
Continuous
 62
     3
100
AcDbLine
 10
664.1604014735524
 20
716.4562801377418
 30
0.0
 11
692.1604014735514
 21
716.4562801377418
 31
0.0
  0
LINE
  5
42A
330
6F
100
AcDbEntity
  8
_0-1_計細線
  6
Continuous
 62
     3
100
AcDbLine
 10
664.1604014735524
 20
724.9562801377416
 30
0.0
 11
664.1604014735524
 21
716.4562801377418
 31
0.0
  0
LINE
  5
42B
330
6F
100
AcDbEntity
  8
_0-1_計細線
  6
Continuous
 62
     3
100
AcDbLine
 10
692.1604014735514
 20
276.4562801377416
 30
0.0
 11
664.1604014735524
 21
276.4562801377416
 31
0.0
  0
LINE
  5
42C
330
6F
100
AcDbEntity
  8
_0-1_計細線
  6
Continuous
 62
     3
100
AcDbLine
 10
664.1604014735524
 20
267.9562801377417
 30
0.0
 11
664.1604014735524
 21
276.4562801377416
 31
0.0
  0
LINE
  5
42D
330
6F
100
AcDbEntity
  8
_0-1_計細線
  6
Continuous
 62
     3
100
AcDbLine
 10
997.1604014735527
 20
716.4562801377418
 30
0.0
 11
1025.160401473552
 21
716.4562801377418
 31
0.0
  0
LINE
  5
42E
330
6F
100
AcDbEntity
  8
_0-1_計細線
  6
Continuous
 62
     3
100
AcDbLine
 10
1025.160401473552
 20
724.9562801377416
 30
0.0
 11
1025.160401473552
 21
716.4562801377418
 31
0.0
  0
LINE
  5
42F
330
6F
100
AcDbEntity
  8
_0-1_計細線
  6
Continuous
 62
     3
100
AcDbLine
 10
1025.160401473552
 20
276.4562801377416
 30
0.0
 11
997.1604014735527
 21
276.4562801377416
 31
0.0
  0
LINE
  5
430
330
6F
100
AcDbEntity
  8
_0-1_計細線
  6
Continuous
 62
     3
100
AcDbLine
 10
1025.160401473552
 20
267.9562801377417
 30
0.0
 11
1025.160401473552
 21
276.4562801377416
 31
0.0
  0
LINE
  5
431
330
6F
100
AcDbEntity
  8
_0-0_計極細
  6
CENTER1
 62
     2
100
AcDbLine
 10
1040.559599261454
 20
496.4562801377417
 30
0.0
 11
653.8496260456189
 21
496.4562801377417
 31
0.0
  0
LINE
  5
432
330
6F
100
AcDbEntity
  8
_0-1_計細線
  6
Continuous
 62
     3
100
AcDbLine
 10
1025.160401473552
 20
724.9562801377416
 30
0.0
 11
664.1604014735524
 21
724.9562801377416
 31
0.0
  0
LINE
  5
433
330
6F
100
AcDbEntity
  8
_0-1_計細線
  6
Continuous
 62
     3
100
AcDbLine
 10
1025.160401473552
 20
267.9562801377417
 30
0.0
 11
664.1604014735524
 21
267.9562801377417
 31
0.0
  0
LINE
  5
434
330
6F
100
AcDbEntity
  8
_0-0_計極細
  6
CENTER1
 62
     2
100
AcDbLine
 10
1025.160401473553
 20
708.9562801377417
 30
0.0
 11
664.1604014735526
 21
708.9562801377417
 31
0.0
  0
LINE
  5
435
330
6F
100
AcDbEntity
  8
_0-0_計極細
  6
CENTER1
 62
     2
100
AcDbLine
 10
1025.160401473552
 20
292.9562801377417
 30
0.0
 11
664.1604014735526
 21
292.9562801377417
 31
0.0
  0
TEXT
  5
436
330
6F
100
AcDbEntity
  8
_0-7_枠細線
 62
     5
100
AcDbText
 10
965.4999999999999
 20
110.0
 30
0.0
 40
20.0
  1
ＫＳＮ－３５４５
 41
0.6
100
AcDbText
  0
CIRCLE
  5
437
330
6F
100
AcDbEntity
  8
_0-7_枠細線
  6
Continuous
 62
     5
100
AcDbCircle
 10
442.7415099045776
 20
284.708362143539
 30
0.0
 40
40.0
  0
TEXT
  5
438
330
6F
100
AcDbEntity
  8
_0-7_枠細線
 62
     5
100
AcDbText
 10
391.4964488034067
 20
654.3816772994341
 30
0.0
 40
15.0
  1
Ｂ部
100
AcDbText
  0
TEXT
  5
439
330
6F
100
AcDbEntity
  8
_0-7_枠細線
 62
     5
100
AcDbText
 10
391.4964488034067
 20
323.2676651149262
 30
0.0
 40
15.0
  1
Ｃ部
100
AcDbText
  0
ENDSEC
  0
SECTION
  2
OBJECTS
  0
DICTIONARY
  5
C
330
0
100
AcDbDictionary
281
     1
  3
ACAD_CIP_PREVIOUS_PRODUCT_INFO
350
43B
  3
ACAD_COLOR
350
62
  3
ACAD_DETAILVIEWSTYLE
350
69
  3
ACAD_GROUP
350
D
  3
ACAD_LAYOUT
350
61
  3
ACAD_MATERIAL
350
10
  3
ACAD_MLEADERSTYLE
350
65
  3
ACAD_MLINESTYLE
350
5E
  3
ACAD_PLOTSETTINGS
350
60
  3
ACAD_PLOTSTYLENAME
350
E
  3
ACAD_SCALELIST
350
42
  3
ACAD_SECTIONVIEWSTYLE
350
67
  3
ACAD_TABLESTYLE
350
63
  3
ACAD_VISUALSTYLE
350
29
  3
ACDB_RECOMPOSE_DATA
350
498
  3
AcDbVariableDictionary
350
474
  3
AcDsDecomposeData
350
49F
  3
DWGPROPS
350
499
  0
DICTIONARY
  5
469
330
2
100
AcDbDictionary
280
     1
281
     1
  3
ACAD_LAYERSTATES
360
46A
  0
DICTIONARY
  5
43C
330
54
100
AcDbDictionary
280
     1
281
     1
  3
ADSK_XREC_LAYER_RECONCILED
360
43D
  0
DICTIONARY
  5
43E
330
96
100
AcDbDictionary
280
     1
281
     1
  3
ADSK_XREC_LAYER_RECONCILED
360
43F
  0
DICTIONARY
  5
440
330
97
100
AcDbDictionary
280
     1
281
     1
  3
ADSK_XREC_LAYER_RECONCILED
360
441
  0
DICTIONARY
  5
442
330
98
100
AcDbDictionary
280
     1
281
     1
  3
ADSK_XREC_LAYER_RECONCILED
360
443
  0
DICTIONARY
  5
444
330
99
100
AcDbDictionary
280
     1
281
     1
  3
ADSK_XREC_LAYER_RECONCILED
360
445
  0
DICTIONARY
  5
446
330
9A
100
AcDbDictionary
280
     1
281
     1
  3
ADSK_XREC_LAYER_RECONCILED
360
447
  0
DICTIONARY
  5
448
330
9B
100
AcDbDictionary
280
     1
281
     1
  3
ADSK_XREC_LAYER_RECONCILED
360
449
  0
DICTIONARY
  5
44A
330
9C
100
AcDbDictionary
280
     1
281
     1
  3
ADSK_XREC_LAYER_RECONCILED
360
44B
  0
DICTIONARY
  5
44C
330
9D
100
AcDbDictionary
280
     1
281
     1
  3
ADSK_XREC_LAYER_RECONCILED
360
44D
  0
DICTIONARY
  5
44E
330
9E
100
AcDbDictionary
280
     1
281
     1
  3
ADSK_XREC_LAYER_RECONCILED
360
44F
  0
DICTIONARY
  5
450
330
9F
100
AcDbDictionary
280
     1
281
     1
  3
ADSK_XREC_LAYER_RECONCILED
360
451
  0
DICTIONARY
  5
452
330
A0
100
AcDbDictionary
280
     1
281
     1
  3
ADSK_XREC_LAYER_RECONCILED
360
453
  0
DICTIONARY
  5
454
330
A1
100
AcDbDictionary
280
     1
281
     1
  3
ADSK_XREC_LAYER_RECONCILED
360
455
  0
XRECORD
  5
43B
102
{ACAD_REACTORS
330
C
102
}
330
C
100
AcDbXrecord
280
     1
300
ACDLT
300
2014
300
ACDLT_F_S
  0
DICTIONARY
  5
62
102
{ACAD_REACTORS
330
C
102
}
330
C
100
AcDbDictionary
281
     1
  0
DICTIONARY
  5
69
102
{ACAD_REACTORS
330
C
102
}
330
C
100
AcDbDictionary
281
     1
  3
Imperial24
350
6A
  0
DICTIONARY
  5
D
102
{ACAD_REACTORS
330
C
102
}
330
C
100
AcDbDictionary
281
     1
  0
DICTIONARY
  5
61
102
{ACAD_REACTORS
330
C
102
}
330
C
100
AcDbDictionary
281
     1
  3
Model
350
72
  3
レイアウト1
350
6E
  0
DICTIONARY
  5
10
102
{ACAD_REACTORS
330
C
102
}
330
C
100
AcDbDictionary
281
     1
  3
ByBlock
350
19
  3
ByLayer
350
11
  3
Global
350
21
  0
DICTIONARY
  5
65
102
{ACAD_REACTORS
330
C
102
}
330
C
100
AcDbDictionary
281
     1
  3
Standard
350
66
  0
DICTIONARY
  5
5E
102
{ACAD_REACTORS
330
C
102
}
330
C
100
AcDbDictionary
281
     1
  3
Standard
350
5F
  0
DICTIONARY
  5
60
102
{ACAD_REACTORS
330
C
102
}
330
C
100
AcDbDictionary
281
     1
  0
ACDBDICTIONARYWDFLT
  5
E
102
{ACAD_REACTORS
330
C
102
}
330
C
100
AcDbDictionary
281
     1
  3
Normal
350
F
100
AcDbDictionaryWithDefault
340
F
  0
DICTIONARY
  5
42
102
{ACAD_REACTORS
330
C
102
}
330
C
100
AcDbDictionary
281
     1
  3
A0
350
43
  3
A1
350
44
  3
A2
350
45
  3
A3
350
46
  3
A4
350
47
  3
A5
350
48
  3
A6
350
49
  3
A7
350
4A
  3
A8
350
4B
  3
A9
350
4C
  3
B0
350
4D
  3
B1
350
4E
  3
B2
350
4F
  3
B3
350
50
  3
B4
350
51
  3
B5
350
52
  3
B6
350
53
  0
DICTIONARY
  5
67
102
{ACAD_REACTORS
330
C
102
}
330
C
100
AcDbDictionary
281
     1
  3
Imperial24
350
68
  0
DICTIONARY
  5
63
102
{ACAD_REACTORS
330
C
102
}
330
C
100
AcDbDictionary
281
     1
  3
Standard
350
64
  0
DICTIONARY
  5
29
102
{ACAD_REACTORS
330
C
102
}
330
C
100
AcDbDictionary
281
     1
  3
2dWireframe
350
2F
  3
Basic
350
2E
  3
Brighten
350
35
  3
ColorChange
350
39
  3
Conceptual
350
32
  3
Dim
350
34
  3
EdgeColorOff
350
41
  3
Facepattern
350
38
  3
Flat
350
2A
  3
FlatWithEdges
350
2B
  3
Gouraud
350
2C
  3
GouraudWithEdges
350
2D
  3
Hidden
350
31
  3
JitterOff
350
3F
  3
Linepattern
350
37
  3
OverhangOff
350
40
  3
Realistic
350
33
  3
Shaded
350
3E
  3
Shaded with edges
350
3D
  3
Shades of Gray
350
3A
  3
Sketchy
350
3B
  3
Thicken
350
36
  3
Wireframe
350
30
  3
X-Ray
350
3C
  0
XRECORD
  5
498
102
{ACAD_REACTORS
330
C
102
}
330
C
100
AcDbXrecord
280
     1
 90
        1
330
64
  0
DICTIONARY
  5
474
102
{ACAD_REACTORS
330
C
102
}
330
C
100
AcDbDictionary
281
     1
  3
CANNOSCALE
350
47A
  3
CMLEADERSTYLE
350
476
  3
CTABLESTYLE
350
475
  3
CVIEWDETAILSTYLE
350
477
  3
CVIEWSECTIONSTYLE
350
478
  3
DIMASSOC
350
494
  3
INDEXCTL
350
493
  3
LAYEREVAL
350
47C
  3
LAYERNOTIFY
350
47D
  3
LIGHTINGUNITS
350
47B
  3
MSLTSCALE
350
479
  3
SORTENTS
350
492
  3
XCLIPFRAME
350
495
  0
DICTIONARY
  5
49F
102
{ACAD_REACTORS
330
C
102
}
330
C
100
AcDbDictionary
281
     1
  3
AcDsRecords
350
4A1
  3
AcDsSchemas
350
4A0
1001
ACAD
1070
     2
  0
XRECORD
  5
499
102
{ACAD_REACTORS
330
C
102
}
330
C
100
AcDbXrecord
280
     1
  1
DWGPROPS COOKIE
  2

  3

  4

  6

  7

  8
shima022
  9

300
=
301
=
302
=
303
=
304
=
305
=
306
=
307
=
308
=
309
=
 40
0.0023654050925926
 41
2457892.637342396
 42
2457892.641157512
  1

 90
        0
  0
DICTIONARY
  5
46A
102
{ACAD_REACTORS
330
469
102
}
330
469
100
AcDbDictionary
281
     1
  0
XRECORD
  5
43D
102
{ACAD_REACTORS
330
43C
102
}
330
43C
100
AcDbXrecord
280
     1
290
     1
  0
XRECORD
  5
43F
102
{ACAD_REACTORS
330
43E
102
}
330
43E
100
AcDbXrecord
280
     1
290
     1
  0
XRECORD
  5
441
102
{ACAD_REACTORS
330
440
102
}
330
440
100
AcDbXrecord
280
     1
290
     1
  0
XRECORD
  5
443
102
{ACAD_REACTORS
330
442
102
}
330
442
100
AcDbXrecord
280
     1
290
     1
  0
XRECORD
  5
445
102
{ACAD_REACTORS
330
444
102
}
330
444
100
AcDbXrecord
280
     1
290
     1
  0
XRECORD
  5
447
102
{ACAD_REACTORS
330
446
102
}
330
446
100
AcDbXrecord
280
     1
290
     1
  0
XRECORD
  5
449
102
{ACAD_REACTORS
330
448
102
}
330
448
100
AcDbXrecord
280
     1
290
     1
  0
XRECORD
  5
44B
102
{ACAD_REACTORS
330
44A
102
}
330
44A
100
AcDbXrecord
280
     1
290
     1
  0
XRECORD
  5
44D
102
{ACAD_REACTORS
330
44C
102
}
330
44C
100
AcDbXrecord
280
     1
290
     1
  0
XRECORD
  5
44F
102
{ACAD_REACTORS
330
44E
102
}
330
44E
100
AcDbXrecord
280
     1
290
     1
  0
XRECORD
  5
451
102
{ACAD_REACTORS
330
450
102
}
330
450
100
AcDbXrecord
280
     1
290
     1
  0
XRECORD
  5
453
102
{ACAD_REACTORS
330
452
102
}
330
452
100
AcDbXrecord
280
     1
290
     1
  0
XRECORD
  5
455
102
{ACAD_REACTORS
330
454
102
}
330
454
100
AcDbXrecord
280
     1
290
     1
  0
ACDBDETAILVIEWSTYLE
  5
6A
102
{ACAD_XDICTIONARY
360
471
102
}
102
{ACAD_REACTORS
330
69
102
}
330
69
100
AcDbModelDocViewStyle
 70
     0
  3
Imperial24
290
     0
100
AcDbDetailViewStyle
 70
     0
 71
     0
 90
        3
 71
     1
340
55
 40
0.24
340
0
 40
0.24
300

 40
0.36
280
     3
 71
     2
340
5C
 90
       25
 71
     3
340
55
 40
0.24
 90
        1
 40
0.75
 90
        1
300
%<\AcVar ViewType \f "%tc1">% %<\AcVar ViewDetailId>%\PSCALE %<\AcVar ViewScale \f "%sn">%
 71
     4
340
5C
 90
       25
340
5C
 90
       25
280
     0
  0
LAYOUT
  5
72
102
{ACAD_XDICTIONARY
360
4DB
102
}
102
{ACAD_REACTORS
330
61
102
}
330
61
100
AcDbPlotSettings
  1

  2
RICOH MP C3503 JPN RPCS
  4

  6

 40
0.0
 41
0.0
 42
0.0
 43
0.0
 44
0.0
 45
0.0
 46
0.0
 47
0.0
 48
0.0
 49
0.0
140
0.0
141
0.0
142
1.0
143
1.0
 70
  1712
 72
     0
 73
     0
 74
     0
  7

 75
     0
147
1.0
148
0.0
149
0.0
100
AcDbLayout
  1
Model
 70
     1
 71
     0
 10
0.0
 20
0.0
 11
12.0
 21
9.0
 12
0.0
 22
0.0
 32
0.0
 14
0.0
 24
0.0
 34
0.0
 15
0.0
 25
0.0
 35
0.0
146
0.0
 13
0.0
 23
0.0
 33
0.0
 16
1.0
 26
0.0
 36
0.0
 17
0.0
 27
1.0
 37
0.0
 76
     0
330
6F
331
A4
  0
LAYOUT
  5
6E
102
{ACAD_XDICTIONARY
360
4D9
102
}
102
{ACAD_REACTORS
330
61
102
}
330
61
100
AcDbPlotSettings
  1

  2
RICOH MP C3503 JPN RPCS
  4

  6

 40
0.0
 41
0.0
 42
0.0
 43
0.0
 44
0.0
 45
0.0
 46
0.0
 47
0.0
 48
0.0
 49
0.0
140
0.0
141
0.0
142
1.0
143
1.0
 70
   688
 72
     0
 73
     0
 74
     5
  7

 75
    16
147
1.0
148
0.0
149
0.0
100
AcDbLayout
  1
レイアウト1
 70
     1
 71
     1
 10
0.0
 20
0.0
 11
12.0
 21
9.0
 12
0.0
 22
0.0
 32
0.0
 14
1.000000000000000E+20
 24
1.000000000000000E+20
 34
1.000000000000000E+20
 15
-1.000000000000000E+20
 25
-1.000000000000000E+20
 35
-1.000000000000000E+20
146
0.0
 13
0.0
 23
0.0
 33
0.0
 16
1.0
 26
0.0
 36
0.0
 17
0.0
 27
1.0
 37
0.0
 76
     0
330
6B
  0
MATERIAL
  5
19
102
{ACAD_XDICTIONARY
360
1A
102
}
102
{ACAD_REACTORS
330
10
102
}
330
10
100
AcDbMaterial
  1
ByBlock
 72
     0
 43
0.0208333333333333
 43
0.0
 43
0.0
 43
0.0
 43
0.0
 43
0.0208333333333333
 43
0.0
 43
0.0
 43
0.0
 43
0.0
 43
1.0
 43
0.0
 43
0.0
 43
0.0
 43
0.0
 43
1.0
 77
     0
 47
0.0208333333333333
 47
0.0
 47
0.0
 47
0.0
 47
0.0
 47
0.0208333333333333
 47
0.0
 47
0.0
 47
0.0
 47
0.0
 47
1.0
 47
0.0
 47
0.0
 47
0.0
 47
0.0
 47
1.0
171
     0
 49
0.0208333333333333
 49
0.0
 49
0.0
 49
0.0
 49
0.0
 49
0.0208333333333333
 49
0.0
 49
0.0
 49
0.0
 49
0.0
 49
1.0
 49
0.0
 49
0.0
 49
0.0
 49
0.0
 49
1.0
175
     0
142
0.0208333333333333
142
0.0
142
0.0
142
0.0
142
0.0
142
0.0208333333333333
142
0.0
142
0.0
142
0.0
142
0.0
142
1.0
142
0.0
142
0.0
142
0.0
142
0.0
142
1.0
179
     0
144
0.0208333333333333
144
0.0
144
0.0
144
0.0
144
0.0
144
0.0208333333333333
144
0.0
144
0.0
144
0.0
144
0.0
144
1.0
144
0.0
144
0.0
144
0.0
144
0.0
144
1.0
147
0.0208333333333333
147
0.0
147
0.0
147
0.0
147
0.0
147
0.0208333333333333
147
0.0
147
0.0
147
0.0
147
0.0
147
1.0
147
0.0
147
0.0
147
0.0
147
0.0
147
1.0
  0
MATERIAL
  5
11
102
{ACAD_XDICTIONARY
360
12
102
}
102
{ACAD_REACTORS
330
10
102
}
330
10
100
AcDbMaterial
  1
ByLayer
 72
     0
 43
0.0208333333333333
 43
0.0
 43
0.0
 43
0.0
 43
0.0
 43
0.0208333333333333
 43
0.0
 43
0.0
 43
0.0
 43
0.0
 43
1.0
 43
0.0
 43
0.0
 43
0.0
 43
0.0
 43
1.0
 77
     0
 47
0.0208333333333333
 47
0.0
 47
0.0
 47
0.0
 47
0.0
 47
0.0208333333333333
 47
0.0
 47
0.0
 47
0.0
 47
0.0
 47
1.0
 47
0.0
 47
0.0
 47
0.0
 47
0.0
 47
1.0
171
     0
 49
0.0208333333333333
 49
0.0
 49
0.0
 49
0.0
 49
0.0
 49
0.0208333333333333
 49
0.0
 49
0.0
 49
0.0
 49
0.0
 49
1.0
 49
0.0
 49
0.0
 49
0.0
 49
0.0
 49
1.0
175
     0
142
0.0208333333333333
142
0.0
142
0.0
142
0.0
142
0.0
142
0.0208333333333333
142
0.0
142
0.0
142
0.0
142
0.0
142
1.0
142
0.0
142
0.0
142
0.0
142
0.0
142
1.0
179
     0
144
0.0208333333333333
144
0.0
144
0.0
144
0.0
144
0.0
144
0.0208333333333333
144
0.0
144
0.0
144
0.0
144
0.0
144
1.0
144
0.0
144
0.0
144
0.0
144
0.0
144
1.0
147
0.0208333333333333
147
0.0
147
0.0
147
0.0
147
0.0
147
0.0208333333333333
147
0.0
147
0.0
147
0.0
147
0.0
147
1.0
147
0.0
147
0.0
147
0.0
147
0.0
147
1.0
  0
MATERIAL
  5
21
102
{ACAD_XDICTIONARY
360
22
102
}
102
{ACAD_REACTORS
330
10
102
}
330
10
100
AcDbMaterial
  1
Global
 72
     0
 43
0.0208333333333333
 43
0.0
 43
0.0
 43
0.0
 43
0.0
 43
0.0208333333333333
 43
0.0
 43
0.0
 43
0.0
 43
0.0
 43
1.0
 43
0.0
 43
0.0
 43
0.0
 43
0.0
 43
1.0
 77
     0
 47
0.0208333333333333
 47
0.0
 47
0.0
 47
0.0
 47
0.0
 47
0.0208333333333333
 47
0.0
 47
0.0
 47
0.0
 47
0.0
 47
1.0
 47
0.0
 47
0.0
 47
0.0
 47
0.0
 47
1.0
171
     0
 49
0.0208333333333333
 49
0.0
 49
0.0
 49
0.0
 49
0.0
 49
0.0208333333333333
 49
0.0
 49
0.0
 49
0.0
 49
0.0
 49
1.0
 49
0.0
 49
0.0
 49
0.0
 49
0.0
 49
1.0
175
     0
142
0.0208333333333333
142
0.0
142
0.0
142
0.0
142
0.0
142
0.0208333333333333
142
0.0
142
0.0
142
0.0
142
0.0
142
1.0
142
0.0
142
0.0
142
0.0
142
0.0
142
1.0
179
     0
144
0.0208333333333333
144
0.0
144
0.0
144
0.0
144
0.0
144
0.0208333333333333
144
0.0
144
0.0
144
0.0
144
0.0
144
1.0
144
0.0
144
0.0
144
0.0
144
0.0
144
1.0
147
0.0208333333333333
147
0.0
147
0.0
147
0.0
147
0.0
147
0.0208333333333333
147
0.0
147
0.0
147
0.0
147
0.0
147
1.0
147
0.0
147
0.0
147
0.0
147
0.0
147
1.0
  0
MLEADERSTYLE
  5
66
102
{ACAD_REACTORS
330
65
102
}
330
65
100
AcDbMLeaderStyle
170
     2
171
     1
172
     0
 90
        2
 40
0.0
 41
0.0
173
     1
 91
-1056964608
340
5A
 92
       -2
290
     1
 42
0.09
291
     1
 43
0.36
  3
Standard
 44
0.18
300

342
55
174
     1
178
     6
175
     1
176
     0
 93
-1056964608
 45
0.18
292
     0
297
     0
 46
0.18
 94
-1056964608
 47
1.0
 49
1.0
140
1.0
293
     1
141
0.0
294
     1
177
     0
142
1.0
295
     0
296
     0
143
0.125
1001
ACAD_MLEADERVER
1070
     2
  0
MLINESTYLE
  5
5F
102
{ACAD_REACTORS
330
5E
102
}
330
5E
100
AcDbMlineStyle
  2
STANDARD
 70
     0
  3

 62
   256
 51
90.0
 52
90.0
 71
     2
 49
0.5
 62
   256
  6
BYLAYER
 49
-0.5
 62
   256
  6
BYLAYER
  0
ACDBPLACEHOLDER
  5
F
102
{ACAD_REACTORS
330
E
102
}
330
E
  0
SCALE
  5
43
102
{ACAD_REACTORS
330
42
102
}
330
42
100
AcDbScale
 70
     0
300
1:1
140
1.0
141
1.0
290
     1
  0
SCALE
  5
44
102
{ACAD_REACTORS
330
42
102
}
330
42
100
AcDbScale
 70
     0
300
1/128" = 1'-0"
140
0.0078125
141
12.0
290
     0
  0
SCALE
  5
45
102
{ACAD_REACTORS
330
42
102
}
330
42
100
AcDbScale
 70
     0
300
1/64" = 1'-0"
140
0.015625
141
12.0
290
     0
  0
SCALE
  5
46
102
{ACAD_REACTORS
330
42
102
}
330
42
100
AcDbScale
 70
     0
300
1/32" = 1'-0"
140
0.03125
141
12.0
290
     0
  0
SCALE
  5
47
102
{ACAD_REACTORS
330
42
102
}
330
42
100
AcDbScale
 70
     0
300
1/16" = 1'-0"
140
0.0625
141
12.0
290
     0
  0
SCALE
  5
48
102
{ACAD_REACTORS
330
42
102
}
330
42
100
AcDbScale
 70
     0
300
3/32" = 1'-0"
140
0.09375
141
12.0
290
     0
  0
SCALE
  5
49
102
{ACAD_REACTORS
330
42
102
}
330
42
100
AcDbScale
 70
     0
300
1/8" = 1'-0"
140
0.125
141
12.0
290
     0
  0
SCALE
  5
4A
102
{ACAD_REACTORS
330
42
102
}
330
42
100
AcDbScale
 70
     0
300
3/16" = 1'-0"
140
0.1875
141
12.0
290
     0
  0
SCALE
  5
4B
102
{ACAD_REACTORS
330
42
102
}
330
42
100
AcDbScale
 70
     0
300
1/4" = 1'-0"
140
0.25
141
12.0
290
     0
  0
SCALE
  5
4C
102
{ACAD_REACTORS
330
42
102
}
330
42
100
AcDbScale
 70
     0
300
3/8" = 1'-0"
140
0.375
141
12.0
290
     0
  0
SCALE
  5
4D
102
{ACAD_REACTORS
330
42
102
}
330
42
100
AcDbScale
 70
     0
300
1/2" = 1'-0"
140
0.5
141
12.0
290
     0
  0
SCALE
  5
4E
102
{ACAD_REACTORS
330
42
102
}
330
42
100
AcDbScale
 70
     0
300
3/4" = 1'-0"
140
0.75
141
12.0
290
     0
  0
SCALE
  5
4F
102
{ACAD_REACTORS
330
42
102
}
330
42
100
AcDbScale
 70
     0
300
1" = 1'-0"
140
1.0
141
12.0
290
     0
  0
SCALE
  5
50
102
{ACAD_REACTORS
330
42
102
}
330
42
100
AcDbScale
 70
     0
300
1-1/2" = 1'-0"
140
1.5
141
12.0
290
     0
  0
SCALE
  5
51
102
{ACAD_REACTORS
330
42
102
}
330
42
100
AcDbScale
 70
     0
300
3" = 1'-0"
140
3.0
141
12.0
290
     0
  0
SCALE
  5
52
102
{ACAD_REACTORS
330
42
102
}
330
42
100
AcDbScale
 70
     0
300
6" = 1'-0"
140
6.0
141
12.0
290
     0
  0
SCALE
  5
53
102
{ACAD_REACTORS
330
42
102
}
330
42
100
AcDbScale
 70
     0
300
1'-0" = 1'-0"
140
12.0
141
12.0
290
     0
  0
ACDBSECTIONVIEWSTYLE
  5
68
102
{ACAD_XDICTIONARY
360
46F
102
}
102
{ACAD_REACTORS
330
67
102
}
330
67
100
AcDbModelDocViewStyle
 70
     0
  3
Imperial24
290
     0
100
AcDbSectionViewStyle
 70
     0
 71
     0
 90
       78
 71
     1
340
55
 40
0.24
340
0
340
0
 40
0.24
300
I, O, Q, S, X, Z
 40
0.48
 90
        3
 40
0.18
 90
        1
 71
     2
340
5C
 90
       25
340
5C
 90
       50
 40
0.24
 40
0.0
 40
0.24
 71
     3
340
55
 40
0.24
 90
        1
 40
0.75
 90
        1
300
%<\AcVar ViewType \f "%tc1">% %<\AcVar ViewSectionStartId>%-%<\AcVar ViewSectionEndId>%\PSCALE %<\AcVar ViewScale \f "%sn">%
 71
     4
300
ANSI31
 40
1.0
 90
        0
290
     0
290
     0
 90
        6
 40
0.0
 40
1.570796326794896
 40
0.2617993877991494
 40
1.308996938995747
 40
-0.2617993877991494
 40
1.832595714594046
  0
TABLESTYLE
  5
64
102
{ACAD_XDICTIONARY
360
496
102
}
102
{ACAD_REACTORS
330
63
102
}
330
63
100
AcDbTableStyle
  3
Standard
 70
     0
 71
     0
 40
0.06
 41
0.06
280
     0
281
     0
  7
STANDARD
140
0.18
170
     2
 62
     0
 63
     7
283
     0
274
    -2
284
     1
 64
     0
275
    -2
285
     1
 65
     0
276
    -2
286
     1
 66
     0
277
    -2
287
     1
 67
     0
278
    -2
288
     1
 68
     0
279
    -2
289
     1
 69
     0
  7
STANDARD
140
0.25
170
     5
 62
     0
 63
     7
283
     0
274
    -2
284
     1
 64
     0
275
    -2
285
     1
 65
     0
276
    -2
286
     1
 66
     0
277
    -2
287
     1
 67
     0
278
    -2
288
     1
 68
     0
279
    -2
289
     1
 69
     0
  7
STANDARD
140
0.18
170
     5
 62
     0
 63
     7
283
     0
274
    -2
284
     1
 64
     0
275
    -2
285
     1
 65
     0
276
    -2
286
     1
 66
     0
277
    -2
287
     1
 67
     0
278
    -2
288
     1
 68
     0
279
    -2
289
     1
 69
     0
  0
VISUALSTYLE
  5
2F
102
{ACAD_XDICTIONARY
360
4AF
102
}
102
{ACAD_REACTORS
330
29
102
}
330
29
100
AcDbVisualStyle
  2
2dWireframe
 70
     4
 71
     0
 72
     2
 73
     0
 90
        0
 40
-0.6
 41
-30.0
 62
     5
 63
     7
 74
     1
 91
        4
 64
     7
 65
   257
 75
     1
175
     1
 42
1.0
 92
        0
 66
   257
 43
1.0
 76
     1
 77
     6
 78
     2
 67
     7
 79
     5
170
     0
171
     0
290
     0
174
     0
 93
        1
 44
0.0
173
     0
291
     0
 45
0.0
1001
ACAD
1000
AcDbSavedByObjectVersion
1070
     0
  0
VISUALSTYLE
  5
2E
102
{ACAD_XDICTIONARY
360
4AD
102
}
102
{ACAD_REACTORS
330
29
102
}
330
29
100
AcDbVisualStyle
  2
Basic
 70
     7
 71
     1
 72
     0
 73
     1
 90
        0
 40
-0.6
 41
-30.0
 62
     5
 63
     7
 74
     0
 91
        4
 64
     7
 65
   257
 75
     1
175
     1
 42
1.0
 92
        8
 66
     7
 43
1.0
 76
     1
 77
     6
 78
     2
 67
     7
 79
     5
170
     0
171
     0
290
     0
174
     0
 93
        1
 44
0.0
173
     0
291
     1
 45
0.0
1001
ACAD
1000
AcDbSavedByObjectVersion
1070
     0
  0
VISUALSTYLE
  5
35
102
{ACAD_XDICTIONARY
360
4BB
102
}
102
{ACAD_REACTORS
330
29
102
}
330
29
100
AcDbVisualStyle
  2
Brighten
 70
    12
 71
     2
 72
     2
 73
     0
 90
        0
 40
-0.6
 41
-30.0
 62
     5
 63
     7
 74
     1
 91
        4
 64
     7
 65
   257
 75
     1
175
     1
 42
1.0
 92
        8
 66
     7
 43
1.0
 76
     1
 77
     6
 78
     2
 67
     7
 79
     5
170
     0
171
     0
290
     0
174
     0
 93
        1
 44
50.0
173
     0
291
     1
 45
0.0
1001
ACAD
1000
AcDbSavedByObjectVersion
1070
     0
  0
VISUALSTYLE
  5
39
102
{ACAD_XDICTIONARY
360
4C3
102
}
102
{ACAD_REACTORS
330
29
102
}
330
29
100
AcDbVisualStyle
  2
ColorChange
 70
    16
 71
     2
 72
     2
 73
     3
 90
        0
 40
-0.6
 41
-30.0
 62
     5
 63
     8
 74
     1
 91
        4
 64
     7
 65
   257
 75
     1
175
     1
 42
1.0
 92
        8
 66
     8
 43
1.0
 76
     1
 77
     6
 78
     2
 67
     7
 79
     5
170
     0
171
     0
290
     0
174
     0
 93
        1
 44
0.0
173
     0
291
     1
 45
0.0
1001
ACAD
1000
AcDbSavedByObjectVersion
1070
     0
  0
VISUALSTYLE
  5
32
102
{ACAD_XDICTIONARY
360
4B5
102
}
102
{ACAD_REACTORS
330
29
102
}
330
29
100
AcDbVisualStyle
  2
Conceptual
 70
     9
 71
     3
 72
     2
 73
     0
 90
        0
 40
-0.6
 41
-30.0
 62
     5
 63
     7
 74
     2
 91
        2
 64
     7
 65
   257
 75
     1
175
     1
 42
179.0
 92
        8
 66
     7
 43
1.0
 76
     1
 77
     6
 78
     2
 67
     7
 79
     3
170
     0
171
     0
290
     0
174
     0
 93
        1
 44
0.0
173
     0
291
     0
 45
0.0
1001
ACAD
1000
AcDbSavedByObjectVersion
1070
     0
  0
VISUALSTYLE
  5
34
102
{ACAD_XDICTIONARY
360
4B9
102
}
102
{ACAD_REACTORS
330
29
102
}
330
29
100
AcDbVisualStyle
  2
Dim
 70
    11
 71
     2
 72
     2
 73
     0
 90
        0
 40
-0.6
 41
-30.0
 62
     5
 63
     7
 74
     1
 91
        4
 64
     7
 65
   257
 75
     1
175
     1
 42
1.0
 92
        8
 66
     7
 43
1.0
 76
     1
 77
     6
 78
     2
 67
     7
 79
     5
170
     0
171
     0
290
     0
174
     0
 93
        1
 44
-50.0
173
     0
291
     1
 45
0.0
1001
ACAD
1000
AcDbSavedByObjectVersion
1070
     0
  0
VISUALSTYLE
  5
41
102
{ACAD_XDICTIONARY
360
4D3
102
}
102
{ACAD_REACTORS
330
29
102
}
330
29
100
AcDbVisualStyle
  2
EdgeColorOff
 70
    22
 71
     2
 72
     2
 73
     0
 90
        0
 40
-0.6
 41
-30.0
 62
     5
 63
     7
 74
     1
 91
        4
 64
     7
 65
   257
 75
     1
175
     1
 42
1.0
 92
        8
 66
     7
 43
1.0
 76
     1
 77
     6
 78
     2
 67
     7
 79
     5
170
     0
171
     0
290
     0
174
     0
 93
        1
 44
0.0
173
     0
291
     1
 45
0.0
1001
ACAD
1000
AcDbSavedByObjectVersion
1070
     0
  0
VISUALSTYLE
  5
38
102
{ACAD_XDICTIONARY
360
4C1
102
}
102
{ACAD_REACTORS
330
29
102
}
330
29
100
AcDbVisualStyle
  2
Facepattern
 70
    15
 71
     2
 72
     2
 73
     0
 90
        0
 40
-0.6
 41
-30.0
 62
     5
 63
     7
 74
     1
 91
        4
 64
     7
 65
   257
 75
     1
175
     1
 42
1.0
 92
        8
 66
     7
 43
1.0
 76
     1
 77
     6
 78
     2
 67
     7
 79
     5
170
     0
171
     0
290
     0
174
     0
 93
        1
 44
0.0
173
     0
291
     1
 45
0.0
1001
ACAD
1000
AcDbSavedByObjectVersion
1070
     0
  0
VISUALSTYLE
  5
2A
102
{ACAD_XDICTIONARY
360
4A5
102
}
102
{ACAD_REACTORS
330
29
102
}
330
29
100
AcDbVisualStyle
  2
Flat
 70
     0
 71
     2
 72
     1
 73
     1
 90
        2
 40
-0.6
 41
30.0
 62
     5
 63
     7
 74
     0
 91
        0
 64
     7
 65
   257
 75
     1
175
     1
 42
1.0
 92
        8
 66
     7
 43
1.0
 76
     1
 77
     6
 78
     2
 67
     7
 79
     5
170
     0
171
     0
290
     0
174
     0
 93
       13
 44
0.0
173
     0
291
     1
 45
0.0
1001
ACAD
1000
AcDbSavedByObjectVersion
1070
     0
  0
VISUALSTYLE
  5
2B
102
{ACAD_XDICTIONARY
360
4A7
102
}
102
{ACAD_REACTORS
330
29
102
}
330
29
100
AcDbVisualStyle
  2
FlatWithEdges
 70
     1
 71
     2
 72
     1
 73
     1
 90
        2
 40
-0.6
 41
30.0
 62
     5
 63
     7
 74
     1
 91
        0
 64
     7
 65
   257
 75
     1
175
     1
 42
1.0
 92
        0
 66
   257
 43
1.0
 76
     1
 77
     6
 78
     2
 67
     7
 79
     5
170
     0
171
     0
290
     0
174
     0
 93
       13
 44
0.0
173
     0
291
     1
 45
0.0
1001
ACAD
1000
AcDbSavedByObjectVersion
1070
     0
  0
VISUALSTYLE
  5
2C
102
{ACAD_XDICTIONARY
360
4A9
102
}
102
{ACAD_REACTORS
330
29
102
}
330
29
100
AcDbVisualStyle
  2
Gouraud
 70
     2
 71
     2
 72
     2
 73
     1
 90
        2
 40
-0.6
 41
30.0
 62
     5
 63
     7
 74
     0
 91
        0
 64
     7
 65
   257
 75
     1
175
     1
 42
1.0
 92
        0
 66
     7
 43
1.0
 76
     1
 77
     6
 78
     2
 67
     7
 79
     5
170
     0
171
     0
290
     0
174
     0
 93
       13
 44
0.0
173
     0
291
     1
 45
0.0
1001
ACAD
1000
AcDbSavedByObjectVersion
1070
     0
  0
VISUALSTYLE
  5
2D
102
{ACAD_XDICTIONARY
360
4AB
102
}
102
{ACAD_REACTORS
330
29
102
}
330
29
100
AcDbVisualStyle
  2
GouraudWithEdges
 70
     3
 71
     2
 72
     2
 73
     1
 90
        2
 40
-0.6
 41
30.0
 62
     5
 63
     7
 74
     1
 91
        0
 64
     7
 65
   257
 75
     1
175
     1
 42
1.0
 92
        0
 66
   257
 43
1.0
 76
     1
 77
     6
 78
     2
 67
     7
 79
     5
170
     0
171
     0
290
     0
174
     0
 93
       13
 44
0.0
173
     0
291
     1
 45
0.0
1001
ACAD
1000
AcDbSavedByObjectVersion
1070
     0
  0
VISUALSTYLE
  5
31
102
{ACAD_XDICTIONARY
360
4B3
102
}
102
{ACAD_REACTORS
330
29
102
}
330
29
100
AcDbVisualStyle
  2
Hidden
 70
     6
 71
     1
 72
     2
 73
     2
 90
        0
 40
-0.6
 41
-30.0
 62
     5
 63
     7
 74
     2
 91
        2
 64
     7
 65
   257
 75
     2
175
     1
 42
40.0
 92
        0
 66
   257
 43
1.0
 76
     1
 77
     6
 78
     2
 67
     7
 79
     3
170
     0
171
     0
290
     0
174
     0
 93
        1
 44
0.0
173
     0
291
     0
 45
0.0
1001
ACAD
1000
AcDbSavedByObjectVersion
1070
     0
  0
VISUALSTYLE
  5
3F
102
{ACAD_XDICTIONARY
360
4CF
102
}
102
{ACAD_REACTORS
330
29
102
}
330
29
100
AcDbVisualStyle
  2
JitterOff
 70
    20
 71
     2
 72
     2
 73
     0
 90
        0
 40
-0.6
 41
-30.0
 62
     5
 63
     7
 74
     1
 91
        4
 64
     7
 65
   257
 75
     1
175
     1
 42
1.0
 92
       10
 66
     7
 43
1.0
 76
     1
 77
     6
 78
     2
 67
     7
 79
     5
170
     0
171
     0
290
     0
174
     0
 93
        1
 44
0.0
173
     0
291
     1
 45
0.0
1001
ACAD
1000
AcDbSavedByObjectVersion
1070
     0
  0
VISUALSTYLE
  5
37
102
{ACAD_XDICTIONARY
360
4BF
102
}
102
{ACAD_REACTORS
330
29
102
}
330
29
100
AcDbVisualStyle
  2
Linepattern
 70
    14
 71
     2
 72
     2
 73
     0
 90
        0
 40
-0.6
 41
-30.0
 62
     5
 63
     7
 74
     1
 91
        4
 64
     7
 65
   257
 75
     7
175
     7
 42
1.0
 92
        8
 66
     7
 43
1.0
 76
     1
 77
     6
 78
     2
 67
     7
 79
     5
170
     0
171
     0
290
     0
174
     0
 93
        1
 44
0.0
173
     0
291
     1
 45
0.0
1001
ACAD
1000
AcDbSavedByObjectVersion
1070
     0
  0
VISUALSTYLE
  5
40
102
{ACAD_XDICTIONARY
360
4D1
102
}
102
{ACAD_REACTORS
330
29
102
}
330
29
100
AcDbVisualStyle
  2
OverhangOff
 70
    21
 71
     2
 72
     2
 73
     0
 90
        0
 40
-0.6
 41
-30.0
 62
     5
 63
     7
 74
     1
 91
        4
 64
     7
 65
   257
 75
     1
175
     1
 42
1.0
 92
        9
 66
     7
 43
1.0
 76
     1
 77
     6
 78
     2
 67
     7
 79
     5
170
     0
171
     0
290
     0
174
     0
 93
        1
 44
0.0
173
     0
291
     1
 45
0.0
1001
ACAD
1000
AcDbSavedByObjectVersion
1070
     0
  0
VISUALSTYLE
  5
33
102
{ACAD_XDICTIONARY
360
4B7
102
}
102
{ACAD_REACTORS
330
29
102
}
330
29
100
AcDbVisualStyle
  2
Realistic
 70
     8
 71
     2
 72
     3
 73
     0
 90
        2
 40
-0.6
 41
30.0
 62
     5
 63
     7
 74
     0
 91
        0
 64
     7
 65
   257
 75
     1
175
     1
 42
1.0
 92
        8
 66
   257
 43
1.0
 76
     1
 77
     6
 78
     2
 67
     7
 79
     3
170
     0
171
     0
290
     0
174
     0
 93
       13
 44
0.0
173
     0
291
     0
 45
0.0
1001
ACAD
1000
AcDbSavedByObjectVersion
1070
     0
  0
VISUALSTYLE
  5
3E
102
{ACAD_XDICTIONARY
360
4CD
102
}
102
{ACAD_REACTORS
330
29
102
}
330
29
100
AcDbVisualStyle
  2
Shaded
 70
    27
 71
     2
 72
     2
 73
     1
 90
        2
 40
-0.6
 41
30.0
 62
     5
 63
     7
 74
     0
 91
        4
 64
     7
 65
   257
 75
     1
175
     1
 42
1.0
 92
        8
 66
   257
 43
1.0
 76
     1
 77
     6
 78
     2
 67
     8
 79
     3
170
     0
171
     0
290
     0
174
     0
 93
        5
 44
0.0
173
     0
291
     0
 45
0.0
1001
ACAD
1000
AcDbSavedByObjectVersion
1070
     0
  0
VISUALSTYLE
  5
3D
102
{ACAD_XDICTIONARY
360
4CB
102
}
102
{ACAD_REACTORS
330
29
102
}
330
29
100
AcDbVisualStyle
  2
Shaded with edges
 70
    26
 71
     2
 72
     2
 73
     1
 90
        2
 40
-0.6
 41
30.0
 62
     5
 63
     7
 74
     1
 91
       10
 64
     7
 65
   257
 75
     2
175
     1
 42
1.0
 92
        8
 66
   257
 43
1.0
 76
     1
 77
     6
 78
     2
 67
     7
 79
     3
170
     0
171
     0
290
     0
174
     0
 93
        5
 44
0.0
173
     0
291
     0
 45
0.0
1001
ACAD
1000
AcDbSavedByObjectVersion
1070
     0
  0
VISUALSTYLE
  5
3A
102
{ACAD_XDICTIONARY
360
4C5
102
}
102
{ACAD_REACTORS
330
29
102
}
330
29
100
AcDbVisualStyle
  2
Shades of Gray
 70
    23
 71
     2
 72
     2
 73
     3
 90
        0
 40
-0.6
 41
-30.0
 62
     5
 63
     7
 74
     2
 91
        2
 64
     7
 65
     7
 75
     1
175
     1
 42
40.0
 92
        8
 66
     7
 43
1.0
 76
     1
 77
     6
 78
     2
 67
     7
 79
     3
170
     0
171
     0
290
     0
174
     0
 93
        1
 44
0.0
173
     0
291
     0
 45
0.0
1001
ACAD
1000
AcDbSavedByObjectVersion
1070
     0
  0
VISUALSTYLE
  5
3B
102
{ACAD_XDICTIONARY
360
4C7
102
}
102
{ACAD_REACTORS
330
29
102
}
330
29
100
AcDbVisualStyle
  2
Sketchy
 70
    24
 71
     1
 72
     2
 73
     2
 90
        0
 40
-0.6
 41
-30.0
 62
     5
 63
     7
 74
     2
 91
        2
 64
     7
 65
     7
 75
     1
175
     1
 42
40.0
 92
       11
 66
     7
 43
1.0
 76
     1
 77
     6
 78
     2
 67
     7
 79
     6
170
     0
171
     0
290
     0
174
     0
 93
        1
 44
0.0
173
     0
291
     0
 45
0.0
1001
ACAD
1000
AcDbSavedByObjectVersion
1070
     0
  0
VISUALSTYLE
  5
36
102
{ACAD_XDICTIONARY
360
4BD
102
}
102
{ACAD_REACTORS
330
29
102
}
330
29
100
AcDbVisualStyle
  2
Thicken
 70
    13
 71
     2
 72
     2
 73
     0
 90
        0
 40
-0.6
 41
-30.0
 62
     5
 63
     7
 74
     1
 91
        4
 64
     7
 65
   257
 75
     1
175
     1
 42
1.0
 92
       12
 66
     7
 43
1.0
 76
     1
 77
     6
 78
     2
 67
     7
 79
     5
170
     0
171
     0
290
     0
174
     0
 93
        1
 44
0.0
173
     0
291
     1
 45
0.0
1001
ACAD
1000
AcDbSavedByObjectVersion
1070
     0
  0
VISUALSTYLE
  5
30
102
{ACAD_XDICTIONARY
360
4B1
102
}
102
{ACAD_REACTORS
330
29
102
}
330
29
100
AcDbVisualStyle
  2
Wireframe
 70
     5
 71
     0
 72
     2
 73
     0
 90
        0
 40
-0.6
 41
-30.0
 62
     5
 63
     7
 74
     1
 91
        4
 64
     7
 65
   257
 75
     1
175
     1
 42
1.0
 92
        0
 66
   257
 43
1.0
 76
     1
 77
     6
 78
     2
 67
     7
 79
     3
170
     0
171
     0
290
     0
174
     0
 93
        1
 44
0.0
173
     0
291
     0
 45
0.0
1001
ACAD
1000
AcDbSavedByObjectVersion
1070
     0
  0
VISUALSTYLE
  5
3C
102
{ACAD_XDICTIONARY
360
4C9
102
}
102
{ACAD_REACTORS
330
29
102
}
330
29
100
AcDbVisualStyle
  2
X-Ray
 70
    25
 71
     2
 72
     2
 73
     1
 90
        1
 40
0.5
 41
-30.0
 62
     5
 63
     7
 74
     1
 91
        0
 64
     7
 65
   257
 75
     1
175
     1
 42
1.0
 92
        8
 66
     7
 43
1.0
 76
     1
 77
     6
 78
     2
 67
     7
 79
     3
170
     0
171
     0
290
     0
174
     0
 93
       13
 44
0.0
173
     0
291
     0
 45
0.0
1001
ACAD
1000
AcDbSavedByObjectVersion
1070
     0
  0
DICTIONARYVAR
  5
47A
102
{ACAD_REACTORS
330
474
102
}
330
474
100
DictionaryVariables
280
     0
  1
1:1
  0
DICTIONARYVAR
  5
476
102
{ACAD_REACTORS
330
474
102
}
330
474
100
DictionaryVariables
280
     0
  1
STANDARD
  0
DICTIONARYVAR
  5
475
102
{ACAD_REACTORS
330
474
102
}
330
474
100
DictionaryVariables
280
     0
  1
STANDARD
  0
DICTIONARYVAR
  5
477
102
{ACAD_REACTORS
330
474
102
}
330
474
100
DictionaryVariables
280
     0
  1
Imperial24
  0
DICTIONARYVAR
  5
478
102
{ACAD_REACTORS
330
474
102
}
330
474
100
DictionaryVariables
280
     0
  1
Imperial24
  0
DICTIONARYVAR
  5
494
102
{ACAD_REACTORS
330
474
102
}
330
474
100
DictionaryVariables
280
     0
  1
1
  0
DICTIONARYVAR
  5
493
102
{ACAD_REACTORS
330
474
102
}
330
474
100
DictionaryVariables
280
     0
  1
0
  0
DICTIONARYVAR
  5
47C
102
{ACAD_REACTORS
330
474
102
}
330
474
100
DictionaryVariables
280
     0
  1
1
  0
DICTIONARYVAR
  5
47D
102
{ACAD_REACTORS
330
474
102
}
330
474
100
DictionaryVariables
280
     0
  1
15
  0
DICTIONARYVAR
  5
47B
102
{ACAD_REACTORS
330
474
102
}
330
474
100
DictionaryVariables
280
     0
  1
0
  0
DICTIONARYVAR
  5
479
102
{ACAD_REACTORS
330
474
102
}
330
474
100
DictionaryVariables
280
     0
  1
0
  0
DICTIONARYVAR
  5
492
102
{ACAD_REACTORS
330
474
102
}
330
474
100
DictionaryVariables
280
     0
  1
127
  0
DICTIONARYVAR
  5
495
102
{ACAD_REACTORS
330
474
102
}
330
474
100
DictionaryVariables
280
     0
  1
2
  0
DICTIONARY
  5
4A1
102
{ACAD_REACTORS
330
49F
102
}
330
49F
100
AcDbDictionary
281
     1
  0
DICTIONARY
  5
4A0
102
{ACAD_REACTORS
330
49F
102
}
330
49F
100
AcDbDictionary
281
     1
  3
140698482456096
350
49A
  3
140698482456112
350
49B
  3
140698482456128
350
49C
  3
140698482456144
350
49D
  3
140698482456160
350
49E
  0
DICTIONARY
  5
471
330
6A
100
AcDbDictionary
280
     1
281
     1
  3
ACAD_XREC_ROUNDTRIP
360
4D8
  0
DICTIONARY
  5
4DB
330
72
100
AcDbDictionary
280
     1
281
     1
  3
ACAD_XREC_ROUNDTRIP
360
4DC
  0
DICTIONARY
  5
4D9
330
6E
100
AcDbDictionary
280
     1
281
     1
  3
ACAD_XREC_ROUNDTRIP
360
4DA
  0
DICTIONARY
  5
1A
330
19
100
AcDbDictionary
280
     1
281
     1
  3
ACAD_XREC_ROUNDTRIP
360
4A3
  3
BUMPTILE
360
1C
  3
DIFFUSETILE
360
1B
  3
OPACITYTILE
360
1F
  3
REFLECTIONTILE
360
1E
  3
REFRACTIONTILE
360
20
  3
SPECULARTILE
360
1D
  0
DICTIONARY
  5
12
330
11
100
AcDbDictionary
280
     1
281
     1
  3
ACAD_XREC_ROUNDTRIP
360
4A2
  3
BUMPTILE
360
14
  3
DIFFUSETILE
360
13
  3
OPACITYTILE
360
17
  3
REFLECTIONTILE
360
16
  3
REFRACTIONTILE
360
18
  3
SPECULARTILE
360
15
  0
DICTIONARY
  5
22
330
21
100
AcDbDictionary
280
     1
281
     1
  3
ACAD_XREC_ROUNDTRIP
360
4A4
  3
BUMPTILE
360
24
  3
DIFFUSETILE
360
23
  3
OPACITYTILE
360
27
  3
REFLECTIONTILE
360
26
  3
REFRACTIONTILE
360
28
  3
SPECULARTILE
360
25
  0
DICTIONARY
  5
46F
330
68
100
AcDbDictionary
280
     1
281
     1
  3
ACAD_XREC_ROUNDTRIP
360
4D7
  0
DICTIONARY
  5
496
330
64
100
AcDbDictionary
280
     1
281
     1
  3
ACAD_ROUNDTRIP_2008_TABLESTYLE_CELLSTYLEMAP
360
497
  3
ACAD_XREC_ROUNDTRIP
360
4D5
  0
DICTIONARY
  5
4AF
330
2F
100
AcDbDictionary
280
     1
281
     1
  3
ACAD_XREC_ROUNDTRIP
360
4B0
  0
DICTIONARY
  5
4AD
330
2E
100
AcDbDictionary
280
     1
281
     1
  3
ACAD_XREC_ROUNDTRIP
360
4AE
  0
DICTIONARY
  5
4BB
330
35
100
AcDbDictionary
280
     1
281
     1
  3
ACAD_XREC_ROUNDTRIP
360
4BC
  0
DICTIONARY
  5
4C3
330
39
100
AcDbDictionary
280
     1
281
     1
  3
ACAD_XREC_ROUNDTRIP
360
4C4
  0
DICTIONARY
  5
4B5
330
32
100
AcDbDictionary
280
     1
281
     1
  3
ACAD_XREC_ROUNDTRIP
360
4B6
  0
DICTIONARY
  5
4B9
330
34
100
AcDbDictionary
280
     1
281
     1
  3
ACAD_XREC_ROUNDTRIP
360
4BA
  0
DICTIONARY
  5
4D3
330
41
100
AcDbDictionary
280
     1
281
     1
  3
ACAD_XREC_ROUNDTRIP
360
4D4
  0
DICTIONARY
  5
4C1
330
38
100
AcDbDictionary
280
     1
281
     1
  3
ACAD_XREC_ROUNDTRIP
360
4C2
  0
DICTIONARY
  5
4A5
330
2A
100
AcDbDictionary
280
     1
281
     1
  3
ACAD_XREC_ROUNDTRIP
360
4A6
  0
DICTIONARY
  5
4A7
330
2B
100
AcDbDictionary
280
     1
281
     1
  3
ACAD_XREC_ROUNDTRIP
360
4A8
  0
DICTIONARY
  5
4A9
330
2C
100
AcDbDictionary
280
     1
281
     1
  3
ACAD_XREC_ROUNDTRIP
360
4AA
  0
DICTIONARY
  5
4AB
330
2D
100
AcDbDictionary
280
     1
281
     1
  3
ACAD_XREC_ROUNDTRIP
360
4AC
  0
DICTIONARY
  5
4B3
330
31
100
AcDbDictionary
280
     1
281
     1
  3
ACAD_XREC_ROUNDTRIP
360
4B4
  0
DICTIONARY
  5
4CF
330
3F
100
AcDbDictionary
280
     1
281
     1
  3
ACAD_XREC_ROUNDTRIP
360
4D0
  0
DICTIONARY
  5
4BF
330
37
100
AcDbDictionary
280
     1
281
     1
  3
ACAD_XREC_ROUNDTRIP
360
4C0
  0
DICTIONARY
  5
4D1
330
40
100
AcDbDictionary
280
     1
281
     1
  3
ACAD_XREC_ROUNDTRIP
360
4D2
  0
DICTIONARY
  5
4B7
330
33
100
AcDbDictionary
280
     1
281
     1
  3
ACAD_XREC_ROUNDTRIP
360
4B8
  0
DICTIONARY
  5
4CD
330
3E
100
AcDbDictionary
280
     1
281
     1
  3
ACAD_XREC_ROUNDTRIP
360
4CE
  0
DICTIONARY
  5
4CB
330
3D
100
AcDbDictionary
280
     1
281
     1
  3
ACAD_XREC_ROUNDTRIP
360
4CC
  0
DICTIONARY
  5
4C5
330
3A
100
AcDbDictionary
280
     1
281
     1
  3
ACAD_XREC_ROUNDTRIP
360
4C6
  0
DICTIONARY
  5
4C7
330
3B
100
AcDbDictionary
280
     1
281
     1
  3
ACAD_XREC_ROUNDTRIP
360
4C8
  0
DICTIONARY
  5
4BD
330
36
100
AcDbDictionary
280
     1
281
     1
  3
ACAD_XREC_ROUNDTRIP
360
4BE
  0
DICTIONARY
  5
4B1
330
30
100
AcDbDictionary
280
     1
281
     1
  3
ACAD_XREC_ROUNDTRIP
360
4B2
  0
DICTIONARY
  5
4C9
330
3C
100
AcDbDictionary
280
     1
281
     1
  3
ACAD_XREC_ROUNDTRIP
360
4CA
  0
XRECORD
  5
49A
102
{ACAD_REACTORS
330
4A0
102
}
330
4A0
100
AcDbXrecord
280
     1
  1
AcDb_Thumbnail_Schema
102
{ATTRRECORD
341
49B
  2
AcDbDs::TreatedAsObjectData
280
     1
291
     1
102
ATTRRECORD}
102
{ATTRRECORD
341
49C
  2
AcDbDs::Legacy
280
     1
291
     1
102
ATTRRECORD}
  2
AcDbDs::ID
280
    10
 91
        8
102
{ATTRRECORD
341
49D
  2
AcDs:Indexable
280
     1
291
     1
102
ATTRRECORD}
102
{ATTRRECORD
341
49E
  2
AcDbDs::HandleAttribute
280
     7
282
     1
102
ATTRRECORD}
  2
Thumbnail_Data
280
    15
 91
        0
  0
XRECORD
  5
49B
102
{ACAD_REACTORS
330
4A0
102
}
330
4A0
100
AcDbXrecord
280
     1
  1
AcDbDs::TreatedAsObjectDataSchema
  2
AcDbDs::TreatedAsObjectData
280
     1
 91
        0
  0
XRECORD
  5
49C
102
{ACAD_REACTORS
330
4A0
102
}
330
4A0
100
AcDbXrecord
280
     1
  1
AcDbDs::LegacySchema
  2
AcDbDs::Legacy
280
     1
 91
        0
  0
XRECORD
  5
49D
102
{ACAD_REACTORS
330
4A0
102
}
330
4A0
100
AcDbXrecord
280
     1
  1
AcDbDs::IndexedPropertySchema
  2
AcDs:Indexable
280
     1
 91
        0
  0
XRECORD
  5
49E
102
{ACAD_REACTORS
330
4A0
102
}
330
4A0
100
AcDbXrecord
280
     1
  1
AcDbDs::HandleAttributeSchema
  2
AcDbDs::HandleAttribute
280
     7
 91
        1
284
     1
  0
XRECORD
  5
4D8
102
{ACAD_REACTORS
330
471
102
}
330
471
100
AcDbXrecord
280
     1
102
DISPLAYNAME
  1
Imperial24
102
FLAGS
 90
        0
  0
XRECORD
  5
4DC
102
{ACAD_REACTORS
330
4DB
102
}
330
4DB
100
AcDbXrecord
280
     1
102
SHADEPLOT
 70
     0
102
SHADEPLOTRESLEVEL
 70
     2
102
SHADEPLOTCUSTOMDPI
 70
   300
  0
XRECORD
  5
4DA
102
{ACAD_REACTORS
330
4D9
102
}
330
4D9
100
AcDbXrecord
280
     1
102
SHADEPLOT
 70
     0
102
SHADEPLOTRESLEVEL
 70
     2
102
SHADEPLOTCUSTOMDPI
 70
   300
  0
XRECORD
  5
4A3
102
{ACAD_REACTORS
330
1A
102
}
330
1A
100
AcDbXrecord
280
     1
102
MATERIAL
148
0.0
149
0.0
149
0.0
 93
        0
 94
      127
282
     0
 72
     0
 77
     0
171
     0
175
     0
179
     0
273
     0
  0
XRECORD
  5
1C
102
{ACAD_REACTORS
330
1A
102
}
330
1A
100
AcDbXrecord
280
     1
270
     1
271
     1
  0
XRECORD
  5
1B
102
{ACAD_REACTORS
330
1A
102
}
330
1A
100
AcDbXrecord
280
     1
270
     1
271
     1
  0
XRECORD
  5
1F
102
{ACAD_REACTORS
330
1A
102
}
330
1A
100
AcDbXrecord
280
     1
270
     1
271
     1
  0
XRECORD
  5
1E
102
{ACAD_REACTORS
330
1A
102
}
330
1A
100
AcDbXrecord
280
     1
270
     1
271
     1
  0
XRECORD
  5
20
102
{ACAD_REACTORS
330
1A
102
}
330
1A
100
AcDbXrecord
280
     1
270
     1
271
     1
  0
XRECORD
  5
1D
102
{ACAD_REACTORS
330
1A
102
}
330
1A
100
AcDbXrecord
280
     1
270
     1
271
     1
  0
XRECORD
  5
4A2
102
{ACAD_REACTORS
330
12
102
}
330
12
100
AcDbXrecord
280
     1
102
MATERIAL
148
0.0
149
0.0
149
0.0
 93
        0
 94
      127
282
     0
 72
     0
 77
     0
171
     0
175
     0
179
     0
273
     0
  0
XRECORD
  5
14
102
{ACAD_REACTORS
330
12
102
}
330
12
100
AcDbXrecord
280
     1
270
     1
271
     1
  0
XRECORD
  5
13
102
{ACAD_REACTORS
330
12
102
}
330
12
100
AcDbXrecord
280
     1
270
     1
271
     1
  0
XRECORD
  5
17
102
{ACAD_REACTORS
330
12
102
}
330
12
100
AcDbXrecord
280
     1
270
     1
271
     1
  0
XRECORD
  5
16
102
{ACAD_REACTORS
330
12
102
}
330
12
100
AcDbXrecord
280
     1
270
     1
271
     1
  0
XRECORD
  5
18
102
{ACAD_REACTORS
330
12
102
}
330
12
100
AcDbXrecord
280
     1
270
     1
271
     1
  0
XRECORD
  5
15
102
{ACAD_REACTORS
330
12
102
}
330
12
100
AcDbXrecord
280
     1
270
     1
271
     1
  0
XRECORD
  5
4A4
102
{ACAD_REACTORS
330
22
102
}
330
22
100
AcDbXrecord
280
     1
102
MATERIAL
148
0.0
149
0.0
149
0.0
 93
        0
 94
      127
282
     0
 72
     0
 77
     0
171
     0
175
     0
179
     0
273
     0
  0
XRECORD
  5
24
102
{ACAD_REACTORS
330
22
102
}
330
22
100
AcDbXrecord
280
     1
270
     1
271
     1
  0
XRECORD
  5
23
102
{ACAD_REACTORS
330
22
102
}
330
22
100
AcDbXrecord
280
     1
270
     1
271
     1
  0
XRECORD
  5
27
102
{ACAD_REACTORS
330
22
102
}
330
22
100
AcDbXrecord
280
     1
270
     1
271
     1
  0
XRECORD
  5
26
102
{ACAD_REACTORS
330
22
102
}
330
22
100
AcDbXrecord
280
     1
270
     1
271
     1
  0
XRECORD
  5
28
102
{ACAD_REACTORS
330
22
102
}
330
22
100
AcDbXrecord
280
     1
270
     1
271
     1
  0
XRECORD
  5
25
102
{ACAD_REACTORS
330
22
102
}
330
22
100
AcDbXrecord
280
     1
270
     1
271
     1
  0
XRECORD
  5
4D7
102
{ACAD_REACTORS
330
46F
102
}
330
46F
100
AcDbXrecord
280
     1
102
DISPLAYNAME
  1
Imperial24
102
FLAGS
 90
        0
  0
CELLSTYLEMAP
  5
497
102
{ACAD_REACTORS
330
496
102
}
330
496
100
AcDbCellStyleMap
 90
        3
300
CELLSTYLE
  1
TABLEFORMAT_BEGIN
 90
        5
170
     1
 91
        0
 92
    32768
 62
   257
 93
        1
300
CONTENTFORMAT
  1
CONTENTFORMAT_BEGIN
 90
        0
 91
        0
 92
      512
 93
        0
300

 40
0.0
140
1.0
 94
        5
 62
     0
340
55
144
0.25
309
CONTENTFORMAT_END
171
     0
 94
        0
309
TABLEFORMAT_END
  1
CELLSTYLE_BEGIN
 90
        1
 91
        1
300
_TITLE
309
CELLSTYLE_END
300
CELLSTYLE
  1
TABLEFORMAT_BEGIN
 90
        5
170
     1
 91
        0
 92
        0
 62
   257
 93
        1
300
CONTENTFORMAT
  1
CONTENTFORMAT_BEGIN
 90
        0
 91
        0
 92
      512
 93
        0
300

 40
0.0
140
1.0
 94
        5
 62
     0
340
55
144
0.18
309
CONTENTFORMAT_END
171
     0
 94
        0
309
TABLEFORMAT_END
  1
CELLSTYLE_BEGIN
 90
        2
 91
        1
300
_HEADER
309
CELLSTYLE_END
300
CELLSTYLE
  1
TABLEFORMAT_BEGIN
 90
        5
170
     1
 91
        0
 92
        0
 62
   257
 93
        1
300
CONTENTFORMAT
  1
CONTENTFORMAT_BEGIN
 90
        0
 91
        0
 92
      512
 93
        0
300

 40
0.0
140
1.0
 94
        2
 62
     0
340
55
144
0.18
309
CONTENTFORMAT_END
171
     0
 94
        0
309
TABLEFORMAT_END
  1
CELLSTYLE_BEGIN
 90
        3
 91
        2
300
_DATA
309
CELLSTYLE_END
  0
XRECORD
  5
4D5
102
{ACAD_REACTORS
330
496
102
}
330
496
100
AcDbXrecord
280
     1
102
ACAD_ROUNDTRIP_PRE2007_TABLESTYLE
 90
      512
 91
        0
  1

 92
      512
 93
        0
  2

 94
      512
 95
        0
  3

  0
XRECORD
  5
4B0
102
{ACAD_REACTORS
330
4AF
102
}
330
4AF
100
AcDbXrecord
280
     1
102
RTVSPost2010Prop28
280
     1
102
RTVSPost2010PropOp28
 70
     1
102
RTVSPost2010Prop29
280
     1
102
RTVSPost2010PropOp29
 70
     1
102
RTVSPost2010Prop30
280
     0
102
RTVSPost2010PropOp30
 70
     1
102
RTVSPost2010Prop31
280
     0
102
RTVSPost2010PropOp31
 70
     1
102
RTVSPost2010Prop32
280
     0
102
RTVSPost2010PropOp32
 70
     1
102
RTVSPost2010Prop33
280
     0
102
RTVSPost2010PropOp33
 70
     1
102
RTVSPost2010Prop34
280
     0
102
RTVSPost2010PropOp34
 70
     1
102
RTVSPost2010Prop35
280
     0
102
RTVSPost2010PropOp35
 70
     1
102
RTVSPost2010Prop36
280
     0
102
RTVSPost2010PropOp36
 70
     1
102
RTVSPost2010Prop37
 90
       50
102
RTVSPost2010PropOp37
 70
     1
102
RTVSPost2010Prop38
140
0.0
102
RTVSPost2010PropOp38
 70
     1
102
RTVSPost2010Prop39
140
1.0
102
RTVSPost2010PropOp39
 70
     1
102
RTVSPost2010Prop40
 90
        0
102
RTVSPost2010PropOp40
 70
     1
102
RTVSPost2010Prop41ColorIndex
 90
       18
102
RTVSPost2010Prop41ColorRGB
 90
        0
102
RTVSPost2010PropOp41
 70
     1
102
RTVSPost2010Prop42
 90
       50
102
RTVSPost2010PropOp42
 70
     1
102
RTVSPost2010Prop43
 90
        3
102
RTVSPost2010PropOp43
 70
     1
102
RTVSPost2010Prop44ColorIndex
 90
        5
102
RTVSPost2010Prop44ColorRGB
 90
      255
102
RTVSPost2010PropOp44
 70
     1
102
RTVSPost2010Prop45
280
     0
102
RTVSPost2010PropOp45
 70
     1
102
RTVSPost2010Prop46
 90
       50
102
RTVSPost2010PropOp46
 70
     1
102
RTVSPost2010Prop47
 90
       50
102
RTVSPost2010PropOp47
 70
     1
102
RTVSPost2010Prop48
 90
       50
102
RTVSPost2010PropOp48
 70
     1
102
RTVSPost2010Prop49
280
     0
102
RTVSPost2010PropOp49
 70
     1
102
RTVSPost2010Prop50
 90
       50
102
RTVSPost2010PropOp50
 70
     1
102
RTVSPost2010Prop51ColorIndex
 90
      256
102
RTVSPost2010Prop51ColorRGB
 90
-16777216
102
RTVSPost2010PropOp51
 70
     0
102
RTVSPost2010Prop52
140
1.0
102
RTVSPost2010PropOp52
 70
     0
102
RTVSPost2010Prop53
 90
        2
102
RTVSPost2010PropOp53
 70
     1
102
RTVSPost2010Prop54
  1
strokes_ogs.tif
102
RTVSPost2010PropOp54
 70
     1
102
RTVSPost2010Prop55
280
     0
102
RTVSPost2010PropOp55
 70
     1
102
RTVSPost2010Prop56
140
1.0
102
RTVSPost2010PropOp56
 70
     1
102
RTVSPost2010Prop57
140
1.0
102
RTVSPost2010PropOp57
 70
     1
102
RTVSPropertyOp0
 70
     1
102
RTVSPropertyOp1
 70
     1
102
RTVSPropertyOp2
 70
     1
102
RTVSPropertyOp3
 70
     1
102
RTVSPropertyOp4
 70
     1
102
RTVSPropertyOp5
 70
     1
102
RTVSPropertyOp6
 70
     1
102
RTVSPropertyOp7
 70
     1
102
RTVSPropertyOp8
 70
     1
102
RTVSPropertyOp9
 70
     1
102
RTVSPropertyOp10
 70
     1
102
RTVSPropertyOp11
 70
     1
102
RTVSPropertyOp12
 70
     1
102
RTVSPropertyOp13
 70
     1
102
RTVSPropertyOp14
 70
     1
102
RTVSPropertyOp15
 70
     1
102
RTVSPropertyOp16
 70
     1
102
RTVSPropertyOp17
 70
     1
102
RTVSPropertyOp18
 70
     1
102
RTVSPropertyOp19
 70
     1
102
RTVSPropertyOp20
 70
     1
102
RTVSPropertyOp21
 70
     1
102
RTVSPropertyOp22
 70
     1
102
RTVSPropertyOp23
 70
     1
102
RTVSPropertyOp24
 70
     1
102
RTVSPropertyOp25
 70
     1
102
RTVSPropertyOp26
 70
     1
102
RTVSPropertyOp27
 70
     1
102
RTVSPropertyOp28
 70
     1
102
RTVSPropertyOp29
 70
     1
102
RTVSPropertyOp30
 70
     1
102
RTVSPropertyOp31
 70
     1
102
RTVSPropertyOp32
 70
     1
102
RTVSPropertyOp33
 70
     1
102
RTVSPropertyOp34
 70
     1
102
RTVSPropertyOp35
 70
     1
102
RTVSPropertyOp36
 70
     1
102
RTVSPropertyOp37
 70
     1
102
RTVSPropertyOp38
 70
     1
102
RTVSPropertyOp39
 70
     1
102
RTVSPropertyOp40
 70
     1
102
RTVSPropertyOp41
 70
     1
102
RTVSPropertyOp42
 70
     1
102
RTVSPropertyOp43
 70
     1
102
RTVSPropertyOp44
 70
     1
102
RTVSPropertyOp45
 70
     1
102
RTVSPropertyOp46
 70
     1
102
RTVSPropertyOp47
 70
     1
102
RTVSPropertyOp48
 70
     1
102
RTVSPropertyOp49
 70
     1
102
RTVSPropertyOp50
 70
     1
102
RTVSPropertyOp51
 70
     0
102
RTVSPropertyOp52
 70
     0
102
RTVSPropertyOp53
 70
     1
102
RTVSPropertyOp54
 70
     1
102
RTVSPropertyOp55
 70
     1
102
RTVSPropertyOp56
 70
     1
102
RTVSPropertyOp57
 70
     1
102
RTVSPropertyOp58
 70
     1
102
RTVSPropertyOp59
 70
     1
102
RTVSPropertyOp60
 70
     1
102
RTVSPropertyOp61
 70
     1
102
RTVSPropertyOp62
 70
     1
  0
XRECORD
  5
4AE
102
{ACAD_REACTORS
330
4AD
102
}
330
4AD
100
AcDbXrecord
280
     1
102
RTVSPost2010Prop28
280
     0
102
RTVSPost2010PropOp28
 70
     1
102
RTVSPost2010Prop29
280
     1
102
RTVSPost2010PropOp29
 70
     1
102
RTVSPost2010Prop30
280
     1
102
RTVSPost2010PropOp30
 70
     1
102
RTVSPost2010Prop31
280
     0
102
RTVSPost2010PropOp31
 70
     1
102
RTVSPost2010Prop32
280
     0
102
RTVSPost2010PropOp32
 70
     1
102
RTVSPost2010Prop33
280
     0
102
RTVSPost2010PropOp33
 70
     1
102
RTVSPost2010Prop34
280
     0
102
RTVSPost2010PropOp34
 70
     1
102
RTVSPost2010Prop35
280
     0
102
RTVSPost2010PropOp35
 70
     1
102
RTVSPost2010Prop36
280
     0
102
RTVSPost2010PropOp36
 70
     1
102
RTVSPost2010Prop37
 90
       50
102
RTVSPost2010PropOp37
 70
     1
102
RTVSPost2010Prop38
140
0.0
102
RTVSPost2010PropOp38
 70
     1
102
RTVSPost2010Prop39
140
1.0
102
RTVSPost2010PropOp39
 70
     1
102
RTVSPost2010Prop40
 90
        0
102
RTVSPost2010PropOp40
 70
     1
102
RTVSPost2010Prop41ColorIndex
 90
       18
102
RTVSPost2010Prop41ColorRGB
 90
        0
102
RTVSPost2010PropOp41
 70
     1
102
RTVSPost2010Prop42
 90
       50
102
RTVSPost2010PropOp42
 70
     1
102
RTVSPost2010Prop43
 90
        3
102
RTVSPost2010PropOp43
 70
     1
102
RTVSPost2010Prop44ColorIndex
 90
        5
102
RTVSPost2010Prop44ColorRGB
 90
      255
102
RTVSPost2010PropOp44
 70
     1
102
RTVSPost2010Prop45
280
     0
102
RTVSPost2010PropOp45
 70
     1
102
RTVSPost2010Prop46
 90
       50
102
RTVSPost2010PropOp46
 70
     1
102
RTVSPost2010Prop47
 90
       50
102
RTVSPost2010PropOp47
 70
     1
102
RTVSPost2010Prop48
 90
       50
102
RTVSPost2010PropOp48
 70
     1
102
RTVSPost2010Prop49
280
     0
102
RTVSPost2010PropOp49
 70
     1
102
RTVSPost2010Prop50
 90
       50
102
RTVSPost2010PropOp50
 70
     1
102
RTVSPost2010Prop51ColorIndex
 90
      256
102
RTVSPost2010Prop51ColorRGB
 90
-16777216
102
RTVSPost2010PropOp51
 70
     0
102
RTVSPost2010Prop52
140
1.0
102
RTVSPost2010PropOp52
 70
     0
102
RTVSPost2010Prop53
 90
        2
102
RTVSPost2010PropOp53
 70
     1
102
RTVSPost2010Prop54
  1
strokes_ogs.tif
102
RTVSPost2010PropOp54
 70
     1
102
RTVSPost2010Prop55
280
     0
102
RTVSPost2010PropOp55
 70
     1
102
RTVSPost2010Prop56
140
1.0
102
RTVSPost2010PropOp56
 70
     1
102
RTVSPost2010Prop57
140
1.0
102
RTVSPost2010PropOp57
 70
     1
102
RTVSPropertyOp0
 70
     1
102
RTVSPropertyOp1
 70
     1
102
RTVSPropertyOp2
 70
     1
102
RTVSPropertyOp3
 70
     1
102
RTVSPropertyOp4
 70
     1
102
RTVSPropertyOp5
 70
     1
102
RTVSPropertyOp6
 70
     1
102
RTVSPropertyOp7
 70
     1
102
RTVSPropertyOp8
 70
     1
102
RTVSPropertyOp9
 70
     1
102
RTVSPropertyOp10
 70
     1
102
RTVSPropertyOp11
 70
     1
102
RTVSPropertyOp12
 70
     1
102
RTVSPropertyOp13
 70
     1
102
RTVSPropertyOp14
 70
     1
102
RTVSPropertyOp15
 70
     1
102
RTVSPropertyOp16
 70
     1
102
RTVSPropertyOp17
 70
     1
102
RTVSPropertyOp18
 70
     1
102
RTVSPropertyOp19
 70
     1
102
RTVSPropertyOp20
 70
     1
102
RTVSPropertyOp21
 70
     1
102
RTVSPropertyOp22
 70
     1
102
RTVSPropertyOp23
 70
     1
102
RTVSPropertyOp24
 70
     1
102
RTVSPropertyOp25
 70
     1
102
RTVSPropertyOp26
 70
     1
102
RTVSPropertyOp27
 70
     1
102
RTVSPropertyOp28
 70
     1
102
RTVSPropertyOp29
 70
     1
102
RTVSPropertyOp30
 70
     1
102
RTVSPropertyOp31
 70
     1
102
RTVSPropertyOp32
 70
     1
102
RTVSPropertyOp33
 70
     1
102
RTVSPropertyOp34
 70
     1
102
RTVSPropertyOp35
 70
     1
102
RTVSPropertyOp36
 70
     1
102
RTVSPropertyOp37
 70
     1
102
RTVSPropertyOp38
 70
     1
102
RTVSPropertyOp39
 70
     1
102
RTVSPropertyOp40
 70
     1
102
RTVSPropertyOp41
 70
     1
102
RTVSPropertyOp42
 70
     1
102
RTVSPropertyOp43
 70
     1
102
RTVSPropertyOp44
 70
     1
102
RTVSPropertyOp45
 70
     1
102
RTVSPropertyOp46
 70
     1
102
RTVSPropertyOp47
 70
     1
102
RTVSPropertyOp48
 70
     1
102
RTVSPropertyOp49
 70
     1
102
RTVSPropertyOp50
 70
     1
102
RTVSPropertyOp51
 70
     0
102
RTVSPropertyOp52
 70
     0
102
RTVSPropertyOp53
 70
     1
102
RTVSPropertyOp54
 70
     1
102
RTVSPropertyOp55
 70
     1
102
RTVSPropertyOp56
 70
     1
102
RTVSPropertyOp57
 70
     1
102
RTVSPropertyOp58
 70
     1
102
RTVSPropertyOp59
 70
     1
102
RTVSPropertyOp60
 70
     1
102
RTVSPropertyOp61
 70
     1
102
RTVSPropertyOp62
 70
     1
  0
XRECORD
  5
4BC
102
{ACAD_REACTORS
330
4BB
102
}
330
4BB
100
AcDbXrecord
280
     1
102
RTVSPost2010Prop28
280
     0
102
RTVSPost2010PropOp28
 70
     1
102
RTVSPost2010Prop29
280
     1
102
RTVSPost2010PropOp29
 70
     1
102
RTVSPost2010Prop30
280
     1
102
RTVSPost2010PropOp30
 70
     1
102
RTVSPost2010Prop31
280
     0
102
RTVSPost2010PropOp31
 70
     1
102
RTVSPost2010Prop32
280
     0
102
RTVSPost2010PropOp32
 70
     1
102
RTVSPost2010Prop33
280
     0
102
RTVSPost2010PropOp33
 70
     1
102
RTVSPost2010Prop34
280
     0
102
RTVSPost2010PropOp34
 70
     1
102
RTVSPost2010Prop35
280
     0
102
RTVSPost2010PropOp35
 70
     1
102
RTVSPost2010Prop36
280
     0
102
RTVSPost2010PropOp36
 70
     1
102
RTVSPost2010Prop37
 90
       50
102
RTVSPost2010PropOp37
 70
     1
102
RTVSPost2010Prop38
140
0.0
102
RTVSPost2010PropOp38
 70
     1
102
RTVSPost2010Prop39
140
1.0
102
RTVSPost2010PropOp39
 70
     1
102
RTVSPost2010Prop40
 90
        0
102
RTVSPost2010PropOp40
 70
     1
102
RTVSPost2010Prop41ColorIndex
 90
       18
102
RTVSPost2010Prop41ColorRGB
 90
        0
102
RTVSPost2010PropOp41
 70
     1
102
RTVSPost2010Prop42
 90
       50
102
RTVSPost2010PropOp42
 70
     1
102
RTVSPost2010Prop43
 90
        3
102
RTVSPost2010PropOp43
 70
     1
102
RTVSPost2010Prop44ColorIndex
 90
        5
102
RTVSPost2010Prop44ColorRGB
 90
      255
102
RTVSPost2010PropOp44
 70
     1
102
RTVSPost2010Prop45
280
     0
102
RTVSPost2010PropOp45
 70
     1
102
RTVSPost2010Prop46
 90
       50
102
RTVSPost2010PropOp46
 70
     1
102
RTVSPost2010Prop47
 90
       50
102
RTVSPost2010PropOp47
 70
     1
102
RTVSPost2010Prop48
 90
       50
102
RTVSPost2010PropOp48
 70
     1
102
RTVSPost2010Prop49
280
     0
102
RTVSPost2010PropOp49
 70
     1
102
RTVSPost2010Prop50
 90
       50
102
RTVSPost2010PropOp50
 70
     1
102
RTVSPost2010Prop51ColorIndex
 90
      256
102
RTVSPost2010Prop51ColorRGB
 90
-16777216
102
RTVSPost2010PropOp51
 70
     0
102
RTVSPost2010Prop52
140
1.0
102
RTVSPost2010PropOp52
 70
     0
102
RTVSPost2010Prop53
 90
        2
102
RTVSPost2010PropOp53
 70
     1
102
RTVSPost2010Prop54
  1
strokes_ogs.tif
102
RTVSPost2010PropOp54
 70
     1
102
RTVSPost2010Prop55
280
     0
102
RTVSPost2010PropOp55
 70
     1
102
RTVSPost2010Prop56
140
1.0
102
RTVSPost2010PropOp56
 70
     1
102
RTVSPost2010Prop57
140
1.0
102
RTVSPost2010PropOp57
 70
     1
102
RTVSPropertyOp0
 70
     1
102
RTVSPropertyOp1
 70
     1
102
RTVSPropertyOp2
 70
     1
102
RTVSPropertyOp3
 70
     1
102
RTVSPropertyOp4
 70
     1
102
RTVSPropertyOp5
 70
     1
102
RTVSPropertyOp6
 70
     1
102
RTVSPropertyOp7
 70
     1
102
RTVSPropertyOp8
 70
     1
102
RTVSPropertyOp9
 70
     1
102
RTVSPropertyOp10
 70
     1
102
RTVSPropertyOp11
 70
     1
102
RTVSPropertyOp12
 70
     1
102
RTVSPropertyOp13
 70
     1
102
RTVSPropertyOp14
 70
     1
102
RTVSPropertyOp15
 70
     1
102
RTVSPropertyOp16
 70
     1
102
RTVSPropertyOp17
 70
     1
102
RTVSPropertyOp18
 70
     1
102
RTVSPropertyOp19
 70
     1
102
RTVSPropertyOp20
 70
     1
102
RTVSPropertyOp21
 70
     1
102
RTVSPropertyOp22
 70
     1
102
RTVSPropertyOp23
 70
     1
102
RTVSPropertyOp24
 70
     1
102
RTVSPropertyOp25
 70
     1
102
RTVSPropertyOp26
 70
     1
102
RTVSPropertyOp27
 70
     1
102
RTVSPropertyOp28
 70
     1
102
RTVSPropertyOp29
 70
     1
102
RTVSPropertyOp30
 70
     1
102
RTVSPropertyOp31
 70
     1
102
RTVSPropertyOp32
 70
     1
102
RTVSPropertyOp33
 70
     1
102
RTVSPropertyOp34
 70
     1
102
RTVSPropertyOp35
 70
     1
102
RTVSPropertyOp36
 70
     1
102
RTVSPropertyOp37
 70
     1
102
RTVSPropertyOp38
 70
     1
102
RTVSPropertyOp39
 70
     1
102
RTVSPropertyOp40
 70
     1
102
RTVSPropertyOp41
 70
     1
102
RTVSPropertyOp42
 70
     1
102
RTVSPropertyOp43
 70
     1
102
RTVSPropertyOp44
 70
     1
102
RTVSPropertyOp45
 70
     1
102
RTVSPropertyOp46
 70
     1
102
RTVSPropertyOp47
 70
     1
102
RTVSPropertyOp48
 70
     1
102
RTVSPropertyOp49
 70
     1
102
RTVSPropertyOp50
 70
     1
102
RTVSPropertyOp51
 70
     0
102
RTVSPropertyOp52
 70
     0
102
RTVSPropertyOp53
 70
     1
102
RTVSPropertyOp54
 70
     1
102
RTVSPropertyOp55
 70
     1
102
RTVSPropertyOp56
 70
     1
102
RTVSPropertyOp57
 70
     1
102
RTVSPropertyOp58
 70
     1
102
RTVSPropertyOp59
 70
     1
102
RTVSPropertyOp60
 70
     1
102
RTVSPropertyOp61
 70
     1
102
RTVSPropertyOp62
 70
     1
  0
XRECORD
  5
4C4
102
{ACAD_REACTORS
330
4C3
102
}
330
4C3
100
AcDbXrecord
280
     1
102
RTVSPost2010Prop28
280
     0
102
RTVSPost2010PropOp28
 70
     1
102
RTVSPost2010Prop29
280
     1
102
RTVSPost2010PropOp29
 70
     1
102
RTVSPost2010Prop30
280
     1
102
RTVSPost2010PropOp30
 70
     1
102
RTVSPost2010Prop31
280
     0
102
RTVSPost2010PropOp31
 70
     1
102
RTVSPost2010Prop32
280
     0
102
RTVSPost2010PropOp32
 70
     1
102
RTVSPost2010Prop33
280
     0
102
RTVSPost2010PropOp33
 70
     1
102
RTVSPost2010Prop34
280
     0
102
RTVSPost2010PropOp34
 70
     1
102
RTVSPost2010Prop35
280
     0
102
RTVSPost2010PropOp35
 70
     1
102
RTVSPost2010Prop36
280
     0
102
RTVSPost2010PropOp36
 70
     1
102
RTVSPost2010Prop37
 90
       50
102
RTVSPost2010PropOp37
 70
     1
102
RTVSPost2010Prop38
140
0.0
102
RTVSPost2010PropOp38
 70
     1
102
RTVSPost2010Prop39
140
1.0
102
RTVSPost2010PropOp39
 70
     1
102
RTVSPost2010Prop40
 90
        0
102
RTVSPost2010PropOp40
 70
     1
102
RTVSPost2010Prop41ColorIndex
 90
       18
102
RTVSPost2010Prop41ColorRGB
 90
        0
102
RTVSPost2010PropOp41
 70
     1
102
RTVSPost2010Prop42
 90
       50
102
RTVSPost2010PropOp42
 70
     1
102
RTVSPost2010Prop43
 90
        3
102
RTVSPost2010PropOp43
 70
     1
102
RTVSPost2010Prop44ColorIndex
 90
        5
102
RTVSPost2010Prop44ColorRGB
 90
      255
102
RTVSPost2010PropOp44
 70
     1
102
RTVSPost2010Prop45
280
     0
102
RTVSPost2010PropOp45
 70
     1
102
RTVSPost2010Prop46
 90
       50
102
RTVSPost2010PropOp46
 70
     1
102
RTVSPost2010Prop47
 90
       50
102
RTVSPost2010PropOp47
 70
     1
102
RTVSPost2010Prop48
 90
       50
102
RTVSPost2010PropOp48
 70
     1
102
RTVSPost2010Prop49
280
     0
102
RTVSPost2010PropOp49
 70
     1
102
RTVSPost2010Prop50
 90
       50
102
RTVSPost2010PropOp50
 70
     1
102
RTVSPost2010Prop51ColorIndex
 90
      256
102
RTVSPost2010Prop51ColorRGB
 90
-16777216
102
RTVSPost2010PropOp51
 70
     0
102
RTVSPost2010Prop52
140
1.0
102
RTVSPost2010PropOp52
 70
     0
102
RTVSPost2010Prop53
 90
        2
102
RTVSPost2010PropOp53
 70
     1
102
RTVSPost2010Prop54
  1
strokes_ogs.tif
102
RTVSPost2010PropOp54
 70
     1
102
RTVSPost2010Prop55
280
     0
102
RTVSPost2010PropOp55
 70
     1
102
RTVSPost2010Prop56
140
1.0
102
RTVSPost2010PropOp56
 70
     1
102
RTVSPost2010Prop57
140
1.0
102
RTVSPost2010PropOp57
 70
     1
102
RTVSPropertyOp0
 70
     1
102
RTVSPropertyOp1
 70
     1
102
RTVSPropertyOp2
 70
     1
102
RTVSPropertyOp3
 70
     1
102
RTVSPropertyOp4
 70
     1
102
RTVSPropertyOp5
 70
     1
102
RTVSPropertyOp6
 70
     1
102
RTVSPropertyOp7
 70
     1
102
RTVSPropertyOp8
 70
     1
102
RTVSPropertyOp9
 70
     1
102
RTVSPropertyOp10
 70
     1
102
RTVSPropertyOp11
 70
     1
102
RTVSPropertyOp12
 70
     1
102
RTVSPropertyOp13
 70
     1
102
RTVSPropertyOp14
 70
     1
102
RTVSPropertyOp15
 70
     1
102
RTVSPropertyOp16
 70
     1
102
RTVSPropertyOp17
 70
     1
102
RTVSPropertyOp18
 70
     1
102
RTVSPropertyOp19
 70
     1
102
RTVSPropertyOp20
 70
     1
102
RTVSPropertyOp21
 70
     1
102
RTVSPropertyOp22
 70
     1
102
RTVSPropertyOp23
 70
     1
102
RTVSPropertyOp24
 70
     1
102
RTVSPropertyOp25
 70
     1
102
RTVSPropertyOp26
 70
     1
102
RTVSPropertyOp27
 70
     1
102
RTVSPropertyOp28
 70
     1
102
RTVSPropertyOp29
 70
     1
102
RTVSPropertyOp30
 70
     1
102
RTVSPropertyOp31
 70
     1
102
RTVSPropertyOp32
 70
     1
102
RTVSPropertyOp33
 70
     1
102
RTVSPropertyOp34
 70
     1
102
RTVSPropertyOp35
 70
     1
102
RTVSPropertyOp36
 70
     1
102
RTVSPropertyOp37
 70
     1
102
RTVSPropertyOp38
 70
     1
102
RTVSPropertyOp39
 70
     1
102
RTVSPropertyOp40
 70
     1
102
RTVSPropertyOp41
 70
     1
102
RTVSPropertyOp42
 70
     1
102
RTVSPropertyOp43
 70
     1
102
RTVSPropertyOp44
 70
     1
102
RTVSPropertyOp45
 70
     1
102
RTVSPropertyOp46
 70
     1
102
RTVSPropertyOp47
 70
     1
102
RTVSPropertyOp48
 70
     1
102
RTVSPropertyOp49
 70
     1
102
RTVSPropertyOp50
 70
     1
102
RTVSPropertyOp51
 70
     0
102
RTVSPropertyOp52
 70
     0
102
RTVSPropertyOp53
 70
     1
102
RTVSPropertyOp54
 70
     1
102
RTVSPropertyOp55
 70
     1
102
RTVSPropertyOp56
 70
     1
102
RTVSPropertyOp57
 70
     1
102
RTVSPropertyOp58
 70
     1
102
RTVSPropertyOp59
 70
     1
102
RTVSPropertyOp60
 70
     1
102
RTVSPropertyOp61
 70
     1
102
RTVSPropertyOp62
 70
     1
  0
XRECORD
  5
4B6
102
{ACAD_REACTORS
330
4B5
102
}
330
4B5
100
AcDbXrecord
280
     1
102
RTVSPost2010Prop28
280
     0
102
RTVSPost2010PropOp28
 70
     1
102
RTVSPost2010Prop29
280
     1
102
RTVSPost2010PropOp29
 70
     1
102
RTVSPost2010Prop30
280
     1
102
RTVSPost2010PropOp30
 70
     1
102
RTVSPost2010Prop31
280
     0
102
RTVSPost2010PropOp31
 70
     1
102
RTVSPost2010Prop32
280
     0
102
RTVSPost2010PropOp32
 70
     1
102
RTVSPost2010Prop33
280
     0
102
RTVSPost2010PropOp33
 70
     1
102
RTVSPost2010Prop34
280
     0
102
RTVSPost2010PropOp34
 70
     1
102
RTVSPost2010Prop35
280
     0
102
RTVSPost2010PropOp35
 70
     1
102
RTVSPost2010Prop36
280
     0
102
RTVSPost2010PropOp36
 70
     1
102
RTVSPost2010Prop37
 90
       50
102
RTVSPost2010PropOp37
 70
     1
102
RTVSPost2010Prop38
140
0.0
102
RTVSPost2010PropOp38
 70
     1
102
RTVSPost2010Prop39
140
1.0
102
RTVSPost2010PropOp39
 70
     1
102
RTVSPost2010Prop40
 90
        0
102
RTVSPost2010PropOp40
 70
     1
102
RTVSPost2010Prop41ColorIndex
 90
       18
102
RTVSPost2010Prop41ColorRGB
 90
        0
102
RTVSPost2010PropOp41
 70
     1
102
RTVSPost2010Prop42
 90
       50
102
RTVSPost2010PropOp42
 70
     1
102
RTVSPost2010Prop43
 90
        3
102
RTVSPost2010PropOp43
 70
     1
102
RTVSPost2010Prop44ColorIndex
 90
        5
102
RTVSPost2010Prop44ColorRGB
 90
      255
102
RTVSPost2010PropOp44
 70
     1
102
RTVSPost2010Prop45
280
     0
102
RTVSPost2010PropOp45
 70
     1
102
RTVSPost2010Prop46
 90
       50
102
RTVSPost2010PropOp46
 70
     1
102
RTVSPost2010Prop47
 90
       50
102
RTVSPost2010PropOp47
 70
     1
102
RTVSPost2010Prop48
 90
       50
102
RTVSPost2010PropOp48
 70
     1
102
RTVSPost2010Prop49
280
     0
102
RTVSPost2010PropOp49
 70
     1
102
RTVSPost2010Prop50
 90
       50
102
RTVSPost2010PropOp50
 70
     1
102
RTVSPost2010Prop51ColorIndex
 90
      256
102
RTVSPost2010Prop51ColorRGB
 90
-16777216
102
RTVSPost2010PropOp51
 70
     0
102
RTVSPost2010Prop52
140
1.0
102
RTVSPost2010PropOp52
 70
     0
102
RTVSPost2010Prop53
 90
        2
102
RTVSPost2010PropOp53
 70
     1
102
RTVSPost2010Prop54
  1
strokes_ogs.tif
102
RTVSPost2010PropOp54
 70
     1
102
RTVSPost2010Prop55
280
     0
102
RTVSPost2010PropOp55
 70
     1
102
RTVSPost2010Prop56
140
1.0
102
RTVSPost2010PropOp56
 70
     1
102
RTVSPost2010Prop57
140
1.0
102
RTVSPost2010PropOp57
 70
     1
102
RTVSPropertyOp0
 70
     1
102
RTVSPropertyOp1
 70
     1
102
RTVSPropertyOp2
 70
     1
102
RTVSPropertyOp3
 70
     1
102
RTVSPropertyOp4
 70
     1
102
RTVSPropertyOp5
 70
     1
102
RTVSPropertyOp6
 70
     1
102
RTVSPropertyOp7
 70
     1
102
RTVSPropertyOp8
 70
     1
102
RTVSPropertyOp9
 70
     1
102
RTVSPropertyOp10
 70
     1
102
RTVSPropertyOp11
 70
     1
102
RTVSPropertyOp12
 70
     1
102
RTVSPropertyOp13
 70
     1
102
RTVSPropertyOp14
 70
     1
102
RTVSPropertyOp15
 70
     1
102
RTVSPropertyOp16
 70
     1
102
RTVSPropertyOp17
 70
     1
102
RTVSPropertyOp18
 70
     1
102
RTVSPropertyOp19
 70
     1
102
RTVSPropertyOp20
 70
     1
102
RTVSPropertyOp21
 70
     1
102
RTVSPropertyOp22
 70
     1
102
RTVSPropertyOp23
 70
     1
102
RTVSPropertyOp24
 70
     1
102
RTVSPropertyOp25
 70
     1
102
RTVSPropertyOp26
 70
     1
102
RTVSPropertyOp27
 70
     1
102
RTVSPropertyOp28
 70
     1
102
RTVSPropertyOp29
 70
     1
102
RTVSPropertyOp30
 70
     1
102
RTVSPropertyOp31
 70
     1
102
RTVSPropertyOp32
 70
     1
102
RTVSPropertyOp33
 70
     1
102
RTVSPropertyOp34
 70
     1
102
RTVSPropertyOp35
 70
     1
102
RTVSPropertyOp36
 70
     1
102
RTVSPropertyOp37
 70
     1
102
RTVSPropertyOp38
 70
     1
102
RTVSPropertyOp39
 70
     1
102
RTVSPropertyOp40
 70
     1
102
RTVSPropertyOp41
 70
     1
102
RTVSPropertyOp42
 70
     1
102
RTVSPropertyOp43
 70
     1
102
RTVSPropertyOp44
 70
     1
102
RTVSPropertyOp45
 70
     1
102
RTVSPropertyOp46
 70
     1
102
RTVSPropertyOp47
 70
     1
102
RTVSPropertyOp48
 70
     1
102
RTVSPropertyOp49
 70
     1
102
RTVSPropertyOp50
 70
     1
102
RTVSPropertyOp51
 70
     0
102
RTVSPropertyOp52
 70
     0
102
RTVSPropertyOp53
 70
     1
102
RTVSPropertyOp54
 70
     1
102
RTVSPropertyOp55
 70
     1
102
RTVSPropertyOp56
 70
     1
102
RTVSPropertyOp57
 70
     1
102
RTVSPropertyOp58
 70
     1
102
RTVSPropertyOp59
 70
     1
102
RTVSPropertyOp60
 70
     1
102
RTVSPropertyOp61
 70
     1
102
RTVSPropertyOp62
 70
     1
  0
XRECORD
  5
4BA
102
{ACAD_REACTORS
330
4B9
102
}
330
4B9
100
AcDbXrecord
280
     1
102
RTVSPost2010Prop28
280
     0
102
RTVSPost2010PropOp28
 70
     1
102
RTVSPost2010Prop29
280
     1
102
RTVSPost2010PropOp29
 70
     1
102
RTVSPost2010Prop30
280
     1
102
RTVSPost2010PropOp30
 70
     1
102
RTVSPost2010Prop31
280
     0
102
RTVSPost2010PropOp31
 70
     1
102
RTVSPost2010Prop32
280
     0
102
RTVSPost2010PropOp32
 70
     1
102
RTVSPost2010Prop33
280
     0
102
RTVSPost2010PropOp33
 70
     1
102
RTVSPost2010Prop34
280
     0
102
RTVSPost2010PropOp34
 70
     1
102
RTVSPost2010Prop35
280
     0
102
RTVSPost2010PropOp35
 70
     1
102
RTVSPost2010Prop36
280
     0
102
RTVSPost2010PropOp36
 70
     1
102
RTVSPost2010Prop37
 90
       50
102
RTVSPost2010PropOp37
 70
     1
102
RTVSPost2010Prop38
140
0.0
102
RTVSPost2010PropOp38
 70
     1
102
RTVSPost2010Prop39
140
1.0
102
RTVSPost2010PropOp39
 70
     1
102
RTVSPost2010Prop40
 90
        0
102
RTVSPost2010PropOp40
 70
     1
102
RTVSPost2010Prop41ColorIndex
 90
       18
102
RTVSPost2010Prop41ColorRGB
 90
        0
102
RTVSPost2010PropOp41
 70
     1
102
RTVSPost2010Prop42
 90
       50
102
RTVSPost2010PropOp42
 70
     1
102
RTVSPost2010Prop43
 90
        3
102
RTVSPost2010PropOp43
 70
     1
102
RTVSPost2010Prop44ColorIndex
 90
        5
102
RTVSPost2010Prop44ColorRGB
 90
      255
102
RTVSPost2010PropOp44
 70
     1
102
RTVSPost2010Prop45
280
     0
102
RTVSPost2010PropOp45
 70
     1
102
RTVSPost2010Prop46
 90
       50
102
RTVSPost2010PropOp46
 70
     1
102
RTVSPost2010Prop47
 90
       50
102
RTVSPost2010PropOp47
 70
     1
102
RTVSPost2010Prop48
 90
       50
102
RTVSPost2010PropOp48
 70
     1
102
RTVSPost2010Prop49
280
     0
102
RTVSPost2010PropOp49
 70
     1
102
RTVSPost2010Prop50
 90
       50
102
RTVSPost2010PropOp50
 70
     1
102
RTVSPost2010Prop51ColorIndex
 90
      256
102
RTVSPost2010Prop51ColorRGB
 90
-16777216
102
RTVSPost2010PropOp51
 70
     0
102
RTVSPost2010Prop52
140
1.0
102
RTVSPost2010PropOp52
 70
     0
102
RTVSPost2010Prop53
 90
        2
102
RTVSPost2010PropOp53
 70
     1
102
RTVSPost2010Prop54
  1
strokes_ogs.tif
102
RTVSPost2010PropOp54
 70
     1
102
RTVSPost2010Prop55
280
     0
102
RTVSPost2010PropOp55
 70
     1
102
RTVSPost2010Prop56
140
1.0
102
RTVSPost2010PropOp56
 70
     1
102
RTVSPost2010Prop57
140
1.0
102
RTVSPost2010PropOp57
 70
     1
102
RTVSPropertyOp0
 70
     1
102
RTVSPropertyOp1
 70
     1
102
RTVSPropertyOp2
 70
     1
102
RTVSPropertyOp3
 70
     1
102
RTVSPropertyOp4
 70
     1
102
RTVSPropertyOp5
 70
     1
102
RTVSPropertyOp6
 70
     1
102
RTVSPropertyOp7
 70
     1
102
RTVSPropertyOp8
 70
     1
102
RTVSPropertyOp9
 70
     1
102
RTVSPropertyOp10
 70
     1
102
RTVSPropertyOp11
 70
     1
102
RTVSPropertyOp12
 70
     1
102
RTVSPropertyOp13
 70
     1
102
RTVSPropertyOp14
 70
     1
102
RTVSPropertyOp15
 70
     1
102
RTVSPropertyOp16
 70
     1
102
RTVSPropertyOp17
 70
     1
102
RTVSPropertyOp18
 70
     1
102
RTVSPropertyOp19
 70
     1
102
RTVSPropertyOp20
 70
     1
102
RTVSPropertyOp21
 70
     1
102
RTVSPropertyOp22
 70
     1
102
RTVSPropertyOp23
 70
     1
102
RTVSPropertyOp24
 70
     1
102
RTVSPropertyOp25
 70
     1
102
RTVSPropertyOp26
 70
     1
102
RTVSPropertyOp27
 70
     1
102
RTVSPropertyOp28
 70
     1
102
RTVSPropertyOp29
 70
     1
102
RTVSPropertyOp30
 70
     1
102
RTVSPropertyOp31
 70
     1
102
RTVSPropertyOp32
 70
     1
102
RTVSPropertyOp33
 70
     1
102
RTVSPropertyOp34
 70
     1
102
RTVSPropertyOp35
 70
     1
102
RTVSPropertyOp36
 70
     1
102
RTVSPropertyOp37
 70
     1
102
RTVSPropertyOp38
 70
     1
102
RTVSPropertyOp39
 70
     1
102
RTVSPropertyOp40
 70
     1
102
RTVSPropertyOp41
 70
     1
102
RTVSPropertyOp42
 70
     1
102
RTVSPropertyOp43
 70
     1
102
RTVSPropertyOp44
 70
     1
102
RTVSPropertyOp45
 70
     1
102
RTVSPropertyOp46
 70
     1
102
RTVSPropertyOp47
 70
     1
102
RTVSPropertyOp48
 70
     1
102
RTVSPropertyOp49
 70
     1
102
RTVSPropertyOp50
 70
     1
102
RTVSPropertyOp51
 70
     0
102
RTVSPropertyOp52
 70
     0
102
RTVSPropertyOp53
 70
     1
102
RTVSPropertyOp54
 70
     1
102
RTVSPropertyOp55
 70
     1
102
RTVSPropertyOp56
 70
     1
102
RTVSPropertyOp57
 70
     1
102
RTVSPropertyOp58
 70
     1
102
RTVSPropertyOp59
 70
     1
102
RTVSPropertyOp60
 70
     1
102
RTVSPropertyOp61
 70
     1
102
RTVSPropertyOp62
 70
     1
  0
XRECORD
  5
4D4
102
{ACAD_REACTORS
330
4D3
102
}
330
4D3
100
AcDbXrecord
280
     1
102
RTVSPost2010Prop28
280
     0
102
RTVSPost2010PropOp28
 70
     1
102
RTVSPost2010Prop29
280
     1
102
RTVSPost2010PropOp29
 70
     1
102
RTVSPost2010Prop30
280
     1
102
RTVSPost2010PropOp30
 70
     1
102
RTVSPost2010Prop31
280
     0
102
RTVSPost2010PropOp31
 70
     1
102
RTVSPost2010Prop32
280
     0
102
RTVSPost2010PropOp32
 70
     1
102
RTVSPost2010Prop33
280
     0
102
RTVSPost2010PropOp33
 70
     1
102
RTVSPost2010Prop34
280
     0
102
RTVSPost2010PropOp34
 70
     1
102
RTVSPost2010Prop35
280
     0
102
RTVSPost2010PropOp35
 70
     1
102
RTVSPost2010Prop36
280
     0
102
RTVSPost2010PropOp36
 70
     1
102
RTVSPost2010Prop37
 90
       50
102
RTVSPost2010PropOp37
 70
     0
102
RTVSPost2010Prop38
140
0.0
102
RTVSPost2010PropOp38
 70
     0
102
RTVSPost2010Prop39
140
1.0
102
RTVSPost2010PropOp39
 70
     0
102
RTVSPost2010Prop40
 90
        0
102
RTVSPost2010PropOp40
 70
     0
102
RTVSPost2010Prop41ColorIndex
 90
       18
102
RTVSPost2010Prop41ColorRGB
 90
        0
102
RTVSPost2010PropOp41
 70
     0
102
RTVSPost2010Prop42
 90
       50
102
RTVSPost2010PropOp42
 70
     0
102
RTVSPost2010Prop43
 90
        3
102
RTVSPost2010PropOp43
 70
     0
102
RTVSPost2010Prop44ColorIndex
 90
        5
102
RTVSPost2010Prop44ColorRGB
 90
      255
102
RTVSPost2010PropOp44
 70
     0
102
RTVSPost2010Prop45
280
     0
102
RTVSPost2010PropOp45
 70
     1
102
RTVSPost2010Prop46
 90
       50
102
RTVSPost2010PropOp46
 70
     0
102
RTVSPost2010Prop47
 90
       50
102
RTVSPost2010PropOp47
 70
     0
102
RTVSPost2010Prop48
 90
       50
102
RTVSPost2010PropOp48
 70
     0
102
RTVSPost2010Prop49
280
     0
102
RTVSPost2010PropOp49
 70
     1
102
RTVSPost2010Prop50
 90
       50
102
RTVSPost2010PropOp50
 70
     0
102
RTVSPost2010Prop51ColorIndex
 90
      256
102
RTVSPost2010Prop51ColorRGB
 90
-16777216
102
RTVSPost2010PropOp51
 70
     0
102
RTVSPost2010Prop52
140
1.0
102
RTVSPost2010PropOp52
 70
     0
102
RTVSPost2010Prop53
 90
        2
102
RTVSPost2010PropOp53
 70
     0
102
RTVSPost2010Prop54
  1
strokes_ogs.tif
102
RTVSPost2010PropOp54
 70
     0
102
RTVSPost2010Prop55
280
     0
102
RTVSPost2010PropOp55
 70
     1
102
RTVSPost2010Prop56
140
1.0
102
RTVSPost2010PropOp56
 70
     0
102
RTVSPost2010Prop57
140
1.0
102
RTVSPost2010PropOp57
 70
     0
102
RTVSPropertyOp0
 70
     0
102
RTVSPropertyOp1
 70
     0
102
RTVSPropertyOp2
 70
     0
102
RTVSPropertyOp3
 70
     0
102
RTVSPropertyOp4
 70
     0
102
RTVSPropertyOp5
 70
     0
102
RTVSPropertyOp6
 70
     0
102
RTVSPropertyOp7
 70
     0
102
RTVSPropertyOp8
 70
     0
102
RTVSPropertyOp9
 70
     0
102
RTVSPropertyOp10
 70
     0
102
RTVSPropertyOp11
 70
     0
102
RTVSPropertyOp12
 70
     0
102
RTVSPropertyOp13
 70
     0
102
RTVSPropertyOp14
 70
     2
102
RTVSPropertyOp15
 70
     0
102
RTVSPropertyOp16
 70
     0
102
RTVSPropertyOp17
 70
     0
102
RTVSPropertyOp18
 70
     0
102
RTVSPropertyOp19
 70
     0
102
RTVSPropertyOp20
 70
     0
102
RTVSPropertyOp21
 70
     0
102
RTVSPropertyOp22
 70
     0
102
RTVSPropertyOp23
 70
     0
102
RTVSPropertyOp24
 70
     0
102
RTVSPropertyOp25
 70
     0
102
RTVSPropertyOp26
 70
     0
102
RTVSPropertyOp27
 70
     0
102
RTVSPropertyOp28
 70
     1
102
RTVSPropertyOp29
 70
     1
102
RTVSPropertyOp30
 70
     1
102
RTVSPropertyOp31
 70
     1
102
RTVSPropertyOp32
 70
     1
102
RTVSPropertyOp33
 70
     1
102
RTVSPropertyOp34
 70
     1
102
RTVSPropertyOp35
 70
     1
102
RTVSPropertyOp36
 70
     1
102
RTVSPropertyOp37
 70
     0
102
RTVSPropertyOp38
 70
     0
102
RTVSPropertyOp39
 70
     0
102
RTVSPropertyOp40
 70
     0
102
RTVSPropertyOp41
 70
     0
102
RTVSPropertyOp42
 70
     0
102
RTVSPropertyOp43
 70
     0
102
RTVSPropertyOp44
 70
     0
102
RTVSPropertyOp45
 70
     1
102
RTVSPropertyOp46
 70
     0
102
RTVSPropertyOp47
 70
     0
102
RTVSPropertyOp48
 70
     0
102
RTVSPropertyOp49
 70
     1
102
RTVSPropertyOp50
 70
     0
102
RTVSPropertyOp51
 70
     0
102
RTVSPropertyOp52
 70
     0
102
RTVSPropertyOp53
 70
     0
102
RTVSPropertyOp54
 70
     0
102
RTVSPropertyOp55
 70
     1
102
RTVSPropertyOp56
 70
     0
102
RTVSPropertyOp57
 70
     0
102
RTVSPropertyOp58
 70
     1
102
RTVSPropertyOp59
 70
     1
102
RTVSPropertyOp60
 70
     1
102
RTVSPropertyOp61
 70
     1
102
RTVSPropertyOp62
 70
     1
  0
XRECORD
  5
4C2
102
{ACAD_REACTORS
330
4C1
102
}
330
4C1
100
AcDbXrecord
280
     1
102
RTVSPost2010Prop28
280
     0
102
RTVSPost2010PropOp28
 70
     1
102
RTVSPost2010Prop29
280
     1
102
RTVSPost2010PropOp29
 70
     1
102
RTVSPost2010Prop30
280
     1
102
RTVSPost2010PropOp30
 70
     1
102
RTVSPost2010Prop31
280
     0
102
RTVSPost2010PropOp31
 70
     1
102
RTVSPost2010Prop32
280
     0
102
RTVSPost2010PropOp32
 70
     1
102
RTVSPost2010Prop33
280
     0
102
RTVSPost2010PropOp33
 70
     1
102
RTVSPost2010Prop34
280
     0
102
RTVSPost2010PropOp34
 70
     1
102
RTVSPost2010Prop35
280
     0
102
RTVSPost2010PropOp35
 70
     1
102
RTVSPost2010Prop36
280
     0
102
RTVSPost2010PropOp36
 70
     1
102
RTVSPost2010Prop37
 90
       50
102
RTVSPost2010PropOp37
 70
     1
102
RTVSPost2010Prop38
140
0.0
102
RTVSPost2010PropOp38
 70
     1
102
RTVSPost2010Prop39
140
1.0
102
RTVSPost2010PropOp39
 70
     1
102
RTVSPost2010Prop40
 90
        0
102
RTVSPost2010PropOp40
 70
     1
102
RTVSPost2010Prop41ColorIndex
 90
       18
102
RTVSPost2010Prop41ColorRGB
 90
        0
102
RTVSPost2010PropOp41
 70
     1
102
RTVSPost2010Prop42
 90
       50
102
RTVSPost2010PropOp42
 70
     1
102
RTVSPost2010Prop43
 90
        3
102
RTVSPost2010PropOp43
 70
     1
102
RTVSPost2010Prop44ColorIndex
 90
        5
102
RTVSPost2010Prop44ColorRGB
 90
      255
102
RTVSPost2010PropOp44
 70
     1
102
RTVSPost2010Prop45
280
     0
102
RTVSPost2010PropOp45
 70
     1
102
RTVSPost2010Prop46
 90
       50
102
RTVSPost2010PropOp46
 70
     1
102
RTVSPost2010Prop47
 90
       50
102
RTVSPost2010PropOp47
 70
     1
102
RTVSPost2010Prop48
 90
       50
102
RTVSPost2010PropOp48
 70
     1
102
RTVSPost2010Prop49
280
     0
102
RTVSPost2010PropOp49
 70
     1
102
RTVSPost2010Prop50
 90
       50
102
RTVSPost2010PropOp50
 70
     1
102
RTVSPost2010Prop51ColorIndex
 90
      256
102
RTVSPost2010Prop51ColorRGB
 90
-16777216
102
RTVSPost2010PropOp51
 70
     0
102
RTVSPost2010Prop52
140
1.0
102
RTVSPost2010PropOp52
 70
     0
102
RTVSPost2010Prop53
 90
        2
102
RTVSPost2010PropOp53
 70
     1
102
RTVSPost2010Prop54
  1
strokes_ogs.tif
102
RTVSPost2010PropOp54
 70
     1
102
RTVSPost2010Prop55
280
     0
102
RTVSPost2010PropOp55
 70
     1
102
RTVSPost2010Prop56
140
1.0
102
RTVSPost2010PropOp56
 70
     1
102
RTVSPost2010Prop57
140
1.0
102
RTVSPost2010PropOp57
 70
     1
102
RTVSPropertyOp0
 70
     1
102
RTVSPropertyOp1
 70
     1
102
RTVSPropertyOp2
 70
     1
102
RTVSPropertyOp3
 70
     1
102
RTVSPropertyOp4
 70
     1
102
RTVSPropertyOp5
 70
     1
102
RTVSPropertyOp6
 70
     1
102
RTVSPropertyOp7
 70
     1
102
RTVSPropertyOp8
 70
     1
102
RTVSPropertyOp9
 70
     1
102
RTVSPropertyOp10
 70
     1
102
RTVSPropertyOp11
 70
     1
102
RTVSPropertyOp12
 70
     1
102
RTVSPropertyOp13
 70
     1
102
RTVSPropertyOp14
 70
     1
102
RTVSPropertyOp15
 70
     1
102
RTVSPropertyOp16
 70
     1
102
RTVSPropertyOp17
 70
     1
102
RTVSPropertyOp18
 70
     1
102
RTVSPropertyOp19
 70
     1
102
RTVSPropertyOp20
 70
     1
102
RTVSPropertyOp21
 70
     1
102
RTVSPropertyOp22
 70
     1
102
RTVSPropertyOp23
 70
     1
102
RTVSPropertyOp24
 70
     1
102
RTVSPropertyOp25
 70
     1
102
RTVSPropertyOp26
 70
     1
102
RTVSPropertyOp27
 70
     1
102
RTVSPropertyOp28
 70
     1
102
RTVSPropertyOp29
 70
     1
102
RTVSPropertyOp30
 70
     1
102
RTVSPropertyOp31
 70
     1
102
RTVSPropertyOp32
 70
     1
102
RTVSPropertyOp33
 70
     1
102
RTVSPropertyOp34
 70
     1
102
RTVSPropertyOp35
 70
     1
102
RTVSPropertyOp36
 70
     1
102
RTVSPropertyOp37
 70
     1
102
RTVSPropertyOp38
 70
     1
102
RTVSPropertyOp39
 70
     1
102
RTVSPropertyOp40
 70
     1
102
RTVSPropertyOp41
 70
     1
102
RTVSPropertyOp42
 70
     1
102
RTVSPropertyOp43
 70
     1
102
RTVSPropertyOp44
 70
     1
102
RTVSPropertyOp45
 70
     1
102
RTVSPropertyOp46
 70
     1
102
RTVSPropertyOp47
 70
     1
102
RTVSPropertyOp48
 70
     1
102
RTVSPropertyOp49
 70
     1
102
RTVSPropertyOp50
 70
     1
102
RTVSPropertyOp51
 70
     0
102
RTVSPropertyOp52
 70
     0
102
RTVSPropertyOp53
 70
     1
102
RTVSPropertyOp54
 70
     1
102
RTVSPropertyOp55
 70
     1
102
RTVSPropertyOp56
 70
     1
102
RTVSPropertyOp57
 70
     1
102
RTVSPropertyOp58
 70
     1
102
RTVSPropertyOp59
 70
     1
102
RTVSPropertyOp60
 70
     1
102
RTVSPropertyOp61
 70
     1
102
RTVSPropertyOp62
 70
     1
  0
XRECORD
  5
4A6
102
{ACAD_REACTORS
330
4A5
102
}
330
4A5
100
AcDbXrecord
280
     1
102
RTVSPost2010Prop28
280
     0
102
RTVSPost2010PropOp28
 70
     1
102
RTVSPost2010Prop29
280
     1
102
RTVSPost2010PropOp29
 70
     1
102
RTVSPost2010Prop30
280
     1
102
RTVSPost2010PropOp30
 70
     1
102
RTVSPost2010Prop31
280
     0
102
RTVSPost2010PropOp31
 70
     1
102
RTVSPost2010Prop32
280
     0
102
RTVSPost2010PropOp32
 70
     1
102
RTVSPost2010Prop33
280
     0
102
RTVSPost2010PropOp33
 70
     1
102
RTVSPost2010Prop34
280
     0
102
RTVSPost2010PropOp34
 70
     1
102
RTVSPost2010Prop35
280
     0
102
RTVSPost2010PropOp35
 70
     1
102
RTVSPost2010Prop36
280
     0
102
RTVSPost2010PropOp36
 70
     1
102
RTVSPost2010Prop37
 90
       50
102
RTVSPost2010PropOp37
 70
     1
102
RTVSPost2010Prop38
140
0.0
102
RTVSPost2010PropOp38
 70
     1
102
RTVSPost2010Prop39
140
1.0
102
RTVSPost2010PropOp39
 70
     1
102
RTVSPost2010Prop40
 90
        0
102
RTVSPost2010PropOp40
 70
     1
102
RTVSPost2010Prop41ColorIndex
 90
       18
102
RTVSPost2010Prop41ColorRGB
 90
        0
102
RTVSPost2010PropOp41
 70
     1
102
RTVSPost2010Prop42
 90
       50
102
RTVSPost2010PropOp42
 70
     1
102
RTVSPost2010Prop43
 90
        3
102
RTVSPost2010PropOp43
 70
     1
102
RTVSPost2010Prop44ColorIndex
 90
        5
102
RTVSPost2010Prop44ColorRGB
 90
      255
102
RTVSPost2010PropOp44
 70
     1
102
RTVSPost2010Prop45
280
     0
102
RTVSPost2010PropOp45
 70
     1
102
RTVSPost2010Prop46
 90
       50
102
RTVSPost2010PropOp46
 70
     1
102
RTVSPost2010Prop47
 90
       50
102
RTVSPost2010PropOp47
 70
     1
102
RTVSPost2010Prop48
 90
       50
102
RTVSPost2010PropOp48
 70
     1
102
RTVSPost2010Prop49
280
     0
102
RTVSPost2010PropOp49
 70
     1
102
RTVSPost2010Prop50
 90
       50
102
RTVSPost2010PropOp50
 70
     1
102
RTVSPost2010Prop51ColorIndex
 90
      256
102
RTVSPost2010Prop51ColorRGB
 90
-16777216
102
RTVSPost2010PropOp51
 70
     0
102
RTVSPost2010Prop52
140
1.0
102
RTVSPost2010PropOp52
 70
     0
102
RTVSPost2010Prop53
 90
        2
102
RTVSPost2010PropOp53
 70
     1
102
RTVSPost2010Prop54
  1
strokes_ogs.tif
102
RTVSPost2010PropOp54
 70
     1
102
RTVSPost2010Prop55
280
     0
102
RTVSPost2010PropOp55
 70
     1
102
RTVSPost2010Prop56
140
1.0
102
RTVSPost2010PropOp56
 70
     1
102
RTVSPost2010Prop57
140
1.0
102
RTVSPost2010PropOp57
 70
     1
102
RTVSPropertyOp0
 70
     1
102
RTVSPropertyOp1
 70
     1
102
RTVSPropertyOp2
 70
     1
102
RTVSPropertyOp3
 70
     1
102
RTVSPropertyOp4
 70
     1
102
RTVSPropertyOp5
 70
     1
102
RTVSPropertyOp6
 70
     1
102
RTVSPropertyOp7
 70
     1
102
RTVSPropertyOp8
 70
     1
102
RTVSPropertyOp9
 70
     1
102
RTVSPropertyOp10
 70
     1
102
RTVSPropertyOp11
 70
     1
102
RTVSPropertyOp12
 70
     1
102
RTVSPropertyOp13
 70
     1
102
RTVSPropertyOp14
 70
     1
102
RTVSPropertyOp15
 70
     1
102
RTVSPropertyOp16
 70
     1
102
RTVSPropertyOp17
 70
     1
102
RTVSPropertyOp18
 70
     1
102
RTVSPropertyOp19
 70
     1
102
RTVSPropertyOp20
 70
     1
102
RTVSPropertyOp21
 70
     1
102
RTVSPropertyOp22
 70
     1
102
RTVSPropertyOp23
 70
     1
102
RTVSPropertyOp24
 70
     1
102
RTVSPropertyOp25
 70
     1
102
RTVSPropertyOp26
 70
     1
102
RTVSPropertyOp27
 70
     1
102
RTVSPropertyOp28
 70
     1
102
RTVSPropertyOp29
 70
     1
102
RTVSPropertyOp30
 70
     1
102
RTVSPropertyOp31
 70
     1
102
RTVSPropertyOp32
 70
     1
102
RTVSPropertyOp33
 70
     1
102
RTVSPropertyOp34
 70
     1
102
RTVSPropertyOp35
 70
     1
102
RTVSPropertyOp36
 70
     1
102
RTVSPropertyOp37
 70
     1
102
RTVSPropertyOp38
 70
     1
102
RTVSPropertyOp39
 70
     1
102
RTVSPropertyOp40
 70
     1
102
RTVSPropertyOp41
 70
     1
102
RTVSPropertyOp42
 70
     1
102
RTVSPropertyOp43
 70
     1
102
RTVSPropertyOp44
 70
     1
102
RTVSPropertyOp45
 70
     1
102
RTVSPropertyOp46
 70
     1
102
RTVSPropertyOp47
 70
     1
102
RTVSPropertyOp48
 70
     1
102
RTVSPropertyOp49
 70
     1
102
RTVSPropertyOp50
 70
     1
102
RTVSPropertyOp51
 70
     0
102
RTVSPropertyOp52
 70
     0
102
RTVSPropertyOp53
 70
     1
102
RTVSPropertyOp54
 70
     1
102
RTVSPropertyOp55
 70
     1
102
RTVSPropertyOp56
 70
     1
102
RTVSPropertyOp57
 70
     1
102
RTVSPropertyOp58
 70
     1
102
RTVSPropertyOp59
 70
     1
102
RTVSPropertyOp60
 70
     1
102
RTVSPropertyOp61
 70
     1
102
RTVSPropertyOp62
 70
     1
  0
XRECORD
  5
4A8
102
{ACAD_REACTORS
330
4A7
102
}
330
4A7
100
AcDbXrecord
280
     1
102
RTVSPost2010Prop28
280
     0
102
RTVSPost2010PropOp28
 70
     1
102
RTVSPost2010Prop29
280
     1
102
RTVSPost2010PropOp29
 70
     1
102
RTVSPost2010Prop30
280
     1
102
RTVSPost2010PropOp30
 70
     1
102
RTVSPost2010Prop31
280
     0
102
RTVSPost2010PropOp31
 70
     1
102
RTVSPost2010Prop32
280
     0
102
RTVSPost2010PropOp32
 70
     1
102
RTVSPost2010Prop33
280
     0
102
RTVSPost2010PropOp33
 70
     1
102
RTVSPost2010Prop34
280
     0
102
RTVSPost2010PropOp34
 70
     1
102
RTVSPost2010Prop35
280
     0
102
RTVSPost2010PropOp35
 70
     1
102
RTVSPost2010Prop36
280
     0
102
RTVSPost2010PropOp36
 70
     1
102
RTVSPost2010Prop37
 90
       50
102
RTVSPost2010PropOp37
 70
     1
102
RTVSPost2010Prop38
140
0.0
102
RTVSPost2010PropOp38
 70
     1
102
RTVSPost2010Prop39
140
1.0
102
RTVSPost2010PropOp39
 70
     1
102
RTVSPost2010Prop40
 90
        0
102
RTVSPost2010PropOp40
 70
     1
102
RTVSPost2010Prop41ColorIndex
 90
       18
102
RTVSPost2010Prop41ColorRGB
 90
        0
102
RTVSPost2010PropOp41
 70
     1
102
RTVSPost2010Prop42
 90
       50
102
RTVSPost2010PropOp42
 70
     1
102
RTVSPost2010Prop43
 90
        3
102
RTVSPost2010PropOp43
 70
     1
102
RTVSPost2010Prop44ColorIndex
 90
        5
102
RTVSPost2010Prop44ColorRGB
 90
      255
102
RTVSPost2010PropOp44
 70
     1
102
RTVSPost2010Prop45
280
     0
102
RTVSPost2010PropOp45
 70
     1
102
RTVSPost2010Prop46
 90
       50
102
RTVSPost2010PropOp46
 70
     1
102
RTVSPost2010Prop47
 90
       50
102
RTVSPost2010PropOp47
 70
     1
102
RTVSPost2010Prop48
 90
       50
102
RTVSPost2010PropOp48
 70
     1
102
RTVSPost2010Prop49
280
     0
102
RTVSPost2010PropOp49
 70
     1
102
RTVSPost2010Prop50
 90
       50
102
RTVSPost2010PropOp50
 70
     1
102
RTVSPost2010Prop51ColorIndex
 90
      256
102
RTVSPost2010Prop51ColorRGB
 90
-16777216
102
RTVSPost2010PropOp51
 70
     0
102
RTVSPost2010Prop52
140
1.0
102
RTVSPost2010PropOp52
 70
     0
102
RTVSPost2010Prop53
 90
        2
102
RTVSPost2010PropOp53
 70
     1
102
RTVSPost2010Prop54
  1
strokes_ogs.tif
102
RTVSPost2010PropOp54
 70
     1
102
RTVSPost2010Prop55
280
     0
102
RTVSPost2010PropOp55
 70
     1
102
RTVSPost2010Prop56
140
1.0
102
RTVSPost2010PropOp56
 70
     1
102
RTVSPost2010Prop57
140
1.0
102
RTVSPost2010PropOp57
 70
     1
102
RTVSPropertyOp0
 70
     1
102
RTVSPropertyOp1
 70
     1
102
RTVSPropertyOp2
 70
     1
102
RTVSPropertyOp3
 70
     1
102
RTVSPropertyOp4
 70
     1
102
RTVSPropertyOp5
 70
     1
102
RTVSPropertyOp6
 70
     1
102
RTVSPropertyOp7
 70
     1
102
RTVSPropertyOp8
 70
     1
102
RTVSPropertyOp9
 70
     1
102
RTVSPropertyOp10
 70
     1
102
RTVSPropertyOp11
 70
     1
102
RTVSPropertyOp12
 70
     1
102
RTVSPropertyOp13
 70
     1
102
RTVSPropertyOp14
 70
     1
102
RTVSPropertyOp15
 70
     1
102
RTVSPropertyOp16
 70
     1
102
RTVSPropertyOp17
 70
     1
102
RTVSPropertyOp18
 70
     1
102
RTVSPropertyOp19
 70
     1
102
RTVSPropertyOp20
 70
     1
102
RTVSPropertyOp21
 70
     1
102
RTVSPropertyOp22
 70
     1
102
RTVSPropertyOp23
 70
     1
102
RTVSPropertyOp24
 70
     1
102
RTVSPropertyOp25
 70
     1
102
RTVSPropertyOp26
 70
     1
102
RTVSPropertyOp27
 70
     1
102
RTVSPropertyOp28
 70
     1
102
RTVSPropertyOp29
 70
     1
102
RTVSPropertyOp30
 70
     1
102
RTVSPropertyOp31
 70
     1
102
RTVSPropertyOp32
 70
     1
102
RTVSPropertyOp33
 70
     1
102
RTVSPropertyOp34
 70
     1
102
RTVSPropertyOp35
 70
     1
102
RTVSPropertyOp36
 70
     1
102
RTVSPropertyOp37
 70
     1
102
RTVSPropertyOp38
 70
     1
102
RTVSPropertyOp39
 70
     1
102
RTVSPropertyOp40
 70
     1
102
RTVSPropertyOp41
 70
     1
102
RTVSPropertyOp42
 70
     1
102
RTVSPropertyOp43
 70
     1
102
RTVSPropertyOp44
 70
     1
102
RTVSPropertyOp45
 70
     1
102
RTVSPropertyOp46
 70
     1
102
RTVSPropertyOp47
 70
     1
102
RTVSPropertyOp48
 70
     1
102
RTVSPropertyOp49
 70
     1
102
RTVSPropertyOp50
 70
     1
102
RTVSPropertyOp51
 70
     0
102
RTVSPropertyOp52
 70
     0
102
RTVSPropertyOp53
 70
     1
102
RTVSPropertyOp54
 70
     1
102
RTVSPropertyOp55
 70
     1
102
RTVSPropertyOp56
 70
     1
102
RTVSPropertyOp57
 70
     1
102
RTVSPropertyOp58
 70
     1
102
RTVSPropertyOp59
 70
     1
102
RTVSPropertyOp60
 70
     1
102
RTVSPropertyOp61
 70
     1
102
RTVSPropertyOp62
 70
     1
  0
XRECORD
  5
4AA
102
{ACAD_REACTORS
330
4A9
102
}
330
4A9
100
AcDbXrecord
280
     1
102
RTVSPost2010Prop28
280
     0
102
RTVSPost2010PropOp28
 70
     1
102
RTVSPost2010Prop29
280
     1
102
RTVSPost2010PropOp29
 70
     1
102
RTVSPost2010Prop30
280
     1
102
RTVSPost2010PropOp30
 70
     1
102
RTVSPost2010Prop31
280
     0
102
RTVSPost2010PropOp31
 70
     1
102
RTVSPost2010Prop32
280
     0
102
RTVSPost2010PropOp32
 70
     1
102
RTVSPost2010Prop33
280
     0
102
RTVSPost2010PropOp33
 70
     1
102
RTVSPost2010Prop34
280
     0
102
RTVSPost2010PropOp34
 70
     1
102
RTVSPost2010Prop35
280
     0
102
RTVSPost2010PropOp35
 70
     1
102
RTVSPost2010Prop36
280
     0
102
RTVSPost2010PropOp36
 70
     1
102
RTVSPost2010Prop37
 90
       50
102
RTVSPost2010PropOp37
 70
     1
102
RTVSPost2010Prop38
140
0.0
102
RTVSPost2010PropOp38
 70
     1
102
RTVSPost2010Prop39
140
1.0
102
RTVSPost2010PropOp39
 70
     1
102
RTVSPost2010Prop40
 90
        0
102
RTVSPost2010PropOp40
 70
     1
102
RTVSPost2010Prop41ColorIndex
 90
       18
102
RTVSPost2010Prop41ColorRGB
 90
        0
102
RTVSPost2010PropOp41
 70
     1
102
RTVSPost2010Prop42
 90
       50
102
RTVSPost2010PropOp42
 70
     1
102
RTVSPost2010Prop43
 90
        3
102
RTVSPost2010PropOp43
 70
     1
102
RTVSPost2010Prop44ColorIndex
 90
        5
102
RTVSPost2010Prop44ColorRGB
 90
      255
102
RTVSPost2010PropOp44
 70
     1
102
RTVSPost2010Prop45
280
     0
102
RTVSPost2010PropOp45
 70
     1
102
RTVSPost2010Prop46
 90
       50
102
RTVSPost2010PropOp46
 70
     1
102
RTVSPost2010Prop47
 90
       50
102
RTVSPost2010PropOp47
 70
     1
102
RTVSPost2010Prop48
 90
       50
102
RTVSPost2010PropOp48
 70
     1
102
RTVSPost2010Prop49
280
     0
102
RTVSPost2010PropOp49
 70
     1
102
RTVSPost2010Prop50
 90
       50
102
RTVSPost2010PropOp50
 70
     1
102
RTVSPost2010Prop51ColorIndex
 90
      256
102
RTVSPost2010Prop51ColorRGB
 90
-16777216
102
RTVSPost2010PropOp51
 70
     0
102
RTVSPost2010Prop52
140
1.0
102
RTVSPost2010PropOp52
 70
     0
102
RTVSPost2010Prop53
 90
        2
102
RTVSPost2010PropOp53
 70
     1
102
RTVSPost2010Prop54
  1
strokes_ogs.tif
102
RTVSPost2010PropOp54
 70
     1
102
RTVSPost2010Prop55
280
     0
102
RTVSPost2010PropOp55
 70
     1
102
RTVSPost2010Prop56
140
1.0
102
RTVSPost2010PropOp56
 70
     1
102
RTVSPost2010Prop57
140
1.0
102
RTVSPost2010PropOp57
 70
     1
102
RTVSPropertyOp0
 70
     1
102
RTVSPropertyOp1
 70
     1
102
RTVSPropertyOp2
 70
     1
102
RTVSPropertyOp3
 70
     1
102
RTVSPropertyOp4
 70
     1
102
RTVSPropertyOp5
 70
     1
102
RTVSPropertyOp6
 70
     1
102
RTVSPropertyOp7
 70
     1
102
RTVSPropertyOp8
 70
     1
102
RTVSPropertyOp9
 70
     1
102
RTVSPropertyOp10
 70
     1
102
RTVSPropertyOp11
 70
     1
102
RTVSPropertyOp12
 70
     1
102
RTVSPropertyOp13
 70
     1
102
RTVSPropertyOp14
 70
     1
102
RTVSPropertyOp15
 70
     1
102
RTVSPropertyOp16
 70
     1
102
RTVSPropertyOp17
 70
     1
102
RTVSPropertyOp18
 70
     1
102
RTVSPropertyOp19
 70
     1
102
RTVSPropertyOp20
 70
     1
102
RTVSPropertyOp21
 70
     1
102
RTVSPropertyOp22
 70
     1
102
RTVSPropertyOp23
 70
     1
102
RTVSPropertyOp24
 70
     1
102
RTVSPropertyOp25
 70
     1
102
RTVSPropertyOp26
 70
     1
102
RTVSPropertyOp27
 70
     1
102
RTVSPropertyOp28
 70
     1
102
RTVSPropertyOp29
 70
     1
102
RTVSPropertyOp30
 70
     1
102
RTVSPropertyOp31
 70
     1
102
RTVSPropertyOp32
 70
     1
102
RTVSPropertyOp33
 70
     1
102
RTVSPropertyOp34
 70
     1
102
RTVSPropertyOp35
 70
     1
102
RTVSPropertyOp36
 70
     1
102
RTVSPropertyOp37
 70
     1
102
RTVSPropertyOp38
 70
     1
102
RTVSPropertyOp39
 70
     1
102
RTVSPropertyOp40
 70
     1
102
RTVSPropertyOp41
 70
     1
102
RTVSPropertyOp42
 70
     1
102
RTVSPropertyOp43
 70
     1
102
RTVSPropertyOp44
 70
     1
102
RTVSPropertyOp45
 70
     1
102
RTVSPropertyOp46
 70
     1
102
RTVSPropertyOp47
 70
     1
102
RTVSPropertyOp48
 70
     1
102
RTVSPropertyOp49
 70
     1
102
RTVSPropertyOp50
 70
     1
102
RTVSPropertyOp51
 70
     0
102
RTVSPropertyOp52
 70
     0
102
RTVSPropertyOp53
 70
     1
102
RTVSPropertyOp54
 70
     1
102
RTVSPropertyOp55
 70
     1
102
RTVSPropertyOp56
 70
     1
102
RTVSPropertyOp57
 70
     1
102
RTVSPropertyOp58
 70
     1
102
RTVSPropertyOp59
 70
     1
102
RTVSPropertyOp60
 70
     1
102
RTVSPropertyOp61
 70
     1
102
RTVSPropertyOp62
 70
     1
  0
XRECORD
  5
4AC
102
{ACAD_REACTORS
330
4AB
102
}
330
4AB
100
AcDbXrecord
280
     1
102
RTVSPost2010Prop28
280
     0
102
RTVSPost2010PropOp28
 70
     1
102
RTVSPost2010Prop29
280
     1
102
RTVSPost2010PropOp29
 70
     1
102
RTVSPost2010Prop30
280
     1
102
RTVSPost2010PropOp30
 70
     1
102
RTVSPost2010Prop31
280
     0
102
RTVSPost2010PropOp31
 70
     1
102
RTVSPost2010Prop32
280
     0
102
RTVSPost2010PropOp32
 70
     1
102
RTVSPost2010Prop33
280
     0
102
RTVSPost2010PropOp33
 70
     1
102
RTVSPost2010Prop34
280
     0
102
RTVSPost2010PropOp34
 70
     1
102
RTVSPost2010Prop35
280
     0
102
RTVSPost2010PropOp35
 70
     1
102
RTVSPost2010Prop36
280
     0
102
RTVSPost2010PropOp36
 70
     1
102
RTVSPost2010Prop37
 90
       50
102
RTVSPost2010PropOp37
 70
     1
102
RTVSPost2010Prop38
140
0.0
102
RTVSPost2010PropOp38
 70
     1
102
RTVSPost2010Prop39
140
1.0
102
RTVSPost2010PropOp39
 70
     1
102
RTVSPost2010Prop40
 90
        0
102
RTVSPost2010PropOp40
 70
     1
102
RTVSPost2010Prop41ColorIndex
 90
       18
102
RTVSPost2010Prop41ColorRGB
 90
        0
102
RTVSPost2010PropOp41
 70
     1
102
RTVSPost2010Prop42
 90
       50
102
RTVSPost2010PropOp42
 70
     1
102
RTVSPost2010Prop43
 90
        3
102
RTVSPost2010PropOp43
 70
     1
102
RTVSPost2010Prop44ColorIndex
 90
        5
102
RTVSPost2010Prop44ColorRGB
 90
      255
102
RTVSPost2010PropOp44
 70
     1
102
RTVSPost2010Prop45
280
     0
102
RTVSPost2010PropOp45
 70
     1
102
RTVSPost2010Prop46
 90
       50
102
RTVSPost2010PropOp46
 70
     1
102
RTVSPost2010Prop47
 90
       50
102
RTVSPost2010PropOp47
 70
     1
102
RTVSPost2010Prop48
 90
       50
102
RTVSPost2010PropOp48
 70
     1
102
RTVSPost2010Prop49
280
     0
102
RTVSPost2010PropOp49
 70
     1
102
RTVSPost2010Prop50
 90
       50
102
RTVSPost2010PropOp50
 70
     1
102
RTVSPost2010Prop51ColorIndex
 90
      256
102
RTVSPost2010Prop51ColorRGB
 90
-16777216
102
RTVSPost2010PropOp51
 70
     0
102
RTVSPost2010Prop52
140
1.0
102
RTVSPost2010PropOp52
 70
     0
102
RTVSPost2010Prop53
 90
        2
102
RTVSPost2010PropOp53
 70
     1
102
RTVSPost2010Prop54
  1
strokes_ogs.tif
102
RTVSPost2010PropOp54
 70
     1
102
RTVSPost2010Prop55
280
     0
102
RTVSPost2010PropOp55
 70
     1
102
RTVSPost2010Prop56
140
1.0
102
RTVSPost2010PropOp56
 70
     1
102
RTVSPost2010Prop57
140
1.0
102
RTVSPost2010PropOp57
 70
     1
102
RTVSPropertyOp0
 70
     1
102
RTVSPropertyOp1
 70
     1
102
RTVSPropertyOp2
 70
     1
102
RTVSPropertyOp3
 70
     1
102
RTVSPropertyOp4
 70
     1
102
RTVSPropertyOp5
 70
     1
102
RTVSPropertyOp6
 70
     1
102
RTVSPropertyOp7
 70
     1
102
RTVSPropertyOp8
 70
     1
102
RTVSPropertyOp9
 70
     1
102
RTVSPropertyOp10
 70
     1
102
RTVSPropertyOp11
 70
     1
102
RTVSPropertyOp12
 70
     1
102
RTVSPropertyOp13
 70
     1
102
RTVSPropertyOp14
 70
     1
102
RTVSPropertyOp15
 70
     1
102
RTVSPropertyOp16
 70
     1
102
RTVSPropertyOp17
 70
     1
102
RTVSPropertyOp18
 70
     1
102
RTVSPropertyOp19
 70
     1
102
RTVSPropertyOp20
 70
     1
102
RTVSPropertyOp21
 70
     1
102
RTVSPropertyOp22
 70
     1
102
RTVSPropertyOp23
 70
     1
102
RTVSPropertyOp24
 70
     1
102
RTVSPropertyOp25
 70
     1
102
RTVSPropertyOp26
 70
     1
102
RTVSPropertyOp27
 70
     1
102
RTVSPropertyOp28
 70
     1
102
RTVSPropertyOp29
 70
     1
102
RTVSPropertyOp30
 70
     1
102
RTVSPropertyOp31
 70
     1
102
RTVSPropertyOp32
 70
     1
102
RTVSPropertyOp33
 70
     1
102
RTVSPropertyOp34
 70
     1
102
RTVSPropertyOp35
 70
     1
102
RTVSPropertyOp36
 70
     1
102
RTVSPropertyOp37
 70
     1
102
RTVSPropertyOp38
 70
     1
102
RTVSPropertyOp39
 70
     1
102
RTVSPropertyOp40
 70
     1
102
RTVSPropertyOp41
 70
     1
102
RTVSPropertyOp42
 70
     1
102
RTVSPropertyOp43
 70
     1
102
RTVSPropertyOp44
 70
     1
102
RTVSPropertyOp45
 70
     1
102
RTVSPropertyOp46
 70
     1
102
RTVSPropertyOp47
 70
     1
102
RTVSPropertyOp48
 70
     1
102
RTVSPropertyOp49
 70
     1
102
RTVSPropertyOp50
 70
     1
102
RTVSPropertyOp51
 70
     0
102
RTVSPropertyOp52
 70
     0
102
RTVSPropertyOp53
 70
     1
102
RTVSPropertyOp54
 70
     1
102
RTVSPropertyOp55
 70
     1
102
RTVSPropertyOp56
 70
     1
102
RTVSPropertyOp57
 70
     1
102
RTVSPropertyOp58
 70
     1
102
RTVSPropertyOp59
 70
     1
102
RTVSPropertyOp60
 70
     1
102
RTVSPropertyOp61
 70
     1
102
RTVSPropertyOp62
 70
     1
  0
XRECORD
  5
4B4
102
{ACAD_REACTORS
330
4B3
102
}
330
4B3
100
AcDbXrecord
280
     1
102
RTVSPost2010Prop28
280
     0
102
RTVSPost2010PropOp28
 70
     1
102
RTVSPost2010Prop29
280
     1
102
RTVSPost2010PropOp29
 70
     1
102
RTVSPost2010Prop30
280
     1
102
RTVSPost2010PropOp30
 70
     1
102
RTVSPost2010Prop31
280
     0
102
RTVSPost2010PropOp31
 70
     1
102
RTVSPost2010Prop32
280
     0
102
RTVSPost2010PropOp32
 70
     1
102
RTVSPost2010Prop33
280
     0
102
RTVSPost2010PropOp33
 70
     1
102
RTVSPost2010Prop34
280
     0
102
RTVSPost2010PropOp34
 70
     1
102
RTVSPost2010Prop35
280
     0
102
RTVSPost2010PropOp35
 70
     1
102
RTVSPost2010Prop36
280
     0
102
RTVSPost2010PropOp36
 70
     1
102
RTVSPost2010Prop37
 90
       50
102
RTVSPost2010PropOp37
 70
     1
102
RTVSPost2010Prop38
140
0.0
102
RTVSPost2010PropOp38
 70
     1
102
RTVSPost2010Prop39
140
1.0
102
RTVSPost2010PropOp39
 70
     1
102
RTVSPost2010Prop40
 90
        0
102
RTVSPost2010PropOp40
 70
     1
102
RTVSPost2010Prop41ColorIndex
 90
       18
102
RTVSPost2010Prop41ColorRGB
 90
        0
102
RTVSPost2010PropOp41
 70
     1
102
RTVSPost2010Prop42
 90
       50
102
RTVSPost2010PropOp42
 70
     1
102
RTVSPost2010Prop43
 90
        3
102
RTVSPost2010PropOp43
 70
     1
102
RTVSPost2010Prop44ColorIndex
 90
        5
102
RTVSPost2010Prop44ColorRGB
 90
      255
102
RTVSPost2010PropOp44
 70
     1
102
RTVSPost2010Prop45
280
     0
102
RTVSPost2010PropOp45
 70
     1
102
RTVSPost2010Prop46
 90
       50
102
RTVSPost2010PropOp46
 70
     1
102
RTVSPost2010Prop47
 90
       50
102
RTVSPost2010PropOp47
 70
     1
102
RTVSPost2010Prop48
 90
       50
102
RTVSPost2010PropOp48
 70
     1
102
RTVSPost2010Prop49
280
     0
102
RTVSPost2010PropOp49
 70
     1
102
RTVSPost2010Prop50
 90
       50
102
RTVSPost2010PropOp50
 70
     1
102
RTVSPost2010Prop51ColorIndex
 90
      256
102
RTVSPost2010Prop51ColorRGB
 90
-16777216
102
RTVSPost2010PropOp51
 70
     0
102
RTVSPost2010Prop52
140
1.0
102
RTVSPost2010PropOp52
 70
     0
102
RTVSPost2010Prop53
 90
        2
102
RTVSPost2010PropOp53
 70
     1
102
RTVSPost2010Prop54
  1
strokes_ogs.tif
102
RTVSPost2010PropOp54
 70
     1
102
RTVSPost2010Prop55
280
     0
102
RTVSPost2010PropOp55
 70
     1
102
RTVSPost2010Prop56
140
1.0
102
RTVSPost2010PropOp56
 70
     1
102
RTVSPost2010Prop57
140
1.0
102
RTVSPost2010PropOp57
 70
     1
102
RTVSPropertyOp0
 70
     1
102
RTVSPropertyOp1
 70
     1
102
RTVSPropertyOp2
 70
     1
102
RTVSPropertyOp3
 70
     1
102
RTVSPropertyOp4
 70
     1
102
RTVSPropertyOp5
 70
     1
102
RTVSPropertyOp6
 70
     1
102
RTVSPropertyOp7
 70
     1
102
RTVSPropertyOp8
 70
     1
102
RTVSPropertyOp9
 70
     1
102
RTVSPropertyOp10
 70
     1
102
RTVSPropertyOp11
 70
     1
102
RTVSPropertyOp12
 70
     1
102
RTVSPropertyOp13
 70
     1
102
RTVSPropertyOp14
 70
     1
102
RTVSPropertyOp15
 70
     1
102
RTVSPropertyOp16
 70
     1
102
RTVSPropertyOp17
 70
     1
102
RTVSPropertyOp18
 70
     1
102
RTVSPropertyOp19
 70
     1
102
RTVSPropertyOp20
 70
     1
102
RTVSPropertyOp21
 70
     1
102
RTVSPropertyOp22
 70
     1
102
RTVSPropertyOp23
 70
     1
102
RTVSPropertyOp24
 70
     1
102
RTVSPropertyOp25
 70
     1
102
RTVSPropertyOp26
 70
     1
102
RTVSPropertyOp27
 70
     1
102
RTVSPropertyOp28
 70
     1
102
RTVSPropertyOp29
 70
     1
102
RTVSPropertyOp30
 70
     1
102
RTVSPropertyOp31
 70
     1
102
RTVSPropertyOp32
 70
     1
102
RTVSPropertyOp33
 70
     1
102
RTVSPropertyOp34
 70
     1
102
RTVSPropertyOp35
 70
     1
102
RTVSPropertyOp36
 70
     1
102
RTVSPropertyOp37
 70
     1
102
RTVSPropertyOp38
 70
     1
102
RTVSPropertyOp39
 70
     1
102
RTVSPropertyOp40
 70
     1
102
RTVSPropertyOp41
 70
     1
102
RTVSPropertyOp42
 70
     1
102
RTVSPropertyOp43
 70
     1
102
RTVSPropertyOp44
 70
     1
102
RTVSPropertyOp45
 70
     1
102
RTVSPropertyOp46
 70
     1
102
RTVSPropertyOp47
 70
     1
102
RTVSPropertyOp48
 70
     1
102
RTVSPropertyOp49
 70
     1
102
RTVSPropertyOp50
 70
     1
102
RTVSPropertyOp51
 70
     0
102
RTVSPropertyOp52
 70
     0
102
RTVSPropertyOp53
 70
     1
102
RTVSPropertyOp54
 70
     1
102
RTVSPropertyOp55
 70
     1
102
RTVSPropertyOp56
 70
     1
102
RTVSPropertyOp57
 70
     1
102
RTVSPropertyOp58
 70
     1
102
RTVSPropertyOp59
 70
     1
102
RTVSPropertyOp60
 70
     1
102
RTVSPropertyOp61
 70
     1
102
RTVSPropertyOp62
 70
     1
  0
XRECORD
  5
4D0
102
{ACAD_REACTORS
330
4CF
102
}
330
4CF
100
AcDbXrecord
280
     1
102
RTVSPost2010Prop28
280
     0
102
RTVSPost2010PropOp28
 70
     1
102
RTVSPost2010Prop29
280
     1
102
RTVSPost2010PropOp29
 70
     1
102
RTVSPost2010Prop30
280
     1
102
RTVSPost2010PropOp30
 70
     1
102
RTVSPost2010Prop31
280
     0
102
RTVSPost2010PropOp31
 70
     1
102
RTVSPost2010Prop32
280
     0
102
RTVSPost2010PropOp32
 70
     1
102
RTVSPost2010Prop33
280
     0
102
RTVSPost2010PropOp33
 70
     1
102
RTVSPost2010Prop34
280
     0
102
RTVSPost2010PropOp34
 70
     1
102
RTVSPost2010Prop35
280
     0
102
RTVSPost2010PropOp35
 70
     1
102
RTVSPost2010Prop36
280
     0
102
RTVSPost2010PropOp36
 70
     1
102
RTVSPost2010Prop37
 90
       50
102
RTVSPost2010PropOp37
 70
     0
102
RTVSPost2010Prop38
140
0.0
102
RTVSPost2010PropOp38
 70
     0
102
RTVSPost2010Prop39
140
1.0
102
RTVSPost2010PropOp39
 70
     0
102
RTVSPost2010Prop40
 90
        0
102
RTVSPost2010PropOp40
 70
     0
102
RTVSPost2010Prop41ColorIndex
 90
       18
102
RTVSPost2010Prop41ColorRGB
 90
        0
102
RTVSPost2010PropOp41
 70
     0
102
RTVSPost2010Prop42
 90
       50
102
RTVSPost2010PropOp42
 70
     0
102
RTVSPost2010Prop43
 90
        3
102
RTVSPost2010PropOp43
 70
     0
102
RTVSPost2010Prop44ColorIndex
 90
        5
102
RTVSPost2010Prop44ColorRGB
 90
      255
102
RTVSPost2010PropOp44
 70
     0
102
RTVSPost2010Prop45
280
     0
102
RTVSPost2010PropOp45
 70
     1
102
RTVSPost2010Prop46
 90
       50
102
RTVSPost2010PropOp46
 70
     0
102
RTVSPost2010Prop47
 90
       50
102
RTVSPost2010PropOp47
 70
     0
102
RTVSPost2010Prop48
 90
       50
102
RTVSPost2010PropOp48
 70
     0
102
RTVSPost2010Prop49
280
     0
102
RTVSPost2010PropOp49
 70
     1
102
RTVSPost2010Prop50
 90
       50
102
RTVSPost2010PropOp50
 70
     0
102
RTVSPost2010Prop51ColorIndex
 90
      256
102
RTVSPost2010Prop51ColorRGB
 90
-16777216
102
RTVSPost2010PropOp51
 70
     0
102
RTVSPost2010Prop52
140
1.0
102
RTVSPost2010PropOp52
 70
     0
102
RTVSPost2010Prop53
 90
        2
102
RTVSPost2010PropOp53
 70
     0
102
RTVSPost2010Prop54
  1
strokes_ogs.tif
102
RTVSPost2010PropOp54
 70
     0
102
RTVSPost2010Prop55
280
     0
102
RTVSPost2010PropOp55
 70
     1
102
RTVSPost2010Prop56
140
1.0
102
RTVSPost2010PropOp56
 70
     0
102
RTVSPost2010Prop57
140
1.0
102
RTVSPost2010PropOp57
 70
     0
102
RTVSPropertyOp0
 70
     0
102
RTVSPropertyOp1
 70
     0
102
RTVSPropertyOp2
 70
     0
102
RTVSPropertyOp3
 70
     0
102
RTVSPropertyOp4
 70
     0
102
RTVSPropertyOp5
 70
     0
102
RTVSPropertyOp6
 70
     0
102
RTVSPropertyOp7
 70
     0
102
RTVSPropertyOp8
 70
     0
102
RTVSPropertyOp9
 70
     0
102
RTVSPropertyOp10
 70
     0
102
RTVSPropertyOp11
 70
     0
102
RTVSPropertyOp12
 70
     0
102
RTVSPropertyOp13
 70
     0
102
RTVSPropertyOp14
 70
     2
102
RTVSPropertyOp15
 70
     0
102
RTVSPropertyOp16
 70
     0
102
RTVSPropertyOp17
 70
     0
102
RTVSPropertyOp18
 70
     0
102
RTVSPropertyOp19
 70
     0
102
RTVSPropertyOp20
 70
     0
102
RTVSPropertyOp21
 70
     0
102
RTVSPropertyOp22
 70
     0
102
RTVSPropertyOp23
 70
     0
102
RTVSPropertyOp24
 70
     0
102
RTVSPropertyOp25
 70
     0
102
RTVSPropertyOp26
 70
     0
102
RTVSPropertyOp27
 70
     0
102
RTVSPropertyOp28
 70
     1
102
RTVSPropertyOp29
 70
     1
102
RTVSPropertyOp30
 70
     1
102
RTVSPropertyOp31
 70
     1
102
RTVSPropertyOp32
 70
     1
102
RTVSPropertyOp33
 70
     1
102
RTVSPropertyOp34
 70
     1
102
RTVSPropertyOp35
 70
     1
102
RTVSPropertyOp36
 70
     1
102
RTVSPropertyOp37
 70
     0
102
RTVSPropertyOp38
 70
     0
102
RTVSPropertyOp39
 70
     0
102
RTVSPropertyOp40
 70
     0
102
RTVSPropertyOp41
 70
     0
102
RTVSPropertyOp42
 70
     0
102
RTVSPropertyOp43
 70
     0
102
RTVSPropertyOp44
 70
     0
102
RTVSPropertyOp45
 70
     1
102
RTVSPropertyOp46
 70
     0
102
RTVSPropertyOp47
 70
     0
102
RTVSPropertyOp48
 70
     0
102
RTVSPropertyOp49
 70
     1
102
RTVSPropertyOp50
 70
     0
102
RTVSPropertyOp51
 70
     0
102
RTVSPropertyOp52
 70
     0
102
RTVSPropertyOp53
 70
     0
102
RTVSPropertyOp54
 70
     0
102
RTVSPropertyOp55
 70
     1
102
RTVSPropertyOp56
 70
     0
102
RTVSPropertyOp57
 70
     0
102
RTVSPropertyOp58
 70
     1
102
RTVSPropertyOp59
 70
     1
102
RTVSPropertyOp60
 70
     1
102
RTVSPropertyOp61
 70
     1
102
RTVSPropertyOp62
 70
     1
  0
XRECORD
  5
4C0
102
{ACAD_REACTORS
330
4BF
102
}
330
4BF
100
AcDbXrecord
280
     1
102
RTVSPost2010Prop28
280
     0
102
RTVSPost2010PropOp28
 70
     1
102
RTVSPost2010Prop29
280
     1
102
RTVSPost2010PropOp29
 70
     1
102
RTVSPost2010Prop30
280
     1
102
RTVSPost2010PropOp30
 70
     1
102
RTVSPost2010Prop31
280
     0
102
RTVSPost2010PropOp31
 70
     1
102
RTVSPost2010Prop32
280
     0
102
RTVSPost2010PropOp32
 70
     1
102
RTVSPost2010Prop33
280
     0
102
RTVSPost2010PropOp33
 70
     1
102
RTVSPost2010Prop34
280
     0
102
RTVSPost2010PropOp34
 70
     1
102
RTVSPost2010Prop35
280
     0
102
RTVSPost2010PropOp35
 70
     1
102
RTVSPost2010Prop36
280
     0
102
RTVSPost2010PropOp36
 70
     1
102
RTVSPost2010Prop37
 90
       50
102
RTVSPost2010PropOp37
 70
     1
102
RTVSPost2010Prop38
140
0.0
102
RTVSPost2010PropOp38
 70
     1
102
RTVSPost2010Prop39
140
1.0
102
RTVSPost2010PropOp39
 70
     1
102
RTVSPost2010Prop40
 90
        0
102
RTVSPost2010PropOp40
 70
     1
102
RTVSPost2010Prop41ColorIndex
 90
       18
102
RTVSPost2010Prop41ColorRGB
 90
        0
102
RTVSPost2010PropOp41
 70
     1
102
RTVSPost2010Prop42
 90
       50
102
RTVSPost2010PropOp42
 70
     1
102
RTVSPost2010Prop43
 90
        3
102
RTVSPost2010PropOp43
 70
     1
102
RTVSPost2010Prop44ColorIndex
 90
        5
102
RTVSPost2010Prop44ColorRGB
 90
      255
102
RTVSPost2010PropOp44
 70
     1
102
RTVSPost2010Prop45
280
     0
102
RTVSPost2010PropOp45
 70
     1
102
RTVSPost2010Prop46
 90
       50
102
RTVSPost2010PropOp46
 70
     1
102
RTVSPost2010Prop47
 90
       50
102
RTVSPost2010PropOp47
 70
     1
102
RTVSPost2010Prop48
 90
       50
102
RTVSPost2010PropOp48
 70
     1
102
RTVSPost2010Prop49
280
     0
102
RTVSPost2010PropOp49
 70
     1
102
RTVSPost2010Prop50
 90
       50
102
RTVSPost2010PropOp50
 70
     1
102
RTVSPost2010Prop51ColorIndex
 90
      256
102
RTVSPost2010Prop51ColorRGB
 90
-16777216
102
RTVSPost2010PropOp51
 70
     0
102
RTVSPost2010Prop52
140
1.0
102
RTVSPost2010PropOp52
 70
     0
102
RTVSPost2010Prop53
 90
        2
102
RTVSPost2010PropOp53
 70
     1
102
RTVSPost2010Prop54
  1
strokes_ogs.tif
102
RTVSPost2010PropOp54
 70
     1
102
RTVSPost2010Prop55
280
     0
102
RTVSPost2010PropOp55
 70
     1
102
RTVSPost2010Prop56
140
1.0
102
RTVSPost2010PropOp56
 70
     1
102
RTVSPost2010Prop57
140
1.0
102
RTVSPost2010PropOp57
 70
     1
102
RTVSPropertyOp0
 70
     1
102
RTVSPropertyOp1
 70
     1
102
RTVSPropertyOp2
 70
     1
102
RTVSPropertyOp3
 70
     1
102
RTVSPropertyOp4
 70
     1
102
RTVSPropertyOp5
 70
     1
102
RTVSPropertyOp6
 70
     1
102
RTVSPropertyOp7
 70
     1
102
RTVSPropertyOp8
 70
     1
102
RTVSPropertyOp9
 70
     1
102
RTVSPropertyOp10
 70
     1
102
RTVSPropertyOp11
 70
     1
102
RTVSPropertyOp12
 70
     1
102
RTVSPropertyOp13
 70
     1
102
RTVSPropertyOp14
 70
     1
102
RTVSPropertyOp15
 70
     1
102
RTVSPropertyOp16
 70
     1
102
RTVSPropertyOp17
 70
     1
102
RTVSPropertyOp18
 70
     1
102
RTVSPropertyOp19
 70
     1
102
RTVSPropertyOp20
 70
     1
102
RTVSPropertyOp21
 70
     1
102
RTVSPropertyOp22
 70
     1
102
RTVSPropertyOp23
 70
     1
102
RTVSPropertyOp24
 70
     1
102
RTVSPropertyOp25
 70
     1
102
RTVSPropertyOp26
 70
     1
102
RTVSPropertyOp27
 70
     1
102
RTVSPropertyOp28
 70
     1
102
RTVSPropertyOp29
 70
     1
102
RTVSPropertyOp30
 70
     1
102
RTVSPropertyOp31
 70
     1
102
RTVSPropertyOp32
 70
     1
102
RTVSPropertyOp33
 70
     1
102
RTVSPropertyOp34
 70
     1
102
RTVSPropertyOp35
 70
     1
102
RTVSPropertyOp36
 70
     1
102
RTVSPropertyOp37
 70
     1
102
RTVSPropertyOp38
 70
     1
102
RTVSPropertyOp39
 70
     1
102
RTVSPropertyOp40
 70
     1
102
RTVSPropertyOp41
 70
     1
102
RTVSPropertyOp42
 70
     1
102
RTVSPropertyOp43
 70
     1
102
RTVSPropertyOp44
 70
     1
102
RTVSPropertyOp45
 70
     1
102
RTVSPropertyOp46
 70
     1
102
RTVSPropertyOp47
 70
     1
102
RTVSPropertyOp48
 70
     1
102
RTVSPropertyOp49
 70
     1
102
RTVSPropertyOp50
 70
     1
102
RTVSPropertyOp51
 70
     0
102
RTVSPropertyOp52
 70
     0
102
RTVSPropertyOp53
 70
     1
102
RTVSPropertyOp54
 70
     1
102
RTVSPropertyOp55
 70
     1
102
RTVSPropertyOp56
 70
     1
102
RTVSPropertyOp57
 70
     1
102
RTVSPropertyOp58
 70
     1
102
RTVSPropertyOp59
 70
     1
102
RTVSPropertyOp60
 70
     1
102
RTVSPropertyOp61
 70
     1
102
RTVSPropertyOp62
 70
     1
  0
XRECORD
  5
4D2
102
{ACAD_REACTORS
330
4D1
102
}
330
4D1
100
AcDbXrecord
280
     1
102
RTVSPost2010Prop28
280
     0
102
RTVSPost2010PropOp28
 70
     1
102
RTVSPost2010Prop29
280
     1
102
RTVSPost2010PropOp29
 70
     1
102
RTVSPost2010Prop30
280
     1
102
RTVSPost2010PropOp30
 70
     1
102
RTVSPost2010Prop31
280
     0
102
RTVSPost2010PropOp31
 70
     1
102
RTVSPost2010Prop32
280
     0
102
RTVSPost2010PropOp32
 70
     1
102
RTVSPost2010Prop33
280
     0
102
RTVSPost2010PropOp33
 70
     1
102
RTVSPost2010Prop34
280
     0
102
RTVSPost2010PropOp34
 70
     1
102
RTVSPost2010Prop35
280
     0
102
RTVSPost2010PropOp35
 70
     1
102
RTVSPost2010Prop36
280
     0
102
RTVSPost2010PropOp36
 70
     1
102
RTVSPost2010Prop37
 90
       50
102
RTVSPost2010PropOp37
 70
     0
102
RTVSPost2010Prop38
140
0.0
102
RTVSPost2010PropOp38
 70
     0
102
RTVSPost2010Prop39
140
1.0
102
RTVSPost2010PropOp39
 70
     0
102
RTVSPost2010Prop40
 90
        0
102
RTVSPost2010PropOp40
 70
     0
102
RTVSPost2010Prop41ColorIndex
 90
       18
102
RTVSPost2010Prop41ColorRGB
 90
        0
102
RTVSPost2010PropOp41
 70
     0
102
RTVSPost2010Prop42
 90
       50
102
RTVSPost2010PropOp42
 70
     0
102
RTVSPost2010Prop43
 90
        3
102
RTVSPost2010PropOp43
 70
     0
102
RTVSPost2010Prop44ColorIndex
 90
        5
102
RTVSPost2010Prop44ColorRGB
 90
      255
102
RTVSPost2010PropOp44
 70
     0
102
RTVSPost2010Prop45
280
     0
102
RTVSPost2010PropOp45
 70
     1
102
RTVSPost2010Prop46
 90
       50
102
RTVSPost2010PropOp46
 70
     0
102
RTVSPost2010Prop47
 90
       50
102
RTVSPost2010PropOp47
 70
     0
102
RTVSPost2010Prop48
 90
       50
102
RTVSPost2010PropOp48
 70
     0
102
RTVSPost2010Prop49
280
     0
102
RTVSPost2010PropOp49
 70
     1
102
RTVSPost2010Prop50
 90
       50
102
RTVSPost2010PropOp50
 70
     0
102
RTVSPost2010Prop51ColorIndex
 90
      256
102
RTVSPost2010Prop51ColorRGB
 90
-16777216
102
RTVSPost2010PropOp51
 70
     0
102
RTVSPost2010Prop52
140
1.0
102
RTVSPost2010PropOp52
 70
     0
102
RTVSPost2010Prop53
 90
        2
102
RTVSPost2010PropOp53
 70
     0
102
RTVSPost2010Prop54
  1
strokes_ogs.tif
102
RTVSPost2010PropOp54
 70
     0
102
RTVSPost2010Prop55
280
     0
102
RTVSPost2010PropOp55
 70
     1
102
RTVSPost2010Prop56
140
1.0
102
RTVSPost2010PropOp56
 70
     0
102
RTVSPost2010Prop57
140
1.0
102
RTVSPost2010PropOp57
 70
     0
102
RTVSPropertyOp0
 70
     0
102
RTVSPropertyOp1
 70
     0
102
RTVSPropertyOp2
 70
     0
102
RTVSPropertyOp3
 70
     0
102
RTVSPropertyOp4
 70
     0
102
RTVSPropertyOp5
 70
     0
102
RTVSPropertyOp6
 70
     0
102
RTVSPropertyOp7
 70
     0
102
RTVSPropertyOp8
 70
     0
102
RTVSPropertyOp9
 70
     0
102
RTVSPropertyOp10
 70
     0
102
RTVSPropertyOp11
 70
     0
102
RTVSPropertyOp12
 70
     0
102
RTVSPropertyOp13
 70
     0
102
RTVSPropertyOp14
 70
     2
102
RTVSPropertyOp15
 70
     0
102
RTVSPropertyOp16
 70
     0
102
RTVSPropertyOp17
 70
     0
102
RTVSPropertyOp18
 70
     0
102
RTVSPropertyOp19
 70
     0
102
RTVSPropertyOp20
 70
     0
102
RTVSPropertyOp21
 70
     0
102
RTVSPropertyOp22
 70
     0
102
RTVSPropertyOp23
 70
     0
102
RTVSPropertyOp24
 70
     0
102
RTVSPropertyOp25
 70
     0
102
RTVSPropertyOp26
 70
     0
102
RTVSPropertyOp27
 70
     0
102
RTVSPropertyOp28
 70
     1
102
RTVSPropertyOp29
 70
     1
102
RTVSPropertyOp30
 70
     1
102
RTVSPropertyOp31
 70
     1
102
RTVSPropertyOp32
 70
     1
102
RTVSPropertyOp33
 70
     1
102
RTVSPropertyOp34
 70
     1
102
RTVSPropertyOp35
 70
     1
102
RTVSPropertyOp36
 70
     1
102
RTVSPropertyOp37
 70
     0
102
RTVSPropertyOp38
 70
     0
102
RTVSPropertyOp39
 70
     0
102
RTVSPropertyOp40
 70
     0
102
RTVSPropertyOp41
 70
     0
102
RTVSPropertyOp42
 70
     0
102
RTVSPropertyOp43
 70
     0
102
RTVSPropertyOp44
 70
     0
102
RTVSPropertyOp45
 70
     1
102
RTVSPropertyOp46
 70
     0
102
RTVSPropertyOp47
 70
     0
102
RTVSPropertyOp48
 70
     0
102
RTVSPropertyOp49
 70
     1
102
RTVSPropertyOp50
 70
     0
102
RTVSPropertyOp51
 70
     0
102
RTVSPropertyOp52
 70
     0
102
RTVSPropertyOp53
 70
     0
102
RTVSPropertyOp54
 70
     0
102
RTVSPropertyOp55
 70
     1
102
RTVSPropertyOp56
 70
     0
102
RTVSPropertyOp57
 70
     0
102
RTVSPropertyOp58
 70
     1
102
RTVSPropertyOp59
 70
     1
102
RTVSPropertyOp60
 70
     1
102
RTVSPropertyOp61
 70
     1
102
RTVSPropertyOp62
 70
     1
  0
XRECORD
  5
4B8
102
{ACAD_REACTORS
330
4B7
102
}
330
4B7
100
AcDbXrecord
280
     1
102
RTVSPost2010Prop28
280
     0
102
RTVSPost2010PropOp28
 70
     1
102
RTVSPost2010Prop29
280
     1
102
RTVSPost2010PropOp29
 70
     1
102
RTVSPost2010Prop30
280
     1
102
RTVSPost2010PropOp30
 70
     1
102
RTVSPost2010Prop31
280
     0
102
RTVSPost2010PropOp31
 70
     1
102
RTVSPost2010Prop32
280
     0
102
RTVSPost2010PropOp32
 70
     1
102
RTVSPost2010Prop33
280
     0
102
RTVSPost2010PropOp33
 70
     1
102
RTVSPost2010Prop34
280
     0
102
RTVSPost2010PropOp34
 70
     1
102
RTVSPost2010Prop35
280
     0
102
RTVSPost2010PropOp35
 70
     1
102
RTVSPost2010Prop36
280
     0
102
RTVSPost2010PropOp36
 70
     1
102
RTVSPost2010Prop37
 90
       50
102
RTVSPost2010PropOp37
 70
     1
102
RTVSPost2010Prop38
140
0.0
102
RTVSPost2010PropOp38
 70
     1
102
RTVSPost2010Prop39
140
1.0
102
RTVSPost2010PropOp39
 70
     1
102
RTVSPost2010Prop40
 90
        0
102
RTVSPost2010PropOp40
 70
     1
102
RTVSPost2010Prop41ColorIndex
 90
       18
102
RTVSPost2010Prop41ColorRGB
 90
        0
102
RTVSPost2010PropOp41
 70
     1
102
RTVSPost2010Prop42
 90
       50
102
RTVSPost2010PropOp42
 70
     1
102
RTVSPost2010Prop43
 90
        3
102
RTVSPost2010PropOp43
 70
     1
102
RTVSPost2010Prop44ColorIndex
 90
        5
102
RTVSPost2010Prop44ColorRGB
 90
      255
102
RTVSPost2010PropOp44
 70
     1
102
RTVSPost2010Prop45
280
     0
102
RTVSPost2010PropOp45
 70
     1
102
RTVSPost2010Prop46
 90
       50
102
RTVSPost2010PropOp46
 70
     1
102
RTVSPost2010Prop47
 90
       50
102
RTVSPost2010PropOp47
 70
     1
102
RTVSPost2010Prop48
 90
       50
102
RTVSPost2010PropOp48
 70
     1
102
RTVSPost2010Prop49
280
     0
102
RTVSPost2010PropOp49
 70
     1
102
RTVSPost2010Prop50
 90
       50
102
RTVSPost2010PropOp50
 70
     1
102
RTVSPost2010Prop51ColorIndex
 90
      256
102
RTVSPost2010Prop51ColorRGB
 90
-16777216
102
RTVSPost2010PropOp51
 70
     0
102
RTVSPost2010Prop52
140
1.0
102
RTVSPost2010PropOp52
 70
     0
102
RTVSPost2010Prop53
 90
        2
102
RTVSPost2010PropOp53
 70
     1
102
RTVSPost2010Prop54
  1
strokes_ogs.tif
102
RTVSPost2010PropOp54
 70
     1
102
RTVSPost2010Prop55
280
     0
102
RTVSPost2010PropOp55
 70
     1
102
RTVSPost2010Prop56
140
1.0
102
RTVSPost2010PropOp56
 70
     1
102
RTVSPost2010Prop57
140
1.0
102
RTVSPost2010PropOp57
 70
     1
102
RTVSPropertyOp0
 70
     1
102
RTVSPropertyOp1
 70
     1
102
RTVSPropertyOp2
 70
     1
102
RTVSPropertyOp3
 70
     1
102
RTVSPropertyOp4
 70
     1
102
RTVSPropertyOp5
 70
     1
102
RTVSPropertyOp6
 70
     1
102
RTVSPropertyOp7
 70
     1
102
RTVSPropertyOp8
 70
     1
102
RTVSPropertyOp9
 70
     1
102
RTVSPropertyOp10
 70
     1
102
RTVSPropertyOp11
 70
     1
102
RTVSPropertyOp12
 70
     1
102
RTVSPropertyOp13
 70
     1
102
RTVSPropertyOp14
 70
     1
102
RTVSPropertyOp15
 70
     1
102
RTVSPropertyOp16
 70
     1
102
RTVSPropertyOp17
 70
     1
102
RTVSPropertyOp18
 70
     1
102
RTVSPropertyOp19
 70
     1
102
RTVSPropertyOp20
 70
     1
102
RTVSPropertyOp21
 70
     1
102
RTVSPropertyOp22
 70
     1
102
RTVSPropertyOp23
 70
     1
102
RTVSPropertyOp24
 70
     1
102
RTVSPropertyOp25
 70
     1
102
RTVSPropertyOp26
 70
     1
102
RTVSPropertyOp27
 70
     1
102
RTVSPropertyOp28
 70
     1
102
RTVSPropertyOp29
 70
     1
102
RTVSPropertyOp30
 70
     1
102
RTVSPropertyOp31
 70
     1
102
RTVSPropertyOp32
 70
     1
102
RTVSPropertyOp33
 70
     1
102
RTVSPropertyOp34
 70
     1
102
RTVSPropertyOp35
 70
     1
102
RTVSPropertyOp36
 70
     1
102
RTVSPropertyOp37
 70
     1
102
RTVSPropertyOp38
 70
     1
102
RTVSPropertyOp39
 70
     1
102
RTVSPropertyOp40
 70
     1
102
RTVSPropertyOp41
 70
     1
102
RTVSPropertyOp42
 70
     1
102
RTVSPropertyOp43
 70
     1
102
RTVSPropertyOp44
 70
     1
102
RTVSPropertyOp45
 70
     1
102
RTVSPropertyOp46
 70
     1
102
RTVSPropertyOp47
 70
     1
102
RTVSPropertyOp48
 70
     1
102
RTVSPropertyOp49
 70
     1
102
RTVSPropertyOp50
 70
     1
102
RTVSPropertyOp51
 70
     0
102
RTVSPropertyOp52
 70
     0
102
RTVSPropertyOp53
 70
     1
102
RTVSPropertyOp54
 70
     1
102
RTVSPropertyOp55
 70
     1
102
RTVSPropertyOp56
 70
     1
102
RTVSPropertyOp57
 70
     1
102
RTVSPropertyOp58
 70
     1
102
RTVSPropertyOp59
 70
     1
102
RTVSPropertyOp60
 70
     1
102
RTVSPropertyOp61
 70
     1
102
RTVSPropertyOp62
 70
     1
  0
XRECORD
  5
4CE
102
{ACAD_REACTORS
330
4CD
102
}
330
4CD
100
AcDbXrecord
280
     1
102
RTVSPost2010Prop28
280
     0
102
RTVSPost2010PropOp28
 70
     1
102
RTVSPost2010Prop29
280
     1
102
RTVSPost2010PropOp29
 70
     1
102
RTVSPost2010Prop30
280
     1
102
RTVSPost2010PropOp30
 70
     1
102
RTVSPost2010Prop31
280
     0
102
RTVSPost2010PropOp31
 70
     1
102
RTVSPost2010Prop32
280
     0
102
RTVSPost2010PropOp32
 70
     1
102
RTVSPost2010Prop33
280
     0
102
RTVSPost2010PropOp33
 70
     1
102
RTVSPost2010Prop34
280
     0
102
RTVSPost2010PropOp34
 70
     1
102
RTVSPost2010Prop35
280
     0
102
RTVSPost2010PropOp35
 70
     1
102
RTVSPost2010Prop36
280
     0
102
RTVSPost2010PropOp36
 70
     1
102
RTVSPost2010Prop37
 90
       50
102
RTVSPost2010PropOp37
 70
     1
102
RTVSPost2010Prop38
140
0.0
102
RTVSPost2010PropOp38
 70
     1
102
RTVSPost2010Prop39
140
1.0
102
RTVSPost2010PropOp39
 70
     1
102
RTVSPost2010Prop40
 90
        0
102
RTVSPost2010PropOp40
 70
     1
102
RTVSPost2010Prop41ColorIndex
 90
       18
102
RTVSPost2010Prop41ColorRGB
 90
        0
102
RTVSPost2010PropOp41
 70
     1
102
RTVSPost2010Prop42
 90
       50
102
RTVSPost2010PropOp42
 70
     1
102
RTVSPost2010Prop43
 90
        3
102
RTVSPost2010PropOp43
 70
     1
102
RTVSPost2010Prop44ColorIndex
 90
        5
102
RTVSPost2010Prop44ColorRGB
 90
      255
102
RTVSPost2010PropOp44
 70
     1
102
RTVSPost2010Prop45
280
     0
102
RTVSPost2010PropOp45
 70
     1
102
RTVSPost2010Prop46
 90
       50
102
RTVSPost2010PropOp46
 70
     1
102
RTVSPost2010Prop47
 90
       50
102
RTVSPost2010PropOp47
 70
     1
102
RTVSPost2010Prop48
 90
       50
102
RTVSPost2010PropOp48
 70
     1
102
RTVSPost2010Prop49
280
     0
102
RTVSPost2010PropOp49
 70
     1
102
RTVSPost2010Prop50
 90
       50
102
RTVSPost2010PropOp50
 70
     1
102
RTVSPost2010Prop51ColorIndex
 90
      256
102
RTVSPost2010Prop51ColorRGB
 90
-16777216
102
RTVSPost2010PropOp51
 70
     0
102
RTVSPost2010Prop52
140
1.0
102
RTVSPost2010PropOp52
 70
     0
102
RTVSPost2010Prop53
 90
        2
102
RTVSPost2010PropOp53
 70
     1
102
RTVSPost2010Prop54
  1
strokes_ogs.tif
102
RTVSPost2010PropOp54
 70
     1
102
RTVSPost2010Prop55
280
     0
102
RTVSPost2010PropOp55
 70
     1
102
RTVSPost2010Prop56
140
1.0
102
RTVSPost2010PropOp56
 70
     1
102
RTVSPost2010Prop57
140
1.0
102
RTVSPost2010PropOp57
 70
     1
102
RTVSPropertyOp0
 70
     1
102
RTVSPropertyOp1
 70
     1
102
RTVSPropertyOp2
 70
     1
102
RTVSPropertyOp3
 70
     1
102
RTVSPropertyOp4
 70
     1
102
RTVSPropertyOp5
 70
     1
102
RTVSPropertyOp6
 70
     1
102
RTVSPropertyOp7
 70
     1
102
RTVSPropertyOp8
 70
     1
102
RTVSPropertyOp9
 70
     1
102
RTVSPropertyOp10
 70
     1
102
RTVSPropertyOp11
 70
     1
102
RTVSPropertyOp12
 70
     1
102
RTVSPropertyOp13
 70
     1
102
RTVSPropertyOp14
 70
     1
102
RTVSPropertyOp15
 70
     1
102
RTVSPropertyOp16
 70
     1
102
RTVSPropertyOp17
 70
     1
102
RTVSPropertyOp18
 70
     1
102
RTVSPropertyOp19
 70
     1
102
RTVSPropertyOp20
 70
     1
102
RTVSPropertyOp21
 70
     1
102
RTVSPropertyOp22
 70
     1
102
RTVSPropertyOp23
 70
     1
102
RTVSPropertyOp24
 70
     1
102
RTVSPropertyOp25
 70
     1
102
RTVSPropertyOp26
 70
     1
102
RTVSPropertyOp27
 70
     1
102
RTVSPropertyOp28
 70
     1
102
RTVSPropertyOp29
 70
     1
102
RTVSPropertyOp30
 70
     1
102
RTVSPropertyOp31
 70
     1
102
RTVSPropertyOp32
 70
     1
102
RTVSPropertyOp33
 70
     1
102
RTVSPropertyOp34
 70
     1
102
RTVSPropertyOp35
 70
     1
102
RTVSPropertyOp36
 70
     1
102
RTVSPropertyOp37
 70
     1
102
RTVSPropertyOp38
 70
     1
102
RTVSPropertyOp39
 70
     1
102
RTVSPropertyOp40
 70
     1
102
RTVSPropertyOp41
 70
     1
102
RTVSPropertyOp42
 70
     1
102
RTVSPropertyOp43
 70
     1
102
RTVSPropertyOp44
 70
     1
102
RTVSPropertyOp45
 70
     1
102
RTVSPropertyOp46
 70
     1
102
RTVSPropertyOp47
 70
     1
102
RTVSPropertyOp48
 70
     1
102
RTVSPropertyOp49
 70
     1
102
RTVSPropertyOp50
 70
     1
102
RTVSPropertyOp51
 70
     0
102
RTVSPropertyOp52
 70
     0
102
RTVSPropertyOp53
 70
     1
102
RTVSPropertyOp54
 70
     1
102
RTVSPropertyOp55
 70
     1
102
RTVSPropertyOp56
 70
     1
102
RTVSPropertyOp57
 70
     1
102
RTVSPropertyOp58
 70
     1
102
RTVSPropertyOp59
 70
     1
102
RTVSPropertyOp60
 70
     1
102
RTVSPropertyOp61
 70
     1
102
RTVSPropertyOp62
 70
     1
  0
XRECORD
  5
4CC
102
{ACAD_REACTORS
330
4CB
102
}
330
4CB
100
AcDbXrecord
280
     1
102
RTVSPost2010Prop28
280
     0
102
RTVSPost2010PropOp28
 70
     1
102
RTVSPost2010Prop29
280
     1
102
RTVSPost2010PropOp29
 70
     1
102
RTVSPost2010Prop30
280
     1
102
RTVSPost2010PropOp30
 70
     1
102
RTVSPost2010Prop31
280
     0
102
RTVSPost2010PropOp31
 70
     1
102
RTVSPost2010Prop32
280
     0
102
RTVSPost2010PropOp32
 70
     1
102
RTVSPost2010Prop33
280
     0
102
RTVSPost2010PropOp33
 70
     1
102
RTVSPost2010Prop34
280
     0
102
RTVSPost2010PropOp34
 70
     1
102
RTVSPost2010Prop35
280
     0
102
RTVSPost2010PropOp35
 70
     1
102
RTVSPost2010Prop36
280
     0
102
RTVSPost2010PropOp36
 70
     1
102
RTVSPost2010Prop37
 90
       50
102
RTVSPost2010PropOp37
 70
     1
102
RTVSPost2010Prop38
140
0.0
102
RTVSPost2010PropOp38
 70
     1
102
RTVSPost2010Prop39
140
1.0
102
RTVSPost2010PropOp39
 70
     1
102
RTVSPost2010Prop40
 90
        0
102
RTVSPost2010PropOp40
 70
     1
102
RTVSPost2010Prop41ColorIndex
 90
       18
102
RTVSPost2010Prop41ColorRGB
 90
        0
102
RTVSPost2010PropOp41
 70
     1
102
RTVSPost2010Prop42
 90
       50
102
RTVSPost2010PropOp42
 70
     1
102
RTVSPost2010Prop43
 90
        3
102
RTVSPost2010PropOp43
 70
     1
102
RTVSPost2010Prop44ColorIndex
 90
        5
102
RTVSPost2010Prop44ColorRGB
 90
      255
102
RTVSPost2010PropOp44
 70
     1
102
RTVSPost2010Prop45
280
     0
102
RTVSPost2010PropOp45
 70
     1
102
RTVSPost2010Prop46
 90
       50
102
RTVSPost2010PropOp46
 70
     1
102
RTVSPost2010Prop47
 90
       50
102
RTVSPost2010PropOp47
 70
     1
102
RTVSPost2010Prop48
 90
       50
102
RTVSPost2010PropOp48
 70
     1
102
RTVSPost2010Prop49
280
     0
102
RTVSPost2010PropOp49
 70
     1
102
RTVSPost2010Prop50
 90
       50
102
RTVSPost2010PropOp50
 70
     1
102
RTVSPost2010Prop51ColorIndex
 90
      256
102
RTVSPost2010Prop51ColorRGB
 90
-16777216
102
RTVSPost2010PropOp51
 70
     0
102
RTVSPost2010Prop52
140
1.0
102
RTVSPost2010PropOp52
 70
     0
102
RTVSPost2010Prop53
 90
        2
102
RTVSPost2010PropOp53
 70
     1
102
RTVSPost2010Prop54
  1
strokes_ogs.tif
102
RTVSPost2010PropOp54
 70
     1
102
RTVSPost2010Prop55
280
     0
102
RTVSPost2010PropOp55
 70
     1
102
RTVSPost2010Prop56
140
1.0
102
RTVSPost2010PropOp56
 70
     1
102
RTVSPost2010Prop57
140
1.0
102
RTVSPost2010PropOp57
 70
     1
102
RTVSPropertyOp0
 70
     1
102
RTVSPropertyOp1
 70
     1
102
RTVSPropertyOp2
 70
     1
102
RTVSPropertyOp3
 70
     1
102
RTVSPropertyOp4
 70
     1
102
RTVSPropertyOp5
 70
     1
102
RTVSPropertyOp6
 70
     1
102
RTVSPropertyOp7
 70
     1
102
RTVSPropertyOp8
 70
     1
102
RTVSPropertyOp9
 70
     1
102
RTVSPropertyOp10
 70
     1
102
RTVSPropertyOp11
 70
     1
102
RTVSPropertyOp12
 70
     1
102
RTVSPropertyOp13
 70
     1
102
RTVSPropertyOp14
 70
     1
102
RTVSPropertyOp15
 70
     1
102
RTVSPropertyOp16
 70
     1
102
RTVSPropertyOp17
 70
     1
102
RTVSPropertyOp18
 70
     1
102
RTVSPropertyOp19
 70
     1
102
RTVSPropertyOp20
 70
     1
102
RTVSPropertyOp21
 70
     1
102
RTVSPropertyOp22
 70
     1
102
RTVSPropertyOp23
 70
     1
102
RTVSPropertyOp24
 70
     1
102
RTVSPropertyOp25
 70
     1
102
RTVSPropertyOp26
 70
     1
102
RTVSPropertyOp27
 70
     1
102
RTVSPropertyOp28
 70
     1
102
RTVSPropertyOp29
 70
     1
102
RTVSPropertyOp30
 70
     1
102
RTVSPropertyOp31
 70
     1
102
RTVSPropertyOp32
 70
     1
102
RTVSPropertyOp33
 70
     1
102
RTVSPropertyOp34
 70
     1
102
RTVSPropertyOp35
 70
     1
102
RTVSPropertyOp36
 70
     1
102
RTVSPropertyOp37
 70
     1
102
RTVSPropertyOp38
 70
     1
102
RTVSPropertyOp39
 70
     1
102
RTVSPropertyOp40
 70
     1
102
RTVSPropertyOp41
 70
     1
102
RTVSPropertyOp42
 70
     1
102
RTVSPropertyOp43
 70
     1
102
RTVSPropertyOp44
 70
     1
102
RTVSPropertyOp45
 70
     1
102
RTVSPropertyOp46
 70
     1
102
RTVSPropertyOp47
 70
     1
102
RTVSPropertyOp48
 70
     1
102
RTVSPropertyOp49
 70
     1
102
RTVSPropertyOp50
 70
     1
102
RTVSPropertyOp51
 70
     0
102
RTVSPropertyOp52
 70
     0
102
RTVSPropertyOp53
 70
     1
102
RTVSPropertyOp54
 70
     1
102
RTVSPropertyOp55
 70
     1
102
RTVSPropertyOp56
 70
     1
102
RTVSPropertyOp57
 70
     1
102
RTVSPropertyOp58
 70
     1
102
RTVSPropertyOp59
 70
     1
102
RTVSPropertyOp60
 70
     1
102
RTVSPropertyOp61
 70
     1
102
RTVSPropertyOp62
 70
     1
  0
XRECORD
  5
4C6
102
{ACAD_REACTORS
330
4C5
102
}
330
4C5
100
AcDbXrecord
280
     1
102
RTVSPost2010Prop28
280
     0
102
RTVSPost2010PropOp28
 70
     1
102
RTVSPost2010Prop29
280
     1
102
RTVSPost2010PropOp29
 70
     1
102
RTVSPost2010Prop30
280
     1
102
RTVSPost2010PropOp30
 70
     1
102
RTVSPost2010Prop31
280
     0
102
RTVSPost2010PropOp31
 70
     1
102
RTVSPost2010Prop32
280
     0
102
RTVSPost2010PropOp32
 70
     1
102
RTVSPost2010Prop33
280
     0
102
RTVSPost2010PropOp33
 70
     1
102
RTVSPost2010Prop34
280
     0
102
RTVSPost2010PropOp34
 70
     1
102
RTVSPost2010Prop35
280
     0
102
RTVSPost2010PropOp35
 70
     1
102
RTVSPost2010Prop36
280
     0
102
RTVSPost2010PropOp36
 70
     1
102
RTVSPost2010Prop37
 90
       50
102
RTVSPost2010PropOp37
 70
     1
102
RTVSPost2010Prop38
140
0.0
102
RTVSPost2010PropOp38
 70
     1
102
RTVSPost2010Prop39
140
1.0
102
RTVSPost2010PropOp39
 70
     1
102
RTVSPost2010Prop40
 90
        0
102
RTVSPost2010PropOp40
 70
     1
102
RTVSPost2010Prop41ColorIndex
 90
       18
102
RTVSPost2010Prop41ColorRGB
 90
        0
102
RTVSPost2010PropOp41
 70
     1
102
RTVSPost2010Prop42
 90
       50
102
RTVSPost2010PropOp42
 70
     1
102
RTVSPost2010Prop43
 90
        3
102
RTVSPost2010PropOp43
 70
     1
102
RTVSPost2010Prop44ColorIndex
 90
        5
102
RTVSPost2010Prop44ColorRGB
 90
      255
102
RTVSPost2010PropOp44
 70
     1
102
RTVSPost2010Prop45
280
     0
102
RTVSPost2010PropOp45
 70
     1
102
RTVSPost2010Prop46
 90
       50
102
RTVSPost2010PropOp46
 70
     1
102
RTVSPost2010Prop47
 90
       50
102
RTVSPost2010PropOp47
 70
     1
102
RTVSPost2010Prop48
 90
       50
102
RTVSPost2010PropOp48
 70
     1
102
RTVSPost2010Prop49
280
     0
102
RTVSPost2010PropOp49
 70
     1
102
RTVSPost2010Prop50
 90
       50
102
RTVSPost2010PropOp50
 70
     1
102
RTVSPost2010Prop51ColorIndex
 90
      256
102
RTVSPost2010Prop51ColorRGB
 90
-16777216
102
RTVSPost2010PropOp51
 70
     0
102
RTVSPost2010Prop52
140
1.0
102
RTVSPost2010PropOp52
 70
     0
102
RTVSPost2010Prop53
 90
        2
102
RTVSPost2010PropOp53
 70
     1
102
RTVSPost2010Prop54
  1
strokes_ogs.tif
102
RTVSPost2010PropOp54
 70
     1
102
RTVSPost2010Prop55
280
     0
102
RTVSPost2010PropOp55
 70
     1
102
RTVSPost2010Prop56
140
1.0
102
RTVSPost2010PropOp56
 70
     1
102
RTVSPost2010Prop57
140
1.0
102
RTVSPost2010PropOp57
 70
     1
102
RTVSPropertyOp0
 70
     1
102
RTVSPropertyOp1
 70
     1
102
RTVSPropertyOp2
 70
     1
102
RTVSPropertyOp3
 70
     1
102
RTVSPropertyOp4
 70
     1
102
RTVSPropertyOp5
 70
     1
102
RTVSPropertyOp6
 70
     1
102
RTVSPropertyOp7
 70
     1
102
RTVSPropertyOp8
 70
     1
102
RTVSPropertyOp9
 70
     1
102
RTVSPropertyOp10
 70
     1
102
RTVSPropertyOp11
 70
     1
102
RTVSPropertyOp12
 70
     1
102
RTVSPropertyOp13
 70
     1
102
RTVSPropertyOp14
 70
     1
102
RTVSPropertyOp15
 70
     1
102
RTVSPropertyOp16
 70
     1
102
RTVSPropertyOp17
 70
     1
102
RTVSPropertyOp18
 70
     1
102
RTVSPropertyOp19
 70
     1
102
RTVSPropertyOp20
 70
     1
102
RTVSPropertyOp21
 70
     1
102
RTVSPropertyOp22
 70
     1
102
RTVSPropertyOp23
 70
     1
102
RTVSPropertyOp24
 70
     1
102
RTVSPropertyOp25
 70
     1
102
RTVSPropertyOp26
 70
     1
102
RTVSPropertyOp27
 70
     1
102
RTVSPropertyOp28
 70
     1
102
RTVSPropertyOp29
 70
     1
102
RTVSPropertyOp30
 70
     1
102
RTVSPropertyOp31
 70
     1
102
RTVSPropertyOp32
 70
     1
102
RTVSPropertyOp33
 70
     1
102
RTVSPropertyOp34
 70
     1
102
RTVSPropertyOp35
 70
     1
102
RTVSPropertyOp36
 70
     1
102
RTVSPropertyOp37
 70
     1
102
RTVSPropertyOp38
 70
     1
102
RTVSPropertyOp39
 70
     1
102
RTVSPropertyOp40
 70
     1
102
RTVSPropertyOp41
 70
     1
102
RTVSPropertyOp42
 70
     1
102
RTVSPropertyOp43
 70
     1
102
RTVSPropertyOp44
 70
     1
102
RTVSPropertyOp45
 70
     1
102
RTVSPropertyOp46
 70
     1
102
RTVSPropertyOp47
 70
     1
102
RTVSPropertyOp48
 70
     1
102
RTVSPropertyOp49
 70
     1
102
RTVSPropertyOp50
 70
     1
102
RTVSPropertyOp51
 70
     0
102
RTVSPropertyOp52
 70
     0
102
RTVSPropertyOp53
 70
     1
102
RTVSPropertyOp54
 70
     1
102
RTVSPropertyOp55
 70
     1
102
RTVSPropertyOp56
 70
     1
102
RTVSPropertyOp57
 70
     1
102
RTVSPropertyOp58
 70
     1
102
RTVSPropertyOp59
 70
     1
102
RTVSPropertyOp60
 70
     1
102
RTVSPropertyOp61
 70
     1
102
RTVSPropertyOp62
 70
     1
  0
XRECORD
  5
4C8
102
{ACAD_REACTORS
330
4C7
102
}
330
4C7
100
AcDbXrecord
280
     1
102
RTVSPost2010Prop28
280
     0
102
RTVSPost2010PropOp28
 70
     1
102
RTVSPost2010Prop29
280
     1
102
RTVSPost2010PropOp29
 70
     1
102
RTVSPost2010Prop30
280
     1
102
RTVSPost2010PropOp30
 70
     1
102
RTVSPost2010Prop31
280
     0
102
RTVSPost2010PropOp31
 70
     1
102
RTVSPost2010Prop32
280
     0
102
RTVSPost2010PropOp32
 70
     1
102
RTVSPost2010Prop33
280
     0
102
RTVSPost2010PropOp33
 70
     1
102
RTVSPost2010Prop34
280
     0
102
RTVSPost2010PropOp34
 70
     1
102
RTVSPost2010Prop35
280
     0
102
RTVSPost2010PropOp35
 70
     1
102
RTVSPost2010Prop36
280
     0
102
RTVSPost2010PropOp36
 70
     1
102
RTVSPost2010Prop37
 90
       50
102
RTVSPost2010PropOp37
 70
     1
102
RTVSPost2010Prop38
140
0.0
102
RTVSPost2010PropOp38
 70
     1
102
RTVSPost2010Prop39
140
1.0
102
RTVSPost2010PropOp39
 70
     1
102
RTVSPost2010Prop40
 90
        0
102
RTVSPost2010PropOp40
 70
     1
102
RTVSPost2010Prop41ColorIndex
 90
       18
102
RTVSPost2010Prop41ColorRGB
 90
        0
102
RTVSPost2010PropOp41
 70
     1
102
RTVSPost2010Prop42
 90
       50
102
RTVSPost2010PropOp42
 70
     1
102
RTVSPost2010Prop43
 90
        3
102
RTVSPost2010PropOp43
 70
     1
102
RTVSPost2010Prop44ColorIndex
 90
        5
102
RTVSPost2010Prop44ColorRGB
 90
      255
102
RTVSPost2010PropOp44
 70
     1
102
RTVSPost2010Prop45
280
     0
102
RTVSPost2010PropOp45
 70
     1
102
RTVSPost2010Prop46
 90
       50
102
RTVSPost2010PropOp46
 70
     1
102
RTVSPost2010Prop47
 90
       50
102
RTVSPost2010PropOp47
 70
     1
102
RTVSPost2010Prop48
 90
       50
102
RTVSPost2010PropOp48
 70
     1
102
RTVSPost2010Prop49
280
     0
102
RTVSPost2010PropOp49
 70
     1
102
RTVSPost2010Prop50
 90
       50
102
RTVSPost2010PropOp50
 70
     1
102
RTVSPost2010Prop51ColorIndex
 90
      256
102
RTVSPost2010Prop51ColorRGB
 90
-16777216
102
RTVSPost2010PropOp51
 70
     0
102
RTVSPost2010Prop52
140
1.0
102
RTVSPost2010PropOp52
 70
     0
102
RTVSPost2010Prop53
 90
        2
102
RTVSPost2010PropOp53
 70
     1
102
RTVSPost2010Prop54
  1
strokes_ogs.tif
102
RTVSPost2010PropOp54
 70
     1
102
RTVSPost2010Prop55
280
     0
102
RTVSPost2010PropOp55
 70
     1
102
RTVSPost2010Prop56
140
1.0
102
RTVSPost2010PropOp56
 70
     1
102
RTVSPost2010Prop57
140
1.0
102
RTVSPost2010PropOp57
 70
     1
102
RTVSPropertyOp0
 70
     1
102
RTVSPropertyOp1
 70
     1
102
RTVSPropertyOp2
 70
     1
102
RTVSPropertyOp3
 70
     1
102
RTVSPropertyOp4
 70
     1
102
RTVSPropertyOp5
 70
     1
102
RTVSPropertyOp6
 70
     1
102
RTVSPropertyOp7
 70
     1
102
RTVSPropertyOp8
 70
     1
102
RTVSPropertyOp9
 70
     1
102
RTVSPropertyOp10
 70
     1
102
RTVSPropertyOp11
 70
     1
102
RTVSPropertyOp12
 70
     1
102
RTVSPropertyOp13
 70
     1
102
RTVSPropertyOp14
 70
     1
102
RTVSPropertyOp15
 70
     1
102
RTVSPropertyOp16
 70
     1
102
RTVSPropertyOp17
 70
     1
102
RTVSPropertyOp18
 70
     1
102
RTVSPropertyOp19
 70
     1
102
RTVSPropertyOp20
 70
     1
102
RTVSPropertyOp21
 70
     1
102
RTVSPropertyOp22
 70
     1
102
RTVSPropertyOp23
 70
     1
102
RTVSPropertyOp24
 70
     1
102
RTVSPropertyOp25
 70
     1
102
RTVSPropertyOp26
 70
     1
102
RTVSPropertyOp27
 70
     1
102
RTVSPropertyOp28
 70
     1
102
RTVSPropertyOp29
 70
     1
102
RTVSPropertyOp30
 70
     1
102
RTVSPropertyOp31
 70
     1
102
RTVSPropertyOp32
 70
     1
102
RTVSPropertyOp33
 70
     1
102
RTVSPropertyOp34
 70
     1
102
RTVSPropertyOp35
 70
     1
102
RTVSPropertyOp36
 70
     1
102
RTVSPropertyOp37
 70
     1
102
RTVSPropertyOp38
 70
     1
102
RTVSPropertyOp39
 70
     1
102
RTVSPropertyOp40
 70
     1
102
RTVSPropertyOp41
 70
     1
102
RTVSPropertyOp42
 70
     1
102
RTVSPropertyOp43
 70
     1
102
RTVSPropertyOp44
 70
     1
102
RTVSPropertyOp45
 70
     1
102
RTVSPropertyOp46
 70
     1
102
RTVSPropertyOp47
 70
     1
102
RTVSPropertyOp48
 70
     1
102
RTVSPropertyOp49
 70
     1
102
RTVSPropertyOp50
 70
     1
102
RTVSPropertyOp51
 70
     0
102
RTVSPropertyOp52
 70
     0
102
RTVSPropertyOp53
 70
     1
102
RTVSPropertyOp54
 70
     1
102
RTVSPropertyOp55
 70
     1
102
RTVSPropertyOp56
 70
     1
102
RTVSPropertyOp57
 70
     1
102
RTVSPropertyOp58
 70
     1
102
RTVSPropertyOp59
 70
     1
102
RTVSPropertyOp60
 70
     1
102
RTVSPropertyOp61
 70
     1
102
RTVSPropertyOp62
 70
     1
  0
XRECORD
  5
4BE
102
{ACAD_REACTORS
330
4BD
102
}
330
4BD
100
AcDbXrecord
280
     1
102
RTVSPost2010Prop28
280
     0
102
RTVSPost2010PropOp28
 70
     1
102
RTVSPost2010Prop29
280
     1
102
RTVSPost2010PropOp29
 70
     1
102
RTVSPost2010Prop30
280
     1
102
RTVSPost2010PropOp30
 70
     1
102
RTVSPost2010Prop31
280
     0
102
RTVSPost2010PropOp31
 70
     1
102
RTVSPost2010Prop32
280
     0
102
RTVSPost2010PropOp32
 70
     1
102
RTVSPost2010Prop33
280
     0
102
RTVSPost2010PropOp33
 70
     1
102
RTVSPost2010Prop34
280
     0
102
RTVSPost2010PropOp34
 70
     1
102
RTVSPost2010Prop35
280
     0
102
RTVSPost2010PropOp35
 70
     1
102
RTVSPost2010Prop36
280
     0
102
RTVSPost2010PropOp36
 70
     1
102
RTVSPost2010Prop37
 90
       50
102
RTVSPost2010PropOp37
 70
     1
102
RTVSPost2010Prop38
140
0.0
102
RTVSPost2010PropOp38
 70
     1
102
RTVSPost2010Prop39
140
1.0
102
RTVSPost2010PropOp39
 70
     1
102
RTVSPost2010Prop40
 90
        0
102
RTVSPost2010PropOp40
 70
     1
102
RTVSPost2010Prop41ColorIndex
 90
       18
102
RTVSPost2010Prop41ColorRGB
 90
        0
102
RTVSPost2010PropOp41
 70
     1
102
RTVSPost2010Prop42
 90
       50
102
RTVSPost2010PropOp42
 70
     1
102
RTVSPost2010Prop43
 90
        3
102
RTVSPost2010PropOp43
 70
     1
102
RTVSPost2010Prop44ColorIndex
 90
        5
102
RTVSPost2010Prop44ColorRGB
 90
      255
102
RTVSPost2010PropOp44
 70
     1
102
RTVSPost2010Prop45
280
     0
102
RTVSPost2010PropOp45
 70
     1
102
RTVSPost2010Prop46
 90
       50
102
RTVSPost2010PropOp46
 70
     1
102
RTVSPost2010Prop47
 90
       50
102
RTVSPost2010PropOp47
 70
     1
102
RTVSPost2010Prop48
 90
       50
102
RTVSPost2010PropOp48
 70
     1
102
RTVSPost2010Prop49
280
     0
102
RTVSPost2010PropOp49
 70
     1
102
RTVSPost2010Prop50
 90
       50
102
RTVSPost2010PropOp50
 70
     1
102
RTVSPost2010Prop51ColorIndex
 90
      256
102
RTVSPost2010Prop51ColorRGB
 90
-16777216
102
RTVSPost2010PropOp51
 70
     0
102
RTVSPost2010Prop52
140
1.0
102
RTVSPost2010PropOp52
 70
     0
102
RTVSPost2010Prop53
 90
        2
102
RTVSPost2010PropOp53
 70
     1
102
RTVSPost2010Prop54
  1
strokes_ogs.tif
102
RTVSPost2010PropOp54
 70
     1
102
RTVSPost2010Prop55
280
     0
102
RTVSPost2010PropOp55
 70
     1
102
RTVSPost2010Prop56
140
1.0
102
RTVSPost2010PropOp56
 70
     1
102
RTVSPost2010Prop57
140
1.0
102
RTVSPost2010PropOp57
 70
     1
102
RTVSPropertyOp0
 70
     1
102
RTVSPropertyOp1
 70
     1
102
RTVSPropertyOp2
 70
     1
102
RTVSPropertyOp3
 70
     1
102
RTVSPropertyOp4
 70
     1
102
RTVSPropertyOp5
 70
     1
102
RTVSPropertyOp6
 70
     1
102
RTVSPropertyOp7
 70
     1
102
RTVSPropertyOp8
 70
     1
102
RTVSPropertyOp9
 70
     1
102
RTVSPropertyOp10
 70
     1
102
RTVSPropertyOp11
 70
     1
102
RTVSPropertyOp12
 70
     1
102
RTVSPropertyOp13
 70
     1
102
RTVSPropertyOp14
 70
     1
102
RTVSPropertyOp15
 70
     1
102
RTVSPropertyOp16
 70
     1
102
RTVSPropertyOp17
 70
     1
102
RTVSPropertyOp18
 70
     1
102
RTVSPropertyOp19
 70
     1
102
RTVSPropertyOp20
 70
     1
102
RTVSPropertyOp21
 70
     1
102
RTVSPropertyOp22
 70
     1
102
RTVSPropertyOp23
 70
     1
102
RTVSPropertyOp24
 70
     1
102
RTVSPropertyOp25
 70
     1
102
RTVSPropertyOp26
 70
     1
102
RTVSPropertyOp27
 70
     1
102
RTVSPropertyOp28
 70
     1
102
RTVSPropertyOp29
 70
     1
102
RTVSPropertyOp30
 70
     1
102
RTVSPropertyOp31
 70
     1
102
RTVSPropertyOp32
 70
     1
102
RTVSPropertyOp33
 70
     1
102
RTVSPropertyOp34
 70
     1
102
RTVSPropertyOp35
 70
     1
102
RTVSPropertyOp36
 70
     1
102
RTVSPropertyOp37
 70
     1
102
RTVSPropertyOp38
 70
     1
102
RTVSPropertyOp39
 70
     1
102
RTVSPropertyOp40
 70
     1
102
RTVSPropertyOp41
 70
     1
102
RTVSPropertyOp42
 70
     1
102
RTVSPropertyOp43
 70
     1
102
RTVSPropertyOp44
 70
     1
102
RTVSPropertyOp45
 70
     1
102
RTVSPropertyOp46
 70
     1
102
RTVSPropertyOp47
 70
     1
102
RTVSPropertyOp48
 70
     1
102
RTVSPropertyOp49
 70
     1
102
RTVSPropertyOp50
 70
     1
102
RTVSPropertyOp51
 70
     0
102
RTVSPropertyOp52
 70
     0
102
RTVSPropertyOp53
 70
     1
102
RTVSPropertyOp54
 70
     1
102
RTVSPropertyOp55
 70
     1
102
RTVSPropertyOp56
 70
     1
102
RTVSPropertyOp57
 70
     1
102
RTVSPropertyOp58
 70
     1
102
RTVSPropertyOp59
 70
     1
102
RTVSPropertyOp60
 70
     1
102
RTVSPropertyOp61
 70
     1
102
RTVSPropertyOp62
 70
     1
  0
XRECORD
  5
4B2
102
{ACAD_REACTORS
330
4B1
102
}
330
4B1
100
AcDbXrecord
280
     1
102
RTVSPost2010Prop28
280
     0
102
RTVSPost2010PropOp28
 70
     1
102
RTVSPost2010Prop29
280
     1
102
RTVSPost2010PropOp29
 70
     1
102
RTVSPost2010Prop30
280
     1
102
RTVSPost2010PropOp30
 70
     1
102
RTVSPost2010Prop31
280
     0
102
RTVSPost2010PropOp31
 70
     1
102
RTVSPost2010Prop32
280
     0
102
RTVSPost2010PropOp32
 70
     1
102
RTVSPost2010Prop33
280
     0
102
RTVSPost2010PropOp33
 70
     1
102
RTVSPost2010Prop34
280
     0
102
RTVSPost2010PropOp34
 70
     1
102
RTVSPost2010Prop35
280
     0
102
RTVSPost2010PropOp35
 70
     1
102
RTVSPost2010Prop36
280
     0
102
RTVSPost2010PropOp36
 70
     1
102
RTVSPost2010Prop37
 90
       50
102
RTVSPost2010PropOp37
 70
     1
102
RTVSPost2010Prop38
140
0.0
102
RTVSPost2010PropOp38
 70
     1
102
RTVSPost2010Prop39
140
1.0
102
RTVSPost2010PropOp39
 70
     1
102
RTVSPost2010Prop40
 90
        0
102
RTVSPost2010PropOp40
 70
     1
102
RTVSPost2010Prop41ColorIndex
 90
       18
102
RTVSPost2010Prop41ColorRGB
 90
        0
102
RTVSPost2010PropOp41
 70
     1
102
RTVSPost2010Prop42
 90
       50
102
RTVSPost2010PropOp42
 70
     1
102
RTVSPost2010Prop43
 90
        3
102
RTVSPost2010PropOp43
 70
     1
102
RTVSPost2010Prop44ColorIndex
 90
        5
102
RTVSPost2010Prop44ColorRGB
 90
      255
102
RTVSPost2010PropOp44
 70
     1
102
RTVSPost2010Prop45
280
     0
102
RTVSPost2010PropOp45
 70
     1
102
RTVSPost2010Prop46
 90
       50
102
RTVSPost2010PropOp46
 70
     1
102
RTVSPost2010Prop47
 90
       50
102
RTVSPost2010PropOp47
 70
     1
102
RTVSPost2010Prop48
 90
       50
102
RTVSPost2010PropOp48
 70
     1
102
RTVSPost2010Prop49
280
     0
102
RTVSPost2010PropOp49
 70
     1
102
RTVSPost2010Prop50
 90
       50
102
RTVSPost2010PropOp50
 70
     1
102
RTVSPost2010Prop51ColorIndex
 90
      256
102
RTVSPost2010Prop51ColorRGB
 90
-16777216
102
RTVSPost2010PropOp51
 70
     0
102
RTVSPost2010Prop52
140
1.0
102
RTVSPost2010PropOp52
 70
     0
102
RTVSPost2010Prop53
 90
        2
102
RTVSPost2010PropOp53
 70
     1
102
RTVSPost2010Prop54
  1
strokes_ogs.tif
102
RTVSPost2010PropOp54
 70
     1
102
RTVSPost2010Prop55
280
     0
102
RTVSPost2010PropOp55
 70
     1
102
RTVSPost2010Prop56
140
1.0
102
RTVSPost2010PropOp56
 70
     1
102
RTVSPost2010Prop57
140
1.0
102
RTVSPost2010PropOp57
 70
     1
102
RTVSPropertyOp0
 70
     1
102
RTVSPropertyOp1
 70
     1
102
RTVSPropertyOp2
 70
     1
102
RTVSPropertyOp3
 70
     1
102
RTVSPropertyOp4
 70
     1
102
RTVSPropertyOp5
 70
     1
102
RTVSPropertyOp6
 70
     1
102
RTVSPropertyOp7
 70
     1
102
RTVSPropertyOp8
 70
     1
102
RTVSPropertyOp9
 70
     1
102
RTVSPropertyOp10
 70
     1
102
RTVSPropertyOp11
 70
     1
102
RTVSPropertyOp12
 70
     1
102
RTVSPropertyOp13
 70
     1
102
RTVSPropertyOp14
 70
     1
102
RTVSPropertyOp15
 70
     1
102
RTVSPropertyOp16
 70
     1
102
RTVSPropertyOp17
 70
     1
102
RTVSPropertyOp18
 70
     1
102
RTVSPropertyOp19
 70
     1
102
RTVSPropertyOp20
 70
     1
102
RTVSPropertyOp21
 70
     1
102
RTVSPropertyOp22
 70
     1
102
RTVSPropertyOp23
 70
     1
102
RTVSPropertyOp24
 70
     1
102
RTVSPropertyOp25
 70
     1
102
RTVSPropertyOp26
 70
     1
102
RTVSPropertyOp27
 70
     1
102
RTVSPropertyOp28
 70
     1
102
RTVSPropertyOp29
 70
     1
102
RTVSPropertyOp30
 70
     1
102
RTVSPropertyOp31
 70
     1
102
RTVSPropertyOp32
 70
     1
102
RTVSPropertyOp33
 70
     1
102
RTVSPropertyOp34
 70
     1
102
RTVSPropertyOp35
 70
     1
102
RTVSPropertyOp36
 70
     1
102
RTVSPropertyOp37
 70
     1
102
RTVSPropertyOp38
 70
     1
102
RTVSPropertyOp39
 70
     1
102
RTVSPropertyOp40
 70
     1
102
RTVSPropertyOp41
 70
     1
102
RTVSPropertyOp42
 70
     1
102
RTVSPropertyOp43
 70
     1
102
RTVSPropertyOp44
 70
     1
102
RTVSPropertyOp45
 70
     1
102
RTVSPropertyOp46
 70
     1
102
RTVSPropertyOp47
 70
     1
102
RTVSPropertyOp48
 70
     1
102
RTVSPropertyOp49
 70
     1
102
RTVSPropertyOp50
 70
     1
102
RTVSPropertyOp51
 70
     0
102
RTVSPropertyOp52
 70
     0
102
RTVSPropertyOp53
 70
     1
102
RTVSPropertyOp54
 70
     1
102
RTVSPropertyOp55
 70
     1
102
RTVSPropertyOp56
 70
     1
102
RTVSPropertyOp57
 70
     1
102
RTVSPropertyOp58
 70
     1
102
RTVSPropertyOp59
 70
     1
102
RTVSPropertyOp60
 70
     1
102
RTVSPropertyOp61
 70
     1
102
RTVSPropertyOp62
 70
     1
  0
XRECORD
  5
4CA
102
{ACAD_REACTORS
330
4C9
102
}
330
4C9
100
AcDbXrecord
280
     1
102
RTVSPost2010Prop28
280
     0
102
RTVSPost2010PropOp28
 70
     1
102
RTVSPost2010Prop29
280
     1
102
RTVSPost2010PropOp29
 70
     1
102
RTVSPost2010Prop30
280
     1
102
RTVSPost2010PropOp30
 70
     1
102
RTVSPost2010Prop31
280
     0
102
RTVSPost2010PropOp31
 70
     1
102
RTVSPost2010Prop32
280
     0
102
RTVSPost2010PropOp32
 70
     1
102
RTVSPost2010Prop33
280
     0
102
RTVSPost2010PropOp33
 70
     1
102
RTVSPost2010Prop34
280
     0
102
RTVSPost2010PropOp34
 70
     1
102
RTVSPost2010Prop35
280
     0
102
RTVSPost2010PropOp35
 70
     1
102
RTVSPost2010Prop36
280
     0
102
RTVSPost2010PropOp36
 70
     1
102
RTVSPost2010Prop37
 90
       50
102
RTVSPost2010PropOp37
 70
     1
102
RTVSPost2010Prop38
140
0.0
102
RTVSPost2010PropOp38
 70
     1
102
RTVSPost2010Prop39
140
1.0
102
RTVSPost2010PropOp39
 70
     1
102
RTVSPost2010Prop40
 90
        0
102
RTVSPost2010PropOp40
 70
     1
102
RTVSPost2010Prop41ColorIndex
 90
       18
102
RTVSPost2010Prop41ColorRGB
 90
        0
102
RTVSPost2010PropOp41
 70
     1
102
RTVSPost2010Prop42
 90
       50
102
RTVSPost2010PropOp42
 70
     1
102
RTVSPost2010Prop43
 90
        3
102
RTVSPost2010PropOp43
 70
     1
102
RTVSPost2010Prop44ColorIndex
 90
        5
102
RTVSPost2010Prop44ColorRGB
 90
      255
102
RTVSPost2010PropOp44
 70
     1
102
RTVSPost2010Prop45
280
     0
102
RTVSPost2010PropOp45
 70
     1
102
RTVSPost2010Prop46
 90
       50
102
RTVSPost2010PropOp46
 70
     1
102
RTVSPost2010Prop47
 90
       50
102
RTVSPost2010PropOp47
 70
     1
102
RTVSPost2010Prop48
 90
       50
102
RTVSPost2010PropOp48
 70
     1
102
RTVSPost2010Prop49
280
     0
102
RTVSPost2010PropOp49
 70
     1
102
RTVSPost2010Prop50
 90
       50
102
RTVSPost2010PropOp50
 70
     1
102
RTVSPost2010Prop51ColorIndex
 90
      256
102
RTVSPost2010Prop51ColorRGB
 90
-16777216
102
RTVSPost2010PropOp51
 70
     0
102
RTVSPost2010Prop52
140
1.0
102
RTVSPost2010PropOp52
 70
     0
102
RTVSPost2010Prop53
 90
        2
102
RTVSPost2010PropOp53
 70
     1
102
RTVSPost2010Prop54
  1
strokes_ogs.tif
102
RTVSPost2010PropOp54
 70
     1
102
RTVSPost2010Prop55
280
     0
102
RTVSPost2010PropOp55
 70
     1
102
RTVSPost2010Prop56
140
1.0
102
RTVSPost2010PropOp56
 70
     1
102
RTVSPost2010Prop57
140
1.0
102
RTVSPost2010PropOp57
 70
     1
102
RTVSPropertyOp0
 70
     1
102
RTVSPropertyOp1
 70
     1
102
RTVSPropertyOp2
 70
     1
102
RTVSPropertyOp3
 70
     1
102
RTVSPropertyOp4
 70
     1
102
RTVSPropertyOp5
 70
     1
102
RTVSPropertyOp6
 70
     1
102
RTVSPropertyOp7
 70
     1
102
RTVSPropertyOp8
 70
     1
102
RTVSPropertyOp9
 70
     1
102
RTVSPropertyOp10
 70
     1
102
RTVSPropertyOp11
 70
     1
102
RTVSPropertyOp12
 70
     1
102
RTVSPropertyOp13
 70
     1
102
RTVSPropertyOp14
 70
     1
102
RTVSPropertyOp15
 70
     1
102
RTVSPropertyOp16
 70
     1
102
RTVSPropertyOp17
 70
     1
102
RTVSPropertyOp18
 70
     1
102
RTVSPropertyOp19
 70
     1
102
RTVSPropertyOp20
 70
     1
102
RTVSPropertyOp21
 70
     1
102
RTVSPropertyOp22
 70
     1
102
RTVSPropertyOp23
 70
     1
102
RTVSPropertyOp24
 70
     1
102
RTVSPropertyOp25
 70
     1
102
RTVSPropertyOp26
 70
     1
102
RTVSPropertyOp27
 70
     1
102
RTVSPropertyOp28
 70
     1
102
RTVSPropertyOp29
 70
     1
102
RTVSPropertyOp30
 70
     1
102
RTVSPropertyOp31
 70
     1
102
RTVSPropertyOp32
 70
     1
102
RTVSPropertyOp33
 70
     1
102
RTVSPropertyOp34
 70
     1
102
RTVSPropertyOp35
 70
     1
102
RTVSPropertyOp36
 70
     1
102
RTVSPropertyOp37
 70
     1
102
RTVSPropertyOp38
 70
     1
102
RTVSPropertyOp39
 70
     1
102
RTVSPropertyOp40
 70
     1
102
RTVSPropertyOp41
 70
     1
102
RTVSPropertyOp42
 70
     1
102
RTVSPropertyOp43
 70
     1
102
RTVSPropertyOp44
 70
     1
102
RTVSPropertyOp45
 70
     1
102
RTVSPropertyOp46
 70
     1
102
RTVSPropertyOp47
 70
     1
102
RTVSPropertyOp48
 70
     1
102
RTVSPropertyOp49
 70
     1
102
RTVSPropertyOp50
 70
     1
102
RTVSPropertyOp51
 70
     0
102
RTVSPropertyOp52
 70
     0
102
RTVSPropertyOp53
 70
     1
102
RTVSPropertyOp54
 70
     1
102
RTVSPropertyOp55
 70
     1
102
RTVSPropertyOp56
 70
     1
102
RTVSPropertyOp57
 70
     1
102
RTVSPropertyOp58
 70
     1
102
RTVSPropertyOp59
 70
     1
102
RTVSPropertyOp60
 70
     1
102
RTVSPropertyOp61
 70
     1
102
RTVSPropertyOp62
 70
     1
  0
ENDSEC
  0
EOF
