  0
SECTION
  2
HEADER
  9
$ACADVER
  1
AC1009
  9
$INSBASE
 10
0
 20
0
 30
0
  9
$EXTMIN
 10
0
 20
0
  9
$EXTMAX
 10
1782
 20
1260
  9
$LIMMIN
 10
0
 20
0
  9
$LIMMAX
 10
1782
 20
1260
  9
$LTSCALE
 40
6
  0
ENDSEC
  0
SECTION
  2
TABLES
  0
TABLE
  2
LTYPE
 70
     9
  0
LTYPE
  2
CONTINUOUS
 70
    64
  3
実線
 72
    65
 73
     0
 40
0.0
  0
LTYPE
  2
DASHED1
 70
    64
  3
--  --  --  --  --  --  --  --  
 72
    65
 73
     2
 40
2.5
 49
1.25
 49
-1.25
  0
LTYPE
  2
DASHED2
 70
    64
  3
----    ----    ----    ----    
 72
    65
 73
     2
 40
5.0
 49
2.5
 49
-2.5
  0
LTYPE
  2
DASHED3
 70
    64
  3
------  ------  ------  ------  
 72
    65
 73
     2
 40
5.0
 49
3.75
 49
-1.25
  0
LTYPE
  2
CENTER1
 70
    64
  3
----- - ----- - ----- - ----- - 
 72
    65
 73
     4
 40
10.0
 49
6.25
 49
-1.25
 49
1.25
 49
-1.25
  0
LTYPE
  2
CENTER2
 70
    64
  3
----------  --  ----------  --  
 72
    65
 73
     4
 40
20.0
 49
12.5
 49
-2.5
 49
2.5
 49
-2.5
  0
LTYPE
  2
PHANTOM1
 70
    64
  3
--- - - --- - - --- - - --- - - 
 72
    65
 73
     6
 40
10.0
 49
3.25
 49
-1.25
 49
1.25
 49
-1.25
 49
1.25
 49
-1.25
  0
LTYPE
  2
PHANTOM2
 70
    64
  3
--------  -  -  --------  -  -  
 72
    65
 73
     6
 40
20.0
 49
10.0
 49
-2.5
 49
1.25
 49
-2.5
 49
1.25
 49
-2.5
  0
LTYPE
  2
DOT
 70
    64
  3
-   -   -   -   -   -   -   -   
 72
    65
 73
     2
 40
2.5
 49
0.625
 49
-1.875
  0
LTYPE
  2
DUMMY
 70
    64
  3
ダミー
 72
    65
 73
     0
 40
0.0
  0
LTYPE
  2
RAND1
 70
    64
  3
ランダム線1
 72
    65
 73
     4
 40
10.0
 49
1.0
 49
-2.0
 49
3.0
 49
-4.0
  0
LTYPE
  2
RAND2
 70
    64
  3
ランダム線2
 72
    65
 73
     4
 40
14.0
 49
2.0
 49
-3.0
 49
4.0
 49
-5.0
  0
LTYPE
  2
RAND3
 70
    64
  3
ランダム線3
 72
    65
 73
     4
 40
18.0
 49
3.0
 49
-4.0
 49
5.0
 49
-6.0
  0
LTYPE
  2
RAND4
 70
    64
  3
ランダム線4
 72
    65
 73
     4
 40
22.0
 49
4.0
 49
-5.0
 49
6.0
 49
-7.0
  0
LTYPE
  2
RAND5
 70
    64
  3
ランダム線5
 72
    65
 73
     4
 40
26.0
 49
5.0
 49
-6.0
 49
7.0
 49
-8.0
  0
LTYPE
  2
LONG1
 70
    64
  3
----------  --  ----------  --  
 72
    65
 73
     4
 40
40.0
 49
32.5
 49
-2.5
 49
2.5
 49
-2.5
  0
LTYPE
  2
LONG2
 70
    64
  3
--------  -  -  --------  -  -  
 72
    65
 73
     6
 40
40.0
 49
30.0
 49
-2.5
 49
1.25
 49
-2.5
 49
1.25
 49
-2.5
  0
LTYPE
  2
LONG3
 70
    64
  3
+++++++++++++++..+++++++++++++++
 72
    65
 73
     2
 40
40.0
 49
37.5
 49
-2.5
  0
LTYPE
  2
LONG4
 70
    64
  3
+++++++++++++++..+++++++++++++++
 72
    65
 73
     2
 40
80.0
 49
75.0
 49
-5.0
  0
LTYPE
  2
LONG5
 70
    64
  3
----------  --  ----------  --  
 72
    65
 73
     4
 40
60.0
 49
37.5
 49
-7.5
 49
7.5
 49
-7.5
  0
LTYPE
  2
dashed
 70
   64
  3
-------   -------------   ------
 72
   65
 73
    2
 40
7.5
 49
6
 49
-1.5
  0
LTYPE
  2
dashed_spaced
 70
   64
  3
----        --------        ----
 72
   65
 73
    2
 40
12
 49
6
 49
-6
  0
LTYPE
  2
long_dashed_dotted
 70
   64
  3
------------- --- --------------
 72
   65
 73
    4
 40
15.25
 49
12
 49
-1.5
 49
0.25
 49
-1.5
  0
LTYPE
  2
long_dashed_double-dotted
 70
   64
  3
----------- --- --- ------------
 72
   65
 73
    6
 40
17
 49
12
 49
-1.5
 49
0.25
 49
-1.5
 49
0.25
 49
-1.5
  0
LTYPE
  2
long_dashed_triplicate-dotted
 70
   64
  3
--------- --- --- --- ----------
 72
   65
 73
    8
 40
18.75
 49
12
 49
-1.5
 49
0.25
 49
-1.5
 49
0.25
 49
-1.5
 49
0.25
 49
-1.5
  0
LTYPE
  2
dotted
 70
   64
  3
   -       -       -       -    
 72
   65
 73
    2
 40
1.75
 49
0.25
 49
-1.5
  0
LTYPE
  2
chain
 70
   64
  3
-------------- -- --------------
 72
   65
 73
    4
 40
18.5
 49
12
 49
-1.5
 49
3.5
 49
-1.5
  0
LTYPE
  2
chain_double_dash
 70
   64
  3
------------ -- -- -------------
 72
   65
 73
    6
 40
23.5
 49
12
 49
-1.5
 49
3.5
 49
-1.5
 49
3.5
 49
-1.5
  0
LTYPE
  2
dashed_dotted
 70
   64
  3
-----------     -     ----------
 72
   65
 73
    4
 40
9.25
 49
6
 49
-1.5
 49
0.25
 49
-1.5
  0
LTYPE
  2
double-dashed_dotted
 70
   64
  3
------   -----------   -   -----
 72
   65
 73
    6
 40
16.75
 49
6
 49
-1.5
 49
6
 49
-1.5
 49
0.25
 49
-1.5
  0
LTYPE
  2
dashed_double-dotted
 70
   64
  3
---------    -    -    ---------
 72
   65
 73
    6
 40
11
 49
6
 49
-1.5
 49
0.25
 49
-1.5
 49
0.25
 49
-1.5
  0
LTYPE
  2
double-dashed_double-dotted
 70
   64
  3
-----   ---------   -   -   ----
 72
   65
 73
    8
 40
18.5
 49
6
 49
-1.5
 49
6
 49
-1.5
 49
0.25
 49
-1.5
 49
0.25
 49
-1.5
  0
LTYPE
  2
dashed_triplicate-dotted
 70
   64
  3
-------    -    -    -    ------
 72
   65
 73
    8
 40
12.75
 49
6
 49
-1.5
 49
0.25
 49
-1.5
 49
0.25
 49
-1.5
 49
0.25
 49
-1.5
  0
LTYPE
  2
double-dashed_triplicate-dotted
 70
   64
  3
-----  ---------  -  -  -  -----
 72
   65
 73
   10
 40
20.25
 49
6
 49
-1.5
 49
6
 49
-1.5
 49
0.25
 49
-1.5
 49
0.25
 49
-1.5
 49
0.25
 49
-1.5
  0
LTYPE
  2
undefined
 70
   64
  3
--------------------------------
 72
   65
 73
    0
 40
0
  0
ENDTAB
  0
TABLE
  2
STYLE
  5
3
100
AcDbSymbolTable
 70
     1
  0
STYLE
  5
10
100
AcDbSymbolTableRecord
100
AcDbTextStyleTableRecord
  2
STANDARD
 70
     0
 40
0.0
 41
1.0
 50
0.0
 71
     0
 42
0.2
  3
txt
  4
bigfont.shx
  0
STYLE
  5
26
100
AcDbSymbolTableRecord
100
AcDbTextStyleTableRecord
  2
TATEGAKI
 70
    68
 40
0.0
 41
1.0
 50
0.0
 71
     0
 42
1.0
  3
txt
  4
bigfont.shx
  0
ENDTAB
  0
TABLE
  2
LAYER
 70
    9
  0
LAYER
  2
_0-0_計極細
 70
   64
 62
    7
  6
CONTINUOUS
  0
LAYER
  2
_0-1_計細線
 70
   64
 62
    7
  6
CONTINUOUS
  0
LAYER
  2
_0-5_寸法線
 70
   64
 62
    7
  6
CONTINUOUS
  0
LAYER
  2
_0-7_枠細線
 70
   64
 62
    7
  6
CONTINUOUS
  0
LAYER
  2
_0-8_枠中線
 70
   64
 62
    7
  6
CONTINUOUS
  0
LAYER
  2
_1-2_極細2
 70
   64
 62
    7
  6
CONTINUOUS
  0
LAYER
  2
_1-3_細線2
 70
   64
 62
    7
  6
CONTINUOUS
  0
LAYER
  2
_1-5_寸法2
 70
   64
 62
    7
  6
CONTINUOUS
  0
LAYER
  2
ADD_LINE
 70
   64
 62
    7
  6
CONTINUOUS
  0
ENDTAB
  0
ENDSEC
  0
SECTION
  2
BLOCKS
  0
ENDSEC
  0
SECTION
  2
ENTITIES
  0
LINE
  8
_0-8_枠中線
  6
CONTINUOUS
 62
    5
 10
72
 20
72
 11
72
 21
1152
  0
LINE
  8
_0-8_枠中線
  6
CONTINUOUS
 62
    5
 10
72
 20
1152
 11
1710
 21
1152
  0
LINE
  8
_0-8_枠中線
  6
CONTINUOUS
 62
    5
 10
1710
 20
1152
 11
1710
 21
72
  0
LINE
  8
_0-8_枠中線
  6
CONTINUOUS
 62
    5
 10
1710
 20
72
 11
72
 21
72
  0
LINE
  8
_0-7_枠細線
  6
CONTINUOUS
 62
    5
 10
1422
 20
216
 11
1422
 21
120
  0
TEXT
  8
_0-7_枠細線
 62
    5
 10
1125
 20
117
 40
21
 41
1
 50
0
  1
備考
  7
TATEGAKI
  0
TEXT
  8
_0-7_枠細線
 62
    5
 10
1125
 20
165
 40
21
 41
1
 50
0
  1
品番
  7
TATEGAKI
  0
TEXT
  8
_0-7_枠細線
 62
    5
 10
1125
 20
213
 40
21
 41
1
 50
0
  1
品名
  7
TATEGAKI
  0
LINE
  8
_0-7_枠細線
  6
CONTINUOUS
 62
    5
 10
1422
 20
168
 11
1110
 21
168
  0
LINE
  8
_0-7_枠細線
  6
CONTINUOUS
 62
    5
 10
1140
 20
216
 11
1140
 21
72
  0
LINE
  8
_0-8_枠中線
  6
CONTINUOUS
 62
    5
 10
1710
 20
216
 11
1110
 21
216
  0
LINE
  8
_0-8_枠中線
  6
CONTINUOUS
 62
    5
 10
1110
 20
216
 11
1110
 21
72
  0
LINE
  8
_0-7_枠細線
  6
CONTINUOUS
 62
    5
 10
1494
 20
216
 11
1494
 21
72
  0
TEXT
  8
_0-7_枠細線
 62
    5
 10
1431
 20
192
 40
18
 41
1
 50
0
  1
縮　尺
  0
LINE
  8
_0-7_枠細線
  6
CONTINUOUS
 62
    5
 10
1422
 20
186
 11
1494
 21
186
  0
LINE
  8
_0-7_枠細線
  6
CONTINUOUS
 62
    5
 10
1494
 20
120
 11
1110
 21
120
  0
LINE
  8
_0-7_枠細線
  6
CONTINUOUS
 62
    5
 10
1710
 20
108
 11
1494
 21
108
  0
LINE
  8
_0-7_枠細線
  6
CONTINUOUS
 62
    5
 10
1494
 20
144
 11
1710
 21
144
  0
LINE
  8
_0-7_枠細線
  6
CONTINUOUS
 62
    5
 10
1710
 20
168
 11
1494
 21
168
  0
TEXT
  8
_0-7_枠細線
 62
    5
 10
1506
 20
177
 40
30
 41
0.8
 50
0
  1
株式会社シマブン
  0
TEXT
  8
_0-7_枠細線
 62
    5
 10
1503
 20
72
 40
18
 41
1
 50
0
  1
年月日
  0
TEXT
  8
_0-7_枠細線
 62
    5
 10
1503
 20
90
 40
18
 41
1
 50
0
  1
作　成
  0
TEXT
  8
_0-7_枠細線
 62
    5
 10
1507.5
 20
147
 40
18
 41
1
 50
0
  1
承 認
  0
LINE
  8
_0-7_枠細線
  6
CONTINUOUS
 62
    5
 10
1566
 20
168
 11
1566
 21
72
  0
TEXT
  8
_0-7_枠細線
 62
    5
 10
1579.5
 20
147
 40
18
 41
1
 50
0
  1
検 図
  0
LINE
  8
_0-7_枠細線
  6
CONTINUOUS
 62
    5
 10
1638
 20
168
 11
1638
 21
108
  0
TEXT
  8
_0-7_枠細線
 62
    5
 10
1651.5
 20
147
 40
18
 41
1
 50
0
  1
設 計
  0
LINE
  8
_0-7_枠細線
  6
CONTINUOUS
 62
    5
 10
1710
 20
1131
 11
1068
 21
1131
  0
TEXT
  8
_0-7_枠細線
 62
    5
 10
1074
 20
1133.9999999999995
 40
15
 41
1
 50
0
  1
記号
  0
TEXT
  8
_0-7_枠細線
 62
    5
 10
1196.25
 20
1134
 40
15
 41
1
 50
0
  1
訂　 正　 記　 事
  0
TEXT
  8
_0-7_枠細線
 62
    5
 10
1417.5
 20
1134
 40
15
 41
1
 50
0
  1
訂 正 年 月 日
  0
TEXT
  8
_0-7_枠細線
 62
    5
 10
1567.5
 20
1134
 40
15
 41
1
 50
0
  1
備　　　　　考
  0
LINE
  8
_0-7_枠細線
  6
CONTINUOUS
 62
    5
 10
1710
 20
1110
 11
1068
 21
1110
  0
TEXT
  8
_0-7_枠細線
 62
    5
 10
1650
 20
114
 40
24
 41
1
 50
0
  1
藤戸
  0
TEXT
  8
_0-7_枠細線
 62
    5
 10
1432.7999999999997
 20
141
 40
24
 41
0.6999999999999998
 50
0
  1
１：６
  0
LINE
  8
_0-1_計細線
  6
CONTINUOUS
 62
    3
 10
1723.4465993058161
 20
796.64196472428898
 11
1723.446594369296
 21
796.6433281967345
  0
LINE
  8
_0-7_枠細線
  6
CONTINUOUS
 62
    5
 10
1068
 20
1110
 11
1068
 21
1151.9999999999993
  0
LINE
  8
_0-7_枠細線
  6
CONTINUOUS
 62
    5
 10
1110
 20
1110
 11
1110
 21
1151.9999999999993
  0
LINE
  8
_0-7_枠細線
  6
CONTINUOUS
 62
    5
 10
1410
 20
1110
 11
1410
 21
1152
  0
LINE
  8
_0-7_枠細線
  6
CONTINUOUS
 62
    5
 10
1530
 20
1110
 11
1530
 21
1151.9999999999993
  0
TEXT
  8
_0-7_枠細線
 62
    5
 10
1506
 20
114
 40
24
 41
1
 50
0
  1
大野
  0
TEXT
  8
_0-7_枠細線
 62
    5
 10
1578
 20
114
 40
24
 41
1
 50
0
  1
深川
  0
TEXT
  8
_0-7_枠細線
 62
    5
 10
1572
 20
81
 40
18
 41
0.6666666666666666
 50
0
  1
２０１５年０４月０１日
  0
LINE
  8
_1-5_寸法2
  6
CONTINUOUS
 62
    7
 10
310.04960835509155
 20
366.01616135385143
 11
310.04960835509155
 21
415.51616177626113
  0
LINE
  8
_1-5_寸法2
  6
CONTINUOUS
 62
    7
 10
310.04960835509155
 20
403.51616177626113
 11
298.45849843962264
 21
400.41033323503086
  0
LINE
  8
_1-5_寸法2
  6
CONTINUOUS
 62
    7
 10
310.04960835509155
 20
403.51616177626113
 11
298.45849843962276
 21
406.62199031749134
  0
LINE
  8
_1-5_寸法2
  6
CONTINUOUS
 62
    7
 10
326.54960835509155
 20
366.01616135385143
 11
326.54960835509155
 21
415.51616177626113
  0
LINE
  8
_1-5_寸法2
  6
CONTINUOUS
 62
    7
 10
281.68503185901773
 20
403.51616177626113
 11
326.54960835509155
 21
403.51616177626113
  0
TEXT
  8
_1-5_寸法2
 62
    7
 10
281.68503185901773
 20
403.51616177626113
 40
18
 41
1
 50
0
  1
5.5
  0
LINE
  8
_1-5_寸法2
  6
CONTINUOUS
 62
    7
 10
326.54960835509155
 20
403.51616177626113
 11
338.1407182705604
 21
406.62199031749128
  0
LINE
  8
_1-5_寸法2
  6
CONTINUOUS
 62
    7
 10
326.54960835509155
 20
403.51616177626113
 11
338.14071827056034
 21
400.41033323503075
  0
LINE
  8
_1-5_寸法2
  6
CONTINUOUS
 62
    7
 10
356.54960835509155
 20
366.01616135385143
 11
356.54960835509155
 21
415.51616177626113
  0
LINE
  8
_1-5_寸法2
  6
CONTINUOUS
 62
    7
 10
356.54960835509155
 20
403.51616177626113
 11
344.95849843962264
 21
400.41033323503086
  0
LINE
  8
_1-5_寸法2
  6
CONTINUOUS
 62
    7
 10
356.54960835509155
 20
403.51616177626113
 11
344.95849843962276
 21
406.62199031749134
  0
LINE
  8
_1-5_寸法2
  6
CONTINUOUS
 62
    7
 10
326.54960835509155
 20
403.51616177626113
 11
356.54960835509155
 21
403.51616177626113
  0
TEXT
  8
_1-5_寸法2
 62
    7
 10
332.54960835509155
 20
403.51616177626113
 40
18
 41
1
 50
0
  1
10
  0
LINE
  8
_1-2_極細2
  6
CONTINUOUS
 62
    2
 10
526.94960866123893
 20
335.41616135385118
 11
529.04960866123884
 21
335.41616135385118
  0
LINE
  8
_1-2_極細2
  6
CENTER1
 62
    2
 10
388.04960835509155
 20
377.764504988814
 11
388.04960835509155
 21
278.05227477298649
  0
ARC
  8
_1-2_極細2
  6
CONTINUOUS
 62
    2
 10
274.04960896105757
 20
301.51616135385154
 40
9.0000000000000036
 50
179.99999999999983
 51
269.99999999999977
  0
LINE
  8
_1-2_極細2
  6
CONTINUOUS
 62
    2
 10
265.04960896105757
 20
301.51616135385154
 11
265.04960896105757
 21
360.01616135385154
  0
LINE
  8
_1-2_極細2
  6
CONTINUOUS
 62
    2
 10
274.04960896105757
 20
292.51616135385154
 11
353.54960896105757
 21
292.51616135385154
  0
LINE
  8
_1-2_極細2
  6
CONTINUOUS
 62
    2
 10
355.04960896105757
 20
294.01616135385154
 11
353.54960896105757
 21
292.51616135385154
  0
LINE
  8
_1-2_極細2
  6
CONTINUOUS
 62
    2
 10
355.04960896105757
 20
300.01616135385154
 11
355.04960896105757
 21
294.01616135385154
  0
LINE
  8
_1-2_極細2
  6
CONTINUOUS
 62
    2
 10
353.54960896105757
 20
301.51616135385154
 11
355.04960896105757
 21
300.01616135385154
  0
LINE
  8
_1-2_極細2
  6
CONTINUOUS
 62
    2
 10
274.04960896105757
 20
301.51616135385154
 11
353.54960896105757
 21
301.51616135385154
  0
LINE
  8
_1-2_極細2
  6
CONTINUOUS
 62
    2
 10
266.5496089610574
 20
361.51616135385154
 11
265.04960896105757
 21
360.01616135385154
  0
LINE
  8
_1-2_極細2
  6
CONTINUOUS
 62
    2
 10
272.5496089610574
 20
361.51616135385154
 11
266.5496089610574
 21
361.51616135385154
  0
LINE
  8
_1-2_極細2
  6
CONTINUOUS
 62
    2
 10
274.04960896105757
 20
360.01616135385154
 11
272.5496089610574
 21
361.51616135385154
  0
LINE
  8
_1-2_極細2
  6
CONTINUOUS
 62
    2
 10
274.04960896105757
 20
301.51616135385154
 11
274.04960896105757
 21
360.01616135385154
  0
ARC
  8
_1-2_極細2
  6
CONTINUOUS
 62
    2
 10
502.04960804260327
 20
301.51616135385154
 40
9.0000000000000036
 50
269.99999999999977
 51
359.99999999999966
  0
LINE
  8
_1-2_極細2
  6
CONTINUOUS
 62
    2
 10
511.04960804260327
 20
301.51616135385154
 11
511.04960804260327
 21
360.01616135385154
  0
LINE
  8
_1-2_極細2
  6
CONTINUOUS
 62
    2
 10
502.04960804260327
 20
292.51616135385154
 11
422.54960804260304
 21
292.51616135385154
  0
LINE
  8
_1-2_極細2
  6
CONTINUOUS
 62
    2
 10
421.04960804260304
 20
294.01616135385154
 11
422.54960804260304
 21
292.51616135385154
  0
LINE
  8
_1-2_極細2
  6
CONTINUOUS
 62
    2
 10
421.04960804260304
 20
300.01616135385154
 11
421.04960804260304
 21
294.01616135385154
  0
LINE
  8
_1-2_極細2
  6
CONTINUOUS
 62
    2
 10
422.54960804260304
 20
301.51616135385154
 11
421.04960804260304
 21
300.01616135385154
  0
LINE
  8
_1-2_極細2
  6
CONTINUOUS
 62
    2
 10
502.04960804260327
 20
301.51616135385154
 11
422.54960804260304
 21
301.51616135385154
  0
LINE
  8
_1-2_極細2
  6
CONTINUOUS
 62
    2
 10
509.54960804260327
 20
361.51616135385154
 11
511.04960804260327
 21
360.01616135385154
  0
LINE
  8
_1-2_極細2
  6
CONTINUOUS
 62
    2
 10
503.54960804260327
 20
361.51616135385154
 11
509.54960804260327
 21
361.51616135385154
  0
LINE
  8
_1-2_極細2
  6
CONTINUOUS
 62
    2
 10
502.04960804260327
 20
360.01616135385154
 11
503.54960804260327
 21
361.51616135385154
  0
LINE
  8
_1-2_極細2
  6
CONTINUOUS
 62
    2
 10
502.04960804260327
 20
301.51616135385154
 11
502.04960804260327
 21
360.01616135385154
  0
CIRCLE
  8
_1-2_極細2
  6
CONTINUOUS
 62
    2
 10
433.02337241020314
 20
268.47007788161898
 40
3.2859566508265057
  0
CIRCLE
  8
_1-2_極細2
  6
CONTINUOUS
 62
    2
 10
456.58003907687083
 20
263.45396677050672
 40
0.9955555555555292
  0
LINE
  8
_1-2_極細2
  6
CONTINUOUS
 62
    2
 10
218.11603934398849
 20
340.51616135385149
 11
239.11603881318297
 21
361.51616082304588
  0
LINE
  8
_1-2_極細2
  6
CONTINUOUS
 62
    2
 10
200.33955210114161
 20
360.92344029507797
 11
200.93227292781714
 21
361.51616112175338
  0
LINE
  8
_1-2_極細2
  6
DASHED2
 62
    2
 10
237.20792243602517
 20
340.51616135385149
 11
250.04960804260267
 21
353.35784696042884
  0
LINE
  8
_1-2_極細2
  6
DASHED2
 62
    2
 10
200.33955210114161
 20
341.83155720304137
 11
220.02415587049958
 21
361.51616097239958
  0
LINE
  8
_1-2_極細2
  6
CONTINUOUS
 62
    2
 10
265.04960804260304
 20
340.51616135385149
 11
200.33955210114161
 21
340.51616135385149
  0
LINE
  8
_1-2_極細2
  6
CONTINUOUS
 62
    2
 10
250.04960804260267
 20
361.51616135385166
 11
200.33955210114161
 21
361.51616135385166
  0
LINE
  8
_1-2_極細2
  6
CONTINUOUS
 62
    2
 10
572.90252539500125
 20
340.51616135385149
 11
574.83609409361566
 21
342.44973005246567
  0
LINE
  8
_1-2_極細2
  6
CONTINUOUS
 62
    2
 10
534.71875921092783
 20
340.51616135385149
 11
555.71875897883001
 21
361.51616112175338
  0
LINE
  8
_1-2_極細2
  6
DASHED2
 62
    2
 10
553.81064230296465
 20
340.51616135385149
 11
574.8106419215128
 21
361.51616097239958
  0
LINE
  8
_1-2_極細2
  6
DASHED2
 62
    2
 10
526.04960804260281
 20
350.93889327756324
 11
536.62687603614654
 21
361.51616127110674
  0
LINE
  8
_1-2_極細2
  6
CONTINUOUS
 62
    2
 10
511.04960804260327
 20
340.51616135385149
 11
574.83609409361566
 21
340.51616135385149
  0
LINE
  8
_1-2_極細2
  6
CONTINUOUS
 62
    2
 10
526.04960804260327
 20
361.51616135385166
 11
574.83609409361566
 21
361.51616135385166
  0
CIRCLE
  8
_1-2_極細2
  6
CONTINUOUS
 62
    2
 10
297.33917701078116
 20
225.16695567344269
 40
3.2859566508265057
  0
CIRCLE
  8
_1-2_極細2
  6
CONTINUOUS
 62
    2
 10
206.62485069709678
 20
221.1673001029352
 40
0.9955555555555292
  0
CIRCLE
  8
_1-2_極細2
  6
CONTINUOUS
 62
    2
 10
280.13917700978925
 20
243.52650098029028
 40
0.9955555555555292
  0
CIRCLE
  8
_1-2_極細2
  6
CONTINUOUS
 62
    2
 10
217.1391770083363
 20
260.40730010384016
 40
0.9955555555555292
  0
LINE
  8
_1-2_極細2
  6
CONTINUOUS
 62
    2
 10
250.04960804260327
 20
347.12051665915607
 11
256.65396334790756
 21
340.51616135385149
  0
LINE
  8
_1-2_極細2
  6
CONTINUOUS
 62
    2
 10
250.04960804260327
 20
354.75726989597064
 11
264.29071658472208
 21
340.51616135385149
  0
LINE
  8
_1-2_極細2
  6
CONTINUOUS
 62
    2
 10
265.04960804260304
 20
347.39402313278572
 11
250.92746982153662
 21
361.51616135385166
  0
LINE
  8
_1-2_極細2
  6
CONTINUOUS
 62
    2
 10
265.04960804260304
 20
355.03077636960029
 11
258.5642230583519
 21
361.51616135385143
  0
LINE
  8
_1-2_極細2
  6
CONTINUOUS
 62
    2
 10
250.04960804260267
 20
358.79938137674174
 11
252.76638801971285
 21
361.51616135385166
  0
LINE
  8
_1-2_極細2
  6
CONTINUOUS
 62
    2
 10
250.04960804260267
 20
351.16262813992694
 11
260.40314125652719
 21
361.51616135385166
  0
LINE
  8
_1-2_極細2
  6
CONTINUOUS
 62
    2
 10
250.04960804260267
 20
343.52587490311237
 11
265.04960804260304
 21
358.52587490311225
  0
LINE
  8
_1-2_極細2
  6
CONTINUOUS
 62
    2
 10
254.67664773015699
 20
340.51616135385149
 11
265.04960804260304
 21
350.88912166629768
  0
LINE
  8
_1-2_極細2
  6
CONTINUOUS
 62
    2
 10
262.3134009669713
 20
340.51616135385149
 11
265.04960804260304
 21
343.25236842948289
  0
LINE
  8
_1-2_極細2
  6
CONTINUOUS
 62
    2
 10
265.04960804260304
 20
360.0161613538516
 11
265.04960804260304
 21
361.51616135385166
  0
LINE
  8
_1-2_極細2
  6
CONTINUOUS
 62
    2
 10
265.04960804260304
 20
361.51616135385166
 11
250.04960804260267
 21
361.51616135385166
  0
LINE
  8
_1-2_極細2
  6
CONTINUOUS
 62
    2
 10
250.04960804260267
 20
361.51616135385166
 11
250.04960804260267
 21
340.51616135385149
  0
CIRCLE
  8
_1-2_極細2
  6
CONTINUOUS
 62
    2
 10
343.07584367500317
 20
268.47007788161898
 40
3.2859566508265057
  0
CIRCLE
  8
_1-2_極細2
  6
CONTINUOUS
 62
    2
 10
229.05917700833672
 20
336.67396677050567
 40
0.9955555555555292
  0
CIRCLE
  8
_1-2_極細2
  6
CONTINUOUS
 62
    2
 10
329.68806589722431
 20
248.30830814895268
 40
0.9955555555555292
  0
CIRCLE
  8
_1-2_極細2
  6
CONTINUOUS
 62
    2
 10
244.24917700833655
 20
258.07007788161803
 40
3.2859566508265057
  0
CIRCLE
  8
_1-2_極細2
  6
CONTINUOUS
 62
    2
 10
248.97917700833659
 20
304.66007788161738
 40
3.2859566508265057
  0
CIRCLE
  8
_1-2_極細2
  6
CONTINUOUS
 62
    2
 10
239.13917700833642
 20
265.6339667705065
 40
0.9955555555555292
  0
CIRCLE
  8
_1-2_極細2
  6
CONTINUOUS
 62
    2
 10
218.25917700833665
 20
290.83396677050627
 40
0.9955555555555292
  0
CIRCLE
  8
_1-2_極細2
  6
CONTINUOUS
 62
    2
 10
255.21917700833637
 20
292.11396677050624
 40
0.9955555555555292
  0
CIRCLE
  8
_1-2_極細2
  6
CONTINUOUS
 62
    2
 10
250.73917700833636
 20
327.63396677050588
 40
0.9955555555555292
  0
CIRCLE
  8
_1-2_極細2
  6
CONTINUOUS
 62
    2
 10
308.95917700833525
 20
227.13396677050702
 40
0.9955555555555292
  0
CIRCLE
  8
_1-2_極細2
  6
CONTINUOUS
 62
    2
 10
301.59917700833591
 20
272.0939667705066
 40
0.9955555555555292
  0
CIRCLE
  8
_1-2_極細2
  6
CONTINUOUS
 62
    2
 10
319.51917700833536
 20
263.45396677050672
 40
0.9955555555555292
  0
CIRCLE
  8
_1-2_極細2
  6
CONTINUOUS
 62
    2
 10
478.76003907442464
 20
225.16695567344269
 40
3.2859566508265057
  0
CIRCLE
  8
_1-2_極細2
  6
CONTINUOUS
 62
    2
 10
569.47436538810916
 20
221.1673001029352
 40
0.9955555555555292
  0
CIRCLE
  8
_1-2_極細2
  6
CONTINUOUS
 62
    2
 10
495.96003907541672
 20
243.52650098029028
 40
0.9955555555555292
  0
CIRCLE
  8
_1-2_極細2
  6
CONTINUOUS
 62
    2
 10
558.96003907686963
 20
260.40730010384016
 40
0.9955555555555292
  0
LINE
  8
_1-2_極細2
  6
CONTINUOUS
 62
    2
 10
526.04960804260281
 20
347.12051665915607
 11
519.44525273729801
 21
340.51616135385149
  0
LINE
  8
_1-2_極細2
  6
CONTINUOUS
 62
    2
 10
526.04960804260281
 20
354.75726989597064
 11
511.80849950048423
 21
340.51616135385149
  0
LINE
  8
_1-2_極細2
  6
CONTINUOUS
 62
    2
 10
511.04960804260327
 20
347.39402313278572
 11
525.17174626366932
 21
361.51616135385166
  0
LINE
  8
_1-2_極細2
  6
CONTINUOUS
 62
    2
 10
511.04960804260327
 20
355.03077636960029
 11
517.53499302685441
 21
361.51616135385143
  0
LINE
  8
_1-2_極細2
  6
CONTINUOUS
 62
    2
 10
526.04960804260327
 20
358.79938137674174
 11
523.33282806549323
 21
361.51616135385166
  0
LINE
  8
_1-2_極細2
  6
CONTINUOUS
 62
    2
 10
526.04960804260327
 20
351.16262813992694
 11
515.69607482867877
 21
361.51616135385166
  0
LINE
  8
_1-2_極細2
  6
CONTINUOUS
 62
    2
 10
526.04960804260327
 20
343.52587490311237
 11
511.04960804260327
 21
358.52587490311225
  0
LINE
  8
_1-2_極細2
  6
CONTINUOUS
 62
    2
 10
521.42256835504895
 20
340.51616135385149
 11
511.04960804260327
 21
350.88912166629768
  0
LINE
  8
_1-2_極細2
  6
CONTINUOUS
 62
    2
 10
513.7858151182345
 20
340.51616135385149
 11
511.04960804260327
 21
343.25236842948289
  0
LINE
  8
_1-2_極細2
  6
CONTINUOUS
 62
    2
 10
511.04960804260327
 20
360.0161613538516
 11
511.04960804260327
 21
361.51616135385166
  0
LINE
  8
_1-2_極細2
  6
CONTINUOUS
 62
    2
 10
511.04960804260327
 20
361.51616135385166
 11
526.04960804260327
 21
361.51616135385166
  0
LINE
  8
_1-2_極細2
  6
CONTINUOUS
 62
    2
 10
526.04960804260327
 20
361.51616135385166
 11
526.04960804260327
 21
340.51616135385149
  0
CIRCLE
  8
_1-2_極細2
  6
CONTINUOUS
 62
    2
 10
547.04003907686956
 20
336.67396677050567
 40
0.9955555555555292
  0
CIRCLE
  8
_1-2_極細2
  6
CONTINUOUS
 62
    2
 10
446.41115018798178
 20
248.30830814895268
 40
0.9955555555555292
  0
CIRCLE
  8
_1-2_極細2
  6
CONTINUOUS
 62
    2
 10
531.85003907686905
 20
258.07007788161803
 40
3.2859566508265057
  0
CIRCLE
  8
_1-2_極細2
  6
CONTINUOUS
 62
    2
 10
527.12003907686926
 20
304.66007788161738
 40
3.2859566508265057
  0
CIRCLE
  8
_1-2_極細2
  6
CONTINUOUS
 62
    2
 10
536.96003907686941
 20
265.6339667705065
 40
0.9955555555555292
  0
CIRCLE
  8
_1-2_極細2
  6
CONTINUOUS
 62
    2
 10
557.84003907686952
 20
290.83396677050627
 40
0.9955555555555292
  0
CIRCLE
  8
_1-2_極細2
  6
CONTINUOUS
 62
    2
 10
520.88003907686925
 20
292.11396677050624
 40
0.9955555555555292
  0
CIRCLE
  8
_1-2_極細2
  6
CONTINUOUS
 62
    2
 10
525.36003907686973
 20
327.63396677050588
 40
0.9955555555555292
  0
CIRCLE
  8
_1-2_極細2
  6
CONTINUOUS
 62
    2
 10
467.14003907687078
 20
227.13396677050702
 40
0.9955555555555292
  0
CIRCLE
  8
_1-2_極細2
  6
CONTINUOUS
 62
    2
 10
474.50003907687005
 20
272.0939667705066
 40
0.9955555555555292
  0
TEXT
  8
_0-7_枠細線
 62
    5
 10
317.66751935482051
 20
515.04070147870357
 40
24
 41
0.8
 50
0
  1
Ａ－Ａ’断面図
  0
TEXT
  8
_0-7_枠細線
 62
    5
 10
468.59397290194221
 20
515.04070147870357
 40
24
 41
0.6000000000000002
 50
0
  1
Ｓ＝１：２
  0
LINE
  8
_1-5_寸法2
  6
CONTINUOUS
 62
    7
 10
265.04960804260304
 20
373.51616135385149
 11
265.04960804260327
 21
493.51616177626119
  0
LINE
  8
_1-5_寸法2
  6
CONTINUOUS
 62
    7
 10
265.04960804260327
 20
487.51616177626119
 11
276.64071795807206
 21
490.6219903174914
  0
LINE
  8
_1-5_寸法2
  6
CONTINUOUS
 62
    7
 10
265.04960804260327
 20
487.51616177626119
 11
276.64071795807206
 21
484.41033323503086
  0
LINE
  8
_1-5_寸法2
  6
CONTINUOUS
 62
    7
 10
511.04960804260327
 20
373.51616135385154
 11
511.04960804260344
 21
493.51616177626119
  0
LINE
  8
_1-5_寸法2
  6
CONTINUOUS
 62
    7
 10
511.04960804260344
 20
487.51616177626119
 11
499.45849812713465
 21
484.41033323503098
  0
LINE
  8
_1-5_寸法2
  6
CONTINUOUS
 62
    7
 10
511.04960804260344
 20
487.51616177626119
 11
499.45849812713465
 21
490.6219903174914
  0
LINE
  8
_1-5_寸法2
  6
CONTINUOUS
 62
    7
 10
265.04960804260327
 20
487.51616177626119
 11
511.04960804260344
 21
487.51616177626119
  0
TEXT
  8
_1-5_寸法2
 62
    7
 10
379.04960804260344
 20
487.51616177626119
 40
18
 41
1
 50
0
  1
82
  0
LINE
  8
_1-2_極細2
  6
CONTINUOUS
 62
    2
 10
353.54960896105757
 20
292.51616135385154
 11
355.04960896105757
 21
292.51616135385154
  0
LINE
  8
_1-2_極細2
  6
CONTINUOUS
 62
    2
 10
355.04960896105757
 20
292.51616135385154
 11
355.04960896105757
 21
232.51616135385152
  0
LINE
  8
_1-2_極細2
  6
CONTINUOUS
 62
    2
 10
422.54960774912547
 20
292.51616135385154
 11
421.04960774912547
 21
292.51616135385154
  0
LINE
  8
_1-2_極細2
  6
CONTINUOUS
 62
    2
 10
421.04960774912547
 20
292.51616135385154
 11
421.04960774912547
 21
232.51616135385152
  0
LINE
  8
_1-5_寸法2
  6
CONTINUOUS
 62
    7
 10
265.04960896105757
 20
289.51616135385154
 11
265.0496089610574
 21
226.51616135385152
  0
LINE
  8
_1-5_寸法2
  6
CONTINUOUS
 62
    7
 10
265.0496089610574
 20
232.51616135385152
 11
276.64071887652631
 21
235.62198989508175
  0
LINE
  8
_1-5_寸法2
  6
CONTINUOUS
 62
    7
 10
265.0496089610574
 20
232.51616135385152
 11
276.64071887652631
 21
229.41033281262128
  0
LINE
  8
_1-5_寸法2
  6
CONTINUOUS
 62
    7
 10
355.04960896105757
 20
280.51616135385154
 11
355.04960896105752
 21
226.51616135385152
  0
LINE
  8
_1-5_寸法2
  6
CONTINUOUS
 62
    7
 10
355.04960896105752
 20
232.51616135385152
 11
343.45849904558861
 21
229.41033281262128
  0
LINE
  8
_1-5_寸法2
  6
CONTINUOUS
 62
    7
 10
355.04960896105752
 20
232.51616135385152
 11
343.45849904558872
 21
235.62198989508184
  0
LINE
  8
_1-5_寸法2
  6
CONTINUOUS
 62
    7
 10
265.0496089610574
 20
232.51616135385152
 11
355.04960896105752
 21
232.51616135385152
  0
TEXT
  8
_1-5_寸法2
 62
    7
 10
301.04960896105752
 20
232.51616135385152
 40
18
 41
1
 50
0
  1
30
  0
LINE
  8
_1-5_寸法2
  6
CONTINUOUS
 62
    7
 10
355.04960896105752
 20
232.51616135385152
 11
366.64071887652636
 21
235.62198989508175
  0
LINE
  8
_1-5_寸法2
  6
CONTINUOUS
 62
    7
 10
355.04960896105752
 20
232.51616135385152
 11
366.64071887652631
 21
229.41033281262119
  0
LINE
  8
_1-5_寸法2
  6
CONTINUOUS
 62
    7
 10
421.04960774912547
 20
280.51616135385154
 11
421.0496077491253
 21
226.51616135385152
  0
LINE
  8
_1-5_寸法2
  6
CONTINUOUS
 62
    7
 10
421.0496077491253
 20
232.51616135385152
 11
409.45849783365651
 21
229.41033281262128
  0
LINE
  8
_1-5_寸法2
  6
CONTINUOUS
 62
    7
 10
421.0496077491253
 20
232.51616135385152
 11
409.45849783365651
 21
235.62198989508184
  0
LINE
  8
_1-5_寸法2
  6
CONTINUOUS
 62
    7
 10
355.04960896105752
 20
232.51616135385152
 11
421.0496077491253
 21
232.51616135385152
  0
TEXT
  8
_1-5_寸法2
 62
    7
 10
379.04960835509144
 20
232.51616135385152
 40
18
 41
1
 50
0
  1
22
  0
LINE
  8
_1-5_寸法2
  6
CONTINUOUS
 62
    7
 10
421.0496077491253
 20
232.51616135385152
 11
432.64071766459415
 21
235.62198989508175
  0
LINE
  8
_1-5_寸法2
  6
CONTINUOUS
 62
    7
 10
421.0496077491253
 20
232.51616135385152
 11
432.64071766459409
 21
229.41033281262119
  0
LINE
  8
_1-5_寸法2
  6
CONTINUOUS
 62
    7
 10
511.04960804260315
 20
289.51616135385154
 11
511.0496080426031
 21
226.51616135385152
  0
LINE
  8
_1-5_寸法2
  6
CONTINUOUS
 62
    7
 10
511.0496080426031
 20
232.51616135385152
 11
499.45849812713425
 21
229.41033281262128
  0
LINE
  8
_1-5_寸法2
  6
CONTINUOUS
 62
    7
 10
511.0496080426031
 20
232.51616135385152
 11
499.45849812713431
 21
235.62198989508184
  0
LINE
  8
_1-5_寸法2
  6
CONTINUOUS
 62
    7
 10
421.0496077491253
 20
232.51616135385152
 11
511.0496080426031
 21
232.51616135385152
  0
TEXT
  8
_1-5_寸法2
 62
    7
 10
457.0496078958642
 20
232.51616135385152
 40
18
 41
1
 50
0
  1
30
  0
LINE
  8
_1-5_寸法2
  6
CONTINUOUS
 62
    7
 10
249.44960804260262
 20
292.5161613538516
 11
199.04960896105757
 21
292.51616135385166
  0
LINE
  8
_1-5_寸法2
  6
CONTINUOUS
 62
    7
 10
205.04960896105757
 20
292.51616135385166
 11
201.94378041982742
 21
304.10727126932056
  0
LINE
  8
_1-5_寸法2
  6
CONTINUOUS
 62
    7
 10
205.04960896105757
 20
292.51616135385166
 11
208.1554375022879
 21
304.10727126932045
  0
LINE
  8
_1-5_寸法2
  6
CONTINUOUS
 62
    7
 10
253.04960804260301
 20
361.51616135385166
 11
199.04960896105757
 21
361.51616135385183
  0
LINE
  8
_1-5_寸法2
  6
CONTINUOUS
 62
    7
 10
205.04960896105757
 20
361.51616135385183
 11
208.15543750228781
 21
349.92505143838298
  0
LINE
  8
_1-5_寸法2
  6
CONTINUOUS
 62
    7
 10
205.04960896105757
 20
361.51616135385183
 11
201.94378041982733
 21
349.92505143838304
  0
LINE
  8
_1-5_寸法2
  6
CONTINUOUS
 62
    7
 10
205.04960896105757
 20
292.51616135385166
 11
205.04960896105757
 21
361.51616135385183
  0
TEXT
  8
_1-5_寸法2
 62
    7
 10
205.04960896105757
 20
318.01616135385177
 40
18
 41
1
 50
89.99999999999973
  1
23
  0
LINE
  8
_0-1_計細線
  6
CONTINUOUS
 62
    3
 10
492.81304121194586
 20
860.36031331592812
 11
492.81304121194586
 21
850.36031331592812
  0
LINE
  8
_0-1_計細線
  6
CONTINUOUS
 62
    3
 10
492.81304121194586
 20
875.86031331592767
 11
492.81304121194586
 21
865.86031331592767
  0
LINE
  8
_0-1_計細線
  6
CONTINUOUS
 62
    3
 10
492.81304121194586
 20
922.36031331592676
 11
492.81304121194586
 21
912.36031331592665
  0
LINE
  8
_0-0_計極細
  6
CENTER1
 62
    2
 10
1232.1294964028777
 20
886.3603133159271
 11
1343.9496402877699
 21
886.3603133159271
  0
LINE
  8
_0-1_計細線
  6
CONTINUOUS
 62
    3
 10
1258.7763929071748
 20
927.36050324292046
 11
1258.7763929071748
 21
845.36050324292034
  0
LINE
  8
_0-1_計細線
  6
CONTINUOUS
 62
    3
 10
1258.7763929071748
 20
845.36050324292034
 11
1281.7763929071743
 21
845.36050324292034
  0
LINE
  8
_0-1_計細線
  6
CONTINUOUS
 62
    3
 10
1281.7763929071743
 20
845.36050324292034
 11
1281.7763929071743
 21
927.36050324292046
  0
LINE
  8
_0-1_計細線
  6
CONTINUOUS
 62
    3
 10
1281.7763929071743
 20
927.36050324292046
 11
1258.7763929071748
 21
927.36050324292046
  0
LINE
  8
_0-0_計極細
  6
CENTER1
 62
    2
 10
480.14158195412034
 20
886.3603133159271
 11
1077.1703025807533
 21
886.3603133159271
  0
LINE
  8
_0-1_計細線
  6
CONTINUOUS
 62
    3
 10
1068.3130412119458
 20
845.36031331592721
 11
1068.3130412119458
 21
927.36031331592721
  0
LINE
  8
_0-1_計細線
  6
CONTINUOUS
 62
    3
 10
1068.3130412119458
 20
927.36031331592721
 11
488.31304121194586
 21
927.36031331592721
  0
LINE
  8
_0-1_計細線
  6
CONTINUOUS
 62
    3
 10
488.31304121194586
 20
927.36031331592721
 11
488.31304121194586
 21
845.36031331592721
  0
LINE
  8
_0-1_計細線
  6
CONTINUOUS
 62
    3
 10
488.31304121194586
 20
845.36031331592721
 11
1068.3130412119458
 21
845.36031331592721
  0
LINE
  8
_0-1_計細線
  6
CONTINUOUS
 62
    3
 10
491.31304121194586
 20
924.36031331592721
 11
491.31304121194586
 21
848.36031331592721
  0
LINE
  8
_0-1_計細線
  6
CONTINUOUS
 62
    3
 10
491.31304121194586
 20
848.36031331592721
 11
1065.3130412119458
 21
848.36031331592721
  0
LINE
  8
_0-1_計細線
  6
CONTINUOUS
 62
    3
 10
1065.3130412119458
 20
848.36031331592721
 11
1065.3130412119458
 21
924.36031331592721
  0
LINE
  8
_0-1_計細線
  6
CONTINUOUS
 62
    3
 10
1065.3130412119458
 20
924.36031331592721
 11
491.31304121194586
 21
924.36031331592721
  0
LINE
  8
_0-5_寸法線
  6
CONTINUOUS
 62
    7
 10
746.59009312207604
 20
856.04293717273606
 11
746.17674361874049
 21
844.05005836120415
  0
LINE
  8
_0-5_寸法線
  6
CONTINUOUS
 62
    7
 10
746.59009312207604
 20
856.04293717273606
 11
740.23568254577981
 21
845.86347420910897
  0
LINE
  8
_0-5_寸法線
  6
CONTINUOUS
 62
    7
 10
746.59009312207604
 20
856.04293717273606
 11
733.42871878918254
 21
812.92401946494533
  0
LINE
  8
_0-5_寸法線
  6
CONTINUOUS
 62
    7
 10
733.42871878918254
 20
812.92401946494533
 11
688.41866455064633
 21
812.92401946494533
  0
TEXT
  8
_0-5_寸法線
 62
    7
 10
688.41866455064644
 20
812.92401946494533
 40
18
 41
0.7999999999999998
 50
0
  1
上フタ
  0
LINE
  8
_0-1_計細線
  6
CONTINUOUS
 62
    3
 10
492.81304121194586
 20
850.36031331592812
 11
1063.8130412119458
 21
850.36031331592812
  0
LINE
  8
_0-1_計細線
  6
CONTINUOUS
 62
    3
 10
1063.8130412119458
 20
860.36031331592812
 11
492.81304121194586
 21
860.36031331592812
  0
LINE
  8
_0-1_計細線
  6
CONTINUOUS
 62
    3
 10
492.81304121194586
 20
865.86031331592767
 11
1063.8130412119458
 21
865.86031331592767
  0
LINE
  8
_0-1_計細線
  6
CONTINUOUS
 62
    3
 10
1063.8130412119458
 20
875.86031331592767
 11
492.81304121194586
 21
875.86031331592767
  0
LINE
  8
_0-1_計細線
  6
CONTINUOUS
 62
    3
 10
492.81304121194586
 20
896.8603133159271
 11
1063.8130412119458
 21
896.8603133159271
  0
LINE
  8
_0-1_計細線
  6
CONTINUOUS
 62
    3
 10
1063.8130412119458
 20
906.86031331592721
 11
492.81304121194586
 21
906.86031331592721
  0
LINE
  8
_0-1_計細線
  6
CONTINUOUS
 62
    3
 10
492.81304121194586
 20
912.36031331592665
 11
1063.8130412119458
 21
912.36031331592665
  0
LINE
  8
_0-1_計細線
  6
CONTINUOUS
 62
    3
 10
1063.8130412119458
 20
922.36031331592676
 11
492.81304121194586
 21
922.36031331592676
  0
LINE
  8
_0-1_計細線
  6
CONTINUOUS
 62
    3
 10
1063.8130412119458
 20
922.36031331592676
 11
1063.8130412119458
 21
912.36031331592665
  0
LINE
  8
_0-1_計細線
  6
CONTINUOUS
 62
    3
 10
1063.8130412119458
 20
906.86031331592721
 11
1063.8130412119458
 21
896.8603133159271
  0
LINE
  8
_0-1_計細線
  6
CONTINUOUS
 62
    3
 10
1063.8130412119458
 20
891.36031331592721
 11
1063.8130412119458
 21
881.36031331592721
  0
LINE
  8
_0-1_計細線
  6
CONTINUOUS
 62
    3
 10
1063.8130412119458
 20
875.86031331592767
 11
1063.8130412119458
 21
865.86031331592767
  0
LINE
  8
_0-1_計細線
  6
CONTINUOUS
 62
    3
 10
1063.8130412119458
 20
860.36031331592812
 11
1063.8130412119458
 21
850.36031331592812
  0
LINE
  8
_0-5_寸法線
  6
CONTINUOUS
 62
    7
 10
1040.9204337865287
 20
925.91601392515258
 11
1032.4351524122901
 21
934.40129529939122
  0
LINE
  8
_0-5_寸法線
  6
CONTINUOUS
 62
    7
 10
1040.9204337865287
 20
925.91601392515258
 11
1037.8146052452985
 21
937.50712384062126
  0
LINE
  8
_0-5_寸法線
  6
CONTINUOUS
 62
    7
 10
1040.9204337865287
 20
925.91601392515258
 11
1026.2301606839237
 21
951.36031331592721
  0
LINE
  8
_0-5_寸法線
  6
CONTINUOUS
 62
    7
 10
1026.2301606839237
 20
951.36031331592721
 11
939.83016068392362
 21
951.36031331592721
  0
TEXT
  8
_0-5_寸法線
 62
    7
 10
939.83016068392374
 20
951.36031331592721
 40
18
 41
0.7999999999999998
 50
0
  1
Ｌアングル枠
  0
TEXT
  8
_0-7_枠細線
 62
    5
 10
1158.5999999999999
 20
180
 40
24
 41
0.625
 50
0
  1
玄関排水Ｌアングル枠仕様
  0
TEXT
  8
_0-7_枠細線
 62
    5
 10
1158.5999999999999
 20
132
 40
24
 41
0.6
 50
0
  1
ＧＳＥ－Ｌ６００
  0
LINE
  8
_0-1_計細線
  6
CONTINUOUS
 62
    3
 10
492.81304121194586
 20
906.86031331592721
 11
492.81304121194586
 21
896.8603133159271
  0
LINE
  8
_0-1_計細線
  6
CONTINUOUS
 62
    3
 10
1063.8130412119458
 20
891.36031331592721
 11
492.81304121194586
 21
891.36031331592721
  0
LINE
  8
_0-1_計細線
  6
CONTINUOUS
 62
    3
 10
492.81304121194586
 20
881.36031331592721
 11
1063.8130412119458
 21
881.36031331592721
  0
LINE
  8
_0-1_計細線
  6
CONTINUOUS
 62
    3
 10
492.81304121194586
 20
891.36031331592721
 11
492.81304121194586
 21
881.36031331592721
  0
LINE
  8
_0-5_寸法線
  6
CONTINUOUS
 62
    7
 10
1080.3130412119458
 20
845.36031331592721
 11
1134.3130412119458
 21
845.36031331592687
  0
LINE
  8
_0-5_寸法線
  6
CONTINUOUS
 62
    7
 10
1128.3130412119458
 20
845.36031331592687
 11
1125.2072126707155
 21
856.95142323139567
  0
LINE
  8
_0-5_寸法線
  6
CONTINUOUS
 62
    7
 10
1128.3130412119458
 20
845.36031331592687
 11
1131.4188697531758
 21
856.95142323139567
  0
LINE
  8
_0-5_寸法線
  6
CONTINUOUS
 62
    7
 10
1080.3130412119458
 20
927.36031331592721
 11
1134.3130412119458
 21
927.36031331592699
  0
LINE
  8
_0-5_寸法線
  6
CONTINUOUS
 62
    7
 10
1128.3130412119458
 20
927.36031331592699
 11
1131.4188697531758
 21
915.7692034004582
  0
LINE
  8
_0-5_寸法線
  6
CONTINUOUS
 62
    7
 10
1128.3130412119458
 20
927.36031331592699
 11
1125.2072126707155
 21
915.7692034004582
  0
LINE
  8
_0-5_寸法線
  6
CONTINUOUS
 62
    7
 10
1128.3130412119458
 20
845.36031331592687
 11
1128.3130412119458
 21
927.36031331592699
  0
TEXT
  8
_0-5_寸法線
 62
    7
 10
1128.313041211946
 20
877.36031331592699
 40
18
 41
1
 50
90
  1
82
  0
LINE
  8
_1-3_細線2
  6
CONTINUOUS
 62
    4
 10
399.44960835509073
 20
351.91616177626065
 11
376.64960835509237
 21
351.91616177626065
  0
LINE
  8
_1-3_細線2
  6
CONTINUOUS
 62
    4
 10
376.64960835509237
 20
351.91616177626065
 11
376.64960835509237
 21
307.51616177626101
  0
ARC
  8
_1-3_細線2
  6
CONTINUOUS
 62
    4
 10
399.44960835509164
 20
351.91616177626099
 40
3.5999999999999996
 50
0
 51
89.999999999999915
  0
LINE
  8
_1-3_細線2
  6
CONTINUOUS
 62
    4
 10
373.04960835509155
 20
351.91616177626099
 11
373.04960835509155
 21
307.51616177626101
  0
LINE
  8
_1-3_細線2
  6
CONTINUOUS
 62
    4
 10
399.44960835509164
 20
355.51616177626101
 11
376.64960835509169
 21
355.51616177626101
  0
ARC
  8
_1-3_細線2
  6
CONTINUOUS
 62
    4
 10
376.64960835509169
 20
351.91616177626099
 40
3.5999999999999996
 50
89.999999999999915
 51
179.99999999999983
  0
LINE
  8
_1-3_細線2
  6
CONTINUOUS
 62
    4
 10
373.04960835509155
 20
307.51616177626101
 11
376.64960835509237
 21
307.51616177626101
  0
LINE
  8
_1-3_細線2
  6
CONTINUOUS
 62
    4
 10
403.04960835509155
 20
337.51616135385154
 11
399.44960835509073
 21
337.51616135385132
  0
LINE
  8
_1-3_細線2
  6
CONTINUOUS
 62
    4
 10
399.44960835509073
 20
351.91616177626065
 11
399.44960835509073
 21
337.51616135385154
  0
LINE
  8
_1-3_細線2
  6
CONTINUOUS
 62
    4
 10
403.04960835509155
 20
351.91616177626099
 11
403.04960835509155
 21
337.51616135385154
  0
LINE
  8
_1-3_細線2
  6
CONTINUOUS
 62
    4
 10
356.54960835509263
 20
332.86616135385157
 11
373.04960835509155
 21
332.86616135385157
  0
LINE
  8
_1-3_細線2
  6
CONTINUOUS
 62
    4
 10
356.54960835509263
 20
312.16616135385152
 11
373.04960835509155
 21
312.16616135385152
  0
LINE
  8
_1-3_細線2
  6
CONTINUOUS
 62
    4
 10
419.54960866123963
 20
312.16616135385152
 11
376.64960866124028
 21
312.16616135385152
  0
LINE
  8
_1-3_細線2
  6
CONTINUOUS
 62
    4
 10
419.54960866123963
 20
332.86616135385157
 11
376.64960866124028
 21
332.86616135385157
  0
LINE
  8
_1-3_細線2
  6
CONTINUOUS
 62
    4
 10
469.64960866123926
 20
330.2711617762609
 11
469.64960866123926
 21
318.36116177626081
  0
LINE
  8
_1-3_細線2
  6
CONTINUOUS
 62
    4
 10
469.64960866123926
 20
351.91616177626065
 11
469.64960866123926
 21
307.51616177626101
  0
LINE
  8
_1-3_細線2
  6
CONTINUOUS
 62
    4
 10
445.94960866123813
 20
351.91616177626065
 11
423.14960866123852
 21
351.91616177626065
  0
LINE
  8
_1-3_細線2
  6
CONTINUOUS
 62
    4
 10
492.44960866123847
 20
351.91616177626065
 11
469.64960866123926
 21
351.91616177626065
  0
LINE
  8
_1-3_細線2
  6
CONTINUOUS
 62
    4
 10
423.14960866123852
 20
351.91616177626065
 11
423.14960866123852
 21
307.51616177626101
  0
ARC
  8
_1-3_細線2
  6
CONTINUOUS
 62
    4
 10
492.44960866123932
 20
351.91616177626099
 40
3.5999999999999996
 50
0
 51
89.999999999999915
  0
LINE
  8
_1-3_細線2
  6
CONTINUOUS
 62
    4
 10
466.04960866123844
 20
351.91616177626099
 11
466.04960866123844
 21
307.51616177626101
  0
LINE
  8
_1-3_細線2
  6
CONTINUOUS
 62
    4
 10
492.44960866123932
 20
355.51616177626101
 11
469.6496086612384
 21
355.51616177626101
  0
ARC
  8
_1-3_細線2
  6
CONTINUOUS
 62
    4
 10
469.6496086612384
 20
351.91616177626099
 40
3.5999999999999996
 50
89.999999999999915
 51
179.99999999999983
  0
ARC
  8
_1-3_細線2
  6
CONTINUOUS
 62
    4
 10
445.94960866123898
 20
351.91616177626099
 40
3.5999999999999996
 50
0
 51
89.999999999999915
  0
LINE
  8
_1-3_細線2
  6
CONTINUOUS
 62
    4
 10
419.54960866123963
 20
351.91616177626099
 11
419.54960866123963
 21
307.51616177626101
  0
LINE
  8
_1-3_細線2
  6
CONTINUOUS
 62
    4
 10
445.94960866123898
 20
355.51616177626101
 11
423.14960866123988
 21
355.51616177626101
  0
ARC
  8
_1-3_細線2
  6
CONTINUOUS
 62
    4
 10
423.14960866123988
 20
351.91616177626099
 40
3.5999999999999996
 50
89.999999999999915
 51
179.99999999999983
  0
LINE
  8
_1-3_細線2
  6
CONTINUOUS
 62
    4
 10
419.54960866123963
 20
307.51616177626101
 11
423.14960866123852
 21
307.51616177626101
  0
LINE
  8
_1-3_細線2
  6
CONTINUOUS
 62
    4
 10
466.04960866123844
 20
307.51616177626101
 11
469.64960866123926
 21
307.51616177626101
  0
LINE
  8
_1-3_細線2
  6
CONTINUOUS
 62
    4
 10
496.04960866123929
 20
337.51616135385154
 11
492.44960866123847
 21
337.51616135385154
  0
LINE
  8
_1-3_細線2
  6
CONTINUOUS
 62
    4
 10
449.54960866123895
 20
337.51616135385154
 11
445.94960866123813
 21
337.51616135385154
  0
LINE
  8
_1-3_細線2
  6
CONTINUOUS
 62
    4
 10
445.94960866123813
 20
351.91616177626065
 11
445.94960866123813
 21
337.51616135385154
  0
LINE
  8
_1-3_細線2
  6
CONTINUOUS
 62
    4
 10
492.44960866123847
 20
351.91616177626065
 11
492.44960866123847
 21
337.51616135385154
  0
LINE
  8
_1-3_細線2
  6
CONTINUOUS
 62
    4
 10
496.04960866123929
 20
351.91616177626099
 11
496.04960866123929
 21
337.51616135385154
  0
LINE
  8
_1-3_細線2
  6
CONTINUOUS
 62
    4
 10
449.54960866123895
 20
351.91616177626099
 11
449.54960866123895
 21
337.51616135385154
  0
ARC
  8
_1-3_細線2
  6
CONTINUOUS
 62
    4
 10
484.03985296738904
 20
308.11616135385236
 40
0.6000000000000002
 50
269.99999999999977
 51
359.99999999999966
  0
LINE
  8
_1-3_細線2
  6
CONTINUOUS
 62
    4
 10
481.64960896738842
 20
307.51616135385211
 11
484.03985296738904
 21
307.51616135385211
  0
ARC
  8
_1-3_細線2
  6
CONTINUOUS
 62
    4
 10
484.03985296738904
 20
336.91616135385163
 40
0.6000000000000002
 50
0
 51
89.999999999999915
  0
LINE
  8
_1-3_細線2
  6
CONTINUOUS
 62
    4
 10
481.64960896738842
 20
337.51616135385268
 11
484.03985296738904
 21
337.51616135385268
  0
LINE
  8
_1-3_細線2
  6
CONTINUOUS
 62
    4
 10
484.63985296738986
 20
321.01616135385211
 11
484.63985296738986
 21
308.11616135385236
  0
LINE
  8
_1-3_細線2
  6
CONTINUOUS
 62
    4
 10
484.63985296738986
 20
336.91616135385163
 11
484.63985296738986
 21
321.01616135385211
  0
ARC
  8
_1-3_細線2
  6
CONTINUOUS
 62
    4
 10
480.14960896738842
 20
349.51616135385154
 40
1.5
 50
0
 51
89.999999999999915
  0
LINE
  8
_1-3_細線2
  6
CONTINUOUS
 62
    4
 10
471.14960896738842
 20
351.01616135385154
 11
480.14960896738842
 21
351.01616135385154
  0
ARC
  8
_1-3_細線2
  6
CONTINUOUS
 62
    4
 10
471.14960896738842
 20
349.51616135385154
 40
1.5
 50
89.999999999999915
 51
179.99999999999983
  0
LINE
  8
_1-3_細線2
  6
CONTINUOUS
 62
    4
 10
481.64960896738842
 20
349.51616135385154
 11
481.64960896738842
 21
303.01616135385154
  0
ARC
  8
_1-3_細線2
  6
CONTINUOUS
 62
    4
 10
480.14960896738842
 20
303.01616135385154
 40
1.5
 50
269.99999999999977
 51
359.99999999999966
  0
LINE
  8
_1-3_細線2
  6
CONTINUOUS
 62
    4
 10
480.14960896738842
 20
301.51616135385154
 11
471.14960896738842
 21
301.51616135385154
  0
LINE
  8
_1-3_細線2
  6
CONTINUOUS
 62
    4
 10
469.64960896738842
 20
303.01616135385154
 11
469.64960896738842
 21
349.51616135385154
  0
ARC
  8
_1-3_細線2
  6
CONTINUOUS
 62
    4
 10
471.14960896738842
 20
303.01616135385154
 40
1.5
 50
179.99999999999983
 51
269.99999999999977
  0
LINE
  8
_1-3_細線2
  6
CONTINUOUS
 62
    4
 10
466.049608967388
 20
312.16616135385152
 11
423.14960896738899
 21
312.16616135385152
  0
LINE
  8
_1-3_細線2
  6
CONTINUOUS
 62
    4
 10
466.049608967388
 20
332.86616135385157
 11
423.14960896738899
 21
332.86616135385157
  0
LINE
  8
_1-2_極細2
  6
CONTINUOUS
 62
    2
 10
484.63985296738986
 20
322.51616135385154
 11
493.6534009673901
 21
322.51616135385154
  0
LINE
  8
_1-3_細線2
  6
CONTINUOUS
 62
    4
 10
484.63985296738986
 20
312.01616135385291
 11
493.65343696738819
 21
312.01616135385291
  0
ARC
  8
_1-3_細線2
  6
CONTINUOUS
 62
    4
 10
493.65343696738819
 20
312.61616135385236
 40
0.6000000000000002
 50
269.99999999999977
 51
359.99999999999966
  0
ARC
  8
_1-2_極細2
  6
CONTINUOUS
 62
    2
 10
470.97949696738954
 20
317.26572335385333
 40
23.273868
 50
346.96432999999962
 51
13.038021999994676
  0
ARC
  8
_1-3_細線2
  6
CONTINUOUS
 62
    4
 10
493.65343696738819
 20
332.41616135385323
 40
0.6000000000000002
 50
0
 51
89.999999999999915
  0
ARC
  8
_1-2_極細2
  6
CONTINUOUS
 62
    2
 10
470.97949696738954
 20
327.76659335385182
 40
23.273868
 50
346.96197800000078
 51
13.035669999999676
  0
LINE
  8
_1-3_細線2
  6
CONTINUOUS
 62
    4
 10
484.63985296738986
 20
333.01616135385268
 11
493.65343696738819
 21
333.01616135385268
  0
LINE
  8
_1-3_細線2
  6
CONTINUOUS
 62
    4
 10
494.25343696738946
 20
312.61616135385236
 11
494.25343696738946
 21
332.41616135385323
  0
LINE
  8
_1-3_細線2
  6
CONTINUOUS
 62
    4
 10
306.44960835509318
 20
351.91616177626065
 11
306.44960835509318
 21
307.51616177626101
  0
LINE
  8
_1-3_細線2
  6
CONTINUOUS
 62
    4
 10
330.14960835509208
 20
351.91616177626065
 11
352.94960835509249
 21
351.91616177626065
  0
LINE
  8
_1-3_細線2
  6
CONTINUOUS
 62
    4
 10
283.64960835509345
 20
351.91616177626065
 11
306.44960835509318
 21
351.91616177626065
  0
LINE
  8
_1-3_細線2
  6
CONTINUOUS
 62
    4
 10
352.94960835509249
 20
351.91616177626065
 11
352.94960835509249
 21
307.51616177626101
  0
LINE
  8
_1-3_細線2
  6
CONTINUOUS
 62
    4
 10
356.54960835509263
 20
351.91616177626088
 11
356.54960835509263
 21
307.51616177626101
  0
ARC
  8
_1-3_細線2
  6
CONTINUOUS
 62
    4
 10
352.94960835509266
 20
351.91616177626099
 40
3.5999999999999996
 50
359.99999999999784
 51
90.000000000001421
  0
LINE
  8
_1-3_細線2
  6
CONTINUOUS
 62
    4
 10
330.14960835509191
 20
355.51616177626101
 11
352.94960835509249
 21
355.51616177626101
  0
ARC
  8
_1-3_細線2
  6
CONTINUOUS
 62
    4
 10
330.14960835509203
 20
351.91616177626099
 40
3.5999999999999996
 50
90.000000000001805
 51
180.00000000000145
  0
LINE
  8
_1-3_細線2
  6
CONTINUOUS
 62
    4
 10
310.04960835509195
 20
351.91616177626088
 11
310.04960835509195
 21
307.51616177626101
  0
ARC
  8
_1-3_細線2
  6
CONTINUOUS
 62
    4
 10
306.4496083550921
 20
351.91616177626099
 40
3.5999999999999996
 50
359.99999999999784
 51
89.999999999999545
  0
LINE
  8
_1-3_細線2
  6
CONTINUOUS
 62
    4
 10
283.6496083550926
 20
355.51616177626101
 11
306.4496083550921
 21
355.51616177626101
  0
ARC
  8
_1-3_細線2
  6
CONTINUOUS
 62
    4
 10
283.6496083550926
 20
351.91616177626099
 40
3.5999999999999996
 50
89.999999999999915
 51
179.99999999999983
  0
LINE
  8
_1-3_細線2
  6
CONTINUOUS
 62
    4
 10
306.44960835509318
 20
307.51616177626101
 11
310.04960835509195
 21
307.51616177626101
  0
LINE
  8
_1-3_細線2
  6
CONTINUOUS
 62
    4
 10
352.94960835509249
 20
307.51616177626101
 11
356.54960835509263
 21
307.51616177626101
  0
LINE
  8
_1-3_細線2
  6
CONTINUOUS
 62
    4
 10
280.04960835509263
 20
337.51616135385154
 11
283.64960835509345
 21
337.51616135385132
  0
LINE
  8
_1-3_細線2
  6
CONTINUOUS
 62
    4
 10
326.54960835509195
 20
337.51616135385154
 11
330.14960835509277
 21
337.51616135385132
  0
LINE
  8
_1-3_細線2
  6
CONTINUOUS
 62
    4
 10
283.64960835509345
 20
351.91616177626065
 11
283.64960835509345
 21
337.51616135385154
  0
LINE
  8
_1-3_細線2
  6
CONTINUOUS
 62
    4
 10
330.14960835509208
 20
351.91616177626065
 11
330.14960835509277
 21
337.51616135385154
  0
LINE
  8
_1-3_細線2
  6
CONTINUOUS
 62
    4
 10
326.54960835509195
 20
351.91616177626088
 11
326.54960835509195
 21
337.51616135385154
  0
LINE
  8
_1-3_細線2
  6
CONTINUOUS
 62
    4
 10
280.04960835509263
 20
351.91616177626099
 11
280.04960835509263
 21
337.51616135385154
  0
ARC
  8
_1-3_細線2
  6
CONTINUOUS
 62
    4
 10
292.05936435509255
 20
308.11616135385236
 40
0.6000000000000002
 50
179.99999999999983
 51
269.99999999999977
  0
LINE
  8
_1-3_細線2
  6
CONTINUOUS
 62
    4
 10
294.44960835509318
 20
307.51616135385211
 11
292.05936435509255
 21
307.51616135385211
  0
ARC
  8
_1-3_細線2
  6
CONTINUOUS
 62
    4
 10
292.05936435509255
 20
336.91616135385163
 40
0.6000000000000002
 50
89.999999999999915
 51
179.99999999999983
  0
LINE
  8
_1-3_細線2
  6
CONTINUOUS
 62
    4
 10
294.44960835509318
 20
337.51616135385268
 11
292.05936435509255
 21
337.51616135385268
  0
LINE
  8
_1-3_細線2
  6
CONTINUOUS
 62
    4
 10
291.45936435509157
 20
321.01616135385211
 11
291.45936435509157
 21
308.11616135385236
  0
LINE
  8
_1-3_細線2
  6
CONTINUOUS
 62
    4
 10
291.45936435509157
 20
336.91616135385163
 11
291.45936435509157
 21
321.01616135385211
  0
ARC
  8
_1-3_細線2
  6
CONTINUOUS
 62
    4
 10
295.94960835509318
 20
349.51616135385154
 40
1.5
 50
89.999999999999915
 51
179.99999999999983
  0
LINE
  8
_1-3_細線2
  6
CONTINUOUS
 62
    4
 10
304.94960835509318
 20
351.01616135385154
 11
295.94960835509318
 21
351.01616135385154
  0
ARC
  8
_1-3_細線2
  6
CONTINUOUS
 62
    4
 10
304.94960835509318
 20
349.51616135385154
 40
1.5
 50
0
 51
89.999999999999915
  0
LINE
  8
_1-3_細線2
  6
CONTINUOUS
 62
    4
 10
294.44960835509318
 20
349.51616135385154
 11
294.44960835509318
 21
303.01616135385154
  0
ARC
  8
_1-3_細線2
  6
CONTINUOUS
 62
    4
 10
295.94960835509318
 20
303.01616135385154
 40
1.5
 50
179.99999999999983
 51
269.99999999999977
  0
LINE
  8
_1-3_細線2
  6
CONTINUOUS
 62
    4
 10
295.94960835509318
 20
301.51616135385154
 11
304.94960835509318
 21
301.51616135385154
  0
LINE
  8
_1-3_細線2
  6
CONTINUOUS
 62
    4
 10
306.44960835509318
 20
303.01616135385154
 11
306.44960835509318
 21
349.51616135385154
  0
ARC
  8
_1-3_細線2
  6
CONTINUOUS
 62
    4
 10
304.94960835509318
 20
303.01616135385154
 40
1.5
 50
269.99999999999977
 51
359.99999999999966
  0
LINE
  8
_1-3_細線2
  6
CONTINUOUS
 62
    4
 10
310.04960835509314
 20
312.16616135385152
 11
352.94960835509249
 21
312.16616135385152
  0
LINE
  8
_1-3_細線2
  6
CONTINUOUS
 62
    4
 10
310.04960835509314
 20
332.86616135385157
 11
352.94960835509249
 21
332.86616135385157
  0
LINE
  8
_1-2_極細2
  6
CONTINUOUS
 62
    2
 10
291.45936435509157
 20
322.51616135385154
 11
282.44581635509115
 21
322.51616135385154
  0
LINE
  8
_1-3_細線2
  6
CONTINUOUS
 62
    4
 10
291.45936435509157
 20
312.01616135385291
 11
282.44578035509312
 21
312.01616135385291
  0
ARC
  8
_1-3_細線2
  6
CONTINUOUS
 62
    4
 10
282.44578035509312
 20
312.61616135385236
 40
0.6000000000000002
 50
179.99999999999983
 51
269.99999999999977
  0
ARC
  8
_1-2_極細2
  6
CONTINUOUS
 62
    2
 10
305.11972035509189
 20
317.26572335385333
 40
23.273868
 50
166.96197800000505
 51
193.03566999999961
  0
ARC
  8
_1-3_細線2
  6
CONTINUOUS
 62
    4
 10
282.44578035509312
 20
332.41616135385323
 40
0.6000000000000002
 50
89.999999999999915
 51
179.99999999999983
  0
ARC
  8
_1-2_極細2
  6
CONTINUOUS
 62
    2
 10
305.11972035509189
 20
327.76659335385182
 40
23.273868
 50
166.96433000000002
 51
193.03802199999842
  0
LINE
  8
_1-3_細線2
  6
CONTINUOUS
 62
    4
 10
291.45936435509157
 20
333.01616135385268
 11
282.44578035509312
 21
333.01616135385268
  0
LINE
  8
_1-3_細線2
  6
CONTINUOUS
 62
    4
 10
281.84578035509179
 20
312.61616135385236
 11
281.84578035509179
 21
332.41616135385323
  0
LINE
  8
_1-2_極細2
  6
CENTER1
 62
    2
 10
287.96035211536508
 20
322.51616135385154
 11
489.10823381000739
 21
322.51616135385154
  0
LINE
  8
_0-5_寸法線
  6
CONTINUOUS
 62
    7
 10
505.30918761695966
 20
936.3842485922886
 11
516.90029753242845
 21
939.49007713351875
  0
LINE
  8
_0-5_寸法線
  6
CONTINUOUS
 62
    7
 10
505.30918761695966
 20
936.3842485922886
 11
516.90029753242845
 21
933.27842005105822
  0
LINE
  8
_0-5_寸法線
  6
CONTINUOUS
 62
    7
 10
505.30918761695966
 20
936.3842485922886
 11
559.06455368151956
 21
936.3842485922886
  0
LINE
  8
_0-5_寸法線
  6
CONTINUOUS
 62
    7
 10
559.06455368151956
 20
936.3842485922886
 11
559.06455368151956
 21
936.0006668905728
  0
LINE
  8
_0-0_計極細
  6
CONTINUOUS
 62
    2
 10
501.86303893097261
 20
912.36031331592665
 11
501.86304121194752
 21
906.86031331592721
  0
LINE
  8
_0-0_計極細
  6
CONTINUOUS
 62
    2
 10
508.76303890076923
 20
912.36031331592665
 11
508.76304121194738
 21
906.86031331592721
  0
LINE
  8
_0-0_計極細
  6
CONTINUOUS
 62
    2
 10
501.86304122119913
 20
896.8603133159271
 11
501.86304122119913
 21
891.36031331592721
  0
LINE
  8
_0-0_計極細
  6
CONTINUOUS
 62
    2
 10
508.7630412213216
 20
896.8603133159271
 11
508.7630412213216
 21
891.36031331592721
  0
LINE
  8
_0-0_計極細
  6
CONTINUOUS
 62
    2
 10
501.86304122119913
 20
875.86031331592767
 11
501.86304122119913
 21
881.36031331592721
  0
LINE
  8
_0-0_計極細
  6
CONTINUOUS
 62
    2
 10
508.7630412213216
 20
875.86031331592767
 11
508.7630412213216
 21
881.36031331592721
  0
LINE
  8
_0-0_計極細
  6
CONTINUOUS
 62
    2
 10
501.86304122119913
 20
860.36031331592812
 11
501.86304122119913
 21
865.86031331592767
  0
LINE
  8
_0-0_計極細
  6
CONTINUOUS
 62
    2
 10
508.7630412213216
 20
860.36031331592812
 11
508.7630412213216
 21
865.86031331592767
  0
LINE
  8
_0-5_寸法線
  6
CONTINUOUS
 62
    7
 10
505.30918761695966
 20
819.08220652835746
 11
516.90029753242845
 21
822.18803506958761
  0
LINE
  8
_0-5_寸法線
  6
CONTINUOUS
 62
    7
 10
505.30918761695966
 20
819.08220652835746
 11
516.90029753242845
 21
815.97637798712708
  0
LINE
  8
_0-5_寸法線
  6
CONTINUOUS
 62
    7
 10
505.30918761695966
 20
819.08220652835746
 11
559.06455368151956
 21
819.08220652835746
  0
LINE
  8
_0-5_寸法線
  6
CONTINUOUS
 62
    7
 10
559.06455368151956
 20
819.08220652835746
 11
559.06455368151956
 21
818.69862482664166
  0
LINE
  8
_0-0_計極細
  6
CENTER1
 62
    2
 10
505.31304121194762
 20
950.70333595367345
 11
505.31304121194762
 21
813.93466535979394
  0
LINE
  8
_0-0_計極細
  6
CONTINUOUS
 62
    2
 10
774.86303893097079
 20
912.36031331592665
 11
774.86304121194564
 21
906.86031331592721
  0
LINE
  8
_0-0_計極細
  6
CONTINUOUS
 62
    2
 10
781.76303890076736
 20
912.36031331592665
 11
781.76304121194551
 21
906.86031331592721
  0
LINE
  8
_0-0_計極細
  6
CONTINUOUS
 62
    2
 10
774.86304122119725
 20
896.8603133159271
 11
774.86304122119725
 21
891.36031331592721
  0
LINE
  8
_0-0_計極細
  6
CONTINUOUS
 62
    2
 10
781.76304122131978
 20
896.8603133159271
 11
781.76304122131978
 21
891.36031331592721
  0
LINE
  8
_0-0_計極細
  6
CONTINUOUS
 62
    2
 10
774.86304122119725
 20
875.86031331592767
 11
774.86304122119725
 21
881.36031331592721
  0
LINE
  8
_0-0_計極細
  6
CONTINUOUS
 62
    2
 10
781.76304122131978
 20
875.86031331592767
 11
781.76304122131978
 21
881.36031331592721
  0
LINE
  8
_0-0_計極細
  6
CONTINUOUS
 62
    2
 10
774.86304122119725
 20
860.36031331592812
 11
774.86304122119725
 21
865.86031331592767
  0
LINE
  8
_0-0_計極細
  6
CONTINUOUS
 62
    2
 10
781.76304122131978
 20
860.36031331592812
 11
781.76304122131978
 21
865.86031331592767
  0
LINE
  8
_0-0_計極細
  6
CONTINUOUS
 62
    2
 10
1054.763043492919
 20
912.36031331592665
 11
1054.763041211944
 21
906.86031331592721
  0
LINE
  8
_0-0_計極細
  6
CONTINUOUS
 62
    2
 10
1047.8630435231223
 20
912.36031331592665
 11
1047.8630412119442
 21
906.86031331592721
  0
LINE
  8
_0-0_計極細
  6
CONTINUOUS
 62
    2
 10
1054.7630412026924
 20
896.8603133159271
 11
1054.7630412026924
 21
891.36031331592721
  0
LINE
  8
_0-0_計極細
  6
CONTINUOUS
 62
    2
 10
1047.86304120257
 20
896.8603133159271
 11
1047.86304120257
 21
891.36031331592721
  0
LINE
  8
_0-0_計極細
  6
CONTINUOUS
 62
    2
 10
1054.7630412026924
 20
875.86031331592767
 11
1054.7630412026924
 21
881.36031331592721
  0
LINE
  8
_0-0_計極細
  6
CONTINUOUS
 62
    2
 10
1047.86304120257
 20
875.86031331592767
 11
1047.86304120257
 21
881.36031331592721
  0
LINE
  8
_0-0_計極細
  6
CONTINUOUS
 62
    2
 10
1054.7630412026924
 20
860.36031331592812
 11
1054.7630412026924
 21
865.86031331592767
  0
LINE
  8
_0-0_計極細
  6
CONTINUOUS
 62
    2
 10
1047.86304120257
 20
860.36031331592812
 11
1047.86304120257
 21
865.86031331592767
  0
TEXT
  8
_0-7_枠細線
 62
    5
 10
1158.5999999999997
 20
84
 40
24.000000000000007
 41
0.5999999999999997
 50
0
  1
表面形状については記号表参照のこと
  0
LINE
  8
_0-7_枠細線
  6
CONTINUOUS
 62
    5
 10
1610.375456919061
 20
494.76240208876453
 11
1610.375456919061
 21
368.76240208876516
  0
TEXT
  8
_0-7_枠細線
 62
    5
 10
1501.1754569190621
 20
470.76240208876453
 40
18.000000000000004
 41
0.8
 50
0
  1
ノンスリップ
  0
LINE
  8
_0-7_枠細線
  6
CONTINUOUS
 62
    5
 10
1490.2887069244684
 20
407.46572806905453
 11
1604.145290913084
 21
407.46572806905453
  0
LINE
  8
_0-7_枠細線
  6
CONTINUOUS
 62
    5
 10
1485.8064749249161
 20
427.46572806705456
 11
1599.6630589135318
 21
427.46572806705456
  0
ARC
  8
_0-7_枠細線
  6
CONTINUOUS
 62
    5
 10
1503.3754569231603
 20
413.46572806845444
 40
3.9999999996
 50
51.317813000007057
 51
203.57817800000151
  0
ARC
  8
_0-7_枠細線
  6
CONTINUOUS
 62
    5
 10
1508.3754569226603
 20
419.71072606783008
 40
3.9999999996
 50
231.31781299999906
 51
308.68218699999511
  0
LINE
  8
_0-7_枠細線
  6
CONTINUOUS
 62
    5
 10
1499.709396923527
 20
411.86572806861449
 11
1517.0415169217931
 21
411.86572806861449
  0
ARC
  8
_0-7_枠細線
  6
CONTINUOUS
 62
    5
 10
1513.3754569221605
 20
413.46572806845444
 40
3.9999999996
 50
336.42182199999388
 51
128.6821870000002
  0
ARC
  8
_0-7_枠細線
  6
CONTINUOUS
 62
    5
 10
1539.3754569195601
 20
421.46572806765448
 40
3.9999999996
 50
156.42182199999607
 51
308.68218699999818
  0
ARC
  8
_0-7_枠細線
  6
CONTINUOUS
 62
    5
 10
1544.3754569190603
 20
415.22073006827884
 40
3.9999999996
 50
51.317813000010105
 51
128.68218700000006
  0
ARC
  8
_0-7_枠細線
  6
CONTINUOUS
 62
    5
 10
1549.3754569185605
 20
421.46572806765448
 40
3.9999999996
 50
231.31781299999602
 51
23.578178000003568
  0
LINE
  8
_0-7_枠細線
  6
CONTINUOUS
 62
    5
 10
1535.7093969199277
 20
423.06572806749443
 11
1553.0415169181927
 21
423.06572806749443
  0
LINE
  8
_0-7_枠細線
  6
CONTINUOUS
 62
    5
 10
1571.7093969163275
 20
411.86572806861449
 11
1589.0415169145936
 21
411.86572806861449
  0
ARC
  8
_0-7_枠細線
  6
CONTINUOUS
 62
    5
 10
1575.3754569159598
 20
413.46572806845444
 40
3.9999999996
 50
51.317813000001969
 51
203.57817800000151
  0
ARC
  8
_0-7_枠細線
  6
CONTINUOUS
 62
    5
 10
1580.3754569154601
 20
419.71072606783008
 40
3.9999999996
 50
231.31781299999906
 51
308.68218700000023
  0
ARC
  8
_0-7_枠細線
  6
CONTINUOUS
 62
    5
 10
1585.3754569149603
 20
413.46572806845444
 40
3.9999999996
 50
336.42182199999644
 51
128.6821870000002
  0
ARC
  8
_0-7_枠細線
  6
CONTINUOUS
 62
    5
 10
1539.3754569195601
 20
421.46572806765448
 40
7.4599999992540358
 50
151.14636799999553
 51
308.68218700000631
  0
LINE
  8
_0-7_枠細線
  6
CONTINUOUS
 62
    5
 10
1485.3669509249612
 20
425.06572806729446
 11
1532.8415769202124
 21
425.06572806729446
  0
LINE
  8
_0-7_枠細線
  6
CONTINUOUS
 62
    5
 10
1519.9093389215066
 20
409.86572806881463
 11
1568.8415769166147
 21
409.86572806881463
  0
ARC
  8
_0-7_枠細線
  6
CONTINUOUS
 62
    5
 10
1480.4399349254541
 20
410.50963406874996
 40
10.308427998969092
 50
317.56162899999873
 51
42.438371000002093
  0
ARC
  8
_0-7_枠細線
  6
CONTINUOUS
 62
    5
 10
1503.3754569231603
 20
413.46572806845444
 40
7.4599999992540358
 50
51.317812999991972
 51
208.85363199999784
  0
ARC
  8
_0-7_枠細線
  6
CONTINUOUS
 62
    5
 10
1495.6552489239318
 20
424.42182206735902
 40
10.308427998969092
 50
137.56162899999933
 51
222.43837100000192
  0
LINE
  8
_0-7_枠細線
  6
CONTINUOUS
 62
    5
 10
1490.7282329244247
 20
409.86572806881463
 11
1496.8415769238127
 21
409.86572806881463
  0
ARC
  8
_0-7_枠細線
  6
CONTINUOUS
 62
    5
 10
1508.3754569226603
 20
419.71072606783008
 40
0.5399999999459634
 50
231.31781300002677
 51
308.68218699999136
  0
ARC
  8
_0-7_枠細線
  6
CONTINUOUS
 62
    5
 10
1513.3754569221605
 20
413.46572806845444
 40
7.4599999992540358
 50
331.14636800000056
 51
128.6821870000077
  0
ARC
  8
_0-7_枠細線
  6
CONTINUOUS
 62
    5
 10
1594.2965189140689
 20
410.50963406874996
 40
10.308427998969092
 50
317.56162899999788
 51
42.438371000002093
  0
ARC
  8
_0-7_枠細線
  6
CONTINUOUS
 62
    5
 10
1609.5118329125476
 20
424.42182206735902
 40
10.308427998969092
 50
137.56162900000274
 51
222.43837099999939
  0
LINE
  8
_0-7_枠細線
  6
CONTINUOUS
 62
    5
 10
1591.9093389143061
 20
409.86572806881463
 11
1604.5848169130404
 21
409.86572806881463
  0
LINE
  8
_0-7_枠細線
  6
CONTINUOUS
 62
    5
 10
1555.9093389179063
 20
425.06572806729446
 11
1599.223534913576
 21
425.06572806729446
  0
ARC
  8
_0-7_枠細線
  6
CONTINUOUS
 62
    5
 10
1575.3754569159598
 20
413.46572806845444
 40
7.4599999992540358
 50
51.317812999991972
 51
208.85363200000666
  0
ARC
  8
_0-7_枠細線
  6
CONTINUOUS
 62
    5
 10
1544.3754569190603
 20
415.22073006827884
 40
0.5399999999459634
 50
51.317813000030881
 51
128.68218699998795
  0
ARC
  8
_0-7_枠細線
  6
CONTINUOUS
 62
    5
 10
1549.3754569185605
 20
421.46572806765448
 40
7.4599999992540358
 50
231.31781299999028
 51
28.853631999997937
  0
ARC
  8
_0-7_枠細線
  6
CONTINUOUS
 62
    5
 10
1580.3754569154601
 20
419.71072606783008
 40
0.5399999999459634
 50
231.31781300002677
 51
308.68218699999136
  0
ARC
  8
_0-7_枠細線
  6
CONTINUOUS
 62
    5
 10
1585.3754569149603
 20
413.46572806845444
 40
7.4599999992540358
 50
331.14636800000056
 51
128.6821870000077
  0
LINE
  8
_0-7_枠細線
  6
CENTER1
 62
    5
 10
1508.3754569226603
 20
429.14547406688627
 11
1508.3754569226603
 21
405.92769606920831
  0
LINE
  8
_0-7_枠細線
  6
CENTER1
 62
    5
 10
1580.3754569154601
 20
429.14547406688627
 11
1580.3754569154601
 21
405.92769606920831
  0
LINE
  8
_0-7_枠細線
  6
CENTER1
 62
    5
 10
1544.3754569190603
 20
429.14547406688627
 11
1544.3754569190603
 21
405.92769606920831
  0
LINE
  8
_0-7_枠細線
  6
CONTINUOUS
 62
    5
 10
1508.3754569226603
 20
401.46572806905453
 11
1508.3754569226603
 21
371.46572806905442
  0
LINE
  8
_0-7_枠細線
  6
CONTINUOUS
 62
    5
 10
1508.3754569226603
 20
377.46572806905442
 11
1519.9665668381292
 21
380.57155661028474
  0
LINE
  8
_0-7_枠細線
  6
CONTINUOUS
 62
    5
 10
1508.3754569226603
 20
377.46572806905442
 11
1519.9665668381292
 21
374.35989952782421
  0
LINE
  8
_0-7_枠細線
  6
CONTINUOUS
 62
    5
 10
1544.3754569190603
 20
401.46572806905453
 11
1544.3754569190603
 21
371.46572806905442
  0
LINE
  8
_0-7_枠細線
  6
CONTINUOUS
 62
    5
 10
1544.3754569190603
 20
377.46572806905442
 11
1532.7843470035914
 21
374.35989952782427
  0
LINE
  8
_0-7_枠細線
  6
CONTINUOUS
 62
    5
 10
1544.3754569190603
 20
377.46572806905442
 11
1532.7843470035914
 21
380.57155661028474
  0
LINE
  8
_0-7_枠細線
  6
CONTINUOUS
 62
    5
 10
1508.3754569226603
 20
377.46572806905442
 11
1544.3754569190603
 21
377.46572806905442
  0
TEXT
  8
_0-7_枠細線
 62
    5
 10
1517.37545692086
 20
377.46572806905442
 40
18
 41
1
 50
0
  1
18
  0
LINE
  8
_0-7_枠細線
  6
CONTINUOUS
 62
    5
 10
1544.3754569190603
 20
377.46572806905442
 11
1555.9665668345292
 21
380.57155661028457
  0
LINE
  8
_0-7_枠細線
  6
CONTINUOUS
 62
    5
 10
1544.3754569190603
 20
377.46572806905442
 11
1555.9665668345292
 21
374.35989952782415
  0
LINE
  8
_0-7_枠細線
  6
CONTINUOUS
 62
    5
 10
1580.3754569154601
 20
401.46572806905453
 11
1580.3754569154601
 21
371.46572806905442
  0
LINE
  8
_0-7_枠細線
  6
CONTINUOUS
 62
    5
 10
1580.3754569154601
 20
377.46572806905442
 11
1568.7843469999909
 21
374.35989952782427
  0
LINE
  8
_0-7_枠細線
  6
CONTINUOUS
 62
    5
 10
1580.3754569154601
 20
377.46572806905442
 11
1568.7843469999909
 21
380.57155661028474
  0
LINE
  8
_0-7_枠細線
  6
CONTINUOUS
 62
    5
 10
1544.3754569190603
 20
377.46572806905442
 11
1580.3754569154601
 21
377.46572806905442
  0
TEXT
  8
_0-7_枠細線
 62
    5
 10
1553.3754569172606
 20
377.46572806905442
 40
18
 41
1
 50
0
  1
18
  0
TEXT
  8
_0-7_枠細線
 62
    5
 10
1515.5754569190615
 20
440.7624020887647
 40
18.000000000000004
 41
0.7999999999999997
 50
0
  1
品番－Ｄ
  0
LINE
  8
_0-7_枠細線
  6
CONTINUOUS
 62
    5
 10
1478.3754569190605
 20
494.76240208876453
 11
1478.3754569190605
 21
368.76240208876516
  0
TEXT
  8
_0-7_枠細線
 62
    5
 10
1383.5754569190603
 20
470.7624020887647
 40
18.000000000000004
 41
0.8
 50
0
  1
プレーン
  0
LINE
  8
_0-7_枠細線
  6
CONTINUOUS
 62
    5
 10
1357.6882799245286
 20
407.46572806905453
 11
1471.5448639131437
 21
407.46572806905453
  0
LINE
  8
_0-7_枠細線
  6
CONTINUOUS
 62
    5
 10
1353.2060479249765
 20
427.46572806705456
 11
1467.0626319135922
 21
427.46572806705456
  0
ARC
  8
_0-7_枠細線
  6
CONTINUOUS
 62
    5
 10
1461.6960919141279
 20
410.50963406874996
 40
10.308427998969092
 50
317.56162900000442
 51
42.438370999996032
  0
ARC
  8
_0-7_枠細線
  6
CONTINUOUS
 62
    5
 10
1347.8395079255138
 20
410.50963406874996
 40
10.308427998969206
 50
317.56162900000021
 51
42.438371000000259
  0
LINE
  8
_0-7_枠細線
  6
CONTINUOUS
 62
    5
 10
1352.7665239250209
 20
425.06572806729446
 11
1466.6231079136367
 21
425.06572806729446
  0
LINE
  8
_0-7_枠細線
  6
CONTINUOUS
 62
    5
 10
1358.1278059244851
 20
409.86572806881463
 11
1471.9843899130999
 21
409.86572806881463
  0
ARC
  8
_0-7_枠細線
  6
CONTINUOUS
 62
    5
 10
1363.0548219239936
 20
424.42182206735902
 40
10.308427998969206
 50
137.56162900000081
 51
222.43837100000303
  0
ARC
  8
_0-7_枠細線
  6
CONTINUOUS
 62
    5
 10
1476.9114059126071
 20
424.42182206735902
 40
10.308427998969092
 50
137.56162899999933
 51
222.4383710000028
  0
TEXT
  8
_0-7_枠細線
 62
    5
 10
1383.5754569190617
 20
440.7624020887647
 40
18.000000000000004
 41
0.7999999999999997
 50
0
  1
品番－Ｆ
  0
TEXT
  8
_0-7_枠細線
 62
    5
 10
1287.5754569190608
 20
470.76240208876453
 40
18.000000000000004
 41
0.8
 50
0
  1
タ イ プ
  0
LINE
  8
_0-7_枠細線
  6
CONTINUOUS
 62
    5
 10
1286.3754569190601
 20
434.7624020887647
 11
1610.375456919061
 21
434.7624020887647
  0
LINE
  8
_0-7_枠細線
  6
CONTINUOUS
 62
    5
 10
1286.3754569190601
 20
464.76240208876453
 11
1610.375456919061
 21
464.76240208876453
  0
LINE
  8
_0-7_枠細線
  6
CONTINUOUS
 62
    5
 10
1286.3754569190601
 20
494.76240208876453
 11
1610.375456919061
 21
494.76240208876453
  0
LINE
  8
_0-7_枠細線
  6
CONTINUOUS
 62
    5
 10
1286.3754569190601
 20
368.76240208876516
 11
1610.375456919061
 21
368.76240208876516
  0
LINE
  8
_0-7_枠細線
  6
CONTINUOUS
 62
    5
 10
1346.375456919061
 20
494.76240208876453
 11
1346.375456919061
 21
368.76240208876516
  0
LINE
  8
_0-7_枠細線
  6
CONTINUOUS
 62
    5
 10
1286.3754569190601
 20
494.76240208876453
 11
1286.3754569190601
 21
368.76240208876516
  0
TEXT
  8
_0-7_枠細線
 62
    5
 10
1287.5754569190608
 20
392.76240208876487
 40
18.000000000000004
 41
0.8
 50
0
  1
表面形状
  0
TEXT
  8
_0-7_枠細線
 62
    5
 10
1295.7045105280336
 20
497.7624020887647
 40
21.000000000000004
 41
0.7999999999999997
 50
0
  1
記号表
  0
TEXT
  8
_0-7_枠細線
 62
    5
 10
1287.5754569190608
 20
440.76240208876482
 40
18.000000000000004
 41
0.8
 50
0
  1
記　　号
  0
TEXT
  8
_0-5_寸法線
 62
    7
 10
531.81478830032347
 20
935.55626948591475
 40
24
 41
1
 50
0
  1
Ａ’
  0
TEXT
  8
_0-5_寸法線
 62
    7
 10
532.08155811626602
 20
818.12833093979452
 40
24
 41
1
 50
0
  1
Ａ
  0
LINE
  8
_0-1_計細線
  6
CONTINUOUS
 62
    3
 10
1269.7763929071748
 20
929.66050324292007
 11
1269.7763929071748
 21
927.36050324292012
  0
LINE
  8
_0-1_計細線
  6
CONTINUOUS
 62
    3
 10
1269.7763929071748
 20
927.36050324292012
 11
1304.7763929071739
 21
927.36050324292012
  0
LINE
  8
_0-1_計細線
  6
CONTINUOUS
 62
    3
 10
1304.7763929071739
 20
927.36050324292012
 11
1304.7763929071739
 21
929.66050324292007
  0
LINE
  8
_0-1_計細線
  6
CONTINUOUS
 62
    3
 10
1304.7763929071739
 20
929.66050324292007
 11
1269.7763929071748
 21
929.66050324292007
  0
LINE
  8
_0-0_計極細
  6
CONTINUOUS
 62
    2
 10
1271.7763929071748
 20
927.36050324292012
 11
1271.7763929071748
 21
929.66050324292007
  0
LINE
  8
_0-0_計極細
  6
CONTINUOUS
 62
    2
 10
1283.7763929071748
 20
927.36050324292012
 11
1283.7763929071748
 21
929.66050324292007
  0
LINE
  8
_0-0_計極細
  6
CONTINUOUS
 62
    2
 10
1285.7763929071739
 20
927.36050324292012
 11
1285.7763929071739
 21
929.66050324292007
  0
LINE
  8
_0-0_計極細
  6
CONTINUOUS
 62
    2
 10
1287.7763929071739
 20
927.36050324292012
 11
1287.7763929071739
 21
929.66050324292007
  0
LINE
  8
_0-0_計極細
  6
CONTINUOUS
 62
    2
 10
1301.7763929071739
 20
927.36050324292012
 11
1301.7763929071739
 21
929.66050324292007
  0
LINE
  8
_0-0_計極細
  6
CONTINUOUS
 62
    2
 10
1281.7763929071748
 20
927.36050324292012
 11
1281.7763929071748
 21
929.66050324292007
  0
LINE
  8
_0-1_計細線
  6
CONTINUOUS
 62
    3
 10
1269.7763929071748
 20
845.36050324292034
 11
1269.7763929071748
 21
843.06050324292039
  0
LINE
  8
_0-1_計細線
  6
CONTINUOUS
 62
    3
 10
1269.7763929071748
 20
843.06050324292039
 11
1304.7763929071739
 21
843.06050324292039
  0
LINE
  8
_0-1_計細線
  6
CONTINUOUS
 62
    3
 10
1304.7763929071739
 20
843.06050324292039
 11
1304.7763929071739
 21
845.36050324292034
  0
LINE
  8
_0-1_計細線
  6
CONTINUOUS
 62
    3
 10
1304.7763929071739
 20
845.36050324292034
 11
1269.7763929071748
 21
845.36050324292034
  0
LINE
  8
_0-0_計極細
  6
CONTINUOUS
 62
    2
 10
1271.7763929071748
 20
843.06050324292039
 11
1271.7763929071748
 21
845.36050324292034
  0
LINE
  8
_0-0_計極細
  6
CONTINUOUS
 62
    2
 10
1283.7763929071748
 20
843.06050324292039
 11
1283.7763929071748
 21
845.36050324292034
  0
LINE
  8
_0-0_計極細
  6
CONTINUOUS
 62
    2
 10
1285.7763929071739
 20
843.06050324292039
 11
1285.7763929071739
 21
845.36050324292034
  0
LINE
  8
_0-0_計極細
  6
CONTINUOUS
 62
    2
 10
1287.7763929071739
 20
843.06050324292039
 11
1287.7763929071739
 21
845.36050324292034
  0
LINE
  8
_0-0_計極細
  6
CONTINUOUS
 62
    2
 10
1301.7763929071739
 20
843.06050324292039
 11
1301.7763929071739
 21
845.36050324292034
  0
LINE
  8
_0-0_計極細
  6
CONTINUOUS
 62
    2
 10
1281.7763929071748
 20
843.06050324292039
 11
1281.7763929071748
 21
845.36050324292034
  0
LINE
  8
_0-7_枠細線
  6
CONTINUOUS
 62
    5
 10
1098
 20
1111.7308007660963
 11
1089
 21
1129.7308007660963
  0
LINE
  8
_0-7_枠細線
  6
CONTINUOUS
 62
    5
 10
1080
 20
1111.7308007660963
 11
1098
 21
1111.7308007660963
  0
LINE
  8
_0-7_枠細線
  6
CONTINUOUS
 62
    5
 10
1089
 20
1129.7308007660963
 11
1080
 21
1111.7308007660963
  0
TEXT
  8
_0-7_枠細線
 62
    5
 10
1082.8381815217776
 20
1111.3623980716397
 40
15
 41
0.8
 50
0
  1
１
  0
TEXT
  8
_0-7_枠細線
 62
    5
 10
1416
 20
1113
 40
15
 41
0.7199999999999999
 50
0
  1
２０１９．０９．０１
  0
TEXT
  8
_0-7_枠細線
 62
    5
 10
1126.6204444444443
 20
1113
 40
15.000000000000004
 41
1
 50
0
  1
アンカー材質･厚み変更
  0
LINE
  8
_0-7_枠細線
  6
CONTINUOUS
 62
    5
 10
1328.4990253411306
 20
929.51050465670369
 11
1319.4990253411306
 21
947.51050465670369
  0
LINE
  8
_0-7_枠細線
  6
CONTINUOUS
 62
    5
 10
1310.4990253411306
 20
929.51050465670369
 11
1328.4990253411306
 21
929.51050465670369
  0
LINE
  8
_0-7_枠細線
  6
CONTINUOUS
 62
    5
 10
1319.4990253411306
 20
947.51050465670369
 11
1310.4990253411306
 21
929.51050465670369
  0
TEXT
  8
_0-7_枠細線
 62
    5
 10
1313.3372068629083
 20
929.14210196224712
 40
15
 41
0.8
 50
0
  1
１
  0
LINE
  8
_1-5_寸法2
  6
CONTINUOUS
 62
    7
 10
265.04960804260304
 20
373.51616135385166
 11
265.0496080426031
 21
451.51616177626119
  0
LINE
  8
_1-5_寸法2
  6
CONTINUOUS
 62
    7
 10
265.0496080426031
 20
445.51616177626119
 11
253.45849812713431
 21
442.41033323503098
  0
LINE
  8
_1-5_寸法2
  6
CONTINUOUS
 62
    7
 10
265.0496080426031
 20
445.51616177626119
 11
253.45849812713431
 21
448.6219903174914
  0
LINE
  8
_1-5_寸法2
  6
CONTINUOUS
 62
    7
 10
274.04960896105757
 20
373.51616135385166
 11
274.04960896105774
 21
451.51616177626119
  0
CIRCLE
  8
_1-5_寸法2
  6
CONTINUOUS
 62
    1
 10
274.04960896105774
 20
445.51616177626119
 40
1.7999999999999996
  0
LINE
  8
_1-5_寸法2
  6
CONTINUOUS
 62
    7
 10
235.0496080426031
 20
445.51616177626119
 11
274.04960896105774
 21
445.51616177626119
  0
TEXT
  8
_1-5_寸法2
 62
    7
 10
239.09970493680092
 20
445.51616177626119
 40
18
 41
1
 50
0
  1
3
  0
LINE
  8
_1-5_寸法2
  6
CONTINUOUS
 62
    7
 10
280.04960835509399
 20
373.51616135385166
 11
280.04960835509416
 21
451.51616177626119
  0
LINE
  8
_1-5_寸法2
  6
CONTINUOUS
 62
    7
 10
274.04960896105774
 20
445.51616177626119
 11
280.04960835509416
 21
445.51616177626119
  0
TEXT
  8
_1-5_寸法2
 62
    7
 10
272.54960865807595
 20
445.51616177626119
 40
18
 41
1
 50
0
  1
2
  0
LINE
  8
_1-5_寸法2
  6
CONTINUOUS
 62
    7
 10
280.04960835509416
 20
445.51616177626119
 11
291.64071827056296
 21
448.6219903174914
  0
LINE
  8
_1-5_寸法2
  6
CONTINUOUS
 62
    7
 10
280.04960835509416
 20
445.51616177626119
 11
291.64071827056296
 21
442.41033323503086
  0
LINE
  8
_1-5_寸法2
  6
CONTINUOUS
 62
    7
 10
496.04960866123952
 20
373.51616135385149
 11
496.04960866123974
 21
451.51616177626119
  0
LINE
  8
_1-5_寸法2
  6
CONTINUOUS
 62
    7
 10
496.04960866123974
 20
445.51616177626119
 11
484.45849874577084
 21
442.41033323503098
  0
LINE
  8
_1-5_寸法2
  6
CONTINUOUS
 62
    7
 10
496.04960866123974
 20
445.51616177626119
 11
484.45849874577095
 21
448.6219903174914
  0
LINE
  8
_1-5_寸法2
  6
CONTINUOUS
 62
    7
 10
280.04960835509416
 20
445.51616177626119
 11
496.04960866123974
 21
445.51616177626119
  0
TEXT
  8
_1-5_寸法2
 62
    7
 10
379.04960850816701
 20
445.51616177626119
 40
18
 41
1
 50
0
  1
72
  0
LINE
  8
_1-5_寸法2
  6
CONTINUOUS
 62
    7
 10
502.04960804260327
 20
373.51616135385149
 11
502.04960804260344
 21
451.51616177626119
  0
CIRCLE
  8
_1-5_寸法2
  6
CONTINUOUS
 62
    1
 10
502.04960804260344
 20
445.51616177626119
 40
1.7999999999999996
  0
LINE
  8
_1-5_寸法2
  6
CONTINUOUS
 62
    7
 10
496.04960866123974
 20
445.51616177626119
 11
502.04960804260344
 21
445.51616177626119
  0
TEXT
  8
_1-5_寸法2
 62
    7
 10
494.54960835192145
 20
445.51616177626119
 40
18
 41
1
 50
0
  1
2
  0
LINE
  8
_1-5_寸法2
  6
CONTINUOUS
 62
    7
 10
511.04960804260327
 20
373.51616135385149
 11
511.04960804260344
 21
451.51616177626119
  0
LINE
  8
_1-5_寸法2
  6
CONTINUOUS
 62
    7
 10
511.04960804260344
 20
445.51616177626119
 11
522.64071795807217
 21
448.62199031749134
  0
LINE
  8
_1-5_寸法2
  6
CONTINUOUS
 62
    7
 10
511.04960804260344
 20
445.51616177626119
 11
522.64071795807217
 21
442.41033323503086
  0
LINE
  8
_1-5_寸法2
  6
CONTINUOUS
 62
    7
 10
502.04960804260344
 20
445.51616177626119
 11
541.0496080426035
 21
445.51616177626119
  0
TEXT
  8
_1-5_寸法2
 62
    7
 10
528.75324789712215
 20
445.51616177626119
 40
18
 41
1
 50
0
  1
3
  0
LINE
  8
_0-5_寸法線
  6
CONTINUOUS
 62
    7
 10
488.31304121194586
 20
939.36031331592721
 11
488.31304121194603
 21
1035.3603133159272
  0
LINE
  8
_0-5_寸法線
  6
CONTINUOUS
 62
    7
 10
488.31304121194603
 20
1029.3603133159272
 11
499.90415112741482
 21
1032.4661418571575
  0
LINE
  8
_0-5_寸法線
  6
CONTINUOUS
 62
    7
 10
488.31304121194603
 20
1029.3603133159272
 11
499.90415112741482
 21
1026.2544847746967
  0
LINE
  8
_0-5_寸法線
  6
CONTINUOUS
 62
    7
 10
1068.3130412119458
 20
939.36031331592721
 11
1068.313041211946
 21
1035.3603133159272
  0
LINE
  8
_0-5_寸法線
  6
CONTINUOUS
 62
    7
 10
1068.313041211946
 20
1029.3603133159272
 11
1056.7219312964771
 21
1026.2544847746967
  0
LINE
  8
_0-5_寸法線
  6
CONTINUOUS
 62
    7
 10
1068.313041211946
 20
1029.3603133159272
 11
1056.7219312964771
 21
1032.4661418571575
  0
LINE
  8
_0-5_寸法線
  6
CONTINUOUS
 62
    7
 10
488.31304121194603
 20
1029.3603133159272
 11
1068.313041211946
 21
1029.3603133159272
  0
TEXT
  8
_0-5_寸法線
 62
    7
 10
764.81304121194603
 20
1029.3603133159272
 40
18
 41
1
 50
0
  1
580
  0
LINE
  8
_0-5_寸法線
  6
CONTINUOUS
 62
    7
 10
488.31304121194586
 20
939.36031331592721
 11
488.31304121194592
 21
993.36031331592721
  0
LINE
  8
_0-5_寸法線
  6
CONTINUOUS
 62
    7
 10
488.31304121194592
 20
987.36031331592721
 11
476.72193129647707
 21
984.25448477469695
  0
LINE
  8
_0-5_寸法線
  6
CONTINUOUS
 62
    7
 10
488.31304121194592
 20
987.36031331592721
 11
476.72193129647712
 21
990.46614185715748
  0
LINE
  8
_0-5_寸法線
  6
CONTINUOUS
 62
    7
 10
491.31304121194586
 20
939.36031331592721
 11
491.31304121194592
 21
993.36031331592721
  0
CIRCLE
  8
_0-5_寸法線
  6
CONTINUOUS
 62
    1
 10
491.31304121194592
 20
987.36031331592721
 40
1.7999999999999996
  0
LINE
  8
_0-5_寸法線
  6
CONTINUOUS
 62
    7
 10
458.31304121194592
 20
987.36031331592721
 11
491.31304121194592
 21
987.36031331592721
  0
TEXT
  8
_0-5_寸法線
 62
    7
 10
464.61125162146317
 20
987.36031331592699
 40
18
 41
1
 50
0
  1
3
  0
LINE
  8
_0-5_寸法線
  6
CONTINUOUS
 62
    7
 10
492.81304121194586
 20
939.36031331592721
 11
492.81304121194592
 21
993.36031331592721
  0
LINE
  8
_0-5_寸法線
  6
CONTINUOUS
 62
    7
 10
491.31304121194592
 20
987.36031331592721
 11
492.81304121194592
 21
987.36031331592721
  0
TEXT
  8
_0-5_寸法線
 62
    7
 10
497.47293488871918
 20
987.36031331592699
 40
18
 41
1
 50
0
  1
1.5
  0
LINE
  8
_0-5_寸法線
  6
CONTINUOUS
 62
    7
 10
492.81304121194592
 20
987.36031331592721
 11
504.40415112741482
 21
990.46614185715748
  0
LINE
  8
_0-5_寸法線
  6
CONTINUOUS
 62
    7
 10
492.81304121194592
 20
987.36031331592721
 11
504.40415112741482
 21
984.25448477469683
  0
LINE
  8
_0-5_寸法線
  6
CONTINUOUS
 62
    7
 10
1063.8130412119453
 20
939.36031331592721
 11
1063.8130412119458
 21
993.36031331592721
  0
LINE
  8
_0-5_寸法線
  6
CONTINUOUS
 62
    7
 10
1063.8130412119458
 20
987.36031331592721
 11
1052.2219312964769
 21
984.25448477469695
  0
LINE
  8
_0-5_寸法線
  6
CONTINUOUS
 62
    7
 10
1063.8130412119458
 20
987.36031331592721
 11
1052.2219312964769
 21
990.46614185715748
  0
LINE
  8
_0-5_寸法線
  6
CONTINUOUS
 62
    7
 10
492.81304121194592
 20
987.36031331592721
 11
1063.8130412119458
 21
987.36031331592721
  0
TEXT
  8
_0-5_寸法線
 62
    7
 10
764.81304121194592
 20
987.36031331592721
 40
18
 41
1
 50
0
  1
571
  0
LINE
  8
_0-5_寸法線
  6
CONTINUOUS
 62
    7
 10
1065.3130412119458
 20
939.36031331592721
 11
1065.313041211946
 21
993.36031331592721
  0
CIRCLE
  8
_0-5_寸法線
  6
CONTINUOUS
 62
    1
 10
1065.313041211946
 20
987.36031331592721
 40
1.7999999999999996
  0
LINE
  8
_0-5_寸法線
  6
CONTINUOUS
 62
    7
 10
1063.8130412119458
 20
987.36031331592721
 11
1065.313041211946
 21
987.36031331592721
  0
TEXT
  8
_0-5_寸法線
 62
    7
 10
1032.4440853255223
 20
987.36031331592721
 40
18
 41
1
 50
0
  1
1.5
  0
LINE
  8
_0-5_寸法線
  6
CONTINUOUS
 62
    7
 10
1068.3130412119458
 20
939.36031331592721
 11
1068.313041211946
 21
993.36031331592721
  0
LINE
  8
_0-5_寸法線
  6
CONTINUOUS
 62
    7
 10
1068.313041211946
 20
987.36031331592721
 11
1079.9041511274149
 21
990.46614185715725
  0
LINE
  8
_0-5_寸法線
  6
CONTINUOUS
 62
    7
 10
1068.313041211946
 20
987.36031331592721
 11
1079.9041511274149
 21
984.25448477469683
  0
LINE
  8
_0-5_寸法線
  6
CONTINUOUS
 62
    7
 10
1065.313041211946
 20
987.36031331592721
 11
1098.313041211946
 21
987.36031331592721
  0
TEXT
  8
_0-5_寸法線
 62
    7
 10
1082.4269045241824
 20
987.36031331592699
 40
18
 41
1
 50
0
  1
3
  0
LINE
  8
_0-5_寸法線
  6
CONTINUOUS
 62
    7
 10
1258.7763929071748
 20
939.36050324292046
 11
1258.7763929071748
 21
1035.3603133159272
  0
LINE
  8
_0-5_寸法線
  6
CONTINUOUS
 62
    7
 10
1258.7763929071748
 20
1029.3603133159272
 11
1270.3675028226439
 21
1032.4661418571575
  0
LINE
  8
_0-5_寸法線
  6
CONTINUOUS
 62
    7
 10
1258.7763929071748
 20
1029.3603133159272
 11
1270.3675028226439
 21
1026.2544847746967
  0
LINE
  8
_0-5_寸法線
  6
CONTINUOUS
 62
    7
 10
1304.7763929071739
 20
941.66050324292007
 11
1304.7763929071739
 21
1035.3603133159272
  0
LINE
  8
_0-5_寸法線
  6
CONTINUOUS
 62
    7
 10
1304.7763929071739
 20
1029.3603133159272
 11
1293.1852829917052
 21
1026.2544847746967
  0
LINE
  8
_0-5_寸法線
  6
CONTINUOUS
 62
    7
 10
1304.7763929071739
 20
1029.3603133159272
 11
1293.1852829917052
 21
1032.4661418571575
  0
LINE
  8
_0-5_寸法線
  6
CONTINUOUS
 62
    7
 10
1258.7763929071748
 20
1029.3603133159272
 11
1304.7763929071739
 21
1029.3603133159272
  0
TEXT
  8
_0-5_寸法線
 62
    7
 10
1272.7763929071743
 20
1029.3603133159272
 40
18
 41
1
 50
0
  1
46
  0
LINE
  8
_0-5_寸法線
  6
CONTINUOUS
 62
    7
 10
1258.7763929071748
 20
939.36050324292012
 11
1258.7763929071748
 21
993.36031331592721
  0
LINE
  8
_0-5_寸法線
  6
CONTINUOUS
 62
    7
 10
1258.7763929071748
 20
987.36031331592721
 11
1247.1852829917057
 21
984.25448477469695
  0
LINE
  8
_0-5_寸法線
  6
CONTINUOUS
 62
    7
 10
1258.7763929071748
 20
987.36031331592721
 11
1247.1852829917057
 21
990.46614185715748
  0
LINE
  8
_0-5_寸法線
  6
CONTINUOUS
 62
    7
 10
1281.7763929071748
 20
941.66050324292007
 11
1281.7763929071748
 21
993.36031331592721
  0
CIRCLE
  8
_0-5_寸法線
  6
CONTINUOUS
 62
    1
 10
1281.7763929071748
 20
987.36031331592721
 40
1.7999999999999996
  0
LINE
  8
_0-5_寸法線
  6
CONTINUOUS
 62
    7
 10
1228.7763929071748
 20
987.36031331592721
 11
1281.7763929071748
 21
987.36031331592721
  0
TEXT
  8
_0-5_寸法線
 62
    7
 10
1230.9292335308405
 20
987.36031331592721
 40
18
 41
1
 50
0
  1
23
  0
LINE
  8
_0-5_寸法線
  6
CONTINUOUS
 62
    7
 10
1304.7763929071748
 20
941.66050324292007
 11
1304.7763929071748
 21
993.36031331592721
  0
LINE
  8
_0-5_寸法線
  6
CONTINUOUS
 62
    7
 10
1304.7763929071748
 20
987.36031331592721
 11
1316.3675028226437
 21
990.46614185715725
  0
LINE
  8
_0-5_寸法線
  6
CONTINUOUS
 62
    7
 10
1304.7763929071748
 20
987.36031331592721
 11
1316.3675028226437
 21
984.25448477469683
  0
LINE
  8
_0-5_寸法線
  6
CONTINUOUS
 62
    7
 10
1281.7763929071748
 20
987.36031331592721
 11
1334.7763929071748
 21
987.36031331592721
  0
TEXT
  8
_0-5_寸法線
 62
    7
 10
1318.2123202729344
 20
987.36031331592721
 40
18
 41
1
 50
0
  1
23
  0
LINE
  8
_0-1_計細線
  6
CONTINUOUS
 62
    3
 10
532.31304143616092
 20
672.36031331592721
 11
530.31304143616092
 21
670.36031331592721
  0
LINE
  8
_0-1_計細線
  6
CONTINUOUS
 62
    3
 10
530.31304143616092
 20
660.36031331592721
 11
530.31304143616092
 21
670.36031331592721
  0
LINE
  8
_0-1_計細線
  6
CONTINUOUS
 62
    3
 10
546.31304112999953
 20
670.36031331592721
 11
544.31304112999942
 21
672.36031331592721
  0
LINE
  8
_0-1_計細線
  6
CONTINUOUS
 62
    3
 10
546.31304112999953
 20
660.36031331592721
 11
546.31304112999953
 21
670.36031331592721
  0
LINE
  8
_0-1_計細線
  6
CONTINUOUS
 62
    3
 10
532.31304143616092
 20
656.36031331592721
 11
530.31304143616092
 21
654.36031331592721
  0
LINE
  8
_0-1_計細線
  6
CONTINUOUS
 62
    3
 10
532.31304143616092
 20
658.36031331592721
 11
532.31304143616092
 21
656.36031331592721
  0
LINE
  8
_0-1_計細線
  6
CONTINUOUS
 62
    3
 10
530.31304143616092
 20
660.36031331592721
 11
532.31304143616092
 21
658.36031331592721
  0
LINE
  8
_0-1_計細線
  6
CONTINUOUS
 62
    3
 10
544.31304112999942
 20
656.36031331592721
 11
546.31304112999953
 21
654.36031331592721
  0
LINE
  8
_0-1_計細線
  6
CONTINUOUS
 62
    3
 10
544.31304112999942
 20
658.36031331592721
 11
544.31304112999942
 21
656.36031331592721
  0
LINE
  8
_0-1_計細線
  6
CONTINUOUS
 62
    3
 10
546.31304112999953
 20
660.36031331592721
 11
544.31304112999942
 21
658.36031331592721
  0
LINE
  8
_0-1_計細線
  6
CONTINUOUS
 62
    3
 10
530.31304143616092
 20
654.36031331592721
 11
530.31304143616092
 21
640.36031331592721
  0
ARC
  8
_0-1_計細線
  6
CONTINUOUS
 62
    3
 10
533.31304143616092
 20
640.36031331592721
 40
3
 50
179.99999999999983
 51
269.99999999999977
  0
LINE
  8
_0-1_計細線
  6
CONTINUOUS
 62
    3
 10
533.31304143616092
 20
637.36031331592721
 11
543.31304112999953
 21
637.36031331592721
  0
LINE
  8
_0-1_計細線
  6
CONTINUOUS
 62
    3
 10
546.31304112999953
 20
654.36031331592721
 11
546.31304112999953
 21
640.36031331592721
  0
ARC
  8
_0-1_計細線
  6
CONTINUOUS
 62
    3
 10
543.31304112999953
 20
640.36031331592721
 40
3
 50
269.99999999999977
 51
359.99999999999966
  0
LINE
  8
_0-0_計極細
  6
CENTER1
 62
    2
 10
538.31304121194592
 20
684.00168718131499
 11
538.31304121194592
 21
628.73156934507188
  0
LINE
  8
_0-1_計細線
  6
CONTINUOUS
 62
    3
 10
532.31304143616092
 20
672.36031331592721
 11
544.31304112999942
 21
672.36031331592721
  0
LINE
  8
_0-5_寸法線
  6
CONTINUOUS
 62
    7
 10
1080.3130412119458
 20
660.3603133159271
 11
1134.3130411607458
 21
660.36031331592653
  0
LINE
  8
_0-5_寸法線
  6
CONTINUOUS
 62
    7
 10
1128.3130411607458
 20
660.36031331592665
 11
1125.2072126195155
 21
671.95142323139544
  0
LINE
  8
_0-5_寸法線
  6
CONTINUOUS
 62
    7
 10
1128.3130411607458
 20
660.36031331592665
 11
1131.4188697019758
 21
671.95142323139544
  0
LINE
  8
_0-5_寸法線
  6
CONTINUOUS
 62
    7
 10
1080.3130412119458
 20
683.36031331592699
 11
1134.3130411607458
 21
683.36031331592653
  0
LINE
  8
_0-5_寸法線
  6
CONTINUOUS
 62
    7
 10
1128.3130411607458
 20
683.36031331592665
 11
1131.4188697019758
 21
671.76920340045785
  0
LINE
  8
_0-5_寸法線
  6
CONTINUOUS
 62
    7
 10
1128.3130411607458
 20
683.36031331592665
 11
1125.2072126195155
 21
671.76920340045785
  0
LINE
  8
_0-5_寸法線
  6
CONTINUOUS
 62
    7
 10
1128.3130411607458
 20
660.36031331592665
 11
1128.3130411607458
 21
683.36031331592665
  0
TEXT
  8
_0-5_寸法線
 62
    7
 10
1128.3130411607458
 20
662.86031331592653
 40
18
 41
1
 50
90
  1
23
  0
LINE
  8
_0-1_計細線
  6
CONTINUOUS
 62
    3
 10
1012.3130414361608
 20
672.36031331592721
 11
1010.3130414361608
 21
670.36031331592721
  0
LINE
  8
_0-1_計細線
  6
CONTINUOUS
 62
    3
 10
1010.3130414361608
 20
660.36031331592721
 11
1010.3130414361608
 21
670.36031331592721
  0
LINE
  8
_0-1_計細線
  6
CONTINUOUS
 62
    3
 10
1026.3130411299994
 20
670.36031331592721
 11
1024.3130411299994
 21
672.36031331592721
  0
LINE
  8
_0-1_計細線
  6
CONTINUOUS
 62
    3
 10
1026.3130411299994
 20
660.36031331592721
 11
1026.3130411299994
 21
670.36031331592721
  0
LINE
  8
_0-1_計細線
  6
CONTINUOUS
 62
    3
 10
1012.3130414361608
 20
656.36031331592721
 11
1010.3130414361608
 21
654.36031331592721
  0
LINE
  8
_0-1_計細線
  6
CONTINUOUS
 62
    3
 10
1012.3130414361608
 20
658.36031331592721
 11
1012.3130414361608
 21
656.36031331592721
  0
LINE
  8
_0-1_計細線
  6
CONTINUOUS
 62
    3
 10
1010.3130414361608
 20
660.36031331592721
 11
1012.3130414361608
 21
658.36031331592721
  0
LINE
  8
_0-1_計細線
  6
CONTINUOUS
 62
    3
 10
1024.3130411299994
 20
656.36031331592721
 11
1026.3130411299994
 21
654.36031331592721
  0
LINE
  8
_0-1_計細線
  6
CONTINUOUS
 62
    3
 10
1024.3130411299994
 20
658.36031331592721
 11
1024.3130411299994
 21
656.36031331592721
  0
LINE
  8
_0-1_計細線
  6
CONTINUOUS
 62
    3
 10
1026.3130411299994
 20
660.36031331592721
 11
1024.3130411299994
 21
658.36031331592721
  0
LINE
  8
_0-1_計細線
  6
CONTINUOUS
 62
    3
 10
1010.3130414361608
 20
654.36031331592721
 11
1010.3130414361608
 21
640.36031331592721
  0
ARC
  8
_0-1_計細線
  6
CONTINUOUS
 62
    3
 10
1013.3130414361608
 20
640.36031331592721
 40
3
 50
179.99999999999983
 51
269.99999999999977
  0
LINE
  8
_0-1_計細線
  6
CONTINUOUS
 62
    3
 10
1013.3130414361608
 20
637.36031331592721
 11
1023.3130411299994
 21
637.36031331592721
  0
LINE
  8
_0-1_計細線
  6
CONTINUOUS
 62
    3
 10
1026.3130411299994
 20
654.36031331592721
 11
1026.3130411299994
 21
640.36031331592721
  0
ARC
  8
_0-1_計細線
  6
CONTINUOUS
 62
    3
 10
1023.3130411299994
 20
640.36031331592721
 40
3
 50
269.99999999999977
 51
359.99999999999966
  0
LINE
  8
_0-0_計極細
  6
CENTER1
 62
    2
 10
1018.3130412119458
 20
684.00168718131499
 11
1018.3130412119458
 21
628.73156934507188
  0
LINE
  8
_0-1_計細線
  6
CONTINUOUS
 62
    3
 10
1012.3130414361608
 20
672.36031331592721
 11
1024.3130411299994
 21
672.36031331592721
  0
LINE
  8
_0-1_計細線
  6
CONTINUOUS
 62
    3
 10
488.31304121194586
 20
683.36031331592721
 11
488.31304121194586
 21
660.36031331592721
  0
LINE
  8
_0-1_計細線
  6
CONTINUOUS
 62
    3
 10
1068.3130412119458
 20
660.36031331592721
 11
1068.3130412119458
 21
683.36031331592721
  0
LINE
  8
_0-1_計細線
  6
CONTINUOUS
 62
    3
 10
1068.3130412119458
 20
683.36031331592721
 11
488.31304121194586
 21
683.36031331592721
  0
LINE
  8
_0-1_計細線
  6
CONTINUOUS
 62
    3
 10
488.31304121194586
 20
660.36031331592721
 11
530.31304143616092
 21
660.36031331592721
  0
LINE
  8
_0-1_計細線
  6
CONTINUOUS
 62
    3
 10
1026.3130411299994
 20
660.36031331592721
 11
1068.3130412119458
 21
660.36031331592721
  0
LINE
  8
_0-1_計細線
  6
CONTINUOUS
 62
    3
 10
838.31304128308011
 20
660.36031331592721
 11
1010.3130414361608
 21
660.36031331592721
  0
LINE
  8
_0-1_計細線
  6
CONTINUOUS
 62
    3
 10
546.31304112999953
 20
660.36031331592721
 11
778.31304128308022
 21
660.36031331592721
  0
LINE
  8
_0-1_計細線
  6
CONTINUOUS
 62
    3
 10
778.31304128308022
 20
660.36031331592721
 11
838.31304128308011
 21
660.36031331592721
  0
LINE
  8
_0-5_寸法線
  6
CONTINUOUS
 62
    7
 10
538.31304121194592
 20
637.36031331592721
 11
545.20388456883461
 21
627.53604347889473
  0
LINE
  8
_0-5_寸法線
  6
CONTINUOUS
 62
    7
 10
538.31304121194592
 20
637.36031331592721
 11
539.36855169399462
 21
625.4068243849797
  0
LINE
  8
_0-5_寸法線
  6
CONTINUOUS
 62
    7
 10
538.31304121194592
 20
637.36031331592721
 11
551.58781373500835
 21
600.9795027496408
  0
LINE
  8
_0-5_寸法線
  6
CONTINUOUS
 62
    7
 10
551.58781373500835
 20
600.9795027496408
 11
609.18781373500849
 21
600.9795027496408
  0
TEXT
  8
_0-5_寸法線
 62
    7
 10
551.58781373500835
 20
600.9795027496408
 40
18
 41
0.7999999999999998
 50
0
  1
アンカー
  0
LINE
  8
_0-7_枠細線
  6
CONTINUOUS
 62
    5
 10
571.9445160793623
 20
621.77351288778482
 11
562.9445160793623
 21
639.77351288778482
  0
LINE
  8
_0-7_枠細線
  6
CONTINUOUS
 62
    5
 10
553.9445160793623
 20
621.77351288778482
 11
571.9445160793623
 21
621.77351288778482
  0
LINE
  8
_0-7_枠細線
  6
CONTINUOUS
 62
    5
 10
562.9445160793623
 20
639.77351288778482
 11
553.9445160793623
 21
621.77351288778482
  0
TEXT
  8
_0-7_枠細線
 62
    5
 10
556.78269760113983
 20
621.40511019332826
 40
15
 41
0.8
 50
0
  1
１
  0
LINE
  8
_0-5_寸法線
  6
CONTINUOUS
 62
    7
 10
488.31304121194586
 20
695.36031331592721
 11
488.31304121194586
 21
749.36031331592721
  0
LINE
  8
_0-5_寸法線
  6
CONTINUOUS
 62
    7
 10
488.31304121194586
 20
743.36031331592721
 11
499.90415112741465
 21
746.46614185715748
  0
LINE
  8
_0-5_寸法線
  6
CONTINUOUS
 62
    7
 10
488.31304121194586
 20
743.36031331592721
 11
499.90415112741465
 21
740.25448477469695
  0
LINE
  8
_0-5_寸法線
  6
CONTINUOUS
 62
    7
 10
538.31304121194592
 20
695.36031331592721
 11
538.31304121194592
 21
749.36031331592721
  0
LINE
  8
_0-5_寸法線
  6
CONTINUOUS
 62
    7
 10
538.31304121194592
 20
743.36031331592721
 11
526.72193129647712
 21
740.25448477469706
  0
LINE
  8
_0-5_寸法線
  6
CONTINUOUS
 62
    7
 10
538.31304121194592
 20
743.36031331592721
 11
526.72193129647712
 21
746.46614185715748
  0
LINE
  8
_0-5_寸法線
  6
CONTINUOUS
 62
    7
 10
488.31304121194586
 20
743.36031331592721
 11
538.31304121194592
 21
743.36031331592721
  0
TEXT
  8
_0-5_寸法線
 62
    7
 10
504.31304121194592
 20
743.36031331592721
 40
18
 41
1
 50
0
  1
50
  0
LINE
  8
_0-5_寸法線
  6
CONTINUOUS
 62
    7
 10
538.31304121194592
 20
743.36031331592721
 11
549.90415112741471
 21
746.46614185715737
  0
LINE
  8
_0-5_寸法線
  6
CONTINUOUS
 62
    7
 10
538.31304121194592
 20
743.36031331592721
 11
549.90415112741471
 21
740.25448477469695
  0
LINE
  8
_0-5_寸法線
  6
CONTINUOUS
 62
    7
 10
1018.3130412119458
 20
695.36031331592721
 11
1018.3130412119458
 21
749.36031331592721
  0
LINE
  8
_0-5_寸法線
  6
CONTINUOUS
 62
    7
 10
1018.3130412119458
 20
743.36031331592721
 11
1006.7219312964769
 21
740.25448477469706
  0
LINE
  8
_0-5_寸法線
  6
CONTINUOUS
 62
    7
 10
1018.3130412119458
 20
743.36031331592721
 11
1006.7219312964769
 21
746.46614185715748
  0
LINE
  8
_0-5_寸法線
  6
CONTINUOUS
 62
    7
 10
538.31304121194592
 20
743.36031331592721
 11
1018.3130412119458
 21
743.36031331592721
  0
TEXT
  8
_0-5_寸法線
 62
    7
 10
764.8130412119458
 20
743.36031331592699
 40
18
 41
1
 50
0
  1
480
  0
LINE
  8
_0-5_寸法線
  6
CONTINUOUS
 62
    7
 10
1018.3130412119458
 20
743.36031331592721
 11
1029.9041511274147
 21
746.46614185715737
  0
LINE
  8
_0-5_寸法線
  6
CONTINUOUS
 62
    7
 10
1018.3130412119458
 20
743.36031331592721
 11
1029.9041511274147
 21
740.25448477469695
  0
LINE
  8
_0-5_寸法線
  6
CONTINUOUS
 62
    7
 10
1068.3130412119458
 20
695.36031331592721
 11
1068.3130412119458
 21
749.36031331592721
  0
LINE
  8
_0-5_寸法線
  6
CONTINUOUS
 62
    7
 10
1068.3130412119458
 20
743.36031331592721
 11
1056.7219312964769
 21
740.25448477469706
  0
LINE
  8
_0-5_寸法線
  6
CONTINUOUS
 62
    7
 10
1068.3130412119458
 20
743.36031331592721
 11
1056.7219312964769
 21
746.46614185715748
  0
LINE
  8
_0-5_寸法線
  6
CONTINUOUS
 62
    7
 10
1018.3130412119458
 20
743.36031331592721
 11
1068.3130412119458
 21
743.36031331592721
  0
TEXT
  8
_0-5_寸法線
 62
    7
 10
1034.313041211946
 20
743.36031331592721
 40
18
 41
1
 50
0
  1
50
  0
ENDSEC
  0
EOF
