  0
SECTION
  2
HEADER
  9
$ACADVER
  1
AC1009
  9
$INSBASE
 10
0
 20
0
 30
0
  9
$EXTMIN
 10
0
 20
0
  9
$EXTMAX
 10
2376
 20
1680
  9
$LIMMIN
 10
0
 20
0
  9
$LIMMAX
 10
2376
 20
1680
  9
$LTSCALE
 40
8
  0
ENDSEC
  0
SECTION
  2
TABLES
  0
TABLE
  2
LTYPE
 70
     9
  0
LTYPE
  2
CONTINUOUS
 70
    64
  3
実線
 72
    65
 73
     0
 40
0.0
  0
LTYPE
  2
DASHED1
 70
    64
  3
--  --  --  --  --  --  --  --  
 72
    65
 73
     2
 40
2.5
 49
1.25
 49
-1.25
  0
LTYPE
  2
DASHED2
 70
    64
  3
----    ----    ----    ----    
 72
    65
 73
     2
 40
5.0
 49
2.5
 49
-2.5
  0
LTYPE
  2
DASHED3
 70
    64
  3
------  ------  ------  ------  
 72
    65
 73
     2
 40
5.0
 49
3.75
 49
-1.25
  0
LTYPE
  2
CENTER1
 70
    64
  3
----- - ----- - ----- - ----- - 
 72
    65
 73
     4
 40
10.0
 49
6.25
 49
-1.25
 49
1.25
 49
-1.25
  0
LTYPE
  2
CENTER2
 70
    64
  3
----------  --  ----------  --  
 72
    65
 73
     4
 40
20.0
 49
12.5
 49
-2.5
 49
2.5
 49
-2.5
  0
LTYPE
  2
PHANTOM1
 70
    64
  3
--- - - --- - - --- - - --- - - 
 72
    65
 73
     6
 40
10.0
 49
3.25
 49
-1.25
 49
1.25
 49
-1.25
 49
1.25
 49
-1.25
  0
LTYPE
  2
PHANTOM2
 70
    64
  3
--------  -  -  --------  -  -  
 72
    65
 73
     6
 40
20.0
 49
10.0
 49
-2.5
 49
1.25
 49
-2.5
 49
1.25
 49
-2.5
  0
LTYPE
  2
DOT
 70
    64
  3
-   -   -   -   -   -   -   -   
 72
    65
 73
     2
 40
2.5
 49
0.625
 49
-1.875
  0
LTYPE
  2
DUMMY
 70
    64
  3
ダミー
 72
    65
 73
     0
 40
0.0
  0
LTYPE
  2
RAND1
 70
    64
  3
ランダム線1
 72
    65
 73
     4
 40
10.0
 49
1.0
 49
-2.0
 49
3.0
 49
-4.0
  0
LTYPE
  2
RAND2
 70
    64
  3
ランダム線2
 72
    65
 73
     4
 40
14.0
 49
2.0
 49
-3.0
 49
4.0
 49
-5.0
  0
LTYPE
  2
RAND3
 70
    64
  3
ランダム線3
 72
    65
 73
     4
 40
18.0
 49
3.0
 49
-4.0
 49
5.0
 49
-6.0
  0
LTYPE
  2
RAND4
 70
    64
  3
ランダム線4
 72
    65
 73
     4
 40
22.0
 49
4.0
 49
-5.0
 49
6.0
 49
-7.0
  0
LTYPE
  2
RAND5
 70
    64
  3
ランダム線5
 72
    65
 73
     4
 40
26.0
 49
5.0
 49
-6.0
 49
7.0
 49
-8.0
  0
LTYPE
  2
LONG1
 70
    64
  3
----------  --  ----------  --  
 72
    65
 73
     4
 40
40.0
 49
32.5
 49
-2.5
 49
2.5
 49
-2.5
  0
LTYPE
  2
LONG2
 70
    64
  3
--------  -  -  --------  -  -  
 72
    65
 73
     6
 40
40.0
 49
30.0
 49
-2.5
 49
1.25
 49
-2.5
 49
1.25
 49
-2.5
  0
LTYPE
  2
LONG3
 70
    64
  3
+++++++++++++++..+++++++++++++++
 72
    65
 73
     2
 40
40.0
 49
37.5
 49
-2.5
  0
LTYPE
  2
LONG4
 70
    64
  3
+++++++++++++++..+++++++++++++++
 72
    65
 73
     2
 40
80.0
 49
75.0
 49
-5.0
  0
LTYPE
  2
LONG5
 70
    64
  3
----------  --  ----------  --  
 72
    65
 73
     4
 40
60.0
 49
37.5
 49
-7.5
 49
7.5
 49
-7.5
  0
LTYPE
  2
dashed
 70
   64
  3
-------   -------------   ------
 72
   65
 73
    2
 40
7.5
 49
6
 49
-1.5
  0
LTYPE
  2
dashed_spaced
 70
   64
  3
----        --------        ----
 72
   65
 73
    2
 40
12
 49
6
 49
-6
  0
LTYPE
  2
long_dashed_dotted
 70
   64
  3
------------- --- --------------
 72
   65
 73
    4
 40
15.25
 49
12
 49
-1.5
 49
0.25
 49
-1.5
  0
LTYPE
  2
long_dashed_double-dotted
 70
   64
  3
----------- --- --- ------------
 72
   65
 73
    6
 40
17
 49
12
 49
-1.5
 49
0.25
 49
-1.5
 49
0.25
 49
-1.5
  0
LTYPE
  2
long_dashed_triplicate-dotted
 70
   64
  3
--------- --- --- --- ----------
 72
   65
 73
    8
 40
18.75
 49
12
 49
-1.5
 49
0.25
 49
-1.5
 49
0.25
 49
-1.5
 49
0.25
 49
-1.5
  0
LTYPE
  2
dotted
 70
   64
  3
   -       -       -       -    
 72
   65
 73
    2
 40
1.75
 49
0.25
 49
-1.5
  0
LTYPE
  2
chain
 70
   64
  3
-------------- -- --------------
 72
   65
 73
    4
 40
18.5
 49
12
 49
-1.5
 49
3.5
 49
-1.5
  0
LTYPE
  2
chain_double_dash
 70
   64
  3
------------ -- -- -------------
 72
   65
 73
    6
 40
23.5
 49
12
 49
-1.5
 49
3.5
 49
-1.5
 49
3.5
 49
-1.5
  0
LTYPE
  2
dashed_dotted
 70
   64
  3
-----------     -     ----------
 72
   65
 73
    4
 40
9.25
 49
6
 49
-1.5
 49
0.25
 49
-1.5
  0
LTYPE
  2
double-dashed_dotted
 70
   64
  3
------   -----------   -   -----
 72
   65
 73
    6
 40
16.75
 49
6
 49
-1.5
 49
6
 49
-1.5
 49
0.25
 49
-1.5
  0
LTYPE
  2
dashed_double-dotted
 70
   64
  3
---------    -    -    ---------
 72
   65
 73
    6
 40
11
 49
6
 49
-1.5
 49
0.25
 49
-1.5
 49
0.25
 49
-1.5
  0
LTYPE
  2
double-dashed_double-dotted
 70
   64
  3
-----   ---------   -   -   ----
 72
   65
 73
    8
 40
18.5
 49
6
 49
-1.5
 49
6
 49
-1.5
 49
0.25
 49
-1.5
 49
0.25
 49
-1.5
  0
LTYPE
  2
dashed_triplicate-dotted
 70
   64
  3
-------    -    -    -    ------
 72
   65
 73
    8
 40
12.75
 49
6
 49
-1.5
 49
0.25
 49
-1.5
 49
0.25
 49
-1.5
 49
0.25
 49
-1.5
  0
LTYPE
  2
double-dashed_triplicate-dotted
 70
   64
  3
-----  ---------  -  -  -  -----
 72
   65
 73
   10
 40
20.25
 49
6
 49
-1.5
 49
6
 49
-1.5
 49
0.25
 49
-1.5
 49
0.25
 49
-1.5
 49
0.25
 49
-1.5
  0
LTYPE
  2
undefined
 70
   64
  3
--------------------------------
 72
   65
 73
    0
 40
0
  0
ENDTAB
  0
TABLE
  2
STYLE
  5
3
100
AcDbSymbolTable
 70
     1
  0
STYLE
  5
10
100
AcDbSymbolTableRecord
100
AcDbTextStyleTableRecord
  2
STANDARD
 70
     0
 40
0.0
 41
1.0
 50
0.0
 71
     0
 42
0.2
  3
txt
  4
bigfont.shx
  0
STYLE
  5
26
100
AcDbSymbolTableRecord
100
AcDbTextStyleTableRecord
  2
TATEGAKI
 70
    68
 40
0.0
 41
1.0
 50
0.0
 71
     0
 42
1.0
  3
txt
  4
bigfont.shx
  0
ENDTAB
  0
TABLE
  2
LAYER
 70
    9
  0
LAYER
  2
_0-0_計極細
 70
   64
 62
    7
  6
CONTINUOUS
  0
LAYER
  2
_0-1_計細線
 70
   64
 62
    7
  6
CONTINUOUS
  0
LAYER
  2
_0-5_寸法線
 70
   64
 62
    7
  6
CONTINUOUS
  0
LAYER
  2
_0-7_枠細線
 70
   64
 62
    7
  6
CONTINUOUS
  0
LAYER
  2
_0-8_枠中線
 70
   64
 62
    7
  6
CONTINUOUS
  0
LAYER
  2
_1-2_極細2
 70
   64
 62
    7
  6
CONTINUOUS
  0
LAYER
  2
_1-3_細線2
 70
   64
 62
    7
  6
CONTINUOUS
  0
LAYER
  2
_1-5_寸法2
 70
   64
 62
    7
  6
CONTINUOUS
  0
LAYER
  2
ADD_LINE
 70
   64
 62
    7
  6
CONTINUOUS
  0
ENDTAB
  0
ENDSEC
  0
SECTION
  2
BLOCKS
  0
ENDSEC
  0
SECTION
  2
ENTITIES
  0
LINE
  8
_0-8_枠中線
  6
CONTINUOUS
 62
    5
 10
96
 20
96
 11
96
 21
1536
  0
LINE
  8
_0-8_枠中線
  6
CONTINUOUS
 62
    5
 10
96
 20
1536
 11
2280
 21
1536
  0
LINE
  8
_0-8_枠中線
  6
CONTINUOUS
 62
    5
 10
2280
 20
1536
 11
2280
 21
96
  0
LINE
  8
_0-8_枠中線
  6
CONTINUOUS
 62
    5
 10
2280
 20
96
 11
96
 21
96
  0
LINE
  8
_0-7_枠細線
  6
CONTINUOUS
 62
    5
 10
1896
 20
288
 11
1896
 21
160
  0
TEXT
  8
_0-7_枠細線
 62
    5
 10
1500
 20
156
 40
28
 41
1
 50
0
  1
備考
  7
TATEGAKI
  0
TEXT
  8
_0-7_枠細線
 62
    5
 10
1500
 20
220
 40
28
 41
1
 50
0
  1
品番
  7
TATEGAKI
  0
TEXT
  8
_0-7_枠細線
 62
    5
 10
1500
 20
284
 40
28
 41
1
 50
0
  1
品名
  7
TATEGAKI
  0
LINE
  8
_0-7_枠細線
  6
CONTINUOUS
 62
    5
 10
1896
 20
224
 11
1480
 21
224
  0
LINE
  8
_0-7_枠細線
  6
CONTINUOUS
 62
    5
 10
1520
 20
288
 11
1520
 21
96
  0
LINE
  8
_0-8_枠中線
  6
CONTINUOUS
 62
    5
 10
2280
 20
288
 11
1480
 21
288
  0
LINE
  8
_0-8_枠中線
  6
CONTINUOUS
 62
    5
 10
1480
 20
288
 11
1480
 21
96
  0
LINE
  8
_0-7_枠細線
  6
CONTINUOUS
 62
    5
 10
1992
 20
288
 11
1992
 21
96
  0
TEXT
  8
_0-7_枠細線
 62
    5
 10
1908
 20
256
 40
24
 41
1
 50
0
  1
縮　尺
  0
LINE
  8
_0-7_枠細線
  6
CONTINUOUS
 62
    5
 10
1896
 20
248
 11
1992
 21
248
  0
LINE
  8
_0-7_枠細線
  6
CONTINUOUS
 62
    5
 10
1992
 20
160
 11
1480
 21
160
  0
LINE
  8
_0-7_枠細線
  6
CONTINUOUS
 62
    5
 10
2280
 20
144
 11
1992
 21
144
  0
LINE
  8
_0-7_枠細線
  6
CONTINUOUS
 62
    5
 10
1992
 20
192
 11
2280
 21
192
  0
LINE
  8
_0-7_枠細線
  6
CONTINUOUS
 62
    5
 10
2280
 20
224
 11
1992
 21
224
  0
TEXT
  8
_0-7_枠細線
 62
    5
 10
2008
 20
236
 40
40
 41
0.8
 50
0
  1
株式会社シマブン
  0
TEXT
  8
_0-7_枠細線
 62
    5
 10
2004
 20
96
 40
24
 41
1
 50
0
  1
年月日
  0
TEXT
  8
_0-7_枠細線
 62
    5
 10
2004
 20
120
 40
24
 41
1
 50
0
  1
作　成
  0
TEXT
  8
_0-7_枠細線
 62
    5
 10
2010
 20
196
 40
24
 41
1
 50
0
  1
承 認
  0
LINE
  8
_0-7_枠細線
  6
CONTINUOUS
 62
    5
 10
2088
 20
224
 11
2088
 21
96
  0
TEXT
  8
_0-7_枠細線
 62
    5
 10
2106
 20
196
 40
24
 41
1
 50
0
  1
検 図
  0
LINE
  8
_0-7_枠細線
  6
CONTINUOUS
 62
    5
 10
2184
 20
224
 11
2184
 21
144
  0
TEXT
  8
_0-7_枠細線
 62
    5
 10
2202
 20
196
 40
24
 41
1
 50
0
  1
設 計
  0
TEXT
  8
_0-7_枠細線
 62
    5
 10
2200
 20
152
 40
32
 41
1
 50
0
  1
藤戸
  0
LINE
  8
_0-1_計細線
  6
CONTINUOUS
 62
    3
 10
1723.4465993058161
 20
796.64196472428898
 11
1723.4465943692962
 21
796.6433281967345
  0
TEXT
  8
_0-7_枠細線
 62
    5
 10
2008
 20
152
 40
32
 41
1
 50
0
  1
大野
  0
TEXT
  8
_0-7_枠細線
 62
    5
 10
2104
 20
152
 40
32
 41
1
 50
0
  1
深川
  0
TEXT
  8
_0-7_枠細線
 62
    5
 10
2096
 20
108
 40
24
 41
0.6666666666666666
 50
0
  1
２０１５年０４月０１日
  0
CIRCLE
  8
_1-2_極細2
  6
CONTINUOUS
 62
    2
 10
275.49980092946237
 20
294.88973347058027
 40
1.3274074074073723
  0
CIRCLE
  8
_1-2_極細2
  6
CONTINUOUS
 62
    2
 10
289.51890267778174
 20
347.20973347178688
 40
1.3274074074073723
  0
CIRCLE
  8
_1-2_極細2
  6
CONTINUOUS
 62
    2
 10
291.01223601111553
 20
387.778622360675
 40
1.3274074074073723
  0
LINE
  8
_0-1_計細線
  6
CONTINUOUS
 62
    3
 10
206.7816118860419
 20
1167.2005507263955
 11
206.7816118860419
 21
1157.2005507263955
  0
LINE
  8
_0-1_計細線
  6
CONTINUOUS
 62
    3
 10
206.7816118860419
 20
1182.700550726395
 11
206.7816118860419
 21
1172.700550726395
  0
LINE
  8
_0-1_計細線
  6
CONTINUOUS
 62
    3
 10
206.7816118860419
 20
1213.7005507263946
 11
206.7816118860419
 21
1203.7005507263946
  0
LINE
  8
_0-1_計細線
  6
CONTINUOUS
 62
    3
 10
206.7816118860419
 20
1229.2005507263941
 11
206.7816118860419
 21
1219.2005507263941
  0
LINE
  8
_0-0_計極細
  6
CENTER1
 62
    2
 10
2146.0980670769727
 20
1193.2005507263946
 11
2257.9182109618646
 21
1193.2005507263946
  0
LINE
  8
_0-1_計細線
  6
CONTINUOUS
 62
    3
 10
2172.7449635812695
 20
1234.2007406533878
 11
2172.7449635812695
 21
1152.2007406533878
  0
LINE
  8
_0-1_計細線
  6
CONTINUOUS
 62
    3
 10
2172.7449635812695
 20
1152.2007406533878
 11
2195.7449635812695
 21
1152.2007406533878
  0
LINE
  8
_0-1_計細線
  6
CONTINUOUS
 62
    3
 10
2195.7449635812695
 20
1152.2007406533878
 11
2195.7449635812695
 21
1234.2007406533878
  0
LINE
  8
_0-1_計細線
  6
CONTINUOUS
 62
    3
 10
2195.7449635812695
 20
1234.2007406533878
 11
2172.7449635812695
 21
1234.2007406533878
  0
LINE
  8
_0-1_計細線
  6
CONTINUOUS
 62
    3
 10
1979.2816122860527
 20
1202.7005503463906
 11
1979.2816122860527
 21
1193.7005507063943
  0
LINE
  8
_0-0_計極細
  6
CENTER1
 62
    2
 10
194.11015262821638
 20
1193.2005507263946
 11
1991.1388732548489
 21
1193.2005507263946
  0
LINE
  8
_0-1_計細線
  6
CONTINUOUS
 62
    3
 10
1982.2816118860405
 20
1152.2005507263946
 11
1982.2816118860405
 21
1234.2005507263946
  0
LINE
  8
_0-1_計細線
  6
CONTINUOUS
 62
    3
 10
1982.2816118860405
 20
1234.2005507263946
 11
202.2816118860419
 21
1234.2005507263946
  0
LINE
  8
_0-1_計細線
  6
CONTINUOUS
 62
    3
 10
202.2816118860419
 20
1234.2005507263946
 11
202.2816118860419
 21
1152.2005507263946
  0
LINE
  8
_0-1_計細線
  6
CONTINUOUS
 62
    3
 10
202.2816118860419
 20
1152.2005507263946
 11
1982.2816118860405
 21
1152.2005507263946
  0
LINE
  8
_0-1_計細線
  6
CONTINUOUS
 62
    3
 10
205.2816118860419
 20
1231.2005507263946
 11
205.2816118860419
 21
1155.2005507263946
  0
LINE
  8
_0-1_計細線
  6
CONTINUOUS
 62
    3
 10
205.2816118860419
 20
1155.2005507263946
 11
1979.2816118860405
 21
1155.2005507263946
  0
LINE
  8
_0-1_計細線
  6
CONTINUOUS
 62
    3
 10
1979.2816118860405
 20
1155.2005507263946
 11
1979.2816118860405
 21
1231.2005507263946
  0
LINE
  8
_0-1_計細線
  6
CONTINUOUS
 62
    3
 10
1979.2816118860405
 20
1231.2005507263946
 11
205.2816118860419
 21
1231.2005507263946
  0
TEXT
  8
_0-7_枠細線
 62
    5
 10
1910.4000000000001
 20
188
 40
32
 41
0.6999999999999998
 50
0
  1
１：８
  0
LINE
  8
_0-5_寸法線
  6
CONTINUOUS
 62
    7
 10
754.34299167458039
 20
1162.8831745832033
 11
754.34299167458028
 21
1146.8831745832033
  0
LINE
  8
_0-5_寸法線
  6
CONTINUOUS
 62
    7
 10
754.34299167458039
 20
1162.8831745832033
 11
746.34299167458039
 21
1149.0267681226524
  0
LINE
  8
_0-5_寸法線
  6
CONTINUOUS
 62
    7
 10
754.34299167458039
 20
1162.8831745832033
 11
740.76262354185792
 21
1112.2005507263946
  0
LINE
  8
_0-5_寸法線
  6
CONTINUOUS
 62
    7
 10
740.76262354185792
 20
1112.2005507263946
 11
683.16262354185778
 21
1112.2005507263946
  0
TEXT
  8
_0-5_寸法線
 62
    7
 10
683.1626235418579
 20
1112.2005507263946
 40
24
 41
0.7999999999999998
 50
0
  1
上フタ
  0
LINE
  8
_0-1_計細線
  6
CONTINUOUS
 62
    3
 10
206.7816118860419
 20
1203.7005507263946
 11
1977.7816118860405
 21
1203.7005507263946
  0
LINE
  8
_0-1_計細線
  6
CONTINUOUS
 62
    3
 10
1977.7816118860403
 20
1213.7005507263946
 11
206.7816118860419
 21
1213.7005507263946
  0
LINE
  8
_0-1_計細線
  6
CONTINUOUS
 62
    3
 10
206.7816118860419
 20
1219.2005507263941
 11
1977.781611886041
 21
1219.2005507263941
  0
LINE
  8
_0-1_計細線
  6
CONTINUOUS
 62
    3
 10
1977.7816118860408
 20
1229.2005507263941
 11
206.7816118860419
 21
1229.2005507263941
  0
LINE
  8
_0-1_計細線
  6
CONTINUOUS
 62
    3
 10
1977.7816118860408
 20
1182.700550726395
 11
206.7816118860419
 21
1182.700550726395
  0
LINE
  8
_0-1_計細線
  6
CONTINUOUS
 62
    3
 10
206.7816118860419
 20
1172.700550726395
 11
1977.7816118860408
 21
1172.700550726395
  0
LINE
  8
_0-1_計細線
  6
CONTINUOUS
 62
    3
 10
1977.7816118860403
 20
1167.2005507263955
 11
206.7816118860419
 21
1167.2005507263955
  0
LINE
  8
_0-1_計細線
  6
CONTINUOUS
 62
    3
 10
206.7816118860419
 20
1157.2005507263955
 11
1977.7816118860401
 21
1157.2005507263955
  0
LINE
  8
_0-1_計細線
  6
CONTINUOUS
 62
    3
 10
1977.7816118860405
 20
1229.2005507263941
 11
1977.7816118860405
 21
1219.2005507263941
  0
LINE
  8
_0-1_計細線
  6
CONTINUOUS
 62
    3
 10
1977.7816118860401
 20
1213.7005507263946
 11
1977.7816118860401
 21
1203.7005507263946
  0
LINE
  8
_0-1_計細線
  6
CONTINUOUS
 62
    3
 10
1977.7816118860405
 20
1198.2005507263946
 11
1977.7816118860405
 21
1188.2005507263946
  0
LINE
  8
_0-1_計細線
  6
CONTINUOUS
 62
    3
 10
1977.7816118860405
 20
1182.700550726395
 11
1977.7816118860405
 21
1172.700550726395
  0
LINE
  8
_0-1_計細線
  6
CONTINUOUS
 62
    3
 10
1977.7816118860408
 20
1167.2005507263955
 11
1977.7816118860408
 21
1157.2005507263955
  0
LINE
  8
_0-5_寸法線
  6
CONTINUOUS
 62
    7
 10
1954.8890044606235
 20
1232.7562513356199
 11
1943.5752959616389
 21
1244.0699598346048
  0
LINE
  8
_0-5_寸法線
  6
CONTINUOUS
 62
    7
 10
1954.8890044606235
 20
1232.7562513356199
 11
1950.7478997389833
 21
1248.211064556245
  0
LINE
  8
_0-5_寸法線
  6
CONTINUOUS
 62
    7
 10
1954.8890044606235
 20
1232.7562513356199
 11
1940.1987313580184
 21
1258.2005507263946
  0
LINE
  8
_0-5_寸法線
  6
CONTINUOUS
 62
    7
 10
1940.1987313580184
 20
1258.2005507263946
 11
1824.9987313580184
 21
1258.2005507263946
  0
TEXT
  8
_0-5_寸法線
 62
    7
 10
1824.9987313580184
 20
1258.2005507263946
 40
24
 41
0.7999999999999998
 50
0
  1
Ｌアングル枠
  0
LINE
  8
_0-1_計細線
  6
CONTINUOUS
 62
    3
 10
1977.7816118860403
 20
1198.2005507263946
 11
206.78161188604167
 21
1198.2005507263946
  0
LINE
  8
_0-1_計細線
  6
CONTINUOUS
 62
    3
 10
206.78161188604167
 20
1198.2005507263946
 11
206.7816118860419
 21
1188.2005507263946
  0
LINE
  8
_0-1_計細線
  6
CONTINUOUS
 62
    3
 10
206.7816118860419
 20
1188.2005507263946
 11
1977.7816118860403
 21
1188.2005507263946
  0
TEXT
  8
_0-7_枠細線
 62
    5
 10
1544.7999999999997
 20
176
 40
32
 41
0.6
 50
0
  1
ＧＳＥ－Ｌ１８００
  0
TEXT
  8
_0-7_枠細線
 62
    5
 10
1544.7999999999993
 20
240.00000000000045
 40
32
 41
0.625
 50
0
  1
玄関排水Ｌアングル枠仕様
  0
LINE
  8
_0-5_寸法線
  6
CONTINUOUS
 62
    7
 10
1998.2816118860405
 20
1152.2005507263946
 11
2070.2816118860405
 21
1152.2005507263943
  0
LINE
  8
_0-5_寸法線
  6
CONTINUOUS
 62
    7
 10
2062.2816118860405
 20
1152.2005507263943
 11
2058.1405071644003
 21
1167.6553639470194
  0
LINE
  8
_0-5_寸法線
  6
CONTINUOUS
 62
    7
 10
2062.2816118860405
 20
1152.2005507263943
 11
2066.4227166076807
 21
1167.6553639470194
  0
LINE
  8
_0-5_寸法線
  6
CONTINUOUS
 62
    7
 10
1998.2816118860405
 20
1234.2005507263946
 11
2070.2816118860405
 21
1234.2005507263943
  0
LINE
  8
_0-5_寸法線
  6
CONTINUOUS
 62
    7
 10
2062.2816118860405
 20
1234.2005507263943
 11
2066.4227166076807
 21
1218.7457375057693
  0
LINE
  8
_0-5_寸法線
  6
CONTINUOUS
 62
    7
 10
2062.2816118860405
 20
1234.2005507263943
 11
2058.1405071644003
 21
1218.7457375057693
  0
LINE
  8
_0-5_寸法線
  6
CONTINUOUS
 62
    7
 10
2062.2816118860405
 20
1152.2005507263943
 11
2062.2816118860405
 21
1234.2005507263943
  0
TEXT
  8
_0-5_寸法線
 62
    7
 10
2062.281611886041
 20
1181.2005507263943
 40
24
 41
1
 50
90
  1
82
  0
LINE
  8
_1-5_寸法2
  6
CONTINUOUS
 62
    7
 10
413.3994778067887
 20
488.02154847180191
 11
413.3994778067887
 21
554.0215490350148
  0
LINE
  8
_1-5_寸法2
  6
CONTINUOUS
 62
    7
 10
413.3994778067887
 20
538.0215490350148
 11
397.94466458616353
 21
533.88044431337448
  0
LINE
  8
_1-5_寸法2
  6
CONTINUOUS
 62
    7
 10
413.3994778067887
 20
538.0215490350148
 11
397.94466458616364
 21
542.16265375665523
  0
LINE
  8
_1-5_寸法2
  6
CONTINUOUS
 62
    7
 10
435.3994778067887
 20
488.02154847180191
 11
435.3994778067887
 21
554.0215490350148
  0
LINE
  8
_1-5_寸法2
  6
CONTINUOUS
 62
    7
 10
375.58004247869019
 20
538.0215490350148
 11
435.3994778067887
 21
538.0215490350148
  0
TEXT
  8
_1-5_寸法2
 62
    7
 10
375.5800424786903
 20
538.0215490350148
 40
24
 41
1
 50
0
  1
5.5
  0
LINE
  8
_1-5_寸法2
  6
CONTINUOUS
 62
    7
 10
435.3994778067887
 20
538.0215490350148
 11
450.85429102741386
 21
542.162653756655
  0
LINE
  8
_1-5_寸法2
  6
CONTINUOUS
 62
    7
 10
435.3994778067887
 20
538.0215490350148
 11
450.85429102741375
 21
533.88044431337437
  0
LINE
  8
_1-5_寸法2
  6
CONTINUOUS
 62
    7
 10
475.3994778067887
 20
488.02154847180191
 11
475.3994778067887
 21
554.0215490350148
  0
LINE
  8
_1-5_寸法2
  6
CONTINUOUS
 62
    7
 10
475.3994778067887
 20
538.0215490350148
 11
459.94466458616353
 21
533.88044431337448
  0
LINE
  8
_1-5_寸法2
  6
CONTINUOUS
 62
    7
 10
475.3994778067887
 20
538.0215490350148
 11
459.94466458616364
 21
542.16265375665523
  0
LINE
  8
_1-5_寸法2
  6
CONTINUOUS
 62
    7
 10
435.3994778067887
 20
538.0215490350148
 11
475.3994778067887
 21
538.0215490350148
  0
TEXT
  8
_1-5_寸法2
 62
    7
 10
443.3994778067887
 20
538.0215490350148
 40
24
 41
1
 50
0
  1
10
  0
LINE
  8
_1-2_極細2
  6
CONTINUOUS
 62
    2
 10
702.5994782149852
 20
447.22154847180155
 11
705.39947821498504
 21
447.22154847180155
  0
LINE
  8
_1-2_極細2
  6
CENTER1
 62
    2
 10
517.3994778067887
 20
503.686006651752
 11
517.3994778067887
 21
370.73636636398203
  0
ARC
  8
_1-2_極細2
  6
CONTINUOUS
 62
    2
 10
365.39947861474343
 20
402.02154847180202
 40
12.000000000000004
 50
179.99999999999983
 51
269.99999999999977
  0
LINE
  8
_1-2_極細2
  6
CONTINUOUS
 62
    2
 10
353.39947861474343
 20
402.02154847180202
 11
353.39947861474343
 21
480.02154847180202
  0
LINE
  8
_1-2_極細2
  6
CONTINUOUS
 62
    2
 10
365.39947861474343
 20
390.02154847180202
 11
471.39947861474343
 21
390.02154847180202
  0
LINE
  8
_1-2_極細2
  6
CONTINUOUS
 62
    2
 10
473.39947861474343
 20
392.02154847180202
 11
471.39947861474343
 21
390.02154847180202
  0
LINE
  8
_1-2_極細2
  6
CONTINUOUS
 62
    2
 10
473.39947861474343
 20
400.02154847180202
 11
473.39947861474343
 21
392.02154847180202
  0
LINE
  8
_1-2_極細2
  6
CONTINUOUS
 62
    2
 10
471.39947861474343
 20
402.02154847180202
 11
473.39947861474343
 21
400.02154847180202
  0
LINE
  8
_1-2_極細2
  6
CONTINUOUS
 62
    2
 10
365.39947861474343
 20
402.02154847180202
 11
471.39947861474343
 21
402.02154847180202
  0
LINE
  8
_1-2_極細2
  6
CONTINUOUS
 62
    2
 10
355.3994786147432
 20
482.02154847180202
 11
353.39947861474343
 21
480.02154847180202
  0
LINE
  8
_1-2_極細2
  6
CONTINUOUS
 62
    2
 10
363.3994786147432
 20
482.02154847180202
 11
355.3994786147432
 21
482.02154847180202
  0
LINE
  8
_1-2_極細2
  6
CONTINUOUS
 62
    2
 10
365.39947861474343
 20
480.02154847180202
 11
363.3994786147432
 21
482.02154847180202
  0
LINE
  8
_1-2_極細2
  6
CONTINUOUS
 62
    2
 10
365.39947861474343
 20
402.02154847180202
 11
365.39947861474343
 21
480.02154847180202
  0
ARC
  8
_1-2_極細2
  6
CONTINUOUS
 62
    2
 10
669.39947739013769
 20
402.02154847180202
 40
12.000000000000004
 50
269.99999999999977
 51
359.99999999999966
  0
LINE
  8
_1-2_極細2
  6
CONTINUOUS
 62
    2
 10
681.39947739013769
 20
402.02154847180202
 11
681.39947739013769
 21
480.02154847180202
  0
LINE
  8
_1-2_極細2
  6
CONTINUOUS
 62
    2
 10
669.39947739013769
 20
390.02154847180202
 11
563.39947739013735
 21
390.02154847180202
  0
LINE
  8
_1-2_極細2
  6
CONTINUOUS
 62
    2
 10
561.39947739013735
 20
392.02154847180202
 11
563.39947739013735
 21
390.02154847180202
  0
LINE
  8
_1-2_極細2
  6
CONTINUOUS
 62
    2
 10
561.39947739013735
 20
400.02154847180202
 11
561.39947739013735
 21
392.02154847180202
  0
LINE
  8
_1-2_極細2
  6
CONTINUOUS
 62
    2
 10
563.39947739013735
 20
402.02154847180202
 11
561.39947739013735
 21
400.02154847180202
  0
LINE
  8
_1-2_極細2
  6
CONTINUOUS
 62
    2
 10
669.39947739013769
 20
402.02154847180202
 11
563.39947739013735
 21
402.02154847180202
  0
LINE
  8
_1-2_極細2
  6
CONTINUOUS
 62
    2
 10
679.39947739013769
 20
482.02154847180202
 11
681.39947739013769
 21
480.02154847180202
  0
LINE
  8
_1-2_極細2
  6
CONTINUOUS
 62
    2
 10
671.39947739013769
 20
482.02154847180202
 11
679.39947739013769
 21
482.02154847180202
  0
LINE
  8
_1-2_極細2
  6
CONTINUOUS
 62
    2
 10
669.39947739013769
 20
480.02154847180202
 11
671.39947739013769
 21
482.02154847180202
  0
LINE
  8
_1-2_極細2
  6
CONTINUOUS
 62
    2
 10
669.39947739013769
 20
402.02154847180202
 11
669.39947739013769
 21
480.02154847180202
  0
CIRCLE
  8
_1-2_極細2
  6
CONTINUOUS
 62
    2
 10
577.36449654693752
 20
357.96010384215862
 40
4.3812755344353409
  0
CIRCLE
  8
_1-2_極細2
  6
CONTINUOUS
 62
    2
 10
608.77338543582778
 20
351.27195569400897
 40
1.3274074074073723
  0
LINE
  8
_1-2_極細2
  6
CONTINUOUS
 62
    2
 10
290.82138579198465
 20
454.02154847180196
 11
318.82138508424396
 21
482.02154776406121
  0
LINE
  8
_1-2_極細2
  6
CONTINUOUS
 62
    2
 10
267.11940280152214
 20
481.2312537267706
 11
267.90969723708952
 21
482.02154816233781
  0
LINE
  8
_1-2_極細2
  6
DASHED2
 62
    2
 10
316.27722991470023
 20
454.02154847180196
 11
333.39947739013689
 21
471.14379594723846
  0
LINE
  8
_1-2_極細2
  6
DASHED2
 62
    2
 10
267.11940280152214
 20
455.7754096040552
 11
293.36554116066611
 21
482.0215479631994
  0
LINE
  8
_1-2_極細2
  6
CONTINUOUS
 62
    2
 10
353.39947739013735
 20
454.02154847180196
 11
267.11940280152214
 21
454.02154847180196
  0
LINE
  8
_1-2_極細2
  6
CONTINUOUS
 62
    2
 10
333.39947739013689
 20
482.02154847180219
 11
267.11940280152214
 21
482.02154847180219
  0
LINE
  8
_1-2_極細2
  6
CONTINUOUS
 62
    2
 10
763.87003386000163
 20
454.02154847180196
 11
766.44812545815421
 21
456.59964006995421
  0
LINE
  8
_1-2_極細2
  6
CONTINUOUS
 62
    2
 10
712.95834561457036
 20
454.02154847180196
 11
740.9583453051066
 21
482.02154816233781
  0
LINE
  8
_1-2_極細2
  6
DASHED2
 62
    2
 10
738.41418973728616
 20
454.02154847180196
 11
766.41418922868365
 21
482.0215479631994
  0
LINE
  8
_1-2_極細2
  6
DASHED2
 62
    2
 10
701.39947739013701
 20
467.9185243700843
 11
715.50250138152865
 21
482.02154836147565
  0
LINE
  8
_1-2_極細2
  6
CONTINUOUS
 62
    2
 10
681.39947739013769
 20
454.02154847180196
 11
766.44812545815421
 21
454.02154847180196
  0
LINE
  8
_1-2_極細2
  6
CONTINUOUS
 62
    2
 10
701.39947739013769
 20
482.02154847180219
 11
766.44812545815421
 21
482.02154847180219
  0
CIRCLE
  8
_1-2_極細2
  6
CONTINUOUS
 62
    2
 10
396.45223601437488
 20
300.22260756459025
 40
4.3812755344353409
  0
CIRCLE
  8
_1-2_極細2
  6
CONTINUOUS
 62
    2
 10
275.49980092946237
 20
294.88973347058027
 40
1.3274074074073723
  0
CIRCLE
  8
_1-2_極細2
  6
CONTINUOUS
 62
    2
 10
373.51890267971896
 20
324.70200130705371
 40
1.3274074074073723
  0
CIRCLE
  8
_1-2_極細2
  6
CONTINUOUS
 62
    2
 10
289.51890267778174
 20
347.20973347178688
 40
1.3274074074073723
  0
LINE
  8
_1-2_極細2
  6
CONTINUOUS
 62
    2
 10
333.39947739013769
 20
462.82735554554142
 11
342.20528446387675
 21
454.02154847180196
  0
LINE
  8
_1-2_極細2
  6
CONTINUOUS
 62
    2
 10
333.39947739013769
 20
473.00969319462752
 11
352.38762211296273
 21
454.02154847180196
  0
LINE
  8
_1-2_極細2
  6
CONTINUOUS
 62
    2
 10
353.39947739013735
 20
463.19203084371429
 11
334.56995976204882
 21
482.02154847180219
  0
LINE
  8
_1-2_極細2
  6
CONTINUOUS
 62
    2
 10
353.39947739013735
 20
473.37436849280039
 11
344.75229741113583
 21
482.02154847180191
  0
LINE
  8
_1-2_極細2
  6
CONTINUOUS
 62
    2
 10
333.39947739013689
 20
478.39917516898896
 11
337.02185069295047
 21
482.02154847180219
  0
LINE
  8
_1-2_極細2
  6
CONTINUOUS
 62
    2
 10
333.39947739013689
 20
468.21683751990258
 11
347.20418834203622
 21
482.02154847180219
  0
LINE
  8
_1-2_極細2
  6
CONTINUOUS
 62
    2
 10
333.39947739013689
 20
458.03449987081649
 11
353.39947739013735
 21
478.03449987081632
  0
LINE
  8
_1-2_極細2
  6
CONTINUOUS
 62
    2
 10
339.56886364020932
 20
454.02154847180196
 11
353.39947739013735
 21
467.85216222173023
  0
LINE
  8
_1-2_極細2
  6
CONTINUOUS
 62
    2
 10
349.75120128929507
 20
454.02154847180196
 11
353.39947739013735
 21
457.66982457264385
  0
LINE
  8
_1-2_極細2
  6
CONTINUOUS
 62
    2
 10
353.39947739013735
 20
480.02154847180213
 11
353.39947739013735
 21
482.02154847180219
  0
LINE
  8
_1-2_極細2
  6
CONTINUOUS
 62
    2
 10
353.39947739013735
 20
482.02154847180219
 11
333.39947739013689
 21
482.02154847180219
  0
LINE
  8
_1-2_極細2
  6
CONTINUOUS
 62
    2
 10
333.39947739013689
 20
482.02154847180219
 11
333.39947739013689
 21
454.02154847180196
  0
CIRCLE
  8
_1-2_極細2
  6
CONTINUOUS
 62
    2
 10
457.43445823333752
 20
357.96010384215862
 40
4.3812755344353409
  0
CIRCLE
  8
_1-2_極細2
  6
CONTINUOUS
 62
    2
 10
305.41223601111562
 20
448.89862236067427
 40
1.3274074074073723
  0
CIRCLE
  8
_1-2_極細2
  6
CONTINUOUS
 62
    2
 10
439.5840878629657
 20
331.07774419860357
 40
1.3274074074073723
  0
CIRCLE
  8
_1-2_極細2
  6
CONTINUOUS
 62
    2
 10
325.66556934444873
 20
344.09343717549069
 40
4.3812755344353409
  0
CIRCLE
  8
_1-2_極細2
  6
CONTINUOUS
 62
    2
 10
331.97223601111546
 20
406.21343717548984
 40
4.3812755344353409
  0
CIRCLE
  8
_1-2_極細2
  6
CONTINUOUS
 62
    2
 10
318.85223601111522
 20
354.17862236067532
 40
1.3274074074073723
  0
CIRCLE
  8
_1-2_極細2
  6
CONTINUOUS
 62
    2
 10
291.01223601111553
 20
387.778622360675
 40
1.3274074074073723
  0
CIRCLE
  8
_1-2_極細2
  6
CONTINUOUS
 62
    2
 10
340.29223601111516
 20
389.48528902734165
 40
1.3274074074073723
  0
CIRCLE
  8
_1-2_極細2
  6
CONTINUOUS
 62
    2
 10
334.31890267778181
 20
436.84528902734115
 40
1.3274074074073723
  0
CIRCLE
  8
_1-2_極細2
  6
CONTINUOUS
 62
    2
 10
411.94556934444699
 20
302.84528902734269
 40
1.3274074074073723
  0
CIRCLE
  8
_1-2_極細2
  6
CONTINUOUS
 62
    2
 10
402.13223601111451
 20
362.79195569400878
 40
1.3274074074073723
  0
CIRCLE
  8
_1-2_極細2
  6
CONTINUOUS
 62
    2
 10
426.02556934444715
 20
351.27195569400897
 40
1.3274074074073723
  0
CIRCLE
  8
_1-2_極細2
  6
CONTINUOUS
 62
    2
 10
638.34671876589948
 20
300.22260756459025
 40
4.3812755344353409
  0
CIRCLE
  8
_1-2_極細2
  6
CONTINUOUS
 62
    2
 10
759.29915385081222
 20
294.88973347058027
 40
1.3274074074073723
  0
CIRCLE
  8
_1-2_極細2
  6
CONTINUOUS
 62
    2
 10
661.28005210055562
 20
324.70200130705371
 40
1.3274074074073723
  0
CIRCLE
  8
_1-2_極細2
  6
CONTINUOUS
 62
    2
 10
745.28005210249285
 20
347.20973347178688
 40
1.3274074074073723
  0
LINE
  8
_1-2_極細2
  6
CONTINUOUS
 62
    2
 10
701.39947739013701
 20
462.82735554554142
 11
692.59367031639727
 21
454.02154847180196
  0
LINE
  8
_1-2_極細2
  6
CONTINUOUS
 62
    2
 10
701.39947739013701
 20
473.00969319462752
 11
682.41133266731231
 21
454.02154847180196
  0
LINE
  8
_1-2_極細2
  6
CONTINUOUS
 62
    2
 10
681.39947739013769
 20
463.19203084371429
 11
700.22899501822576
 21
482.02154847180219
  0
LINE
  8
_1-2_極細2
  6
CONTINUOUS
 62
    2
 10
681.39947739013769
 20
473.37436849280039
 11
690.04665736913921
 21
482.02154847180191
  0
LINE
  8
_1-2_極細2
  6
CONTINUOUS
 62
    2
 10
701.39947739013769
 20
478.39917516898896
 11
697.77710408732423
 21
482.02154847180219
  0
LINE
  8
_1-2_極細2
  6
CONTINUOUS
 62
    2
 10
701.39947739013769
 20
468.21683751990258
 11
687.59476643823837
 21
482.02154847180219
  0
LINE
  8
_1-2_極細2
  6
CONTINUOUS
 62
    2
 10
701.39947739013769
 20
458.03449987081649
 11
681.39947739013769
 21
478.03449987081632
  0
LINE
  8
_1-2_極細2
  6
CONTINUOUS
 62
    2
 10
695.23009114006527
 20
454.02154847180196
 11
681.39947739013769
 21
467.85216222173023
  0
LINE
  8
_1-2_極細2
  6
CONTINUOUS
 62
    2
 10
685.04775349097929
 20
454.02154847180196
 11
681.39947739013769
 21
457.66982457264385
  0
LINE
  8
_1-2_極細2
  6
CONTINUOUS
 62
    2
 10
681.39947739013769
 20
480.02154847180213
 11
681.39947739013769
 21
482.02154847180219
  0
LINE
  8
_1-2_極細2
  6
CONTINUOUS
 62
    2
 10
681.39947739013769
 20
482.02154847180219
 11
701.39947739013769
 21
482.02154847180219
  0
LINE
  8
_1-2_極細2
  6
CONTINUOUS
 62
    2
 10
701.39947739013769
 20
482.02154847180219
 11
701.39947739013769
 21
454.02154847180196
  0
CIRCLE
  8
_1-2_極細2
  6
CONTINUOUS
 62
    2
 10
729.38671876915942
 20
448.89862236067427
 40
1.3274074074073723
  0
CIRCLE
  8
_1-2_極細2
  6
CONTINUOUS
 62
    2
 10
595.214866917309
 20
331.07774419860357
 40
1.3274074074073723
  0
CIRCLE
  8
_1-2_極細2
  6
CONTINUOUS
 62
    2
 10
709.1333854358254
 20
344.09343717549069
 40
4.3812755344353409
  0
CIRCLE
  8
_1-2_極細2
  6
CONTINUOUS
 62
    2
 10
702.82671876915902
 20
406.21343717548984
 40
4.3812755344353409
  0
CIRCLE
  8
_1-2_極細2
  6
CONTINUOUS
 62
    2
 10
715.94671876915913
 20
354.17862236067532
 40
1.3274074074073723
  0
CIRCLE
  8
_1-2_極細2
  6
CONTINUOUS
 62
    2
 10
743.78671876915928
 20
387.778622360675
 40
1.3274074074073723
  0
CIRCLE
  8
_1-2_極細2
  6
CONTINUOUS
 62
    2
 10
694.50671876915897
 20
389.48528902734165
 40
1.3274074074073723
  0
CIRCLE
  8
_1-2_極細2
  6
CONTINUOUS
 62
    2
 10
700.48005210249289
 20
436.84528902734115
 40
1.3274074074073723
  0
CIRCLE
  8
_1-2_極細2
  6
CONTINUOUS
 62
    2
 10
622.8533854358277
 20
302.84528902734269
 40
1.3274074074073723
  0
CIRCLE
  8
_1-2_極細2
  6
CONTINUOUS
 62
    2
 10
632.66671876916007
 20
362.79195569400878
 40
1.3274074074073723
  0
TEXT
  8
_0-7_枠細線
 62
    5
 10
423.55669247309402
 20
686.72093530493805
 40
32
 41
0.8
 50
0
  1
Ａ－Ａ’断面図
  0
TEXT
  8
_0-7_枠細線
 62
    5
 10
624.79196386925628
 20
686.72093530493805
 40
32
 41
0.6000000000000002
 50
0
  1
Ｓ＝１：２
  0
LINE
  8
_1-5_寸法2
  6
CONTINUOUS
 62
    7
 10
353.39947739013746
 20
498.02154847180196
 11
353.39947739013769
 21
658.02154903501491
  0
LINE
  8
_1-5_寸法2
  6
CONTINUOUS
 62
    7
 10
353.39947739013769
 20
650.02154903501491
 11
368.85429061076275
 21
654.16265375665523
  0
LINE
  8
_1-5_寸法2
  6
CONTINUOUS
 62
    7
 10
353.39947739013769
 20
650.02154903501491
 11
368.85429061076275
 21
645.8804443133746
  0
LINE
  8
_1-5_寸法2
  6
CONTINUOUS
 62
    7
 10
681.39947739013769
 20
498.02154847180202
 11
681.39947739013792
 21
658.02154903501491
  0
LINE
  8
_1-5_寸法2
  6
CONTINUOUS
 62
    7
 10
681.39947739013792
 20
650.02154903501491
 11
665.94466416951286
 21
645.8804443133746
  0
LINE
  8
_1-5_寸法2
  6
CONTINUOUS
 62
    7
 10
681.39947739013792
 20
650.02154903501491
 11
665.94466416951286
 21
654.16265375665535
  0
LINE
  8
_1-5_寸法2
  6
CONTINUOUS
 62
    7
 10
353.39947739013769
 20
650.02154903501491
 11
681.39947739013792
 21
650.02154903501491
  0
TEXT
  8
_1-5_寸法2
 62
    7
 10
505.39947739013792
 20
650.02154903501491
 40
24
 41
1
 50
0
  1
82
  0
LINE
  8
_1-2_極細2
  6
CONTINUOUS
 62
    2
 10
471.39947861474343
 20
390.02154847180202
 11
473.39947861474343
 21
390.02154847180202
  0
LINE
  8
_1-2_極細2
  6
CONTINUOUS
 62
    2
 10
473.39947861474343
 20
390.02154847180202
 11
473.39947861474343
 21
310.02154847180202
  0
LINE
  8
_1-2_極細2
  6
CONTINUOUS
 62
    2
 10
563.39947699883396
 20
390.02154847180202
 11
561.39947699883396
 21
390.02154847180202
  0
LINE
  8
_1-2_極細2
  6
CONTINUOUS
 62
    2
 10
561.39947699883396
 20
390.02154847180202
 11
561.39947699883396
 21
310.02154847180202
  0
LINE
  8
_1-5_寸法2
  6
CONTINUOUS
 62
    7
 10
353.39947861474343
 20
386.02154847180202
 11
353.3994786147432
 21
302.02154847180202
  0
LINE
  8
_1-5_寸法2
  6
CONTINUOUS
 62
    7
 10
353.3994786147432
 20
310.02154847180202
 11
368.85429183536826
 21
314.16265319344234
  0
LINE
  8
_1-5_寸法2
  6
CONTINUOUS
 62
    7
 10
353.3994786147432
 20
310.02154847180202
 11
368.85429183536826
 21
305.8804437501617
  0
LINE
  8
_1-5_寸法2
  6
CONTINUOUS
 62
    7
 10
473.39947861474343
 20
374.02154847180202
 11
473.39947861474332
 21
302.02154847180202
  0
LINE
  8
_1-5_寸法2
  6
CONTINUOUS
 62
    7
 10
473.39947861474332
 20
310.02154847180202
 11
457.94466539411815
 21
305.8804437501617
  0
LINE
  8
_1-5_寸法2
  6
CONTINUOUS
 62
    7
 10
473.39947861474332
 20
310.02154847180202
 11
457.94466539411826
 21
314.16265319344234
  0
LINE
  8
_1-5_寸法2
  6
CONTINUOUS
 62
    7
 10
353.3994786147432
 20
310.02154847180202
 11
473.39947861474332
 21
310.02154847180202
  0
TEXT
  8
_1-5_寸法2
 62
    7
 10
401.39947861474332
 20
310.02154847180202
 40
24
 41
1
 50
0
  1
30
  0
LINE
  8
_1-5_寸法2
  6
CONTINUOUS
 62
    7
 10
473.39947861474332
 20
310.02154847180202
 11
488.85429183536849
 21
314.16265319344222
  0
LINE
  8
_1-5_寸法2
  6
CONTINUOUS
 62
    7
 10
473.39947861474332
 20
310.02154847180202
 11
488.85429183536837
 21
305.88044375016159
  0
LINE
  8
_1-5_寸法2
  6
CONTINUOUS
 62
    7
 10
561.39947699883396
 20
374.02154847180202
 11
561.39947699883373
 21
302.02154847180202
  0
LINE
  8
_1-5_寸法2
  6
CONTINUOUS
 62
    7
 10
561.39947699883373
 20
310.02154847180202
 11
545.94466377820868
 21
305.8804437501617
  0
LINE
  8
_1-5_寸法2
  6
CONTINUOUS
 62
    7
 10
561.39947699883373
 20
310.02154847180202
 11
545.94466377820868
 21
314.16265319344234
  0
LINE
  8
_1-5_寸法2
  6
CONTINUOUS
 62
    7
 10
473.39947861474332
 20
310.02154847180202
 11
561.39947699883373
 21
310.02154847180202
  0
TEXT
  8
_1-5_寸法2
 62
    7
 10
505.39947780678858
 20
310.02154847180202
 40
24
 41
1
 50
0
  1
22
  0
LINE
  8
_1-5_寸法2
  6
CONTINUOUS
 62
    7
 10
561.39947699883373
 20
310.02154847180202
 11
576.8542902194589
 21
314.16265319344222
  0
LINE
  8
_1-5_寸法2
  6
CONTINUOUS
 62
    7
 10
561.39947699883373
 20
310.02154847180202
 11
576.85429021945879
 21
305.88044375016159
  0
LINE
  8
_1-5_寸法2
  6
CONTINUOUS
 62
    7
 10
681.39947739013758
 20
386.02154847180202
 11
681.39947739013735
 21
302.02154847180202
  0
LINE
  8
_1-5_寸法2
  6
CONTINUOUS
 62
    7
 10
681.39947739013735
 20
310.02154847180202
 11
665.94466416951229
 21
305.8804437501617
  0
LINE
  8
_1-5_寸法2
  6
CONTINUOUS
 62
    7
 10
681.39947739013735
 20
310.02154847180202
 11
665.94466416951229
 21
314.16265319344234
  0
LINE
  8
_1-5_寸法2
  6
CONTINUOUS
 62
    7
 10
561.39947699883373
 20
310.02154847180202
 11
681.39947739013735
 21
310.02154847180202
  0
TEXT
  8
_1-5_寸法2
 62
    7
 10
609.3994771944856
 20
310.02154847180202
 40
24
 41
1
 50
0
  1
30
  0
LINE
  8
_1-5_寸法2
  6
CONTINUOUS
 62
    7
 10
332.59947739013683
 20
390.02154847180208
 11
265.39947861474343
 21
390.02154847180225
  0
LINE
  8
_1-5_寸法2
  6
CONTINUOUS
 62
    7
 10
273.39947861474343
 20
390.02154847180225
 11
269.25837389310323
 21
405.47636169242736
  0
LINE
  8
_1-5_寸法2
  6
CONTINUOUS
 62
    7
 10
273.39947861474343
 20
390.02154847180225
 11
277.54058333638386
 21
405.47636169242736
  0
LINE
  8
_1-5_寸法2
  6
CONTINUOUS
 62
    7
 10
337.39947739013735
 20
482.02154847180225
 11
265.39947861474343
 21
482.02154847180242
  0
LINE
  8
_1-5_寸法2
  6
CONTINUOUS
 62
    7
 10
273.39947861474343
 20
482.02154847180242
 11
277.54058333638375
 21
466.56673525117731
  0
LINE
  8
_1-5_寸法2
  6
CONTINUOUS
 62
    7
 10
273.39947861474343
 20
482.02154847180242
 11
269.25837389310311
 21
466.56673525117736
  0
LINE
  8
_1-5_寸法2
  6
CONTINUOUS
 62
    7
 10
273.39947861474343
 20
390.02154847180225
 11
273.39947861474343
 21
482.02154847180242
  0
TEXT
  8
_1-5_寸法2
 62
    7
 10
273.39947861474343
 20
424.02154847180236
 40
24
 41
1
 50
90
  1
23
  0
LINE
  8
_1-3_細線2
  6
CONTINUOUS
 62
    4
 10
532.5994778067876
 20
469.22154903501416
 11
502.19947780678979
 21
469.22154903501416
  0
LINE
  8
_1-3_細線2
  6
CONTINUOUS
 62
    4
 10
502.19947780678979
 20
469.22154903501416
 11
502.19947780678979
 21
410.02154903501469
  0
ARC
  8
_1-3_細線2
  6
CONTINUOUS
 62
    4
 10
532.59947780678885
 20
469.22154903501462
 40
4.7999999999999998
 50
0
 51
89.999999999999915
  0
LINE
  8
_1-3_細線2
  6
CONTINUOUS
 62
    4
 10
497.3994778067887
 20
469.22154903501462
 11
497.3994778067887
 21
410.02154903501469
  0
LINE
  8
_1-3_細線2
  6
CONTINUOUS
 62
    4
 10
532.59947780678885
 20
474.02154903501469
 11
502.19947780678888
 21
474.02154903501469
  0
ARC
  8
_1-3_細線2
  6
CONTINUOUS
 62
    4
 10
502.19947780678888
 20
469.22154903501462
 40
4.7999999999999998
 50
89.999999999999915
 51
179.99999999999983
  0
LINE
  8
_1-3_細線2
  6
CONTINUOUS
 62
    4
 10
497.3994778067887
 20
410.02154903501469
 11
502.19947780678979
 21
410.02154903501469
  0
LINE
  8
_1-3_細線2
  6
CONTINUOUS
 62
    4
 10
537.3994778067887
 20
450.02154847180202
 11
532.5994778067876
 21
450.02154847180174
  0
LINE
  8
_1-3_細線2
  6
CONTINUOUS
 62
    4
 10
532.5994778067876
 20
469.22154903501416
 11
532.5994778067876
 21
450.02154847180202
  0
LINE
  8
_1-3_細線2
  6
CONTINUOUS
 62
    4
 10
537.3994778067887
 20
469.22154903501462
 11
537.3994778067887
 21
450.02154847180202
  0
LINE
  8
_1-3_細線2
  6
CONTINUOUS
 62
    4
 10
475.39947780679017
 20
443.82154847180209
 11
497.3994778067887
 21
443.82154847180209
  0
LINE
  8
_1-3_細線2
  6
CONTINUOUS
 62
    4
 10
475.39947780679017
 20
416.22154847180201
 11
497.3994778067887
 21
416.22154847180201
  0
LINE
  8
_1-3_細線2
  6
CONTINUOUS
 62
    4
 10
559.39947821498617
 20
416.22154847180201
 11
502.19947821498704
 21
416.22154847180201
  0
LINE
  8
_1-3_細線2
  6
CONTINUOUS
 62
    4
 10
559.39947821498617
 20
443.82154847180209
 11
502.19947821498704
 21
443.82154847180209
  0
LINE
  8
_1-3_細線2
  6
CONTINUOUS
 62
    4
 10
626.19947821498567
 20
440.36154903501449
 11
626.19947821498567
 21
424.48154903501438
  0
LINE
  8
_1-3_細線2
  6
CONTINUOUS
 62
    4
 10
626.19947821498567
 20
469.22154903501416
 11
626.19947821498567
 21
410.02154903501469
  0
LINE
  8
_1-3_細線2
  6
CONTINUOUS
 62
    4
 10
594.59947821498417
 20
469.22154903501416
 11
564.19947821498465
 21
469.22154903501416
  0
LINE
  8
_1-3_細線2
  6
CONTINUOUS
 62
    4
 10
656.59947821498463
 20
469.22154903501416
 11
626.19947821498567
 21
469.22154903501416
  0
LINE
  8
_1-3_細線2
  6
CONTINUOUS
 62
    4
 10
564.19947821498465
 20
469.22154903501416
 11
564.19947821498465
 21
410.02154903501469
  0
ARC
  8
_1-3_細線2
  6
CONTINUOUS
 62
    4
 10
656.59947821498577
 20
469.22154903501462
 40
4.7999999999999998
 50
0
 51
89.999999999999915
  0
LINE
  8
_1-3_細線2
  6
CONTINUOUS
 62
    4
 10
621.39947821498458
 20
469.22154903501462
 11
621.39947821498458
 21
410.02154903501469
  0
LINE
  8
_1-3_細線2
  6
CONTINUOUS
 62
    4
 10
656.59947821498577
 20
474.02154903501469
 11
626.19947821498454
 21
474.02154903501469
  0
ARC
  8
_1-3_細線2
  6
CONTINUOUS
 62
    4
 10
626.19947821498454
 20
469.22154903501462
 40
4.7999999999999998
 50
89.999999999999915
 51
179.99999999999983
  0
ARC
  8
_1-3_細線2
  6
CONTINUOUS
 62
    4
 10
594.59947821498531
 20
469.22154903501462
 40
4.7999999999999998
 50
0
 51
89.999999999999915
  0
LINE
  8
_1-3_細線2
  6
CONTINUOUS
 62
    4
 10
559.39947821498617
 20
469.22154903501462
 11
559.39947821498617
 21
410.02154903501469
  0
LINE
  8
_1-3_細線2
  6
CONTINUOUS
 62
    4
 10
594.59947821498531
 20
474.02154903501469
 11
564.19947821498647
 21
474.02154903501469
  0
ARC
  8
_1-3_細線2
  6
CONTINUOUS
 62
    4
 10
564.19947821498647
 20
469.22154903501462
 40
4.7999999999999998
 50
89.999999999999915
 51
179.99999999999983
  0
LINE
  8
_1-3_細線2
  6
CONTINUOUS
 62
    4
 10
559.39947821498617
 20
410.02154903501469
 11
564.19947821498465
 21
410.02154903501469
  0
LINE
  8
_1-3_細線2
  6
CONTINUOUS
 62
    4
 10
621.39947821498458
 20
410.02154903501469
 11
626.19947821498567
 21
410.02154903501469
  0
LINE
  8
_1-3_細線2
  6
CONTINUOUS
 62
    4
 10
661.39947821498572
 20
450.02154847180202
 11
656.59947821498463
 21
450.02154847180202
  0
LINE
  8
_1-3_細線2
  6
CONTINUOUS
 62
    4
 10
599.39947821498527
 20
450.02154847180202
 11
594.59947821498417
 21
450.02154847180202
  0
LINE
  8
_1-3_細線2
  6
CONTINUOUS
 62
    4
 10
594.59947821498417
 20
469.22154903501416
 11
594.59947821498417
 21
450.02154847180202
  0
LINE
  8
_1-3_細線2
  6
CONTINUOUS
 62
    4
 10
656.59947821498463
 20
469.22154903501416
 11
656.59947821498463
 21
450.02154847180202
  0
LINE
  8
_1-3_細線2
  6
CONTINUOUS
 62
    4
 10
661.39947821498572
 20
469.22154903501462
 11
661.39947821498572
 21
450.02154847180202
  0
LINE
  8
_1-3_細線2
  6
CONTINUOUS
 62
    4
 10
599.39947821498527
 20
469.22154903501462
 11
599.39947821498527
 21
450.02154847180202
  0
ARC
  8
_1-3_細線2
  6
CONTINUOUS
 62
    4
 10
645.38647062318535
 20
410.82154847180311
 40
0.8000000000000002
 50
269.99999999999977
 51
359.99999999999966
  0
LINE
  8
_1-3_細線2
  6
CONTINUOUS
 62
    4
 10
642.19947862318452
 20
410.02154847180282
 11
645.38647062318535
 21
410.02154847180282
  0
ARC
  8
_1-3_細線2
  6
CONTINUOUS
 62
    4
 10
645.38647062318535
 20
449.22154847180218
 40
0.8000000000000002
 50
0
 51
89.999999999999915
  0
LINE
  8
_1-3_細線2
  6
CONTINUOUS
 62
    4
 10
642.19947862318452
 20
450.02154847180356
 11
645.38647062318535
 21
450.02154847180356
  0
LINE
  8
_1-3_細線2
  6
CONTINUOUS
 62
    4
 10
646.18647062318644
 20
428.02154847180282
 11
646.18647062318644
 21
410.82154847180311
  0
LINE
  8
_1-3_細線2
  6
CONTINUOUS
 62
    4
 10
646.18647062318644
 20
449.22154847180218
 11
646.18647062318644
 21
428.02154847180282
  0
ARC
  8
_1-3_細線2
  6
CONTINUOUS
 62
    4
 10
640.19947862318452
 20
466.02154847180202
 40
2
 50
0
 51
89.999999999999915
  0
LINE
  8
_1-3_細線2
  6
CONTINUOUS
 62
    4
 10
628.19947862318452
 20
468.02154847180202
 11
640.19947862318452
 21
468.02154847180202
  0
ARC
  8
_1-3_細線2
  6
CONTINUOUS
 62
    4
 10
628.19947862318452
 20
466.02154847180202
 40
2
 50
89.999999999999915
 51
179.99999999999983
  0
LINE
  8
_1-3_細線2
  6
CONTINUOUS
 62
    4
 10
642.19947862318452
 20
466.02154847180202
 11
642.19947862318452
 21
404.02154847180202
  0
ARC
  8
_1-3_細線2
  6
CONTINUOUS
 62
    4
 10
640.19947862318452
 20
404.02154847180202
 40
2
 50
269.99999999999977
 51
359.99999999999966
  0
LINE
  8
_1-3_細線2
  6
CONTINUOUS
 62
    4
 10
640.19947862318452
 20
402.02154847180202
 11
628.19947862318452
 21
402.02154847180202
  0
LINE
  8
_1-3_細線2
  6
CONTINUOUS
 62
    4
 10
626.19947862318452
 20
404.02154847180202
 11
626.19947862318452
 21
466.02154847180202
  0
ARC
  8
_1-3_細線2
  6
CONTINUOUS
 62
    4
 10
628.19947862318452
 20
404.02154847180202
 40
2
 50
179.99999999999983
 51
269.99999999999977
  0
LINE
  8
_1-3_細線2
  6
CONTINUOUS
 62
    4
 10
621.399478623184
 20
416.22154847180201
 11
564.19947862318531
 21
416.22154847180201
  0
LINE
  8
_1-3_細線2
  6
CONTINUOUS
 62
    4
 10
621.399478623184
 20
443.82154847180209
 11
564.19947862318531
 21
443.82154847180209
  0
LINE
  8
_1-2_極細2
  6
CONTINUOUS
 62
    2
 10
646.18647062318644
 20
430.02154847180202
 11
658.20453462318676
 21
430.02154847180202
  0
LINE
  8
_1-3_細線2
  6
CONTINUOUS
 62
    4
 10
646.18647062318644
 20
416.02154847180384
 11
658.20458262318425
 21
416.02154847180384
  0
ARC
  8
_1-3_細線2
  6
CONTINUOUS
 62
    4
 10
658.20458262318425
 20
416.82154847180311
 40
0.8000000000000002
 50
269.99999999999977
 51
359.99999999999966
  0
ARC
  8
_1-2_極細2
  6
CONTINUOUS
 62
    2
 10
627.97266262318601
 20
423.0209644718044
 40
31.031824
 50
346.96432999999962
 51
13.038021999994625
  0
ARC
  8
_1-3_細線2
  6
CONTINUOUS
 62
    4
 10
658.20458262318425
 20
443.22154847180428
 40
0.8000000000000002
 50
0
 51
89.999999999999915
  0
ARC
  8
_1-2_極細2
  6
CONTINUOUS
 62
    2
 10
627.97266262318601
 20
437.02212447180239
 40
31.031824
 50
346.96197800000084
 51
13.035669999999676
  0
LINE
  8
_1-3_細線2
  6
CONTINUOUS
 62
    4
 10
646.18647062318644
 20
444.02154847180356
 11
658.20458262318425
 21
444.02154847180356
  0
LINE
  8
_1-3_細線2
  6
CONTINUOUS
 62
    4
 10
659.00458262318591
 20
416.82154847180311
 11
659.00458262318591
 21
443.22154847180428
  0
LINE
  8
_1-3_細線2
  6
CONTINUOUS
 62
    4
 10
408.5994778067909
 20
469.22154903501416
 11
408.5994778067909
 21
410.02154903501469
  0
LINE
  8
_1-3_細線2
  6
CONTINUOUS
 62
    4
 10
440.19947780678945
 20
469.22154903501416
 11
470.59947780678999
 21
469.22154903501416
  0
LINE
  8
_1-3_細線2
  6
CONTINUOUS
 62
    4
 10
378.19947780679126
 20
469.22154903501416
 11
408.5994778067909
 21
469.22154903501416
  0
LINE
  8
_1-3_細線2
  6
CONTINUOUS
 62
    4
 10
470.59947780678999
 20
469.22154903501416
 11
470.59947780678999
 21
410.02154903501469
  0
LINE
  8
_1-3_細線2
  6
CONTINUOUS
 62
    4
 10
475.39947780679017
 20
469.2215490350145
 11
475.39947780679017
 21
410.02154903501469
  0
ARC
  8
_1-3_細線2
  6
CONTINUOUS
 62
    4
 10
470.59947780679022
 20
469.22154903501462
 40
4.7999999999999998
 50
359.99999999999829
 51
90.000000000001677
  0
LINE
  8
_1-3_細線2
  6
CONTINUOUS
 62
    4
 10
440.19947780678922
 20
474.02154903501469
 11
470.59947780678999
 21
474.02154903501469
  0
ARC
  8
_1-3_細線2
  6
CONTINUOUS
 62
    4
 10
440.19947780678933
 20
469.22154903501462
 40
4.7999999999999998
 50
90.000000000001364
 51
180.00000000000099
  0
LINE
  8
_1-3_細線2
  6
CONTINUOUS
 62
    4
 10
413.39947780678926
 20
469.2215490350145
 11
413.39947780678926
 21
410.02154903501469
  0
ARC
  8
_1-3_細線2
  6
CONTINUOUS
 62
    4
 10
408.59947780678942
 20
469.22154903501462
 40
4.7999999999999998
 50
359.99999999999829
 51
89.999999999999545
  0
LINE
  8
_1-3_細線2
  6
CONTINUOUS
 62
    4
 10
378.19947780679013
 20
474.02154903501469
 11
408.59947780678942
 21
474.02154903501469
  0
ARC
  8
_1-3_細線2
  6
CONTINUOUS
 62
    4
 10
378.19947780679013
 20
469.22154903501462
 40
4.7999999999999998
 50
89.999999999999915
 51
179.99999999999983
  0
LINE
  8
_1-3_細線2
  6
CONTINUOUS
 62
    4
 10
408.5994778067909
 20
410.02154903501469
 11
413.39947780678926
 21
410.02154903501469
  0
LINE
  8
_1-3_細線2
  6
CONTINUOUS
 62
    4
 10
470.59947780678999
 20
410.02154903501469
 11
475.39947780679017
 21
410.02154903501469
  0
LINE
  8
_1-3_細線2
  6
CONTINUOUS
 62
    4
 10
373.39947780679017
 20
450.02154847180202
 11
378.19947780679126
 21
450.02154847180174
  0
LINE
  8
_1-3_細線2
  6
CONTINUOUS
 62
    4
 10
435.39947780678926
 20
450.02154847180202
 11
440.19947780679036
 21
450.02154847180174
  0
LINE
  8
_1-3_細線2
  6
CONTINUOUS
 62
    4
 10
378.19947780679126
 20
469.22154903501416
 11
378.19947780679126
 21
450.02154847180202
  0
LINE
  8
_1-3_細線2
  6
CONTINUOUS
 62
    4
 10
440.19947780678945
 20
469.22154903501416
 11
440.19947780679036
 21
450.02154847180202
  0
LINE
  8
_1-3_細線2
  6
CONTINUOUS
 62
    4
 10
435.39947780678926
 20
469.2215490350145
 11
435.39947780678926
 21
450.02154847180202
  0
LINE
  8
_1-3_細線2
  6
CONTINUOUS
 62
    4
 10
373.39947780679017
 20
469.22154903501462
 11
373.39947780679017
 21
450.02154847180202
  0
ARC
  8
_1-3_細線2
  6
CONTINUOUS
 62
    4
 10
389.41248580679007
 20
410.82154847180311
 40
0.8000000000000002
 50
179.99999999999983
 51
269.99999999999977
  0
LINE
  8
_1-3_細線2
  6
CONTINUOUS
 62
    4
 10
392.5994778067909
 20
410.02154847180282
 11
389.41248580679007
 21
410.02154847180282
  0
ARC
  8
_1-3_細線2
  6
CONTINUOUS
 62
    4
 10
389.41248580679007
 20
449.22154847180218
 40
0.8000000000000002
 50
89.999999999999915
 51
179.99999999999983
  0
LINE
  8
_1-3_細線2
  6
CONTINUOUS
 62
    4
 10
392.5994778067909
 20
450.02154847180356
 11
389.41248580679007
 21
450.02154847180356
  0
LINE
  8
_1-3_細線2
  6
CONTINUOUS
 62
    4
 10
388.61248580678875
 20
428.02154847180282
 11
388.61248580678875
 21
410.82154847180311
  0
LINE
  8
_1-3_細線2
  6
CONTINUOUS
 62
    4
 10
388.61248580678875
 20
449.22154847180218
 11
388.61248580678875
 21
428.02154847180282
  0
ARC
  8
_1-3_細線2
  6
CONTINUOUS
 62
    4
 10
394.5994778067909
 20
466.02154847180202
 40
2
 50
89.999999999999915
 51
179.99999999999983
  0
LINE
  8
_1-3_細線2
  6
CONTINUOUS
 62
    4
 10
406.5994778067909
 20
468.02154847180202
 11
394.5994778067909
 21
468.02154847180202
  0
ARC
  8
_1-3_細線2
  6
CONTINUOUS
 62
    4
 10
406.5994778067909
 20
466.02154847180202
 40
2
 50
0
 51
89.999999999999915
  0
LINE
  8
_1-3_細線2
  6
CONTINUOUS
 62
    4
 10
392.5994778067909
 20
466.02154847180202
 11
392.5994778067909
 21
404.02154847180202
  0
ARC
  8
_1-3_細線2
  6
CONTINUOUS
 62
    4
 10
394.5994778067909
 20
404.02154847180202
 40
2
 50
179.99999999999983
 51
269.99999999999977
  0
LINE
  8
_1-3_細線2
  6
CONTINUOUS
 62
    4
 10
394.5994778067909
 20
402.02154847180202
 11
406.5994778067909
 21
402.02154847180202
  0
LINE
  8
_1-3_細線2
  6
CONTINUOUS
 62
    4
 10
408.5994778067909
 20
404.02154847180202
 11
408.5994778067909
 21
466.02154847180202
  0
ARC
  8
_1-3_細線2
  6
CONTINUOUS
 62
    4
 10
406.5994778067909
 20
404.02154847180202
 40
2
 50
269.99999999999977
 51
359.99999999999966
  0
LINE
  8
_1-3_細線2
  6
CONTINUOUS
 62
    4
 10
413.39947780679086
 20
416.22154847180201
 11
470.59947780678999
 21
416.22154847180201
  0
LINE
  8
_1-3_細線2
  6
CONTINUOUS
 62
    4
 10
413.39947780679086
 20
443.82154847180209
 11
470.59947780678999
 21
443.82154847180209
  0
LINE
  8
_1-2_極細2
  6
CONTINUOUS
 62
    2
 10
388.61248580678875
 20
430.02154847180202
 11
376.5944218067882
 21
430.02154847180202
  0
LINE
  8
_1-3_細線2
  6
CONTINUOUS
 62
    4
 10
388.61248580678875
 20
416.02154847180384
 11
376.59437380679083
 21
416.02154847180384
  0
ARC
  8
_1-3_細線2
  6
CONTINUOUS
 62
    4
 10
376.59437380679083
 20
416.82154847180311
 40
0.8000000000000002
 50
179.99999999999983
 51
269.99999999999977
  0
ARC
  8
_1-2_極細2
  6
CONTINUOUS
 62
    2
 10
406.82629380678918
 20
423.0209644718044
 40
31.031824
 50
166.96197800000505
 51
193.03566999999961
  0
ARC
  8
_1-3_細線2
  6
CONTINUOUS
 62
    4
 10
376.59437380679083
 20
443.22154847180428
 40
0.8000000000000002
 50
89.999999999999915
 51
179.99999999999983
  0
ARC
  8
_1-2_極細2
  6
CONTINUOUS
 62
    2
 10
406.82629380678918
 20
437.02212447180239
 40
31.031824
 50
166.96433000000002
 51
193.03802199999836
  0
LINE
  8
_1-3_細線2
  6
CONTINUOUS
 62
    4
 10
388.61248580678875
 20
444.02154847180356
 11
376.59437380679083
 21
444.02154847180356
  0
LINE
  8
_1-3_細線2
  6
CONTINUOUS
 62
    4
 10
375.79437380678905
 20
416.82154847180311
 11
375.79437380678905
 21
443.22154847180428
  0
LINE
  8
_1-2_極細2
  6
CENTER1
 62
    2
 10
383.94713615382011
 20
430.02154847180202
 11
652.14431174667652
 21
430.02154847180202
  0
TEXT
  8
_0-7_枠細線
 62
    5
 10
1544.7999999999995
 20
112
 40
32.000000000000007
 41
0.5999999999999997
 50
0
  1
表面形状については記号表参照のこと
  0
LINE
  8
_0-0_計極細
  6
CONTINUOUS
 62
    2
 10
215.83160960506711
 20
1219.2005507263946
 11
215.83161188604208
 21
1213.700550726395
  0
LINE
  8
_0-0_計極細
  6
CONTINUOUS
 62
    2
 10
222.7316095748638
 20
1219.2005507263946
 11
222.73161188604195
 21
1213.700550726395
  0
LINE
  8
_0-0_計極細
  6
CONTINUOUS
 62
    2
 10
215.83161189529369
 20
1203.700550726395
 11
215.83161189529369
 21
1198.200550726395
  0
LINE
  8
_0-0_計極細
  6
CONTINUOUS
 62
    2
 10
222.73161189541611
 20
1203.700550726395
 11
222.73161189541611
 21
1198.200550726395
  0
LINE
  8
_0-0_計極細
  6
CONTINUOUS
 62
    2
 10
215.83161189529369
 20
1182.7005507263955
 11
215.83161189529369
 21
1188.200550726395
  0
LINE
  8
_0-0_計極細
  6
CONTINUOUS
 62
    2
 10
222.73161189541611
 20
1182.7005507263955
 11
222.73161189541611
 21
1188.200550726395
  0
LINE
  8
_0-0_計極細
  6
CONTINUOUS
 62
    2
 10
215.83161189529369
 20
1167.2005507263959
 11
215.83161189529369
 21
1172.7005507263955
  0
LINE
  8
_0-0_計極細
  6
CONTINUOUS
 62
    2
 10
222.73161189541611
 20
1167.2005507263959
 11
222.73161189541611
 21
1172.7005507263955
  0
LINE
  8
_0-0_計極細
  6
CONTINUOUS
 62
    2
 10
506.831609605067
 20
1219.2005507263946
 11
506.83161188604197
 21
1213.700550726395
  0
LINE
  8
_0-0_計極細
  6
CONTINUOUS
 62
    2
 10
513.73160957486368
 20
1219.2005507263946
 11
513.73161188604183
 21
1213.700550726395
  0
LINE
  8
_0-0_計極細
  6
CONTINUOUS
 62
    2
 10
506.83161189529358
 20
1203.700550726395
 11
506.83161189529358
 21
1198.200550726395
  0
LINE
  8
_0-0_計極細
  6
CONTINUOUS
 62
    2
 10
513.73161189541599
 20
1203.700550726395
 11
513.73161189541599
 21
1198.200550726395
  0
LINE
  8
_0-0_計極細
  6
CONTINUOUS
 62
    2
 10
506.83161189529358
 20
1182.7005507263955
 11
506.83161189529358
 21
1188.200550726395
  0
LINE
  8
_0-0_計極細
  6
CONTINUOUS
 62
    2
 10
513.73161189541599
 20
1182.7005507263955
 11
513.73161189541599
 21
1188.200550726395
  0
LINE
  8
_0-0_計極細
  6
CONTINUOUS
 62
    2
 10
506.83161189529358
 20
1167.2005507263959
 11
506.83161189529358
 21
1172.7005507263955
  0
LINE
  8
_0-0_計極細
  6
CONTINUOUS
 62
    2
 10
513.73161189541599
 20
1167.2005507263959
 11
513.73161189541599
 21
1172.7005507263955
  0
LINE
  8
_0-0_計極細
  6
CONTINUOUS
 62
    2
 10
797.83160960506689
 20
1219.2005507263946
 11
797.83161188604186
 21
1213.700550726395
  0
LINE
  8
_0-0_計極細
  6
CONTINUOUS
 62
    2
 10
804.73160957486357
 20
1219.2005507263946
 11
804.73161188604172
 21
1213.700550726395
  0
LINE
  8
_0-0_計極細
  6
CONTINUOUS
 62
    2
 10
797.83161189529346
 20
1203.700550726395
 11
797.83161189529346
 21
1198.200550726395
  0
LINE
  8
_0-0_計極細
  6
CONTINUOUS
 62
    2
 10
804.73161189541588
 20
1203.700550726395
 11
804.73161189541588
 21
1198.200550726395
  0
LINE
  8
_0-0_計極細
  6
CONTINUOUS
 62
    2
 10
797.83161189529346
 20
1182.7005507263955
 11
797.83161189529346
 21
1188.200550726395
  0
LINE
  8
_0-0_計極細
  6
CONTINUOUS
 62
    2
 10
804.73161189541588
 20
1182.7005507263955
 11
804.73161189541588
 21
1188.200550726395
  0
LINE
  8
_0-0_計極細
  6
CONTINUOUS
 62
    2
 10
797.83161189529346
 20
1167.2005507263959
 11
797.83161189529346
 21
1172.7005507263955
  0
LINE
  8
_0-0_計極細
  6
CONTINUOUS
 62
    2
 10
804.73161189541588
 20
1167.2005507263959
 11
804.73161189541588
 21
1172.7005507263955
  0
LINE
  8
_0-0_計極細
  6
CONTINUOUS
 62
    2
 10
1088.8316096050669
 20
1219.2005507263946
 11
1088.8316118860419
 21
1213.700550726395
  0
LINE
  8
_0-0_計極細
  6
CONTINUOUS
 62
    2
 10
1095.7316095748636
 20
1219.2005507263946
 11
1095.7316118860417
 21
1213.700550726395
  0
LINE
  8
_0-0_計極細
  6
CONTINUOUS
 62
    2
 10
1088.8316118952935
 20
1203.700550726395
 11
1088.8316118952935
 21
1198.200550726395
  0
LINE
  8
_0-0_計極細
  6
CONTINUOUS
 62
    2
 10
1095.7316118954159
 20
1203.700550726395
 11
1095.7316118954159
 21
1198.200550726395
  0
LINE
  8
_0-0_計極細
  6
CONTINUOUS
 62
    2
 10
1088.8316118952935
 20
1182.7005507263955
 11
1088.8316118952935
 21
1188.200550726395
  0
LINE
  8
_0-0_計極細
  6
CONTINUOUS
 62
    2
 10
1095.7316118954159
 20
1182.7005507263955
 11
1095.7316118954159
 21
1188.200550726395
  0
LINE
  8
_0-0_計極細
  6
CONTINUOUS
 62
    2
 10
1088.8316118952935
 20
1167.2005507263959
 11
1088.8316118952935
 21
1172.7005507263955
  0
LINE
  8
_0-0_計極細
  6
CONTINUOUS
 62
    2
 10
1095.7316118954159
 20
1167.2005507263959
 11
1095.7316118954159
 21
1172.7005507263955
  0
LINE
  8
_0-0_計極細
  6
CONTINUOUS
 62
    2
 10
1379.8316096050669
 20
1219.2005507263946
 11
1379.8316118860419
 21
1213.700550726395
  0
LINE
  8
_0-0_計極細
  6
CONTINUOUS
 62
    2
 10
1386.7316095748636
 20
1219.2005507263946
 11
1386.7316118860417
 21
1213.700550726395
  0
LINE
  8
_0-0_計極細
  6
CONTINUOUS
 62
    2
 10
1379.8316118952935
 20
1203.700550726395
 11
1379.8316118952935
 21
1198.200550726395
  0
LINE
  8
_0-0_計極細
  6
CONTINUOUS
 62
    2
 10
1386.7316118954159
 20
1203.700550726395
 11
1386.7316118954159
 21
1198.200550726395
  0
LINE
  8
_0-0_計極細
  6
CONTINUOUS
 62
    2
 10
1379.8316118952935
 20
1182.7005507263955
 11
1379.8316118952935
 21
1188.200550726395
  0
LINE
  8
_0-0_計極細
  6
CONTINUOUS
 62
    2
 10
1386.7316118954159
 20
1182.7005507263955
 11
1386.7316118954159
 21
1188.200550726395
  0
LINE
  8
_0-0_計極細
  6
CONTINUOUS
 62
    2
 10
1379.8316118952935
 20
1167.2005507263959
 11
1379.8316118952935
 21
1172.7005507263955
  0
LINE
  8
_0-0_計極細
  6
CONTINUOUS
 62
    2
 10
1386.7316118954159
 20
1167.2005507263959
 11
1386.7316118954159
 21
1172.7005507263955
  0
LINE
  8
_0-0_計極細
  6
CONTINUOUS
 62
    2
 10
1670.8316096050669
 20
1219.2005507263946
 11
1670.8316118860419
 21
1213.700550726395
  0
LINE
  8
_0-0_計極細
  6
CONTINUOUS
 62
    2
 10
1677.7316095748636
 20
1219.2005507263946
 11
1677.7316118860417
 21
1213.700550726395
  0
LINE
  8
_0-0_計極細
  6
CONTINUOUS
 62
    2
 10
1670.8316118952935
 20
1203.700550726395
 11
1670.8316118952935
 21
1198.200550726395
  0
LINE
  8
_0-0_計極細
  6
CONTINUOUS
 62
    2
 10
1677.7316118954159
 20
1203.700550726395
 11
1677.7316118954159
 21
1198.200550726395
  0
LINE
  8
_0-0_計極細
  6
CONTINUOUS
 62
    2
 10
1670.8316118952935
 20
1182.7005507263955
 11
1670.8316118952935
 21
1188.200550726395
  0
LINE
  8
_0-0_計極細
  6
CONTINUOUS
 62
    2
 10
1677.7316118954159
 20
1182.7005507263955
 11
1677.7316118954159
 21
1188.200550726395
  0
LINE
  8
_0-0_計極細
  6
CONTINUOUS
 62
    2
 10
1670.8316118952935
 20
1167.2005507263959
 11
1670.8316118952935
 21
1172.7005507263955
  0
LINE
  8
_0-0_計極細
  6
CONTINUOUS
 62
    2
 10
1677.7316118954159
 20
1167.2005507263959
 11
1677.7316118954159
 21
1172.7005507263955
  0
LINE
  8
_0-0_計極細
  6
CONTINUOUS
 62
    2
 10
1961.8316096050669
 20
1219.2005507263946
 11
1961.8316118860419
 21
1213.700550726395
  0
LINE
  8
_0-0_計極細
  6
CONTINUOUS
 62
    2
 10
1968.7316095748636
 20
1219.2005507263946
 11
1968.7316118860417
 21
1213.700550726395
  0
LINE
  8
_0-0_計極細
  6
CONTINUOUS
 62
    2
 10
1961.8316118952935
 20
1203.700550726395
 11
1961.8316118952935
 21
1198.200550726395
  0
LINE
  8
_0-0_計極細
  6
CONTINUOUS
 62
    2
 10
1968.7316118954159
 20
1203.700550726395
 11
1968.7316118954159
 21
1198.200550726395
  0
LINE
  8
_0-0_計極細
  6
CONTINUOUS
 62
    2
 10
1961.8316118952935
 20
1182.7005507263955
 11
1961.8316118952935
 21
1188.200550726395
  0
LINE
  8
_0-0_計極細
  6
CONTINUOUS
 62
    2
 10
1968.7316118954159
 20
1182.7005507263955
 11
1968.7316118954159
 21
1188.200550726395
  0
LINE
  8
_0-0_計極細
  6
CONTINUOUS
 62
    2
 10
1961.8316118952935
 20
1167.2005507263959
 11
1961.8316118952935
 21
1172.7005507263955
  0
LINE
  8
_0-0_計極細
  6
CONTINUOUS
 62
    2
 10
1968.7316118954159
 20
1167.2005507263959
 11
1968.7316118954159
 21
1172.7005507263955
  0
LINE
  8
_0-5_寸法線
  6
CONTINUOUS
 62
    7
 10
219.27775829105417
 20
1107.2455483022545
 11
234.73257151167923
 21
1111.386653023895
  0
LINE
  8
_0-5_寸法線
  6
CONTINUOUS
 62
    7
 10
219.27775829105417
 20
1107.2455483022545
 11
234.73257151167923
 21
1103.1044435806141
  0
LINE
  8
_0-5_寸法線
  6
CONTINUOUS
 62
    7
 10
219.27775829105417
 20
1107.2455483022545
 11
273.03312435561406
 21
1107.2455483022545
  0
LINE
  8
_0-5_寸法線
  6
CONTINUOUS
 62
    7
 10
273.03312435561406
 20
1107.2455483022545
 11
273.03312435561406
 21
1106.7341060333001
  0
LINE
  8
_0-0_計極細
  6
CENTER1
 62
    2
 10
219.28161188604213
 20
1257.5435733641411
 11
219.28161188604213
 21
1099.238199615339
  0
LINE
  8
_0-5_寸法線
  6
CONTINUOUS
 62
    7
 10
219.27775829105417
 20
1250.7337533205528
 11
234.73257151167923
 21
1254.8748580421932
  0
LINE
  8
_0-5_寸法線
  6
CONTINUOUS
 62
    7
 10
219.27775829105417
 20
1250.7337533205528
 11
234.73257151167923
 21
1246.5926485989123
  0
LINE
  8
_0-5_寸法線
  6
CONTINUOUS
 62
    7
 10
219.27775829105417
 20
1250.7337533205528
 11
273.03312435561406
 21
1250.7337533205528
  0
LINE
  8
_0-5_寸法線
  6
CONTINUOUS
 62
    7
 10
273.03312435561406
 20
1250.7337533205528
 11
273.03312435561406
 21
1250.2223110515986
  0
LINE
  8
_0-7_枠細線
  6
CONTINUOUS
 62
    5
 10
2147.1672758920813
 20
659.68320278501938
 11
2147.1672758920813
 21
491.68320278502017
  0
TEXT
  8
_0-7_枠細線
 62
    5
 10
2001.5672758920828
 20
627.68320278501938
 40
24.000000000000004
 41
0.8
 50
0
  1
ノンスリップ
  0
LINE
  8
_0-7_枠細線
  6
CONTINUOUS
 62
    5
 10
1987.051609232625
 20
543.28763742540605
 11
2138.8603878841118
 21
543.28763742540605
  0
LINE
  8
_0-7_枠細線
  6
CONTINUOUS
 62
    5
 10
1981.0752998998885
 20
569.95430408940604
 11
2132.8840785513758
 21
569.95430408940604
  0
ARC
  8
_0-7_枠細線
  6
CONTINUOUS
 62
    5
 10
2004.5006092308804
 20
551.28763742460592
 40
5.3333333327999997
 50
51.317813000006424
 51
203.57817800000151
  0
ARC
  8
_0-7_枠細線
  6
CONTINUOUS
 62
    5
 10
2011.1672758968803
 20
559.61430142377344
 40
5.3333333327999997
 50
231.31781300000034
 51
308.68218699999704
  0
LINE
  8
_0-7_枠細線
  6
CONTINUOUS
 62
    5
 10
1999.6125292313698
 20
549.15430409148598
 11
2022.7220225623912
 21
549.15430409148598
  0
ARC
  8
_0-7_枠細線
  6
CONTINUOUS
 62
    5
 10
2017.8339425628806
 20
551.28763742460592
 40
5.3333333327999997
 50
336.42182199999485
 51
128.68218699999895
  0
ARC
  8
_0-7_枠細線
  6
CONTINUOUS
 62
    5
 10
2052.5006092260805
 20
561.95430409020594
 40
5.3333333327999997
 50
156.42182199999601
 51
308.68218699999591
  0
ARC
  8
_0-7_枠細線
  6
CONTINUOUS
 62
    5
 10
2059.1672758920804
 20
553.62764009103842
 40
5.3333333327999997
 50
51.317813000009089
 51
128.68218699999852
  0
ARC
  8
_0-7_枠細線
  6
CONTINUOUS
 62
    5
 10
2065.8339425580807
 20
561.95430409020594
 40
5.3333333327999997
 50
231.31781299999577
 51
23.578178000004584
  0
LINE
  8
_0-7_枠細線
  6
CONTINUOUS
 62
    5
 10
2047.6125292265701
 20
564.08763742332587
 11
2070.7220225575907
 21
564.08763742332587
  0
LINE
  8
_0-7_枠細線
  6
CONTINUOUS
 62
    5
 10
2095.6125292217698
 20
549.15430409148598
 11
2118.7220225527913
 21
549.15430409148598
  0
ARC
  8
_0-7_枠細線
  6
CONTINUOUS
 62
    5
 10
2100.5006092212802
 20
551.28763742460592
 40
5.3333333327999997
 50
51.317813000004513
 51
203.57817800000151
  0
ARC
  8
_0-7_枠細線
  6
CONTINUOUS
 62
    5
 10
2107.1672758872801
 20
559.61430142377344
 40
5.3333333327999997
 50
231.31781300000034
 51
308.68218699999892
  0
ARC
  8
_0-7_枠細線
  6
CONTINUOUS
 62
    5
 10
2113.8339425532804
 20
551.28763742460592
 40
5.3333333327999997
 50
336.42182199999581
 51
128.68218699999895
  0
ARC
  8
_0-7_枠細線
  6
CONTINUOUS
 62
    5
 10
2052.5006092260805
 20
561.95430409020594
 40
9.9466666656720477
 50
151.14636799999573
 51
308.68218700000494
  0
LINE
  8
_0-7_枠細線
  6
CONTINUOUS
 62
    5
 10
1980.4892678999481
 20
566.75430408972591
 11
2043.7887692269503
 21
566.75430408972591
  0
LINE
  8
_0-7_枠細線
  6
CONTINUOUS
 62
    5
 10
2026.5457852286754
 20
546.48763742508618
 11
2091.788769222153
 21
546.48763742508618
  0
ARC
  8
_0-7_枠細線
  6
CONTINUOUS
 62
    5
 10
1973.9199132339386
 20
547.34617875833328
 40
13.744570665292123
 50
317.56162899999919
 51
42.438371000002093
  0
ARC
  8
_0-7_枠細線
  6
CONTINUOUS
 62
    5
 10
2004.5006092308804
 20
551.28763742460592
 40
9.9466666656720477
 50
51.317812999992654
 51
208.85363199999745
  0
ARC
  8
_0-7_枠細線
  6
CONTINUOUS
 62
    5
 10
1994.2069985652424
 20
565.89576275647869
 40
13.744570665292123
 50
137.56162899999987
 51
222.4383710000015
  0
LINE
  8
_0-7_枠細線
  6
CONTINUOUS
 62
    5
 10
1987.6376438992329
 20
546.48763742508618
 11
1995.7887692317506
 21
546.48763742508618
  0
ARC
  8
_0-7_枠細線
  6
CONTINUOUS
 62
    5
 10
2011.1672758968803
 20
559.61430142377344
 40
0.7199999999279512
 50
231.31781300002677
 51
308.68218700000079
  0
ARC
  8
_0-7_枠細線
  6
CONTINUOUS
 62
    5
 10
2017.8339425628806
 20
551.28763742460592
 40
9.9466666656720477
 50
331.14636800000056
 51
128.68218700000699
  0
ARC
  8
_0-7_枠細線
  6
CONTINUOUS
 62
    5
 10
2125.7286918854256
 20
547.34617875833328
 40
13.744570665292123
 50
317.56162899999788
 51
42.438371000002093
  0
ARC
  8
_0-7_枠細線
  6
CONTINUOUS
 62
    5
 10
2146.0157772167299
 20
565.89576275647869
 40
13.744570665292123
 50
137.56162900000243
 51
222.43837100000022
  0
LINE
  8
_0-7_枠細線
  6
CONTINUOUS
 62
    5
 10
2122.5457852190752
 20
546.48763742508618
 11
2139.4464225507204
 21
546.48763742508618
  0
LINE
  8
_0-7_枠細線
  6
CONTINUOUS
 62
    5
 10
2074.5457852238756
 20
566.75430408972591
 11
2132.2980465514352
 21
566.75430408972591
  0
ARC
  8
_0-7_枠細線
  6
CONTINUOUS
 62
    5
 10
2100.5006092212802
 20
551.28763742460592
 40
9.9466666656720477
 50
51.317812999992654
 51
208.85363200000586
  0
ARC
  8
_0-7_枠細線
  6
CONTINUOUS
 62
    5
 10
2059.1672758920804
 20
553.62764009103842
 40
0.7199999999279512
 50
51.317813000032764
 51
128.68218699999548
  0
ARC
  8
_0-7_枠細線
  6
CONTINUOUS
 62
    5
 10
2065.8339425580807
 20
561.95430409020594
 40
9.9466666656720477
 50
231.31781299999028
 51
28.853631999998139
  0
ARC
  8
_0-7_枠細線
  6
CONTINUOUS
 62
    5
 10
2107.1672758872801
 20
559.61430142377344
 40
0.7199999999279512
 50
231.31781300002677
 51
308.68218700000079
  0
ARC
  8
_0-7_枠細線
  6
CONTINUOUS
 62
    5
 10
2113.8339425532804
 20
551.28763742460592
 40
9.9466666656720477
 50
331.14636800000056
 51
128.68218700000699
  0
LINE
  8
_0-7_枠細線
  6
CENTER1
 62
    5
 10
2011.1672758968803
 20
572.19396542251502
 11
2011.1672758968803
 21
541.23692809227771
  0
LINE
  8
_0-7_枠細線
  6
CENTER1
 62
    5
 10
2107.1672758872801
 20
572.19396542251502
 11
2107.1672758872801
 21
541.23692809227771
  0
LINE
  8
_0-7_枠細線
  6
CENTER1
 62
    5
 10
2059.1672758920804
 20
572.19396542251502
 11
2059.1672758920804
 21
541.23692809227771
  0
LINE
  8
_0-7_枠細線
  6
CONTINUOUS
 62
    5
 10
2011.1672758968803
 20
535.28763742540605
 11
2011.1672758968803
 21
495.28763742540599
  0
LINE
  8
_0-7_枠細線
  6
CONTINUOUS
 62
    5
 10
2011.1672758968803
 20
503.28763742540599
 11
2026.6220891175053
 21
507.42874214704631
  0
LINE
  8
_0-7_枠細線
  6
CONTINUOUS
 62
    5
 10
2011.1672758968803
 20
503.28763742540599
 11
2026.6220891175053
 21
499.14653270376567
  0
LINE
  8
_0-7_枠細線
  6
CONTINUOUS
 62
    5
 10
2059.1672758920804
 20
535.28763742540605
 11
2059.1672758920804
 21
495.28763742540599
  0
LINE
  8
_0-7_枠細線
  6
CONTINUOUS
 62
    5
 10
2059.1672758920804
 20
503.28763742540599
 11
2043.7124626714553
 21
499.14653270376573
  0
LINE
  8
_0-7_枠細線
  6
CONTINUOUS
 62
    5
 10
2059.1672758920804
 20
503.28763742540599
 11
2043.7124626714553
 21
507.42874214704636
  0
LINE
  8
_0-7_枠細線
  6
CONTINUOUS
 62
    5
 10
2011.1672758968803
 20
503.28763742540599
 11
2059.1672758920804
 21
503.28763742540599
  0
TEXT
  8
_0-7_枠細線
 62
    5
 10
2023.1672758944803
 20
503.28763742540599
 40
24
 41
1
 50
0
  1
18
  0
LINE
  8
_0-7_枠細線
  6
CONTINUOUS
 62
    5
 10
2059.1672758920804
 20
503.28763742540599
 11
2074.6220891127055
 21
507.42874214704619
  0
LINE
  8
_0-7_枠細線
  6
CONTINUOUS
 62
    5
 10
2059.1672758920804
 20
503.28763742540599
 11
2074.6220891127055
 21
499.14653270376556
  0
LINE
  8
_0-7_枠細線
  6
CONTINUOUS
 62
    5
 10
2107.1672758872801
 20
535.28763742540605
 11
2107.1672758872801
 21
495.28763742540599
  0
LINE
  8
_0-7_枠細線
  6
CONTINUOUS
 62
    5
 10
2107.1672758872801
 20
503.28763742540599
 11
2091.712462666655
 21
499.14653270376573
  0
LINE
  8
_0-7_枠細線
  6
CONTINUOUS
 62
    5
 10
2107.1672758872801
 20
503.28763742540599
 11
2091.712462666655
 21
507.42874214704636
  0
LINE
  8
_0-7_枠細線
  6
CONTINUOUS
 62
    5
 10
2059.1672758920804
 20
503.28763742540599
 11
2107.1672758872801
 21
503.28763742540599
  0
TEXT
  8
_0-7_枠細線
 62
    5
 10
2071.1672758896807
 20
503.28763742540599
 40
24
 41
1
 50
0
  1
18
  0
TEXT
  8
_0-7_枠細線
 62
    5
 10
2020.7672758920819
 20
587.6832027850196
 40
24.000000000000004
 41
0.7999999999999997
 50
0
  1
品番－Ｄ
  0
LINE
  8
_0-7_枠細線
  6
CONTINUOUS
 62
    5
 10
1971.1672758920809
 20
659.68320278501938
 11
1971.1672758920809
 21
491.68320278502017
  0
TEXT
  8
_0-7_枠細線
 62
    5
 10
1844.7672758920805
 20
627.6832027850196
 40
24.000000000000004
 41
0.8
 50
0
  1
プレーン
  0
LINE
  8
_0-7_枠細線
  6
CONTINUOUS
 62
    5
 10
1810.2510398993713
 20
543.28763742540605
 11
1962.0598185508586
 21
543.28763742540605
  0
LINE
  8
_0-7_枠細線
  6
CONTINUOUS
 62
    5
 10
1804.2747305666353
 20
569.95430408940604
 11
1956.0835092181228
 21
569.95430408940604
  0
ARC
  8
_0-7_枠細線
  6
CONTINUOUS
 62
    5
 10
1948.9281225521704
 20
547.34617875833328
 40
13.744570665292123
 50
317.56162900000493
 51
42.438370999995421
  0
ARC
  8
_0-7_枠細線
  6
CONTINUOUS
 62
    5
 10
1797.1193439006854
 20
547.34617875833328
 40
13.744570665292274
 50
317.56162899999941
 51
42.43837100000087
  0
LINE
  8
_0-7_枠細線
  6
CONTINUOUS
 62
    5
 10
1803.6886985666949
 20
566.75430408972591
 11
1955.4974772181822
 21
566.75430408972591
  0
LINE
  8
_0-7_枠細線
  6
CONTINUOUS
 62
    5
 10
1810.8370745659799
 20
546.48763742508618
 11
1962.6458532174665
 21
546.48763742508618
  0
ARC
  8
_0-7_枠細線
  6
CONTINUOUS
 62
    5
 10
1817.4064292319913
 20
565.89576275647869
 40
13.744570665292274
 50
137.56162900000018
 51
222.43837100000314
  0
ARC
  8
_0-7_枠細線
  6
CONTINUOUS
 62
    5
 10
1969.2152078834761
 20
565.89576275647869
 40
13.744570665292123
 50
137.56162899999987
 51
222.4383710000028
  0
TEXT
  8
_0-7_枠細線
 62
    5
 10
1844.7672758920821
 20
587.6832027850196
 40
24.000000000000004
 41
0.7999999999999997
 50
0
  1
品番－Ｆ
  0
TEXT
  8
_0-7_枠細線
 62
    5
 10
1716.7672758920812
 20
627.68320278501938
 40
24.000000000000004
 41
0.8
 50
0
  1
タ イ プ
  0
LINE
  8
_0-7_枠細線
  6
CONTINUOUS
 62
    5
 10
1715.1672758920802
 20
579.6832027850196
 11
2147.1672758920813
 21
579.6832027850196
  0
LINE
  8
_0-7_枠細線
  6
CONTINUOUS
 62
    5
 10
1715.1672758920802
 20
619.68320278501938
 11
2147.1672758920813
 21
619.68320278501938
  0
LINE
  8
_0-7_枠細線
  6
CONTINUOUS
 62
    5
 10
1715.1672758920802
 20
659.68320278501938
 11
2147.1672758920813
 21
659.68320278501938
  0
LINE
  8
_0-7_枠細線
  6
CONTINUOUS
 62
    5
 10
1715.1672758920802
 20
491.68320278502017
 11
2147.1672758920813
 21
491.68320278502017
  0
LINE
  8
_0-7_枠細線
  6
CONTINUOUS
 62
    5
 10
1795.1672758920813
 20
659.68320278501938
 11
1795.1672758920813
 21
491.68320278502017
  0
LINE
  8
_0-7_枠細線
  6
CONTINUOUS
 62
    5
 10
1715.1672758920802
 20
659.68320278501938
 11
1715.1672758920802
 21
491.68320278502017
  0
TEXT
  8
_0-7_枠細線
 62
    5
 10
1716.7672758920812
 20
523.68320278501983
 40
24.000000000000004
 41
0.8
 50
0
  1
表面形状
  0
TEXT
  8
_0-7_枠細線
 62
    5
 10
1727.6060140373781
 20
663.6832027850196
 40
28.000000000000004
 41
0.7999999999999997
 50
0
  1
記号表
  0
TEXT
  8
_0-7_枠細線
 62
    5
 10
1716.7672758920812
 20
587.68320278501972
 40
24.000000000000004
 41
0.8
 50
0
  1
記　　号
  0
TEXT
  8
_0-5_寸法線
 62
    7
 10
245.78335897441798
 20
1249.905774214179
 40
24
 41
1
 50
0
  1
Ａ’
  0
TEXT
  8
_0-5_寸法線
 62
    7
 10
246.05012879036053
 20
1106.195400055771
 40
24
 41
1
 50
0
  1
Ａ
  0
LINE
  8
_0-7_枠細線
  6
CONTINUOUS
 62
    5
 10
2280
 20
1508
 11
1424
 21
1508
  0
TEXT
  8
_0-7_枠細線
 62
    5
 10
1432
 20
1511.9999999999993
 40
20
 41
1
 50
0
  1
記号
  0
TEXT
  8
_0-7_枠細線
 62
    5
 10
1595
 20
1512
 40
20
 41
1
 50
0
  1
訂　 正　 記　 事
  0
TEXT
  8
_0-7_枠細線
 62
    5
 10
1890
 20
1512
 40
20
 41
1
 50
0
  1
訂 正 年 月 日
  0
TEXT
  8
_0-7_枠細線
 62
    5
 10
2090
 20
1512
 40
20
 41
1
 50
0
  1
備　　　　　考
  0
LINE
  8
_0-7_枠細線
  6
CONTINUOUS
 62
    5
 10
2280
 20
1480
 11
1424
 21
1480
  0
LINE
  8
_0-7_枠細線
  6
CONTINUOUS
 62
    5
 10
1424
 20
1480
 11
1424
 21
1535.9999999999991
  0
LINE
  8
_0-7_枠細線
  6
CONTINUOUS
 62
    5
 10
1480
 20
1480
 11
1480
 21
1535.9999999999991
  0
LINE
  8
_0-7_枠細線
  6
CONTINUOUS
 62
    5
 10
1880
 20
1480
 11
1880
 21
1536
  0
LINE
  8
_0-7_枠細線
  6
CONTINUOUS
 62
    5
 10
2040
 20
1480
 11
2040
 21
1535.9999999999991
  0
LINE
  8
_0-7_枠細線
  6
CONTINUOUS
 62
    5
 10
1464
 20
1482.307734354795
 11
1452
 21
1506.307734354795
  0
LINE
  8
_0-7_枠細線
  6
CONTINUOUS
 62
    5
 10
1440
 20
1482.307734354795
 11
1464
 21
1482.307734354795
  0
LINE
  8
_0-7_枠細線
  6
CONTINUOUS
 62
    5
 10
1452
 20
1506.307734354795
 11
1440
 21
1482.307734354795
  0
TEXT
  8
_0-7_枠細線
 62
    5
 10
1443.7842420290369
 20
1481.8165307621864
 40
20
 41
0.8
 50
0
  1
１
  0
TEXT
  8
_0-7_枠細線
 62
    5
 10
1888
 20
1484
 40
20
 41
0.7199999999999999
 50
0
  1
２０１９．０９．０１
  0
TEXT
  8
_0-7_枠細線
 62
    5
 10
1502.1605925925924
 20
1484
 40
20.000000000000004
 41
1
 50
0
  1
アンカー材質･厚み変更
  0
LINE
  8
_0-1_計細線
  6
CONTINUOUS
 62
    3
 10
2183.7449635812695
 20
1152.2007406533878
 11
2183.7449635812695
 21
1149.9007406533879
  0
LINE
  8
_0-1_計細線
  6
CONTINUOUS
 62
    3
 10
2183.7449635812695
 20
1149.9007406533879
 11
2218.7449635812695
 21
1149.9007406533879
  0
LINE
  8
_0-1_計細線
  6
CONTINUOUS
 62
    3
 10
2218.7449635812695
 20
1149.9007406533879
 11
2218.7449635812695
 21
1152.2007406533878
  0
LINE
  8
_0-1_計細線
  6
CONTINUOUS
 62
    3
 10
2218.7449635812695
 20
1152.2007406533878
 11
2183.7449635812695
 21
1152.2007406533878
  0
LINE
  8
_0-0_計極細
  6
CONTINUOUS
 62
    2
 10
2185.7449635812695
 20
1149.9007406533879
 11
2185.7449635812695
 21
1152.2007406533878
  0
LINE
  8
_0-0_計極細
  6
CONTINUOUS
 62
    2
 10
2197.7449635812695
 20
1149.9007406533879
 11
2197.7449635812695
 21
1152.2007406533878
  0
LINE
  8
_0-0_計極細
  6
CONTINUOUS
 62
    2
 10
2199.7449635812695
 20
1149.9007406533879
 11
2199.7449635812695
 21
1152.2007406533878
  0
LINE
  8
_0-0_計極細
  6
CONTINUOUS
 62
    2
 10
2201.7449635812695
 20
1149.9007406533879
 11
2201.7449635812695
 21
1152.2007406533878
  0
LINE
  8
_0-0_計極細
  6
CONTINUOUS
 62
    2
 10
2215.7449635812695
 20
1149.9007406533879
 11
2215.7449635812695
 21
1152.2007406533878
  0
LINE
  8
_0-0_計極細
  6
CONTINUOUS
 62
    2
 10
2195.7449635812695
 20
1149.9007406533879
 11
2195.7449635812695
 21
1152.2007406533878
  0
LINE
  8
_0-1_計細線
  6
CONTINUOUS
 62
    3
 10
2183.7449635812695
 20
1236.5007406533875
 11
2183.7449635812695
 21
1234.2007406533876
  0
LINE
  8
_0-1_計細線
  6
CONTINUOUS
 62
    3
 10
2183.7449635812695
 20
1234.2007406533876
 11
2218.7449635812695
 21
1234.2007406533876
  0
LINE
  8
_0-1_計細線
  6
CONTINUOUS
 62
    3
 10
2218.7449635812695
 20
1234.2007406533876
 11
2218.7449635812695
 21
1236.5007406533875
  0
LINE
  8
_0-1_計細線
  6
CONTINUOUS
 62
    3
 10
2218.7449635812695
 20
1236.5007406533875
 11
2183.7449635812695
 21
1236.5007406533875
  0
LINE
  8
_0-0_計極細
  6
CONTINUOUS
 62
    2
 10
2185.7449635812695
 20
1234.2007406533876
 11
2185.7449635812695
 21
1236.5007406533875
  0
LINE
  8
_0-0_計極細
  6
CONTINUOUS
 62
    2
 10
2197.7449635812695
 20
1234.2007406533876
 11
2197.7449635812695
 21
1236.5007406533875
  0
LINE
  8
_0-0_計極細
  6
CONTINUOUS
 62
    2
 10
2199.7449635812695
 20
1234.2007406533876
 11
2199.7449635812695
 21
1236.5007406533875
  0
LINE
  8
_0-0_計極細
  6
CONTINUOUS
 62
    2
 10
2201.7449635812695
 20
1234.2007406533876
 11
2201.7449635812695
 21
1236.5007406533875
  0
LINE
  8
_0-0_計極細
  6
CONTINUOUS
 62
    2
 10
2215.7449635812695
 20
1234.2007406533876
 11
2215.7449635812695
 21
1236.5007406533875
  0
LINE
  8
_0-0_計極細
  6
CONTINUOUS
 62
    2
 10
2195.7449635812695
 20
1234.2007406533876
 11
2195.7449635812695
 21
1236.5007406533875
  0
LINE
  8
_0-7_枠細線
  6
CONTINUOUS
 62
    5
 10
2250.3751401598784
 20
1237.067409205099
 11
2238.3751401598784
 21
1261.067409205099
  0
LINE
  8
_0-7_枠細線
  6
CONTINUOUS
 62
    5
 10
2226.3751401598784
 20
1237.067409205099
 11
2250.3751401598784
 21
1237.067409205099
  0
LINE
  8
_0-7_枠細線
  6
CONTINUOUS
 62
    5
 10
2238.3751401598784
 20
1261.067409205099
 11
2226.3751401598784
 21
1237.067409205099
  0
TEXT
  8
_0-7_枠細線
 62
    5
 10
2230.1593821889155
 20
1236.5762056124902
 40
20
 41
0.8
 50
0
  1
１
  0
LINE
  8
_1-5_寸法2
  6
CONTINUOUS
 62
    7
 10
353.39947739013735
 20
498.02154847180219
 11
353.39947739013746
 21
602.02154903501491
  0
LINE
  8
_1-5_寸法2
  6
CONTINUOUS
 62
    7
 10
353.39947739013746
 20
594.02154903501491
 11
337.94466416951241
 21
589.8804443133746
  0
LINE
  8
_1-5_寸法2
  6
CONTINUOUS
 62
    7
 10
353.39947739013746
 20
594.02154903501491
 11
337.94466416951241
 21
598.16265375665535
  0
LINE
  8
_1-5_寸法2
  6
CONTINUOUS
 62
    7
 10
365.39947861474343
 20
498.02154847180219
 11
365.39947861474366
 21
602.02154903501491
  0
CIRCLE
  8
_1-5_寸法2
  6
CONTINUOUS
 62
    1
 10
365.39947861474366
 20
594.02154903501491
 40
2.3999999999999995
  0
LINE
  8
_1-5_寸法2
  6
CONTINUOUS
 62
    7
 10
313.39947739013746
 20
594.02154903501491
 11
365.39947861474366
 21
594.02154903501491
  0
TEXT
  8
_1-5_寸法2
 62
    7
 10
319.25790872124799
 20
594.02154903501491
 40
24
 41
1
 50
0
  1
3
  0
LINE
  8
_1-5_寸法2
  6
CONTINUOUS
 62
    7
 10
373.39947780679199
 20
498.02154847180219
 11
373.39947780679222
 21
602.02154903501491
  0
LINE
  8
_1-5_寸法2
  6
CONTINUOUS
 62
    7
 10
365.39947861474366
 20
594.02154903501491
 11
373.39947780679222
 21
594.02154903501491
  0
TEXT
  8
_1-5_寸法2
 62
    7
 10
363.39947821076794
 20
594.02154903501491
 40
24
 41
1
 50
0
  1
2
  0
LINE
  8
_1-5_寸法2
  6
CONTINUOUS
 62
    7
 10
373.39947780679222
 20
594.02154903501491
 11
388.85429102741728
 21
598.16265375665523
  0
LINE
  8
_1-5_寸法2
  6
CONTINUOUS
 62
    7
 10
373.39947780679222
 20
594.02154903501491
 11
388.85429102741728
 21
589.8804443133746
  0
LINE
  8
_1-5_寸法2
  6
CONTINUOUS
 62
    7
 10
661.39947821498595
 20
498.02154847180196
 11
661.39947821498629
 21
602.02154903501491
  0
LINE
  8
_1-5_寸法2
  6
CONTINUOUS
 62
    7
 10
661.39947821498629
 20
594.02154903501491
 11
645.94466499436123
 21
589.8804443133746
  0
LINE
  8
_1-5_寸法2
  6
CONTINUOUS
 62
    7
 10
661.39947821498629
 20
594.02154903501491
 11
645.94466499436123
 21
598.16265375665535
  0
LINE
  8
_1-5_寸法2
  6
CONTINUOUS
 62
    7
 10
373.39947780679222
 20
594.02154903501491
 11
661.39947821498629
 21
594.02154903501491
  0
TEXT
  8
_1-5_寸法2
 62
    7
 10
505.39947801088931
 20
594.02154903501491
 40
24
 41
1
 50
0
  1
72
  0
LINE
  8
_1-5_寸法2
  6
CONTINUOUS
 62
    7
 10
669.39947739013769
 20
498.02154847180196
 11
669.39947739013792
 21
602.02154903501491
  0
CIRCLE
  8
_1-5_寸法2
  6
CONTINUOUS
 62
    1
 10
669.39947739013792
 20
594.02154903501491
 40
2.3999999999999995
  0
LINE
  8
_1-5_寸法2
  6
CONTINUOUS
 62
    7
 10
661.39947821498629
 20
594.02154903501491
 11
669.39947739013792
 21
594.02154903501491
  0
TEXT
  8
_1-5_寸法2
 62
    7
 10
659.39947780256205
 20
594.02154903501491
 40
24
 41
1
 50
0
  1
2
  0
LINE
  8
_1-5_寸法2
  6
CONTINUOUS
 62
    7
 10
681.39947739013769
 20
498.02154847180196
 11
681.39947739013792
 21
602.02154903501491
  0
LINE
  8
_1-5_寸法2
  6
CONTINUOUS
 62
    7
 10
681.39947739013792
 20
594.02154903501491
 11
696.85429061076309
 21
598.16265375665512
  0
LINE
  8
_1-5_寸法2
  6
CONTINUOUS
 62
    7
 10
681.39947739013792
 20
594.02154903501491
 11
696.85429061076297
 21
589.88044431337448
  0
LINE
  8
_1-5_寸法2
  6
CONTINUOUS
 62
    7
 10
669.39947739013792
 20
594.02154903501491
 11
721.39947739013792
 21
594.02154903501491
  0
TEXT
  8
_1-5_寸法2
 62
    7
 10
704.82142070727286
 20
594.02154903501491
 40
24
 41
1
 50
0
  1
3
  0
LINE
  8
_0-5_寸法線
  6
CONTINUOUS
 62
    7
 10
202.2816118860419
 20
1250.2005507263946
 11
202.2816118860419
 21
1378.2005507263946
  0
LINE
  8
_0-5_寸法線
  6
CONTINUOUS
 62
    7
 10
202.2816118860419
 20
1370.2005507263946
 11
217.73642510666696
 21
1374.341655448035
  0
LINE
  8
_0-5_寸法線
  6
CONTINUOUS
 62
    7
 10
202.2816118860419
 20
1370.2005507263946
 11
217.73642510666696
 21
1366.0594460047541
  0
LINE
  8
_0-5_寸法線
  6
CONTINUOUS
 62
    7
 10
1982.2816118860405
 20
1250.2005507263946
 11
1982.2816118860405
 21
1378.2005507263946
  0
LINE
  8
_0-5_寸法線
  6
CONTINUOUS
 62
    7
 10
1982.2816118860405
 20
1370.2005507263946
 11
1966.8267986654155
 21
1366.0594460047544
  0
LINE
  8
_0-5_寸法線
  6
CONTINUOUS
 62
    7
 10
1982.2816118860405
 20
1370.2005507263946
 11
1966.8267986654155
 21
1374.341655448035
  0
LINE
  8
_0-5_寸法線
  6
CONTINUOUS
 62
    7
 10
202.2816118860419
 20
1370.2005507263946
 11
1982.2816118860405
 21
1370.2005507263946
  0
TEXT
  8
_0-5_寸法線
 62
    7
 10
1068.2816118860414
 20
1370.2005507263946
 40
24
 41
1
 50
0
  1
1780
  0
LINE
  8
_0-5_寸法線
  6
CONTINUOUS
 62
    7
 10
202.2816118860419
 20
1250.2005507263946
 11
202.2816118860419
 21
1322.2005507263946
  0
LINE
  8
_0-5_寸法線
  6
CONTINUOUS
 62
    7
 10
202.2816118860419
 20
1314.2005507263946
 11
186.82679866541685
 21
1310.0594460047544
  0
LINE
  8
_0-5_寸法線
  6
CONTINUOUS
 62
    7
 10
202.2816118860419
 20
1314.2005507263946
 11
186.82679866541685
 21
1318.341655448035
  0
LINE
  8
_0-5_寸法線
  6
CONTINUOUS
 62
    7
 10
205.2816118860419
 20
1250.2005507263946
 11
205.2816118860419
 21
1322.2005507263946
  0
CIRCLE
  8
_0-5_寸法線
  6
CONTINUOUS
 62
    1
 10
205.2816118860419
 20
1314.2005507263946
 40
2.3999999999999999
  0
LINE
  8
_0-5_寸法線
  6
CONTINUOUS
 62
    7
 10
162.2816118860419
 20
1314.2005507263946
 11
205.2816118860419
 21
1314.2005507263946
  0
TEXT
  8
_0-5_寸法線
 62
    7
 10
166.22815284567412
 20
1314.2005507263946
 40
24
 41
1
 50
0
  1
3
  0
LINE
  8
_0-5_寸法線
  6
CONTINUOUS
 62
    7
 10
206.7816118860419
 20
1250.2005507263946
 11
206.7816118860419
 21
1322.2005507263946
  0
LINE
  8
_0-5_寸法線
  6
CONTINUOUS
 62
    7
 10
205.2816118860419
 20
1314.2005507263946
 11
206.7816118860419
 21
1314.2005507263946
  0
TEXT
  8
_0-5_寸法線
 62
    7
 10
212.994803455073
 20
1314.2005507263946
 40
24
 41
1
 50
0
  1
1.5
  0
LINE
  8
_0-5_寸法線
  6
CONTINUOUS
 62
    7
 10
206.7816118860419
 20
1314.2005507263946
 11
222.23642510666696
 21
1318.341655448035
  0
LINE
  8
_0-5_寸法線
  6
CONTINUOUS
 62
    7
 10
206.7816118860419
 20
1314.2005507263946
 11
222.23642510666696
 21
1310.0594460047541
  0
LINE
  8
_0-5_寸法線
  6
CONTINUOUS
 62
    7
 10
1977.7816118860405
 20
1250.2005507263946
 11
1977.7816118860405
 21
1322.2005507263946
  0
LINE
  8
_0-5_寸法線
  6
CONTINUOUS
 62
    7
 10
1977.7816118860405
 20
1314.2005507263946
 11
1962.3267986654155
 21
1310.0594460047544
  0
LINE
  8
_0-5_寸法線
  6
CONTINUOUS
 62
    7
 10
1977.7816118860405
 20
1314.2005507263946
 11
1962.3267986654155
 21
1318.341655448035
  0
LINE
  8
_0-5_寸法線
  6
CONTINUOUS
 62
    7
 10
206.7816118860419
 20
1314.2005507263946
 11
1977.7816118860405
 21
1314.2005507263946
  0
TEXT
  8
_0-5_寸法線
 62
    7
 10
1068.2816118860419
 20
1314.2005507263946
 40
24
 41
1
 50
0
  1
1771
  0
LINE
  8
_0-5_寸法線
  6
CONTINUOUS
 62
    7
 10
1979.2816118860405
 20
1250.2005507263946
 11
1979.2816118860405
 21
1322.2005507263946
  0
CIRCLE
  8
_0-5_寸法線
  6
CONTINUOUS
 62
    1
 10
1979.2816118860405
 20
1314.2005507263946
 40
2.3999999999999999
  0
LINE
  8
_0-5_寸法線
  6
CONTINUOUS
 62
    7
 10
1977.7816118860405
 20
1314.2005507263946
 11
1979.2816118860405
 21
1314.2005507263946
  0
TEXT
  8
_0-5_寸法線
 62
    7
 10
1935.9563373708083
 20
1314.2005507263946
 40
24
 41
1
 50
0
  1
1.5
  0
LINE
  8
_0-5_寸法線
  6
CONTINUOUS
 62
    7
 10
1982.2816118860405
 20
1250.2005507263946
 11
1982.2816118860405
 21
1322.2005507263946
  0
LINE
  8
_0-5_寸法線
  6
CONTINUOUS
 62
    7
 10
1982.2816118860405
 20
1314.2005507263946
 11
1997.7364251066656
 21
1318.3416554480348
  0
LINE
  8
_0-5_寸法線
  6
CONTINUOUS
 62
    7
 10
1982.2816118860405
 20
1314.2005507263946
 11
1997.7364251066656
 21
1310.0594460047541
  0
LINE
  8
_0-5_寸法線
  6
CONTINUOUS
 62
    7
 10
1979.2816118860405
 20
1314.2005507263946
 11
2022.2816118860405
 21
1314.2005507263946
  0
TEXT
  8
_0-5_寸法線
 62
    7
 10
2005.0286989327819
 20
1314.2005507263937
 40
24
 41
1
 50
0
  1
3
  0
LINE
  8
_0-5_寸法線
  6
CONTINUOUS
 62
    7
 10
2172.7449635812695
 20
1250.2007406533878
 11
2172.7449635812695
 21
1378.2005507263946
  0
LINE
  8
_0-5_寸法線
  6
CONTINUOUS
 62
    7
 10
2172.7449635812695
 20
1370.2005507263946
 11
2188.1997768018946
 21
1374.341655448035
  0
LINE
  8
_0-5_寸法線
  6
CONTINUOUS
 62
    7
 10
2172.7449635812695
 20
1370.2005507263946
 11
2188.1997768018946
 21
1366.0594460047541
  0
LINE
  8
_0-5_寸法線
  6
CONTINUOUS
 62
    7
 10
2218.7449635812695
 20
1252.5007406533875
 11
2218.7449635812695
 21
1378.2005507263946
  0
LINE
  8
_0-5_寸法線
  6
CONTINUOUS
 62
    7
 10
2218.7449635812695
 20
1370.2005507263946
 11
2203.2901503606445
 21
1366.0594460047544
  0
LINE
  8
_0-5_寸法線
  6
CONTINUOUS
 62
    7
 10
2218.7449635812695
 20
1370.2005507263946
 11
2203.2901503606445
 21
1374.341655448035
  0
LINE
  8
_0-5_寸法線
  6
CONTINUOUS
 62
    7
 10
2172.7449635812695
 20
1370.2005507263946
 11
2218.7449635812695
 21
1370.2005507263946
  0
TEXT
  8
_0-5_寸法線
 62
    7
 10
2183.7449635812704
 20
1370.2005507263946
 40
24
 41
1
 50
0
  1
46
  0
LINE
  8
_0-5_寸法線
  6
CONTINUOUS
 62
    7
 10
2172.7449635812695
 20
1250.2007406533876
 11
2172.7449635812695
 21
1322.2005507263946
  0
LINE
  8
_0-5_寸法線
  6
CONTINUOUS
 62
    7
 10
2172.7449635812695
 20
1314.2005507263946
 11
2157.2901503606445
 21
1310.0594460047544
  0
LINE
  8
_0-5_寸法線
  6
CONTINUOUS
 62
    7
 10
2172.7449635812695
 20
1314.2005507263946
 11
2157.2901503606445
 21
1318.341655448035
  0
LINE
  8
_0-5_寸法線
  6
CONTINUOUS
 62
    7
 10
2195.7449635812695
 20
1252.5007406533875
 11
2195.7449635812695
 21
1322.2005507263946
  0
CIRCLE
  8
_0-5_寸法線
  6
CONTINUOUS
 62
    1
 10
2195.7449635812695
 20
1314.2005507263946
 40
2.4000000000000004
  0
LINE
  8
_0-5_寸法線
  6
CONTINUOUS
 62
    7
 10
2132.7449635812695
 20
1314.2005507263946
 11
2195.7449635812695
 21
1314.2005507263946
  0
TEXT
  8
_0-5_寸法線
 62
    7
 10
2135.6154177461572
 20
1314.2005507263946
 40
24
 41
1
 50
0
  1
23
  0
LINE
  8
_0-5_寸法線
  6
CONTINUOUS
 62
    7
 10
2218.7449635812695
 20
1252.5007406533875
 11
2218.7449635812695
 21
1322.2005507263946
  0
LINE
  8
_0-5_寸法線
  6
CONTINUOUS
 62
    7
 10
2218.7449635812695
 20
1314.2005507263946
 11
2234.1997768018946
 21
1318.3416554480348
  0
LINE
  8
_0-5_寸法線
  6
CONTINUOUS
 62
    7
 10
2218.7449635812695
 20
1314.2005507263946
 11
2234.1997768018946
 21
1310.0594460047541
  0
LINE
  8
_0-5_寸法線
  6
CONTINUOUS
 62
    7
 10
2195.7449635812695
 20
1314.2005507263946
 11
2258.7449635812695
 21
1314.2005507263946
  0
TEXT
  8
_0-5_寸法線
 62
    7
 10
2236.6595334022827
 20
1314.2005507263946
 40
24
 41
1
 50
0
  1
23
  0
LINE
  8
_0-1_計細線
  6
CONTINUOUS
 62
    3
 10
246.2816121102569
 20
925.20055072639457
 11
244.2816121102569
 21
923.20055072639457
  0
LINE
  8
_0-1_計細線
  6
CONTINUOUS
 62
    3
 10
244.2816121102569
 20
913.20055072639457
 11
244.2816121102569
 21
923.20055072639457
  0
LINE
  8
_0-1_計細線
  6
CONTINUOUS
 62
    3
 10
260.28161180409552
 20
923.20055072639457
 11
258.28161180409552
 21
925.20055072639457
  0
LINE
  8
_0-1_計細線
  6
CONTINUOUS
 62
    3
 10
260.28161180409552
 20
913.20055072639457
 11
260.28161180409552
 21
923.20055072639457
  0
LINE
  8
_0-1_計細線
  6
CONTINUOUS
 62
    3
 10
246.2816121102569
 20
909.20055072639457
 11
244.2816121102569
 21
907.20055072639457
  0
LINE
  8
_0-1_計細線
  6
CONTINUOUS
 62
    3
 10
246.2816121102569
 20
911.20055072639457
 11
246.2816121102569
 21
909.20055072639457
  0
LINE
  8
_0-1_計細線
  6
CONTINUOUS
 62
    3
 10
244.2816121102569
 20
913.20055072639457
 11
246.2816121102569
 21
911.20055072639457
  0
LINE
  8
_0-1_計細線
  6
CONTINUOUS
 62
    3
 10
258.28161180409552
 20
909.20055072639457
 11
260.28161180409552
 21
907.20055072639457
  0
LINE
  8
_0-1_計細線
  6
CONTINUOUS
 62
    3
 10
258.28161180409552
 20
911.20055072639457
 11
258.28161180409552
 21
909.20055072639457
  0
LINE
  8
_0-1_計細線
  6
CONTINUOUS
 62
    3
 10
260.28161180409552
 20
913.20055072639457
 11
258.28161180409552
 21
911.20055072639457
  0
LINE
  8
_0-1_計細線
  6
CONTINUOUS
 62
    3
 10
244.2816121102569
 20
907.20055072639457
 11
244.2816121102569
 21
893.20055072639457
  0
ARC
  8
_0-1_計細線
  6
CONTINUOUS
 62
    3
 10
247.2816121102569
 20
893.20055072639457
 40
3
 50
179.99999999999983
 51
269.99999999999977
  0
LINE
  8
_0-1_計細線
  6
CONTINUOUS
 62
    3
 10
247.2816121102569
 20
890.20055072639457
 11
257.28161180409552
 21
890.20055072639457
  0
LINE
  8
_0-1_計細線
  6
CONTINUOUS
 62
    3
 10
260.28161180409552
 20
907.20055072639457
 11
260.28161180409552
 21
893.20055072639457
  0
ARC
  8
_0-1_計細線
  6
CONTINUOUS
 62
    3
 10
257.28161180409552
 20
893.20055072639457
 40
3
 50
269.99999999999977
 51
359.99999999999966
  0
LINE
  8
_0-0_計極細
  6
CENTER1
 62
    2
 10
252.2816118860419
 20
936.84192459178234
 11
252.2816118860419
 21
881.57180675553923
  0
LINE
  8
_0-1_計細線
  6
CONTINUOUS
 62
    3
 10
246.2816121102569
 20
925.20055072639457
 11
258.28161180409552
 21
925.20055072639457
  0
LINE
  8
_0-5_寸法線
  6
CONTINUOUS
 62
    7
 10
1998.2816118860405
 20
913.20055072639445
 11
2050.2816118348414
 21
913.200550726394
  0
LINE
  8
_0-5_寸法線
  6
CONTINUOUS
 62
    7
 10
2042.2816118348414
 20
913.20055072639411
 11
2038.1405071132012
 21
928.65536394701917
  0
LINE
  8
_0-5_寸法線
  6
CONTINUOUS
 62
    7
 10
2042.2816118348414
 20
913.20055072639411
 11
2046.4227165564819
 21
928.65536394701917
  0
LINE
  8
_0-5_寸法線
  6
CONTINUOUS
 62
    7
 10
1998.2816118860405
 20
936.20055072639445
 11
2050.2816118348414
 21
936.200550726394
  0
LINE
  8
_0-5_寸法線
  6
CONTINUOUS
 62
    7
 10
2042.2816118348414
 20
936.20055072639411
 11
2046.4227165564819
 21
920.74573750576906
  0
LINE
  8
_0-5_寸法線
  6
CONTINUOUS
 62
    7
 10
2042.2816118348414
 20
936.20055072639411
 11
2038.1405071132012
 21
920.74573750576906
  0
LINE
  8
_0-5_寸法線
  6
CONTINUOUS
 62
    7
 10
2042.2816118348414
 20
913.20055072639411
 11
2042.2816118348414
 21
936.20055072639411
  0
TEXT
  8
_0-5_寸法線
 62
    7
 10
2042.2816118348414
 20
912.70055072639411
 40
24
 41
1
 50
90
  1
23
  0
LINE
  8
_0-1_計細線
  6
CONTINUOUS
 62
    3
 10
1926.2816121102564
 20
925.20055072639457
 11
1924.2816121102564
 21
923.20055072639457
  0
LINE
  8
_0-1_計細線
  6
CONTINUOUS
 62
    3
 10
1924.2816121102564
 20
913.20055072639457
 11
1924.2816121102564
 21
923.20055072639457
  0
LINE
  8
_0-1_計細線
  6
CONTINUOUS
 62
    3
 10
1940.2816118040951
 20
923.20055072639457
 11
1938.2816118040951
 21
925.20055072639457
  0
LINE
  8
_0-1_計細線
  6
CONTINUOUS
 62
    3
 10
1940.2816118040951
 20
913.20055072639457
 11
1940.2816118040951
 21
923.20055072639457
  0
LINE
  8
_0-1_計細線
  6
CONTINUOUS
 62
    3
 10
1926.2816121102564
 20
909.20055072639457
 11
1924.2816121102564
 21
907.20055072639457
  0
LINE
  8
_0-1_計細線
  6
CONTINUOUS
 62
    3
 10
1926.2816121102564
 20
911.20055072639457
 11
1926.2816121102564
 21
909.20055072639457
  0
LINE
  8
_0-1_計細線
  6
CONTINUOUS
 62
    3
 10
1924.2816121102564
 20
913.20055072639457
 11
1926.2816121102564
 21
911.20055072639457
  0
LINE
  8
_0-1_計細線
  6
CONTINUOUS
 62
    3
 10
1938.2816118040951
 20
909.20055072639457
 11
1940.2816118040951
 21
907.20055072639457
  0
LINE
  8
_0-1_計細線
  6
CONTINUOUS
 62
    3
 10
1938.2816118040951
 20
911.20055072639457
 11
1938.2816118040951
 21
909.20055072639457
  0
LINE
  8
_0-1_計細線
  6
CONTINUOUS
 62
    3
 10
1940.2816118040951
 20
913.20055072639457
 11
1938.2816118040951
 21
911.20055072639457
  0
LINE
  8
_0-1_計細線
  6
CONTINUOUS
 62
    3
 10
1924.2816121102564
 20
907.20055072639457
 11
1924.2816121102564
 21
893.20055072639457
  0
ARC
  8
_0-1_計細線
  6
CONTINUOUS
 62
    3
 10
1927.2816121102564
 20
893.20055072639457
 40
3
 50
179.99999999999983
 51
269.99999999999977
  0
LINE
  8
_0-1_計細線
  6
CONTINUOUS
 62
    3
 10
1927.2816121102564
 20
890.20055072639457
 11
1937.2816118040951
 21
890.20055072639457
  0
LINE
  8
_0-1_計細線
  6
CONTINUOUS
 62
    3
 10
1940.2816118040951
 20
907.20055072639457
 11
1940.2816118040951
 21
893.20055072639457
  0
ARC
  8
_0-1_計細線
  6
CONTINUOUS
 62
    3
 10
1937.2816118040951
 20
893.20055072639457
 40
3
 50
269.99999999999977
 51
359.99999999999966
  0
LINE
  8
_0-0_計極細
  6
CENTER1
 62
    2
 10
1932.2816118860405
 20
936.84192459178234
 11
1932.2816118860405
 21
881.57180675553923
  0
LINE
  8
_0-1_計細線
  6
CONTINUOUS
 62
    3
 10
1926.2816121102564
 20
925.20055072639457
 11
1938.2816118040951
 21
925.20055072639457
  0
LINE
  8
_0-1_計細線
  6
CONTINUOUS
 62
    3
 10
666.2816121102569
 20
925.20055072639457
 11
664.2816121102569
 21
923.20055072639457
  0
LINE
  8
_0-1_計細線
  6
CONTINUOUS
 62
    3
 10
664.2816121102569
 20
913.20055072639457
 11
664.2816121102569
 21
923.20055072639457
  0
LINE
  8
_0-1_計細線
  6
CONTINUOUS
 62
    3
 10
680.28161180409552
 20
923.20055072639457
 11
678.28161180409552
 21
925.20055072639457
  0
LINE
  8
_0-1_計細線
  6
CONTINUOUS
 62
    3
 10
680.28161180409552
 20
913.20055072639457
 11
680.28161180409552
 21
923.20055072639457
  0
LINE
  8
_0-1_計細線
  6
CONTINUOUS
 62
    3
 10
666.2816121102569
 20
909.20055072639457
 11
664.2816121102569
 21
907.20055072639457
  0
LINE
  8
_0-1_計細線
  6
CONTINUOUS
 62
    3
 10
666.2816121102569
 20
911.20055072639457
 11
666.2816121102569
 21
909.20055072639457
  0
LINE
  8
_0-1_計細線
  6
CONTINUOUS
 62
    3
 10
664.2816121102569
 20
913.20055072639457
 11
666.2816121102569
 21
911.20055072639457
  0
LINE
  8
_0-1_計細線
  6
CONTINUOUS
 62
    3
 10
678.28161180409552
 20
909.20055072639457
 11
680.28161180409552
 21
907.20055072639457
  0
LINE
  8
_0-1_計細線
  6
CONTINUOUS
 62
    3
 10
678.28161180409552
 20
911.20055072639457
 11
678.28161180409552
 21
909.20055072639457
  0
LINE
  8
_0-1_計細線
  6
CONTINUOUS
 62
    3
 10
680.28161180409552
 20
913.20055072639457
 11
678.28161180409552
 21
911.20055072639457
  0
LINE
  8
_0-1_計細線
  6
CONTINUOUS
 62
    3
 10
664.2816121102569
 20
907.20055072639457
 11
664.2816121102569
 21
893.20055072639457
  0
ARC
  8
_0-1_計細線
  6
CONTINUOUS
 62
    3
 10
667.2816121102569
 20
893.20055072639457
 40
3
 50
179.99999999999983
 51
269.99999999999977
  0
LINE
  8
_0-1_計細線
  6
CONTINUOUS
 62
    3
 10
667.2816121102569
 20
890.20055072639457
 11
677.28161180409552
 21
890.20055072639457
  0
LINE
  8
_0-1_計細線
  6
CONTINUOUS
 62
    3
 10
680.28161180409552
 20
907.20055072639457
 11
680.28161180409552
 21
893.20055072639457
  0
ARC
  8
_0-1_計細線
  6
CONTINUOUS
 62
    3
 10
677.28161180409552
 20
893.20055072639457
 40
3
 50
269.99999999999977
 51
359.99999999999966
  0
LINE
  8
_0-0_計極細
  6
CENTER1
 62
    2
 10
672.2816118860419
 20
936.84192459178234
 11
672.2816118860419
 21
881.57180675553923
  0
LINE
  8
_0-1_計細線
  6
CONTINUOUS
 62
    3
 10
666.2816121102569
 20
925.20055072639457
 11
678.28161180409552
 21
925.20055072639457
  0
LINE
  8
_0-1_計細線
  6
CONTINUOUS
 62
    3
 10
1086.2816121102569
 20
925.20055072639457
 11
1084.2816121102569
 21
923.20055072639457
  0
LINE
  8
_0-1_計細線
  6
CONTINUOUS
 62
    3
 10
1084.2816121102569
 20
913.20055072639457
 11
1084.2816121102569
 21
923.20055072639457
  0
LINE
  8
_0-1_計細線
  6
CONTINUOUS
 62
    3
 10
1100.2816118040955
 20
923.20055072639457
 11
1098.2816118040955
 21
925.20055072639457
  0
LINE
  8
_0-1_計細線
  6
CONTINUOUS
 62
    3
 10
1100.2816118040955
 20
913.20055072639457
 11
1100.2816118040955
 21
923.20055072639457
  0
LINE
  8
_0-1_計細線
  6
CONTINUOUS
 62
    3
 10
1086.2816121102569
 20
909.20055072639457
 11
1084.2816121102569
 21
907.20055072639457
  0
LINE
  8
_0-1_計細線
  6
CONTINUOUS
 62
    3
 10
1086.2816121102569
 20
911.20055072639457
 11
1086.2816121102569
 21
909.20055072639457
  0
LINE
  8
_0-1_計細線
  6
CONTINUOUS
 62
    3
 10
1084.2816121102569
 20
913.20055072639457
 11
1086.2816121102569
 21
911.20055072639457
  0
LINE
  8
_0-1_計細線
  6
CONTINUOUS
 62
    3
 10
1098.2816118040955
 20
909.20055072639457
 11
1100.2816118040955
 21
907.20055072639457
  0
LINE
  8
_0-1_計細線
  6
CONTINUOUS
 62
    3
 10
1098.2816118040955
 20
911.20055072639457
 11
1098.2816118040955
 21
909.20055072639457
  0
LINE
  8
_0-1_計細線
  6
CONTINUOUS
 62
    3
 10
1100.2816118040955
 20
913.20055072639457
 11
1098.2816118040955
 21
911.20055072639457
  0
LINE
  8
_0-1_計細線
  6
CONTINUOUS
 62
    3
 10
1084.2816121102569
 20
907.20055072639457
 11
1084.2816121102569
 21
893.20055072639457
  0
ARC
  8
_0-1_計細線
  6
CONTINUOUS
 62
    3
 10
1087.2816121102569
 20
893.20055072639457
 40
3
 50
179.99999999999983
 51
269.99999999999977
  0
LINE
  8
_0-1_計細線
  6
CONTINUOUS
 62
    3
 10
1087.2816121102569
 20
890.20055072639457
 11
1097.2816118040955
 21
890.20055072639457
  0
LINE
  8
_0-1_計細線
  6
CONTINUOUS
 62
    3
 10
1100.2816118040955
 20
907.20055072639457
 11
1100.2816118040955
 21
893.20055072639457
  0
ARC
  8
_0-1_計細線
  6
CONTINUOUS
 62
    3
 10
1097.2816118040955
 20
893.20055072639457
 40
3
 50
269.99999999999977
 51
359.99999999999966
  0
LINE
  8
_0-0_計極細
  6
CENTER1
 62
    2
 10
1092.2816118860419
 20
936.84192459178234
 11
1092.2816118860419
 21
881.57180675553923
  0
LINE
  8
_0-1_計細線
  6
CONTINUOUS
 62
    3
 10
1086.2816121102569
 20
925.20055072639457
 11
1098.2816118040955
 21
925.20055072639457
  0
LINE
  8
_0-1_計細線
  6
CONTINUOUS
 62
    3
 10
1506.2816121102564
 20
925.20055072639457
 11
1504.2816121102564
 21
923.20055072639457
  0
LINE
  8
_0-1_計細線
  6
CONTINUOUS
 62
    3
 10
1504.2816121102564
 20
913.20055072639457
 11
1504.2816121102564
 21
923.20055072639457
  0
LINE
  8
_0-1_計細線
  6
CONTINUOUS
 62
    3
 10
1520.2816118040951
 20
923.20055072639457
 11
1518.2816118040951
 21
925.20055072639457
  0
LINE
  8
_0-1_計細線
  6
CONTINUOUS
 62
    3
 10
1520.2816118040951
 20
913.20055072639457
 11
1520.2816118040951
 21
923.20055072639457
  0
LINE
  8
_0-1_計細線
  6
CONTINUOUS
 62
    3
 10
1506.2816121102564
 20
909.20055072639457
 11
1504.2816121102564
 21
907.20055072639457
  0
LINE
  8
_0-1_計細線
  6
CONTINUOUS
 62
    3
 10
1506.2816121102564
 20
911.20055072639457
 11
1506.2816121102564
 21
909.20055072639457
  0
LINE
  8
_0-1_計細線
  6
CONTINUOUS
 62
    3
 10
1504.2816121102564
 20
913.20055072639457
 11
1506.2816121102564
 21
911.20055072639457
  0
LINE
  8
_0-1_計細線
  6
CONTINUOUS
 62
    3
 10
1518.2816118040951
 20
909.20055072639457
 11
1520.2816118040951
 21
907.20055072639457
  0
LINE
  8
_0-1_計細線
  6
CONTINUOUS
 62
    3
 10
1518.2816118040951
 20
911.20055072639457
 11
1518.2816118040951
 21
909.20055072639457
  0
LINE
  8
_0-1_計細線
  6
CONTINUOUS
 62
    3
 10
1520.2816118040951
 20
913.20055072639457
 11
1518.2816118040951
 21
911.20055072639457
  0
LINE
  8
_0-1_計細線
  6
CONTINUOUS
 62
    3
 10
1504.2816121102564
 20
907.20055072639457
 11
1504.2816121102564
 21
893.20055072639457
  0
ARC
  8
_0-1_計細線
  6
CONTINUOUS
 62
    3
 10
1507.2816121102564
 20
893.20055072639457
 40
3
 50
179.99999999999983
 51
269.99999999999977
  0
LINE
  8
_0-1_計細線
  6
CONTINUOUS
 62
    3
 10
1507.2816121102564
 20
890.20055072639457
 11
1517.2816118040951
 21
890.20055072639457
  0
LINE
  8
_0-1_計細線
  6
CONTINUOUS
 62
    3
 10
1520.2816118040951
 20
907.20055072639457
 11
1520.2816118040951
 21
893.20055072639457
  0
ARC
  8
_0-1_計細線
  6
CONTINUOUS
 62
    3
 10
1517.2816118040951
 20
893.20055072639457
 40
3
 50
269.99999999999977
 51
359.99999999999966
  0
LINE
  8
_0-0_計極細
  6
CENTER1
 62
    2
 10
1512.2816118860414
 20
936.84192459178234
 11
1512.2816118860414
 21
881.57180675553923
  0
LINE
  8
_0-1_計細線
  6
CONTINUOUS
 62
    3
 10
1506.2816121102564
 20
925.20055072639457
 11
1518.2816118040951
 21
925.20055072639457
  0
LINE
  8
_0-1_計細線
  6
CONTINUOUS
 62
    3
 10
202.2816118860419
 20
936.20055072639457
 11
202.2816118860419
 21
913.20055072639457
  0
LINE
  8
_0-1_計細線
  6
CONTINUOUS
 62
    3
 10
1982.2816118860405
 20
913.20055072639457
 11
1982.2816118860405
 21
936.20055072639457
  0
LINE
  8
_0-1_計細線
  6
CONTINUOUS
 62
    3
 10
1982.2816118860405
 20
936.20055072639457
 11
202.2816118860419
 21
936.20055072639457
  0
LINE
  8
_0-1_計細線
  6
CONTINUOUS
 62
    3
 10
202.2816118860419
 20
913.20055072639457
 11
244.2816121102569
 21
913.20055072639457
  0
LINE
  8
_0-1_計細線
  6
CONTINUOUS
 62
    3
 10
1940.2816118040951
 20
913.20055072639457
 11
1982.2816118860405
 21
913.20055072639457
  0
LINE
  8
_0-1_計細線
  6
CONTINUOUS
 62
    3
 10
260.28161180409552
 20
913.20055072639457
 11
664.2816121102569
 21
913.20055072639457
  0
LINE
  8
_0-1_計細線
  6
CONTINUOUS
 62
    3
 10
680.28161180409552
 20
913.20055072639457
 11
1084.2816121102569
 21
913.20055072639457
  0
LINE
  8
_0-1_計細線
  6
CONTINUOUS
 62
    3
 10
1100.2816118040955
 20
913.20055072639457
 11
1504.2816121102564
 21
913.20055072639457
  0
LINE
  8
_0-1_計細線
  6
CONTINUOUS
 62
    3
 10
1520.2816118040951
 20
913.20055072639457
 11
1924.2816121102564
 21
913.20055072639457
  0
LINE
  8
_0-5_寸法線
  6
CONTINUOUS
 62
    7
 10
252.2816118860419
 20
890.20055072639457
 11
260.70217034749794
 21
876.5956179739992
  0
LINE
  8
_0-5_寸法線
  6
CONTINUOUS
 62
    7
 10
252.2816118860419
 20
890.20055072639457
 11
252.77156305151721
 21
874.20805411531319
  0
LINE
  8
_0-5_寸法線
  6
CONTINUOUS
 62
    7
 10
252.2816118860419
 20
890.20055072639457
 11
265.55638440910434
 21
846.10664829907978
  0
LINE
  8
_0-5_寸法線
  6
CONTINUOUS
 62
    7
 10
265.55638440910434
 20
846.10664829907978
 11
342.35638440910429
 21
846.10664829907978
  0
TEXT
  8
_0-5_寸法線
 62
    7
 10
265.55638440910434
 20
846.10664829907978
 40
24
 41
0.7999999999999998
 50
0
  1
アンカー
  0
LINE
  8
_0-7_枠細線
  6
CONTINUOUS
 62
    5
 10
292.13332496462453
 20
873.3610664311376
 11
280.13332496462453
 21
897.3610664311376
  0
LINE
  8
_0-7_枠細線
  6
CONTINUOUS
 62
    5
 10
268.13332496462453
 20
873.3610664311376
 11
292.13332496462453
 21
873.3610664311376
  0
LINE
  8
_0-7_枠細線
  6
CONTINUOUS
 62
    5
 10
280.13332496462453
 20
897.3610664311376
 11
268.13332496462453
 21
873.3610664311376
  0
TEXT
  8
_0-7_枠細線
 62
    5
 10
271.91756699366113
 20
872.86986283852889
 40
20
 41
0.8
 50
0
  1
１
  0
LINE
  8
_0-5_寸法線
  6
CONTINUOUS
 62
    7
 10
202.2816118860419
 20
952.20055072639457
 11
202.2816118860419
 21
1024.2005507263946
  0
LINE
  8
_0-5_寸法線
  6
CONTINUOUS
 62
    7
 10
202.2816118860419
 20
1016.2005507263946
 11
217.73642510666696
 21
1020.3416554480349
  0
LINE
  8
_0-5_寸法線
  6
CONTINUOUS
 62
    7
 10
202.2816118860419
 20
1016.2005507263946
 11
217.73642510666696
 21
1012.0594460047542
  0
LINE
  8
_0-5_寸法線
  6
CONTINUOUS
 62
    7
 10
252.2816118860419
 20
952.20055072639457
 11
252.2816118860419
 21
1024.2005507263946
  0
LINE
  8
_0-5_寸法線
  6
CONTINUOUS
 62
    7
 10
252.2816118860419
 20
1016.2005507263946
 11
236.82679866541685
 21
1012.0594460047542
  0
LINE
  8
_0-5_寸法線
  6
CONTINUOUS
 62
    7
 10
252.2816118860419
 20
1016.2005507263946
 11
236.82679866541685
 21
1020.341655448035
  0
LINE
  8
_0-5_寸法線
  6
CONTINUOUS
 62
    7
 10
202.2816118860419
 20
1016.2005507263946
 11
252.2816118860419
 21
1016.2005507263946
  0
TEXT
  8
_0-5_寸法線
 62
    7
 10
215.2816118860419
 20
1016.2005507263946
 40
24
 41
1
 50
0
  1
50
  0
LINE
  8
_0-5_寸法線
  6
CONTINUOUS
 62
    7
 10
252.2816118860419
 20
1016.2005507263946
 11
267.73642510666696
 21
1020.3416554480348
  0
LINE
  8
_0-5_寸法線
  6
CONTINUOUS
 62
    7
 10
252.2816118860419
 20
1016.2005507263946
 11
267.73642510666696
 21
1012.0594460047541
  0
LINE
  8
_0-5_寸法線
  6
CONTINUOUS
 62
    7
 10
672.2816118860419
 20
952.20055072639457
 11
672.2816118860419
 21
1024.2005507263946
  0
LINE
  8
_0-5_寸法線
  6
CONTINUOUS
 62
    7
 10
672.2816118860419
 20
1016.2005507263946
 11
656.82679866541685
 21
1012.0594460047542
  0
LINE
  8
_0-5_寸法線
  6
CONTINUOUS
 62
    7
 10
672.2816118860419
 20
1016.2005507263946
 11
656.82679866541685
 21
1020.341655448035
  0
LINE
  8
_0-5_寸法線
  6
CONTINUOUS
 62
    7
 10
252.2816118860419
 20
1016.2005507263946
 11
672.2816118860419
 21
1016.2005507263946
  0
TEXT
  8
_0-5_寸法線
 62
    7
 10
444.2816118860419
 20
1016.2005507263946
 40
24
 41
1
 50
0
  1
420
  0
LINE
  8
_0-5_寸法線
  6
CONTINUOUS
 62
    7
 10
672.2816118860419
 20
1016.2005507263946
 11
687.73642510666707
 21
1020.3416554480348
  0
LINE
  8
_0-5_寸法線
  6
CONTINUOUS
 62
    7
 10
672.2816118860419
 20
1016.2005507263946
 11
687.73642510666696
 21
1012.0594460047541
  0
LINE
  8
_0-5_寸法線
  6
CONTINUOUS
 62
    7
 10
1092.2816118860419
 20
952.20055072639457
 11
1092.2816118860419
 21
1024.2005507263946
  0
LINE
  8
_0-5_寸法線
  6
CONTINUOUS
 62
    7
 10
1092.2816118860419
 20
1016.2005507263946
 11
1076.8267986654168
 21
1012.0594460047542
  0
LINE
  8
_0-5_寸法線
  6
CONTINUOUS
 62
    7
 10
1092.2816118860419
 20
1016.2005507263946
 11
1076.8267986654168
 21
1020.341655448035
  0
LINE
  8
_0-5_寸法線
  6
CONTINUOUS
 62
    7
 10
672.2816118860419
 20
1016.2005507263946
 11
1092.2816118860419
 21
1016.2005507263946
  0
TEXT
  8
_0-5_寸法線
 62
    7
 10
864.28161188604145
 20
1016.2005507263941
 40
24
 41
1
 50
0
  1
420
  0
LINE
  8
_0-5_寸法線
  6
CONTINUOUS
 62
    7
 10
1092.2816118860419
 20
1016.2005507263946
 11
1107.736425106667
 21
1020.3416554480348
  0
LINE
  8
_0-5_寸法線
  6
CONTINUOUS
 62
    7
 10
1092.2816118860419
 20
1016.2005507263946
 11
1107.736425106667
 21
1012.0594460047541
  0
LINE
  8
_0-5_寸法線
  6
CONTINUOUS
 62
    7
 10
1512.2816118860414
 20
952.20055072639457
 11
1512.2816118860414
 21
1024.2005507263946
  0
LINE
  8
_0-5_寸法線
  6
CONTINUOUS
 62
    7
 10
1512.2816118860414
 20
1016.2005507263946
 11
1496.8267986654164
 21
1012.0594460047542
  0
LINE
  8
_0-5_寸法線
  6
CONTINUOUS
 62
    7
 10
1512.2816118860414
 20
1016.2005507263946
 11
1496.8267986654164
 21
1020.341655448035
  0
LINE
  8
_0-5_寸法線
  6
CONTINUOUS
 62
    7
 10
1092.2816118860419
 20
1016.2005507263946
 11
1512.2816118860414
 21
1016.2005507263946
  0
TEXT
  8
_0-5_寸法線
 62
    7
 10
1284.2816118860414
 20
1016.2005507263941
 40
24
 41
1
 50
0
  1
420
  0
LINE
  8
_0-5_寸法線
  6
CONTINUOUS
 62
    7
 10
1512.2816118860414
 20
1016.2005507263946
 11
1527.7364251066665
 21
1020.3416554480348
  0
LINE
  8
_0-5_寸法線
  6
CONTINUOUS
 62
    7
 10
1512.2816118860414
 20
1016.2005507263946
 11
1527.7364251066665
 21
1012.0594460047541
  0
LINE
  8
_0-5_寸法線
  6
CONTINUOUS
 62
    7
 10
1932.2816118860405
 20
952.20055072639457
 11
1932.2816118860405
 21
1024.2005507263946
  0
LINE
  8
_0-5_寸法線
  6
CONTINUOUS
 62
    7
 10
1932.2816118860405
 20
1016.2005507263946
 11
1916.8267986654155
 21
1012.0594460047542
  0
LINE
  8
_0-5_寸法線
  6
CONTINUOUS
 62
    7
 10
1932.2816118860405
 20
1016.2005507263946
 11
1916.8267986654155
 21
1020.341655448035
  0
LINE
  8
_0-5_寸法線
  6
CONTINUOUS
 62
    7
 10
1512.2816118860414
 20
1016.2005507263946
 11
1932.2816118860405
 21
1016.2005507263946
  0
TEXT
  8
_0-5_寸法線
 62
    7
 10
1704.2816118860414
 20
1016.2005507263941
 40
24
 41
1
 50
0
  1
420
  0
LINE
  8
_0-5_寸法線
  6
CONTINUOUS
 62
    7
 10
1932.2816118860405
 20
1016.2005507263946
 11
1947.7364251066656
 21
1020.3416554480348
  0
LINE
  8
_0-5_寸法線
  6
CONTINUOUS
 62
    7
 10
1932.2816118860405
 20
1016.2005507263946
 11
1947.7364251066656
 21
1012.0594460047541
  0
LINE
  8
_0-5_寸法線
  6
CONTINUOUS
 62
    7
 10
1982.2816118860405
 20
952.20055072639457
 11
1982.2816118860405
 21
1024.2005507263946
  0
LINE
  8
_0-5_寸法線
  6
CONTINUOUS
 62
    7
 10
1982.2816118860405
 20
1016.2005507263946
 11
1966.8267986654155
 21
1012.0594460047542
  0
LINE
  8
_0-5_寸法線
  6
CONTINUOUS
 62
    7
 10
1982.2816118860405
 20
1016.2005507263946
 11
1966.8267986654155
 21
1020.341655448035
  0
LINE
  8
_0-5_寸法線
  6
CONTINUOUS
 62
    7
 10
1932.2816118860405
 20
1016.2005507263946
 11
1982.2816118860405
 21
1016.2005507263946
  0
TEXT
  8
_0-5_寸法線
 62
    7
 10
1945.2816118860414
 20
1016.2005507263946
 40
24
 41
1
 50
0
  1
50
  0
ENDSEC
  0
EOF
