  0
SECTION
  2
HEADER
  9
$ACADVER
  1
AC1009
  9
$INSBASE
 10
0
 20
0
 30
0
  9
$EXTMIN
 10
0
 20
0
  9
$EXTMAX
 10
2970
 20
2100
  9
$LIMMIN
 10
0
 20
0
  9
$LIMMAX
 10
2970
 20
2100
  9
$LTSCALE
 40
10
  0
ENDSEC
  0
SECTION
  2
TABLES
  0
TABLE
  2
LTYPE
 70
     9
  0
LTYPE
  2
CONTINUOUS
 70
    64
  3
実線
 72
    65
 73
     0
 40
0.0
  0
LTYPE
  2
DASHED1
 70
    64
  3
--  --  --  --  --  --  --  --  
 72
    65
 73
     2
 40
2.5
 49
1.25
 49
-1.25
  0
LTYPE
  2
DASHED2
 70
    64
  3
----    ----    ----    ----    
 72
    65
 73
     2
 40
5.0
 49
2.5
 49
-2.5
  0
LTYPE
  2
DASHED3
 70
    64
  3
------  ------  ------  ------  
 72
    65
 73
     2
 40
5.0
 49
3.75
 49
-1.25
  0
LTYPE
  2
CENTER1
 70
    64
  3
----- - ----- - ----- - ----- - 
 72
    65
 73
     4
 40
10.0
 49
6.25
 49
-1.25
 49
1.25
 49
-1.25
  0
LTYPE
  2
CENTER2
 70
    64
  3
----------  --  ----------  --  
 72
    65
 73
     4
 40
20.0
 49
12.5
 49
-2.5
 49
2.5
 49
-2.5
  0
LTYPE
  2
PHANTOM1
 70
    64
  3
--- - - --- - - --- - - --- - - 
 72
    65
 73
     6
 40
10.0
 49
3.25
 49
-1.25
 49
1.25
 49
-1.25
 49
1.25
 49
-1.25
  0
LTYPE
  2
PHANTOM2
 70
    64
  3
--------  -  -  --------  -  -  
 72
    65
 73
     6
 40
20.0
 49
10.0
 49
-2.5
 49
1.25
 49
-2.5
 49
1.25
 49
-2.5
  0
LTYPE
  2
DOT
 70
    64
  3
-   -   -   -   -   -   -   -   
 72
    65
 73
     2
 40
2.5
 49
0.625
 49
-1.875
  0
LTYPE
  2
DUMMY
 70
    64
  3
ダミー
 72
    65
 73
     0
 40
0.0
  0
LTYPE
  2
RAND1
 70
    64
  3
ランダム線1
 72
    65
 73
     4
 40
10.0
 49
1.0
 49
-2.0
 49
3.0
 49
-4.0
  0
LTYPE
  2
RAND2
 70
    64
  3
ランダム線2
 72
    65
 73
     4
 40
14.0
 49
2.0
 49
-3.0
 49
4.0
 49
-5.0
  0
LTYPE
  2
RAND3
 70
    64
  3
ランダム線3
 72
    65
 73
     4
 40
18.0
 49
3.0
 49
-4.0
 49
5.0
 49
-6.0
  0
LTYPE
  2
RAND4
 70
    64
  3
ランダム線4
 72
    65
 73
     4
 40
22.0
 49
4.0
 49
-5.0
 49
6.0
 49
-7.0
  0
LTYPE
  2
RAND5
 70
    64
  3
ランダム線5
 72
    65
 73
     4
 40
26.0
 49
5.0
 49
-6.0
 49
7.0
 49
-8.0
  0
LTYPE
  2
LONG1
 70
    64
  3
----------  --  ----------  --  
 72
    65
 73
     4
 40
40.0
 49
32.5
 49
-2.5
 49
2.5
 49
-2.5
  0
LTYPE
  2
LONG2
 70
    64
  3
--------  -  -  --------  -  -  
 72
    65
 73
     6
 40
40.0
 49
30.0
 49
-2.5
 49
1.25
 49
-2.5
 49
1.25
 49
-2.5
  0
LTYPE
  2
LONG3
 70
    64
  3
+++++++++++++++..+++++++++++++++
 72
    65
 73
     2
 40
40.0
 49
37.5
 49
-2.5
  0
LTYPE
  2
LONG4
 70
    64
  3
+++++++++++++++..+++++++++++++++
 72
    65
 73
     2
 40
80.0
 49
75.0
 49
-5.0
  0
LTYPE
  2
LONG5
 70
    64
  3
----------  --  ----------  --  
 72
    65
 73
     4
 40
60.0
 49
37.5
 49
-7.5
 49
7.5
 49
-7.5
  0
LTYPE
  2
dashed
 70
   64
  3
-------   -------------   ------
 72
   65
 73
    2
 40
7.5
 49
6
 49
-1.5
  0
LTYPE
  2
dashed_spaced
 70
   64
  3
----        --------        ----
 72
   65
 73
    2
 40
12
 49
6
 49
-6
  0
LTYPE
  2
long_dashed_dotted
 70
   64
  3
------------- --- --------------
 72
   65
 73
    4
 40
15.25
 49
12
 49
-1.5
 49
0.25
 49
-1.5
  0
LTYPE
  2
long_dashed_double-dotted
 70
   64
  3
----------- --- --- ------------
 72
   65
 73
    6
 40
17
 49
12
 49
-1.5
 49
0.25
 49
-1.5
 49
0.25
 49
-1.5
  0
LTYPE
  2
long_dashed_triplicate-dotted
 70
   64
  3
--------- --- --- --- ----------
 72
   65
 73
    8
 40
18.75
 49
12
 49
-1.5
 49
0.25
 49
-1.5
 49
0.25
 49
-1.5
 49
0.25
 49
-1.5
  0
LTYPE
  2
dotted
 70
   64
  3
   -       -       -       -    
 72
   65
 73
    2
 40
1.75
 49
0.25
 49
-1.5
  0
LTYPE
  2
chain
 70
   64
  3
-------------- -- --------------
 72
   65
 73
    4
 40
18.5
 49
12
 49
-1.5
 49
3.5
 49
-1.5
  0
LTYPE
  2
chain_double_dash
 70
   64
  3
------------ -- -- -------------
 72
   65
 73
    6
 40
23.5
 49
12
 49
-1.5
 49
3.5
 49
-1.5
 49
3.5
 49
-1.5
  0
LTYPE
  2
dashed_dotted
 70
   64
  3
-----------     -     ----------
 72
   65
 73
    4
 40
9.25
 49
6
 49
-1.5
 49
0.25
 49
-1.5
  0
LTYPE
  2
double-dashed_dotted
 70
   64
  3
------   -----------   -   -----
 72
   65
 73
    6
 40
16.75
 49
6
 49
-1.5
 49
6
 49
-1.5
 49
0.25
 49
-1.5
  0
LTYPE
  2
dashed_double-dotted
 70
   64
  3
---------    -    -    ---------
 72
   65
 73
    6
 40
11
 49
6
 49
-1.5
 49
0.25
 49
-1.5
 49
0.25
 49
-1.5
  0
LTYPE
  2
double-dashed_double-dotted
 70
   64
  3
-----   ---------   -   -   ----
 72
   65
 73
    8
 40
18.5
 49
6
 49
-1.5
 49
6
 49
-1.5
 49
0.25
 49
-1.5
 49
0.25
 49
-1.5
  0
LTYPE
  2
dashed_triplicate-dotted
 70
   64
  3
-------    -    -    -    ------
 72
   65
 73
    8
 40
12.75
 49
6
 49
-1.5
 49
0.25
 49
-1.5
 49
0.25
 49
-1.5
 49
0.25
 49
-1.5
  0
LTYPE
  2
double-dashed_triplicate-dotted
 70
   64
  3
-----  ---------  -  -  -  -----
 72
   65
 73
   10
 40
20.25
 49
6
 49
-1.5
 49
6
 49
-1.5
 49
0.25
 49
-1.5
 49
0.25
 49
-1.5
 49
0.25
 49
-1.5
  0
LTYPE
  2
undefined
 70
   64
  3
--------------------------------
 72
   65
 73
    0
 40
0
  0
ENDTAB
  0
TABLE
  2
STYLE
  5
3
100
AcDbSymbolTable
 70
     1
  0
STYLE
  5
10
100
AcDbSymbolTableRecord
100
AcDbTextStyleTableRecord
  2
STANDARD
 70
     0
 40
0.0
 41
1.0
 50
0.0
 71
     0
 42
0.2
  3
txt
  4
bigfont.shx
  0
STYLE
  5
26
100
AcDbSymbolTableRecord
100
AcDbTextStyleTableRecord
  2
TATEGAKI
 70
    68
 40
0.0
 41
1.0
 50
0.0
 71
     0
 42
1.0
  3
txt
  4
bigfont.shx
  0
ENDTAB
  0
TABLE
  2
LAYER
 70
    9
  0
LAYER
  2
_0-0_計極細
 70
   64
 62
    7
  6
CONTINUOUS
  0
LAYER
  2
_0-1_計細線
 70
   64
 62
    7
  6
CONTINUOUS
  0
LAYER
  2
_0-5_寸法線
 70
   64
 62
    7
  6
CONTINUOUS
  0
LAYER
  2
_0-7_枠細線
 70
   64
 62
    7
  6
CONTINUOUS
  0
LAYER
  2
_0-8_枠中線
 70
   64
 62
    7
  6
CONTINUOUS
  0
LAYER
  2
_1-2_極細2
 70
   64
 62
    7
  6
CONTINUOUS
  0
LAYER
  2
_1-3_細線2
 70
   64
 62
    7
  6
CONTINUOUS
  0
LAYER
  2
_1-5_寸法2
 70
   64
 62
    7
  6
CONTINUOUS
  0
LAYER
  2
ADD_LINE
 70
   64
 62
    7
  6
CONTINUOUS
  0
ENDTAB
  0
ENDSEC
  0
SECTION
  2
BLOCKS
  0
ENDSEC
  0
SECTION
  2
ENTITIES
  0
LINE
  8
_0-8_枠中線
  6
CONTINUOUS
 62
    5
 10
120
 20
120
 11
120
 21
1920
  0
LINE
  8
_0-8_枠中線
  6
CONTINUOUS
 62
    5
 10
120
 20
1920
 11
2850
 21
1920
  0
LINE
  8
_0-8_枠中線
  6
CONTINUOUS
 62
    5
 10
2850
 20
1920
 11
2850
 21
120
  0
LINE
  8
_0-8_枠中線
  6
CONTINUOUS
 62
    5
 10
2850
 20
120
 11
120
 21
120
  0
LINE
  8
_0-7_枠細線
  6
CONTINUOUS
 62
    5
 10
2370
 20
360
 11
2370
 21
200
  0
TEXT
  8
_0-7_枠細線
 62
    5
 10
1875
 20
195
 40
35
 41
1
 50
0
  1
備考
  7
TATEGAKI
  0
TEXT
  8
_0-7_枠細線
 62
    5
 10
1875
 20
275
 40
35
 41
1
 50
0
  1
品番
  7
TATEGAKI
  0
TEXT
  8
_0-7_枠細線
 62
    5
 10
1875
 20
355
 40
35
 41
1
 50
0
  1
品名
  7
TATEGAKI
  0
LINE
  8
_0-7_枠細線
  6
CONTINUOUS
 62
    5
 10
2370
 20
280
 11
1850
 21
280
  0
LINE
  8
_0-7_枠細線
  6
CONTINUOUS
 62
    5
 10
1900
 20
360
 11
1900
 21
120
  0
LINE
  8
_0-8_枠中線
  6
CONTINUOUS
 62
    5
 10
2850
 20
360
 11
1850
 21
360
  0
LINE
  8
_0-8_枠中線
  6
CONTINUOUS
 62
    5
 10
1850
 20
360
 11
1850
 21
120
  0
LINE
  8
_0-7_枠細線
  6
CONTINUOUS
 62
    5
 10
2490
 20
360
 11
2490
 21
120
  0
TEXT
  8
_0-7_枠細線
 62
    5
 10
2385
 20
320
 40
30
 41
1
 50
0
  1
縮　尺
  0
LINE
  8
_0-7_枠細線
  6
CONTINUOUS
 62
    5
 10
2370
 20
310
 11
2490
 21
310
  0
LINE
  8
_0-7_枠細線
  6
CONTINUOUS
 62
    5
 10
2490
 20
200
 11
1850
 21
200
  0
LINE
  8
_0-7_枠細線
  6
CONTINUOUS
 62
    5
 10
2850
 20
180
 11
2490
 21
180
  0
LINE
  8
_0-7_枠細線
  6
CONTINUOUS
 62
    5
 10
2490
 20
240
 11
2850
 21
240
  0
LINE
  8
_0-7_枠細線
  6
CONTINUOUS
 62
    5
 10
2850
 20
280
 11
2490
 21
280
  0
TEXT
  8
_0-7_枠細線
 62
    5
 10
2510
 20
295
 40
50
 41
0.8
 50
0
  1
株式会社シマブン
  0
TEXT
  8
_0-7_枠細線
 62
    5
 10
2505
 20
120
 40
30
 41
1
 50
0
  1
年月日
  0
TEXT
  8
_0-7_枠細線
 62
    5
 10
2505
 20
150
 40
30
 41
1
 50
0
  1
作　成
  0
TEXT
  8
_0-7_枠細線
 62
    5
 10
2512.5
 20
245
 40
30
 41
1
 50
0
  1
承 認
  0
LINE
  8
_0-7_枠細線
  6
CONTINUOUS
 62
    5
 10
2610
 20
280
 11
2610
 21
120
  0
TEXT
  8
_0-7_枠細線
 62
    5
 10
2632.5
 20
245
 40
30
 41
1
 50
0
  1
検 図
  0
LINE
  8
_0-7_枠細線
  6
CONTINUOUS
 62
    5
 10
2730
 20
280
 11
2730
 21
180
  0
TEXT
  8
_0-7_枠細線
 62
    5
 10
2752.5
 20
245
 40
30
 41
1
 50
0
  1
設 計
  0
TEXT
  8
_0-7_枠細線
 62
    5
 10
2750
 20
190
 40
40
 41
1
 50
0
  1
藤戸
  0
TEXT
  8
_0-7_枠細線
 62
    5
 10
2510
 20
190
 40
40
 41
1
 50
0
  1
大野
  0
TEXT
  8
_0-7_枠細線
 62
    5
 10
2630
 20
190
 40
40
 41
1
 50
0
  1
深川
  0
TEXT
  8
_0-7_枠細線
 62
    5
 10
2620
 20
135
 40
30
 41
0.6666666666666666
 50
0
  1
２０１５年０４月０１日
  0
LINE
  8
_0-1_計細線
  6
CONTINUOUS
 62
    3
 10
356.79689303288978
 20
1447.0947982538357
 11
356.79689303288978
 21
1437.0947982538357
  0
LINE
  8
_0-1_計細線
  6
CONTINUOUS
 62
    3
 10
356.79689303288978
 20
1462.5947982538353
 11
356.79689303288978
 21
1452.5947982538353
  0
LINE
  8
_0-1_計細線
  6
CONTINUOUS
 62
    3
 10
356.79689303288978
 20
1493.5947982538348
 11
356.79689303288978
 21
1483.5947982538348
  0
LINE
  8
_0-1_計細線
  6
CONTINUOUS
 62
    3
 10
356.79689303288978
 20
1509.0947982538344
 11
356.79689303288978
 21
1499.0947982538344
  0
LINE
  8
_0-1_計細線
  6
CONTINUOUS
 62
    3
 10
2329.2968934329019
 20
1482.5947978738309
 11
2329.2968934329019
 21
1473.5947982338346
  0
LINE
  8
_0-0_計極細
  6
CENTER1
 62
    2
 10
344.12543377506438
 20
1473.0947982538348
 11
2341.1541544016982
 21
1473.0947982538348
  0
LINE
  8
_0-1_計細線
  6
CONTINUOUS
 62
    3
 10
2332.2968930328898
 20
1432.0947982538348
 11
2332.2968930328898
 21
1514.0947982538351
  0
LINE
  8
_0-1_計細線
  6
CONTINUOUS
 62
    3
 10
2332.2968930328898
 20
1514.0947982538351
 11
352.29689303288978
 21
1514.0947982538351
  0
LINE
  8
_0-1_計細線
  6
CONTINUOUS
 62
    3
 10
352.29689303288978
 20
1514.0947982538351
 11
352.29689303288978
 21
1432.0947982538348
  0
LINE
  8
_0-1_計細線
  6
CONTINUOUS
 62
    3
 10
352.29689303288978
 20
1432.0947982538348
 11
2332.2968930328898
 21
1432.0947982538348
  0
LINE
  8
_0-1_計細線
  6
CONTINUOUS
 62
    3
 10
355.2968930328899
 20
1511.0947982538348
 11
355.2968930328899
 21
1435.0947982538351
  0
LINE
  8
_0-1_計細線
  6
CONTINUOUS
 62
    3
 10
355.2968930328899
 20
1435.0947982538351
 11
2329.2968930328898
 21
1435.0947982538351
  0
LINE
  8
_0-1_計細線
  6
CONTINUOUS
 62
    3
 10
2329.2968930328898
 20
1435.0947982538351
 11
2329.2968930328898
 21
1511.0947982538348
  0
LINE
  8
_0-1_計細線
  6
CONTINUOUS
 62
    3
 10
2329.2968930328898
 20
1511.0947982538348
 11
355.2968930328899
 21
1511.0947982538348
  0
LINE
  8
_0-5_寸法線
  6
CONTINUOUS
 62
    7
 10
1000.5346580839728
 20
1442.7774221106436
 11
1000.5346580839727
 21
1422.7774221106436
  0
LINE
  8
_0-5_寸法線
  6
CONTINUOUS
 62
    7
 10
1000.5346580839728
 20
1442.7774221106436
 11
990.53465808397277
 21
1425.4569140349552
  0
LINE
  8
_0-5_寸法線
  6
CONTINUOUS
 62
    7
 10
1000.5346580839728
 20
1442.7774221106436
 11
976.23632225400479
 21
1352.0947982538348
  0
LINE
  8
_0-5_寸法線
  6
CONTINUOUS
 62
    7
 10
976.23632225400479
 20
1352.0947982538348
 11
904.23632225400513
 21
1352.0947982538348
  0
TEXT
  8
_0-5_寸法線
 62
    7
 10
904.23632225400479
 20
1352.0947982538348
 40
30
 41
0.7999999999999998
 50
0
  1
上フタ
  0
LINE
  8
_0-0_計極細
  6
CENTER1
 62
    2
 10
2552.1620862568934
 20
1473.0947982538348
 11
2663.9822301417853
 21
1473.0947982538348
  0
LINE
  8
_0-1_計細線
  6
CONTINUOUS
 62
    3
 10
2578.8089827611902
 20
1514.0949881808283
 11
2578.8089827611902
 21
1432.0949881808281
  0
LINE
  8
_0-1_計細線
  6
CONTINUOUS
 62
    3
 10
2578.8089827611902
 20
1432.0949881808281
 11
2601.8089827611902
 21
1432.0949881808281
  0
LINE
  8
_0-1_計細線
  6
CONTINUOUS
 62
    3
 10
2601.8089827611902
 20
1432.0949881808281
 11
2601.8089827611902
 21
1514.0949881808283
  0
LINE
  8
_0-1_計細線
  6
CONTINUOUS
 62
    3
 10
2601.8089827611902
 20
1514.0949881808283
 11
2578.8089827611902
 21
1514.0949881808283
  0
TEXT
  8
_0-7_枠細線
 62
    5
 10
2374
 20
235
 40
40
 41
0.6999999999999998
 50
0
  1
１：１０
  0
LINE
  8
_0-5_寸法線
  6
CONTINUOUS
 62
    7
 10
2304.904285607473
 20
1512.6504988630604
 11
2290.7621499837423
 21
1526.7926344867915
  0
LINE
  8
_0-5_寸法線
  6
CONTINUOUS
 62
    7
 10
2304.904285607473
 20
1512.6504988630604
 11
2299.7279047054226
 21
1531.9690153888416
  0
LINE
  8
_0-5_寸法線
  6
CONTINUOUS
 62
    7
 10
2304.904285607473
 20
1512.6504988630604
 11
2290.2140125048677
 21
1538.0947982538351
  0
LINE
  8
_0-5_寸法線
  6
CONTINUOUS
 62
    7
 10
2290.2140125048677
 20
1538.0947982538351
 11
2146.2140125048682
 21
1538.0947982538351
  0
TEXT
  8
_0-5_寸法線
 62
    7
 10
2146.2140125048677
 20
1538.0947982538351
 40
30
 41
0.8000000000000001
 50
0
  1
Ｌアングル枠
  0
LINE
  8
_0-1_計細線
  6
CONTINUOUS
 62
    3
 10
2327.7968930328898
 20
1509.0947982538344
 11
356.79689303288978
 21
1509.0947982538344
  0
LINE
  8
_0-1_計細線
  6
CONTINUOUS
 62
    3
 10
356.79689303288978
 20
1499.0947982538344
 11
2327.7968930328898
 21
1499.0947982538344
  0
LINE
  8
_0-1_計細線
  6
CONTINUOUS
 62
    3
 10
2327.7968930328898
 20
1493.5947982538348
 11
356.79689303288978
 21
1493.5947982538348
  0
LINE
  8
_0-1_計細線
  6
CONTINUOUS
 62
    3
 10
356.79689303288978
 20
1483.5947982538348
 11
2327.7968930328898
 21
1483.5947982538348
  0
LINE
  8
_0-1_計細線
  6
CONTINUOUS
 62
    3
 10
2327.7968930328898
 20
1462.5947982538353
 11
356.79689303288978
 21
1462.5947982538353
  0
LINE
  8
_0-1_計細線
  6
CONTINUOUS
 62
    3
 10
356.79689303288978
 20
1452.5947982538353
 11
2327.7968930328898
 21
1452.5947982538353
  0
LINE
  8
_0-1_計細線
  6
CONTINUOUS
 62
    3
 10
2327.7968930328898
 20
1447.0947982538357
 11
356.79689303288978
 21
1447.0947982538357
  0
LINE
  8
_0-1_計細線
  6
CONTINUOUS
 62
    3
 10
356.79689303288978
 20
1437.0947982538357
 11
2327.7968930328898
 21
1437.0947982538357
  0
LINE
  8
_0-1_計細線
  6
CONTINUOUS
 62
    3
 10
2327.7968930328898
 20
1509.0947982538344
 11
2327.7968930328898
 21
1499.0947982538344
  0
LINE
  8
_0-1_計細線
  6
CONTINUOUS
 62
    3
 10
2327.7968930328898
 20
1493.5947982538348
 11
2327.7968930328898
 21
1483.5947982538348
  0
LINE
  8
_0-1_計細線
  6
CONTINUOUS
 62
    3
 10
2327.7968930328898
 20
1478.0947982538348
 11
2327.7968930328898
 21
1468.0947982538348
  0
LINE
  8
_0-1_計細線
  6
CONTINUOUS
 62
    3
 10
2327.7968930328898
 20
1462.5947982538353
 11
2327.7968930328898
 21
1452.5947982538353
  0
LINE
  8
_0-1_計細線
  6
CONTINUOUS
 62
    3
 10
2327.7968930328898
 20
1447.0947982538357
 11
2327.7968930328898
 21
1437.0947982538357
  0
LINE
  8
_0-1_計細線
  6
CONTINUOUS
 62
    3
 10
2327.7968930328898
 20
1478.0947982538348
 11
356.79689303288967
 21
1478.0947982538348
  0
LINE
  8
_0-1_計細線
  6
CONTINUOUS
 62
    3
 10
356.79689303288967
 20
1478.0947982538348
 11
356.79689303288978
 21
1468.0947982538348
  0
LINE
  8
_0-1_計細線
  6
CONTINUOUS
 62
    3
 10
356.79689303288978
 20
1468.0947982538348
 11
2327.7968930328898
 21
1468.0947982538348
  0
TEXT
  8
_0-7_枠細線
 62
    5
 10
1930.9999999999995
 20
220
 40
40
 41
0.6
 50
0
  1
ＧＳＥ－Ｌ２０００
  0
TEXT
  8
_0-7_枠細線
 62
    5
 10
1930.9999999999991
 20
300.00000000000057
 40
40
 41
0.625
 50
0
  1
玄関排水Ｌアングル枠仕様
  0
LINE
  8
_1-5_寸法2
  6
CONTINUOUS
 62
    7
 10
516.74934725848607
 20
610.02693558975216
 11
516.74934725848607
 21
692.52693629376824
  0
LINE
  8
_1-5_寸法2
  6
CONTINUOUS
 62
    7
 10
516.74934725848607
 20
672.52693629376824
 11
497.43083073270469
 21
667.35055539171799
  0
LINE
  8
_1-5_寸法2
  6
CONTINUOUS
 62
    7
 10
516.74934725848607
 20
672.52693629376824
 11
497.43083073270469
 21
677.70331719581873
  0
LINE
  8
_1-5_寸法2
  6
CONTINUOUS
 62
    7
 10
544.24934725848607
 20
610.02693558975216
 11
544.24934725848607
 21
692.52693629376824
  0
LINE
  8
_1-5_寸法2
  6
CONTINUOUS
 62
    7
 10
469.47505309836299
 20
672.52693629376824
 11
544.24934725848607
 21
672.52693629376824
  0
TEXT
  8
_1-5_寸法2
 62
    7
 10
469.47505309836299
 20
672.52693629376824
 40
30
 41
1
 50
0
  1
5.5
  0
LINE
  8
_1-5_寸法2
  6
CONTINUOUS
 62
    7
 10
544.24934725848607
 20
672.52693629376824
 11
563.56786378426762
 21
677.7033171958185
  0
LINE
  8
_1-5_寸法2
  6
CONTINUOUS
 62
    7
 10
544.24934725848607
 20
672.52693629376824
 11
563.56786378426727
 21
667.35055539171776
  0
LINE
  8
_1-5_寸法2
  6
CONTINUOUS
 62
    7
 10
594.24934725848607
 20
610.02693558975216
 11
594.24934725848607
 21
692.52693629376824
  0
LINE
  8
_1-5_寸法2
  6
CONTINUOUS
 62
    7
 10
594.24934725848607
 20
672.52693629376824
 11
574.93083073270464
 21
667.35055539171799
  0
LINE
  8
_1-5_寸法2
  6
CONTINUOUS
 62
    7
 10
594.24934725848607
 20
672.52693629376824
 11
574.93083073270464
 21
677.70331719581873
  0
LINE
  8
_1-5_寸法2
  6
CONTINUOUS
 62
    7
 10
544.24934725848607
 20
672.52693629376824
 11
594.24934725848607
 21
672.52693629376824
  0
TEXT
  8
_1-5_寸法2
 62
    7
 10
554.24934725848607
 20
672.52693629376824
 40
30
 41
1
 50
0
  1
10
  0
LINE
  8
_1-2_極細2
  6
CONTINUOUS
 62
    2
 10
878.2493477687317
 20
559.0269355897517
 11
881.74934776873158
 21
559.0269355897517
  0
LINE
  8
_1-2_極細2
  6
CENTER1
 62
    2
 10
646.74934725848607
 20
629.60750831468977
 11
646.74934725848607
 21
463.42045795497739
  0
ARC
  8
_1-2_極細2
  6
CONTINUOUS
 62
    2
 10
456.74934826842957
 20
502.52693558975238
 40
15.000000000000007
 50
179.99999999999983
 51
269.99999999999977
  0
LINE
  8
_1-2_極細2
  6
CONTINUOUS
 62
    2
 10
441.74934826842957
 20
502.52693558975238
 11
441.74934826842957
 21
600.02693558975238
  0
LINE
  8
_1-2_極細2
  6
CONTINUOUS
 62
    2
 10
456.74934826842957
 20
487.52693558975238
 11
589.24934826842957
 21
487.52693558975238
  0
LINE
  8
_1-2_極細2
  6
CONTINUOUS
 62
    2
 10
591.74934826842957
 20
490.02693558975238
 11
589.24934826842957
 21
487.52693558975238
  0
LINE
  8
_1-2_極細2
  6
CONTINUOUS
 62
    2
 10
591.74934826842957
 20
500.02693558975238
 11
591.74934826842957
 21
490.02693558975238
  0
LINE
  8
_1-2_極細2
  6
CONTINUOUS
 62
    2
 10
589.24934826842957
 20
502.52693558975238
 11
591.74934826842957
 21
500.02693558975238
  0
LINE
  8
_1-2_極細2
  6
CONTINUOUS
 62
    2
 10
456.74934826842957
 20
502.52693558975238
 11
589.24934826842957
 21
502.52693558975238
  0
LINE
  8
_1-2_極細2
  6
CONTINUOUS
 62
    2
 10
444.249348268429
 20
602.52693558975238
 11
441.74934826842957
 21
600.02693558975238
  0
LINE
  8
_1-2_極細2
  6
CONTINUOUS
 62
    2
 10
454.249348268429
 20
602.52693558975238
 11
444.249348268429
 21
602.52693558975238
  0
LINE
  8
_1-2_極細2
  6
CONTINUOUS
 62
    2
 10
456.74934826842957
 20
600.02693558975238
 11
454.249348268429
 21
602.52693558975238
  0
LINE
  8
_1-2_極細2
  6
CONTINUOUS
 62
    2
 10
456.74934826842957
 20
502.52693558975238
 11
456.74934826842957
 21
600.02693558975238
  0
ARC
  8
_1-2_極細2
  6
CONTINUOUS
 62
    2
 10
836.74934673767211
 20
502.52693558975238
 40
15.000000000000007
 50
269.99999999999977
 51
359.99999999999966
  0
LINE
  8
_1-2_極細2
  6
CONTINUOUS
 62
    2
 10
851.74934673767211
 20
502.52693558975238
 11
851.74934673767211
 21
600.02693558975238
  0
LINE
  8
_1-2_極細2
  6
CONTINUOUS
 62
    2
 10
836.74934673767211
 20
487.52693558975238
 11
704.24934673767189
 21
487.52693558975238
  0
LINE
  8
_1-2_極細2
  6
CONTINUOUS
 62
    2
 10
701.74934673767189
 20
490.02693558975238
 11
704.24934673767189
 21
487.52693558975238
  0
LINE
  8
_1-2_極細2
  6
CONTINUOUS
 62
    2
 10
701.74934673767189
 20
500.02693558975238
 11
701.74934673767189
 21
490.02693558975238
  0
LINE
  8
_1-2_極細2
  6
CONTINUOUS
 62
    2
 10
704.24934673767189
 20
502.52693558975238
 11
701.74934673767189
 21
500.02693558975238
  0
LINE
  8
_1-2_極細2
  6
CONTINUOUS
 62
    2
 10
836.74934673767211
 20
502.52693558975238
 11
704.24934673767189
 21
502.52693558975238
  0
LINE
  8
_1-2_極細2
  6
CONTINUOUS
 62
    2
 10
849.24934673767211
 20
602.52693558975238
 11
851.74934673767211
 21
600.02693558975238
  0
LINE
  8
_1-2_極細2
  6
CONTINUOUS
 62
    2
 10
839.24934673767211
 20
602.52693558975238
 11
849.24934673767211
 21
602.52693558975238
  0
LINE
  8
_1-2_極細2
  6
CONTINUOUS
 62
    2
 10
836.74934673767211
 20
600.02693558975238
 11
839.24934673767211
 21
602.52693558975238
  0
LINE
  8
_1-2_極細2
  6
CONTINUOUS
 62
    2
 10
836.74934673767211
 20
502.52693558975238
 11
836.74934673767211
 21
600.02693558975238
  0
CIRCLE
  8
_1-2_極細2
  6
CONTINUOUS
 62
    2
 10
721.70562068367201
 20
447.45012980269803
 40
5.4765944180441757
  0
CIRCLE
  8
_1-2_極細2
  6
CONTINUOUS
 62
    2
 10
760.96673179478489
 20
439.08994461751098
 40
1.6592592592592157
  0
LINE
  8
_1-2_極細2
  6
CONTINUOUS
 62
    2
 10
363.52673223998096
 20
567.52693558975216
 11
398.52673135530506
 21
602.52693470507643
  0
LINE
  8
_1-2_極細2
  6
CONTINUOUS
 62
    2
 10
333.89925350190282
 20
601.53906715846301
 11
334.88712154636204
 21
602.526935202922
  0
LINE
  8
_1-2_極細2
  6
DASHED2
 62
    2
 10
395.34653739337557
 20
567.52693558975216
 11
416.74934673767126
 21
588.92974493404779
  0
LINE
  8
_1-2_極細2
  6
DASHED2
 62
    2
 10
333.89925350190282
 20
569.71926200506891
 11
366.70692645083278
 21
602.52693495399899
  0
LINE
  8
_1-2_極細2
  6
CONTINUOUS
 62
    2
 10
441.74934673767183
 20
567.52693558975216
 11
333.89925350190282
 21
567.52693558975216
  0
LINE
  8
_1-2_極細2
  6
CONTINUOUS
 62
    2
 10
416.74934673767126
 20
602.5269355897525
 11
333.89925350190282
 21
602.5269355897525
  0
LINE
  8
_1-2_極細2
  6
CONTINUOUS
 62
    2
 10
954.83754232500223
 20
567.52693558975216
 11
958.06015682269276
 21
570.74955008744246
  0
LINE
  8
_1-2_極細2
  6
CONTINUOUS
 62
    2
 10
891.19793201821324
 20
567.52693558975216
 11
926.19793163138354
 21
602.526935202922
  0
LINE
  8
_1-2_極細2
  6
DASHED2
 62
    2
 10
923.01773717160791
 20
567.52693558975216
 11
958.01773653585485
 21
602.52693495399899
  0
LINE
  8
_1-2_極細2
  6
DASHED2
 62
    2
 10
876.74934673767154
 20
584.89815546260513
 11
894.37812672691109
 21
602.52693545184434
  0
LINE
  8
_1-2_極細2
  6
CONTINUOUS
 62
    2
 10
851.74934673767211
 20
567.52693558975216
 11
958.06015682269276
 21
567.52693558975216
  0
LINE
  8
_1-2_極細2
  6
CONTINUOUS
 62
    2
 10
876.74934673767211
 20
602.5269355897525
 11
958.06015682269276
 21
602.5269355897525
  0
CIRCLE
  8
_1-2_極細2
  6
CONTINUOUS
 62
    2
 10
495.56529501796888
 20
375.27825945573767
 40
5.4765944180441757
  0
CIRCLE
  8
_1-2_極細2
  6
CONTINUOUS
 62
    2
 10
344.3747511618281
 20
368.61216683822505
 40
1.6592592592592157
  0
CIRCLE
  8
_1-2_極細2
  6
CONTINUOUS
 62
    2
 10
466.89862834964885
 20
405.87750163381702
 40
1.6592592592592157
  0
CIRCLE
  8
_1-2_極細2
  6
CONTINUOUS
 62
    2
 10
361.89862834722732
 20
434.01216683973337
 40
1.6592592592592157
  0
LINE
  8
_1-2_極細2
  6
CONTINUOUS
 62
    2
 10
416.74934673767223
 20
578.53419443192649
 11
427.75660557984622
 21
567.52693558975216
  0
LINE
  8
_1-2_極細2
  6
CONTINUOUS
 62
    2
 10
416.74934673767223
 20
591.26211649328411
 11
440.48452764120356
 21
567.52693558975216
  0
LINE
  8
_1-2_極細2
  6
CONTINUOUS
 62
    2
 10
441.74934673767183
 20
578.99003855464252
 11
418.21244970256117
 21
602.5269355897525
  0
LINE
  8
_1-2_極細2
  6
CONTINUOUS
 62
    2
 10
441.74934673767183
 20
591.71796061600025
 11
430.94037176391993
 21
602.52693558975216
  0
LINE
  8
_1-2_極細2
  6
CONTINUOUS
 62
    2
 10
416.74934673767126
 20
597.99896896123596
 11
421.2773133661882
 21
602.5269355897525
  0
LINE
  8
_1-2_極細2
  6
CONTINUOUS
 62
    2
 10
416.74934673767126
 20
585.271046899878
 11
434.00523542754541
 21
602.5269355897525
  0
LINE
  8
_1-2_極細2
  6
CONTINUOUS
 62
    2
 10
416.74934673767126
 20
572.54312483852027
 11
441.74934673767183
 21
597.54312483852016
  0
LINE
  8
_1-2_極細2
  6
CONTINUOUS
 62
    2
 10
424.46107955026179
 20
567.52693558975216
 11
441.74934673767183
 21
584.81520277716254
  0
LINE
  8
_1-2_極細2
  6
CONTINUOUS
 62
    2
 10
437.18900161161912
 20
567.52693558975216
 11
441.74934673767183
 21
572.08728071580458
  0
LINE
  8
_1-2_極細2
  6
CONTINUOUS
 62
    2
 10
441.74934673767183
 20
600.02693558975238
 11
441.74934673767183
 21
602.5269355897525
  0
LINE
  8
_1-2_極細2
  6
CONTINUOUS
 62
    2
 10
441.74934673767183
 20
602.5269355897525
 11
416.74934673767126
 21
602.5269355897525
  0
LINE
  8
_1-2_極細2
  6
CONTINUOUS
 62
    2
 10
416.74934673767126
 20
602.5269355897525
 11
416.74934673767126
 21
567.52693558975216
  0
CIRCLE
  8
_1-2_極細2
  6
CONTINUOUS
 62
    2
 10
571.7930727916721
 20
447.45012980269803
 40
5.4765944180441757
  0
CIRCLE
  8
_1-2_極細2
  6
CONTINUOUS
 62
    2
 10
381.76529501389467
 20
561.12327795084275
 40
1.6592592592592157
  0
CIRCLE
  8
_1-2_極細2
  6
CONTINUOUS
 62
    2
 10
549.48010982870733
 20
413.84718024825423
 40
1.6592592592592157
  0
CIRCLE
  8
_1-2_極細2
  6
CONTINUOUS
 62
    2
 10
407.08196168056105
 20
430.11679646936318
 40
5.4765944180441757
  0
CIRCLE
  8
_1-2_極細2
  6
CONTINUOUS
 62
    2
 10
414.96529501389443
 20
507.76679646936202
 40
5.4765944180441757
  0
CIRCLE
  8
_1-2_極細2
  6
CONTINUOUS
 62
    2
 10
398.56529501389417
 20
442.72327795084391
 40
1.6592592592592157
  0
CIRCLE
  8
_1-2_極細2
  6
CONTINUOUS
 62
    2
 10
363.76529501389456
 20
484.72327795084357
 40
1.6592592592592157
  0
CIRCLE
  8
_1-2_極細2
  6
CONTINUOUS
 62
    2
 10
425.36529501389407
 20
486.85661128417678
 40
1.6592592592592157
  0
CIRCLE
  8
_1-2_極細2
  6
CONTINUOUS
 62
    2
 10
417.89862834722737
 20
546.05661128417614
 40
1.6592592592592157
  0
CIRCLE
  8
_1-2_極細2
  6
CONTINUOUS
 62
    2
 10
514.93196168055874
 20
378.55661128417808
 40
1.6592592592592157
  0
CIRCLE
  8
_1-2_極細2
  6
CONTINUOUS
 62
    2
 10
502.66529501389329
 20
453.48994461751079
 40
1.6592592592592157
  0
CIRCLE
  8
_1-2_極細2
  6
CONTINUOUS
 62
    2
 10
532.53196168055922
 20
439.08994461751098
 40
1.6592592592592157
  0
CIRCLE
  8
_1-2_極細2
  6
CONTINUOUS
 62
    2
 10
797.93339845737455
 20
375.27825945573767
 40
5.4765944180441757
  0
CIRCLE
  8
_1-2_極細2
  6
CONTINUOUS
 62
    2
 10
949.12394231351527
 20
368.61216683822505
 40
1.6592592592592157
  0
CIRCLE
  8
_1-2_極細2
  6
CONTINUOUS
 62
    2
 10
826.60006512569453
 20
405.87750163381702
 40
1.6592592592592157
  0
CIRCLE
  8
_1-2_極細2
  6
CONTINUOUS
 62
    2
 10
931.60006512811606
 20
434.01216683973337
 40
1.6592592592592157
  0
LINE
  8
_1-2_極細2
  6
CONTINUOUS
 62
    2
 10
876.74934673767154
 20
578.53419443192649
 11
865.74208789549687
 21
567.52693558975216
  0
LINE
  8
_1-2_極細2
  6
CONTINUOUS
 62
    2
 10
876.74934673767154
 20
591.26211649328411
 11
853.01416583414039
 21
567.52693558975216
  0
LINE
  8
_1-2_極細2
  6
CONTINUOUS
 62
    2
 10
851.74934673767211
 20
578.99003855464252
 11
875.2862437727822
 21
602.5269355897525
  0
LINE
  8
_1-2_極細2
  6
CONTINUOUS
 62
    2
 10
851.74934673767211
 20
591.71796061600025
 11
862.55832171142401
 21
602.52693558975216
  0
LINE
  8
_1-2_極細2
  6
CONTINUOUS
 62
    2
 10
876.74934673767211
 20
597.99896896123596
 11
872.22138010915558
 21
602.5269355897525
  0
LINE
  8
_1-2_極細2
  6
CONTINUOUS
 62
    2
 10
876.74934673767211
 20
585.271046899878
 11
859.49345804779796
 21
602.5269355897525
  0
LINE
  8
_1-2_極細2
  6
CONTINUOUS
 62
    2
 10
876.74934673767211
 20
572.54312483852027
 11
851.74934673767211
 21
597.54312483852016
  0
LINE
  8
_1-2_極細2
  6
CONTINUOUS
 62
    2
 10
869.03761392508159
 20
567.52693558975216
 11
851.74934673767211
 21
584.81520277716254
  0
LINE
  8
_1-2_極細2
  6
CONTINUOUS
 62
    2
 10
856.30969186372431
 20
567.52693558975216
 11
851.74934673767211
 21
572.08728071580458
  0
LINE
  8
_1-2_極細2
  6
CONTINUOUS
 62
    2
 10
851.74934673767211
 20
600.02693558975238
 11
851.74934673767211
 21
602.5269355897525
  0
LINE
  8
_1-2_極細2
  6
CONTINUOUS
 62
    2
 10
851.74934673767211
 20
602.5269355897525
 11
876.74934673767211
 21
602.5269355897525
  0
LINE
  8
_1-2_極細2
  6
CONTINUOUS
 62
    2
 10
876.74934673767211
 20
602.5269355897525
 11
876.74934673767211
 21
567.52693558975216
  0
CIRCLE
  8
_1-2_極細2
  6
CONTINUOUS
 62
    2
 10
911.73339846144927
 20
561.12327795084275
 40
1.6592592592592157
  0
CIRCLE
  8
_1-2_極細2
  6
CONTINUOUS
 62
    2
 10
744.01858364663644
 20
413.84718024825423
 40
1.6592592592592157
  0
CIRCLE
  8
_1-2_極細2
  6
CONTINUOUS
 62
    2
 10
886.41673179478175
 20
430.11679646936318
 40
5.4765944180441757
  0
CIRCLE
  8
_1-2_極細2
  6
CONTINUOUS
 62
    2
 10
878.53339846144877
 20
507.76679646936202
 40
5.4765944180441757
  0
CIRCLE
  8
_1-2_極細2
  6
CONTINUOUS
 62
    2
 10
894.9333984614492
 20
442.72327795084391
 40
1.6592592592592157
  0
CIRCLE
  8
_1-2_極細2
  6
CONTINUOUS
 62
    2
 10
929.73339846144938
 20
484.72327795084357
 40
1.6592592592592157
  0
CIRCLE
  8
_1-2_極細2
  6
CONTINUOUS
 62
    2
 10
868.13339846144891
 20
486.85661128417678
 40
1.6592592592592157
  0
CIRCLE
  8
_1-2_極細2
  6
CONTINUOUS
 62
    2
 10
875.6000651281164
 20
546.05661128417614
 40
1.6592592592592157
  0
CIRCLE
  8
_1-2_極細2
  6
CONTINUOUS
 62
    2
 10
778.56673179478491
 20
378.55661128417808
 40
1.6592592592592157
  0
CIRCLE
  8
_1-2_極細2
  6
CONTINUOUS
 62
    2
 10
790.83339846145009
 20
453.48994461751079
 40
1.6592592592592157
  0
TEXT
  8
_0-7_枠細線
 62
    5
 10
529.44586559136781
 20
858.40116913117242
 40
40
 41
0.8
 50
0
  1
Ａ－Ａ’断面図
  0
TEXT
  8
_0-7_枠細線
 62
    5
 10
780.98995483657063
 20
858.40116913117242
 40
40
 41
0.6000000000000002
 50
0
  1
Ｓ＝１：２
  0
LINE
  8
_1-5_寸法2
  6
CONTINUOUS
 62
    7
 10
441.74934673767183
 20
622.52693558975216
 11
441.74934673767211
 21
822.52693629376836
  0
LINE
  8
_1-5_寸法2
  6
CONTINUOUS
 62
    7
 10
441.74934673767211
 20
812.52693629376836
 11
461.06786326345355
 21
817.70331719581873
  0
LINE
  8
_1-5_寸法2
  6
CONTINUOUS
 62
    7
 10
441.74934673767211
 20
812.52693629376836
 11
461.06786326345355
 21
807.3505553917181
  0
LINE
  8
_1-5_寸法2
  6
CONTINUOUS
 62
    7
 10
851.74934673767211
 20
622.52693558975238
 11
851.74934673767268
 21
822.52693629376836
  0
LINE
  8
_1-5_寸法2
  6
CONTINUOUS
 62
    7
 10
851.74934673767268
 20
812.52693629376836
 11
832.43083021189125
 21
807.3505553917181
  0
LINE
  8
_1-5_寸法2
  6
CONTINUOUS
 62
    7
 10
851.74934673767268
 20
812.52693629376836
 11
832.43083021189136
 21
817.70331719581895
  0
LINE
  8
_1-5_寸法2
  6
CONTINUOUS
 62
    7
 10
441.74934673767211
 20
812.52693629376836
 11
851.74934673767268
 21
812.52693629376836
  0
TEXT
  8
_1-5_寸法2
 62
    7
 10
631.74934673767268
 20
812.52693629376836
 40
30
 41
1
 50
0
  1
82
  0
LINE
  8
_1-2_極細2
  6
CONTINUOUS
 62
    2
 10
589.24934826842957
 20
487.52693558975238
 11
591.74934826842957
 21
487.52693558975238
  0
LINE
  8
_1-2_極細2
  6
CONTINUOUS
 62
    2
 10
591.74934826842957
 20
487.52693558975238
 11
591.74934826842957
 21
387.52693558975238
  0
LINE
  8
_1-2_極細2
  6
CONTINUOUS
 62
    2
 10
704.24934624854257
 20
487.52693558975238
 11
701.74934624854257
 21
487.52693558975238
  0
LINE
  8
_1-2_極細2
  6
CONTINUOUS
 62
    2
 10
701.74934624854257
 20
487.52693558975238
 11
701.74934624854257
 21
387.52693558975238
  0
LINE
  8
_1-5_寸法2
  6
CONTINUOUS
 62
    7
 10
441.74934826842946
 20
482.52693558975238
 11
441.749348268429
 21
377.52693558975238
  0
LINE
  8
_1-5_寸法2
  6
CONTINUOUS
 62
    7
 10
441.749348268429
 20
387.52693558975238
 11
461.06786479421044
 21
392.70331649180275
  0
LINE
  8
_1-5_寸法2
  6
CONTINUOUS
 62
    7
 10
441.749348268429
 20
387.52693558975238
 11
461.06786479421044
 21
382.35055468770184
  0
LINE
  8
_1-5_寸法2
  6
CONTINUOUS
 62
    7
 10
591.74934826842957
 20
467.52693558975238
 11
591.74934826842923
 21
377.52693558975238
  0
LINE
  8
_1-5_寸法2
  6
CONTINUOUS
 62
    7
 10
591.74934826842923
 20
387.52693558975238
 11
572.4308317426478
 21
382.35055468770202
  0
LINE
  8
_1-5_寸法2
  6
CONTINUOUS
 62
    7
 10
591.74934826842923
 20
387.52693558975238
 11
572.43083174264802
 21
392.70331649180292
  0
LINE
  8
_1-5_寸法2
  6
CONTINUOUS
 62
    7
 10
441.749348268429
 20
387.52693558975238
 11
591.74934826842923
 21
387.52693558975238
  0
TEXT
  8
_1-5_寸法2
 62
    7
 10
501.74934826842929
 20
387.52693558975238
 40
30
 41
1
 50
0
  1
30
  0
LINE
  8
_1-5_寸法2
  6
CONTINUOUS
 62
    7
 10
591.74934826842923
 20
387.52693558975238
 11
611.06786479421066
 21
392.70331649180264
  0
LINE
  8
_1-5_寸法2
  6
CONTINUOUS
 62
    7
 10
591.74934826842923
 20
387.52693558975238
 11
611.06786479421066
 21
382.35055468770184
  0
LINE
  8
_1-5_寸法2
  6
CONTINUOUS
 62
    7
 10
701.74934624854257
 20
467.52693558975238
 11
701.74934624854234
 21
377.52693558975238
  0
LINE
  8
_1-5_寸法2
  6
CONTINUOUS
 62
    7
 10
701.74934624854234
 20
387.52693558975238
 11
682.43082972276102
 21
382.35055468770202
  0
LINE
  8
_1-5_寸法2
  6
CONTINUOUS
 62
    7
 10
701.74934624854234
 20
387.52693558975238
 11
682.43082972276102
 21
392.70331649180292
  0
LINE
  8
_1-5_寸法2
  6
CONTINUOUS
 62
    7
 10
591.74934826842923
 20
387.52693558975238
 11
701.74934624854234
 21
387.52693558975238
  0
TEXT
  8
_1-5_寸法2
 62
    7
 10
631.74934725848584
 20
387.52693558975238
 40
30
 41
1
 50
0
  1
22
  0
LINE
  8
_1-5_寸法2
  6
CONTINUOUS
 62
    7
 10
701.74934624854234
 20
387.52693558975238
 11
721.06786277432377
 21
392.70331649180264
  0
LINE
  8
_1-5_寸法2
  6
CONTINUOUS
 62
    7
 10
701.74934624854234
 20
387.52693558975238
 11
721.06786277432366
 21
382.35055468770184
  0
LINE
  8
_1-5_寸法2
  6
CONTINUOUS
 62
    7
 10
851.74934673767211
 20
482.52693558975238
 11
851.74934673767189
 21
377.52693558975238
  0
LINE
  8
_1-5_寸法2
  6
CONTINUOUS
 62
    7
 10
851.74934673767189
 20
387.52693558975238
 11
832.43083021189034
 21
382.35055468770202
  0
LINE
  8
_1-5_寸法2
  6
CONTINUOUS
 62
    7
 10
851.74934673767189
 20
387.52693558975238
 11
832.43083021189045
 21
392.70331649180292
  0
LINE
  8
_1-5_寸法2
  6
CONTINUOUS
 62
    7
 10
701.74934624854234
 20
387.52693558975238
 11
851.74934673767189
 21
387.52693558975238
  0
TEXT
  8
_1-5_寸法2
 62
    7
 10
761.74934649310717
 20
387.52693558975238
 40
30
 41
1
 50
0
  1
30
  0
LINE
  8
_1-5_寸法2
  6
CONTINUOUS
 62
    7
 10
415.74934673767132
 20
487.52693558975238
 11
331.74934826842957
 21
487.52693558975267
  0
LINE
  8
_1-5_寸法2
  6
CONTINUOUS
 62
    7
 10
341.74934826842957
 20
487.52693558975267
 11
336.57296736637903
 21
506.84545211553399
  0
LINE
  8
_1-5_寸法2
  6
CONTINUOUS
 62
    7
 10
341.74934826842957
 20
487.52693558975267
 11
346.92572917047983
 21
506.84545211553399
  0
LINE
  8
_1-5_寸法2
  6
CONTINUOUS
 62
    7
 10
421.74934673767183
 20
602.52693558975261
 11
331.74934826842957
 21
602.52693558975284
  0
LINE
  8
_1-5_寸法2
  6
CONTINUOUS
 62
    7
 10
341.74934826842957
 20
602.52693558975284
 11
346.92572917047983
 21
583.20841906397141
  0
LINE
  8
_1-5_寸法2
  6
CONTINUOUS
 62
    7
 10
341.74934826842957
 20
602.52693558975284
 11
336.57296736637903
 21
583.20841906397152
  0
LINE
  8
_1-5_寸法2
  6
CONTINUOUS
 62
    7
 10
341.74934826842957
 20
487.52693558975267
 11
341.74934826842957
 21
602.52693558975284
  0
TEXT
  8
_1-5_寸法2
 62
    7
 10
341.74934826842957
 20
530.02693558975261
 40
30
 41
1
 50
90
  1
23
  0
LINE
  8
_1-3_細線2
  6
CONTINUOUS
 62
    4
 10
665.7493472584847
 20
586.52693629376745
 11
627.74934725848743
 21
586.52693629376745
  0
LINE
  8
_1-3_細線2
  6
CONTINUOUS
 62
    4
 10
627.74934725848743
 20
586.52693629376745
 11
627.74934725848743
 21
512.52693629376813
  0
ARC
  8
_1-3_細線2
  6
CONTINUOUS
 62
    4
 10
665.74934725848618
 20
586.52693629376813
 40
6.0000000000000009
 50
0
 51
89.999999999999915
  0
LINE
  8
_1-3_細線2
  6
CONTINUOUS
 62
    4
 10
621.74934725848607
 20
586.52693629376813
 11
621.74934725848607
 21
512.52693629376813
  0
LINE
  8
_1-3_細線2
  6
CONTINUOUS
 62
    4
 10
665.74934725848618
 20
592.52693629376813
 11
627.7493472584863
 21
592.52693629376813
  0
ARC
  8
_1-3_細線2
  6
CONTINUOUS
 62
    4
 10
627.7493472584863
 20
586.52693629376813
 40
6.0000000000000009
 50
89.999999999999915
 51
179.99999999999983
  0
LINE
  8
_1-3_細線2
  6
CONTINUOUS
 62
    4
 10
621.74934725848607
 20
512.52693629376813
 11
627.74934725848743
 21
512.52693629376813
  0
LINE
  8
_1-3_細線2
  6
CONTINUOUS
 62
    4
 10
671.74934725848607
 20
562.52693558975238
 11
665.7493472584847
 21
562.52693558975193
  0
LINE
  8
_1-3_細線2
  6
CONTINUOUS
 62
    4
 10
665.7493472584847
 20
586.52693629376745
 11
665.7493472584847
 21
562.52693558975238
  0
LINE
  8
_1-3_細線2
  6
CONTINUOUS
 62
    4
 10
671.74934725848607
 20
586.52693629376813
 11
671.74934725848607
 21
562.52693558975238
  0
LINE
  8
_1-3_細線2
  6
CONTINUOUS
 62
    4
 10
594.249347258488
 20
554.77693558975238
 11
621.74934725848607
 21
554.77693558975238
  0
LINE
  8
_1-3_細線2
  6
CONTINUOUS
 62
    4
 10
594.249347258488
 20
520.27693558975227
 11
621.74934725848607
 21
520.27693558975227
  0
LINE
  8
_1-3_細線2
  6
CONTINUOUS
 62
    4
 10
699.24934776873283
 20
520.27693558975227
 11
627.74934776873408
 21
520.27693558975227
  0
LINE
  8
_1-3_細線2
  6
CONTINUOUS
 62
    4
 10
699.24934776873283
 20
554.77693558975238
 11
627.74934776873408
 21
554.77693558975238
  0
LINE
  8
_1-3_細線2
  6
CONTINUOUS
 62
    4
 10
782.74934776873238
 20
550.45193629376786
 11
782.74934776873238
 21
530.60193629376772
  0
LINE
  8
_1-3_細線2
  6
CONTINUOUS
 62
    4
 10
782.74934776873238
 20
586.52693629376745
 11
782.74934776873238
 21
512.52693629376813
  0
LINE
  8
_1-3_細線2
  6
CONTINUOUS
 62
    4
 10
743.24934776873033
 20
586.52693629376745
 11
705.24934776873101
 21
586.52693629376745
  0
LINE
  8
_1-3_細線2
  6
CONTINUOUS
 62
    4
 10
820.74934776873079
 20
586.52693629376745
 11
782.74934776873238
 21
586.52693629376745
  0
LINE
  8
_1-3_細線2
  6
CONTINUOUS
 62
    4
 10
705.24934776873101
 20
586.52693629376745
 11
705.24934776873101
 21
512.52693629376813
  0
ARC
  8
_1-3_細線2
  6
CONTINUOUS
 62
    4
 10
820.74934776873249
 20
586.52693629376813
 40
6.0000000000000009
 50
0
 51
89.999999999999915
  0
LINE
  8
_1-3_細線2
  6
CONTINUOUS
 62
    4
 10
776.74934776873101
 20
586.52693629376813
 11
776.74934776873101
 21
512.52693629376813
  0
LINE
  8
_1-3_細線2
  6
CONTINUOUS
 62
    4
 10
820.74934776873249
 20
592.52693629376813
 11
782.74934776873067
 21
592.52693629376813
  0
ARC
  8
_1-3_細線2
  6
CONTINUOUS
 62
    4
 10
782.74934776873067
 20
586.52693629376813
 40
6.0000000000000009
 50
89.999999999999915
 51
179.99999999999983
  0
ARC
  8
_1-3_細線2
  6
CONTINUOUS
 62
    4
 10
743.24934776873181
 20
586.52693629376813
 40
6.0000000000000009
 50
0
 51
89.999999999999915
  0
LINE
  8
_1-3_細線2
  6
CONTINUOUS
 62
    4
 10
699.24934776873283
 20
586.52693629376813
 11
699.24934776873283
 21
512.52693629376813
  0
LINE
  8
_1-3_細線2
  6
CONTINUOUS
 62
    4
 10
743.24934776873181
 20
592.52693629376813
 11
705.24934776873329
 21
592.52693629376813
  0
ARC
  8
_1-3_細線2
  6
CONTINUOUS
 62
    4
 10
705.24934776873329
 20
586.52693629376813
 40
6.0000000000000009
 50
89.999999999999915
 51
179.99999999999983
  0
LINE
  8
_1-3_細線2
  6
CONTINUOUS
 62
    4
 10
699.24934776873283
 20
512.52693629376813
 11
705.24934776873101
 21
512.52693629376813
  0
LINE
  8
_1-3_細線2
  6
CONTINUOUS
 62
    4
 10
776.74934776873101
 20
512.52693629376813
 11
782.74934776873238
 21
512.52693629376813
  0
LINE
  8
_1-3_細線2
  6
CONTINUOUS
 62
    4
 10
826.74934776873215
 20
562.52693558975238
 11
820.74934776873079
 21
562.52693558975238
  0
LINE
  8
_1-3_細線2
  6
CONTINUOUS
 62
    4
 10
749.2493477687317
 20
562.52693558975238
 11
743.24934776873033
 21
562.52693558975238
  0
LINE
  8
_1-3_細線2
  6
CONTINUOUS
 62
    4
 10
743.24934776873033
 20
586.52693629376745
 11
743.24934776873033
 21
562.52693558975238
  0
LINE
  8
_1-3_細線2
  6
CONTINUOUS
 62
    4
 10
820.74934776873079
 20
586.52693629376745
 11
820.74934776873079
 21
562.52693558975238
  0
LINE
  8
_1-3_細線2
  6
CONTINUOUS
 62
    4
 10
826.74934776873215
 20
586.52693629376813
 11
826.74934776873215
 21
562.52693558975238
  0
LINE
  8
_1-3_細線2
  6
CONTINUOUS
 62
    4
 10
749.2493477687317
 20
586.52693629376813
 11
749.2493477687317
 21
562.52693558975238
  0
ARC
  8
_1-3_細線2
  6
CONTINUOUS
 62
    4
 10
806.73308827898177
 20
513.52693558975375
 40
1.0000000000000004
 50
269.99999999999977
 51
359.99999999999966
  0
LINE
  8
_1-3_細線2
  6
CONTINUOUS
 62
    4
 10
802.74934827898073
 20
512.52693558975329
 11
806.73308827898177
 21
512.52693558975329
  0
ARC
  8
_1-3_細線2
  6
CONTINUOUS
 62
    4
 10
806.73308827898177
 20
561.52693558975238
 40
1.0000000000000004
 50
0
 51
89.999999999999915
  0
LINE
  8
_1-3_細線2
  6
CONTINUOUS
 62
    4
 10
802.74934827898073
 20
562.5269355897542
 11
806.73308827898177
 21
562.5269355897542
  0
LINE
  8
_1-3_細線2
  6
CONTINUOUS
 62
    4
 10
807.73308827898313
 20
535.02693558975329
 11
807.73308827898313
 21
513.52693558975375
  0
LINE
  8
_1-3_細線2
  6
CONTINUOUS
 62
    4
 10
807.73308827898313
 20
561.52693558975238
 11
807.73308827898313
 21
535.02693558975329
  0
ARC
  8
_1-3_細線2
  6
CONTINUOUS
 62
    4
 10
800.24934827898073
 20
582.52693558975238
 40
2.5
 50
0
 51
89.999999999999915
  0
LINE
  8
_1-3_細線2
  6
CONTINUOUS
 62
    4
 10
785.24934827898073
 20
585.02693558975238
 11
800.24934827898073
 21
585.02693558975238
  0
ARC
  8
_1-3_細線2
  6
CONTINUOUS
 62
    4
 10
785.24934827898073
 20
582.52693558975238
 40
2.5
 50
89.999999999999915
 51
179.99999999999983
  0
LINE
  8
_1-3_細線2
  6
CONTINUOUS
 62
    4
 10
802.74934827898073
 20
582.52693558975238
 11
802.74934827898073
 21
505.02693558975238
  0
ARC
  8
_1-3_細線2
  6
CONTINUOUS
 62
    4
 10
800.24934827898073
 20
505.02693558975238
 40
2.5
 50
269.99999999999977
 51
359.99999999999966
  0
LINE
  8
_1-3_細線2
  6
CONTINUOUS
 62
    4
 10
800.24934827898073
 20
502.52693558975238
 11
785.24934827898073
 21
502.52693558975238
  0
LINE
  8
_1-3_細線2
  6
CONTINUOUS
 62
    4
 10
782.74934827898073
 20
505.02693558975238
 11
782.74934827898073
 21
582.52693558975238
  0
ARC
  8
_1-3_細線2
  6
CONTINUOUS
 62
    4
 10
785.24934827898073
 20
505.02693558975238
 40
2.5
 50
179.99999999999983
 51
269.99999999999977
  0
LINE
  8
_1-3_細線2
  6
CONTINUOUS
 62
    4
 10
776.74934827898028
 20
520.27693558975227
 11
705.24934827898176
 21
520.27693558975227
  0
LINE
  8
_1-3_細線2
  6
CONTINUOUS
 62
    4
 10
776.74934827898028
 20
554.77693558975238
 11
705.24934827898176
 21
554.77693558975238
  0
LINE
  8
_1-2_極細2
  6
CONTINUOUS
 62
    2
 10
807.73308827898313
 20
537.52693558975238
 11
822.75566827898365
 21
537.52693558975238
  0
LINE
  8
_1-3_細線2
  6
CONTINUOUS
 62
    4
 10
807.73308827898313
 20
520.02693558975466
 11
822.75572827898031
 21
520.02693558975466
  0
ARC
  8
_1-3_細線2
  6
CONTINUOUS
 62
    4
 10
822.75572827898031
 20
521.02693558975375
 40
1.0000000000000004
 50
269.99999999999977
 51
359.99999999999966
  0
ARC
  8
_1-2_極細2
  6
CONTINUOUS
 62
    2
 10
784.9658282789826
 20
528.77620558975536
 40
38.78978
 50
346.96432999999956
 51
13.038021999994676
  0
ARC
  8
_1-3_細線2
  6
CONTINUOUS
 62
    4
 10
822.75572827898031
 20
554.02693558975511
 40
1.0000000000000004
 50
0
 51
89.999999999999915
  0
ARC
  8
_1-2_極細2
  6
CONTINUOUS
 62
    2
 10
784.9658282789826
 20
546.27765558975284
 40
38.78978
 50
346.96197800000067
 51
13.035669999999726
  0
LINE
  8
_1-3_細線2
  6
CONTINUOUS
 62
    4
 10
807.73308827898313
 20
555.0269355897542
 11
822.75572827898031
 21
555.0269355897542
  0
LINE
  8
_1-3_細線2
  6
CONTINUOUS
 62
    4
 10
823.75572827898259
 20
521.02693558975375
 11
823.75572827898259
 21
554.02693558975511
  0
LINE
  8
_1-3_細線2
  6
CONTINUOUS
 62
    4
 10
510.74934725848891
 20
586.52693629376745
 11
510.74934725848891
 21
512.52693629376813
  0
LINE
  8
_1-3_細線2
  6
CONTINUOUS
 62
    4
 10
550.24934725848709
 20
586.52693629376745
 11
588.24934725848777
 21
586.52693629376745
  0
LINE
  8
_1-3_細線2
  6
CONTINUOUS
 62
    4
 10
472.74934725848937
 20
586.52693629376745
 11
510.74934725848891
 21
586.52693629376745
  0
LINE
  8
_1-3_細線2
  6
CONTINUOUS
 62
    4
 10
588.24934725848777
 20
586.52693629376745
 11
588.24934725848777
 21
512.52693629376813
  0
LINE
  8
_1-3_細線2
  6
CONTINUOUS
 62
    4
 10
594.249347258488
 20
586.5269362937679
 11
594.249347258488
 21
512.52693629376813
  0
ARC
  8
_1-3_細線2
  6
CONTINUOUS
 62
    4
 10
588.24934725848789
 20
586.52693629376813
 40
6.0000000000000009
 50
359.99999999999744
 51
90.000000000001833
  0
LINE
  8
_1-3_細線2
  6
CONTINUOUS
 62
    4
 10
550.24934725848652
 20
592.52693629376813
 11
588.24934725848777
 21
592.52693629376813
  0
ARC
  8
_1-3_細線2
  6
CONTINUOUS
 62
    4
 10
550.24934725848675
 20
586.52693629376813
 40
6.0000000000000009
 50
90.000000000002174
 51
180.00000000000182
  0
LINE
  8
_1-3_細線2
  6
CONTINUOUS
 62
    4
 10
516.74934725848686
 20
586.5269362937679
 11
516.74934725848686
 21
512.52693629376813
  0
ARC
  8
_1-3_細線2
  6
CONTINUOUS
 62
    4
 10
510.74934725848692
 20
586.52693629376813
 40
6.0000000000000009
 50
359.99999999999744
 51
89.999999999999545
  0
LINE
  8
_1-3_細線2
  6
CONTINUOUS
 62
    4
 10
472.74934725848766
 20
592.52693629376813
 11
510.74934725848692
 21
592.52693629376813
  0
ARC
  8
_1-3_細線2
  6
CONTINUOUS
 62
    4
 10
472.74934725848766
 20
586.52693629376813
 40
6.0000000000000009
 50
89.999999999999915
 51
179.99999999999983
  0
LINE
  8
_1-3_細線2
  6
CONTINUOUS
 62
    4
 10
510.74934725848891
 20
512.52693629376813
 11
516.74934725848686
 21
512.52693629376813
  0
LINE
  8
_1-3_細線2
  6
CONTINUOUS
 62
    4
 10
588.24934725848777
 20
512.52693629376813
 11
594.249347258488
 21
512.52693629376813
  0
LINE
  8
_1-3_細線2
  6
CONTINUOUS
 62
    4
 10
466.749347258488
 20
562.52693558975238
 11
472.74934725848937
 21
562.52693558975193
  0
LINE
  8
_1-3_細線2
  6
CONTINUOUS
 62
    4
 10
544.24934725848686
 20
562.52693558975238
 11
550.24934725848823
 21
562.52693558975193
  0
LINE
  8
_1-3_細線2
  6
CONTINUOUS
 62
    4
 10
472.74934725848937
 20
586.52693629376745
 11
472.74934725848937
 21
562.52693558975238
  0
LINE
  8
_1-3_細線2
  6
CONTINUOUS
 62
    4
 10
550.24934725848709
 20
586.52693629376745
 11
550.24934725848823
 21
562.52693558975238
  0
LINE
  8
_1-3_細線2
  6
CONTINUOUS
 62
    4
 10
544.24934725848686
 20
586.5269362937679
 11
544.24934725848686
 21
562.52693558975238
  0
LINE
  8
_1-3_細線2
  6
CONTINUOUS
 62
    4
 10
466.749347258488
 20
586.52693629376813
 11
466.749347258488
 21
562.52693558975238
  0
ARC
  8
_1-3_細線2
  6
CONTINUOUS
 62
    4
 10
486.76560725848788
 20
513.52693558975375
 40
1.0000000000000004
 50
179.99999999999983
 51
269.99999999999977
  0
LINE
  8
_1-3_細線2
  6
CONTINUOUS
 62
    4
 10
490.74934725848891
 20
512.52693558975329
 11
486.76560725848788
 21
512.52693558975329
  0
ARC
  8
_1-3_細線2
  6
CONTINUOUS
 62
    4
 10
486.76560725848788
 20
561.52693558975238
 40
1.0000000000000004
 50
89.999999999999915
 51
179.99999999999983
  0
LINE
  8
_1-3_細線2
  6
CONTINUOUS
 62
    4
 10
490.74934725848891
 20
562.5269355897542
 11
486.76560725848788
 21
562.5269355897542
  0
LINE
  8
_1-3_細線2
  6
CONTINUOUS
 62
    4
 10
485.76560725848594
 20
535.02693558975329
 11
485.76560725848594
 21
513.52693558975375
  0
LINE
  8
_1-3_細線2
  6
CONTINUOUS
 62
    4
 10
485.76560725848594
 20
561.52693558975238
 11
485.76560725848594
 21
535.02693558975329
  0
ARC
  8
_1-3_細線2
  6
CONTINUOUS
 62
    4
 10
493.24934725848891
 20
582.52693558975238
 40
2.5
 50
89.999999999999915
 51
179.99999999999983
  0
LINE
  8
_1-3_細線2
  6
CONTINUOUS
 62
    4
 10
508.24934725848891
 20
585.02693558975238
 11
493.24934725848891
 21
585.02693558975238
  0
ARC
  8
_1-3_細線2
  6
CONTINUOUS
 62
    4
 10
508.24934725848891
 20
582.52693558975238
 40
2.5
 50
0
 51
89.999999999999915
  0
LINE
  8
_1-3_細線2
  6
CONTINUOUS
 62
    4
 10
490.74934725848891
 20
582.52693558975238
 11
490.74934725848891
 21
505.02693558975238
  0
ARC
  8
_1-3_細線2
  6
CONTINUOUS
 62
    4
 10
493.24934725848891
 20
505.02693558975238
 40
2.5
 50
179.99999999999983
 51
269.99999999999977
  0
LINE
  8
_1-3_細線2
  6
CONTINUOUS
 62
    4
 10
493.24934725848891
 20
502.52693558975238
 11
508.24934725848891
 21
502.52693558975238
  0
LINE
  8
_1-3_細線2
  6
CONTINUOUS
 62
    4
 10
510.74934725848891
 20
505.02693558975238
 11
510.74934725848891
 21
582.52693558975238
  0
ARC
  8
_1-3_細線2
  6
CONTINUOUS
 62
    4
 10
508.24934725848891
 20
505.02693558975238
 40
2.5
 50
269.99999999999977
 51
359.99999999999966
  0
LINE
  8
_1-3_細線2
  6
CONTINUOUS
 62
    4
 10
516.74934725848857
 20
520.27693558975227
 11
588.24934725848777
 21
520.27693558975227
  0
LINE
  8
_1-3_細線2
  6
CONTINUOUS
 62
    4
 10
516.74934725848857
 20
554.77693558975238
 11
588.24934725848777
 21
554.77693558975238
  0
LINE
  8
_1-2_極細2
  6
CONTINUOUS
 62
    2
 10
485.76560725848594
 20
537.52693558975238
 11
470.74302725848554
 21
537.52693558975238
  0
LINE
  8
_1-3_細線2
  6
CONTINUOUS
 62
    4
 10
485.76560725848594
 20
520.02693558975466
 11
470.74296725848853
 21
520.02693558975466
  0
ARC
  8
_1-3_細線2
  6
CONTINUOUS
 62
    4
 10
470.74296725848853
 20
521.02693558975375
 40
1.0000000000000004
 50
179.99999999999983
 51
269.99999999999977
  0
ARC
  8
_1-2_極細2
  6
CONTINUOUS
 62
    2
 10
508.53286725848648
 20
528.77620558975536
 40
38.78978
 50
166.96197800000505
 51
193.03566999999961
  0
ARC
  8
_1-3_細線2
  6
CONTINUOUS
 62
    4
 10
470.74296725848853
 20
554.02693558975511
 40
1.0000000000000004
 50
89.999999999999915
 51
179.99999999999983
  0
ARC
  8
_1-2_極細2
  6
CONTINUOUS
 62
    2
 10
508.53286725848648
 20
546.27765558975284
 40
38.78978
 50
166.96433000000002
 51
193.03802199999851
  0
LINE
  8
_1-3_細線2
  6
CONTINUOUS
 62
    4
 10
485.76560725848594
 20
555.0269355897542
 11
470.74296725848853
 21
555.0269355897542
  0
LINE
  8
_1-3_細線2
  6
CONTINUOUS
 62
    4
 10
469.7429672584866
 20
521.02693558975375
 11
469.7429672584866
 21
554.02693558975511
  0
LINE
  8
_1-2_極細2
  6
CENTER1
 62
    2
 10
479.93392019227542
 20
537.52693558975238
 11
815.18038968334565
 21
537.52693558975238
  0
TEXT
  8
_0-7_枠細線
 62
    5
 10
1930.9999999999993
 20
140
 40
40.000000000000007
 41
0.5999999999999997
 50
0
  1
表面形状については記号表参照のこと
  0
LINE
  8
_0-0_計極細
  6
CONTINUOUS
 62
    2
 10
365.84689075191477
 20
1499.0947982538344
 11
365.84689303288968
 21
1493.5947982538348
  0
LINE
  8
_0-0_計極細
  6
CONTINUOUS
 62
    2
 10
372.74689072171157
 20
1499.0947982538344
 11
372.74689303288966
 21
1493.5947982538348
  0
LINE
  8
_0-0_計極細
  6
CONTINUOUS
 62
    2
 10
365.84689304214135
 20
1483.5947982538348
 11
365.84689304214135
 21
1478.0947982538348
  0
LINE
  8
_0-0_計極細
  6
CONTINUOUS
 62
    2
 10
372.74689304226371
 20
1483.5947982538348
 11
372.74689304226371
 21
1478.0947982538348
  0
LINE
  8
_0-0_計極細
  6
CONTINUOUS
 62
    2
 10
365.84689304214135
 20
1462.5947982538353
 11
365.84689304214135
 21
1468.0947982538348
  0
LINE
  8
_0-0_計極細
  6
CONTINUOUS
 62
    2
 10
372.74689304226371
 20
1462.5947982538353
 11
372.74689304226371
 21
1468.0947982538348
  0
LINE
  8
_0-0_計極細
  6
CONTINUOUS
 62
    2
 10
365.84689304214135
 20
1447.0947982538357
 11
365.84689304214135
 21
1452.5947982538353
  0
LINE
  8
_0-0_計極細
  6
CONTINUOUS
 62
    2
 10
372.74689304226371
 20
1447.0947982538357
 11
372.74689304226371
 21
1452.5947982538353
  0
LINE
  8
_0-0_計極細
  6
CONTINUOUS
 62
    2
 10
643.84689075191488
 20
1499.0947982538344
 11
643.84689303288997
 21
1493.5947982538348
  0
LINE
  8
_0-0_計極細
  6
CONTINUOUS
 62
    2
 10
650.74689072171157
 20
1499.0947982538344
 11
650.74689303288983
 21
1493.5947982538348
  0
LINE
  8
_0-0_計極細
  6
CONTINUOUS
 62
    2
 10
643.84689304214146
 20
1483.5947982538348
 11
643.84689304214146
 21
1478.0947982538348
  0
LINE
  8
_0-0_計極細
  6
CONTINUOUS
 62
    2
 10
650.74689304226399
 20
1483.5947982538348
 11
650.74689304226399
 21
1478.0947982538348
  0
LINE
  8
_0-0_計極細
  6
CONTINUOUS
 62
    2
 10
643.84689304214146
 20
1462.5947982538353
 11
643.84689304214146
 21
1468.0947982538348
  0
LINE
  8
_0-0_計極細
  6
CONTINUOUS
 62
    2
 10
650.74689304226399
 20
1462.5947982538353
 11
650.74689304226399
 21
1468.0947982538348
  0
LINE
  8
_0-0_計極細
  6
CONTINUOUS
 62
    2
 10
643.84689304214146
 20
1447.0947982538357
 11
643.84689304214146
 21
1452.5947982538353
  0
LINE
  8
_0-0_計極細
  6
CONTINUOUS
 62
    2
 10
650.74689304226399
 20
1447.0947982538357
 11
650.74689304226399
 21
1452.5947982538353
  0
LINE
  8
_0-0_計極細
  6
CONTINUOUS
 62
    2
 10
921.846890751915
 20
1499.0947982538344
 11
921.84689303288997
 21
1493.5947982538348
  0
LINE
  8
_0-0_計極細
  6
CONTINUOUS
 62
    2
 10
928.74689072171168
 20
1499.0947982538344
 11
928.74689303288972
 21
1493.5947982538348
  0
LINE
  8
_0-0_計極細
  6
CONTINUOUS
 62
    2
 10
921.84689304214146
 20
1483.5947982538348
 11
921.84689304214146
 21
1478.0947982538348
  0
LINE
  8
_0-0_計極細
  6
CONTINUOUS
 62
    2
 10
928.74689304226399
 20
1483.5947982538348
 11
928.74689304226399
 21
1478.0947982538348
  0
LINE
  8
_0-0_計極細
  6
CONTINUOUS
 62
    2
 10
921.84689304214146
 20
1462.5947982538353
 11
921.84689304214146
 21
1468.0947982538348
  0
LINE
  8
_0-0_計極細
  6
CONTINUOUS
 62
    2
 10
928.74689304226399
 20
1462.5947982538353
 11
928.74689304226399
 21
1468.0947982538348
  0
LINE
  8
_0-0_計極細
  6
CONTINUOUS
 62
    2
 10
921.84689304214146
 20
1447.0947982538357
 11
921.84689304214146
 21
1452.5947982538353
  0
LINE
  8
_0-0_計極細
  6
CONTINUOUS
 62
    2
 10
928.74689304226399
 20
1447.0947982538357
 11
928.74689304226399
 21
1452.5947982538353
  0
LINE
  8
_0-0_計極細
  6
CONTINUOUS
 62
    2
 10
1199.8468907519148
 20
1499.0947982538344
 11
1199.8468930328897
 21
1493.5947982538348
  0
LINE
  8
_0-0_計極細
  6
CONTINUOUS
 62
    2
 10
1206.7468907217115
 20
1499.0947982538344
 11
1206.7468930328896
 21
1493.5947982538348
  0
LINE
  8
_0-0_計極細
  6
CONTINUOUS
 62
    2
 10
1199.8468930421413
 20
1483.5947982538348
 11
1199.8468930421413
 21
1478.0947982538348
  0
LINE
  8
_0-0_計極細
  6
CONTINUOUS
 62
    2
 10
1206.7468930422638
 20
1483.5947982538348
 11
1206.7468930422638
 21
1478.0947982538348
  0
LINE
  8
_0-0_計極細
  6
CONTINUOUS
 62
    2
 10
1199.8468930421413
 20
1462.5947982538353
 11
1199.8468930421413
 21
1468.0947982538348
  0
LINE
  8
_0-0_計極細
  6
CONTINUOUS
 62
    2
 10
1206.7468930422638
 20
1462.5947982538353
 11
1206.7468930422638
 21
1468.0947982538348
  0
LINE
  8
_0-0_計極細
  6
CONTINUOUS
 62
    2
 10
1199.8468930421413
 20
1447.0947982538357
 11
1199.8468930421413
 21
1452.5947982538353
  0
LINE
  8
_0-0_計極細
  6
CONTINUOUS
 62
    2
 10
1206.7468930422638
 20
1447.0947982538357
 11
1206.7468930422638
 21
1452.5947982538353
  0
LINE
  8
_0-0_計極細
  6
CONTINUOUS
 62
    2
 10
1477.846890751915
 20
1499.0947982538344
 11
1477.84689303289
 21
1493.5947982538348
  0
LINE
  8
_0-0_計極細
  6
CONTINUOUS
 62
    2
 10
1484.7468907217115
 20
1499.0947982538344
 11
1484.7468930328896
 21
1493.5947982538348
  0
LINE
  8
_0-0_計極細
  6
CONTINUOUS
 62
    2
 10
1477.8468930421413
 20
1483.5947982538348
 11
1477.8468930421413
 21
1478.0947982538348
  0
LINE
  8
_0-0_計極細
  6
CONTINUOUS
 62
    2
 10
1484.7468930422638
 20
1483.5947982538348
 11
1484.7468930422638
 21
1478.0947982538348
  0
LINE
  8
_0-0_計極細
  6
CONTINUOUS
 62
    2
 10
1477.8468930421413
 20
1462.5947982538353
 11
1477.8468930421413
 21
1468.0947982538348
  0
LINE
  8
_0-0_計極細
  6
CONTINUOUS
 62
    2
 10
1484.7468930422638
 20
1462.5947982538353
 11
1484.7468930422638
 21
1468.0947982538348
  0
LINE
  8
_0-0_計極細
  6
CONTINUOUS
 62
    2
 10
1477.8468930421413
 20
1447.0947982538357
 11
1477.8468930421413
 21
1452.5947982538353
  0
LINE
  8
_0-0_計極細
  6
CONTINUOUS
 62
    2
 10
1484.7468930422638
 20
1447.0947982538357
 11
1484.7468930422638
 21
1452.5947982538353
  0
LINE
  8
_0-0_計極細
  6
CONTINUOUS
 62
    2
 10
1755.8468907519148
 20
1499.0947982538344
 11
1755.84689303289
 21
1493.5947982538348
  0
LINE
  8
_0-0_計極細
  6
CONTINUOUS
 62
    2
 10
1762.7468907217117
 20
1499.0947982538344
 11
1762.7468930328896
 21
1493.5947982538348
  0
LINE
  8
_0-0_計極細
  6
CONTINUOUS
 62
    2
 10
1755.8468930421416
 20
1483.5947982538348
 11
1755.8468930421416
 21
1478.0947982538348
  0
LINE
  8
_0-0_計極細
  6
CONTINUOUS
 62
    2
 10
1762.746893042264
 20
1483.5947982538348
 11
1762.746893042264
 21
1478.0947982538348
  0
LINE
  8
_0-0_計極細
  6
CONTINUOUS
 62
    2
 10
1755.8468930421416
 20
1462.5947982538353
 11
1755.8468930421416
 21
1468.0947982538348
  0
LINE
  8
_0-0_計極細
  6
CONTINUOUS
 62
    2
 10
1762.746893042264
 20
1462.5947982538353
 11
1762.746893042264
 21
1468.0947982538348
  0
LINE
  8
_0-0_計極細
  6
CONTINUOUS
 62
    2
 10
1755.8468930421416
 20
1447.0947982538357
 11
1755.8468930421416
 21
1452.5947982538353
  0
LINE
  8
_0-0_計極細
  6
CONTINUOUS
 62
    2
 10
1762.746893042264
 20
1447.0947982538357
 11
1762.746893042264
 21
1452.5947982538353
  0
LINE
  8
_0-0_計極細
  6
CONTINUOUS
 62
    2
 10
2033.8468907519152
 20
1499.0947982538344
 11
2033.84689303289
 21
1493.5947982538348
  0
LINE
  8
_0-0_計極細
  6
CONTINUOUS
 62
    2
 10
2040.7468907217117
 20
1499.0947982538344
 11
2040.7468930328901
 21
1493.5947982538348
  0
LINE
  8
_0-0_計極細
  6
CONTINUOUS
 62
    2
 10
2033.8468930421416
 20
1483.5947982538348
 11
2033.8468930421416
 21
1478.0947982538348
  0
LINE
  8
_0-0_計極細
  6
CONTINUOUS
 62
    2
 10
2040.7468930422642
 20
1483.5947982538348
 11
2040.7468930422642
 21
1478.0947982538348
  0
LINE
  8
_0-0_計極細
  6
CONTINUOUS
 62
    2
 10
2033.8468930421416
 20
1462.5947982538353
 11
2033.8468930421416
 21
1468.0947982538348
  0
LINE
  8
_0-0_計極細
  6
CONTINUOUS
 62
    2
 10
2040.7468930422642
 20
1462.5947982538353
 11
2040.7468930422642
 21
1468.0947982538348
  0
LINE
  8
_0-0_計極細
  6
CONTINUOUS
 62
    2
 10
2033.8468930421416
 20
1447.0947982538357
 11
2033.8468930421416
 21
1452.5947982538353
  0
LINE
  8
_0-0_計極細
  6
CONTINUOUS
 62
    2
 10
2040.7468930422642
 20
1447.0947982538357
 11
2040.7468930422642
 21
1452.5947982538353
  0
LINE
  8
_0-0_計極細
  6
CONTINUOUS
 62
    2
 10
2311.8468907519145
 20
1499.0947982538344
 11
2311.84689303289
 21
1493.5947982538348
  0
LINE
  8
_0-0_計極細
  6
CONTINUOUS
 62
    2
 10
2318.7468907217117
 20
1499.0947982538344
 11
2318.7468930328896
 21
1493.5947982538348
  0
LINE
  8
_0-0_計極細
  6
CONTINUOUS
 62
    2
 10
2311.8468930421413
 20
1483.5947982538348
 11
2311.8468930421413
 21
1478.0947982538348
  0
LINE
  8
_0-0_計極細
  6
CONTINUOUS
 62
    2
 10
2318.7468930422638
 20
1483.5947982538348
 11
2318.7468930422638
 21
1478.0947982538348
  0
LINE
  8
_0-0_計極細
  6
CONTINUOUS
 62
    2
 10
2311.8468930421413
 20
1462.5947982538353
 11
2311.8468930421413
 21
1468.0947982538348
  0
LINE
  8
_0-0_計極細
  6
CONTINUOUS
 62
    2
 10
2318.7468930422638
 20
1462.5947982538353
 11
2318.7468930422638
 21
1468.0947982538348
  0
LINE
  8
_0-0_計極細
  6
CONTINUOUS
 62
    2
 10
2311.8468930421413
 20
1447.0947982538357
 11
2311.8468930421413
 21
1452.5947982538353
  0
LINE
  8
_0-0_計極細
  6
CONTINUOUS
 62
    2
 10
2318.7468930422638
 20
1447.0947982538357
 11
2318.7468930422638
 21
1452.5947982538353
  0
LINE
  8
_0-5_寸法線
  6
CONTINUOUS
 62
    7
 10
369.2930371418251
 20
1383.7720943229735
 11
388.61155366760642
 21
1388.9484752250241
  0
LINE
  8
_0-5_寸法線
  6
CONTINUOUS
 62
    7
 10
369.2930371418251
 20
1383.7720943229735
 11
388.61155366760642
 21
1378.5957134209232
  0
LINE
  8
_0-5_寸法線
  6
CONTINUOUS
 62
    7
 10
369.2930371418251
 20
1383.7720943229735
 11
449.86156061575355
 21
1383.7720943229735
  0
LINE
  8
_0-5_寸法線
  6
CONTINUOUS
 62
    7
 10
449.86156061575355
 20
1383.7720943229735
 11
369.296890736813
 21
1383.7720943229735
  0
LINE
  8
_0-5_寸法線
  6
CONTINUOUS
 62
    7
 10
369.2930371418251
 20
1544.8280633010068
 11
388.61155366760642
 21
1550.0044442030571
  0
LINE
  8
_0-5_寸法線
  6
CONTINUOUS
 62
    7
 10
369.2930371418251
 20
1544.8280633010068
 11
388.61155366760642
 21
1539.6516823989566
  0
LINE
  8
_0-5_寸法線
  6
CONTINUOUS
 62
    7
 10
369.2930371418251
 20
1544.8280633010068
 11
449.86156061575355
 21
1544.8280633010068
  0
LINE
  8
_0-5_寸法線
  6
CONTINUOUS
 62
    7
 10
449.86156061575355
 20
1544.8280633010068
 11
371.67894780792068
 21
1544.8280633010068
  0
LINE
  8
_0-0_計極細
  6
CENTER1
 62
    2
 10
369.296890736813
 20
1556.3977033678532
 11
369.296890736813
 21
1370.3616607764732
  0
LINE
  8
_0-7_枠細線
  6
CONTINUOUS
 62
    5
 10
2683.9590948651016
 20
824.60400348127439
 11
2683.9590948651016
 21
614.60400348127519
  0
TEXT
  8
_0-7_枠細線
 62
    5
 10
2501.9590948651035
 20
784.60400348127439
 40
30.000000000000004
 41
0.8
 50
0
  1
ノンスリップ
  0
LINE
  8
_0-7_枠細線
  6
CONTINUOUS
 62
    5
 10
2483.814511540781
 20
679.10954678175756
 11
2673.5754848551396
 21
679.10954678175756
  0
LINE
  8
_0-7_枠細線
  6
CONTINUOUS
 62
    5
 10
2476.3441248748604
 20
712.44288011175752
 11
2666.1050981892195
 21
712.44288011175752
  0
ARC
  8
_0-7_枠細線
  6
CONTINUOUS
 62
    5
 10
2505.6257615386003
 20
689.10954678075757
 40
6.6666666659999994
 50
51.317813000005735
 51
203.57817800000197
  0
ARC
  8
_0-7_枠細線
  6
CONTINUOUS
 62
    5
 10
2513.9590948711002
 20
699.51787677971674
 40
6.6666666659999994
 50
231.31781300000233
 51
308.68218699999693
  0
LINE
  8
_0-7_枠細線
  6
CONTINUOUS
 62
    5
 10
2499.515661539212
 20
686.44288011435742
 11
2528.4025282029888
 21
686.44288011435742
  0
ARC
  8
_0-7_枠細線
  6
CONTINUOUS
 62
    5
 10
2522.2924282036006
 20
689.10954678075757
 40
6.6666666659999994
 50
336.42182199999417
 51
128.682187
  0
ARC
  8
_0-7_枠細線
  6
CONTINUOUS
 62
    5
 10
2565.6257615326008
 20
702.44288011275739
 40
6.6666666659999994
 50
156.42182199999678
 51
308.68218699999449
  0
ARC
  8
_0-7_枠細線
  6
CONTINUOUS
 62
    5
 10
2573.9590948651003
 20
692.03455011379799
 40
6.6666666659999994
 50
51.317813000006957
 51
128.68218699999608
  0
ARC
  8
_0-7_枠細線
  6
CONTINUOUS
 62
    5
 10
2582.2924281976016
 20
702.44288011275739
 40
6.6666666659999994
 50
231.31781299999562
 51
23.578178000005984
  0
LINE
  8
_0-7_枠細線
  6
CONTINUOUS
 62
    5
 10
2559.5156615332126
 20
705.10954677915731
 11
2588.4025281969884
 21
705.10954677915731
  0
LINE
  8
_0-7_枠細線
  6
CONTINUOUS
 62
    5
 10
2619.5156615272122
 20
686.44288011435742
 11
2648.402528190989
 21
686.44288011435742
  0
ARC
  8
_0-7_枠細線
  6
CONTINUOUS
 62
    5
 10
2625.6257615266004
 20
689.10954678075757
 40
6.6666666659999994
 50
51.317813000005735
 51
203.57817800000197
  0
ARC
  8
_0-7_枠細線
  6
CONTINUOUS
 62
    5
 10
2633.9590948591008
 20
699.51787677971674
 40
6.6666666659999994
 50
231.31781299999929
 51
308.68218699999693
  0
ARC
  8
_0-7_枠細線
  6
CONTINUOUS
 62
    5
 10
2642.2924281916003
 20
689.10954678075757
 40
6.6666666659999994
 50
336.42182199999576
 51
128.68218699999696
  0
ARC
  8
_0-7_枠細線
  6
CONTINUOUS
 62
    5
 10
2565.6257615326008
 20
702.44288011275739
 40
12.43333333209006
 50
151.14636799999636
 51
308.68218700000415
  0
LINE
  8
_0-7_枠細線
  6
CONTINUOUS
 62
    5
 10
2475.611584874935
 20
708.44288011215735
 11
2554.7359615336877
 21
708.44288011215735
  0
LINE
  8
_0-7_枠細線
  6
CONTINUOUS
 62
    5
 10
2533.182231535844
 20
683.10954678135772
 11
2614.735961527691
 21
683.10954678135772
  0
ARC
  8
_0-7_枠細線
  6
CONTINUOUS
 62
    5
 10
2467.3998915424231
 20
684.1827234479166
 40
17.180713331615152
 50
317.56162899999981
 51
42.438371000002093
  0
ARC
  8
_0-7_枠細線
  6
CONTINUOUS
 62
    5
 10
2505.6257615386003
 20
689.10954678075757
 40
12.43333333209006
 50
51.317812999992242
 51
208.8536319999977
  0
ARC
  8
_0-7_枠細線
  6
CONTINUOUS
 62
    5
 10
2492.7587482065528
 20
707.36970344559836
 40
17.180713331615152
 50
137.5616289999997
 51
222.43837100000192
  0
LINE
  8
_0-7_枠細線
  6
CONTINUOUS
 62
    5
 10
2484.5470548740414
 20
683.10954678135772
 11
2494.7359615396881
 21
683.10954678135772
  0
ARC
  8
_0-7_枠細線
  6
CONTINUOUS
 62
    5
 10
2513.9590948711002
 20
699.51787677971674
 40
0.899999999909939
 50
231.31781300002447
 51
308.68218699999738
  0
ARC
  8
_0-7_枠細線
  6
CONTINUOUS
 62
    5
 10
2522.2924282036006
 20
689.10954678075757
 40
12.43333333209006
 50
331.14636800000056
 51
128.6821870000058
  0
ARC
  8
_0-7_枠細線
  6
CONTINUOUS
 62
    5
 10
2657.1608648567822
 20
684.1827234479166
 40
17.180713331615152
 50
317.56162899999777
 51
42.438371000002093
  0
ARC
  8
_0-7_枠細線
  6
CONTINUOUS
 62
    5
 10
2682.5197215209123
 20
707.36970344559836
 40
17.180713331615152
 50
137.56162900000277
 51
222.4383710000009
  0
LINE
  8
_0-7_枠細線
  6
CONTINUOUS
 62
    5
 10
2653.1822315238442
 20
683.10954678135772
 11
2674.3080281884004
 21
683.10954678135772
  0
LINE
  8
_0-7_枠細線
  6
CONTINUOUS
 62
    5
 10
2593.1822315298446
 20
708.44288011215735
 11
2665.3725581892941
 21
708.44288011215735
  0
ARC
  8
_0-7_枠細線
  6
CONTINUOUS
 62
    5
 10
2625.6257615266004
 20
689.10954678075757
 40
12.43333333209006
 50
51.317812999992242
 51
208.85363200000535
  0
ARC
  8
_0-7_枠細線
  6
CONTINUOUS
 62
    5
 10
2573.9590948651003
 20
692.03455011379799
 40
0.899999999909939
 50
51.317813000011299
 51
128.68218699998872
  0
ARC
  8
_0-7_枠細線
  6
CONTINUOUS
 62
    5
 10
2582.2924281976016
 20
702.44288011275739
 40
12.43333333209006
 50
231.31781299998863
 51
28.853631999998242
  0
ARC
  8
_0-7_枠細線
  6
CONTINUOUS
 62
    5
 10
2633.9590948591008
 20
699.51787677971674
 40
0.899999999909939
 50
231.31781300000188
 51
308.68218699999738
  0
ARC
  8
_0-7_枠細線
  6
CONTINUOUS
 62
    5
 10
2642.2924281916003
 20
689.10954678075757
 40
12.43333333209006
 50
331.14636800000056
 51
128.6821870000058
  0
LINE
  8
_0-7_枠細線
  6
CENTER1
 62
    5
 10
2513.9590948711002
 20
715.24245677814395
 11
2513.9590948711002
 21
676.54616011534711
  0
LINE
  8
_0-7_枠細線
  6
CENTER1
 62
    5
 10
2633.9590948591008
 20
715.24245677814395
 11
2633.9590948591008
 21
676.54616011534711
  0
LINE
  8
_0-7_枠細線
  6
CENTER1
 62
    5
 10
2573.9590948651003
 20
715.24245677814395
 11
2573.9590948651003
 21
676.54616011534711
  0
LINE
  8
_0-7_枠細線
  6
CONTINUOUS
 62
    5
 10
2513.9590948711002
 20
669.10954678175756
 11
2513.9590948711002
 21
619.10954678175744
  0
LINE
  8
_0-7_枠細線
  6
CONTINUOUS
 62
    5
 10
2513.9590948711002
 20
629.10954678175744
 11
2533.2776113968816
 21
634.28592768380781
  0
LINE
  8
_0-7_枠細線
  6
CONTINUOUS
 62
    5
 10
2513.9590948711002
 20
629.10954678175744
 11
2533.2776113968816
 21
623.93316587970708
  0
LINE
  8
_0-7_枠細線
  6
CONTINUOUS
 62
    5
 10
2573.9590948651003
 20
669.10954678175756
 11
2573.9590948651003
 21
619.10954678175744
  0
LINE
  8
_0-7_枠細線
  6
CONTINUOUS
 62
    5
 10
2573.9590948651003
 20
629.10954678175744
 11
2554.6405783393188
 21
623.93316587970708
  0
LINE
  8
_0-7_枠細線
  6
CONTINUOUS
 62
    5
 10
2573.9590948651003
 20
629.10954678175744
 11
2554.6405783393188
 21
634.28592768380793
  0
LINE
  8
_0-7_枠細線
  6
CONTINUOUS
 62
    5
 10
2513.9590948711002
 20
629.10954678175744
 11
2573.9590948651003
 21
629.10954678175744
  0
TEXT
  8
_0-7_枠細線
 62
    5
 10
2528.9590948681002
 20
629.10954678175744
 40
30
 41
1
 50
0
  1
18
  0
LINE
  8
_0-7_枠細線
  6
CONTINUOUS
 62
    5
 10
2573.9590948651003
 20
629.10954678175744
 11
2593.2776113908817
 21
634.2859276838077
  0
LINE
  8
_0-7_枠細線
  6
CONTINUOUS
 62
    5
 10
2573.9590948651003
 20
629.10954678175744
 11
2593.2776113908817
 21
623.93316587970708
  0
LINE
  8
_0-7_枠細線
  6
CONTINUOUS
 62
    5
 10
2633.9590948591008
 20
669.10954678175756
 11
2633.9590948591008
 21
619.10954678175744
  0
LINE
  8
_0-7_枠細線
  6
CONTINUOUS
 62
    5
 10
2633.9590948591008
 20
629.10954678175744
 11
2614.6405783333189
 21
623.93316587970708
  0
LINE
  8
_0-7_枠細線
  6
CONTINUOUS
 62
    5
 10
2633.9590948591008
 20
629.10954678175744
 11
2614.6405783333189
 21
634.28592768380793
  0
LINE
  8
_0-7_枠細線
  6
CONTINUOUS
 62
    5
 10
2573.9590948651003
 20
629.10954678175744
 11
2633.9590948591008
 21
629.10954678175744
  0
TEXT
  8
_0-7_枠細線
 62
    5
 10
2588.9590948621008
 20
629.10954678175744
 40
30
 41
1
 50
0
  1
18
  0
TEXT
  8
_0-7_枠細線
 62
    5
 10
2525.9590948651025
 20
734.6040034812745
 40
30.000000000000004
 41
0.7999999999999997
 50
0
  1
品番－Ｄ
  0
LINE
  8
_0-7_枠細線
  6
CONTINUOUS
 62
    5
 10
2463.9590948651012
 20
824.60400348127439
 11
2463.9590948651012
 21
614.60400348127519
  0
TEXT
  8
_0-7_枠細線
 62
    5
 10
2305.9590948651012
 20
784.6040034812745
 40
30.000000000000004
 41
0.8
 50
0
  1
プレーン
  0
LINE
  8
_0-7_枠細線
  6
CONTINUOUS
 62
    5
 10
2262.8137998742141
 20
679.10954678175756
 11
2452.5747731885731
 21
679.10954678175756
  0
LINE
  8
_0-7_枠細線
  6
CONTINUOUS
 62
    5
 10
2255.3434132082939
 20
712.44288011175752
 11
2445.1043865226534
 21
712.44288011175752
  0
ARC
  8
_0-7_枠細線
  6
CONTINUOUS
 62
    5
 10
2436.1601531902129
 20
684.1827234479166
 40
17.180713331615152
 50
317.5616290000047
 51
42.438370999995676
  0
ARC
  8
_0-7_枠細線
  6
CONTINUOUS
 62
    5
 10
2246.399179875857
 20
684.1827234479166
 40
17.180713331615344
 50
317.56162899999845
 51
42.438371000001631
  0
LINE
  8
_0-7_枠細線
  6
CONTINUOUS
 62
    5
 10
2254.6108732083685
 20
708.44288011215735
 11
2444.3718465227275
 21
708.44288011215735
  0
LINE
  8
_0-7_枠細線
  6
CONTINUOUS
 62
    5
 10
2263.5463432074748
 20
683.10954678135772
 11
2453.3073165218329
 21
683.10954678135772
  0
ARC
  8
_0-7_枠細線
  6
CONTINUOUS
 62
    5
 10
2271.758036539989
 20
707.36970344559836
 40
17.180713331615344
 50
137.56162899999941
 51
222.4383710000032
  0
ARC
  8
_0-7_枠細線
  6
CONTINUOUS
 62
    5
 10
2461.5190098543453
 20
707.36970344559836
 40
17.180713331615152
 50
137.56162900000072
 51
222.43837100000192
  0
TEXT
  8
_0-7_枠細線
 62
    5
 10
2305.9590948651025
 20
734.6040034812745
 40
30.000000000000004
 41
0.7999999999999997
 50
0
  1
品番－Ｆ
  0
TEXT
  8
_0-7_枠細線
 62
    5
 10
2145.9590948651016
 20
784.60400348127439
 40
30.000000000000004
 41
0.8
 50
0
  1
タ イ プ
  0
LINE
  8
_0-7_枠細線
  6
CONTINUOUS
 62
    5
 10
2143.9590948651003
 20
724.6040034812745
 11
2683.9590948651016
 21
724.6040034812745
  0
LINE
  8
_0-7_枠細線
  6
CONTINUOUS
 62
    5
 10
2143.9590948651003
 20
774.60400348127439
 11
2683.9590948651016
 21
774.60400348127439
  0
LINE
  8
_0-7_枠細線
  6
CONTINUOUS
 62
    5
 10
2143.9590948651003
 20
824.60400348127439
 11
2683.9590948651016
 21
824.60400348127439
  0
LINE
  8
_0-7_枠細線
  6
CONTINUOUS
 62
    5
 10
2143.9590948651003
 20
614.60400348127519
 11
2683.9590948651016
 21
614.60400348127519
  0
LINE
  8
_0-7_枠細線
  6
CONTINUOUS
 62
    5
 10
2243.9590948651016
 20
824.60400348127439
 11
2243.9590948651016
 21
614.60400348127519
  0
LINE
  8
_0-7_枠細線
  6
CONTINUOUS
 62
    5
 10
2143.9590948651003
 20
824.60400348127439
 11
2143.9590948651003
 21
614.60400348127519
  0
TEXT
  8
_0-7_枠細線
 62
    5
 10
2145.9590948651016
 20
654.60400348127473
 40
30.000000000000004
 41
0.8
 50
0
  1
表面形状
  0
TEXT
  8
_0-7_枠細線
 62
    5
 10
2159.5075175467227
 20
829.6040034812745
 40
35.000000000000007
 41
0.7999999999999996
 50
0
  1
記号表
  0
TEXT
  8
_0-7_枠細線
 62
    5
 10
2145.9590948651016
 20
734.60400348127462
 40
30.000000000000004
 41
0.8
 50
0
  1
記　　号
  0
TEXT
  8
_0-5_寸法線
 62
    7
 10
412.76669378367131
 20
1544.0000841946332
 40
24.000000000000004
 41
1
 50
0
  1
Ａ’
  0
TEXT
  8
_0-5_寸法線
 62
    7
 10
413.03346359961381
 20
1382.8884271171005
 40
24.000000000000004
 41
1
 50
0
  1
Ａ
  0
LINE
  8
_0-7_枠細線
  6
CONTINUOUS
 62
    5
 10
2850
 20
1885
 11
1780
 21
1885
  0
TEXT
  8
_0-7_枠細線
 62
    5
 10
1790
 20
1889.9999999999995
 40
25
 41
1
 50
0
  1
記号
  0
TEXT
  8
_0-7_枠細線
 62
    5
 10
1993.75
 20
1890
 40
25
 41
1
 50
0
  1
訂　 正　 記　 事
  0
TEXT
  8
_0-7_枠細線
 62
    5
 10
2362.5
 20
1890
 40
25
 41
1
 50
0
  1
訂 正 年 月 日
  0
TEXT
  8
_0-7_枠細線
 62
    5
 10
2612.5
 20
1890
 40
25
 41
1
 50
0
  1
備　　　　　考
  0
LINE
  8
_0-7_枠細線
  6
CONTINUOUS
 62
    5
 10
2850
 20
1850
 11
1780
 21
1850
  0
LINE
  8
_0-7_枠細線
  6
CONTINUOUS
 62
    5
 10
1780
 20
1850
 11
1780
 21
1919.9999999999989
  0
LINE
  8
_0-7_枠細線
  6
CONTINUOUS
 62
    5
 10
1850
 20
1850
 11
1850
 21
1919.9999999999989
  0
LINE
  8
_0-7_枠細線
  6
CONTINUOUS
 62
    5
 10
2350
 20
1850
 11
2350
 21
1920
  0
LINE
  8
_0-7_枠細線
  6
CONTINUOUS
 62
    5
 10
2550
 20
1850
 11
2550
 21
1919.9999999999989
  0
LINE
  8
_0-7_枠細線
  6
CONTINUOUS
 62
    5
 10
1830
 20
1852.8846679434942
 11
1815
 21
1882.8846679434942
  0
LINE
  8
_0-7_枠細線
  6
CONTINUOUS
 62
    5
 10
1800
 20
1852.8846679434942
 11
1830
 21
1852.8846679434942
  0
LINE
  8
_0-7_枠細線
  6
CONTINUOUS
 62
    5
 10
1815
 20
1882.8846679434942
 11
1800
 21
1852.8846679434942
  0
TEXT
  8
_0-7_枠細線
 62
    5
 10
1804.7303025362964
 20
1852.2706634527331
 40
25
 41
0.8
 50
0
  1
１
  0
TEXT
  8
_0-7_枠細線
 62
    5
 10
2360
 20
1855
 40
25
 41
0.7199999999999999
 50
0
  1
２０１９．０９．０１
  0
TEXT
  8
_0-7_枠細線
 62
    5
 10
1877.7007407407405
 20
1855
 40
25.000000000000004
 41
1
 50
0
  1
アンカー材質･厚み変更
  0
LINE
  8
_0-1_計細線
  6
CONTINUOUS
 62
    3
 10
2589.8089827611902
 20
1516.3949881808278
 11
2589.8089827611902
 21
1514.0949881808278
  0
LINE
  8
_0-1_計細線
  6
CONTINUOUS
 62
    3
 10
2589.8089827611902
 20
1514.0949881808278
 11
2624.8089827611902
 21
1514.0949881808278
  0
LINE
  8
_0-1_計細線
  6
CONTINUOUS
 62
    3
 10
2624.8089827611902
 20
1514.0949881808278
 11
2624.8089827611902
 21
1516.3949881808278
  0
LINE
  8
_0-1_計細線
  6
CONTINUOUS
 62
    3
 10
2624.8089827611902
 20
1516.3949881808278
 11
2589.8089827611902
 21
1516.3949881808278
  0
LINE
  8
_0-0_計極細
  6
CONTINUOUS
 62
    2
 10
2591.8089827611902
 20
1514.0949881808278
 11
2591.8089827611902
 21
1516.3949881808278
  0
LINE
  8
_0-0_計極細
  6
CONTINUOUS
 62
    2
 10
2603.8089827611902
 20
1514.0949881808278
 11
2603.8089827611902
 21
1516.3949881808278
  0
LINE
  8
_0-0_計極細
  6
CONTINUOUS
 62
    2
 10
2605.8089827611907
 20
1514.0949881808278
 11
2605.8089827611907
 21
1516.3949881808278
  0
LINE
  8
_0-0_計極細
  6
CONTINUOUS
 62
    2
 10
2607.8089827611902
 20
1514.0949881808278
 11
2607.8089827611902
 21
1516.3949881808278
  0
LINE
  8
_0-0_計極細
  6
CONTINUOUS
 62
    2
 10
2621.8089827611902
 20
1514.0949881808278
 11
2621.8089827611902
 21
1516.3949881808278
  0
LINE
  8
_0-0_計極細
  6
CONTINUOUS
 62
    2
 10
2601.8089827611902
 20
1514.0949881808278
 11
2601.8089827611902
 21
1516.3949881808278
  0
LINE
  8
_0-1_計細線
  6
CONTINUOUS
 62
    3
 10
2589.8089827611902
 20
1432.0949881808281
 11
2589.8089827611902
 21
1429.7949881808281
  0
LINE
  8
_0-1_計細線
  6
CONTINUOUS
 62
    3
 10
2589.8089827611902
 20
1429.7949881808281
 11
2624.8089827611902
 21
1429.7949881808281
  0
LINE
  8
_0-1_計細線
  6
CONTINUOUS
 62
    3
 10
2624.8089827611902
 20
1429.7949881808281
 11
2624.8089827611902
 21
1432.0949881808281
  0
LINE
  8
_0-1_計細線
  6
CONTINUOUS
 62
    3
 10
2624.8089827611902
 20
1432.0949881808281
 11
2589.8089827611902
 21
1432.0949881808281
  0
LINE
  8
_0-0_計極細
  6
CONTINUOUS
 62
    2
 10
2591.8089827611902
 20
1429.7949881808281
 11
2591.8089827611902
 21
1432.0949881808281
  0
LINE
  8
_0-0_計極細
  6
CONTINUOUS
 62
    2
 10
2603.8089827611902
 20
1429.7949881808281
 11
2603.8089827611902
 21
1432.0949881808281
  0
LINE
  8
_0-0_計極細
  6
CONTINUOUS
 62
    2
 10
2605.8089827611907
 20
1429.7949881808281
 11
2605.8089827611907
 21
1432.0949881808281
  0
LINE
  8
_0-0_計極細
  6
CONTINUOUS
 62
    2
 10
2607.8089827611902
 20
1429.7949881808281
 11
2607.8089827611902
 21
1432.0949881808281
  0
LINE
  8
_0-0_計極細
  6
CONTINUOUS
 62
    2
 10
2621.8089827611902
 20
1429.7949881808281
 11
2621.8089827611902
 21
1432.0949881808281
  0
LINE
  8
_0-0_計極細
  6
CONTINUOUS
 62
    2
 10
2601.8089827611902
 20
1429.7949881808281
 11
2601.8089827611902
 21
1432.0949881808281
  0
LINE
  8
_0-7_枠細線
  6
CONTINUOUS
 62
    5
 10
2664.3467034844521
 20
1517.678323870467
 11
2649.3467034844521
 21
1547.6783238704672
  0
LINE
  8
_0-7_枠細線
  6
CONTINUOUS
 62
    5
 10
2634.3467034844521
 20
1517.678323870467
 11
2664.3467034844521
 21
1517.678323870467
  0
LINE
  8
_0-7_枠細線
  6
CONTINUOUS
 62
    5
 10
2649.3467034844521
 20
1547.6783238704672
 11
2634.3467034844521
 21
1517.678323870467
  0
TEXT
  8
_0-7_枠細線
 62
    5
 10
2639.0770060207474
 20
1517.0643193797059
 40
25
 41
0.8
 50
0
  1
１
  0
LINE
  8
_1-5_寸法2
  6
CONTINUOUS
 62
    7
 10
441.74934673767183
 20
622.5269355897525
 11
441.74934673767211
 21
752.52693629376836
  0
LINE
  8
_1-5_寸法2
  6
CONTINUOUS
 62
    7
 10
441.74934673767211
 20
742.52693629376836
 11
422.43083021189068
 21
737.35055539171799
  0
LINE
  8
_1-5_寸法2
  6
CONTINUOUS
 62
    7
 10
441.74934673767211
 20
742.52693629376836
 11
422.43083021189079
 21
747.70331719581895
  0
LINE
  8
_1-5_寸法2
  6
CONTINUOUS
 62
    7
 10
456.74934826842957
 20
622.5269355897525
 11
456.74934826842957
 21
752.52693629376836
  0
CIRCLE
  8
_1-5_寸法2
  6
CONTINUOUS
 62
    1
 10
456.74934826842957
 20
742.52693629376836
 40
3.0000000000000004
  0
LINE
  8
_1-5_寸法2
  6
CONTINUOUS
 62
    7
 10
391.74934673767211
 20
742.52693629376836
 11
456.74934826842957
 21
742.52693629376836
  0
TEXT
  8
_1-5_寸法2
 62
    7
 10
401.62279049208166
 20
742.52693629376836
 40
30
 41
1
 50
0
  1
3
  0
LINE
  8
_1-5_寸法2
  6
CONTINUOUS
 62
    7
 10
466.74934725849027
 20
622.5269355897525
 11
466.74934725849027
 21
752.52693629376836
  0
LINE
  8
_1-5_寸法2
  6
CONTINUOUS
 62
    7
 10
456.74934826842957
 20
742.52693629376836
 11
466.74934725849027
 21
742.52693629376836
  0
TEXT
  8
_1-5_寸法2
 62
    7
 10
454.24934776345992
 20
742.52693629376836
 40
30
 41
1
 50
0
  1
2
  0
LINE
  8
_1-5_寸法2
  6
CONTINUOUS
 62
    7
 10
466.74934725849027
 20
742.52693629376836
 11
486.06786378427171
 21
747.70331719581873
  0
LINE
  8
_1-5_寸法2
  6
CONTINUOUS
 62
    7
 10
466.74934725849027
 20
742.52693629376836
 11
486.06786378427171
 21
737.35055539171799
  0
LINE
  8
_1-5_寸法2
  6
CONTINUOUS
 62
    7
 10
826.74934776873272
 20
622.52693558975216
 11
826.74934776873306
 21
752.52693629376836
  0
LINE
  8
_1-5_寸法2
  6
CONTINUOUS
 62
    7
 10
826.74934776873306
 20
742.52693629376836
 11
807.43083124295151
 21
737.35055539171799
  0
LINE
  8
_1-5_寸法2
  6
CONTINUOUS
 62
    7
 10
826.74934776873306
 20
742.52693629376836
 11
807.43083124295163
 21
747.70331719581895
  0
LINE
  8
_1-5_寸法2
  6
CONTINUOUS
 62
    7
 10
466.74934725849027
 20
742.52693629376836
 11
826.74934776873306
 21
742.52693629376836
  0
TEXT
  8
_1-5_寸法2
 62
    7
 10
631.74934751361184
 20
742.52693629376836
 40
30
 41
1
 50
0
  1
72
  0
LINE
  8
_1-5_寸法2
  6
CONTINUOUS
 62
    7
 10
836.74934673767223
 20
622.52693558975216
 11
836.74934673767268
 21
752.52693629376836
  0
CIRCLE
  8
_1-5_寸法2
  6
CONTINUOUS
 62
    1
 10
836.74934673767268
 20
742.52693629376836
 40
3.0000000000000004
  0
LINE
  8
_1-5_寸法2
  6
CONTINUOUS
 62
    7
 10
826.74934776873306
 20
742.52693629376836
 11
836.74934673767268
 21
742.52693629376836
  0
TEXT
  8
_1-5_寸法2
 62
    7
 10
824.24934725320259
 20
742.52693629376836
 40
30
 41
1
 50
0
  1
2
  0
LINE
  8
_1-5_寸法2
  6
CONTINUOUS
 62
    7
 10
851.74934673767223
 20
622.52693558975216
 11
851.74934673767268
 21
752.52693629376836
  0
LINE
  8
_1-5_寸法2
  6
CONTINUOUS
 62
    7
 10
851.74934673767268
 20
742.52693629376836
 11
871.067863263454
 21
747.70331719581861
  0
LINE
  8
_1-5_寸法2
  6
CONTINUOUS
 62
    7
 10
851.74934673767268
 20
742.52693629376836
 11
871.067863263454
 21
737.35055539171799
  0
LINE
  8
_1-5_寸法2
  6
CONTINUOUS
 62
    7
 10
836.74934673767268
 20
742.52693629376836
 11
901.74934673767268
 21
742.52693629376836
  0
TEXT
  8
_1-5_寸法2
 62
    7
 10
878.0470698381464
 20
742.52693629376836
 40
30
 41
1
 50
0
  1
3
  0
LINE
  8
_0-5_寸法線
  6
CONTINUOUS
 62
    7
 10
352.29689303288978
 20
1534.0947982538351
 11
352.29689303288978
 21
1694.0947982538351
  0
LINE
  8
_0-5_寸法線
  6
CONTINUOUS
 62
    7
 10
352.29689303288978
 20
1684.0947982538351
 11
371.6154095586711
 21
1689.2711791558852
  0
LINE
  8
_0-5_寸法線
  6
CONTINUOUS
 62
    7
 10
352.29689303288978
 20
1684.0947982538351
 11
371.6154095586711
 21
1678.9184173517845
  0
LINE
  8
_0-5_寸法線
  6
CONTINUOUS
 62
    7
 10
2332.2968930328898
 20
1534.0947982538351
 11
2332.2968930328898
 21
1694.0947982538351
  0
LINE
  8
_0-5_寸法線
  6
CONTINUOUS
 62
    7
 10
2332.2968930328898
 20
1684.0947982538351
 11
2312.9783765071084
 21
1678.9184173517845
  0
LINE
  8
_0-5_寸法線
  6
CONTINUOUS
 62
    7
 10
2332.2968930328898
 20
1684.0947982538351
 11
2312.9783765071084
 21
1689.2711791558852
  0
LINE
  8
_0-5_寸法線
  6
CONTINUOUS
 62
    7
 10
352.29689303288978
 20
1684.0947982538351
 11
2332.2968930328898
 21
1684.0947982538351
  0
TEXT
  8
_0-5_寸法線
 62
    7
 10
1312.2968930328898
 20
1684.0947982538351
 40
30
 41
1
 50
0
  1
1980
  0
LINE
  8
_0-5_寸法線
  6
CONTINUOUS
 62
    7
 10
2578.8089827611902
 20
1534.0949881808283
 11
2578.8089827611902
 21
1694.0947982538351
  0
LINE
  8
_0-5_寸法線
  6
CONTINUOUS
 62
    7
 10
2578.8089827611902
 20
1684.0947982538351
 11
2598.1274992869721
 21
1689.2711791558852
  0
LINE
  8
_0-5_寸法線
  6
CONTINUOUS
 62
    7
 10
2578.8089827611902
 20
1684.0947982538351
 11
2598.1274992869721
 21
1678.9184173517845
  0
LINE
  8
_0-5_寸法線
  6
CONTINUOUS
 62
    7
 10
2624.8089827611902
 20
1536.3949881808278
 11
2624.8089827611902
 21
1694.0947982538351
  0
LINE
  8
_0-5_寸法線
  6
CONTINUOUS
 62
    7
 10
2624.8089827611902
 20
1684.0947982538351
 11
2605.4904662354093
 21
1678.9184173517845
  0
LINE
  8
_0-5_寸法線
  6
CONTINUOUS
 62
    7
 10
2624.8089827611902
 20
1684.0947982538351
 11
2605.4904662354093
 21
1689.2711791558852
  0
LINE
  8
_0-5_寸法線
  6
CONTINUOUS
 62
    7
 10
2578.8089827611902
 20
1684.0947982538351
 11
2624.8089827611902
 21
1684.0947982538351
  0
TEXT
  8
_0-5_寸法線
 62
    7
 10
2586.8089827611898
 20
1684.0947982538351
 40
30
 41
1
 50
0
  1
46
  0
LINE
  8
_0-5_寸法線
  6
CONTINUOUS
 62
    7
 10
352.29689303288978
 20
1534.0947982538351
 11
352.2968930328899
 21
1624.0947982538351
  0
LINE
  8
_0-5_寸法線
  6
CONTINUOUS
 62
    7
 10
352.2968930328899
 20
1614.0947982538351
 11
332.97837650710846
 21
1608.9184173517845
  0
LINE
  8
_0-5_寸法線
  6
CONTINUOUS
 62
    7
 10
352.2968930328899
 20
1614.0947982538351
 11
332.97837650710858
 21
1619.2711791558852
  0
LINE
  8
_0-5_寸法線
  6
CONTINUOUS
 62
    7
 10
355.2968930328899
 20
1534.0947982538351
 11
355.2968930328899
 21
1624.0947982538351
  0
CIRCLE
  8
_0-5_寸法線
  6
CONTINUOUS
 62
    1
 10
355.2968930328899
 20
1614.0947982538351
 40
3.0000000000000004
  0
LINE
  8
_0-5_寸法線
  6
CONTINUOUS
 62
    7
 10
302.2968930328899
 20
1614.0947982538351
 11
355.2968930328899
 21
1614.0947982538351
  0
TEXT
  8
_0-5_寸法線
 62
    7
 10
307.80183718112568
 20
1614.0947982538351
 40
30
 41
1
 50
0
  1
3
  0
LINE
  8
_0-5_寸法線
  6
CONTINUOUS
 62
    7
 10
356.79689303288978
 20
1534.0947982538351
 11
356.79689303288995
 21
1624.0947982538351
  0
LINE
  8
_0-5_寸法線
  6
CONTINUOUS
 62
    7
 10
355.2968930328899
 20
1614.0947982538351
 11
356.79689303288995
 21
1614.0947982538351
  0
TEXT
  8
_0-5_寸法線
 62
    7
 10
358.17532700071183
 20
1614.0947982538351
 40
30
 41
1
 50
0
  1
1.5
  0
LINE
  8
_0-5_寸法線
  6
CONTINUOUS
 62
    7
 10
356.79689303288995
 20
1614.0947982538351
 11
376.11540955867127
 21
1619.2711791558852
  0
LINE
  8
_0-5_寸法線
  6
CONTINUOUS
 62
    7
 10
356.79689303288995
 20
1614.0947982538351
 11
376.11540955867127
 21
1608.9184173517845
  0
LINE
  8
_0-5_寸法線
  6
CONTINUOUS
 62
    7
 10
2327.7968930328898
 20
1534.0947982538346
 11
2327.7968930328898
 21
1624.0947982538351
  0
LINE
  8
_0-5_寸法線
  6
CONTINUOUS
 62
    7
 10
2327.7968930328898
 20
1614.0947982538351
 11
2308.4783765071088
 21
1608.9184173517845
  0
LINE
  8
_0-5_寸法線
  6
CONTINUOUS
 62
    7
 10
2327.7968930328898
 20
1614.0947982538351
 11
2308.4783765071088
 21
1619.2711791558852
  0
LINE
  8
_0-5_寸法線
  6
CONTINUOUS
 62
    7
 10
356.79689303288995
 20
1614.0947982538351
 11
2327.7968930328898
 21
1614.0947982538351
  0
TEXT
  8
_0-5_寸法線
 62
    7
 10
1312.2968930328896
 20
1614.0947982538351
 40
30
 41
1
 50
0
  1
1971
  0
LINE
  8
_0-5_寸法線
  6
CONTINUOUS
 62
    7
 10
2329.2968930328898
 20
1534.0947982538346
 11
2329.2968930328898
 21
1624.0947982538351
  0
CIRCLE
  8
_0-5_寸法線
  6
CONTINUOUS
 62
    1
 10
2329.2968930328898
 20
1614.0947982538351
 40
3.0000000000000004
  0
LINE
  8
_0-5_寸法線
  6
CONTINUOUS
 62
    7
 10
2327.7968930328898
 20
1614.0947982538351
 11
2329.2968930328898
 21
1614.0947982538351
  0
TEXT
  8
_0-5_寸法線
 62
    7
 10
2280.8658335992823
 20
1614.0947982538351
 40
30
 41
1
 50
0
  1
1.5
  0
LINE
  8
_0-5_寸法線
  6
CONTINUOUS
 62
    7
 10
2332.2968930328898
 20
1534.0947982538346
 11
2332.2968930328898
 21
1624.0947982538351
  0
LINE
  8
_0-5_寸法線
  6
CONTINUOUS
 62
    7
 10
2332.2968930328898
 20
1614.0947982538351
 11
2351.6154095586712
 21
1619.2711791558852
  0
LINE
  8
_0-5_寸法線
  6
CONTINUOUS
 62
    7
 10
2332.2968930328898
 20
1614.0947982538351
 11
2351.6154095586712
 21
1608.9184173517845
  0
LINE
  8
_0-5_寸法線
  6
CONTINUOUS
 62
    7
 10
2329.2968930328898
 20
1614.0947982538351
 11
2382.2968930328898
 21
1614.0947982538351
  0
TEXT
  8
_0-5_寸法線
 62
    7
 10
2364.0425583488704
 20
1614.0947982538351
 40
30
 41
1
 50
0
  1
3
  0
LINE
  8
_0-5_寸法線
  6
CONTINUOUS
 62
    7
 10
2578.8089827611902
 20
1534.0949881808278
 11
2578.8089827611902
 21
1624.0947982538351
  0
LINE
  8
_0-5_寸法線
  6
CONTINUOUS
 62
    7
 10
2578.8089827611902
 20
1614.0947982538351
 11
2559.4904662354088
 21
1608.9184173517845
  0
LINE
  8
_0-5_寸法線
  6
CONTINUOUS
 62
    7
 10
2578.8089827611902
 20
1614.0947982538351
 11
2559.4904662354088
 21
1619.2711791558852
  0
LINE
  8
_0-5_寸法線
  6
CONTINUOUS
 62
    7
 10
2601.8089827611902
 20
1536.3949881808278
 11
2601.8089827611902
 21
1624.0947982538351
  0
CIRCLE
  8
_0-5_寸法線
  6
CONTINUOUS
 62
    1
 10
2601.8089827611902
 20
1614.0947982538351
 40
3.0000000000000004
  0
LINE
  8
_0-5_寸法線
  6
CONTINUOUS
 62
    7
 10
2528.8089827611902
 20
1614.0947982538351
 11
2601.8089827611902
 21
1614.0947982538351
  0
TEXT
  8
_0-5_寸法線
 62
    7
 10
2532.3970504672998
 20
1614.0947982538351
 40
30
 41
1
 50
0
  1
23
  0
LINE
  8
_0-5_寸法線
  6
CONTINUOUS
 62
    7
 10
2624.8089827611902
 20
1536.3949881808278
 11
2624.8089827611902
 21
1624.0947982538351
  0
LINE
  8
_0-5_寸法線
  6
CONTINUOUS
 62
    7
 10
2624.8089827611902
 20
1614.0947982538351
 11
2644.1274992869717
 21
1619.2711791558852
  0
LINE
  8
_0-5_寸法線
  6
CONTINUOUS
 62
    7
 10
2624.8089827611902
 20
1614.0947982538351
 11
2644.1274992869717
 21
1608.9184173517845
  0
LINE
  8
_0-5_寸法線
  6
CONTINUOUS
 62
    7
 10
2601.8089827611902
 20
1614.0947982538351
 11
2674.8089827611902
 21
1614.0947982538351
  0
TEXT
  8
_0-5_寸法線
 62
    7
 10
2647.2021950374569
 20
1614.0947982538351
 40
30
 41
1
 50
0
  1
23
  0
LINE
  8
_0-5_寸法線
  6
CONTINUOUS
 62
    7
 10
2352.2968930328898
 20
1432.0947982538348
 11
2442.2968930328898
 21
1432.0947982538346
  0
LINE
  8
_0-5_寸法線
  6
CONTINUOUS
 62
    7
 10
2432.2968930328898
 20
1432.0947982538346
 11
2427.1205121308394
 21
1451.413314779616
  0
LINE
  8
_0-5_寸法線
  6
CONTINUOUS
 62
    7
 10
2432.2968930328898
 20
1432.0947982538346
 11
2437.4732739349402
 21
1451.413314779616
  0
LINE
  8
_0-5_寸法線
  6
CONTINUOUS
 62
    7
 10
2352.2968930328898
 20
1514.0947982538351
 11
2442.2968930328898
 21
1514.0947982538346
  0
LINE
  8
_0-5_寸法線
  6
CONTINUOUS
 62
    7
 10
2432.2968930328898
 20
1514.0947982538346
 11
2437.4732739349402
 21
1494.7762817280532
  0
LINE
  8
_0-5_寸法線
  6
CONTINUOUS
 62
    7
 10
2432.2968930328898
 20
1514.0947982538346
 11
2427.1205121308394
 21
1494.7762817280532
  0
LINE
  8
_0-5_寸法線
  6
CONTINUOUS
 62
    7
 10
2432.2968930328898
 20
1432.0947982538346
 11
2432.2968930328898
 21
1514.0947982538346
  0
TEXT
  8
_0-5_寸法線
 62
    7
 10
2432.2968930328907
 20
1458.0947982538348
 40
30
 41
1
 50
90
  1
82
  0
LINE
  8
_0-1_計細線
  6
CONTINUOUS
 62
    3
 10
396.29689325710473
 20
1151.0947982538348
 11
394.29689325710484
 21
1149.0947982538348
  0
LINE
  8
_0-1_計細線
  6
CONTINUOUS
 62
    3
 10
394.29689325710484
 20
1139.0947982538348
 11
394.29689325710484
 21
1149.0947982538348
  0
LINE
  8
_0-1_計細線
  6
CONTINUOUS
 62
    3
 10
410.2968929509434
 20
1149.0947982538348
 11
408.2968929509434
 21
1151.0947982538348
  0
LINE
  8
_0-1_計細線
  6
CONTINUOUS
 62
    3
 10
410.2968929509434
 20
1139.0947982538348
 11
410.2968929509434
 21
1149.0947982538348
  0
LINE
  8
_0-1_計細線
  6
CONTINUOUS
 62
    3
 10
396.29689325710473
 20
1135.0947982538351
 11
394.29689325710484
 21
1133.0947982538348
  0
LINE
  8
_0-1_計細線
  6
CONTINUOUS
 62
    3
 10
396.29689325710473
 20
1137.0947982538348
 11
396.29689325710473
 21
1135.0947982538351
  0
LINE
  8
_0-1_計細線
  6
CONTINUOUS
 62
    3
 10
394.29689325710484
 20
1139.0947982538348
 11
396.29689325710473
 21
1137.0947982538348
  0
LINE
  8
_0-1_計細線
  6
CONTINUOUS
 62
    3
 10
408.2968929509434
 20
1135.0947982538351
 11
410.2968929509434
 21
1133.0947982538348
  0
LINE
  8
_0-1_計細線
  6
CONTINUOUS
 62
    3
 10
408.2968929509434
 20
1137.0947982538348
 11
408.2968929509434
 21
1135.0947982538351
  0
LINE
  8
_0-1_計細線
  6
CONTINUOUS
 62
    3
 10
410.2968929509434
 20
1139.0947982538348
 11
408.2968929509434
 21
1137.0947982538348
  0
LINE
  8
_0-1_計細線
  6
CONTINUOUS
 62
    3
 10
394.29689325710484
 20
1133.0947982538348
 11
394.29689325710484
 21
1119.0947982538348
  0
ARC
  8
_0-1_計細線
  6
CONTINUOUS
 62
    3
 10
397.29689325710478
 20
1119.0947982538348
 40
3.0000000000000004
 50
179.99999999999983
 51
269.99999999999977
  0
LINE
  8
_0-1_計細線
  6
CONTINUOUS
 62
    3
 10
397.29689325710478
 20
1116.0947982538348
 11
407.29689295094346
 21
1116.0947982538348
  0
LINE
  8
_0-1_計細線
  6
CONTINUOUS
 62
    3
 10
410.2968929509434
 20
1133.0947982538348
 11
410.2968929509434
 21
1119.0947982538348
  0
ARC
  8
_0-1_計細線
  6
CONTINUOUS
 62
    3
 10
407.29689295094346
 20
1119.0947982538348
 40
3.0000000000000004
 50
269.99999999999977
 51
359.99999999999966
  0
LINE
  8
_0-0_計極細
  6
CENTER1
 62
    2
 10
402.29689303288978
 20
1162.7361721192228
 11
402.29689303288978
 21
1107.4660542829795
  0
LINE
  8
_0-1_計細線
  6
CONTINUOUS
 62
    3
 10
396.29689325710473
 20
1151.0947982538348
 11
408.2968929509434
 21
1151.0947982538348
  0
LINE
  8
_0-1_計細線
  6
CONTINUOUS
 62
    3
 10
2276.2968932571057
 20
1151.0947982538348
 11
2274.2968932571057
 21
1149.0947982538348
  0
LINE
  8
_0-1_計細線
  6
CONTINUOUS
 62
    3
 10
2274.2968932571057
 20
1139.0947982538348
 11
2274.2968932571057
 21
1149.0947982538348
  0
LINE
  8
_0-1_計細線
  6
CONTINUOUS
 62
    3
 10
2290.2968929509443
 20
1149.0947982538348
 11
2288.2968929509443
 21
1151.0947982538348
  0
LINE
  8
_0-1_計細線
  6
CONTINUOUS
 62
    3
 10
2290.2968929509443
 20
1139.0947982538348
 11
2290.2968929509443
 21
1149.0947982538348
  0
LINE
  8
_0-1_計細線
  6
CONTINUOUS
 62
    3
 10
2276.2968932571057
 20
1135.0947982538351
 11
2274.2968932571057
 21
1133.0947982538348
  0
LINE
  8
_0-1_計細線
  6
CONTINUOUS
 62
    3
 10
2276.2968932571057
 20
1137.0947982538348
 11
2276.2968932571057
 21
1135.0947982538351
  0
LINE
  8
_0-1_計細線
  6
CONTINUOUS
 62
    3
 10
2274.2968932571057
 20
1139.0947982538348
 11
2276.2968932571057
 21
1137.0947982538348
  0
LINE
  8
_0-1_計細線
  6
CONTINUOUS
 62
    3
 10
2288.2968929509443
 20
1135.0947982538351
 11
2290.2968929509443
 21
1133.0947982538348
  0
LINE
  8
_0-1_計細線
  6
CONTINUOUS
 62
    3
 10
2288.2968929509443
 20
1137.0947982538348
 11
2288.2968929509443
 21
1135.0947982538351
  0
LINE
  8
_0-1_計細線
  6
CONTINUOUS
 62
    3
 10
2290.2968929509443
 20
1139.0947982538348
 11
2288.2968929509443
 21
1137.0947982538348
  0
LINE
  8
_0-1_計細線
  6
CONTINUOUS
 62
    3
 10
2274.2968932571057
 20
1133.0947982538348
 11
2274.2968932571057
 21
1119.0947982538348
  0
ARC
  8
_0-1_計細線
  6
CONTINUOUS
 62
    3
 10
2277.2968932571057
 20
1119.0947982538348
 40
3.0000000000000004
 50
179.99999999999983
 51
269.99999999999977
  0
LINE
  8
_0-1_計細線
  6
CONTINUOUS
 62
    3
 10
2277.2968932571057
 20
1116.0947982538348
 11
2287.2968929509443
 21
1116.0947982538348
  0
LINE
  8
_0-1_計細線
  6
CONTINUOUS
 62
    3
 10
2290.2968929509443
 20
1133.0947982538348
 11
2290.2968929509443
 21
1119.0947982538348
  0
ARC
  8
_0-1_計細線
  6
CONTINUOUS
 62
    3
 10
2287.2968929509443
 20
1119.0947982538348
 40
3.0000000000000004
 50
269.99999999999977
 51
359.99999999999966
  0
LINE
  8
_0-0_計極細
  6
CENTER1
 62
    2
 10
2282.2968930328898
 20
1162.7361721192228
 11
2282.2968930328898
 21
1107.4660542829795
  0
LINE
  8
_0-1_計細線
  6
CONTINUOUS
 62
    3
 10
2276.2968932571057
 20
1151.0947982538348
 11
2288.2968929509443
 21
1151.0947982538348
  0
LINE
  8
_0-1_計細線
  6
CONTINUOUS
 62
    3
 10
866.2968932571049
 20
1151.0947982538348
 11
864.29689325710478
 21
1149.0947982538348
  0
LINE
  8
_0-1_計細線
  6
CONTINUOUS
 62
    3
 10
864.29689325710478
 20
1139.0947982538348
 11
864.29689325710478
 21
1149.0947982538348
  0
LINE
  8
_0-1_計細線
  6
CONTINUOUS
 62
    3
 10
880.2968929509434
 20
1149.0947982538348
 11
878.2968929509434
 21
1151.0947982538348
  0
LINE
  8
_0-1_計細線
  6
CONTINUOUS
 62
    3
 10
880.2968929509434
 20
1139.0947982538348
 11
880.2968929509434
 21
1149.0947982538348
  0
LINE
  8
_0-1_計細線
  6
CONTINUOUS
 62
    3
 10
866.2968932571049
 20
1135.0947982538351
 11
864.29689325710478
 21
1133.0947982538348
  0
LINE
  8
_0-1_計細線
  6
CONTINUOUS
 62
    3
 10
866.2968932571049
 20
1137.0947982538348
 11
866.2968932571049
 21
1135.0947982538351
  0
LINE
  8
_0-1_計細線
  6
CONTINUOUS
 62
    3
 10
864.29689325710478
 20
1139.0947982538348
 11
866.2968932571049
 21
1137.0947982538348
  0
LINE
  8
_0-1_計細線
  6
CONTINUOUS
 62
    3
 10
878.2968929509434
 20
1135.0947982538351
 11
880.2968929509434
 21
1133.0947982538348
  0
LINE
  8
_0-1_計細線
  6
CONTINUOUS
 62
    3
 10
878.2968929509434
 20
1137.0947982538348
 11
878.2968929509434
 21
1135.0947982538351
  0
LINE
  8
_0-1_計細線
  6
CONTINUOUS
 62
    3
 10
880.2968929509434
 20
1139.0947982538348
 11
878.2968929509434
 21
1137.0947982538348
  0
LINE
  8
_0-1_計細線
  6
CONTINUOUS
 62
    3
 10
864.29689325710478
 20
1133.0947982538348
 11
864.29689325710478
 21
1119.0947982538348
  0
ARC
  8
_0-1_計細線
  6
CONTINUOUS
 62
    3
 10
867.29689325710478
 20
1119.0947982538348
 40
3.0000000000000004
 50
179.99999999999983
 51
269.99999999999977
  0
LINE
  8
_0-1_計細線
  6
CONTINUOUS
 62
    3
 10
867.29689325710478
 20
1116.0947982538348
 11
877.2968929509434
 21
1116.0947982538348
  0
LINE
  8
_0-1_計細線
  6
CONTINUOUS
 62
    3
 10
880.2968929509434
 20
1133.0947982538348
 11
880.2968929509434
 21
1119.0947982538348
  0
ARC
  8
_0-1_計細線
  6
CONTINUOUS
 62
    3
 10
877.2968929509434
 20
1119.0947982538348
 40
3.0000000000000004
 50
269.99999999999977
 51
359.99999999999966
  0
LINE
  8
_0-0_計極細
  6
CENTER1
 62
    2
 10
872.29689303288978
 20
1162.7361721192228
 11
872.29689303288978
 21
1107.4660542829795
  0
LINE
  8
_0-1_計細線
  6
CONTINUOUS
 62
    3
 10
866.2968932571049
 20
1151.0947982538348
 11
878.2968929509434
 21
1151.0947982538348
  0
LINE
  8
_0-1_計細線
  6
CONTINUOUS
 62
    3
 10
1336.2968932571048
 20
1151.0947982538348
 11
1334.2968932571048
 21
1149.0947982538348
  0
LINE
  8
_0-1_計細線
  6
CONTINUOUS
 62
    3
 10
1334.2968932571048
 20
1139.0947982538348
 11
1334.2968932571048
 21
1149.0947982538348
  0
LINE
  8
_0-1_計細線
  6
CONTINUOUS
 62
    3
 10
1350.2968929509436
 20
1149.0947982538348
 11
1348.2968929509434
 21
1151.0947982538348
  0
LINE
  8
_0-1_計細線
  6
CONTINUOUS
 62
    3
 10
1350.2968929509436
 20
1139.0947982538348
 11
1350.2968929509436
 21
1149.0947982538348
  0
LINE
  8
_0-1_計細線
  6
CONTINUOUS
 62
    3
 10
1336.2968932571048
 20
1135.0947982538351
 11
1334.2968932571048
 21
1133.0947982538348
  0
LINE
  8
_0-1_計細線
  6
CONTINUOUS
 62
    3
 10
1336.2968932571048
 20
1137.0947982538348
 11
1336.2968932571048
 21
1135.0947982538351
  0
LINE
  8
_0-1_計細線
  6
CONTINUOUS
 62
    3
 10
1334.2968932571048
 20
1139.0947982538348
 11
1336.2968932571048
 21
1137.0947982538348
  0
LINE
  8
_0-1_計細線
  6
CONTINUOUS
 62
    3
 10
1348.2968929509434
 20
1135.0947982538351
 11
1350.2968929509436
 21
1133.0947982538348
  0
LINE
  8
_0-1_計細線
  6
CONTINUOUS
 62
    3
 10
1348.2968929509434
 20
1137.0947982538348
 11
1348.2968929509434
 21
1135.0947982538351
  0
LINE
  8
_0-1_計細線
  6
CONTINUOUS
 62
    3
 10
1350.2968929509436
 20
1139.0947982538348
 11
1348.2968929509434
 21
1137.0947982538348
  0
LINE
  8
_0-1_計細線
  6
CONTINUOUS
 62
    3
 10
1334.2968932571048
 20
1133.0947982538348
 11
1334.2968932571048
 21
1119.0947982538348
  0
ARC
  8
_0-1_計細線
  6
CONTINUOUS
 62
    3
 10
1337.296893257105
 20
1119.0947982538348
 40
3.0000000000000004
 50
179.99999999999983
 51
269.99999999999977
  0
LINE
  8
_0-1_計細線
  6
CONTINUOUS
 62
    3
 10
1337.296893257105
 20
1116.0947982538348
 11
1347.2968929509434
 21
1116.0947982538348
  0
LINE
  8
_0-1_計細線
  6
CONTINUOUS
 62
    3
 10
1350.2968929509436
 20
1133.0947982538348
 11
1350.2968929509436
 21
1119.0947982538348
  0
ARC
  8
_0-1_計細線
  6
CONTINUOUS
 62
    3
 10
1347.2968929509434
 20
1119.0947982538348
 40
3.0000000000000004
 50
269.99999999999977
 51
359.99999999999966
  0
LINE
  8
_0-0_計極細
  6
CENTER1
 62
    2
 10
1342.2968930328898
 20
1162.7361721192228
 11
1342.2968930328898
 21
1107.4660542829795
  0
LINE
  8
_0-1_計細線
  6
CONTINUOUS
 62
    3
 10
1336.2968932571048
 20
1151.0947982538348
 11
1348.2968929509434
 21
1151.0947982538348
  0
LINE
  8
_0-1_計細線
  6
CONTINUOUS
 62
    3
 10
1806.2968932571059
 20
1151.0947982538348
 11
1804.2968932571057
 21
1149.0947982538348
  0
LINE
  8
_0-1_計細線
  6
CONTINUOUS
 62
    3
 10
1804.2968932571057
 20
1139.0947982538348
 11
1804.2968932571057
 21
1149.0947982538348
  0
LINE
  8
_0-1_計細線
  6
CONTINUOUS
 62
    3
 10
1820.2968929509443
 20
1149.0947982538348
 11
1818.2968929509445
 21
1151.0947982538348
  0
LINE
  8
_0-1_計細線
  6
CONTINUOUS
 62
    3
 10
1820.2968929509443
 20
1139.0947982538348
 11
1820.2968929509443
 21
1149.0947982538348
  0
LINE
  8
_0-1_計細線
  6
CONTINUOUS
 62
    3
 10
1806.2968932571059
 20
1135.0947982538351
 11
1804.2968932571057
 21
1133.0947982538348
  0
LINE
  8
_0-1_計細線
  6
CONTINUOUS
 62
    3
 10
1806.2968932571059
 20
1137.0947982538348
 11
1806.2968932571059
 21
1135.0947982538351
  0
LINE
  8
_0-1_計細線
  6
CONTINUOUS
 62
    3
 10
1804.2968932571057
 20
1139.0947982538348
 11
1806.2968932571059
 21
1137.0947982538348
  0
LINE
  8
_0-1_計細線
  6
CONTINUOUS
 62
    3
 10
1818.2968929509445
 20
1135.0947982538351
 11
1820.2968929509443
 21
1133.0947982538348
  0
LINE
  8
_0-1_計細線
  6
CONTINUOUS
 62
    3
 10
1818.2968929509445
 20
1137.0947982538348
 11
1818.2968929509445
 21
1135.0947982538351
  0
LINE
  8
_0-1_計細線
  6
CONTINUOUS
 62
    3
 10
1820.2968929509443
 20
1139.0947982538348
 11
1818.2968929509445
 21
1137.0947982538348
  0
LINE
  8
_0-1_計細線
  6
CONTINUOUS
 62
    3
 10
1804.2968932571057
 20
1133.0947982538348
 11
1804.2968932571057
 21
1119.0947982538348
  0
ARC
  8
_0-1_計細線
  6
CONTINUOUS
 62
    3
 10
1807.2968932571057
 20
1119.0947982538348
 40
3.0000000000000004
 50
179.99999999999983
 51
269.99999999999977
  0
LINE
  8
_0-1_計細線
  6
CONTINUOUS
 62
    3
 10
1807.2968932571057
 20
1116.0947982538348
 11
1817.2968929509443
 21
1116.0947982538348
  0
LINE
  8
_0-1_計細線
  6
CONTINUOUS
 62
    3
 10
1820.2968929509443
 20
1133.0947982538348
 11
1820.2968929509443
 21
1119.0947982538348
  0
ARC
  8
_0-1_計細線
  6
CONTINUOUS
 62
    3
 10
1817.2968929509443
 20
1119.0947982538348
 40
3.0000000000000004
 50
269.99999999999977
 51
359.99999999999966
  0
LINE
  8
_0-0_計極細
  6
CENTER1
 62
    2
 10
1812.2968930328898
 20
1162.7361721192228
 11
1812.2968930328898
 21
1107.4660542829795
  0
LINE
  8
_0-1_計細線
  6
CONTINUOUS
 62
    3
 10
1806.2968932571059
 20
1151.0947982538348
 11
1818.2968929509445
 21
1151.0947982538348
  0
LINE
  8
_0-1_計細線
  6
CONTINUOUS
 62
    3
 10
352.29689303288978
 20
1162.0947982538348
 11
352.29689303288978
 21
1139.0947982538348
  0
LINE
  8
_0-1_計細線
  6
CONTINUOUS
 62
    3
 10
2332.2968930328898
 20
1139.0947982538348
 11
2332.2968930328898
 21
1162.0947982538348
  0
LINE
  8
_0-1_計細線
  6
CONTINUOUS
 62
    3
 10
2332.2968930328898
 20
1162.0947982538348
 11
352.29689303288978
 21
1162.0947982538348
  0
LINE
  8
_0-1_計細線
  6
CONTINUOUS
 62
    3
 10
352.29689303288978
 20
1139.0947982538348
 11
394.29689325710484
 21
1139.0947982538348
  0
LINE
  8
_0-1_計細線
  6
CONTINUOUS
 62
    3
 10
2290.2968929509443
 20
1139.0947982538348
 11
2332.2968930328898
 21
1139.0947982538348
  0
LINE
  8
_0-1_計細線
  6
CONTINUOUS
 62
    3
 10
410.2968929509434
 20
1139.0947982538348
 11
864.29689325710478
 21
1139.0947982538348
  0
LINE
  8
_0-1_計細線
  6
CONTINUOUS
 62
    3
 10
880.2968929509434
 20
1139.0947982538348
 11
1334.2968932571048
 21
1139.0947982538348
  0
LINE
  8
_0-1_計細線
  6
CONTINUOUS
 62
    3
 10
1350.2968929509436
 20
1139.0947982538348
 11
1804.2968932571057
 21
1139.0947982538348
  0
LINE
  8
_0-1_計細線
  6
CONTINUOUS
 62
    3
 10
1820.2968929509443
 20
1139.0947982538348
 11
2274.2968932571057
 21
1139.0947982538348
  0
LINE
  8
_0-5_寸法線
  6
CONTINUOUS
 62
    7
 10
402.29689303288978
 20
1116.0947982538348
 11
412.82259110531641
 21
1099.0886323106213
  0
LINE
  8
_0-5_寸法線
  6
CONTINUOUS
 62
    7
 10
402.29689303288978
 20
1116.0947982538348
 11
402.90933198456941
 21
1096.1041774898249
  0
LINE
  8
_0-5_寸法線
  6
CONTINUOUS
 62
    7
 10
402.29689303288978
 20
1116.0947982538348
 11
419.98405921459209
 21
1057.3445500513378
  0
LINE
  8
_0-5_寸法線
  6
CONTINUOUS
 62
    7
 10
419.98405921459209
 20
1057.3445500513378
 11
515.98405921459198
 21
1057.3445500513378
  0
TEXT
  8
_0-5_寸法線
 62
    7
 10
419.98405921459209
 20
1057.3445500513378
 40
30
 41
0.7999999999999998
 50
0
  1
アンカー
  0
LINE
  8
_0-7_枠細線
  6
CONTINUOUS
 62
    5
 10
451.96598423251629
 20
1091.7729591144116
 11
436.96598423251629
 21
1121.7729591144116
  0
LINE
  8
_0-7_枠細線
  6
CONTINUOUS
 62
    5
 10
421.96598423251629
 20
1091.7729591144116
 11
451.96598423251629
 21
1091.7729591144116
  0
LINE
  8
_0-7_枠細線
  6
CONTINUOUS
 62
    5
 10
436.96598423251629
 20
1121.7729591144116
 11
421.96598423251629
 21
1091.7729591144116
  0
TEXT
  8
_0-7_枠細線
 62
    5
 10
426.696286768812
 20
1091.1589546236505
 40
25
 41
0.8
 50
0
  1
１
  0
LINE
  8
_0-5_寸法線
  6
CONTINUOUS
 62
    7
 10
2352.2968930328898
 20
1139.0947982538348
 11
2442.2968930328898
 21
1139.0947982538344
  0
LINE
  8
_0-5_寸法線
  6
CONTINUOUS
 62
    7
 10
2432.2968930328898
 20
1139.0947982538344
 11
2437.4732739349402
 21
1119.7762817280529
  0
LINE
  8
_0-5_寸法線
  6
CONTINUOUS
 62
    7
 10
2432.2968930328898
 20
1139.0947982538344
 11
2427.1205121308394
 21
1119.7762817280529
  0
LINE
  8
_0-5_寸法線
  6
CONTINUOUS
 62
    7
 10
2352.2968930328898
 20
1162.0947982538348
 11
2442.2968930328898
 21
1162.0947982538344
  0
LINE
  8
_0-5_寸法線
  6
CONTINUOUS
 62
    7
 10
2432.2968930328898
 20
1162.0947982538344
 11
2427.1205121308394
 21
1181.4133147796158
  0
LINE
  8
_0-5_寸法線
  6
CONTINUOUS
 62
    7
 10
2432.2968930328898
 20
1162.0947982538344
 11
2437.4732739349402
 21
1181.4133147796158
  0
LINE
  8
_0-5_寸法線
  6
CONTINUOUS
 62
    7
 10
2432.2968930328898
 20
1089.0947982538344
 11
2432.2968930328898
 21
1212.0947982538344
  0
TEXT
  8
_0-5_寸法線
 62
    7
 10
2432.2968930328907
 20
1095.7464814603741
 40
30
 41
1
 50
90
  1
23
  0
LINE
  8
_0-5_寸法線
  6
CONTINUOUS
 62
    7
 10
352.29689303288978
 20
1182.0947982538348
 11
352.29689303288978
 21
1272.0947982538348
  0
LINE
  8
_0-5_寸法線
  6
CONTINUOUS
 62
    7
 10
352.29689303288978
 20
1262.0947982538348
 11
371.6154095586711
 21
1267.2711791558852
  0
LINE
  8
_0-5_寸法線
  6
CONTINUOUS
 62
    7
 10
352.29689303288978
 20
1262.0947982538348
 11
371.6154095586711
 21
1256.9184173517847
  0
LINE
  8
_0-5_寸法線
  6
CONTINUOUS
 62
    7
 10
402.29689303288978
 20
1182.0947982538348
 11
402.29689303288978
 21
1272.0947982538348
  0
LINE
  8
_0-5_寸法線
  6
CONTINUOUS
 62
    7
 10
402.29689303288978
 20
1262.0947982538348
 11
382.97837650710846
 21
1256.9184173517847
  0
LINE
  8
_0-5_寸法線
  6
CONTINUOUS
 62
    7
 10
402.29689303288978
 20
1262.0947982538348
 11
382.97837650710846
 21
1267.2711791558852
  0
LINE
  8
_0-5_寸法線
  6
CONTINUOUS
 62
    7
 10
352.29689303288978
 20
1262.0947982538348
 11
402.29689303288978
 21
1262.0947982538348
  0
TEXT
  8
_0-5_寸法線
 62
    7
 10
362.29689303288978
 20
1262.0947982538348
 40
30
 41
1
 50
0
  1
50
  0
LINE
  8
_0-5_寸法線
  6
CONTINUOUS
 62
    7
 10
402.29689303288978
 20
1262.0947982538348
 11
421.6154095586711
 21
1267.2711791558852
  0
LINE
  8
_0-5_寸法線
  6
CONTINUOUS
 62
    7
 10
402.29689303288978
 20
1262.0947982538348
 11
421.6154095586711
 21
1256.9184173517842
  0
LINE
  8
_0-5_寸法線
  6
CONTINUOUS
 62
    7
 10
872.29689303288978
 20
1182.0947982538348
 11
872.29689303288978
 21
1272.0947982538348
  0
LINE
  8
_0-5_寸法線
  6
CONTINUOUS
 62
    7
 10
872.29689303288978
 20
1262.0947982538348
 11
852.97837650710846
 21
1256.9184173517847
  0
LINE
  8
_0-5_寸法線
  6
CONTINUOUS
 62
    7
 10
872.29689303288978
 20
1262.0947982538348
 11
852.97837650710846
 21
1267.2711791558852
  0
LINE
  8
_0-5_寸法線
  6
CONTINUOUS
 62
    7
 10
402.29689303288978
 20
1262.0947982538348
 11
872.29689303288978
 21
1262.0947982538348
  0
TEXT
  8
_0-5_寸法線
 62
    7
 10
614.79689303288978
 20
1262.0947982538348
 40
30
 41
1
 50
0
  1
470
  0
LINE
  8
_0-5_寸法線
  6
CONTINUOUS
 62
    7
 10
872.29689303288978
 20
1262.0947982538348
 11
891.61540955867122
 21
1267.2711791558852
  0
LINE
  8
_0-5_寸法線
  6
CONTINUOUS
 62
    7
 10
872.29689303288978
 20
1262.0947982538348
 11
891.6154095586711
 21
1256.9184173517842
  0
LINE
  8
_0-5_寸法線
  6
CONTINUOUS
 62
    7
 10
1342.2968930328898
 20
1182.0947982538348
 11
1342.2968930328898
 21
1272.0947982538348
  0
LINE
  8
_0-5_寸法線
  6
CONTINUOUS
 62
    7
 10
1342.2968930328898
 20
1262.0947982538348
 11
1322.9783765071084
 21
1256.9184173517847
  0
LINE
  8
_0-5_寸法線
  6
CONTINUOUS
 62
    7
 10
1342.2968930328898
 20
1262.0947982538348
 11
1322.9783765071084
 21
1267.2711791558852
  0
LINE
  8
_0-5_寸法線
  6
CONTINUOUS
 62
    7
 10
872.29689303288978
 20
1262.0947982538348
 11
1342.2968930328898
 21
1262.0947982538348
  0
TEXT
  8
_0-5_寸法線
 62
    7
 10
1084.7968930328889
 20
1262.0947982538341
 40
30
 41
1
 50
0
  1
470
  0
LINE
  8
_0-5_寸法線
  6
CONTINUOUS
 62
    7
 10
1342.2968930328898
 20
1262.0947982538348
 11
1361.6154095586714
 21
1267.2711791558852
  0
LINE
  8
_0-5_寸法線
  6
CONTINUOUS
 62
    7
 10
1342.2968930328898
 20
1262.0947982538348
 11
1361.6154095586714
 21
1256.9184173517842
  0
LINE
  8
_0-5_寸法線
  6
CONTINUOUS
 62
    7
 10
1812.2968930328898
 20
1182.0947982538348
 11
1812.2968930328898
 21
1272.0947982538348
  0
LINE
  8
_0-5_寸法線
  6
CONTINUOUS
 62
    7
 10
1812.2968930328898
 20
1262.0947982538348
 11
1792.9783765071084
 21
1256.9184173517847
  0
LINE
  8
_0-5_寸法線
  6
CONTINUOUS
 62
    7
 10
1812.2968930328898
 20
1262.0947982538348
 11
1792.9783765071084
 21
1267.2711791558852
  0
LINE
  8
_0-5_寸法線
  6
CONTINUOUS
 62
    7
 10
1342.2968930328898
 20
1262.0947982538348
 11
1812.2968930328898
 21
1262.0947982538348
  0
TEXT
  8
_0-5_寸法線
 62
    7
 10
1554.7968930328898
 20
1262.0947982538341
 40
30
 41
1
 50
0
  1
470
  0
LINE
  8
_0-5_寸法線
  6
CONTINUOUS
 62
    7
 10
1812.2968930328898
 20
1262.0947982538348
 11
1831.6154095586714
 21
1267.2711791558852
  0
LINE
  8
_0-5_寸法線
  6
CONTINUOUS
 62
    7
 10
1812.2968930328898
 20
1262.0947982538348
 11
1831.6154095586714
 21
1256.9184173517842
  0
LINE
  8
_0-5_寸法線
  6
CONTINUOUS
 62
    7
 10
2282.2968930328898
 20
1182.0947982538348
 11
2282.2968930328898
 21
1272.0947982538348
  0
LINE
  8
_0-5_寸法線
  6
CONTINUOUS
 62
    7
 10
2282.2968930328898
 20
1262.0947982538348
 11
2262.9783765071084
 21
1256.9184173517847
  0
LINE
  8
_0-5_寸法線
  6
CONTINUOUS
 62
    7
 10
2282.2968930328898
 20
1262.0947982538348
 11
2262.9783765071084
 21
1267.2711791558852
  0
LINE
  8
_0-5_寸法線
  6
CONTINUOUS
 62
    7
 10
1812.2968930328898
 20
1262.0947982538348
 11
2282.2968930328898
 21
1262.0947982538348
  0
TEXT
  8
_0-5_寸法線
 62
    7
 10
2024.7968930328898
 20
1262.0947982538341
 40
30
 41
1
 50
0
  1
470
  0
LINE
  8
_0-5_寸法線
  6
CONTINUOUS
 62
    7
 10
2282.2968930328898
 20
1262.0947982538348
 11
2301.6154095586712
 21
1267.2711791558852
  0
LINE
  8
_0-5_寸法線
  6
CONTINUOUS
 62
    7
 10
2282.2968930328898
 20
1262.0947982538348
 11
2301.6154095586712
 21
1256.9184173517842
  0
LINE
  8
_0-5_寸法線
  6
CONTINUOUS
 62
    7
 10
2332.2968930328898
 20
1182.0947982538348
 11
2332.2968930328898
 21
1272.0947982538348
  0
LINE
  8
_0-5_寸法線
  6
CONTINUOUS
 62
    7
 10
2332.2968930328898
 20
1262.0947982538348
 11
2312.9783765071084
 21
1256.9184173517847
  0
LINE
  8
_0-5_寸法線
  6
CONTINUOUS
 62
    7
 10
2332.2968930328898
 20
1262.0947982538348
 11
2312.9783765071084
 21
1267.2711791558852
  0
LINE
  8
_0-5_寸法線
  6
CONTINUOUS
 62
    7
 10
2282.2968930328898
 20
1262.0947982538348
 11
2332.2968930328898
 21
1262.0947982538348
  0
TEXT
  8
_0-5_寸法線
 62
    7
 10
2292.2968930328898
 20
1262.0947982538348
 40
30
 41
1
 50
0
  1
50
  0
ENDSEC
  0
EOF
