  0
SECTION
  2
HEADER
  9
$ACADVER
  1
AC1009
  9
$INSBASE
 10
0
 20
0
 30
0
  9
$EXTMIN
 10
0
 20
0
  9
$EXTMAX
 10
2970
 20
2100
  9
$LIMMIN
 10
0
 20
0
  9
$LIMMAX
 10
2970
 20
2100
  9
$LTSCALE
 40
10
  0
ENDSEC
  0
SECTION
  2
TABLES
  0
TABLE
  2
LTYPE
 70
     9
  0
LTYPE
  2
CONTINUOUS
 70
    64
  3
実線
 72
    65
 73
     0
 40
0.0
  0
LTYPE
  2
DASHED1
 70
    64
  3
--  --  --  --  --  --  --  --  
 72
    65
 73
     2
 40
2.5
 49
1.25
 49
-1.25
  0
LTYPE
  2
DASHED2
 70
    64
  3
----    ----    ----    ----    
 72
    65
 73
     2
 40
5.0
 49
2.5
 49
-2.5
  0
LTYPE
  2
DASHED3
 70
    64
  3
------  ------  ------  ------  
 72
    65
 73
     2
 40
5.0
 49
3.75
 49
-1.25
  0
LTYPE
  2
CENTER1
 70
    64
  3
----- - ----- - ----- - ----- - 
 72
    65
 73
     4
 40
10.0
 49
6.25
 49
-1.25
 49
1.25
 49
-1.25
  0
LTYPE
  2
CENTER2
 70
    64
  3
----------  --  ----------  --  
 72
    65
 73
     4
 40
20.0
 49
12.5
 49
-2.5
 49
2.5
 49
-2.5
  0
LTYPE
  2
PHANTOM1
 70
    64
  3
--- - - --- - - --- - - --- - - 
 72
    65
 73
     6
 40
10.0
 49
3.25
 49
-1.25
 49
1.25
 49
-1.25
 49
1.25
 49
-1.25
  0
LTYPE
  2
PHANTOM2
 70
    64
  3
--------  -  -  --------  -  -  
 72
    65
 73
     6
 40
20.0
 49
10.0
 49
-2.5
 49
1.25
 49
-2.5
 49
1.25
 49
-2.5
  0
LTYPE
  2
DOT
 70
    64
  3
-   -   -   -   -   -   -   -   
 72
    65
 73
     2
 40
2.5
 49
0.625
 49
-1.875
  0
LTYPE
  2
DUMMY
 70
    64
  3
ダミー
 72
    65
 73
     0
 40
0.0
  0
LTYPE
  2
RAND1
 70
    64
  3
ランダム線1
 72
    65
 73
     4
 40
10.0
 49
1.0
 49
-2.0
 49
3.0
 49
-4.0
  0
LTYPE
  2
RAND2
 70
    64
  3
ランダム線2
 72
    65
 73
     4
 40
14.0
 49
2.0
 49
-3.0
 49
4.0
 49
-5.0
  0
LTYPE
  2
RAND3
 70
    64
  3
ランダム線3
 72
    65
 73
     4
 40
18.0
 49
3.0
 49
-4.0
 49
5.0
 49
-6.0
  0
LTYPE
  2
RAND4
 70
    64
  3
ランダム線4
 72
    65
 73
     4
 40
22.0
 49
4.0
 49
-5.0
 49
6.0
 49
-7.0
  0
LTYPE
  2
RAND5
 70
    64
  3
ランダム線5
 72
    65
 73
     4
 40
26.0
 49
5.0
 49
-6.0
 49
7.0
 49
-8.0
  0
LTYPE
  2
LONG1
 70
    64
  3
----------  --  ----------  --  
 72
    65
 73
     4
 40
40.0
 49
32.5
 49
-2.5
 49
2.5
 49
-2.5
  0
LTYPE
  2
LONG2
 70
    64
  3
--------  -  -  --------  -  -  
 72
    65
 73
     6
 40
40.0
 49
30.0
 49
-2.5
 49
1.25
 49
-2.5
 49
1.25
 49
-2.5
  0
LTYPE
  2
LONG3
 70
    64
  3
+++++++++++++++..+++++++++++++++
 72
    65
 73
     2
 40
40.0
 49
37.5
 49
-2.5
  0
LTYPE
  2
LONG4
 70
    64
  3
+++++++++++++++..+++++++++++++++
 72
    65
 73
     2
 40
80.0
 49
75.0
 49
-5.0
  0
LTYPE
  2
LONG5
 70
    64
  3
----------  --  ----------  --  
 72
    65
 73
     4
 40
60.0
 49
37.5
 49
-7.5
 49
7.5
 49
-7.5
  0
LTYPE
  2
dashed
 70
   64
  3
-------   -------------   ------
 72
   65
 73
    2
 40
7.5
 49
6
 49
-1.5
  0
LTYPE
  2
dashed_spaced
 70
   64
  3
----        --------        ----
 72
   65
 73
    2
 40
12
 49
6
 49
-6
  0
LTYPE
  2
long_dashed_dotted
 70
   64
  3
------------- --- --------------
 72
   65
 73
    4
 40
15.25
 49
12
 49
-1.5
 49
0.25
 49
-1.5
  0
LTYPE
  2
long_dashed_double-dotted
 70
   64
  3
----------- --- --- ------------
 72
   65
 73
    6
 40
17
 49
12
 49
-1.5
 49
0.25
 49
-1.5
 49
0.25
 49
-1.5
  0
LTYPE
  2
long_dashed_triplicate-dotted
 70
   64
  3
--------- --- --- --- ----------
 72
   65
 73
    8
 40
18.75
 49
12
 49
-1.5
 49
0.25
 49
-1.5
 49
0.25
 49
-1.5
 49
0.25
 49
-1.5
  0
LTYPE
  2
dotted
 70
   64
  3
   -       -       -       -    
 72
   65
 73
    2
 40
1.75
 49
0.25
 49
-1.5
  0
LTYPE
  2
chain
 70
   64
  3
-------------- -- --------------
 72
   65
 73
    4
 40
18.5
 49
12
 49
-1.5
 49
3.5
 49
-1.5
  0
LTYPE
  2
chain_double_dash
 70
   64
  3
------------ -- -- -------------
 72
   65
 73
    6
 40
23.5
 49
12
 49
-1.5
 49
3.5
 49
-1.5
 49
3.5
 49
-1.5
  0
LTYPE
  2
dashed_dotted
 70
   64
  3
-----------     -     ----------
 72
   65
 73
    4
 40
9.25
 49
6
 49
-1.5
 49
0.25
 49
-1.5
  0
LTYPE
  2
double-dashed_dotted
 70
   64
  3
------   -----------   -   -----
 72
   65
 73
    6
 40
16.75
 49
6
 49
-1.5
 49
6
 49
-1.5
 49
0.25
 49
-1.5
  0
LTYPE
  2
dashed_double-dotted
 70
   64
  3
---------    -    -    ---------
 72
   65
 73
    6
 40
11
 49
6
 49
-1.5
 49
0.25
 49
-1.5
 49
0.25
 49
-1.5
  0
LTYPE
  2
double-dashed_double-dotted
 70
   64
  3
-----   ---------   -   -   ----
 72
   65
 73
    8
 40
18.5
 49
6
 49
-1.5
 49
6
 49
-1.5
 49
0.25
 49
-1.5
 49
0.25
 49
-1.5
  0
LTYPE
  2
dashed_triplicate-dotted
 70
   64
  3
-------    -    -    -    ------
 72
   65
 73
    8
 40
12.75
 49
6
 49
-1.5
 49
0.25
 49
-1.5
 49
0.25
 49
-1.5
 49
0.25
 49
-1.5
  0
LTYPE
  2
double-dashed_triplicate-dotted
 70
   64
  3
-----  ---------  -  -  -  -----
 72
   65
 73
   10
 40
20.25
 49
6
 49
-1.5
 49
6
 49
-1.5
 49
0.25
 49
-1.5
 49
0.25
 49
-1.5
 49
0.25
 49
-1.5
  0
LTYPE
  2
undefined
 70
   64
  3
--------------------------------
 72
   65
 73
    0
 40
0
  0
ENDTAB
  0
TABLE
  2
STYLE
  5
3
100
AcDbSymbolTable
 70
     1
  0
STYLE
  5
10
100
AcDbSymbolTableRecord
100
AcDbTextStyleTableRecord
  2
STANDARD
 70
     0
 40
0.0
 41
1.0
 50
0.0
 71
     0
 42
0.2
  3
txt
  4
bigfont.shx
  0
STYLE
  5
26
100
AcDbSymbolTableRecord
100
AcDbTextStyleTableRecord
  2
TATEGAKI
 70
    68
 40
0.0
 41
1.0
 50
0.0
 71
     0
 42
1.0
  3
txt
  4
bigfont.shx
  0
ENDTAB
  0
TABLE
  2
LAYER
 70
    9
  0
LAYER
  2
_0-0_計極細
 70
   64
 62
    7
  6
CONTINUOUS
  0
LAYER
  2
_0-1_計細線
 70
   64
 62
    7
  6
CONTINUOUS
  0
LAYER
  2
_0-5_寸法線
 70
   64
 62
    7
  6
CONTINUOUS
  0
LAYER
  2
_0-7_枠細線
 70
   64
 62
    7
  6
CONTINUOUS
  0
LAYER
  2
_0-8_枠中線
 70
   64
 62
    7
  6
CONTINUOUS
  0
LAYER
  2
_1-2_極細2
 70
   64
 62
    7
  6
CONTINUOUS
  0
LAYER
  2
_1-3_細線2
 70
   64
 62
    7
  6
CONTINUOUS
  0
LAYER
  2
_1-5_寸法2
 70
   64
 62
    7
  6
CONTINUOUS
  0
LAYER
  2
ADD_LINE
 70
   64
 62
    7
  6
CONTINUOUS
  0
ENDTAB
  0
ENDSEC
  0
SECTION
  2
BLOCKS
  0
ENDSEC
  0
SECTION
  2
ENTITIES
  0
LINE
  8
_0-8_枠中線
  6
CONTINUOUS
 62
    5
 10
120
 20
120
 11
120
 21
1920
  0
LINE
  8
_0-8_枠中線
  6
CONTINUOUS
 62
    5
 10
120
 20
1920
 11
2850
 21
1920
  0
LINE
  8
_0-8_枠中線
  6
CONTINUOUS
 62
    5
 10
2850
 20
1920
 11
2850
 21
120
  0
LINE
  8
_0-8_枠中線
  6
CONTINUOUS
 62
    5
 10
2850
 20
120
 11
120
 21
120
  0
LINE
  8
_0-7_枠細線
  6
CONTINUOUS
 62
    5
 10
2370
 20
360
 11
2370
 21
200
  0
TEXT
  8
_0-7_枠細線
 62
    5
 10
1875
 20
195
 40
35
 41
1
 50
0
  1
備考
  7
TATEGAKI
  0
TEXT
  8
_0-7_枠細線
 62
    5
 10
1875
 20
275
 40
35
 41
1
 50
0
  1
品番
  7
TATEGAKI
  0
TEXT
  8
_0-7_枠細線
 62
    5
 10
1875
 20
355
 40
35
 41
1
 50
0
  1
品名
  7
TATEGAKI
  0
LINE
  8
_0-7_枠細線
  6
CONTINUOUS
 62
    5
 10
2370
 20
280
 11
1850
 21
280
  0
LINE
  8
_0-7_枠細線
  6
CONTINUOUS
 62
    5
 10
1900
 20
360
 11
1900
 21
120
  0
LINE
  8
_0-8_枠中線
  6
CONTINUOUS
 62
    5
 10
2850
 20
360
 11
1850
 21
360
  0
LINE
  8
_0-8_枠中線
  6
CONTINUOUS
 62
    5
 10
1850
 20
360
 11
1850
 21
120
  0
LINE
  8
_0-7_枠細線
  6
CONTINUOUS
 62
    5
 10
2490
 20
360
 11
2490
 21
120
  0
TEXT
  8
_0-7_枠細線
 62
    5
 10
2385
 20
320
 40
30
 41
1
 50
0
  1
縮　尺
  0
LINE
  8
_0-7_枠細線
  6
CONTINUOUS
 62
    5
 10
2370
 20
310
 11
2490
 21
310
  0
LINE
  8
_0-7_枠細線
  6
CONTINUOUS
 62
    5
 10
2490
 20
200
 11
1850
 21
200
  0
LINE
  8
_0-7_枠細線
  6
CONTINUOUS
 62
    5
 10
2850
 20
180
 11
2490
 21
180
  0
LINE
  8
_0-7_枠細線
  6
CONTINUOUS
 62
    5
 10
2490
 20
240
 11
2850
 21
240
  0
LINE
  8
_0-7_枠細線
  6
CONTINUOUS
 62
    5
 10
2850
 20
280
 11
2490
 21
280
  0
TEXT
  8
_0-7_枠細線
 62
    5
 10
2510
 20
295
 40
50
 41
0.8
 50
0
  1
株式会社シマブン
  0
TEXT
  8
_0-7_枠細線
 62
    5
 10
2505
 20
120
 40
30
 41
1
 50
0
  1
年月日
  0
TEXT
  8
_0-7_枠細線
 62
    5
 10
2505
 20
150
 40
30
 41
1
 50
0
  1
作　成
  0
TEXT
  8
_0-7_枠細線
 62
    5
 10
2512.5
 20
245
 40
30
 41
1
 50
0
  1
承 認
  0
LINE
  8
_0-7_枠細線
  6
CONTINUOUS
 62
    5
 10
2610
 20
280
 11
2610
 21
120
  0
TEXT
  8
_0-7_枠細線
 62
    5
 10
2632.5
 20
245
 40
30
 41
1
 50
0
  1
検 図
  0
LINE
  8
_0-7_枠細線
  6
CONTINUOUS
 62
    5
 10
2730
 20
280
 11
2730
 21
180
  0
TEXT
  8
_0-7_枠細線
 62
    5
 10
2752.5
 20
245
 40
30
 41
1
 50
0
  1
設 計
  0
TEXT
  8
_0-7_枠細線
 62
    5
 10
2750
 20
190
 40
40
 41
1
 50
0
  1
藤戸
  0
TEXT
  8
_0-7_枠細線
 62
    5
 10
2510
 20
190
 40
40
 41
1
 50
0
  1
大野
  0
TEXT
  8
_0-7_枠細線
 62
    5
 10
2630
 20
190
 40
40
 41
1
 50
0
  1
深川
  0
TEXT
  8
_0-7_枠細線
 62
    5
 10
2620
 20
135
 40
30
 41
0.6666666666666666
 50
0
  1
２０１５年０４月０１日
  0
LINE
  8
_1-5_寸法2
  6
CONTINUOUS
 62
    7
 10
516.74934725848584
 20
610.02693558975238
 11
516.74934725848584
 21
692.52693629376847
  0
LINE
  8
_1-5_寸法2
  6
CONTINUOUS
 62
    7
 10
516.74934725848584
 20
672.52693629376847
 11
497.43083073270441
 21
667.3505553917181
  0
LINE
  8
_1-5_寸法2
  6
CONTINUOUS
 62
    7
 10
516.74934725848584
 20
672.52693629376847
 11
497.43083073270452
 21
677.70331719581907
  0
LINE
  8
_1-5_寸法2
  6
CONTINUOUS
 62
    7
 10
544.24934725848584
 20
610.02693558975238
 11
544.24934725848584
 21
692.52693629376847
  0
LINE
  8
_1-5_寸法2
  6
CONTINUOUS
 62
    7
 10
469.47505309836288
 20
672.52693629376847
 11
544.24934725848584
 21
672.52693629376847
  0
TEXT
  8
_1-5_寸法2
 62
    7
 10
469.47505309836288
 20
672.52693629376847
 40
30
 41
1
 50
0
  1
5.5
  0
LINE
  8
_1-5_寸法2
  6
CONTINUOUS
 62
    7
 10
544.24934725848584
 20
672.52693629376847
 11
563.56786378426727
 21
677.70331719581873
  0
LINE
  8
_1-5_寸法2
  6
CONTINUOUS
 62
    7
 10
544.24934725848584
 20
672.52693629376847
 11
563.56786378426716
 21
667.35055539171799
  0
LINE
  8
_1-5_寸法2
  6
CONTINUOUS
 62
    7
 10
594.24934725848584
 20
610.02693558975238
 11
594.24934725848584
 21
692.52693629376847
  0
LINE
  8
_1-5_寸法2
  6
CONTINUOUS
 62
    7
 10
594.24934725848584
 20
672.52693629376847
 11
574.93083073270441
 21
667.3505553917181
  0
LINE
  8
_1-5_寸法2
  6
CONTINUOUS
 62
    7
 10
594.24934725848584
 20
672.52693629376847
 11
574.93083073270452
 21
677.70331719581907
  0
LINE
  8
_1-5_寸法2
  6
CONTINUOUS
 62
    7
 10
544.24934725848584
 20
672.52693629376847
 11
594.24934725848584
 21
672.52693629376847
  0
TEXT
  8
_1-5_寸法2
 62
    7
 10
554.24934725848584
 20
672.52693629376847
 40
30
 41
1
 50
0
  1
10
  0
LINE
  8
_1-2_極細2
  6
CONTINUOUS
 62
    2
 10
878.24934776873147
 20
559.02693558975193
 11
881.74934776873124
 21
559.02693558975193
  0
LINE
  8
_1-3_細線2
  6
CONTINUOUS
 62
    4
 10
665.74934725848448
 20
582.02693558975204
 11
627.74934725848721
 21
582.02693558975204
  0
LINE
  8
_1-3_細線2
  6
CONTINUOUS
 62
    4
 10
627.74934725848721
 20
582.02693558975204
 11
627.74934725848721
 21
508.02693558975261
  0
LINE
  8
_1-3_細線2
  6
CONTINUOUS
 62
    4
 10
550.24934725848493
 20
582.02693558975204
 11
588.24934725848561
 21
582.02693558975204
  0
LINE
  8
_1-3_細線2
  6
CONTINUOUS
 62
    4
 10
588.24934725848561
 20
582.02693558975204
 11
588.24934725848561
 21
508.02693558975261
  0
ARC
  8
_1-3_細線2
  6
CONTINUOUS
 62
    4
 10
665.74934725848595
 20
582.02693558975238
 40
5.9999999999999982
 50
0
 51
89.999999999999915
  0
LINE
  8
_1-3_細線2
  6
CONTINUOUS
 62
    4
 10
621.74934725848584
 20
582.02693558975238
 11
621.74934725848584
 21
508.02693558975261
  0
LINE
  8
_1-3_細線2
  6
CONTINUOUS
 62
    4
 10
665.74934725848595
 20
588.02693558975261
 11
627.74934725848595
 21
588.02693558975261
  0
ARC
  8
_1-3_細線2
  6
CONTINUOUS
 62
    4
 10
627.74934725848595
 20
582.02693558975238
 40
5.9999999999999982
 50
89.999999999999915
 51
179.99999999999983
  0
LINE
  8
_1-3_細線2
  6
CONTINUOUS
 62
    4
 10
594.24934725848584
 20
582.02693558975238
 11
594.24934725848584
 21
508.02693558975261
  0
ARC
  8
_1-3_細線2
  6
CONTINUOUS
 62
    4
 10
588.24934725848561
 20
582.02693558975238
 40
5.9999999999999982
 50
0
 51
89.999999999999915
  0
LINE
  8
_1-3_細線2
  6
CONTINUOUS
 62
    4
 10
550.24934725848448
 20
588.02693558975261
 11
588.24934725848561
 21
588.02693558975261
  0
ARC
  8
_1-3_細線2
  6
CONTINUOUS
 62
    4
 10
550.24934725848448
 20
582.02693558975238
 40
5.9999999999999982
 50
89.999999999999915
 51
179.99999999999983
  0
LINE
  8
_1-3_細線2
  6
CONTINUOUS
 62
    4
 10
588.24934725848561
 20
508.02693558975261
 11
594.24934725848584
 21
508.02693558975261
  0
LINE
  8
_1-3_細線2
  6
CONTINUOUS
 62
    4
 10
621.74934725848584
 20
508.02693558975261
 11
627.74934725848721
 21
508.02693558975261
  0
LINE
  8
_1-3_細線2
  6
CONTINUOUS
 62
    4
 10
671.74934725848584
 20
558.02693488573664
 11
665.74934725848448
 21
558.0269348857363
  0
LINE
  8
_1-3_細線2
  6
CONTINUOUS
 62
    4
 10
544.2493472584847
 20
558.02693488573664
 11
550.24934725848607
 21
558.0269348857363
  0
LINE
  8
_1-3_細線2
  6
CONTINUOUS
 62
    4
 10
665.74934725848448
 20
582.02693558975204
 11
665.74934725848448
 21
558.02693488573664
  0
LINE
  8
_1-3_細線2
  6
CONTINUOUS
 62
    4
 10
550.24934725848493
 20
582.02693558975204
 11
550.24934725848607
 21
558.02693488573664
  0
LINE
  8
_1-3_細線2
  6
CONTINUOUS
 62
    4
 10
671.74934725848584
 20
582.02693558975238
 11
671.74934725848584
 21
558.02693488573664
  0
LINE
  8
_1-3_細線2
  6
CONTINUOUS
 62
    4
 10
544.2493472584847
 20
582.02693558975238
 11
544.2493472584847
 21
558.02693488573664
  0
LINE
  8
_1-3_細線2
  6
CONTINUOUS
 62
    4
 10
516.7493472584888
 20
515.77693488573686
 11
588.24934725848789
 21
515.77693488573686
  0
LINE
  8
_1-3_細線2
  6
CONTINUOUS
 62
    4
 10
516.7493472584888
 20
550.27693488573686
 11
588.24934725848789
 21
550.27693488573686
  0
LINE
  8
_1-3_細線2
  6
CONTINUOUS
 62
    4
 10
594.24934725848766
 20
550.27693488573686
 11
621.74934725848584
 21
550.27693488573686
  0
LINE
  8
_1-3_細線2
  6
CONTINUOUS
 62
    4
 10
594.24934725848766
 20
515.77693488573686
 11
621.74934725848584
 21
515.77693488573686
  0
LINE
  8
_1-3_細線2
  6
CONTINUOUS
 62
    4
 10
699.24934776873238
 20
515.77693488573686
 11
627.74934776873363
 21
515.77693488573686
  0
LINE
  8
_1-3_細線2
  6
CONTINUOUS
 62
    4
 10
699.24934776873238
 20
550.27693488573686
 11
627.74934776873363
 21
550.27693488573686
  0
LINE
  8
_1-3_細線2
  6
CONTINUOUS
 62
    4
 10
782.74934776873238
 20
545.95193558975245
 11
782.74934776873238
 21
526.10193558975232
  0
LINE
  8
_1-3_細線2
  6
CONTINUOUS
 62
    4
 10
782.74934776873238
 20
582.02693558975204
 11
782.74934776873238
 21
508.02693558975261
  0
LINE
  8
_1-3_細線2
  6
CONTINUOUS
 62
    4
 10
743.24934776872988
 20
582.02693558975204
 11
705.24934776873033
 21
582.02693558975204
  0
LINE
  8
_1-3_細線2
  6
CONTINUOUS
 62
    4
 10
820.74934776873101
 20
582.02693558975204
 11
782.74934776873238
 21
582.02693558975204
  0
LINE
  8
_1-3_細線2
  6
CONTINUOUS
 62
    4
 10
705.24934776873033
 20
582.02693558975204
 11
705.24934776873033
 21
508.02693558975261
  0
ARC
  8
_1-3_細線2
  6
CONTINUOUS
 62
    4
 10
820.7493477687326
 20
582.02693558975238
 40
5.9999999999999982
 50
0
 51
89.999999999999915
  0
LINE
  8
_1-3_細線2
  6
CONTINUOUS
 62
    4
 10
776.74934776873101
 20
582.02693558975238
 11
776.74934776873101
 21
508.02693558975261
  0
LINE
  8
_1-3_細線2
  6
CONTINUOUS
 62
    4
 10
820.7493477687326
 20
588.02693558975261
 11
782.74934776873079
 21
588.02693558975261
  0
ARC
  8
_1-3_細線2
  6
CONTINUOUS
 62
    4
 10
782.74934776873079
 20
582.02693558975238
 40
5.9999999999999982
 50
89.999999999999915
 51
179.99999999999983
  0
ARC
  8
_1-3_細線2
  6
CONTINUOUS
 62
    4
 10
743.24934776873147
 20
582.02693558975238
 40
5.9999999999999982
 50
0
 51
89.999999999999915
  0
LINE
  8
_1-3_細線2
  6
CONTINUOUS
 62
    4
 10
699.24934776873238
 20
582.02693558975238
 11
699.24934776873238
 21
508.02693558975261
  0
LINE
  8
_1-3_細線2
  6
CONTINUOUS
 62
    4
 10
743.24934776873147
 20
588.02693558975261
 11
705.2493477687326
 21
588.02693558975261
  0
ARC
  8
_1-3_細線2
  6
CONTINUOUS
 62
    4
 10
705.2493477687326
 20
582.02693558975238
 40
5.9999999999999982
 50
89.999999999999915
 51
179.99999999999983
  0
LINE
  8
_1-3_細線2
  6
CONTINUOUS
 62
    4
 10
699.24934776873238
 20
508.02693558975261
 11
705.24934776873033
 21
508.02693558975261
  0
LINE
  8
_1-3_細線2
  6
CONTINUOUS
 62
    4
 10
776.74934776873101
 20
508.02693558975261
 11
782.74934776873238
 21
508.02693558975261
  0
LINE
  8
_1-3_細線2
  6
CONTINUOUS
 62
    4
 10
826.74934776873238
 20
558.02693488573664
 11
820.74934776873101
 21
558.02693488573664
  0
LINE
  8
_1-3_細線2
  6
CONTINUOUS
 62
    4
 10
749.24934776873124
 20
558.02693488573664
 11
743.24934776872988
 21
558.02693488573664
  0
LINE
  8
_1-3_細線2
  6
CONTINUOUS
 62
    4
 10
743.24934776872988
 20
582.02693558975204
 11
743.24934776872988
 21
558.02693488573664
  0
LINE
  8
_1-3_細線2
  6
CONTINUOUS
 62
    4
 10
820.74934776873101
 20
582.02693558975204
 11
820.74934776873101
 21
558.02693488573664
  0
LINE
  8
_1-3_細線2
  6
CONTINUOUS
 62
    4
 10
826.74934776873238
 20
582.02693558975238
 11
826.74934776873238
 21
558.02693488573664
  0
LINE
  8
_1-3_細線2
  6
CONTINUOUS
 62
    4
 10
749.24934776873124
 20
582.02693558975238
 11
749.24934776873124
 21
558.02693488573664
  0
LINE
  8
_1-3_細線2
  6
CONTINUOUS
 62
    4
 10
776.74934827898028
 20
515.77693488573686
 11
705.24934827898164
 21
515.77693488573686
  0
LINE
  8
_1-3_細線2
  6
CONTINUOUS
 62
    4
 10
776.74934827898028
 20
550.27693488573686
 11
705.24934827898164
 21
550.27693488573686
  0
LINE
  8
_1-3_細線2
  6
CONTINUOUS
 62
    4
 10
510.7493472584909
 20
582.02693558975204
 11
510.7493472584909
 21
508.02693558975261
  0
LINE
  8
_1-3_細線2
  6
CONTINUOUS
 62
    4
 10
472.74934725849135
 20
582.02693558975204
 11
510.7493472584909
 21
582.02693558975204
  0
LINE
  8
_1-3_細線2
  6
CONTINUOUS
 62
    4
 10
516.7493472584888
 20
582.02693558975238
 11
516.7493472584888
 21
508.02693558975261
  0
ARC
  8
_1-3_細線2
  6
CONTINUOUS
 62
    4
 10
510.74934725848902
 20
582.02693558975238
 40
5.9999999999999982
 50
0
 51
89.999999999999915
  0
LINE
  8
_1-3_細線2
  6
CONTINUOUS
 62
    4
 10
472.74934725848993
 20
588.02693558975261
 11
510.74934725848902
 21
588.02693558975261
  0
ARC
  8
_1-3_細線2
  6
CONTINUOUS
 62
    4
 10
472.74934725848993
 20
582.02693558975238
 40
5.9999999999999982
 50
89.999999999999915
 51
179.99999999999983
  0
LINE
  8
_1-3_細線2
  6
CONTINUOUS
 62
    4
 10
510.7493472584909
 20
508.02693558975261
 11
516.7493472584888
 21
508.02693558975261
  0
LINE
  8
_1-3_細線2
  6
CONTINUOUS
 62
    4
 10
466.74934725848999
 20
558.02693488573664
 11
472.74934725849135
 21
558.0269348857363
  0
LINE
  8
_1-3_細線2
  6
CONTINUOUS
 62
    4
 10
472.74934725849135
 20
582.02693558975204
 11
472.74934725849135
 21
558.02693488573664
  0
LINE
  8
_1-3_細線2
  6
CONTINUOUS
 62
    4
 10
466.74934725848999
 20
582.02693558975238
 11
466.74934725848999
 21
558.02693488573664
  0
LINE
  8
_1-2_極細2
  6
CONTINUOUS
 62
    2
 10
764.2493472584863
 20
510.52693558975261
 11
764.24934725848584
 21
508.02693558975227
  0
LINE
  8
_1-2_極細2
  6
CONTINUOUS
 62
    2
 10
764.24934725848584
 20
505.0269355897525
 11
764.24934725848584
 21
502.5269355897525
  0
LINE
  8
_1-2_極細2
  6
CONTINUOUS
 62
    2
 10
757.9993472584863
 20
508.02693558975261
 11
757.9993472584863
 21
505.0269355897525
  0
LINE
  8
_1-2_極細2
  6
CONTINUOUS
 62
    2
 10
760.4993472584863
 20
508.02693558975261
 11
760.4993472584863
 21
505.0269355897525
  0
LINE
  8
_1-2_極細2
  6
CONTINUOUS
 62
    2
 10
757.9993472584863
 20
506
 11
760.4993472584863
 21
506
  0
LINE
  8
_1-2_極細2
  6
CONTINUOUS
 62
    2
 10
757.9993472584863
 20
507
 11
760.4993472584863
 21
507
  0
LINE
  8
_1-2_極細2
  6
CONTINUOUS
 62
    2
 10
757.9993472584863
 20
508.00000000000006
 11
760.4993472584863
 21
508.00000000000006
  0
LINE
  8
_1-2_極細2
  6
CONTINUOUS
 62
    2
 10
729.2493472584863
 20
510.52693558975261
 11
729.24934725848698
 21
508.02693558975261
  0
LINE
  8
_1-2_極細2
  6
CONTINUOUS
 62
    2
 10
729.24934725848698
 20
505.0269355897525
 11
729.24934725848584
 21
502.5269355897525
  0
LINE
  8
_1-2_極細2
  6
CONTINUOUS
 62
    2
 10
732.9993472584863
 20
508.02693558975261
 11
732.9993472584863
 21
505.0269355897525
  0
LINE
  8
_1-2_極細2
  6
CONTINUOUS
 62
    2
 10
735.4993472584863
 20
508.02693558975261
 11
735.4993472584863
 21
505.0269355897525
  0
LINE
  8
_1-2_極細2
  6
CONTINUOUS
 62
    2
 10
732.9993472584863
 20
506
 11
735.4993472584863
 21
506
  0
LINE
  8
_1-2_極細2
  6
CONTINUOUS
 62
    2
 10
732.9993472584863
 20
507
 11
735.4993472584863
 21
507
  0
LINE
  8
_1-2_極細2
  6
CONTINUOUS
 62
    2
 10
732.9993472584863
 20
508.00000000000006
 11
735.4993472584863
 21
508.00000000000006
  0
LINE
  8
_1-2_極細2
  6
CONTINUOUS
 62
    2
 10
729.24934725848698
 20
510.52693558975261
 11
764.24934725848584
 21
510.52693558975261
  0
LINE
  8
_1-2_極細2
  6
CONTINUOUS
 62
    2
 10
729.24934725848698
 20
509.00000000000006
 11
764.24934725848618
 21
509.00000000000006
  0
LINE
  8
_1-2_極細2
  6
CONTINUOUS
 62
    2
 10
729.24934725848698
 20
510
 11
764.24934725848618
 21
510
  0
LINE
  8
_1-2_極細2
  6
CONTINUOUS
 62
    2
 10
729.2493472584863
 20
503.00000000000006
 11
764.24934725848584
 21
503.00000000000006
  0
LINE
  8
_1-2_極細2
  6
CONTINUOUS
 62
    2
 10
729.2493472584863
 20
504.00000000000006
 11
764.24934725848584
 21
504.00000000000006
  0
LINE
  8
_1-2_極細2
  6
CONTINUOUS
 62
    2
 10
729.2493472584863
 20
505
 11
764.24934725848584
 21
505
  0
LINE
  8
_1-2_極細2
  6
CONTINUOUS
 62
    2
 10
729.2493472584863
 20
502.5269355897525
 11
764.24934725848584
 21
502.5269355897525
  0
LINE
  8
_1-2_極細2
  6
CONTINUOUS
 62
    2
 10
557.99934725848698
 20
508.02693558975261
 11
557.99934725848698
 21
505.0269355897525
  0
LINE
  8
_1-2_極細2
  6
CONTINUOUS
 62
    2
 10
560.49934725848698
 20
508.02693558975261
 11
560.49934725848698
 21
505.0269355897525
  0
LINE
  8
_1-2_極細2
  6
CONTINUOUS
 62
    2
 10
557.99934725848721
 20
506
 11
560.49934725848652
 21
506
  0
LINE
  8
_1-2_極細2
  6
CONTINUOUS
 62
    2
 10
557.99934725848721
 20
507
 11
560.49934725848652
 21
507
  0
LINE
  8
_1-2_極細2
  6
CONTINUOUS
 62
    2
 10
557.99934725848721
 20
508.00000000000006
 11
560.49934725848652
 21
508.00000000000006
  0
LINE
  8
_1-2_極細2
  6
CONTINUOUS
 62
    2
 10
564.2493472584863
 20
505.0269355897525
 11
564.2493472584863
 21
502.5269355897525
  0
LINE
  8
_1-2_極細2
  6
CONTINUOUS
 62
    2
 10
564.24934725848698
 20
510.52693558975261
 11
564.2493472584863
 21
508.02693558975227
  0
LINE
  8
_1-2_極細2
  6
CONTINUOUS
 62
    2
 10
529.24934725848743
 20
505.0269355897525
 11
529.2493472584863
 21
502.5269355897525
  0
LINE
  8
_1-2_極細2
  6
CONTINUOUS
 62
    2
 10
529.24934725848698
 20
510.52693558975261
 11
529.24934725848743
 21
508.02693558975261
  0
LINE
  8
_1-2_極細2
  6
CONTINUOUS
 62
    2
 10
532.99934725848698
 20
508.02693558975261
 11
532.99934725848698
 21
505.0269355897525
  0
LINE
  8
_1-2_極細2
  6
CONTINUOUS
 62
    2
 10
535.49934725848698
 20
508.02693558975261
 11
535.49934725848698
 21
505.0269355897525
  0
LINE
  8
_1-2_極細2
  6
CONTINUOUS
 62
    2
 10
532.99934725848686
 20
506
 11
535.49934725848743
 21
506
  0
LINE
  8
_1-2_極細2
  6
CONTINUOUS
 62
    2
 10
532.99934725848686
 20
507
 11
535.49934725848743
 21
507
  0
LINE
  8
_1-2_極細2
  6
CONTINUOUS
 62
    2
 10
532.99934725848686
 20
508.00000000000006
 11
535.49934725848743
 21
508.00000000000006
  0
LINE
  8
_1-2_極細2
  6
CONTINUOUS
 62
    2
 10
529.24934725848698
 20
502.5269355897525
 11
564.2493472584863
 21
502.5269355897525
  0
LINE
  8
_1-2_極細2
  6
CONTINUOUS
 62
    2
 10
529.24934725848698
 20
503.00000000000006
 11
564.2493472584863
 21
503.00000000000006
  0
LINE
  8
_1-2_極細2
  6
CONTINUOUS
 62
    2
 10
529.24934725848698
 20
504.00000000000006
 11
564.2493472584863
 21
504.00000000000006
  0
LINE
  8
_1-2_極細2
  6
CONTINUOUS
 62
    2
 10
529.24934725848698
 20
505
 11
564.2493472584863
 21
505
  0
LINE
  8
_1-2_極細2
  6
CONTINUOUS
 62
    2
 10
529.24934725848743
 20
509.00000000000006
 11
564.24934725848652
 21
509.00000000000006
  0
LINE
  8
_1-2_極細2
  6
CONTINUOUS
 62
    2
 10
529.24934725848743
 20
510
 11
564.24934725848652
 21
510
  0
LINE
  8
_1-2_極細2
  6
CONTINUOUS
 62
    2
 10
529.24934725848743
 20
510.52693558975261
 11
564.2493472584863
 21
510.52693558975261
  0
LINE
  8
_1-2_極細2
  6
CONTINUOUS
 62
    2
 10
785.7493472584863
 20
576.52693558975227
 11
782.74934725848652
 21
576.52693558975227
  0
LINE
  8
_1-2_極細2
  6
CONTINUOUS
 62
    2
 10
785.7493472584863
 20
576.52693558975227
 11
785.7493472584863
 21
505.0269355897525
  0
LINE
  8
_1-2_極細2
  6
CONTINUOUS
 62
    2
 10
507.74934725848607
 20
576.52693558975227
 11
510.74934725848607
 21
576.52693558975227
  0
LINE
  8
_1-2_極細2
  6
CONTINUOUS
 62
    2
 10
510.74934725848607
 20
508.02693558975261
 11
782.74934725848652
 21
508.02693558975261
  0
LINE
  8
_1-2_極細2
  6
CONTINUOUS
 62
    2
 10
507.74934725848607
 20
576.52693558975227
 11
507.74934725848607
 21
505.0269355897525
  0
LINE
  8
_1-2_極細2
  6
CONTINUOUS
 62
    2
 10
507.74934725848607
 20
505.0269355897525
 11
785.7493472584863
 21
505.0269355897525
  0
LINE
  8
_1-2_極細2
  6
CONTINUOUS
 62
    2
 10
790.73308725848949
 20
533.02693488573664
 11
805.75566725848967
 21
533.02693488573664
  0
LINE
  8
_1-3_細線2
  6
CONTINUOUS
 62
    4
 10
790.73308725848949
 20
515.52693488573891
 11
805.7557272584869
 21
515.52693488573891
  0
ARC
  8
_1-3_細線2
  6
CONTINUOUS
 62
    4
 10
805.7557272584869
 20
516.526934885738
 40
1.0000000000000004
 50
269.99999999999977
 51
359.99999999999966
  0
ARC
  8
_1-2_極細2
  6
CONTINUOUS
 62
    2
 10
767.96582725848896
 20
524.27620488573962
 40
38.78978
 50
346.96432999999968
 51
13.038021999994573
  0
ARC
  8
_1-3_細線2
  6
CONTINUOUS
 62
    4
 10
805.7557272584869
 20
549.52693488573948
 40
1.0000000000000004
 50
0
 51
89.999999999999915
  0
ARC
  8
_1-2_極細2
  6
CONTINUOUS
 62
    2
 10
767.96582725848896
 20
541.77765488573709
 40
38.78978
 50
346.96197800000095
 51
13.035669999999625
  0
LINE
  8
_1-3_細線2
  6
CONTINUOUS
 62
    4
 10
790.73308725848949
 20
550.52693488573857
 11
805.7557272584869
 21
550.52693488573857
  0
LINE
  8
_1-3_細線2
  6
CONTINUOUS
 62
    4
 10
806.75572725848861
 20
516.526934885738
 11
806.75572725848861
 21
549.52693488573948
  0
ARC
  8
_1-3_細線2
  6
CONTINUOUS
 62
    4
 10
789.73308725848733
 20
509.026934885738
 40
1.0000000000000004
 50
269.99999999999977
 51
359.99999999999966
  0
LINE
  8
_1-3_細線2
  6
CONTINUOUS
 62
    4
 10
785.7493472584863
 20
508.02693488573777
 11
789.73308725848733
 21
508.02693488573777
  0
ARC
  8
_1-3_細線2
  6
CONTINUOUS
 62
    4
 10
789.73308725848733
 20
557.02693488573686
 40
1.0000000000000004
 50
0
 51
89.999999999999915
  0
LINE
  8
_1-3_細線2
  6
CONTINUOUS
 62
    4
 10
785.7493472584863
 20
558.02693488573857
 11
789.73308725848733
 21
558.02693488573857
  0
LINE
  8
_1-3_細線2
  6
CONTINUOUS
 62
    4
 10
790.73308725848949
 20
557.02693488573686
 11
790.73308725848949
 21
509.026934885738
  0
ARC
  8
_1-3_細線2
  6
CONTINUOUS
 62
    4
 10
503.76560725848503
 20
509.02693418172203
 40
1.0000000000000004
 50
179.99999999999983
 51
269.99999999999977
  0
LINE
  8
_1-3_細線2
  6
CONTINUOUS
 62
    4
 10
507.74934725848607
 20
508.0269341817218
 11
503.76560725848503
 21
508.0269341817218
  0
ARC
  8
_1-3_細線2
  6
CONTINUOUS
 62
    4
 10
503.76560725848503
 20
557.02693418172089
 40
1.0000000000000004
 50
89.999999999999915
 51
179.99999999999983
  0
LINE
  8
_1-3_細線2
  6
CONTINUOUS
 62
    4
 10
507.74934725848607
 20
558.02693418172259
 11
503.76560725848503
 21
558.02693418172259
  0
LINE
  8
_1-3_細線2
  6
CONTINUOUS
 62
    4
 10
502.76560725848327
 20
530.5269341817218
 11
502.76560725848327
 21
509.02693418172203
  0
LINE
  8
_1-3_細線2
  6
CONTINUOUS
 62
    4
 10
502.76560725848327
 20
557.02693418172089
 11
502.76560725848327
 21
530.5269341817218
  0
LINE
  8
_1-2_極細2
  6
CONTINUOUS
 62
    2
 10
502.76560725848327
 20
533.02693418172066
 11
487.74302725848287
 21
533.02693418172066
  0
LINE
  8
_1-3_細線2
  6
CONTINUOUS
 62
    4
 10
502.76560725848327
 20
515.52693418172294
 11
487.74296725848586
 21
515.52693418172294
  0
ARC
  8
_1-3_細線2
  6
CONTINUOUS
 62
    4
 10
487.74296725848586
 20
516.52693418172203
 40
1.0000000000000004
 50
179.99999999999983
 51
269.99999999999977
  0
ARC
  8
_1-2_極細2
  6
CONTINUOUS
 62
    2
 10
525.53286725848375
 20
524.27620418172364
 40
38.78978
 50
166.96197800000505
 51
193.03566999999961
  0
ARC
  8
_1-3_細線2
  6
CONTINUOUS
 62
    4
 10
487.74296725848586
 20
549.5269341817235
 40
1.0000000000000004
 50
89.999999999999915
 51
179.99999999999983
  0
ARC
  8
_1-2_極細2
  6
CONTINUOUS
 62
    2
 10
525.53286725848375
 20
541.77765418172112
 40
38.78978
 50
166.96433000000002
 51
193.03802199999836
  0
LINE
  8
_1-3_細線2
  6
CONTINUOUS
 62
    4
 10
502.76560725848327
 20
550.52693418172259
 11
487.74296725848586
 21
550.52693418172259
  0
LINE
  8
_1-3_細線2
  6
CONTINUOUS
 62
    4
 10
486.74296725848393
 20
516.52693418172203
 11
486.74296725848393
 21
549.5269341817235
  0
LINE
  8
_1-2_極細2
  6
CENTER1
 62
    2
 10
479.93392019227514
 20
533.02693488573664
 11
815.18038968334565
 21
533.02693488573664
  0
LINE
  8
_1-2_極細2
  6
CENTER1
 62
    2
 10
646.74934725848584
 20
629.60750831468999
 11
646.74934725848584
 21
463.42045795497745
  0
ARC
  8
_1-2_極細2
  6
CONTINUOUS
 62
    2
 10
456.74934826842929
 20
502.5269355897525
 40
15.000000000000004
 50
179.99999999999983
 51
269.99999999999977
  0
LINE
  8
_1-2_極細2
  6
CONTINUOUS
 62
    2
 10
441.74934826842929
 20
502.5269355897525
 11
441.74934826842929
 21
600.0269355897525
  0
LINE
  8
_1-2_極細2
  6
CONTINUOUS
 62
    2
 10
456.74934826842929
 20
487.5269355897525
 11
589.24934826842923
 21
487.5269355897525
  0
LINE
  8
_1-2_極細2
  6
CONTINUOUS
 62
    2
 10
591.74934826842923
 20
490.0269355897525
 11
589.24934826842923
 21
487.5269355897525
  0
LINE
  8
_1-2_極細2
  6
CONTINUOUS
 62
    2
 10
591.74934826842923
 20
500.0269355897525
 11
591.74934826842923
 21
490.0269355897525
  0
LINE
  8
_1-2_極細2
  6
CONTINUOUS
 62
    2
 10
589.24934826842923
 20
502.5269355897525
 11
591.74934826842923
 21
500.0269355897525
  0
LINE
  8
_1-2_極細2
  6
CONTINUOUS
 62
    2
 10
456.74934826842929
 20
502.5269355897525
 11
589.24934826842923
 21
502.5269355897525
  0
LINE
  8
_1-2_極細2
  6
CONTINUOUS
 62
    2
 10
444.249348268429
 20
602.5269355897525
 11
441.74934826842929
 21
600.0269355897525
  0
LINE
  8
_1-2_極細2
  6
CONTINUOUS
 62
    2
 10
454.249348268429
 20
602.5269355897525
 11
444.249348268429
 21
602.5269355897525
  0
LINE
  8
_1-2_極細2
  6
CONTINUOUS
 62
    2
 10
456.74934826842929
 20
600.0269355897525
 11
454.249348268429
 21
602.5269355897525
  0
LINE
  8
_1-2_極細2
  6
CONTINUOUS
 62
    2
 10
456.74934826842929
 20
502.5269355897525
 11
456.74934826842929
 21
600.0269355897525
  0
ARC
  8
_1-2_極細2
  6
CONTINUOUS
 62
    2
 10
836.74934673767211
 20
502.5269355897525
 40
15.000000000000004
 50
269.99999999999977
 51
359.99999999999966
  0
LINE
  8
_1-2_極細2
  6
CONTINUOUS
 62
    2
 10
851.74934673767211
 20
502.5269355897525
 11
851.74934673767211
 21
600.0269355897525
  0
LINE
  8
_1-2_極細2
  6
CONTINUOUS
 62
    2
 10
836.74934673767211
 20
487.5269355897525
 11
704.24934673767166
 21
487.5269355897525
  0
LINE
  8
_1-2_極細2
  6
CONTINUOUS
 62
    2
 10
701.74934673767166
 20
490.0269355897525
 11
704.24934673767166
 21
487.5269355897525
  0
LINE
  8
_1-2_極細2
  6
CONTINUOUS
 62
    2
 10
701.74934673767166
 20
500.0269355897525
 11
701.74934673767166
 21
490.0269355897525
  0
LINE
  8
_1-2_極細2
  6
CONTINUOUS
 62
    2
 10
704.24934673767166
 20
502.5269355897525
 11
701.74934673767166
 21
500.0269355897525
  0
LINE
  8
_1-2_極細2
  6
CONTINUOUS
 62
    2
 10
836.74934673767211
 20
502.5269355897525
 11
704.24934673767166
 21
502.5269355897525
  0
LINE
  8
_1-2_極細2
  6
CONTINUOUS
 62
    2
 10
849.24934673767211
 20
602.5269355897525
 11
851.74934673767211
 21
600.0269355897525
  0
LINE
  8
_1-2_極細2
  6
CONTINUOUS
 62
    2
 10
839.24934673767211
 20
602.5269355897525
 11
849.24934673767211
 21
602.5269355897525
  0
LINE
  8
_1-2_極細2
  6
CONTINUOUS
 62
    2
 10
836.74934673767211
 20
600.0269355897525
 11
839.24934673767211
 21
602.5269355897525
  0
LINE
  8
_1-2_極細2
  6
CONTINUOUS
 62
    2
 10
836.74934673767211
 20
502.5269355897525
 11
836.74934673767211
 21
600.0269355897525
  0
CIRCLE
  8
_1-2_極細2
  6
CONTINUOUS
 62
    2
 10
721.7056206836719
 20
447.45012980269826
 40
5.4765944180441757
  0
CIRCLE
  8
_1-2_極細2
  6
CONTINUOUS
 62
    2
 10
760.96673179478466
 20
439.08994461751121
 40
1.6592592592592157
  0
LINE
  8
_1-2_極細2
  6
CONTINUOUS
 62
    2
 10
363.52673223998079
 20
567.5269355897525
 11
398.52673135530495
 21
602.52693470507643
  0
LINE
  8
_1-2_極細2
  6
CONTINUOUS
 62
    2
 10
333.89925350190265
 20
601.53906715846324
 11
334.88712154636187
 21
602.52693520292223
  0
LINE
  8
_1-2_極細2
  6
DASHED2
 62
    2
 10
395.34653739337529
 20
567.5269355897525
 11
416.74934673767109
 21
588.92974493404813
  0
LINE
  8
_1-2_極細2
  6
DASHED2
 62
    2
 10
333.89925350190265
 20
569.71926200506891
 11
366.70692645083261
 21
602.52693495399922
  0
LINE
  8
_1-2_極細2
  6
CONTINUOUS
 62
    2
 10
441.74934673767166
 20
567.5269355897525
 11
333.89925350190265
 21
567.5269355897525
  0
LINE
  8
_1-2_極細2
  6
CONTINUOUS
 62
    2
 10
416.74934673767109
 20
602.52693558975272
 11
333.89925350190265
 21
602.52693558975272
  0
LINE
  8
_1-2_極細2
  6
CONTINUOUS
 62
    2
 10
954.837542325002
 20
567.5269355897525
 11
958.06015682269276
 21
570.7495500874428
  0
LINE
  8
_1-2_極細2
  6
CONTINUOUS
 62
    2
 10
891.1979320182129
 20
567.5269355897525
 11
926.1979316313832
 21
602.52693520292223
  0
LINE
  8
_1-2_極細2
  6
DASHED2
 62
    2
 10
923.01773717160768
 20
567.5269355897525
 11
958.01773653585451
 21
602.52693495399922
  0
LINE
  8
_1-2_極細2
  6
DASHED2
 62
    2
 10
876.7493467376712
 20
584.89815546260536
 11
894.37812672691075
 21
602.52693545184457
  0
LINE
  8
_1-2_極細2
  6
CONTINUOUS
 62
    2
 10
851.74934673767211
 20
567.5269355897525
 11
958.06015682269276
 21
567.5269355897525
  0
LINE
  8
_1-2_極細2
  6
CONTINUOUS
 62
    2
 10
876.74934673767211
 20
602.52693558975272
 11
958.06015682269276
 21
602.52693558975272
  0
CIRCLE
  8
_1-2_極細2
  6
CONTINUOUS
 62
    2
 10
495.56529501796859
 20
375.27825945573795
 40
5.4765944180441757
  0
CIRCLE
  8
_1-2_極細2
  6
CONTINUOUS
 62
    2
 10
344.37475116182793
 20
368.61216683822533
 40
1.6592592592592157
  0
CIRCLE
  8
_1-2_極細2
  6
CONTINUOUS
 62
    2
 10
466.89862834964867
 20
405.87750163381713
 40
1.6592592592592157
  0
CIRCLE
  8
_1-2_極細2
  6
CONTINUOUS
 62
    2
 10
361.89862834722715
 20
434.0121668397336
 40
1.6592592592592157
  0
LINE
  8
_1-2_極細2
  6
CONTINUOUS
 62
    2
 10
416.74934673767211
 20
578.53419443192684
 11
427.75660557984594
 21
567.5269355897525
  0
LINE
  8
_1-2_極細2
  6
CONTINUOUS
 62
    2
 10
416.74934673767211
 20
591.26211649328434
 11
440.48452764120339
 21
567.5269355897525
  0
LINE
  8
_1-2_極細2
  6
CONTINUOUS
 62
    2
 10
441.74934673767166
 20
578.99003855464287
 11
418.212449702561
 21
602.52693558975272
  0
LINE
  8
_1-2_極細2
  6
CONTINUOUS
 62
    2
 10
441.74934673767166
 20
591.71796061600048
 11
430.94037176391976
 21
602.52693558975238
  0
LINE
  8
_1-2_極細2
  6
CONTINUOUS
 62
    2
 10
416.74934673767109
 20
597.99896896123619
 11
421.27731336618808
 21
602.52693558975272
  0
LINE
  8
_1-2_極細2
  6
CONTINUOUS
 62
    2
 10
416.74934673767109
 20
585.27104689987823
 11
434.00523542754524
 21
602.52693558975272
  0
LINE
  8
_1-2_極細2
  6
CONTINUOUS
 62
    2
 10
416.74934673767109
 20
572.54312483852061
 11
441.74934673767166
 21
597.54312483852038
  0
LINE
  8
_1-2_極細2
  6
CONTINUOUS
 62
    2
 10
424.46107955026162
 20
567.5269355897525
 11
441.74934673767166
 21
584.81520277716277
  0
LINE
  8
_1-2_極細2
  6
CONTINUOUS
 62
    2
 10
437.18900161161883
 20
567.5269355897525
 11
441.74934673767166
 21
572.08728071580481
  0
LINE
  8
_1-2_極細2
  6
CONTINUOUS
 62
    2
 10
441.74934673767166
 20
600.02693558975261
 11
441.74934673767166
 21
602.52693558975272
  0
LINE
  8
_1-2_極細2
  6
CONTINUOUS
 62
    2
 10
441.74934673767166
 20
602.52693558975272
 11
416.74934673767109
 21
602.52693558975272
  0
LINE
  8
_1-2_極細2
  6
CONTINUOUS
 62
    2
 10
416.74934673767109
 20
602.52693558975272
 11
416.74934673767109
 21
567.5269355897525
  0
CIRCLE
  8
_1-2_極細2
  6
CONTINUOUS
 62
    2
 10
571.79307279167188
 20
447.45012980269826
 40
5.4765944180441757
  0
CIRCLE
  8
_1-2_極細2
  6
CONTINUOUS
 62
    2
 10
381.7652950138945
 20
561.12327795084275
 40
1.6592592592592157
  0
CIRCLE
  8
_1-2_極細2
  6
CONTINUOUS
 62
    2
 10
549.4801098287071
 20
413.84718024825446
 40
1.6592592592592157
  0
CIRCLE
  8
_1-2_極細2
  6
CONTINUOUS
 62
    2
 10
407.08196168056088
 20
430.11679646936335
 40
5.4765944180441757
  0
CIRCLE
  8
_1-2_極細2
  6
CONTINUOUS
 62
    2
 10
414.96529501389432
 20
507.7667964693623
 40
5.4765944180441757
  0
CIRCLE
  8
_1-2_極細2
  6
CONTINUOUS
 62
    2
 10
398.565295013894
 20
442.72327795084414
 40
1.6592592592592157
  0
CIRCLE
  8
_1-2_極細2
  6
CONTINUOUS
 62
    2
 10
363.76529501389439
 20
484.72327795084374
 40
1.6592592592592157
  0
CIRCLE
  8
_1-2_極細2
  6
CONTINUOUS
 62
    2
 10
425.36529501389396
 20
486.85661128417706
 40
1.6592592592592157
  0
CIRCLE
  8
_1-2_極細2
  6
CONTINUOUS
 62
    2
 10
417.89862834722726
 20
546.05661128417648
 40
1.6592592592592157
  0
CIRCLE
  8
_1-2_極細2
  6
CONTINUOUS
 62
    2
 10
514.93196168055874
 20
378.55661128417836
 40
1.6592592592592157
  0
CIRCLE
  8
_1-2_極細2
  6
CONTINUOUS
 62
    2
 10
502.66529501389311
 20
453.48994461751096
 40
1.6592592592592157
  0
CIRCLE
  8
_1-2_極細2
  6
CONTINUOUS
 62
    2
 10
532.53196168055888
 20
439.08994461751121
 40
1.6592592592592157
  0
CIRCLE
  8
_1-2_極細2
  6
CONTINUOUS
 62
    2
 10
797.93339845737432
 20
375.27825945573795
 40
5.4765944180441757
  0
CIRCLE
  8
_1-2_極細2
  6
CONTINUOUS
 62
    2
 10
949.12394231351527
 20
368.61216683822533
 40
1.6592592592592157
  0
CIRCLE
  8
_1-2_極細2
  6
CONTINUOUS
 62
    2
 10
826.60006512569453
 20
405.87750163381713
 40
1.6592592592592157
  0
CIRCLE
  8
_1-2_極細2
  6
CONTINUOUS
 62
    2
 10
931.60006512811606
 20
434.0121668397336
 40
1.6592592592592157
  0
LINE
  8
_1-2_極細2
  6
CONTINUOUS
 62
    2
 10
876.7493467376712
 20
578.53419443192684
 11
865.74208789549652
 21
567.5269355897525
  0
LINE
  8
_1-2_極細2
  6
CONTINUOUS
 62
    2
 10
876.7493467376712
 20
591.26211649328434
 11
853.01416583414039
 21
567.5269355897525
  0
LINE
  8
_1-2_極細2
  6
CONTINUOUS
 62
    2
 10
851.74934673767211
 20
578.99003855464287
 11
875.2862437727822
 21
602.52693558975272
  0
LINE
  8
_1-2_極細2
  6
CONTINUOUS
 62
    2
 10
851.74934673767211
 20
591.71796061600048
 11
862.55832171142401
 21
602.52693558975238
  0
LINE
  8
_1-2_極細2
  6
CONTINUOUS
 62
    2
 10
876.74934673767211
 20
597.99896896123619
 11
872.22138010915523
 21
602.52693558975272
  0
LINE
  8
_1-2_極細2
  6
CONTINUOUS
 62
    2
 10
876.74934673767211
 20
585.27104689987823
 11
859.49345804779796
 21
602.52693558975272
  0
LINE
  8
_1-2_極細2
  6
CONTINUOUS
 62
    2
 10
876.74934673767211
 20
572.54312483852061
 11
851.74934673767211
 21
597.54312483852038
  0
LINE
  8
_1-2_極細2
  6
CONTINUOUS
 62
    2
 10
869.03761392508159
 20
567.5269355897525
 11
851.74934673767211
 21
584.81520277716277
  0
LINE
  8
_1-2_極細2
  6
CONTINUOUS
 62
    2
 10
856.30969186372408
 20
567.5269355897525
 11
851.74934673767211
 21
572.08728071580481
  0
LINE
  8
_1-2_極細2
  6
CONTINUOUS
 62
    2
 10
851.74934673767211
 20
600.02693558975261
 11
851.74934673767211
 21
602.52693558975272
  0
LINE
  8
_1-2_極細2
  6
CONTINUOUS
 62
    2
 10
851.74934673767211
 20
602.52693558975272
 11
876.74934673767211
 21
602.52693558975272
  0
LINE
  8
_1-2_極細2
  6
CONTINUOUS
 62
    2
 10
876.74934673767211
 20
602.52693558975272
 11
876.74934673767211
 21
567.5269355897525
  0
CIRCLE
  8
_1-2_極細2
  6
CONTINUOUS
 62
    2
 10
911.73339846144927
 20
561.12327795084275
 40
1.6592592592592157
  0
CIRCLE
  8
_1-2_極細2
  6
CONTINUOUS
 62
    2
 10
744.01858364663622
 20
413.84718024825446
 40
1.6592592592592157
  0
CIRCLE
  8
_1-2_極細2
  6
CONTINUOUS
 62
    2
 10
886.41673179478175
 20
430.11679646936335
 40
5.4765944180441757
  0
CIRCLE
  8
_1-2_極細2
  6
CONTINUOUS
 62
    2
 10
878.53339846144877
 20
507.7667964693623
 40
5.4765944180441757
  0
CIRCLE
  8
_1-2_極細2
  6
CONTINUOUS
 62
    2
 10
894.93339846144886
 20
442.72327795084414
 40
1.6592592592592157
  0
CIRCLE
  8
_1-2_極細2
  6
CONTINUOUS
 62
    2
 10
929.73339846144904
 20
484.72327795084374
 40
1.6592592592592157
  0
CIRCLE
  8
_1-2_極細2
  6
CONTINUOUS
 62
    2
 10
868.13339846144868
 20
486.85661128417706
 40
1.6592592592592157
  0
CIRCLE
  8
_1-2_極細2
  6
CONTINUOUS
 62
    2
 10
875.60006512811606
 20
546.05661128417648
 40
1.6592592592592157
  0
CIRCLE
  8
_1-2_極細2
  6
CONTINUOUS
 62
    2
 10
778.56673179478457
 20
378.55661128417836
 40
1.6592592592592157
  0
CIRCLE
  8
_1-2_極細2
  6
CONTINUOUS
 62
    2
 10
790.83339846145009
 20
453.48994461751096
 40
1.6592592592592157
  0
TEXT
  8
_0-7_枠細線
 62
    5
 10
529.44586559136746
 20
858.40116913117254
 40
40
 41
0.8
 50
0
  1
Ａ－Ａ’断面図
  0
TEXT
  8
_0-7_枠細線
 62
    5
 10
780.98995483657052
 20
858.40116913117254
 40
40
 41
0.6000000000000002
 50
0
  1
Ｓ＝１：２
  0
LINE
  8
_1-5_寸法2
  6
CONTINUOUS
 62
    7
 10
441.74934673767183
 20
622.5269355897525
 11
441.74934673767211
 21
822.52693629376859
  0
LINE
  8
_1-5_寸法2
  6
CONTINUOUS
 62
    7
 10
441.74934673767211
 20
812.52693629376859
 11
461.06786326345343
 21
817.70331719581907
  0
LINE
  8
_1-5_寸法2
  6
CONTINUOUS
 62
    7
 10
441.74934673767211
 20
812.52693629376859
 11
461.06786326345343
 21
807.35055539171822
  0
LINE
  8
_1-5_寸法2
  6
CONTINUOUS
 62
    7
 10
851.74934673767211
 20
622.5269355897525
 11
851.74934673767234
 21
822.52693629376859
  0
LINE
  8
_1-5_寸法2
  6
CONTINUOUS
 62
    7
 10
851.74934673767234
 20
812.52693629376859
 11
832.43083021189091
 21
807.35055539171822
  0
LINE
  8
_1-5_寸法2
  6
CONTINUOUS
 62
    7
 10
851.74934673767234
 20
812.52693629376859
 11
832.43083021189113
 21
817.70331719581918
  0
LINE
  8
_1-5_寸法2
  6
CONTINUOUS
 62
    7
 10
441.74934673767211
 20
812.52693629376859
 11
851.74934673767234
 21
812.52693629376859
  0
TEXT
  8
_1-5_寸法2
 62
    7
 10
631.74934673767234
 20
812.52693629376859
 40
30
 41
1
 50
0
  1
82
  0
LINE
  8
_1-5_寸法2
  6
CONTINUOUS
 62
    7
 10
441.74934673767183
 20
622.52693558975272
 11
441.74934673767183
 21
752.52693629376859
  0
LINE
  8
_1-5_寸法2
  6
CONTINUOUS
 62
    7
 10
441.74934673767183
 20
742.52693629376859
 11
422.43083021189051
 21
737.35055539171822
  0
LINE
  8
_1-5_寸法2
  6
CONTINUOUS
 62
    7
 10
441.74934673767183
 20
742.52693629376859
 11
422.43083021189051
 21
747.70331719581907
  0
LINE
  8
_1-5_寸法2
  6
CONTINUOUS
 62
    7
 10
456.74934826842946
 20
622.52693558975272
 11
456.74934826842957
 21
752.52693629376859
  0
CIRCLE
  8
_1-5_寸法2
  6
CONTINUOUS
 62
    1
 10
456.74934826842957
 20
742.52693629376859
 40
2.9999999999999991
  0
LINE
  8
_1-5_寸法2
  6
CONTINUOUS
 62
    7
 10
391.74934673767183
 20
742.52693629376859
 11
456.74934826842957
 21
742.52693629376859
  0
TEXT
  8
_1-5_寸法2
 62
    7
 10
410.12754069428865
 20
742.52693629376859
 40
30
 41
1
 50
0
  1
3
  0
LINE
  8
_1-5_寸法2
  6
CONTINUOUS
 62
    7
 10
466.74934725849016
 20
622.52693558975272
 11
466.74934725849027
 21
752.52693629376859
  0
LINE
  8
_1-5_寸法2
  6
CONTINUOUS
 62
    7
 10
456.74934826842957
 20
742.52693629376859
 11
466.74934725849027
 21
742.52693629376859
  0
TEXT
  8
_1-5_寸法2
 62
    7
 10
454.24934776345992
 20
742.52693629376859
 40
30
 41
1
 50
0
  1
2
  0
LINE
  8
_1-5_寸法2
  6
CONTINUOUS
 62
    7
 10
466.74934725849027
 20
742.52693629376859
 11
486.06786378427159
 21
747.70331719581907
  0
LINE
  8
_1-5_寸法2
  6
CONTINUOUS
 62
    7
 10
466.74934725849027
 20
742.52693629376859
 11
486.06786378427159
 21
737.35055539171822
  0
LINE
  8
_1-5_寸法2
  6
CONTINUOUS
 62
    7
 10
826.7493477687326
 20
622.5269355897525
 11
826.74934776873283
 21
752.52693629376859
  0
LINE
  8
_1-5_寸法2
  6
CONTINUOUS
 62
    7
 10
826.74934776873283
 20
742.52693629376859
 11
807.4308312429514
 21
737.35055539171822
  0
LINE
  8
_1-5_寸法2
  6
CONTINUOUS
 62
    7
 10
826.74934776873283
 20
742.52693629376859
 11
807.43083124295151
 21
747.70331719581907
  0
LINE
  8
_1-5_寸法2
  6
CONTINUOUS
 62
    7
 10
466.74934725849027
 20
742.52693629376859
 11
826.74934776873283
 21
742.52693629376859
  0
TEXT
  8
_1-5_寸法2
 62
    7
 10
631.74934751361161
 20
742.52693629376859
 40
30
 41
1
 50
0
  1
72
  0
LINE
  8
_1-5_寸法2
  6
CONTINUOUS
 62
    7
 10
836.74934673767211
 20
622.5269355897525
 11
836.74934673767234
 21
752.52693629376859
  0
CIRCLE
  8
_1-5_寸法2
  6
CONTINUOUS
 62
    1
 10
836.74934673767234
 20
742.52693629376859
 40
2.9999999999999991
  0
LINE
  8
_1-5_寸法2
  6
CONTINUOUS
 62
    7
 10
826.74934776873283
 20
742.52693629376859
 11
836.74934673767234
 21
742.52693629376859
  0
TEXT
  8
_1-5_寸法2
 62
    7
 10
824.24934725320236
 20
742.52693629376859
 40
30
 41
1
 50
0
  1
2
  0
LINE
  8
_1-5_寸法2
  6
CONTINUOUS
 62
    7
 10
851.74934673767211
 20
622.5269355897525
 11
851.74934673767234
 21
752.52693629376859
  0
LINE
  8
_1-5_寸法2
  6
CONTINUOUS
 62
    7
 10
851.74934673767234
 20
742.52693629376859
 11
871.06786326345389
 21
747.70331719581895
  0
LINE
  8
_1-5_寸法2
  6
CONTINUOUS
 62
    7
 10
851.74934673767234
 20
742.52693629376859
 11
871.06786326345377
 21
737.3505553917181
  0
LINE
  8
_1-5_寸法2
  6
CONTINUOUS
 62
    7
 10
836.74934673767234
 20
742.52693629376859
 11
901.74934673767234
 21
742.52693629376859
  0
TEXT
  8
_1-5_寸法2
 62
    7
 10
875.39775240102426
 20
742.52693629376859
 40
30
 41
1
 50
0
  1
3
  0
LINE
  8
_1-2_極細2
  6
CONTINUOUS
 62
    2
 10
589.24934826842923
 20
487.5269355897525
 11
591.74934826842923
 21
487.5269355897525
  0
LINE
  8
_1-2_極細2
  6
CONTINUOUS
 62
    2
 10
591.74934826842923
 20
487.5269355897525
 11
591.74934826842923
 21
387.5269355897525
  0
LINE
  8
_1-2_極細2
  6
CONTINUOUS
 62
    2
 10
704.24934624854245
 20
487.5269355897525
 11
701.74934624854245
 21
487.5269355897525
  0
LINE
  8
_1-2_極細2
  6
CONTINUOUS
 62
    2
 10
701.74934624854245
 20
487.5269355897525
 11
701.74934624854245
 21
387.5269355897525
  0
LINE
  8
_1-5_寸法2
  6
CONTINUOUS
 62
    7
 10
441.74934826842929
 20
482.5269355897525
 11
441.749348268429
 21
377.5269355897525
  0
LINE
  8
_1-5_寸法2
  6
CONTINUOUS
 62
    7
 10
441.749348268429
 20
387.5269355897525
 11
461.06786479421044
 21
392.70331649180292
  0
LINE
  8
_1-5_寸法2
  6
CONTINUOUS
 62
    7
 10
441.749348268429
 20
387.5269355897525
 11
461.06786479421044
 21
382.35055468770213
  0
LINE
  8
_1-5_寸法2
  6
CONTINUOUS
 62
    7
 10
591.74934826842923
 20
467.5269355897525
 11
591.74934826842912
 21
377.5269355897525
  0
LINE
  8
_1-5_寸法2
  6
CONTINUOUS
 62
    7
 10
591.74934826842912
 20
387.5269355897525
 11
572.43083174264768
 21
382.35055468770213
  0
LINE
  8
_1-5_寸法2
  6
CONTINUOUS
 62
    7
 10
591.74934826842912
 20
387.5269355897525
 11
572.4308317426478
 21
392.70331649180292
  0
LINE
  8
_1-5_寸法2
  6
CONTINUOUS
 62
    7
 10
441.749348268429
 20
387.5269355897525
 11
591.74934826842912
 21
387.5269355897525
  0
TEXT
  8
_1-5_寸法2
 62
    7
 10
501.74934826842912
 20
387.5269355897525
 40
30
 41
1
 50
0
  1
30
  0
LINE
  8
_1-5_寸法2
  6
CONTINUOUS
 62
    7
 10
591.74934826842912
 20
387.5269355897525
 11
611.06786479421066
 21
392.70331649180292
  0
LINE
  8
_1-5_寸法2
  6
CONTINUOUS
 62
    7
 10
591.74934826842912
 20
387.5269355897525
 11
611.06786479421044
 21
382.35055468770202
  0
LINE
  8
_1-5_寸法2
  6
CONTINUOUS
 62
    7
 10
701.74934624854245
 20
467.5269355897525
 11
701.74934624854234
 21
377.5269355897525
  0
LINE
  8
_1-5_寸法2
  6
CONTINUOUS
 62
    7
 10
701.74934624854234
 20
387.5269355897525
 11
682.43082972276079
 21
382.35055468770213
  0
LINE
  8
_1-5_寸法2
  6
CONTINUOUS
 62
    7
 10
701.74934624854234
 20
387.5269355897525
 11
682.43082972276102
 21
392.70331649180292
  0
LINE
  8
_1-5_寸法2
  6
CONTINUOUS
 62
    7
 10
591.74934826842912
 20
387.5269355897525
 11
701.74934624854234
 21
387.5269355897525
  0
TEXT
  8
_1-5_寸法2
 62
    7
 10
631.74934725848573
 20
387.5269355897525
 40
30
 41
1
 50
0
  1
22
  0
LINE
  8
_1-5_寸法2
  6
CONTINUOUS
 62
    7
 10
701.74934624854234
 20
387.5269355897525
 11
721.06786277432366
 21
392.70331649180292
  0
LINE
  8
_1-5_寸法2
  6
CONTINUOUS
 62
    7
 10
701.74934624854234
 20
387.5269355897525
 11
721.06786277432366
 21
382.35055468770202
  0
LINE
  8
_1-5_寸法2
  6
CONTINUOUS
 62
    7
 10
851.749346737672
 20
482.5269355897525
 11
851.749346737672
 21
377.5269355897525
  0
LINE
  8
_1-5_寸法2
  6
CONTINUOUS
 62
    7
 10
851.749346737672
 20
387.5269355897525
 11
832.43083021189045
 21
382.35055468770213
  0
LINE
  8
_1-5_寸法2
  6
CONTINUOUS
 62
    7
 10
851.749346737672
 20
387.5269355897525
 11
832.43083021189068
 21
392.70331649180292
  0
LINE
  8
_1-5_寸法2
  6
CONTINUOUS
 62
    7
 10
701.74934624854234
 20
387.5269355897525
 11
851.749346737672
 21
387.5269355897525
  0
TEXT
  8
_1-5_寸法2
 62
    7
 10
761.74934649310694
 20
387.5269355897525
 40
30
 41
1
 50
0
  1
30
  0
LINE
  8
_1-5_寸法2
  6
CONTINUOUS
 62
    7
 10
415.74934673767103
 20
487.52693558975261
 11
331.74934826842929
 21
487.52693558975272
  0
LINE
  8
_1-5_寸法2
  6
CONTINUOUS
 62
    7
 10
341.74934826842929
 20
487.52693558975272
 11
336.57296736637903
 21
506.84545211553416
  0
LINE
  8
_1-5_寸法2
  6
CONTINUOUS
 62
    7
 10
341.74934826842929
 20
487.52693558975272
 11
346.92572917047983
 21
506.84545211553416
  0
LINE
  8
_1-5_寸法2
  6
CONTINUOUS
 62
    7
 10
421.74934673767166
 20
602.52693558975284
 11
331.74934826842929
 21
602.52693558975307
  0
LINE
  8
_1-5_寸法2
  6
CONTINUOUS
 62
    7
 10
341.74934826842929
 20
602.52693558975307
 11
346.92572917047971
 21
583.20841906397163
  0
LINE
  8
_1-5_寸法2
  6
CONTINUOUS
 62
    7
 10
341.74934826842929
 20
602.52693558975307
 11
336.57296736637886
 21
583.20841906397175
  0
LINE
  8
_1-5_寸法2
  6
CONTINUOUS
 62
    7
 10
341.74934826842929
 20
487.52693558975272
 11
341.74934826842929
 21
602.52693558975307
  0
TEXT
  8
_1-5_寸法2
 62
    7
 10
341.74934826842929
 20
530.02693558975295
 40
30
 41
1
 50
90
  1
23
  0
LINE
  8
_0-1_計細線
  6
CONTINUOUS
 62
    3
 10
356.79689303288978
 20
1447.0947982538357
 11
356.79689303288978
 21
1437.0947982538357
  0
LINE
  8
_0-1_計細線
  6
CONTINUOUS
 62
    3
 10
356.79689303288978
 20
1462.5947982538353
 11
356.79689303288978
 21
1452.5947982538353
  0
LINE
  8
_0-1_計細線
  6
CONTINUOUS
 62
    3
 10
356.79689303288978
 20
1493.5947982538348
 11
356.79689303288978
 21
1483.5947982538348
  0
LINE
  8
_0-1_計細線
  6
CONTINUOUS
 62
    3
 10
356.79689303288978
 20
1509.0947982538344
 11
356.79689303288978
 21
1499.0947982538344
  0
LINE
  8
_0-0_計極細
  6
CONTINUOUS
 62
    2
 10
403.79689115283963
 20
1462.5948001138827
 11
403.79689115283963
 21
1468.0947998938771
  0
LINE
  8
_0-0_計極細
  6
CONTINUOUS
 62
    2
 10
403.79689115283963
 20
1447.0948007338993
 11
403.79689115283963
 21
1452.5948005138932
  0
LINE
  8
_0-0_計極細
  6
CONTINUOUS
 62
    2
 10
363.79689275284818
 20
1447.0948007338993
 11
363.79689275284818
 21
1452.5948005138932
  0
LINE
  8
_0-0_計極細
  6
CONTINUOUS
 62
    2
 10
403.79689115283963
 20
1499.0947986538454
 11
403.79689115283963
 21
1493.594798873851
  0
LINE
  8
_0-0_計極細
  6
CONTINUOUS
 62
    2
 10
363.79689275284818
 20
1499.0947986538454
 11
363.79689275284818
 21
1493.594798873851
  0
LINE
  8
_0-0_計極細
  6
CONTINUOUS
 62
    2
 10
403.79689115283963
 20
1483.5947992738613
 11
403.79689115283963
 21
1478.094799493867
  0
LINE
  8
_0-0_計極細
  6
CONTINUOUS
 62
    2
 10
399.74689375829894
 20
1447.0947982538357
 11
399.74689375829894
 21
1452.5947982538353
  0
LINE
  8
_0-0_計極細
  6
CONTINUOUS
 62
    2
 10
392.84689375817749
 20
1447.0947982538357
 11
392.84689375817749
 21
1452.5947982538353
  0
LINE
  8
_0-0_計極細
  6
CONTINUOUS
 62
    2
 10
399.74689143774697
 20
1499.0947982538344
 11
399.74689374892563
 21
1493.5947982538348
  0
LINE
  8
_0-0_計極細
  6
CONTINUOUS
 62
    2
 10
392.84689146794972
 20
1499.0947982538344
 11
392.84689374892605
 21
1493.5947982538348
  0
LINE
  8
_0-0_計極細
  6
CONTINUOUS
 62
    2
 10
392.84689375817749
 20
1483.5947982538348
 11
392.84689375817749
 21
1481.9947993378717
  0
LINE
  8
_0-0_計極細
  6
CONTINUOUS
 62
    2
 10
392.84689375817749
 20
1480.9947993778719
 11
392.84689375817749
 21
1478.0947982538348
  0
LINE
  8
_0-0_計極細
  6
CONTINUOUS
 62
    2
 10
399.74689375829894
 20
1483.5947982538348
 11
399.74689375829894
 21
1481.9947993378717
  0
LINE
  8
_0-0_計極細
  6
CONTINUOUS
 62
    2
 10
399.74689375829894
 20
1480.9947993778719
 11
399.74689375829894
 21
1478.0947982538348
  0
LINE
  8
_0-0_計極細
  6
CONTINUOUS
 62
    2
 10
392.84689375817749
 20
1462.5947982538353
 11
392.84689375817749
 21
1464.1948000498721
  0
LINE
  8
_0-0_計極細
  6
CONTINUOUS
 62
    2
 10
392.84689375817749
 20
1465.1948000098721
 11
392.84689375817749
 21
1468.0947982538348
  0
LINE
  8
_0-0_計極細
  6
CONTINUOUS
 62
    2
 10
399.74689375829894
 20
1462.5947982538353
 11
399.74689375829894
 21
1464.1948000498721
  0
LINE
  8
_0-0_計極細
  6
CONTINUOUS
 62
    2
 10
399.74689375829894
 20
1465.1948000098721
 11
399.74689375829894
 21
1468.0947982538348
  0
LINE
  8
_0-0_計極細
  6
CONTINUOUS
 62
    2
 10
360.2968929128474
 20
1463.1948000898724
 11
369.29689255284842
 21
1463.1948000898724
  0
LINE
  8
_0-0_計極細
  6
CONTINUOUS
 62
    2
 10
360.2968929128474
 20
1463.1948000898724
 11
360.2968929128474
 21
1464.1948000498721
  0
LINE
  8
_0-0_計極細
  6
CONTINUOUS
 62
    2
 10
369.29689255284842
 20
1463.1948000898724
 11
369.29689255284842
 21
1464.1948000498721
  0
LINE
  8
_0-0_計極細
  6
CONTINUOUS
 62
    2
 10
360.2968929128474
 20
1482.9947992978723
 11
369.29689255284842
 21
1482.9947992978723
  0
LINE
  8
_0-0_計極細
  6
CONTINUOUS
 62
    2
 10
360.2968929128474
 20
1482.9947992978723
 11
360.2968929128474
 21
1481.9947993378717
  0
LINE
  8
_0-0_計極細
  6
CONTINUOUS
 62
    2
 10
369.29689255284842
 20
1482.9947992978723
 11
369.29689255284842
 21
1481.9947993378717
  0
LINE
  8
_0-1_計細線
  6
CONTINUOUS
 62
    3
 10
401.29689127284746
 20
1480.9947993778719
 11
401.29689127284746
 21
1481.9947993378717
  0
LINE
  8
_0-1_計細線
  6
CONTINUOUS
 62
    3
 10
388.49689178484823
 20
1480.9947993778719
 11
401.29689127284746
 21
1480.9947993778719
  0
LINE
  8
_0-1_計細線
  6
CONTINUOUS
 62
    3
 10
401.29689127284746
 20
1481.9947993378717
 11
359.29689295284788
 21
1481.9947993378717
  0
LINE
  8
_0-1_計細線
  6
CONTINUOUS
 62
    3
 10
359.29689295284788
 20
1464.1948000498721
 11
401.29689127284746
 21
1464.1948000498721
  0
LINE
  8
_0-1_計細線
  6
CONTINUOUS
 62
    3
 10
401.29689127284746
 20
1465.1948000098721
 11
388.49689178484823
 21
1465.1948000098721
  0
LINE
  8
_0-1_計細線
  6
CONTINUOUS
 62
    3
 10
401.29689127284746
 20
1464.1948000498721
 11
401.29689127284746
 21
1465.1948000098721
  0
LINE
  8
_0-1_計細線
  6
CONTINUOUS
 62
    3
 10
388.49689178484823
 20
1464.1948000498721
 11
388.49689178484823
 21
1481.9947993378717
  0
LINE
  8
_0-1_計細線
  6
CONTINUOUS
 62
    3
 10
359.29689295284788
 20
1481.9947993378717
 11
359.29689295284788
 21
1464.1948000498721
  0
LINE
  8
_0-1_計細線
  6
CONTINUOUS
 62
    3
 10
390.79689167284869
 20
1478.094799493867
 11
390.79689167284869
 21
1468.0947998938771
  0
CIRCLE
  8
_0-5_寸法線
  6
CONTINUOUS
 62
    7
 10
375.80295281848066
 20
1473.0947996938719
 40
32.624478443415455
  0
LINE
  8
_0-0_計極細
  6
CONTINUOUS
 62
    2
 10
363.79689275284818
 20
1483.5947992738613
 11
363.79689275284818
 21
1482.9947992978723
  0
LINE
  8
_0-0_計極細
  6
CONTINUOUS
 62
    2
 10
363.79689275284818
 20
1463.1948000898724
 11
363.79689275284818
 21
1462.5948001138827
  0
LINE
  8
_0-1_計細線
  6
CONTINUOUS
 62
    3
 10
2329.2968934329019
 20
1482.5947978738309
 11
2329.2968934329019
 21
1473.5947982338346
  0
LINE
  8
_0-0_計極細
  6
CENTER1
 62
    2
 10
344.12543377506438
 20
1473.0947982538348
 11
2341.1541544016982
 21
1473.0947982538348
  0
LINE
  8
_0-1_計細線
  6
CONTINUOUS
 62
    3
 10
2332.2968930328898
 20
1432.0947982538348
 11
2332.2968930328898
 21
1514.0947982538351
  0
LINE
  8
_0-1_計細線
  6
CONTINUOUS
 62
    3
 10
2332.2968930328898
 20
1514.0947982538351
 11
352.29689303288978
 21
1514.0947982538351
  0
LINE
  8
_0-1_計細線
  6
CONTINUOUS
 62
    3
 10
352.29689303288978
 20
1514.0947982538351
 11
352.29689303288978
 21
1432.0947982538348
  0
LINE
  8
_0-1_計細線
  6
CONTINUOUS
 62
    3
 10
352.29689303288978
 20
1432.0947982538348
 11
2332.2968930328898
 21
1432.0947982538348
  0
LINE
  8
_0-1_計細線
  6
CONTINUOUS
 62
    3
 10
355.2968930328899
 20
1511.0947982538348
 11
355.2968930328899
 21
1435.0947982538351
  0
LINE
  8
_0-1_計細線
  6
CONTINUOUS
 62
    3
 10
355.2968930328899
 20
1435.0947982538351
 11
2329.2968930328898
 21
1435.0947982538351
  0
LINE
  8
_0-1_計細線
  6
CONTINUOUS
 62
    3
 10
2329.2968930328898
 20
1435.0947982538351
 11
2329.2968930328898
 21
1511.0947982538348
  0
LINE
  8
_0-1_計細線
  6
CONTINUOUS
 62
    3
 10
2329.2968930328898
 20
1511.0947982538348
 11
355.2968930328899
 21
1511.0947982538348
  0
LINE
  8
_0-5_寸法線
  6
CONTINUOUS
 62
    7
 10
1000.5346580839728
 20
1442.7774221106436
 11
1000.5346580839727
 21
1422.7774221106436
  0
LINE
  8
_0-5_寸法線
  6
CONTINUOUS
 62
    7
 10
1000.5346580839728
 20
1442.7774221106436
 11
990.53465808397277
 21
1425.4569140349552
  0
LINE
  8
_0-5_寸法線
  6
CONTINUOUS
 62
    7
 10
1000.5346580839728
 20
1442.7774221106436
 11
976.23632225400479
 21
1352.0947982538348
  0
LINE
  8
_0-5_寸法線
  6
CONTINUOUS
 62
    7
 10
976.23632225400479
 20
1352.0947982538348
 11
904.23632225400513
 21
1352.0947982538348
  0
TEXT
  8
_0-5_寸法線
 62
    7
 10
904.23632225400479
 20
1352.0947982538348
 40
30
 41
0.7999999999999998
 50
0
  1
上フタ
  0
TEXT
  8
_0-5_寸法線
 62
    7
 10
280.84447873510908
 20
1433.9641784203923
 40
30
 41
1
 50
0
  1
Ｂ部
  0
LINE
  8
_0-0_計極細
  6
CONTINUOUS
 62
    2
 10
669.74689304226467
 20
1447.0947982538357
 11
669.74689304226467
 21
1452.5947982538353
  0
LINE
  8
_0-0_計極細
  6
CONTINUOUS
 62
    2
 10
662.84689304214226
 20
1447.0947982538357
 11
662.84689304214226
 21
1452.5947982538353
  0
LINE
  8
_0-0_計極細
  6
CONTINUOUS
 62
    2
 10
669.74689304226467
 20
1462.5947982538353
 11
669.74689304226467
 21
1468.0947982538348
  0
LINE
  8
_0-0_計極細
  6
CONTINUOUS
 62
    2
 10
662.84689304214226
 20
1462.5947982538353
 11
662.84689304214226
 21
1468.0947982538348
  0
LINE
  8
_0-0_計極細
  6
CONTINUOUS
 62
    2
 10
669.74689304226467
 20
1483.5947982538348
 11
669.74689304226467
 21
1478.0947982538348
  0
LINE
  8
_0-0_計極細
  6
CONTINUOUS
 62
    2
 10
662.84689304214226
 20
1483.5947982538348
 11
662.84689304214226
 21
1478.0947982538348
  0
LINE
  8
_0-0_計極細
  6
CONTINUOUS
 62
    2
 10
669.74689072171168
 20
1499.0947982538344
 11
669.74689303289051
 21
1493.5947982538348
  0
LINE
  8
_0-0_計極細
  6
CONTINUOUS
 62
    2
 10
662.84689075191545
 20
1499.0947982538344
 11
662.84689303289088
 21
1493.5947982538348
  0
LINE
  8
_0-0_計極細
  6
CONTINUOUS
 62
    2
 10
673.79689273288204
 20
1462.5947986738456
 11
673.79689273288204
 21
1468.09479845384
  0
LINE
  8
_0-0_計極細
  6
CONTINUOUS
 62
    2
 10
658.79689333289764
 20
1462.5947986738456
 11
658.79689333289764
 21
1468.09479845384
  0
LINE
  8
_0-0_計極細
  6
CONTINUOUS
 62
    2
 10
673.79689273288204
 20
1447.0947992938618
 11
673.79689273288204
 21
1452.5947990738562
  0
LINE
  8
_0-0_計極細
  6
CONTINUOUS
 62
    2
 10
658.79689333289764
 20
1447.0947992938618
 11
658.79689333289764
 21
1452.5947990738562
  0
LINE
  8
_0-0_計極細
  6
CONTINUOUS
 62
    2
 10
673.79689273288204
 20
1499.0947972138079
 11
673.79689273288204
 21
1493.5947974338139
  0
LINE
  8
_0-0_計極細
  6
CONTINUOUS
 62
    2
 10
658.79689333289764
 20
1499.0947972138079
 11
658.79689333289764
 21
1493.5947974338139
  0
LINE
  8
_0-0_計極細
  6
CONTINUOUS
 62
    2
 10
673.79689273288204
 20
1483.5947978338243
 11
673.79689273288204
 21
1478.0947980538299
  0
LINE
  8
_0-0_計極細
  6
CONTINUOUS
 62
    2
 10
658.79689333289764
 20
1483.5947978338243
 11
658.79689333289764
 21
1478.0947980538299
  0
LINE
  8
_0-5_寸法線
  6
CONTINUOUS
 62
    7
 10
666.29303943790194
 20
1383.7720943229735
 11
685.61155596368326
 21
1388.9484752250241
  0
LINE
  8
_0-5_寸法線
  6
CONTINUOUS
 62
    7
 10
666.29303943790194
 20
1383.7720943229735
 11
685.61155596368326
 21
1378.5957134209232
  0
LINE
  8
_0-5_寸法線
  6
CONTINUOUS
 62
    7
 10
666.29303943790194
 20
1383.7720943229735
 11
746.86156291183033
 21
1383.7720943229735
  0
LINE
  8
_0-5_寸法線
  6
CONTINUOUS
 62
    7
 10
746.86156291183033
 20
1383.7720943229735
 11
666.29689303288978
 21
1383.7720943229735
  0
LINE
  8
_0-5_寸法線
  6
CONTINUOUS
 62
    7
 10
666.29303943790194
 20
1544.8280633010068
 11
685.61155596368326
 21
1550.0044442030571
  0
LINE
  8
_0-5_寸法線
  6
CONTINUOUS
 62
    7
 10
666.29303943790194
 20
1544.8280633010068
 11
685.61155596368326
 21
1539.6516823989566
  0
LINE
  8
_0-5_寸法線
  6
CONTINUOUS
 62
    7
 10
666.29303943790194
 20
1544.8280633010068
 11
746.86156291183033
 21
1544.8280633010068
  0
LINE
  8
_0-5_寸法線
  6
CONTINUOUS
 62
    7
 10
746.86156291183033
 20
1544.8280633010068
 11
668.67895010399752
 21
1544.8280633010068
  0
LINE
  8
_0-0_計極細
  6
CENTER1
 62
    2
 10
666.29689303288978
 20
1556.3977033678532
 11
666.29689303288978
 21
1370.3616607764732
  0
LINE
  8
_0-0_計極細
  6
CONTINUOUS
 62
    2
 10
939.74689304226467
 20
1447.0947982538357
 11
939.74689304226467
 21
1452.5947982538353
  0
LINE
  8
_0-0_計極細
  6
CONTINUOUS
 62
    2
 10
932.84689304214226
 20
1447.0947982538357
 11
932.84689304214226
 21
1452.5947982538353
  0
LINE
  8
_0-0_計極細
  6
CONTINUOUS
 62
    2
 10
939.74689304226467
 20
1462.5947982538353
 11
939.74689304226467
 21
1468.0947982538348
  0
LINE
  8
_0-0_計極細
  6
CONTINUOUS
 62
    2
 10
932.84689304214226
 20
1462.5947982538353
 11
932.84689304214226
 21
1468.0947982538348
  0
LINE
  8
_0-0_計極細
  6
CONTINUOUS
 62
    2
 10
939.74689304226467
 20
1483.5947982538348
 11
939.74689304226467
 21
1478.0947982538348
  0
LINE
  8
_0-0_計極細
  6
CONTINUOUS
 62
    2
 10
932.84689304214226
 20
1483.5947982538348
 11
932.84689304214226
 21
1478.0947982538348
  0
LINE
  8
_0-0_計極細
  6
CONTINUOUS
 62
    2
 10
939.74689072171168
 20
1499.0947982538344
 11
939.74689303289051
 21
1493.5947982538348
  0
LINE
  8
_0-0_計極細
  6
CONTINUOUS
 62
    2
 10
932.84689075191545
 20
1499.0947982538344
 11
932.84689303289099
 21
1493.5947982538348
  0
LINE
  8
_0-0_計極細
  6
CONTINUOUS
 62
    2
 10
943.79689273288204
 20
1462.5947986738456
 11
943.79689273288204
 21
1468.09479845384
  0
LINE
  8
_0-0_計極細
  6
CONTINUOUS
 62
    2
 10
928.79689333289764
 20
1462.5947986738456
 11
928.79689333289764
 21
1468.09479845384
  0
LINE
  8
_0-0_計極細
  6
CONTINUOUS
 62
    2
 10
943.79689273288204
 20
1447.0947992938618
 11
943.79689273288204
 21
1452.5947990738562
  0
LINE
  8
_0-0_計極細
  6
CONTINUOUS
 62
    2
 10
928.79689333289764
 20
1447.0947992938618
 11
928.79689333289764
 21
1452.5947990738562
  0
LINE
  8
_0-0_計極細
  6
CONTINUOUS
 62
    2
 10
943.79689273288204
 20
1499.0947972138079
 11
943.79689273288204
 21
1493.5947974338139
  0
LINE
  8
_0-0_計極細
  6
CONTINUOUS
 62
    2
 10
928.79689333289764
 20
1499.0947972138079
 11
928.79689333289764
 21
1493.5947974338139
  0
LINE
  8
_0-0_計極細
  6
CONTINUOUS
 62
    2
 10
943.79689273288204
 20
1483.5947978338243
 11
943.79689273288204
 21
1478.0947980538299
  0
LINE
  8
_0-0_計極細
  6
CONTINUOUS
 62
    2
 10
928.79689333289764
 20
1483.5947978338243
 11
928.79689333289764
 21
1478.0947980538299
  0
LINE
  8
_0-0_計極細
  6
CONTINUOUS
 62
    2
 10
1210.7468930422647
 20
1447.0947982538357
 11
1210.7468930422647
 21
1452.5947982538353
  0
LINE
  8
_0-0_計極細
  6
CONTINUOUS
 62
    2
 10
1203.8468930421423
 20
1447.0947982538357
 11
1203.8468930421423
 21
1452.5947982538353
  0
LINE
  8
_0-0_計極細
  6
CONTINUOUS
 62
    2
 10
1210.7468930422647
 20
1462.5947982538353
 11
1210.7468930422647
 21
1468.0947982538348
  0
LINE
  8
_0-0_計極細
  6
CONTINUOUS
 62
    2
 10
1203.8468930421423
 20
1462.5947982538353
 11
1203.8468930421423
 21
1468.0947982538348
  0
LINE
  8
_0-0_計極細
  6
CONTINUOUS
 62
    2
 10
1210.7468930422647
 20
1483.5947982538348
 11
1210.7468930422647
 21
1478.0947982538348
  0
LINE
  8
_0-0_計極細
  6
CONTINUOUS
 62
    2
 10
1203.8468930421423
 20
1483.5947982538348
 11
1203.8468930421423
 21
1478.0947982538348
  0
LINE
  8
_0-0_計極細
  6
CONTINUOUS
 62
    2
 10
1210.7468907217117
 20
1499.0947982538344
 11
1210.7468930328905
 21
1493.5947982538348
  0
LINE
  8
_0-0_計極細
  6
CONTINUOUS
 62
    2
 10
1203.8468907519155
 20
1499.0947982538344
 11
1203.8468930328909
 21
1493.5947982538348
  0
LINE
  8
_0-0_計極細
  6
CONTINUOUS
 62
    2
 10
1214.796892732882
 20
1462.5947986738456
 11
1214.796892732882
 21
1468.09479845384
  0
LINE
  8
_0-0_計極細
  6
CONTINUOUS
 62
    2
 10
1199.7968933328975
 20
1462.5947986738456
 11
1199.7968933328975
 21
1468.09479845384
  0
LINE
  8
_0-0_計極細
  6
CONTINUOUS
 62
    2
 10
1214.796892732882
 20
1447.0947992938618
 11
1214.796892732882
 21
1452.5947990738562
  0
LINE
  8
_0-0_計極細
  6
CONTINUOUS
 62
    2
 10
1199.7968933328975
 20
1447.0947992938618
 11
1199.7968933328975
 21
1452.5947990738562
  0
LINE
  8
_0-0_計極細
  6
CONTINUOUS
 62
    2
 10
1214.796892732882
 20
1499.0947972138079
 11
1214.796892732882
 21
1493.5947974338139
  0
LINE
  8
_0-0_計極細
  6
CONTINUOUS
 62
    2
 10
1199.7968933328975
 20
1499.0947972138079
 11
1199.7968933328975
 21
1493.5947974338139
  0
LINE
  8
_0-0_計極細
  6
CONTINUOUS
 62
    2
 10
1214.796892732882
 20
1483.5947978338243
 11
1214.796892732882
 21
1478.0947980538299
  0
LINE
  8
_0-0_計極細
  6
CONTINUOUS
 62
    2
 10
1199.7968933328975
 20
1483.5947978338243
 11
1199.7968933328975
 21
1478.0947980538299
  0
LINE
  8
_0-0_計極細
  6
CONTINUOUS
 62
    2
 10
1480.7468930422647
 20
1447.0947982538357
 11
1480.7468930422647
 21
1452.5947982538353
  0
LINE
  8
_0-0_計極細
  6
CONTINUOUS
 62
    2
 10
1473.8468930421423
 20
1447.0947982538357
 11
1473.8468930421423
 21
1452.5947982538353
  0
LINE
  8
_0-0_計極細
  6
CONTINUOUS
 62
    2
 10
1480.7468930422647
 20
1462.5947982538353
 11
1480.7468930422647
 21
1468.0947982538348
  0
LINE
  8
_0-0_計極細
  6
CONTINUOUS
 62
    2
 10
1473.8468930421423
 20
1462.5947982538353
 11
1473.8468930421423
 21
1468.0947982538348
  0
LINE
  8
_0-0_計極細
  6
CONTINUOUS
 62
    2
 10
1480.7468930422647
 20
1483.5947982538348
 11
1480.7468930422647
 21
1478.0947982538348
  0
LINE
  8
_0-0_計極細
  6
CONTINUOUS
 62
    2
 10
1473.8468930421423
 20
1483.5947982538348
 11
1473.8468930421423
 21
1478.0947982538348
  0
LINE
  8
_0-0_計極細
  6
CONTINUOUS
 62
    2
 10
1480.7468907217117
 20
1499.0947982538344
 11
1480.7468930328905
 21
1493.5947982538348
  0
LINE
  8
_0-0_計極細
  6
CONTINUOUS
 62
    2
 10
1473.8468907519155
 20
1499.0947982538344
 11
1473.8468930328909
 21
1493.5947982538348
  0
LINE
  8
_0-0_計極細
  6
CONTINUOUS
 62
    2
 10
1484.796892732882
 20
1462.5947986738456
 11
1484.796892732882
 21
1468.09479845384
  0
LINE
  8
_0-0_計極細
  6
CONTINUOUS
 62
    2
 10
1469.7968933328978
 20
1462.5947986738456
 11
1469.7968933328978
 21
1468.09479845384
  0
LINE
  8
_0-0_計極細
  6
CONTINUOUS
 62
    2
 10
1484.796892732882
 20
1447.0947992938618
 11
1484.796892732882
 21
1452.5947990738562
  0
LINE
  8
_0-0_計極細
  6
CONTINUOUS
 62
    2
 10
1469.7968933328978
 20
1447.0947992938618
 11
1469.7968933328978
 21
1452.5947990738562
  0
LINE
  8
_0-0_計極細
  6
CONTINUOUS
 62
    2
 10
1484.796892732882
 20
1499.0947972138079
 11
1484.796892732882
 21
1493.5947974338139
  0
LINE
  8
_0-0_計極細
  6
CONTINUOUS
 62
    2
 10
1469.7968933328978
 20
1499.0947972138079
 11
1469.7968933328978
 21
1493.5947974338139
  0
LINE
  8
_0-0_計極細
  6
CONTINUOUS
 62
    2
 10
1484.796892732882
 20
1483.5947978338243
 11
1484.796892732882
 21
1478.0947980538299
  0
LINE
  8
_0-0_計極細
  6
CONTINUOUS
 62
    2
 10
1469.7968933328978
 20
1483.5947978338243
 11
1469.7968933328978
 21
1478.0947980538299
  0
LINE
  8
_0-0_計極細
  6
CONTINUOUS
 62
    2
 10
1751.7468930422649
 20
1447.0947982538357
 11
1751.7468930422649
 21
1452.5947982538353
  0
LINE
  8
_0-0_計極細
  6
CONTINUOUS
 62
    2
 10
1744.8468930421425
 20
1447.0947982538357
 11
1744.8468930421425
 21
1452.5947982538353
  0
LINE
  8
_0-0_計極細
  6
CONTINUOUS
 62
    2
 10
1751.7468930422649
 20
1462.5947982538353
 11
1751.7468930422649
 21
1468.0947982538348
  0
LINE
  8
_0-0_計極細
  6
CONTINUOUS
 62
    2
 10
1744.8468930421425
 20
1462.5947982538353
 11
1744.8468930421425
 21
1468.0947982538348
  0
LINE
  8
_0-0_計極細
  6
CONTINUOUS
 62
    2
 10
1751.7468930422649
 20
1483.5947982538348
 11
1751.7468930422649
 21
1478.0947982538348
  0
LINE
  8
_0-0_計極細
  6
CONTINUOUS
 62
    2
 10
1744.8468930421425
 20
1483.5947982538348
 11
1744.8468930421425
 21
1478.0947982538348
  0
LINE
  8
_0-0_計極細
  6
CONTINUOUS
 62
    2
 10
1751.7468907217119
 20
1499.0947982538344
 11
1751.7468930328905
 21
1493.5947982538348
  0
LINE
  8
_0-0_計極細
  6
CONTINUOUS
 62
    2
 10
1744.8468907519157
 20
1499.0947982538344
 11
1744.8468930328909
 21
1493.5947982538348
  0
LINE
  8
_0-0_計極細
  6
CONTINUOUS
 62
    2
 10
1755.796892732882
 20
1462.5947986738456
 11
1755.796892732882
 21
1468.09479845384
  0
LINE
  8
_0-0_計極細
  6
CONTINUOUS
 62
    2
 10
1740.7968933328975
 20
1462.5947986738456
 11
1740.7968933328975
 21
1468.09479845384
  0
LINE
  8
_0-0_計極細
  6
CONTINUOUS
 62
    2
 10
1755.796892732882
 20
1447.0947992938618
 11
1755.796892732882
 21
1452.5947990738562
  0
LINE
  8
_0-0_計極細
  6
CONTINUOUS
 62
    2
 10
1740.7968933328975
 20
1447.0947992938618
 11
1740.7968933328975
 21
1452.5947990738562
  0
LINE
  8
_0-0_計極細
  6
CONTINUOUS
 62
    2
 10
1755.796892732882
 20
1499.0947972138079
 11
1755.796892732882
 21
1493.5947974338139
  0
LINE
  8
_0-0_計極細
  6
CONTINUOUS
 62
    2
 10
1740.7968933328975
 20
1499.0947972138079
 11
1740.7968933328975
 21
1493.5947974338139
  0
LINE
  8
_0-0_計極細
  6
CONTINUOUS
 62
    2
 10
1755.796892732882
 20
1483.5947978338243
 11
1755.796892732882
 21
1478.0947980538299
  0
LINE
  8
_0-0_計極細
  6
CONTINUOUS
 62
    2
 10
1740.7968933328975
 20
1483.5947978338243
 11
1740.7968933328975
 21
1478.0947980538299
  0
LINE
  8
_0-0_計極細
  6
CONTINUOUS
 62
    2
 10
2021.7468930422649
 20
1447.0947982538357
 11
2021.7468930422649
 21
1452.5947982538353
  0
LINE
  8
_0-0_計極細
  6
CONTINUOUS
 62
    2
 10
2014.8468930421425
 20
1447.0947982538357
 11
2014.8468930421425
 21
1452.5947982538353
  0
LINE
  8
_0-0_計極細
  6
CONTINUOUS
 62
    2
 10
2021.7468930422649
 20
1462.5947982538353
 11
2021.7468930422649
 21
1468.0947982538348
  0
LINE
  8
_0-0_計極細
  6
CONTINUOUS
 62
    2
 10
2014.8468930421425
 20
1462.5947982538353
 11
2014.8468930421425
 21
1468.0947982538348
  0
LINE
  8
_0-0_計極細
  6
CONTINUOUS
 62
    2
 10
2021.7468930422649
 20
1483.5947982538348
 11
2021.7468930422649
 21
1478.0947982538348
  0
LINE
  8
_0-0_計極細
  6
CONTINUOUS
 62
    2
 10
2014.8468930421425
 20
1483.5947982538348
 11
2014.8468930421425
 21
1478.0947982538348
  0
LINE
  8
_0-0_計極細
  6
CONTINUOUS
 62
    2
 10
2021.7468907217119
 20
1499.0947982538344
 11
2021.7468930328905
 21
1493.5947982538348
  0
LINE
  8
_0-0_計極細
  6
CONTINUOUS
 62
    2
 10
2014.8468907519157
 20
1499.0947982538344
 11
2014.8468930328909
 21
1493.5947982538348
  0
LINE
  8
_0-0_計極細
  6
CONTINUOUS
 62
    2
 10
2025.796892732882
 20
1462.5947986738456
 11
2025.796892732882
 21
1468.09479845384
  0
LINE
  8
_0-0_計極細
  6
CONTINUOUS
 62
    2
 10
2010.7968933328975
 20
1462.5947986738456
 11
2010.7968933328975
 21
1468.09479845384
  0
LINE
  8
_0-0_計極細
  6
CONTINUOUS
 62
    2
 10
2025.796892732882
 20
1447.0947992938618
 11
2025.796892732882
 21
1452.5947990738562
  0
LINE
  8
_0-0_計極細
  6
CONTINUOUS
 62
    2
 10
2010.7968933328975
 20
1447.0947992938618
 11
2010.7968933328975
 21
1452.5947990738562
  0
LINE
  8
_0-0_計極細
  6
CONTINUOUS
 62
    2
 10
2025.796892732882
 20
1499.0947972138079
 11
2025.796892732882
 21
1493.5947974338139
  0
LINE
  8
_0-0_計極細
  6
CONTINUOUS
 62
    2
 10
2010.7968933328975
 20
1499.0947972138079
 11
2010.7968933328975
 21
1493.5947974338139
  0
LINE
  8
_0-0_計極細
  6
CONTINUOUS
 62
    2
 10
2025.796892732882
 20
1483.5947978338243
 11
2025.796892732882
 21
1478.0947980538299
  0
LINE
  8
_0-0_計極細
  6
CONTINUOUS
 62
    2
 10
2010.7968933328975
 20
1483.5947978338243
 11
2010.7968933328975
 21
1478.0947980538299
  0
LINE
  8
_0-0_計極細
  6
CENTER1
 62
    2
 10
2552.1620862568934
 20
1473.0947982538348
 11
2663.9822301417853
 21
1473.0947982538348
  0
LINE
  8
_0-1_計細線
  6
CONTINUOUS
 62
    3
 10
2578.8089827611902
 20
1514.0949881808283
 11
2578.8089827611902
 21
1432.0949881808281
  0
LINE
  8
_0-1_計細線
  6
CONTINUOUS
 62
    3
 10
2578.8089827611902
 20
1432.0949881808281
 11
2601.8089827611902
 21
1432.0949881808281
  0
LINE
  8
_0-1_計細線
  6
CONTINUOUS
 62
    3
 10
2601.8089827611902
 20
1432.0949881808281
 11
2601.8089827611902
 21
1514.0949881808283
  0
LINE
  8
_0-1_計細線
  6
CONTINUOUS
 62
    3
 10
2601.8089827611902
 20
1514.0949881808283
 11
2578.8089827611902
 21
1514.0949881808283
  0
TEXT
  8
_0-7_枠細線
 62
    5
 10
2374
 20
235
 40
40
 41
0.6999999999999998
 50
0
  1
１：１０
  0
LINE
  8
_0-5_寸法線
  6
CONTINUOUS
 62
    7
 10
2304.904285607473
 20
1512.6504988630604
 11
2290.7621499837423
 21
1526.7926344867915
  0
LINE
  8
_0-5_寸法線
  6
CONTINUOUS
 62
    7
 10
2304.904285607473
 20
1512.6504988630604
 11
2299.7279047054226
 21
1531.9690153888416
  0
LINE
  8
_0-5_寸法線
  6
CONTINUOUS
 62
    7
 10
2304.904285607473
 20
1512.6504988630604
 11
2290.2140125048677
 21
1538.0947982538351
  0
LINE
  8
_0-5_寸法線
  6
CONTINUOUS
 62
    7
 10
2290.2140125048677
 20
1538.0947982538351
 11
2146.2140125048682
 21
1538.0947982538351
  0
TEXT
  8
_0-5_寸法線
 62
    7
 10
2146.2140125048677
 20
1538.0947982538351
 40
30
 41
0.8000000000000001
 50
0
  1
Ｌアングル枠
  0
LINE
  8
_0-1_計細線
  6
CONTINUOUS
 62
    3
 10
2327.7968930328898
 20
1509.0947982538344
 11
356.79689303288978
 21
1509.0947982538344
  0
LINE
  8
_0-1_計細線
  6
CONTINUOUS
 62
    3
 10
356.79689303288978
 20
1499.0947982538344
 11
2327.7968930328898
 21
1499.0947982538344
  0
LINE
  8
_0-1_計細線
  6
CONTINUOUS
 62
    3
 10
2327.7968930328898
 20
1493.5947982538348
 11
356.79689303288978
 21
1493.5947982538348
  0
LINE
  8
_0-1_計細線
  6
CONTINUOUS
 62
    3
 10
356.79689303288978
 20
1483.5947982538348
 11
2327.7968930328898
 21
1483.5947982538348
  0
LINE
  8
_0-1_計細線
  6
CONTINUOUS
 62
    3
 10
2327.7968930328898
 20
1478.0947982538348
 11
390.79689167284869
 21
1478.0947982538348
  0
LINE
  8
_0-1_計細線
  6
CONTINUOUS
 62
    3
 10
390.79689167284869
 20
1468.0947982538348
 11
2327.7968930328898
 21
1468.0947982538348
  0
LINE
  8
_0-1_計細線
  6
CONTINUOUS
 62
    3
 10
2327.7968930328898
 20
1462.5947982538353
 11
356.79689303288978
 21
1462.5947982538353
  0
LINE
  8
_0-1_計細線
  6
CONTINUOUS
 62
    3
 10
356.79689303288978
 20
1452.5947982538353
 11
2327.7968930328898
 21
1452.5947982538353
  0
LINE
  8
_0-1_計細線
  6
CONTINUOUS
 62
    3
 10
2327.7968930328898
 20
1447.0947982538357
 11
356.79689303288978
 21
1447.0947982538357
  0
LINE
  8
_0-1_計細線
  6
CONTINUOUS
 62
    3
 10
356.79689303288978
 20
1437.0947982538357
 11
2327.7968930328898
 21
1437.0947982538357
  0
LINE
  8
_0-1_計細線
  6
CONTINUOUS
 62
    3
 10
2327.7968930328898
 20
1509.0947982538344
 11
2327.7968930328898
 21
1499.0947982538344
  0
LINE
  8
_0-1_計細線
  6
CONTINUOUS
 62
    3
 10
2327.7968930328898
 20
1493.5947982538348
 11
2327.7968930328898
 21
1483.5947982538348
  0
LINE
  8
_0-1_計細線
  6
CONTINUOUS
 62
    3
 10
2327.7968930328898
 20
1478.0947982538348
 11
2327.7968930328898
 21
1468.0947982538348
  0
LINE
  8
_0-1_計細線
  6
CONTINUOUS
 62
    3
 10
2327.7968930328898
 20
1462.5947982538353
 11
2327.7968930328898
 21
1452.5947982538353
  0
LINE
  8
_0-1_計細線
  6
CONTINUOUS
 62
    3
 10
2327.7968930328898
 20
1447.0947982538357
 11
2327.7968930328898
 21
1437.0947982538357
  0
LINE
  8
_0-0_計極細
  6
CONTINUOUS
 62
    2
 10
2280.7968952191013
 20
1499.0947986538454
 11
2280.7968952191013
 21
1493.594798873851
  0
LINE
  8
_0-0_計極細
  6
CONTINUOUS
 62
    2
 10
2320.7968936190928
 20
1499.0947986538454
 11
2320.7968936190928
 21
1493.594798873851
  0
LINE
  8
_0-0_計極細
  6
CONTINUOUS
 62
    2
 10
2284.8468949341941
 20
1499.0947982538344
 11
2284.8468926230153
 21
1493.5947982538348
  0
LINE
  8
_0-0_計極細
  6
CONTINUOUS
 62
    2
 10
2291.7468949039912
 20
1499.0947982538344
 11
2291.7468926230149
 21
1493.5947982538348
  0
LINE
  8
_0-0_計極細
  6
CONTINUOUS
 62
    2
 10
2280.7968952191013
 20
1483.5947986538458
 11
2280.7968952191013
 21
1478.0947988738515
  0
LINE
  8
_0-0_計極細
  6
CONTINUOUS
 62
    2
 10
2320.7968936190928
 20
1483.5947986538458
 11
2320.7968936190928
 21
1478.0947988738515
  0
LINE
  8
_0-0_計極細
  6
CONTINUOUS
 62
    2
 10
2284.8468949341941
 20
1483.5947982538348
 11
2284.8468926230153
 21
1478.0947982538353
  0
LINE
  8
_0-0_計極細
  6
CONTINUOUS
 62
    2
 10
2291.7468949039912
 20
1483.5947982538348
 11
2291.7468926230149
 21
1478.0947982538353
  0
LINE
  8
_0-0_計極細
  6
CONTINUOUS
 62
    2
 10
2280.7968952191013
 20
1468.0947986538456
 11
2280.7968952191013
 21
1462.5947988738515
  0
LINE
  8
_0-0_計極細
  6
CONTINUOUS
 62
    2
 10
2320.7968936190928
 20
1468.0947986538456
 11
2320.7968936190928
 21
1462.5947988738515
  0
LINE
  8
_0-0_計極細
  6
CONTINUOUS
 62
    2
 10
2284.8468949341941
 20
1468.0947982538348
 11
2284.8468926230153
 21
1462.5947982538353
  0
LINE
  8
_0-0_計極細
  6
CONTINUOUS
 62
    2
 10
2291.7468949039912
 20
1468.0947982538348
 11
2291.7468926230149
 21
1462.5947982538353
  0
LINE
  8
_0-0_計極細
  6
CONTINUOUS
 62
    2
 10
2280.7968952191013
 20
1452.5947986538461
 11
2280.7968952191013
 21
1447.0947988738519
  0
LINE
  8
_0-0_計極細
  6
CONTINUOUS
 62
    2
 10
2320.7968936190928
 20
1452.5947986538461
 11
2320.7968936190928
 21
1447.0947988738519
  0
LINE
  8
_0-0_計極細
  6
CONTINUOUS
 62
    2
 10
2284.8468949341941
 20
1452.5947982538353
 11
2284.8468926230153
 21
1447.0947982538357
  0
LINE
  8
_0-0_計極細
  6
CONTINUOUS
 62
    2
 10
2291.7468949039912
 20
1452.5947982538353
 11
2291.7468926230149
 21
1447.0947982538357
  0
LINE
  8
_0-5_寸法線
  6
CONTINUOUS
 62
    7
 10
375.696422857568
 20
1466.9114609113492
 11
385.696422857568
 21
1449.5909528356603
  0
LINE
  8
_0-5_寸法線
  6
CONTINUOUS
 62
    7
 10
375.696422857568
 20
1466.9114609113492
 11
375.696422857568
 21
1446.9114609113492
  0
LINE
  8
_0-5_寸法線
  6
CONTINUOUS
 62
    7
 10
375.696422857568
 20
1466.9114609113492
 11
406.46145489428545
 21
1352.0947982538348
  0
LINE
  8
_0-5_寸法線
  6
CONTINUOUS
 62
    7
 10
406.46145489428545
 20
1352.0947982538348
 11
502.46145489428557
 21
1352.0947982538348
  0
TEXT
  8
_0-5_寸法線
 62
    7
 10
406.46145489428545
 20
1352.0947982538348
 40
30
 41
0.7999999999999998
 50
0
  1
取外し具
  0
TEXT
  8
_0-7_枠細線
 62
    5
 10
1930.9999999999995
 20
220
 40
40
 41
0.6
 50
0
  1
ＧＳＥ－Ｌ２０００Ｔ
  0
TEXT
  8
_0-7_枠細線
 62
    5
 10
1930.9999999999991
 20
300.00000000000057
 40
40
 41
0.5999999999999998
 50
0
  1
玄関排水Ｌアングル枠仕様 取外し具付
  0
TEXT
  8
_0-7_枠細線
 62
    5
 10
1930.9999999999993
 20
140
 40
40.000000000000007
 41
0.5999999999999997
 50
0
  1
表面形状については記号表参照のこと
  0
TEXT
  8
_0-7_枠細線
 62
    5
 10
1532.996003953642
 20
891.01769674504476
 40
40
 41
0.6000000000000002
 50
0
  1
Ｓ＝１：２
  0
TEXT
  8
_0-7_枠細線
 62
    5
 10
1313.4519147084393
 20
891.01769674504476
 40
40
 41
0.8
 50
0
  1
Ｂ部詳細図
  0
LINE
  8
_1-2_極細2
  6
CENTER1
 62
    2
 10
1423.5071823026037
 20
720.14056318860651
 11
1448.2999778905701
 21
661.73239704731043
  0
CIRCLE
  8
_1-2_極細2
  6
DASHED2
 62
    2
 10
1437.5078353459917
 20
687.15709159326411
 40
15
  0
LINE
  8
_1-2_極細2
  6
CENTER1
 62
    2
 10
1465.1093481629828
 20
698.87323867336295
 11
1413.6186133259325
 21
677.01671846690874
  0
LINE
  8
_1-2_極細2
  6
DASHED2
 62
    2
 10
1515.494905645683
 20
591.52693420292212
 11
1457.5666120356736
 21
591.52693420292212
  0
LINE
  8
_1-2_極細2
  6
DASHED2
 62
    2
 10
1457.8297681165582
 20
725.65815064971889
 11
1514.8765128759901
 21
591.26444204566201
  0
LINE
  8
_1-2_極細2
  6
CONTINUOUS
 62
    2
 10
1522.5666120356736
 20
507.5269352029228
 11
1522.5666120356736
 21
511.02693520292343
  0
LINE
  8
_1-2_極細2
  6
CONTINUOUS
 62
    2
 10
1457.5666120356736
 20
540.72851929500735
 11
1457.5666120356736
 21
511.02693420292263
  0
LINE
  8
_1-2_極細2
  6
CONTINUOUS
 62
    2
 10
1322.5666120356732
 20
511.02693520292343
 11
1322.5666120356732
 21
507.5269352029228
  0
LINE
  8
_1-2_極細2
  6
CONTINUOUS
 62
    2
 10
1322.5666120356732
 20
511.02693520292343
 11
1522.5666096856735
 21
511.02693520292343
  0
LINE
  8
_1-2_極細2
  6
CONTINUOUS
 62
    2
 10
1322.5666120356732
 20
507.5269352029228
 11
1522.5666096856735
 21
507.5269352029228
  0
LINE
  8
_1-2_極細2
  6
CONTINUOUS
 62
    2
 10
1325.1315454183555
 20
511.02693520292343
 11
1395.1315454183555
 21
511.02693520292343
  0
LINE
  8
_1-2_極細2
  6
DASHED2
 62
    2
 10
1457.5666120356736
 20
591.52693420292212
 11
1457.5666120356736
 21
540.72851929500735
  0
LINE
  8
_1-5_寸法2
  6
CONTINUOUS
 62
    7
 10
1402.8026527458292
 20
627.7777449357618
 11
1384.8444199050437
 21
618.97423011291585
  0
ARC
  8
_1-5_寸法2
  6
CONTINUOUS
 62
    7
 10
1485.0666120356736
 20
533.52693420292258
 40
125.10225546263484
 50
131.11509464913792
 51
160.1952802838328
  0
LINE
  8
_1-5_寸法2
  6
CONTINUOUS
 62
    7
 10
1367.3637968952335
 20
575.9135079008995
 11
1369.0389954699526
 21
595.84322715971643
  0
LINE
  8
_1-5_寸法2
  6
CONTINUOUS
 62
    7
 10
1367.3637968952335
 20
575.9135079008995
 11
1378.7794210467314
 21
592.3355517819673
  0
LINE
  8
_1-5_寸法2
  6
CONTINUOUS
 62
    7
 10
1402.8026527458292
 20
627.7777449357618
 11
1391.6521243100556
 21
611.17456103619065
  0
LINE
  8
_1-3_細線2
  6
CONTINUOUS
 62
    4
 10
1523.2112404861782
 20
552.43426929734756
 11
1507.9727264750982
 21
588.33395858199242
  0
LINE
  8
_1-3_細線2
  6
CONTINUOUS
 62
    4
 10
1399.8846166322642
 20
676.61878463156665
 11
1464.3552528329933
 21
524.73548381191381
  0
ARC
  8
_1-3_細線2
  6
CONTINUOUS
 62
    4
 10
1485.0666120356736
 20
533.52693420292258
 40
22.5
 50
202.99999999999864
 51
292.99999999999977
  0
LINE
  8
_1-3_細線2
  6
CONTINUOUS
 62
    4
 10
1493.8580624266824
 20
512.81557500024223
 11
1509.9668973620992
 21
519.65336974880461
  0
ARC
  8
_1-3_細線2
  6
CONTINUOUS
 62
    4
 10
1500.1986191498672
 20
542.66599108511559
 40
25
 50
292.99999999999989
 51
22.999999999998213
  0
LINE
  8
_1-3_細線2
  6
CONTINUOUS
 62
    4
 10
1519.4790371432537
 20
593.2180976881084
 11
1462.4322923838195
 21
727.61180629216528
  0
LINE
  8
_1-3_細線2
  6
CONTINUOUS
 62
    4
 10
1507.9727264750982
 20
588.33395858199242
 11
1519.4790371432537
 21
593.2180976881084
  0
LINE
  8
_1-3_細線2
  6
CONTINUOUS
 62
    4
 10
1462.4322923838195
 20
727.61180629216528
 11
1411.8045254439335
 21
706.12159422525497
  0
CIRCLE
  8
_1-3_細線2
  6
CONTINUOUS
 62
    4
 10
1437.5078353459917
 20
687.15709159326411
 40
8.75
  0
ARC
  8
_1-3_細線2
  6
CONTINUOUS
 62
    4
 10
1420.5959758349427
 20
685.41023502257542
 40
22.5
 50
113.00000000000134
 51
202.9999999999992
  0
CIRCLE
  8
_1-3_細線2
  6
CONTINUOUS
 62
    4
 10
1437.5078353459917
 20
687.15709159326411
 40
22.5
  0
LINE
  8
_1-2_極細2
  6
CONTINUOUS
 62
    2
 10
1600.3448992493236
 20
591.52693420292212
 11
1515.494905645683
 21
591.52693420292212
  0
LINE
  8
_1-2_極細2
  6
CONTINUOUS
 62
    2
 10
1457.5666120356736
 20
511.02693420292263
 11
1629.4472149417697
 21
511.02693420292263
  0
LINE
  8
_1-2_極細2
  6
CONTINUOUS
 62
    2
 10
1612.2556075215425
 20
616.2260407999172
 11
1612.0748720637289
 21
615.90688036292181
  0
LINE
  8
_1-2_極細2
  6
CONTINUOUS
 62
    2
 10
1612.0748720637289
 20
615.90688036292181
 11
1611.5378538550021
 21
614.95809791232443
  0
LINE
  8
_1-2_極細2
  6
CONTINUOUS
 62
    2
 10
1611.5378538550021
 20
614.95809791232443
 11
1610.6614289156323
 21
613.40551332524842
  0
LINE
  8
_1-2_極細2
  6
CONTINUOUS
 62
    2
 10
1610.6614289156323
 20
613.40551332524842
 11
1609.477545460486
 21
611.29125888883186
  0
LINE
  8
_1-2_極細2
  6
CONTINUOUS
 62
    2
 10
1609.477545460486
 20
611.29125888883186
 11
1608.0371871491798
 21
608.67249887321282
  0
LINE
  8
_1-2_極細2
  6
CONTINUOUS
 62
    2
 10
1608.0371871491798
 20
608.67249887321282
 11
1606.4129077423695
 21
605.61976374245899
  0
LINE
  8
_1-2_極細2
  6
CONTINUOUS
 62
    2
 10
1606.4129077423695
 20
605.61976374245899
 11
1604.698008208095
 21
602.21499489956773
  0
LINE
  8
_1-2_極細2
  6
CONTINUOUS
 62
    2
 10
1604.698008208095
 20
602.21499489956773
 11
1603.0011058041373
 21
598.54938783469015
  0
LINE
  8
_1-2_極細2
  6
CONTINUOUS
 62
    2
 10
1603.0011058041373
 20
598.54938783469015
 11
1601.435971833896
 21
594.72109987430349
  0
LINE
  8
_1-2_極細2
  6
CONTINUOUS
 62
    2
 10
1601.435971833896
 20
594.72109987430349
 11
1600.1078155406526
 21
590.832860633309
  0
LINE
  8
_1-2_極細2
  6
CONTINUOUS
 62
    2
 10
1600.1078155406526
 20
590.832860633309
 11
1599.098333747645
 21
586.98949756926459
  0
LINE
  8
_1-2_極細2
  6
CONTINUOUS
 62
    2
 10
1599.098333747645
 20
586.98949756926459
 11
1598.4525221629156
 21
583.29537391846748
  0
LINE
  8
_1-2_極細2
  6
CONTINUOUS
 62
    2
 10
1598.4525221629156
 20
583.29537391846748
 11
1598.1702500902475
 21
579.85173722195759
  0
LINE
  8
_1-2_極細2
  6
CONTINUOUS
 62
    2
 10
1598.1702500902475
 20
579.85173722195759
 11
1598.2048873724534
 21
576.753994904926
  0
LINE
  8
_1-2_極細2
  6
CONTINUOUS
 62
    2
 10
1598.2048873724534
 20
576.753994904926
 11
1598.4699656135717
 21
574.08896559735899
  0
LINE
  8
_1-2_極細2
  6
CONTINUOUS
 62
    2
 10
1598.4699656135717
 20
574.08896559735899
 11
1598.8532280612276
 21
571.93219375905005
  0
LINE
  8
_1-2_極細2
  6
CONTINUOUS
 62
    2
 10
1598.8532280612276
 20
571.93219375905005
 11
1599.2358337996984
 21
570.34545108035684
  0
LINE
  8
_1-2_極細2
  6
CONTINUOUS
 62
    2
 10
1599.2358337996984
 20
570.34545108035684
 11
1599.5132955340296
 21
569.37457140766332
  0
LINE
  8
_1-2_極細2
  6
CONTINUOUS
 62
    2
 10
1599.5132955340296
 20
569.37457140766332
 11
1599.6142277447029
 21
569.0477691949784
  0
LINE
  8
_1-2_極細2
  6
CONTINUOUS
 62
    2
 10
1599.6142277447029
 20
569.0477691949784
 11
1599.7190146175058
 21
568.72086200422791
  0
LINE
  8
_1-2_極細2
  6
CONTINUOUS
 62
    2
 10
1599.7190146175058
 20
568.72086200422791
 11
1600.0528342430744
 21
567.748428680252
  0
LINE
  8
_1-2_極細2
  6
CONTINUOUS
 62
    2
 10
1600.0528342430744
 20
567.748428680252
 11
1600.6681165960276
 21
566.15512285962586
  0
LINE
  8
_1-2_極細2
  6
CONTINUOUS
 62
    2
 10
1600.6681165960276
 20
566.15512285962586
 11
1601.6338932670601
 21
563.98134719762243
  0
LINE
  8
_1-2_極細2
  6
CONTINUOUS
 62
    2
 10
1601.6338932670601
 20
563.98134719762243
 11
1603.0130649233001
 21
561.28227783680677
  0
LINE
  8
_1-2_極細2
  6
CONTINUOUS
 62
    2
 10
1603.0130649233001
 20
561.28227783680677
 11
1604.8389692313617
 21
558.12659200112807
  0
LINE
  8
_1-2_極細2
  6
CONTINUOUS
 62
    2
 10
1604.8389692313617
 20
558.12659200112807
 11
1607.0971452532581
 21
554.59495971956676
  0
LINE
  8
_1-2_極細2
  6
CONTINUOUS
 62
    2
 10
1607.0971452532581
 20
554.59495971956676
 11
1609.7169922891726
 21
550.7783424704096
  0
LINE
  8
_1-2_極細2
  6
CONTINUOUS
 62
    2
 10
1609.7169922891726
 20
550.7783424704096
 11
1612.5756797995291
 21
546.77611204474954
  0
LINE
  8
_1-2_極細2
  6
CONTINUOUS
 62
    2
 10
1612.5756797995291
 20
546.77611204474954
 11
1615.5137436554833
 21
542.69397160406629
  0
LINE
  8
_1-2_極細2
  6
CONTINUOUS
 62
    2
 10
1615.5137436554833
 20
542.69397160406629
 11
1618.3590062279245
 21
538.64163862801411
  0
LINE
  8
_1-2_極細2
  6
CONTINUOUS
 62
    2
 10
1618.3590062279245
 20
538.64163862801411
 11
1620.9534581883395
 21
534.7302456668283
  0
LINE
  8
_1-2_極細2
  6
CONTINUOUS
 62
    2
 10
1620.9534581883395
 20
534.7302456668283
 11
1623.1770209476281
 21
531.0694349305968
  0
LINE
  8
_1-2_極細2
  6
CONTINUOUS
 62
    2
 10
1623.1770209476281
 20
531.0694349305968
 11
1624.9628446900579
 21
527.76416638758076
  0
LINE
  8
_1-2_極細2
  6
CONTINUOUS
 62
    2
 10
1624.9628446900579
 20
527.76416638758076
 11
1626.3008118288394
 21
524.91131967411525
  0
LINE
  8
_1-2_極細2
  6
CONTINUOUS
 62
    2
 10
1626.3008118288394
 20
524.91131967411525
 11
1627.2287251794114
 21
522.59623617640966
  0
LINE
  8
_1-2_極細2
  6
CONTINUOUS
 62
    2
 10
1627.2287251794114
 20
522.59623617640966
 11
1627.8135884871813
 21
520.88940493364601
  0
LINE
  8
_1-2_極細2
  6
CONTINUOUS
 62
    2
 10
1627.8135884871813
 20
520.88940493364601
 11
1628.1277297183942
 21
519.84353084211318
  0
LINE
  8
_1-2_極細2
  6
CONTINUOUS
 62
    2
 10
1628.1277297183942
 20
519.84353084211318
 11
1628.2257113070318
 21
519.49122598510189
  0
LINE
  8
_1-2_極細2
  6
CONTINUOUS
 62
    2
 10
1628.2257113070318
 20
519.49122598510189
 11
1628.3197448872625
 21
519.13867773310903
  0
LINE
  8
_1-2_極細2
  6
CONTINUOUS
 62
    2
 10
1628.3197448872625
 20
519.13867773310903
 11
1628.5761533168306
 21
518.08922605736916
  0
LINE
  8
_1-2_極細2
  6
CONTINUOUS
 62
    2
 10
1628.5761533168306
 20
518.08922605736916
 11
1628.922583490878
 21
516.36747433425637
  0
LINE
  8
_1-2_極細2
  6
CONTINUOUS
 62
    2
 10
1628.922583490878
 20
516.36747433425637
 11
1629.2532625574904
 21
514.01445864625134
  0
LINE
  8
_1-2_極細2
  6
CONTINUOUS
 62
    2
 10
1629.2532625574904
 20
514.01445864625134
 11
1629.4481652459103
 21
511.08753061057058
  0
LINE
  8
_1-2_極細2
  6
CONTINUOUS
 62
    2
 10
1629.4481652459103
 20
511.08753061057058
 11
1629.3944115070462
 21
507.65990851197267
  0
LINE
  8
_1-2_極細2
  6
CONTINUOUS
 62
    2
 10
1629.3944115070462
 20
507.65990851197267
 11
1629.0058777131594
 21
503.81969767297443
  0
LINE
  8
_1-2_極細2
  6
CONTINUOUS
 62
    2
 10
1629.0058777131594
 20
503.81969767297443
 11
1628.2375196044768
 21
499.66822416849419
  0
LINE
  8
_1-2_極細2
  6
CONTINUOUS
 62
    2
 10
1628.2375196044768
 20
499.66822416849419
 11
1627.0921204607748
 21
495.31761064603199
  0
LINE
  8
_1-2_極細2
  6
CONTINUOUS
 62
    2
 10
1627.0921204607748
 20
495.31761064603199
 11
1625.6188052988773
 21
490.8876311320426
  0
LINE
  8
_1-2_極細2
  6
CONTINUOUS
 62
    2
 10
1625.6188052988773
 20
490.8876311320426
 11
1623.9043290400264
 21
486.50199016284631
  0
LINE
  8
_1-2_極細2
  6
CONTINUOUS
 62
    2
 10
1623.9043290400264
 20
486.50199016284631
 11
1622.059485036616
 21
482.2842575322573
  0
LINE
  8
_1-2_極細2
  6
CONTINUOUS
 62
    2
 10
1622.059485036616
 20
482.2842575322573
 11
1620.203710518515
 21
478.35373609220682
  0
LINE
  8
_1-2_極細2
  6
CONTINUOUS
 62
    2
 10
1620.203710518515
 20
478.35373609220682
 11
1618.4509595250029
 21
474.82153847254921
  0
LINE
  8
_1-2_極細2
  6
CONTINUOUS
 62
    2
 10
1618.4509595250029
 20
474.82153847254921
 11
1616.8992211435398
 21
471.78710237616707
  0
LINE
  8
_1-2_極細2
  6
CONTINUOUS
 62
    2
 10
1616.8992211435398
 20
471.78710237616707
 11
1615.6248909868873
 21
469.3352962543525
  0
LINE
  8
_1-2_極細2
  6
CONTINUOUS
 62
    2
 10
1615.6248909868873
 20
469.3352962543525
 11
1614.6818714379128
 21
467.53417720071837
  0
LINE
  8
_1-2_極細2
  6
CONTINUOUS
 62
    2
 10
1614.6818714379128
 20
467.53417720071837
 11
1614.1041215300652
 21
466.43338197951846
  0
LINE
  8
_1-2_極細2
  6
CONTINUOUS
 62
    2
 10
1614.1041215300652
 20
466.43338197951846
 11
1613.9096821576459
 21
466.06307783695394
  0
LINE
  8
_1-5_寸法2
  6
CONTINUOUS
 62
    7
 10
1532.9795186984109
 20
529.42164796103702
 11
1641.1388393181646
 21
575.33255570247718
  0
LINE
  8
_1-5_寸法2
  6
CONTINUOUS
 62
    7
 10
1636.5363150509029
 20
573.37890006003033
 11
1627.3013929210176
 21
585.19906136413113
  0
LINE
  8
_1-5_寸法2
  6
CONTINUOUS
 62
    7
 10
1636.5363150509029
 20
573.37890006003033
 11
1634.4487185365017
 21
588.23292109115391
  0
LINE
  8
_1-5_寸法2
  6
CONTINUOUS
 62
    7
 10
1485.4449137201311
 20
737.3800845043977
 11
1559.0853023354168
 21
768.63857492748491
  0
LINE
  8
_1-5_寸法2
  6
CONTINUOUS
 62
    7
 10
1554.4827780681549
 20
766.68491928503818
 11
1563.7177001980399
 21
754.86475798093738
  0
LINE
  8
_1-5_寸法2
  6
CONTINUOUS
 62
    7
 10
1554.4827780681549
 20
766.68491928503818
 11
1556.5703745825563
 21
751.83089825391448
  0
LINE
  8
_1-5_寸法2
  6
CONTINUOUS
 62
    7
 10
1636.5363150509029
 20
573.37890006003033
 11
1554.4827780681549
 21
766.68491928503818
  0
TEXT
  8
_1-5_寸法2
 62
    7
 10
1589.6485796321897
 20
683.8394824743209
 40
30
 41
1
 50
-66.999999999999787
  1
42
  0
LINE
  8
_1-5_寸法2
  6
CONTINUOUS
 62
    7
 10
1390.1163384200331
 20
699.63140596787844
 11
1350.0663976954716
 21
793.98315357497268
  0
LINE
  8
_1-5_寸法2
  6
CONTINUOUS
 62
    7
 10
1352.020053337917
 20
789.38062930771025
 11
1363.8402146420181
 21
798.61555143759517
  0
LINE
  8
_1-5_寸法2
  6
CONTINUOUS
 62
    7
 10
1352.020053337917
 20
789.38062930771025
 11
1366.8740743690407
 21
791.46822582211132
  0
LINE
  8
_1-5_寸法2
  6
CONTINUOUS
 62
    7
 10
1452.6640141715882
 20
750.62442762847672
 11
1421.4055238380324
 21
824.26481603289062
  0
LINE
  8
_1-5_寸法2
  6
CONTINUOUS
 62
    7
 10
1423.3591794804781
 20
819.6622917656282
 11
1411.5390181763773
 21
810.42736963574328
  0
LINE
  8
_1-5_寸法2
  6
CONTINUOUS
 62
    7
 10
1423.3591794804781
 20
819.6622917656282
 11
1408.5051584493547
 21
817.57469525122701
  0
LINE
  8
_1-5_寸法2
  6
CONTINUOUS
 62
    7
 10
1352.020053337917
 20
789.38062930771025
 11
1423.3591794804781
 21
819.6622917656282
  0
TEXT
  8
_1-5_寸法2
 62
    7
 10
1360.0744708056245
 20
792.79952668199076
 40
30
 41
1
 50
23.000000000000313
  1
15.5
  0
LINE
  8
_1-2_極細2
  6
CENTER1
 62
    2
 10
1461.0911197626797
 20
536.80502443541275
 11
1508.978454010703
 21
536.80502443541275
  0
LINE
  8
_1-2_極細2
  6
CENTER1
 62
    2
 10
1486.3910463742536
 20
511.80091168904363
 11
1486.3910463742536
 21
561.07210002435625
  0
CIRCLE
  8
_1-2_極細2
  6
CONTINUOUS
 62
    2
 10
1486.3910463742536
 20
536.80502459254274
 40
17.25
  0
CIRCLE
  8
_1-3_細線2
  6
CONTINUOUS
 62
    4
 10
1486.3910463742536
 20
536.80502459254274
 40
18
  0
LINE
  8
_1-2_極細2
  6
DASHED2
 62
    2
 10
1412.6315454183541
 20
502.52693520292223
 11
1628.7666121787913
 21
502.52693520292223
  0
LINE
  8
_1-2_極細2
  6
DASHED2
 62
    2
 10
1412.6315454183541
 20
487.52693520292223
 11
1624.3050102517764
 21
487.52693520292223
  0
ARC
  8
_1-2_極細2
  6
CONTINUOUS
 62
    2
 10
1280.1315454183555
 20
502.52693520292223
 40
15.000000000000002
 50
179.99999999999983
 51
269.99999999999977
  0
LINE
  8
_1-2_極細2
  6
CONTINUOUS
 62
    2
 10
1265.1315454183555
 20
502.52693520292223
 11
1265.1315454183555
 21
600.02693520292223
  0
LINE
  8
_1-2_極細2
  6
CONTINUOUS
 62
    2
 10
1415.1315454183555
 20
490.02693520292223
 11
1412.6315454183541
 21
487.52693520292223
  0
LINE
  8
_1-2_極細2
  6
CONTINUOUS
 62
    2
 10
1415.1315454183555
 20
500.02693520292223
 11
1415.1315454183555
 21
490.02693520292223
  0
LINE
  8
_1-2_極細2
  6
CONTINUOUS
 62
    2
 10
1412.6315454183541
 20
502.52693520292223
 11
1415.1315454183555
 21
500.02693520292223
  0
LINE
  8
_1-2_極細2
  6
CONTINUOUS
 62
    2
 10
1267.6315454183555
 20
602.52693520292223
 11
1265.1315454183555
 21
600.02693520292223
  0
LINE
  8
_1-2_極細2
  6
CONTINUOUS
 62
    2
 10
1277.6315454183555
 20
602.52693520292223
 11
1267.6315454183555
 21
602.52693520292223
  0
LINE
  8
_1-2_極細2
  6
CONTINUOUS
 62
    2
 10
1280.1315454183555
 20
600.02693520292223
 11
1277.6315454183555
 21
602.52693520292223
  0
LINE
  8
_1-2_極細2
  6
CONTINUOUS
 62
    2
 10
1280.1315454183555
 20
502.52693520292223
 11
1280.1315454183555
 21
600.02693520292223
  0
LINE
  8
_1-2_極細2
  6
CONTINUOUS
 62
    2
 10
1280.1315454183555
 20
502.52693520292223
 11
1412.6315454183541
 21
502.52693520292223
  0
LINE
  8
_1-2_極細2
  6
CONTINUOUS
 62
    2
 10
1280.1315454183555
 20
487.52693520292223
 11
1412.6315454183541
 21
487.52693520292223
  0
LINE
  8
_1-5_寸法2
  6
CONTINUOUS
 62
    7
 10
1456.2975440911719
 20
711.47544504647249
 11
1461.4739249932222
 21
730.79396157225369
  0
LINE
  8
_1-5_寸法2
  6
CONTINUOUS
 62
    7
 10
1456.2975440911719
 20
711.47544504647249
 11
1470.4396797149029
 21
725.61758067020332
  0
LINE
  8
_1-5_寸法2
  6
CONTINUOUS
 62
    7
 10
1456.2975440911719
 20
711.47544504647249
 11
1500.7933513868168
 21
788.54444400632372
  0
LINE
  8
_1-5_寸法2
  6
CONTINUOUS
 62
    7
 10
1500.7933513868168
 20
788.54444400632372
 11
1596.7933513868165
 21
788.54444400632372
  0
TEXT
  8
_1-5_寸法2
 62
    7
 10
1500.7933513868168
 20
788.54444400632372
 40
30
 41
0.7999999999999998
 50
0
  1
取外し具
  0
LINE
  8
_0-7_枠細線
  6
CONTINUOUS
 62
    5
 10
2683.9590948651016
 20
824.60400348127428
 11
2683.9590948651016
 21
614.60400348127519
  0
TEXT
  8
_0-7_枠細線
 62
    5
 10
2501.9590948651035
 20
784.60400348127428
 40
30.000000000000004
 41
0.8
 50
0
  1
ノンスリップ
  0
LINE
  8
_0-7_枠細線
  6
CONTINUOUS
 62
    5
 10
2483.814511540781
 20
679.10954678175756
 11
2673.5754848551405
 21
679.10954678175756
  0
LINE
  8
_0-7_枠細線
  6
CONTINUOUS
 62
    5
 10
2476.3441248748604
 20
712.44288011175763
 11
2666.1050981892204
 21
712.44288011175763
  0
ARC
  8
_0-7_枠細線
  6
CONTINUOUS
 62
    5
 10
2505.6257615386007
 20
689.10954678075746
 40
6.6666666659999994
 50
51.317813000008783
 51
203.57817800000197
  0
ARC
  8
_0-7_枠細線
  6
CONTINUOUS
 62
    5
 10
2513.9590948711011
 20
699.51787677971674
 40
6.6666666659999994
 50
231.31781299999989
 51
308.68218699999329
  0
LINE
  8
_0-7_枠細線
  6
CONTINUOUS
 62
    5
 10
2499.515661539212
 20
686.44288011435742
 11
2528.4025282029888
 21
686.44288011435742
  0
ARC
  8
_0-7_枠細線
  6
CONTINUOUS
 62
    5
 10
2522.292428203601
 20
689.10954678075746
 40
6.6666666659999994
 50
336.42182199999263
 51
128.682187
  0
ARC
  8
_0-7_枠細線
  6
CONTINUOUS
 62
    5
 10
2565.6257615326008
 20
702.44288011275739
 40
6.6666666659999994
 50
156.42182199999525
 51
308.68218700000062
  0
ARC
  8
_0-7_枠細線
  6
CONTINUOUS
 62
    5
 10
2573.9590948651003
 20
692.0345501137981
 40
6.6666666659999994
 50
51.317813000009394
 51
128.68218699999974
  0
ARC
  8
_0-7_枠細線
  6
CONTINUOUS
 62
    5
 10
2582.2924281976016
 20
702.44288011275739
 40
6.6666666659999994
 50
231.31781299999562
 51
23.578178000004431
  0
LINE
  8
_0-7_枠細線
  6
CONTINUOUS
 62
    5
 10
2559.5156615332135
 20
705.10954677915743
 11
2588.4025281969884
 21
705.10954677915743
  0
LINE
  8
_0-7_枠細線
  6
CONTINUOUS
 62
    5
 10
2619.5156615272126
 20
686.44288011435742
 11
2648.4025281909899
 21
686.44288011435742
  0
ARC
  8
_0-7_枠細線
  6
CONTINUOUS
 62
    5
 10
2625.6257615266004
 20
689.10954678075746
 40
6.6666666659999994
 50
51.317812999999639
 51
203.57817800000197
  0
ARC
  8
_0-7_枠細線
  6
CONTINUOUS
 62
    5
 10
2633.9590948591008
 20
699.51787677971674
 40
6.6666666659999994
 50
231.31781299999685
 51
308.68218699999937
  0
ARC
  8
_0-7_枠細線
  6
CONTINUOUS
 62
    5
 10
2642.2924281916012
 20
689.10954678075746
 40
6.6666666659999994
 50
336.42182199999576
 51
128.68218700000307
  0
ARC
  8
_0-7_枠細線
  6
CONTINUOUS
 62
    5
 10
2565.6257615326008
 20
702.44288011275739
 40
12.43333333209006
 50
151.14636799999533
 51
308.68218700000739
  0
LINE
  8
_0-7_枠細線
  6
CONTINUOUS
 62
    5
 10
2475.6115848749359
 20
708.44288011215735
 11
2554.7359615336877
 21
708.44288011215735
  0
LINE
  8
_0-7_枠細線
  6
CONTINUOUS
 62
    5
 10
2533.182231535844
 20
683.10954678135772
 11
2614.7359615276919
 21
683.10954678135772
  0
ARC
  8
_0-7_枠細線
  6
CONTINUOUS
 62
    5
 10
2467.3998915424236
 20
684.18272344791649
 40
17.180713331615152
 50
317.56162899999902
 51
42.438371000002391
  0
ARC
  8
_0-7_枠細線
  6
CONTINUOUS
 62
    5
 10
2505.6257615386007
 20
689.10954678075746
 40
12.43333333209006
 50
51.317812999992242
 51
208.8536319999977
  0
ARC
  8
_0-7_枠細線
  6
CONTINUOUS
 62
    5
 10
2492.7587482065533
 20
707.36970344559836
 40
17.180713331615152
 50
137.56162899999941
 51
222.43837100000192
  0
LINE
  8
_0-7_枠細線
  6
CONTINUOUS
 62
    5
 10
2484.5470548740414
 20
683.10954678135772
 11
2494.7359615396881
 21
683.10954678135772
  0
ARC
  8
_0-7_枠細線
  6
CONTINUOUS
 62
    5
 10
2513.9590948711011
 20
699.51787677971674
 40
0.899999999909939
 50
231.31781300002447
 51
308.68218699999738
  0
ARC
  8
_0-7_枠細線
  6
CONTINUOUS
 62
    5
 10
2522.292428203601
 20
689.10954678075746
 40
12.43333333209006
 50
331.14636800000056
 51
128.68218700000742
  0
ARC
  8
_0-7_枠細線
  6
CONTINUOUS
 62
    5
 10
2657.1608648567822
 20
684.18272344791649
 40
17.180713331615152
 50
317.56162899999799
 51
42.438371000002391
  0
ARC
  8
_0-7_枠細線
  6
CONTINUOUS
 62
    5
 10
2682.5197215209128
 20
707.36970344559836
 40
17.180713331615152
 50
137.56162900000248
 51
222.43837099999882
  0
LINE
  8
_0-7_枠細線
  6
CONTINUOUS
 62
    5
 10
2653.1822315238442
 20
683.10954678135772
 11
2674.3080281884013
 21
683.10954678135772
  0
LINE
  8
_0-7_枠細線
  6
CONTINUOUS
 62
    5
 10
2593.1822315298446
 20
708.44288011215735
 11
2665.3725581892941
 21
708.44288011215735
  0
ARC
  8
_0-7_枠細線
  6
CONTINUOUS
 62
    5
 10
2625.6257615266004
 20
689.10954678075746
 40
12.43333333209006
 50
51.317812999990608
 51
208.85363200000734
  0
ARC
  8
_0-7_枠細線
  6
CONTINUOUS
 62
    5
 10
2573.9590948651003
 20
692.0345501137981
 40
0.899999999909939
 50
51.317813000002253
 51
128.68218699997516
  0
ARC
  8
_0-7_枠細線
  6
CONTINUOUS
 62
    5
 10
2582.2924281976016
 20
702.44288011275739
 40
12.43333333209006
 50
231.31781299998863
 51
28.853631999997784
  0
ARC
  8
_0-7_枠細線
  6
CONTINUOUS
 62
    5
 10
2633.9590948591008
 20
699.51787677971674
 40
0.899999999909939
 50
231.31781300002447
 51
308.68218699997482
  0
ARC
  8
_0-7_枠細線
  6
CONTINUOUS
 62
    5
 10
2642.2924281916012
 20
689.10954678075746
 40
12.43333333209006
 50
331.14636800000056
 51
128.68218700000904
  0
LINE
  8
_0-7_枠細線
  6
CENTER1
 62
    5
 10
2513.9590948711011
 20
715.24245677814383
 11
2513.9590948711011
 21
676.54616011534722
  0
LINE
  8
_0-7_枠細線
  6
CENTER1
 62
    5
 10
2633.9590948591008
 20
715.24245677814383
 11
2633.9590948591008
 21
676.54616011534722
  0
LINE
  8
_0-7_枠細線
  6
CENTER1
 62
    5
 10
2573.9590948651003
 20
715.24245677814383
 11
2573.9590948651003
 21
676.54616011534722
  0
LINE
  8
_0-7_枠細線
  6
CONTINUOUS
 62
    5
 10
2513.9590948711011
 20
669.10954678175756
 11
2513.9590948711011
 21
619.10954678175744
  0
LINE
  8
_0-7_枠細線
  6
CONTINUOUS
 62
    5
 10
2513.9590948711011
 20
629.10954678175744
 11
2533.2776113968821
 21
634.28592768380781
  0
LINE
  8
_0-7_枠細線
  6
CONTINUOUS
 62
    5
 10
2513.9590948711011
 20
629.10954678175744
 11
2533.2776113968821
 21
623.93316587970708
  0
LINE
  8
_0-7_枠細線
  6
CONTINUOUS
 62
    5
 10
2573.9590948651003
 20
669.10954678175756
 11
2573.9590948651003
 21
619.10954678175744
  0
LINE
  8
_0-7_枠細線
  6
CONTINUOUS
 62
    5
 10
2573.9590948651003
 20
629.10954678175744
 11
2554.6405783393188
 21
623.93316587970708
  0
LINE
  8
_0-7_枠細線
  6
CONTINUOUS
 62
    5
 10
2573.9590948651003
 20
629.10954678175744
 11
2554.6405783393188
 21
634.28592768380793
  0
LINE
  8
_0-7_枠細線
  6
CONTINUOUS
 62
    5
 10
2513.9590948711011
 20
629.10954678175744
 11
2573.9590948651003
 21
629.10954678175744
  0
TEXT
  8
_0-7_枠細線
 62
    5
 10
2528.9590948681002
 20
629.10954678175744
 40
30
 41
1
 50
0
  1
18
  0
LINE
  8
_0-7_枠細線
  6
CONTINUOUS
 62
    5
 10
2573.9590948651003
 20
629.10954678175744
 11
2593.2776113908817
 21
634.2859276838077
  0
LINE
  8
_0-7_枠細線
  6
CONTINUOUS
 62
    5
 10
2573.9590948651003
 20
629.10954678175744
 11
2593.2776113908817
 21
623.93316587970708
  0
LINE
  8
_0-7_枠細線
  6
CONTINUOUS
 62
    5
 10
2633.9590948591008
 20
669.10954678175756
 11
2633.9590948591008
 21
619.10954678175744
  0
LINE
  8
_0-7_枠細線
  6
CONTINUOUS
 62
    5
 10
2633.9590948591008
 20
629.10954678175744
 11
2614.6405783333189
 21
623.93316587970708
  0
LINE
  8
_0-7_枠細線
  6
CONTINUOUS
 62
    5
 10
2633.9590948591008
 20
629.10954678175744
 11
2614.6405783333189
 21
634.28592768380793
  0
LINE
  8
_0-7_枠細線
  6
CONTINUOUS
 62
    5
 10
2573.9590948651003
 20
629.10954678175744
 11
2633.9590948591008
 21
629.10954678175744
  0
TEXT
  8
_0-7_枠細線
 62
    5
 10
2588.9590948621017
 20
629.10954678175744
 40
30
 41
1
 50
0
  1
18
  0
TEXT
  8
_0-7_枠細線
 62
    5
 10
2525.9590948651025
 20
734.6040034812745
 40
30.000000000000004
 41
0.7999999999999997
 50
0
  1
品番－Ｄ
  0
LINE
  8
_0-7_枠細線
  6
CONTINUOUS
 62
    5
 10
2463.9590948651007
 20
824.60400348127428
 11
2463.9590948651007
 21
614.60400348127519
  0
TEXT
  8
_0-7_枠細線
 62
    5
 10
2305.9590948651012
 20
784.6040034812745
 40
30.000000000000004
 41
0.8
 50
0
  1
プレーン
  0
LINE
  8
_0-7_枠細線
  6
CONTINUOUS
 62
    5
 10
2262.813799874215
 20
679.10954678175756
 11
2452.5747731885731
 21
679.10954678175756
  0
LINE
  8
_0-7_枠細線
  6
CONTINUOUS
 62
    5
 10
2255.3434132082939
 20
712.44288011175763
 11
2445.1043865226538
 21
712.44288011175763
  0
ARC
  8
_0-7_枠細線
  6
CONTINUOUS
 62
    5
 10
2436.1601531902134
 20
684.18272344791649
 40
17.180713331615152
 50
317.56162900000396
 51
42.438370999996692
  0
ARC
  8
_0-7_枠細線
  6
CONTINUOUS
 62
    5
 10
2246.3991798758566
 20
684.18272344791649
 40
17.18071333161534
 50
317.56162900000112
 51
42.438370999999847
  0
LINE
  8
_0-7_枠細線
  6
CONTINUOUS
 62
    5
 10
2254.6108732083685
 20
708.44288011215735
 11
2444.371846522728
 21
708.44288011215735
  0
LINE
  8
_0-7_枠細線
  6
CONTINUOUS
 62
    5
 10
2263.5463432074757
 20
683.10954678135772
 11
2453.3073165218334
 21
683.10954678135772
  0
ARC
  8
_0-7_枠細線
  6
CONTINUOUS
 62
    5
 10
2271.7580365399899
 20
707.36970344559836
 40
17.18071333161534
 50
137.56162900000146
 51
222.43837100000292
  0
ARC
  8
_0-7_枠細線
  6
CONTINUOUS
 62
    5
 10
2461.5190098543453
 20
707.36970344559836
 40
17.180713331615152
 50
137.56162899999941
 51
222.43837100000292
  0
TEXT
  8
_0-7_枠細線
 62
    5
 10
2305.959094865103
 20
734.6040034812745
 40
30.000000000000004
 41
0.7999999999999997
 50
0
  1
品番－Ｆ
  0
TEXT
  8
_0-7_枠細線
 62
    5
 10
2145.9590948651012
 20
784.60400348127428
 40
30.000000000000004
 41
0.8
 50
0
  1
タ イ プ
  0
LINE
  8
_0-7_枠細線
  6
CONTINUOUS
 62
    5
 10
2143.9590948651003
 20
724.6040034812745
 11
2683.9590948651016
 21
724.6040034812745
  0
LINE
  8
_0-7_枠細線
  6
CONTINUOUS
 62
    5
 10
2143.9590948651003
 20
774.60400348127428
 11
2683.9590948651016
 21
774.60400348127428
  0
LINE
  8
_0-7_枠細線
  6
CONTINUOUS
 62
    5
 10
2143.9590948651003
 20
824.60400348127428
 11
2683.9590948651016
 21
824.60400348127428
  0
LINE
  8
_0-7_枠細線
  6
CONTINUOUS
 62
    5
 10
2143.9590948651003
 20
614.60400348127519
 11
2683.9590948651016
 21
614.60400348127519
  0
LINE
  8
_0-7_枠細線
  6
CONTINUOUS
 62
    5
 10
2243.9590948651016
 20
824.60400348127428
 11
2243.9590948651016
 21
614.60400348127519
  0
LINE
  8
_0-7_枠細線
  6
CONTINUOUS
 62
    5
 10
2143.9590948651003
 20
824.60400348127428
 11
2143.9590948651003
 21
614.60400348127519
  0
TEXT
  8
_0-7_枠細線
 62
    5
 10
2145.9590948651012
 20
654.60400348127473
 40
30.000000000000004
 41
0.8
 50
0
  1
表面形状
  0
TEXT
  8
_0-7_枠細線
 62
    5
 10
2159.5075175467227
 20
829.6040034812745
 40
35
 41
0.7999999999999998
 50
0
  1
記号表
  0
TEXT
  8
_0-7_枠細線
 62
    5
 10
2145.9590948651012
 20
734.60400348127473
 40
30.000000000000004
 41
0.8
 50
0
  1
記　　号
  0
TEXT
  8
_0-5_寸法線
 62
    7
 10
696.29385335016036
 20
1542.1067813771535
 40
40
 41
1
 50
0
  1
Ａ’
  0
TEXT
  8
_0-5_寸法線
 62
    7
 10
699.71238153892261
 20
1382.7043101865854
 40
40
 41
1
 50
0
  1
Ａ
  0
LINE
  8
_0-7_枠細線
  6
CONTINUOUS
 62
    5
 10
2850
 20
1885
 11
1780
 21
1885
  0
TEXT
  8
_0-7_枠細線
 62
    5
 10
1790
 20
1889.9999999999995
 40
25
 41
1
 50
0
  1
記号
  0
TEXT
  8
_0-7_枠細線
 62
    5
 10
1993.75
 20
1890
 40
25
 41
1
 50
0
  1
訂　 正　 記　 事
  0
TEXT
  8
_0-7_枠細線
 62
    5
 10
2362.5
 20
1890
 40
25
 41
1
 50
0
  1
訂 正 年 月 日
  0
TEXT
  8
_0-7_枠細線
 62
    5
 10
2612.5
 20
1890
 40
25
 41
1
 50
0
  1
備　　　　　考
  0
LINE
  8
_0-7_枠細線
  6
CONTINUOUS
 62
    5
 10
2850
 20
1850
 11
1780
 21
1850
  0
LINE
  8
_0-7_枠細線
  6
CONTINUOUS
 62
    5
 10
1780
 20
1850
 11
1780
 21
1919.9999999999989
  0
LINE
  8
_0-7_枠細線
  6
CONTINUOUS
 62
    5
 10
1850
 20
1850
 11
1850
 21
1919.9999999999989
  0
LINE
  8
_0-7_枠細線
  6
CONTINUOUS
 62
    5
 10
2350
 20
1850
 11
2350
 21
1920
  0
LINE
  8
_0-7_枠細線
  6
CONTINUOUS
 62
    5
 10
2550
 20
1850
 11
2550
 21
1919.9999999999989
  0
LINE
  8
_0-7_枠細線
  6
CONTINUOUS
 62
    5
 10
1830
 20
1852.8846679434942
 11
1815
 21
1882.8846679434942
  0
LINE
  8
_0-7_枠細線
  6
CONTINUOUS
 62
    5
 10
1800
 20
1852.8846679434942
 11
1830
 21
1852.8846679434942
  0
LINE
  8
_0-7_枠細線
  6
CONTINUOUS
 62
    5
 10
1815
 20
1882.8846679434942
 11
1800
 21
1852.8846679434942
  0
TEXT
  8
_0-7_枠細線
 62
    5
 10
1804.7303025362964
 20
1852.2706634527331
 40
25
 41
0.8
 50
0
  1
１
  0
TEXT
  8
_0-7_枠細線
 62
    5
 10
2360
 20
1855
 40
25
 41
0.7199999999999999
 50
0
  1
２０１９．０９．０１
  0
TEXT
  8
_0-7_枠細線
 62
    5
 10
1877.7007407407405
 20
1855
 40
25.000000000000004
 41
1
 50
0
  1
アンカー材質･厚み変更
  0
LINE
  8
_0-1_計細線
  6
CONTINUOUS
 62
    3
 10
2589.8089827611902
 20
1432.0949881808281
 11
2589.8089827611902
 21
1429.7949881808281
  0
LINE
  8
_0-1_計細線
  6
CONTINUOUS
 62
    3
 10
2589.8089827611902
 20
1429.7949881808281
 11
2624.8089827611902
 21
1429.7949881808281
  0
LINE
  8
_0-1_計細線
  6
CONTINUOUS
 62
    3
 10
2624.8089827611902
 20
1429.7949881808281
 11
2624.8089827611902
 21
1432.0949881808281
  0
LINE
  8
_0-1_計細線
  6
CONTINUOUS
 62
    3
 10
2624.8089827611902
 20
1432.0949881808281
 11
2589.8089827611902
 21
1432.0949881808281
  0
LINE
  8
_0-0_計極細
  6
CONTINUOUS
 62
    2
 10
2591.8089827611902
 20
1429.7949881808281
 11
2591.8089827611902
 21
1432.0949881808281
  0
LINE
  8
_0-0_計極細
  6
CONTINUOUS
 62
    2
 10
2603.8089827611902
 20
1429.7949881808281
 11
2603.8089827611902
 21
1432.0949881808281
  0
LINE
  8
_0-0_計極細
  6
CONTINUOUS
 62
    2
 10
2605.8089827611907
 20
1429.7949881808281
 11
2605.8089827611907
 21
1432.0949881808281
  0
LINE
  8
_0-0_計極細
  6
CONTINUOUS
 62
    2
 10
2607.8089827611902
 20
1429.7949881808281
 11
2607.8089827611902
 21
1432.0949881808281
  0
LINE
  8
_0-0_計極細
  6
CONTINUOUS
 62
    2
 10
2621.8089827611902
 20
1429.7949881808281
 11
2621.8089827611902
 21
1432.0949881808281
  0
LINE
  8
_0-0_計極細
  6
CONTINUOUS
 62
    2
 10
2601.8089827611902
 20
1429.7949881808281
 11
2601.8089827611902
 21
1432.0949881808281
  0
LINE
  8
_0-1_計細線
  6
CONTINUOUS
 62
    3
 10
2589.8089827611902
 20
1516.3949881808278
 11
2589.8089827611902
 21
1514.0949881808278
  0
LINE
  8
_0-1_計細線
  6
CONTINUOUS
 62
    3
 10
2589.8089827611902
 20
1514.0949881808278
 11
2624.8089827611902
 21
1514.0949881808278
  0
LINE
  8
_0-1_計細線
  6
CONTINUOUS
 62
    3
 10
2624.8089827611902
 20
1514.0949881808278
 11
2624.8089827611902
 21
1516.3949881808278
  0
LINE
  8
_0-1_計細線
  6
CONTINUOUS
 62
    3
 10
2624.8089827611902
 20
1516.3949881808278
 11
2589.8089827611902
 21
1516.3949881808278
  0
LINE
  8
_0-0_計極細
  6
CONTINUOUS
 62
    2
 10
2591.8089827611902
 20
1514.0949881808278
 11
2591.8089827611902
 21
1516.3949881808278
  0
LINE
  8
_0-0_計極細
  6
CONTINUOUS
 62
    2
 10
2603.8089827611902
 20
1514.0949881808278
 11
2603.8089827611902
 21
1516.3949881808278
  0
LINE
  8
_0-0_計極細
  6
CONTINUOUS
 62
    2
 10
2605.8089827611907
 20
1514.0949881808278
 11
2605.8089827611907
 21
1516.3949881808278
  0
LINE
  8
_0-0_計極細
  6
CONTINUOUS
 62
    2
 10
2607.8089827611902
 20
1514.0949881808278
 11
2607.8089827611902
 21
1516.3949881808278
  0
LINE
  8
_0-0_計極細
  6
CONTINUOUS
 62
    2
 10
2621.8089827611902
 20
1514.0949881808278
 11
2621.8089827611902
 21
1516.3949881808278
  0
LINE
  8
_0-0_計極細
  6
CONTINUOUS
 62
    2
 10
2601.8089827611902
 20
1514.0949881808278
 11
2601.8089827611902
 21
1516.3949881808278
  0
LINE
  8
_0-7_枠細線
  6
CONTINUOUS
 62
    5
 10
2664.3467034844521
 20
1517.678323870467
 11
2649.3467034844521
 21
1547.6783238704672
  0
LINE
  8
_0-7_枠細線
  6
CONTINUOUS
 62
    5
 10
2634.3467034844521
 20
1517.678323870467
 11
2664.3467034844521
 21
1517.678323870467
  0
LINE
  8
_0-7_枠細線
  6
CONTINUOUS
 62
    5
 10
2649.3467034844521
 20
1547.6783238704672
 11
2634.3467034844521
 21
1517.678323870467
  0
TEXT
  8
_0-7_枠細線
 62
    5
 10
2639.0770060207474
 20
1517.0643193797059
 40
25
 41
0.8
 50
0
  1
１
  0
LINE
  8
_0-5_寸法線
  6
CONTINUOUS
 62
    7
 10
352.29689303288978
 20
1534.0947982538351
 11
352.29689303288978
 21
1694.0947982538351
  0
LINE
  8
_0-5_寸法線
  6
CONTINUOUS
 62
    7
 10
352.29689303288978
 20
1684.0947982538351
 11
371.6154095586711
 21
1689.2711791558852
  0
LINE
  8
_0-5_寸法線
  6
CONTINUOUS
 62
    7
 10
352.29689303288978
 20
1684.0947982538351
 11
371.6154095586711
 21
1678.9184173517845
  0
LINE
  8
_0-5_寸法線
  6
CONTINUOUS
 62
    7
 10
2332.2968930328898
 20
1534.0947982538351
 11
2332.2968930328898
 21
1694.0947982538351
  0
LINE
  8
_0-5_寸法線
  6
CONTINUOUS
 62
    7
 10
2332.2968930328898
 20
1684.0947982538351
 11
2312.9783765071084
 21
1678.9184173517845
  0
LINE
  8
_0-5_寸法線
  6
CONTINUOUS
 62
    7
 10
2332.2968930328898
 20
1684.0947982538351
 11
2312.9783765071084
 21
1689.2711791558852
  0
LINE
  8
_0-5_寸法線
  6
CONTINUOUS
 62
    7
 10
352.29689303288978
 20
1684.0947982538351
 11
2332.2968930328898
 21
1684.0947982538351
  0
TEXT
  8
_0-5_寸法線
 62
    7
 10
1312.2968930328898
 20
1684.0947982538351
 40
30
 41
1
 50
0
  1
1980
  0
LINE
  8
_0-5_寸法線
  6
CONTINUOUS
 62
    7
 10
2578.8089827611902
 20
1534.0949881808283
 11
2578.8089827611902
 21
1694.0947982538351
  0
LINE
  8
_0-5_寸法線
  6
CONTINUOUS
 62
    7
 10
2578.8089827611902
 20
1684.0947982538351
 11
2598.1274992869721
 21
1689.2711791558852
  0
LINE
  8
_0-5_寸法線
  6
CONTINUOUS
 62
    7
 10
2578.8089827611902
 20
1684.0947982538351
 11
2598.1274992869721
 21
1678.9184173517845
  0
LINE
  8
_0-5_寸法線
  6
CONTINUOUS
 62
    7
 10
2624.8089827611902
 20
1536.3949881808278
 11
2624.8089827611902
 21
1694.0947982538351
  0
LINE
  8
_0-5_寸法線
  6
CONTINUOUS
 62
    7
 10
2624.8089827611902
 20
1684.0947982538351
 11
2605.4904662354093
 21
1678.9184173517845
  0
LINE
  8
_0-5_寸法線
  6
CONTINUOUS
 62
    7
 10
2624.8089827611902
 20
1684.0947982538351
 11
2605.4904662354093
 21
1689.2711791558852
  0
LINE
  8
_0-5_寸法線
  6
CONTINUOUS
 62
    7
 10
2578.8089827611902
 20
1684.0947982538351
 11
2624.8089827611902
 21
1684.0947982538351
  0
TEXT
  8
_0-5_寸法線
 62
    7
 10
2586.8089827611898
 20
1684.0947982538351
 40
30
 41
1
 50
0
  1
46
  0
LINE
  8
_0-5_寸法線
  6
CONTINUOUS
 62
    7
 10
2578.8089827611902
 20
1534.0949881808278
 11
2578.8089827611902
 21
1624.0947982538351
  0
LINE
  8
_0-5_寸法線
  6
CONTINUOUS
 62
    7
 10
2578.8089827611902
 20
1614.0947982538351
 11
2559.4904662354088
 21
1608.9184173517845
  0
LINE
  8
_0-5_寸法線
  6
CONTINUOUS
 62
    7
 10
2578.8089827611902
 20
1614.0947982538351
 11
2559.4904662354088
 21
1619.2711791558852
  0
LINE
  8
_0-5_寸法線
  6
CONTINUOUS
 62
    7
 10
2601.8089827611902
 20
1536.3949881808278
 11
2601.8089827611902
 21
1624.0947982538351
  0
CIRCLE
  8
_0-5_寸法線
  6
CONTINUOUS
 62
    1
 10
2601.8089827611902
 20
1614.0947982538351
 40
3.0000000000000004
  0
LINE
  8
_0-5_寸法線
  6
CONTINUOUS
 62
    7
 10
2528.8089827611902
 20
1614.0947982538351
 11
2601.8089827611902
 21
1614.0947982538351
  0
TEXT
  8
_0-5_寸法線
 62
    7
 10
2532.3970504672998
 20
1614.0947982538351
 40
30
 41
1
 50
0
  1
23
  0
LINE
  8
_0-5_寸法線
  6
CONTINUOUS
 62
    7
 10
2624.8089827611902
 20
1536.3949881808278
 11
2624.8089827611902
 21
1624.0947982538351
  0
LINE
  8
_0-5_寸法線
  6
CONTINUOUS
 62
    7
 10
2624.8089827611902
 20
1614.0947982538351
 11
2644.1274992869717
 21
1619.2711791558852
  0
LINE
  8
_0-5_寸法線
  6
CONTINUOUS
 62
    7
 10
2624.8089827611902
 20
1614.0947982538351
 11
2644.1274992869717
 21
1608.9184173517845
  0
LINE
  8
_0-5_寸法線
  6
CONTINUOUS
 62
    7
 10
2601.8089827611902
 20
1614.0947982538351
 11
2674.8089827611902
 21
1614.0947982538351
  0
TEXT
  8
_0-5_寸法線
 62
    7
 10
2647.2021950374569
 20
1614.0947982538351
 40
30
 41
1
 50
0
  1
23
  0
LINE
  8
_0-5_寸法線
  6
CONTINUOUS
 62
    7
 10
2352.2968930328898
 20
1432.0947982538348
 11
2442.2968930328898
 21
1432.0947982538346
  0
LINE
  8
_0-5_寸法線
  6
CONTINUOUS
 62
    7
 10
2432.2968930328898
 20
1432.0947982538346
 11
2427.1205121308394
 21
1451.413314779616
  0
LINE
  8
_0-5_寸法線
  6
CONTINUOUS
 62
    7
 10
2432.2968930328898
 20
1432.0947982538346
 11
2437.4732739349402
 21
1451.413314779616
  0
LINE
  8
_0-5_寸法線
  6
CONTINUOUS
 62
    7
 10
2352.2968930328898
 20
1514.0947982538351
 11
2442.2968930328898
 21
1514.0947982538346
  0
LINE
  8
_0-5_寸法線
  6
CONTINUOUS
 62
    7
 10
2432.2968930328898
 20
1514.0947982538346
 11
2437.4732739349402
 21
1494.7762817280532
  0
LINE
  8
_0-5_寸法線
  6
CONTINUOUS
 62
    7
 10
2432.2968930328898
 20
1514.0947982538346
 11
2427.1205121308394
 21
1494.7762817280532
  0
LINE
  8
_0-5_寸法線
  6
CONTINUOUS
 62
    7
 10
2432.2968930328898
 20
1432.0947982538346
 11
2432.2968930328898
 21
1514.0947982538346
  0
TEXT
  8
_0-5_寸法線
 62
    7
 10
2432.2968930328907
 20
1458.0947982538348
 40
30
 41
1
 50
90
  1
82
  0
LINE
  8
_0-1_計細線
  6
CONTINUOUS
 62
    3
 10
396.29689325710473
 20
1151.0947982538348
 11
394.29689325710484
 21
1149.0947982538348
  0
LINE
  8
_0-1_計細線
  6
CONTINUOUS
 62
    3
 10
394.29689325710484
 20
1139.0947982538348
 11
394.29689325710484
 21
1149.0947982538348
  0
LINE
  8
_0-1_計細線
  6
CONTINUOUS
 62
    3
 10
410.2968929509434
 20
1149.0947982538348
 11
408.2968929509434
 21
1151.0947982538348
  0
LINE
  8
_0-1_計細線
  6
CONTINUOUS
 62
    3
 10
410.2968929509434
 20
1139.0947982538348
 11
410.2968929509434
 21
1149.0947982538348
  0
LINE
  8
_0-1_計細線
  6
CONTINUOUS
 62
    3
 10
396.29689325710473
 20
1135.0947982538351
 11
394.29689325710484
 21
1133.0947982538348
  0
LINE
  8
_0-1_計細線
  6
CONTINUOUS
 62
    3
 10
396.29689325710473
 20
1137.0947982538348
 11
396.29689325710473
 21
1135.0947982538351
  0
LINE
  8
_0-1_計細線
  6
CONTINUOUS
 62
    3
 10
394.29689325710484
 20
1139.0947982538348
 11
396.29689325710473
 21
1137.0947982538348
  0
LINE
  8
_0-1_計細線
  6
CONTINUOUS
 62
    3
 10
408.2968929509434
 20
1135.0947982538351
 11
410.2968929509434
 21
1133.0947982538348
  0
LINE
  8
_0-1_計細線
  6
CONTINUOUS
 62
    3
 10
408.2968929509434
 20
1137.0947982538348
 11
408.2968929509434
 21
1135.0947982538351
  0
LINE
  8
_0-1_計細線
  6
CONTINUOUS
 62
    3
 10
410.2968929509434
 20
1139.0947982538348
 11
408.2968929509434
 21
1137.0947982538348
  0
LINE
  8
_0-1_計細線
  6
CONTINUOUS
 62
    3
 10
394.29689325710484
 20
1133.0947982538348
 11
394.29689325710484
 21
1119.0947982538348
  0
ARC
  8
_0-1_計細線
  6
CONTINUOUS
 62
    3
 10
397.29689325710478
 20
1119.0947982538348
 40
3.0000000000000004
 50
179.99999999999983
 51
269.99999999999977
  0
LINE
  8
_0-1_計細線
  6
CONTINUOUS
 62
    3
 10
397.29689325710478
 20
1116.0947982538348
 11
407.29689295094346
 21
1116.0947982538348
  0
LINE
  8
_0-1_計細線
  6
CONTINUOUS
 62
    3
 10
410.2968929509434
 20
1133.0947982538348
 11
410.2968929509434
 21
1119.0947982538348
  0
ARC
  8
_0-1_計細線
  6
CONTINUOUS
 62
    3
 10
407.29689295094346
 20
1119.0947982538348
 40
3.0000000000000004
 50
269.99999999999977
 51
359.99999999999966
  0
LINE
  8
_0-0_計極細
  6
CENTER1
 62
    2
 10
402.29689303288978
 20
1162.7361721192228
 11
402.29689303288978
 21
1107.4660542829795
  0
LINE
  8
_0-1_計細線
  6
CONTINUOUS
 62
    3
 10
396.29689325710473
 20
1151.0947982538348
 11
408.2968929509434
 21
1151.0947982538348
  0
LINE
  8
_0-1_計細線
  6
CONTINUOUS
 62
    3
 10
2276.2968932571057
 20
1151.0947982538348
 11
2274.2968932571057
 21
1149.0947982538348
  0
LINE
  8
_0-1_計細線
  6
CONTINUOUS
 62
    3
 10
2274.2968932571057
 20
1139.0947982538348
 11
2274.2968932571057
 21
1149.0947982538348
  0
LINE
  8
_0-1_計細線
  6
CONTINUOUS
 62
    3
 10
2290.2968929509443
 20
1149.0947982538348
 11
2288.2968929509443
 21
1151.0947982538348
  0
LINE
  8
_0-1_計細線
  6
CONTINUOUS
 62
    3
 10
2290.2968929509443
 20
1139.0947982538348
 11
2290.2968929509443
 21
1149.0947982538348
  0
LINE
  8
_0-1_計細線
  6
CONTINUOUS
 62
    3
 10
2276.2968932571057
 20
1135.0947982538351
 11
2274.2968932571057
 21
1133.0947982538348
  0
LINE
  8
_0-1_計細線
  6
CONTINUOUS
 62
    3
 10
2276.2968932571057
 20
1137.0947982538348
 11
2276.2968932571057
 21
1135.0947982538351
  0
LINE
  8
_0-1_計細線
  6
CONTINUOUS
 62
    3
 10
2274.2968932571057
 20
1139.0947982538348
 11
2276.2968932571057
 21
1137.0947982538348
  0
LINE
  8
_0-1_計細線
  6
CONTINUOUS
 62
    3
 10
2288.2968929509443
 20
1135.0947982538351
 11
2290.2968929509443
 21
1133.0947982538348
  0
LINE
  8
_0-1_計細線
  6
CONTINUOUS
 62
    3
 10
2288.2968929509443
 20
1137.0947982538348
 11
2288.2968929509443
 21
1135.0947982538351
  0
LINE
  8
_0-1_計細線
  6
CONTINUOUS
 62
    3
 10
2290.2968929509443
 20
1139.0947982538348
 11
2288.2968929509443
 21
1137.0947982538348
  0
LINE
  8
_0-1_計細線
  6
CONTINUOUS
 62
    3
 10
2274.2968932571057
 20
1133.0947982538348
 11
2274.2968932571057
 21
1119.0947982538348
  0
ARC
  8
_0-1_計細線
  6
CONTINUOUS
 62
    3
 10
2277.2968932571057
 20
1119.0947982538348
 40
3.0000000000000004
 50
179.99999999999983
 51
269.99999999999977
  0
LINE
  8
_0-1_計細線
  6
CONTINUOUS
 62
    3
 10
2277.2968932571057
 20
1116.0947982538348
 11
2287.2968929509443
 21
1116.0947982538348
  0
LINE
  8
_0-1_計細線
  6
CONTINUOUS
 62
    3
 10
2290.2968929509443
 20
1133.0947982538348
 11
2290.2968929509443
 21
1119.0947982538348
  0
ARC
  8
_0-1_計細線
  6
CONTINUOUS
 62
    3
 10
2287.2968929509443
 20
1119.0947982538348
 40
3.0000000000000004
 50
269.99999999999977
 51
359.99999999999966
  0
LINE
  8
_0-0_計極細
  6
CENTER1
 62
    2
 10
2282.2968930328898
 20
1162.7361721192228
 11
2282.2968930328898
 21
1107.4660542829795
  0
LINE
  8
_0-1_計細線
  6
CONTINUOUS
 62
    3
 10
2276.2968932571057
 20
1151.0947982538348
 11
2288.2968929509443
 21
1151.0947982538348
  0
LINE
  8
_0-1_計細線
  6
CONTINUOUS
 62
    3
 10
866.2968932571049
 20
1151.0947982538348
 11
864.29689325710478
 21
1149.0947982538348
  0
LINE
  8
_0-1_計細線
  6
CONTINUOUS
 62
    3
 10
864.29689325710478
 20
1139.0947982538348
 11
864.29689325710478
 21
1149.0947982538348
  0
LINE
  8
_0-1_計細線
  6
CONTINUOUS
 62
    3
 10
880.2968929509434
 20
1149.0947982538348
 11
878.2968929509434
 21
1151.0947982538348
  0
LINE
  8
_0-1_計細線
  6
CONTINUOUS
 62
    3
 10
880.2968929509434
 20
1139.0947982538348
 11
880.2968929509434
 21
1149.0947982538348
  0
LINE
  8
_0-1_計細線
  6
CONTINUOUS
 62
    3
 10
866.2968932571049
 20
1135.0947982538351
 11
864.29689325710478
 21
1133.0947982538348
  0
LINE
  8
_0-1_計細線
  6
CONTINUOUS
 62
    3
 10
866.2968932571049
 20
1137.0947982538348
 11
866.2968932571049
 21
1135.0947982538351
  0
LINE
  8
_0-1_計細線
  6
CONTINUOUS
 62
    3
 10
864.29689325710478
 20
1139.0947982538348
 11
866.2968932571049
 21
1137.0947982538348
  0
LINE
  8
_0-1_計細線
  6
CONTINUOUS
 62
    3
 10
878.2968929509434
 20
1135.0947982538351
 11
880.2968929509434
 21
1133.0947982538348
  0
LINE
  8
_0-1_計細線
  6
CONTINUOUS
 62
    3
 10
878.2968929509434
 20
1137.0947982538348
 11
878.2968929509434
 21
1135.0947982538351
  0
LINE
  8
_0-1_計細線
  6
CONTINUOUS
 62
    3
 10
880.2968929509434
 20
1139.0947982538348
 11
878.2968929509434
 21
1137.0947982538348
  0
LINE
  8
_0-1_計細線
  6
CONTINUOUS
 62
    3
 10
864.29689325710478
 20
1133.0947982538348
 11
864.29689325710478
 21
1119.0947982538348
  0
ARC
  8
_0-1_計細線
  6
CONTINUOUS
 62
    3
 10
867.29689325710478
 20
1119.0947982538348
 40
3.0000000000000004
 50
179.99999999999983
 51
269.99999999999977
  0
LINE
  8
_0-1_計細線
  6
CONTINUOUS
 62
    3
 10
867.29689325710478
 20
1116.0947982538348
 11
877.2968929509434
 21
1116.0947982538348
  0
LINE
  8
_0-1_計細線
  6
CONTINUOUS
 62
    3
 10
880.2968929509434
 20
1133.0947982538348
 11
880.2968929509434
 21
1119.0947982538348
  0
ARC
  8
_0-1_計細線
  6
CONTINUOUS
 62
    3
 10
877.2968929509434
 20
1119.0947982538348
 40
3.0000000000000004
 50
269.99999999999977
 51
359.99999999999966
  0
LINE
  8
_0-0_計極細
  6
CENTER1
 62
    2
 10
872.29689303288978
 20
1162.7361721192228
 11
872.29689303288978
 21
1107.4660542829795
  0
LINE
  8
_0-1_計細線
  6
CONTINUOUS
 62
    3
 10
866.2968932571049
 20
1151.0947982538348
 11
878.2968929509434
 21
1151.0947982538348
  0
LINE
  8
_0-1_計細線
  6
CONTINUOUS
 62
    3
 10
1336.2968932571048
 20
1151.0947982538348
 11
1334.2968932571048
 21
1149.0947982538348
  0
LINE
  8
_0-1_計細線
  6
CONTINUOUS
 62
    3
 10
1334.2968932571048
 20
1139.0947982538348
 11
1334.2968932571048
 21
1149.0947982538348
  0
LINE
  8
_0-1_計細線
  6
CONTINUOUS
 62
    3
 10
1350.2968929509436
 20
1149.0947982538348
 11
1348.2968929509434
 21
1151.0947982538348
  0
LINE
  8
_0-1_計細線
  6
CONTINUOUS
 62
    3
 10
1350.2968929509436
 20
1139.0947982538348
 11
1350.2968929509436
 21
1149.0947982538348
  0
LINE
  8
_0-1_計細線
  6
CONTINUOUS
 62
    3
 10
1336.2968932571048
 20
1135.0947982538351
 11
1334.2968932571048
 21
1133.0947982538348
  0
LINE
  8
_0-1_計細線
  6
CONTINUOUS
 62
    3
 10
1336.2968932571048
 20
1137.0947982538348
 11
1336.2968932571048
 21
1135.0947982538351
  0
LINE
  8
_0-1_計細線
  6
CONTINUOUS
 62
    3
 10
1334.2968932571048
 20
1139.0947982538348
 11
1336.2968932571048
 21
1137.0947982538348
  0
LINE
  8
_0-1_計細線
  6
CONTINUOUS
 62
    3
 10
1348.2968929509434
 20
1135.0947982538351
 11
1350.2968929509436
 21
1133.0947982538348
  0
LINE
  8
_0-1_計細線
  6
CONTINUOUS
 62
    3
 10
1348.2968929509434
 20
1137.0947982538348
 11
1348.2968929509434
 21
1135.0947982538351
  0
LINE
  8
_0-1_計細線
  6
CONTINUOUS
 62
    3
 10
1350.2968929509436
 20
1139.0947982538348
 11
1348.2968929509434
 21
1137.0947982538348
  0
LINE
  8
_0-1_計細線
  6
CONTINUOUS
 62
    3
 10
1334.2968932571048
 20
1133.0947982538348
 11
1334.2968932571048
 21
1119.0947982538348
  0
ARC
  8
_0-1_計細線
  6
CONTINUOUS
 62
    3
 10
1337.296893257105
 20
1119.0947982538348
 40
3.0000000000000004
 50
179.99999999999983
 51
269.99999999999977
  0
LINE
  8
_0-1_計細線
  6
CONTINUOUS
 62
    3
 10
1337.296893257105
 20
1116.0947982538348
 11
1347.2968929509434
 21
1116.0947982538348
  0
LINE
  8
_0-1_計細線
  6
CONTINUOUS
 62
    3
 10
1350.2968929509436
 20
1133.0947982538348
 11
1350.2968929509436
 21
1119.0947982538348
  0
ARC
  8
_0-1_計細線
  6
CONTINUOUS
 62
    3
 10
1347.2968929509434
 20
1119.0947982538348
 40
3.0000000000000004
 50
269.99999999999977
 51
359.99999999999966
  0
LINE
  8
_0-0_計極細
  6
CENTER1
 62
    2
 10
1342.2968930328898
 20
1162.7361721192228
 11
1342.2968930328898
 21
1107.4660542829795
  0
LINE
  8
_0-1_計細線
  6
CONTINUOUS
 62
    3
 10
1336.2968932571048
 20
1151.0947982538348
 11
1348.2968929509434
 21
1151.0947982538348
  0
LINE
  8
_0-1_計細線
  6
CONTINUOUS
 62
    3
 10
1806.2968932571059
 20
1151.0947982538348
 11
1804.2968932571057
 21
1149.0947982538348
  0
LINE
  8
_0-1_計細線
  6
CONTINUOUS
 62
    3
 10
1804.2968932571057
 20
1139.0947982538348
 11
1804.2968932571057
 21
1149.0947982538348
  0
LINE
  8
_0-1_計細線
  6
CONTINUOUS
 62
    3
 10
1820.2968929509443
 20
1149.0947982538348
 11
1818.2968929509445
 21
1151.0947982538348
  0
LINE
  8
_0-1_計細線
  6
CONTINUOUS
 62
    3
 10
1820.2968929509443
 20
1139.0947982538348
 11
1820.2968929509443
 21
1149.0947982538348
  0
LINE
  8
_0-1_計細線
  6
CONTINUOUS
 62
    3
 10
1806.2968932571059
 20
1135.0947982538351
 11
1804.2968932571057
 21
1133.0947982538348
  0
LINE
  8
_0-1_計細線
  6
CONTINUOUS
 62
    3
 10
1806.2968932571059
 20
1137.0947982538348
 11
1806.2968932571059
 21
1135.0947982538351
  0
LINE
  8
_0-1_計細線
  6
CONTINUOUS
 62
    3
 10
1804.2968932571057
 20
1139.0947982538348
 11
1806.2968932571059
 21
1137.0947982538348
  0
LINE
  8
_0-1_計細線
  6
CONTINUOUS
 62
    3
 10
1818.2968929509445
 20
1135.0947982538351
 11
1820.2968929509443
 21
1133.0947982538348
  0
LINE
  8
_0-1_計細線
  6
CONTINUOUS
 62
    3
 10
1818.2968929509445
 20
1137.0947982538348
 11
1818.2968929509445
 21
1135.0947982538351
  0
LINE
  8
_0-1_計細線
  6
CONTINUOUS
 62
    3
 10
1820.2968929509443
 20
1139.0947982538348
 11
1818.2968929509445
 21
1137.0947982538348
  0
LINE
  8
_0-1_計細線
  6
CONTINUOUS
 62
    3
 10
1804.2968932571057
 20
1133.0947982538348
 11
1804.2968932571057
 21
1119.0947982538348
  0
ARC
  8
_0-1_計細線
  6
CONTINUOUS
 62
    3
 10
1807.2968932571057
 20
1119.0947982538348
 40
3.0000000000000004
 50
179.99999999999983
 51
269.99999999999977
  0
LINE
  8
_0-1_計細線
  6
CONTINUOUS
 62
    3
 10
1807.2968932571057
 20
1116.0947982538348
 11
1817.2968929509443
 21
1116.0947982538348
  0
LINE
  8
_0-1_計細線
  6
CONTINUOUS
 62
    3
 10
1820.2968929509443
 20
1133.0947982538348
 11
1820.2968929509443
 21
1119.0947982538348
  0
ARC
  8
_0-1_計細線
  6
CONTINUOUS
 62
    3
 10
1817.2968929509443
 20
1119.0947982538348
 40
3.0000000000000004
 50
269.99999999999977
 51
359.99999999999966
  0
LINE
  8
_0-0_計極細
  6
CENTER1
 62
    2
 10
1812.2968930328898
 20
1162.7361721192228
 11
1812.2968930328898
 21
1107.4660542829795
  0
LINE
  8
_0-1_計細線
  6
CONTINUOUS
 62
    3
 10
1806.2968932571059
 20
1151.0947982538348
 11
1818.2968929509445
 21
1151.0947982538348
  0
LINE
  8
_0-1_計細線
  6
CONTINUOUS
 62
    3
 10
352.29689303288978
 20
1162.0947982538348
 11
352.29689303288978
 21
1139.0947982538348
  0
LINE
  8
_0-1_計細線
  6
CONTINUOUS
 62
    3
 10
2332.2968930328898
 20
1139.0947982538348
 11
2332.2968930328898
 21
1162.0947982538348
  0
LINE
  8
_0-1_計細線
  6
CONTINUOUS
 62
    3
 10
2332.2968930328898
 20
1162.0947982538348
 11
352.29689303288978
 21
1162.0947982538348
  0
LINE
  8
_0-1_計細線
  6
CONTINUOUS
 62
    3
 10
352.29689303288978
 20
1139.0947982538348
 11
394.29689325710484
 21
1139.0947982538348
  0
LINE
  8
_0-1_計細線
  6
CONTINUOUS
 62
    3
 10
2290.2968929509443
 20
1139.0947982538348
 11
2332.2968930328898
 21
1139.0947982538348
  0
LINE
  8
_0-1_計細線
  6
CONTINUOUS
 62
    3
 10
410.2968929509434
 20
1139.0947982538348
 11
864.29689325710478
 21
1139.0947982538348
  0
LINE
  8
_0-1_計細線
  6
CONTINUOUS
 62
    3
 10
880.2968929509434
 20
1139.0947982538348
 11
1334.2968932571048
 21
1139.0947982538348
  0
LINE
  8
_0-1_計細線
  6
CONTINUOUS
 62
    3
 10
1350.2968929509436
 20
1139.0947982538348
 11
1804.2968932571057
 21
1139.0947982538348
  0
LINE
  8
_0-1_計細線
  6
CONTINUOUS
 62
    3
 10
1820.2968929509443
 20
1139.0947982538348
 11
2274.2968932571057
 21
1139.0947982538348
  0
LINE
  8
_0-5_寸法線
  6
CONTINUOUS
 62
    7
 10
402.29689303288978
 20
1116.0947982538348
 11
412.82259110531641
 21
1099.0886323106213
  0
LINE
  8
_0-5_寸法線
  6
CONTINUOUS
 62
    7
 10
402.29689303288978
 20
1116.0947982538348
 11
402.90933198456941
 21
1096.1041774898249
  0
LINE
  8
_0-5_寸法線
  6
CONTINUOUS
 62
    7
 10
402.29689303288978
 20
1116.0947982538348
 11
419.98405921459209
 21
1057.3445500513378
  0
LINE
  8
_0-5_寸法線
  6
CONTINUOUS
 62
    7
 10
419.98405921459209
 20
1057.3445500513378
 11
515.98405921459198
 21
1057.3445500513378
  0
TEXT
  8
_0-5_寸法線
 62
    7
 10
419.98405921459209
 20
1057.3445500513378
 40
30
 41
0.7999999999999998
 50
0
  1
アンカー
  0
LINE
  8
_0-7_枠細線
  6
CONTINUOUS
 62
    5
 10
451.96598423251629
 20
1091.7729591144116
 11
436.96598423251629
 21
1121.7729591144116
  0
LINE
  8
_0-7_枠細線
  6
CONTINUOUS
 62
    5
 10
421.96598423251629
 20
1091.7729591144116
 11
451.96598423251629
 21
1091.7729591144116
  0
LINE
  8
_0-7_枠細線
  6
CONTINUOUS
 62
    5
 10
436.96598423251629
 20
1121.7729591144116
 11
421.96598423251629
 21
1091.7729591144116
  0
TEXT
  8
_0-7_枠細線
 62
    5
 10
426.696286768812
 20
1091.1589546236505
 40
25
 41
0.8
 50
0
  1
１
  0
LINE
  8
_0-5_寸法線
  6
CONTINUOUS
 62
    7
 10
2352.2968930328898
 20
1139.0947982538348
 11
2442.2968930328898
 21
1139.0947982538344
  0
LINE
  8
_0-5_寸法線
  6
CONTINUOUS
 62
    7
 10
2432.2968930328898
 20
1139.0947982538344
 11
2437.4732739349402
 21
1119.7762817280529
  0
LINE
  8
_0-5_寸法線
  6
CONTINUOUS
 62
    7
 10
2432.2968930328898
 20
1139.0947982538344
 11
2427.1205121308394
 21
1119.7762817280529
  0
LINE
  8
_0-5_寸法線
  6
CONTINUOUS
 62
    7
 10
2352.2968930328898
 20
1162.0947982538348
 11
2442.2968930328898
 21
1162.0947982538344
  0
LINE
  8
_0-5_寸法線
  6
CONTINUOUS
 62
    7
 10
2432.2968930328898
 20
1162.0947982538344
 11
2427.1205121308394
 21
1181.4133147796158
  0
LINE
  8
_0-5_寸法線
  6
CONTINUOUS
 62
    7
 10
2432.2968930328898
 20
1162.0947982538344
 11
2437.4732739349402
 21
1181.4133147796158
  0
LINE
  8
_0-5_寸法線
  6
CONTINUOUS
 62
    7
 10
2432.2968930328898
 20
1089.0947982538344
 11
2432.2968930328898
 21
1212.0947982538344
  0
TEXT
  8
_0-5_寸法線
 62
    7
 10
2432.2968930328907
 20
1095.7464814603741
 40
30
 41
1
 50
90
  1
23
  0
LINE
  8
_0-5_寸法線
  6
CONTINUOUS
 62
    7
 10
352.29689303288978
 20
1182.0947982538348
 11
352.29689303288978
 21
1272.0947982538348
  0
LINE
  8
_0-5_寸法線
  6
CONTINUOUS
 62
    7
 10
352.29689303288978
 20
1262.0947982538348
 11
371.6154095586711
 21
1267.2711791558852
  0
LINE
  8
_0-5_寸法線
  6
CONTINUOUS
 62
    7
 10
352.29689303288978
 20
1262.0947982538348
 11
371.6154095586711
 21
1256.9184173517847
  0
LINE
  8
_0-5_寸法線
  6
CONTINUOUS
 62
    7
 10
402.29689303288978
 20
1182.0947982538348
 11
402.29689303288978
 21
1272.0947982538348
  0
LINE
  8
_0-5_寸法線
  6
CONTINUOUS
 62
    7
 10
402.29689303288978
 20
1262.0947982538348
 11
382.97837650710846
 21
1256.9184173517847
  0
LINE
  8
_0-5_寸法線
  6
CONTINUOUS
 62
    7
 10
402.29689303288978
 20
1262.0947982538348
 11
382.97837650710846
 21
1267.2711791558852
  0
LINE
  8
_0-5_寸法線
  6
CONTINUOUS
 62
    7
 10
352.29689303288978
 20
1262.0947982538348
 11
402.29689303288978
 21
1262.0947982538348
  0
TEXT
  8
_0-5_寸法線
 62
    7
 10
362.29689303288978
 20
1262.0947982538348
 40
30
 41
1
 50
0
  1
50
  0
LINE
  8
_0-5_寸法線
  6
CONTINUOUS
 62
    7
 10
402.29689303288978
 20
1262.0947982538348
 11
421.6154095586711
 21
1267.2711791558852
  0
LINE
  8
_0-5_寸法線
  6
CONTINUOUS
 62
    7
 10
402.29689303288978
 20
1262.0947982538348
 11
421.6154095586711
 21
1256.9184173517842
  0
LINE
  8
_0-5_寸法線
  6
CONTINUOUS
 62
    7
 10
872.29689303288978
 20
1182.0947982538348
 11
872.29689303288978
 21
1272.0947982538348
  0
LINE
  8
_0-5_寸法線
  6
CONTINUOUS
 62
    7
 10
872.29689303288978
 20
1262.0947982538348
 11
852.97837650710846
 21
1256.9184173517847
  0
LINE
  8
_0-5_寸法線
  6
CONTINUOUS
 62
    7
 10
872.29689303288978
 20
1262.0947982538348
 11
852.97837650710846
 21
1267.2711791558852
  0
LINE
  8
_0-5_寸法線
  6
CONTINUOUS
 62
    7
 10
402.29689303288978
 20
1262.0947982538348
 11
872.29689303288978
 21
1262.0947982538348
  0
TEXT
  8
_0-5_寸法線
 62
    7
 10
614.79689303288978
 20
1262.0947982538348
 40
30
 41
1
 50
0
  1
470
  0
LINE
  8
_0-5_寸法線
  6
CONTINUOUS
 62
    7
 10
872.29689303288978
 20
1262.0947982538348
 11
891.61540955867122
 21
1267.2711791558852
  0
LINE
  8
_0-5_寸法線
  6
CONTINUOUS
 62
    7
 10
872.29689303288978
 20
1262.0947982538348
 11
891.6154095586711
 21
1256.9184173517842
  0
LINE
  8
_0-5_寸法線
  6
CONTINUOUS
 62
    7
 10
1342.2968930328898
 20
1182.0947982538348
 11
1342.2968930328898
 21
1272.0947982538348
  0
LINE
  8
_0-5_寸法線
  6
CONTINUOUS
 62
    7
 10
1342.2968930328898
 20
1262.0947982538348
 11
1322.9783765071084
 21
1256.9184173517847
  0
LINE
  8
_0-5_寸法線
  6
CONTINUOUS
 62
    7
 10
1342.2968930328898
 20
1262.0947982538348
 11
1322.9783765071084
 21
1267.2711791558852
  0
LINE
  8
_0-5_寸法線
  6
CONTINUOUS
 62
    7
 10
872.29689303288978
 20
1262.0947982538348
 11
1342.2968930328898
 21
1262.0947982538348
  0
TEXT
  8
_0-5_寸法線
 62
    7
 10
1084.7968930328889
 20
1262.0947982538341
 40
30
 41
1
 50
0
  1
470
  0
LINE
  8
_0-5_寸法線
  6
CONTINUOUS
 62
    7
 10
1342.2968930328898
 20
1262.0947982538348
 11
1361.6154095586714
 21
1267.2711791558852
  0
LINE
  8
_0-5_寸法線
  6
CONTINUOUS
 62
    7
 10
1342.2968930328898
 20
1262.0947982538348
 11
1361.6154095586714
 21
1256.9184173517842
  0
LINE
  8
_0-5_寸法線
  6
CONTINUOUS
 62
    7
 10
1812.2968930328898
 20
1182.0947982538348
 11
1812.2968930328898
 21
1272.0947982538348
  0
LINE
  8
_0-5_寸法線
  6
CONTINUOUS
 62
    7
 10
1812.2968930328898
 20
1262.0947982538348
 11
1792.9783765071084
 21
1256.9184173517847
  0
LINE
  8
_0-5_寸法線
  6
CONTINUOUS
 62
    7
 10
1812.2968930328898
 20
1262.0947982538348
 11
1792.9783765071084
 21
1267.2711791558852
  0
LINE
  8
_0-5_寸法線
  6
CONTINUOUS
 62
    7
 10
1342.2968930328898
 20
1262.0947982538348
 11
1812.2968930328898
 21
1262.0947982538348
  0
TEXT
  8
_0-5_寸法線
 62
    7
 10
1554.7968930328898
 20
1262.0947982538341
 40
30
 41
1
 50
0
  1
470
  0
LINE
  8
_0-5_寸法線
  6
CONTINUOUS
 62
    7
 10
1812.2968930328898
 20
1262.0947982538348
 11
1831.6154095586714
 21
1267.2711791558852
  0
LINE
  8
_0-5_寸法線
  6
CONTINUOUS
 62
    7
 10
1812.2968930328898
 20
1262.0947982538348
 11
1831.6154095586714
 21
1256.9184173517842
  0
LINE
  8
_0-5_寸法線
  6
CONTINUOUS
 62
    7
 10
2282.2968930328898
 20
1182.0947982538348
 11
2282.2968930328898
 21
1272.0947982538348
  0
LINE
  8
_0-5_寸法線
  6
CONTINUOUS
 62
    7
 10
2282.2968930328898
 20
1262.0947982538348
 11
2262.9783765071084
 21
1256.9184173517847
  0
LINE
  8
_0-5_寸法線
  6
CONTINUOUS
 62
    7
 10
2282.2968930328898
 20
1262.0947982538348
 11
2262.9783765071084
 21
1267.2711791558852
  0
LINE
  8
_0-5_寸法線
  6
CONTINUOUS
 62
    7
 10
1812.2968930328898
 20
1262.0947982538348
 11
2282.2968930328898
 21
1262.0947982538348
  0
TEXT
  8
_0-5_寸法線
 62
    7
 10
2024.7968930328898
 20
1262.0947982538341
 40
30
 41
1
 50
0
  1
470
  0
LINE
  8
_0-5_寸法線
  6
CONTINUOUS
 62
    7
 10
2282.2968930328898
 20
1262.0947982538348
 11
2301.6154095586712
 21
1267.2711791558852
  0
LINE
  8
_0-5_寸法線
  6
CONTINUOUS
 62
    7
 10
2282.2968930328898
 20
1262.0947982538348
 11
2301.6154095586712
 21
1256.9184173517842
  0
LINE
  8
_0-5_寸法線
  6
CONTINUOUS
 62
    7
 10
2332.2968930328898
 20
1182.0947982538348
 11
2332.2968930328898
 21
1272.0947982538348
  0
LINE
  8
_0-5_寸法線
  6
CONTINUOUS
 62
    7
 10
2332.2968930328898
 20
1262.0947982538348
 11
2312.9783765071084
 21
1256.9184173517847
  0
LINE
  8
_0-5_寸法線
  6
CONTINUOUS
 62
    7
 10
2332.2968930328898
 20
1262.0947982538348
 11
2312.9783765071084
 21
1267.2711791558852
  0
LINE
  8
_0-5_寸法線
  6
CONTINUOUS
 62
    7
 10
2282.2968930328898
 20
1262.0947982538348
 11
2332.2968930328898
 21
1262.0947982538348
  0
TEXT
  8
_0-5_寸法線
 62
    7
 10
2292.2968930328898
 20
1262.0947982538348
 40
30
 41
1
 50
0
  1
50
  0
LINE
  8
_0-5_寸法線
  6
CONTINUOUS
 62
    7
 10
2332.2968930328898
 20
1534.0947982538351
 11
2332.2968930328902
 21
1624.0947982538351
  0
LINE
  8
_0-5_寸法線
  6
CONTINUOUS
 62
    7
 10
2332.2968930328902
 20
1614.0947982538351
 11
2351.6154095586717
 21
1619.2711791558852
  0
LINE
  8
_0-5_寸法線
  6
CONTINUOUS
 62
    7
 10
2332.2968930328902
 20
1614.0947982538351
 11
2351.6154095586717
 21
1608.9184173517845
  0
LINE
  8
_0-5_寸法線
  6
CONTINUOUS
 62
    7
 10
2329.2968930328898
 20
1534.0947982538351
 11
2329.2968930328902
 21
1624.0947982538351
  0
CIRCLE
  8
_0-5_寸法線
  6
CONTINUOUS
 62
    1
 10
2329.2968930328902
 20
1614.0947982538351
 40
3.0000000000000004
  0
LINE
  8
_0-5_寸法線
  6
CONTINUOUS
 62
    7
 10
2382.2968930328902
 20
1614.0947982538351
 11
2329.2968930328902
 21
1614.0947982538351
  0
TEXT
  8
_0-5_寸法線
 62
    7
 10
2364.3340240976358
 20
1614.0947982538351
 40
30
 41
1
 50
0
  1
3
  0
LINE
  8
_0-5_寸法線
  6
CONTINUOUS
 62
    7
 10
2327.7968930328898
 20
1534.0947982538351
 11
2327.7968930328907
 21
1624.0947982538351
  0
LINE
  8
_0-5_寸法線
  6
CONTINUOUS
 62
    7
 10
2329.2968930328902
 20
1614.0947982538351
 11
2327.7968930328907
 21
1614.0947982538351
  0
TEXT
  8
_0-5_寸法線
 62
    7
 10
2283.5468930328907
 20
1614.0947982538351
 40
30
 41
1
 50
0
  1
1.5
  0
LINE
  8
_0-5_寸法線
  6
CONTINUOUS
 62
    7
 10
2327.7968930328907
 20
1614.0947982538351
 11
2308.4783765071088
 21
1608.9184173517845
  0
LINE
  8
_0-5_寸法線
  6
CONTINUOUS
 62
    7
 10
2327.7968930328907
 20
1614.0947982538351
 11
2308.4783765071088
 21
1619.2711791558852
  0
LINE
  8
_0-5_寸法線
  6
CONTINUOUS
 62
    7
 10
356.79689303288995
 20
1534.0947982538351
 11
356.79689303289024
 21
1624.0947982538351
  0
LINE
  8
_0-5_寸法線
  6
CONTINUOUS
 62
    7
 10
356.79689303289024
 20
1614.0947982538351
 11
376.11540955867156
 21
1619.2711791558852
  0
LINE
  8
_0-5_寸法線
  6
CONTINUOUS
 62
    7
 10
356.79689303289024
 20
1614.0947982538351
 11
376.11540955867156
 21
1608.9184173517845
  0
LINE
  8
_0-5_寸法線
  6
CONTINUOUS
 62
    7
 10
2327.7968930328907
 20
1614.0947982538351
 11
356.79689303289024
 21
1614.0947982538351
  0
TEXT
  8
_0-5_寸法線
 62
    7
 10
1312.2968930328907
 20
1614.0947982538351
 40
30
 41
1
 50
0
  1
1971
  0
LINE
  8
_0-5_寸法線
  6
CONTINUOUS
 62
    7
 10
355.2968930328899
 20
1534.0947982538351
 11
355.29689303289035
 21
1624.0947982538351
  0
CIRCLE
  8
_0-5_寸法線
  6
CONTINUOUS
 62
    1
 10
355.29689303289018
 20
1614.0947982538351
 40
3.0000000000000004
  0
LINE
  8
_0-5_寸法線
  6
CONTINUOUS
 62
    7
 10
356.79689303289024
 20
1614.0947982538351
 11
355.29689303289018
 21
1614.0947982538351
  0
TEXT
  8
_0-5_寸法線
 62
    7
 10
354.77434352923837
 20
1614.0947982538351
 40
30
 41
1
 50
0
  1
1.5
  0
LINE
  8
_0-5_寸法線
  6
CONTINUOUS
 62
    7
 10
352.2968930328899
 20
1534.0947982538351
 11
352.29689303289035
 21
1624.0947982538351
  0
LINE
  8
_0-5_寸法線
  6
CONTINUOUS
 62
    7
 10
352.29689303289035
 20
1614.0947982538351
 11
332.97837650710892
 21
1608.9184173517845
  0
LINE
  8
_0-5_寸法線
  6
CONTINUOUS
 62
    7
 10
352.29689303289035
 20
1614.0947982538351
 11
332.97837650710903
 21
1619.2711791558852
  0
LINE
  8
_0-5_寸法線
  6
CONTINUOUS
 62
    7
 10
355.29689303289018
 20
1614.0947982538351
 11
302.29689303289024
 21
1614.0947982538351
  0
TEXT
  8
_0-5_寸法線
 62
    7
 10
306.5930313543339
 20
1614.0947982538351
 40
30
 41
1
 50
0
  1
3
  0
ENDSEC
  0
EOF
