  0
SECTION
  2
HEADER
  9
$ACADVER
  1
AC1009
  9
$INSBASE
 10
0
 20
0
 30
0
  9
$EXTMIN
 10
0
 20
0
  9
$EXTMAX
 10
1188
 20
840
  9
$LIMMIN
 10
0
 20
0
  9
$LIMMAX
 10
1188
 20
840
  9
$LTSCALE
 40
4
  0
ENDSEC
  0
SECTION
  2
TABLES
  0
TABLE
  2
LTYPE
 70
     9
  0
LTYPE
  2
CONTINUOUS
 70
    64
  3
実線
 72
    65
 73
     0
 40
0.0
  0
LTYPE
  2
DASHED1
 70
    64
  3
--  --  --  --  --  --  --  --  
 72
    65
 73
     2
 40
2.5
 49
1.25
 49
-1.25
  0
LTYPE
  2
DASHED2
 70
    64
  3
----    ----    ----    ----    
 72
    65
 73
     2
 40
5.0
 49
2.5
 49
-2.5
  0
LTYPE
  2
DASHED3
 70
    64
  3
------  ------  ------  ------  
 72
    65
 73
     2
 40
5.0
 49
3.75
 49
-1.25
  0
LTYPE
  2
CENTER1
 70
    64
  3
----- - ----- - ----- - ----- - 
 72
    65
 73
     4
 40
10.0
 49
6.25
 49
-1.25
 49
1.25
 49
-1.25
  0
LTYPE
  2
CENTER2
 70
    64
  3
----------  --  ----------  --  
 72
    65
 73
     4
 40
20.0
 49
12.5
 49
-2.5
 49
2.5
 49
-2.5
  0
LTYPE
  2
PHANTOM1
 70
    64
  3
--- - - --- - - --- - - --- - - 
 72
    65
 73
     6
 40
10.0
 49
3.25
 49
-1.25
 49
1.25
 49
-1.25
 49
1.25
 49
-1.25
  0
LTYPE
  2
PHANTOM2
 70
    64
  3
--------  -  -  --------  -  -  
 72
    65
 73
     6
 40
20.0
 49
10.0
 49
-2.5
 49
1.25
 49
-2.5
 49
1.25
 49
-2.5
  0
LTYPE
  2
DOT
 70
    64
  3
-   -   -   -   -   -   -   -   
 72
    65
 73
     2
 40
2.5
 49
0.625
 49
-1.875
  0
LTYPE
  2
DUMMY
 70
    64
  3
ダミー
 72
    65
 73
     0
 40
0.0
  0
LTYPE
  2
RAND1
 70
    64
  3
ランダム線1
 72
    65
 73
     4
 40
10.0
 49
1.0
 49
-2.0
 49
3.0
 49
-4.0
  0
LTYPE
  2
RAND2
 70
    64
  3
ランダム線2
 72
    65
 73
     4
 40
14.0
 49
2.0
 49
-3.0
 49
4.0
 49
-5.0
  0
LTYPE
  2
RAND3
 70
    64
  3
ランダム線3
 72
    65
 73
     4
 40
18.0
 49
3.0
 49
-4.0
 49
5.0
 49
-6.0
  0
LTYPE
  2
RAND4
 70
    64
  3
ランダム線4
 72
    65
 73
     4
 40
22.0
 49
4.0
 49
-5.0
 49
6.0
 49
-7.0
  0
LTYPE
  2
RAND5
 70
    64
  3
ランダム線5
 72
    65
 73
     4
 40
26.0
 49
5.0
 49
-6.0
 49
7.0
 49
-8.0
  0
LTYPE
  2
LONG1
 70
    64
  3
----------  --  ----------  --  
 72
    65
 73
     4
 40
40.0
 49
32.5
 49
-2.5
 49
2.5
 49
-2.5
  0
LTYPE
  2
LONG2
 70
    64
  3
--------  -  -  --------  -  -  
 72
    65
 73
     6
 40
40.0
 49
30.0
 49
-2.5
 49
1.25
 49
-2.5
 49
1.25
 49
-2.5
  0
LTYPE
  2
LONG3
 70
    64
  3
+++++++++++++++..+++++++++++++++
 72
    65
 73
     2
 40
40.0
 49
37.5
 49
-2.5
  0
LTYPE
  2
LONG4
 70
    64
  3
+++++++++++++++..+++++++++++++++
 72
    65
 73
     2
 40
80.0
 49
75.0
 49
-5.0
  0
LTYPE
  2
LONG5
 70
    64
  3
----------  --  ----------  --  
 72
    65
 73
     4
 40
60.0
 49
37.5
 49
-7.5
 49
7.5
 49
-7.5
  0
LTYPE
  2
dashed
 70
   64
  3
-------   -------------   ------
 72
   65
 73
    2
 40
7.5
 49
6
 49
-1.5
  0
LTYPE
  2
dashed_spaced
 70
   64
  3
----        --------        ----
 72
   65
 73
    2
 40
12
 49
6
 49
-6
  0
LTYPE
  2
long_dashed_dotted
 70
   64
  3
------------- --- --------------
 72
   65
 73
    4
 40
15.25
 49
12
 49
-1.5
 49
0.25
 49
-1.5
  0
LTYPE
  2
long_dashed_double-dotted
 70
   64
  3
----------- --- --- ------------
 72
   65
 73
    6
 40
17
 49
12
 49
-1.5
 49
0.25
 49
-1.5
 49
0.25
 49
-1.5
  0
LTYPE
  2
long_dashed_triplicate-dotted
 70
   64
  3
--------- --- --- --- ----------
 72
   65
 73
    8
 40
18.75
 49
12
 49
-1.5
 49
0.25
 49
-1.5
 49
0.25
 49
-1.5
 49
0.25
 49
-1.5
  0
LTYPE
  2
dotted
 70
   64
  3
   -       -       -       -    
 72
   65
 73
    2
 40
1.75
 49
0.25
 49
-1.5
  0
LTYPE
  2
chain
 70
   64
  3
-------------- -- --------------
 72
   65
 73
    4
 40
18.5
 49
12
 49
-1.5
 49
3.5
 49
-1.5
  0
LTYPE
  2
chain_double_dash
 70
   64
  3
------------ -- -- -------------
 72
   65
 73
    6
 40
23.5
 49
12
 49
-1.5
 49
3.5
 49
-1.5
 49
3.5
 49
-1.5
  0
LTYPE
  2
dashed_dotted
 70
   64
  3
-----------     -     ----------
 72
   65
 73
    4
 40
9.25
 49
6
 49
-1.5
 49
0.25
 49
-1.5
  0
LTYPE
  2
double-dashed_dotted
 70
   64
  3
------   -----------   -   -----
 72
   65
 73
    6
 40
16.75
 49
6
 49
-1.5
 49
6
 49
-1.5
 49
0.25
 49
-1.5
  0
LTYPE
  2
dashed_double-dotted
 70
   64
  3
---------    -    -    ---------
 72
   65
 73
    6
 40
11
 49
6
 49
-1.5
 49
0.25
 49
-1.5
 49
0.25
 49
-1.5
  0
LTYPE
  2
double-dashed_double-dotted
 70
   64
  3
-----   ---------   -   -   ----
 72
   65
 73
    8
 40
18.5
 49
6
 49
-1.5
 49
6
 49
-1.5
 49
0.25
 49
-1.5
 49
0.25
 49
-1.5
  0
LTYPE
  2
dashed_triplicate-dotted
 70
   64
  3
-------    -    -    -    ------
 72
   65
 73
    8
 40
12.75
 49
6
 49
-1.5
 49
0.25
 49
-1.5
 49
0.25
 49
-1.5
 49
0.25
 49
-1.5
  0
LTYPE
  2
double-dashed_triplicate-dotted
 70
   64
  3
-----  ---------  -  -  -  -----
 72
   65
 73
   10
 40
20.25
 49
6
 49
-1.5
 49
6
 49
-1.5
 49
0.25
 49
-1.5
 49
0.25
 49
-1.5
 49
0.25
 49
-1.5
  0
LTYPE
  2
undefined
 70
   64
  3
--------------------------------
 72
   65
 73
    0
 40
0
  0
ENDTAB
  0
TABLE
  2
STYLE
  5
3
100
AcDbSymbolTable
 70
     1
  0
STYLE
  5
10
100
AcDbSymbolTableRecord
100
AcDbTextStyleTableRecord
  2
STANDARD
 70
     0
 40
0.0
 41
1.0
 50
0.0
 71
     0
 42
0.2
  3
txt
  4
bigfont.shx
  0
STYLE
  5
26
100
AcDbSymbolTableRecord
100
AcDbTextStyleTableRecord
  2
TATEGAKI
 70
    68
 40
0.0
 41
1.0
 50
0.0
 71
     0
 42
1.0
  3
txt
  4
bigfont.shx
  0
ENDTAB
  0
TABLE
  2
LAYER
 70
    8
  0
LAYER
  2
_0-0_計極細
 70
   64
 62
    7
  6
CONTINUOUS
  0
LAYER
  2
_0-1_計細線
 70
   64
 62
    7
  6
CONTINUOUS
  0
LAYER
  2
_0-5_寸法線
 70
   64
 62
    7
  6
CONTINUOUS
  0
LAYER
  2
_0-6_現況線
 70
   64
 62
    7
  6
CONTINUOUS
  0
LAYER
  2
_0-7_枠細線
 70
   64
 62
    7
  6
CONTINUOUS
  0
LAYER
  2
_0-8_枠中線
 70
   64
 62
    7
  6
CONTINUOUS
  0
LAYER
  2
_0-9_枠極太
 70
   64
 62
    7
  6
CONTINUOUS
  0
LAYER
  2
ADD_LINE
 70
   64
 62
    7
  6
CONTINUOUS
  0
ENDTAB
  0
ENDSEC
  0
SECTION
  2
BLOCKS
  0
ENDSEC
  0
SECTION
  2
ENTITIES
  0
LINE
  8
_0-7_枠細線
  6
CONTINUOUS
 62
    5
 10
948
 20
144
 11
948
 21
80
  0
TEXT
  8
_0-7_枠細線
 62
    5
 10
750
 20
78
 40
14
 41
1
 50
0
  1
備考
  7
TATEGAKI
  0
TEXT
  8
_0-7_枠細線
 62
    5
 10
750
 20
110
 40
14
 41
1
 50
0
  1
品番
  7
TATEGAKI
  0
TEXT
  8
_0-7_枠細線
 62
    5
 10
750
 20
142
 40
14
 41
1
 50
0
  1
品名
  7
TATEGAKI
  0
LINE
  8
_0-7_枠細線
  6
CONTINUOUS
 62
    5
 10
948
 20
112
 11
740
 21
112
  0
LINE
  8
_0-7_枠細線
  6
CONTINUOUS
 62
    5
 10
760
 20
144
 11
760
 21
48
  0
LINE
  8
_0-8_枠中線
  6
CONTINUOUS
 62
    5
 10
1140
 20
144
 11
740
 21
144
  0
LINE
  8
_0-8_枠中線
  6
CONTINUOUS
 62
    5
 10
740
 20
144
 11
740
 21
48
  0
LINE
  8
_0-7_枠細線
  6
CONTINUOUS
 62
    5
 10
996
 20
144
 11
996
 21
48
  0
TEXT
  8
_0-7_枠細線
 62
    5
 10
954
 20
128
 40
12
 41
1
 50
0
  1
縮　尺
  0
LINE
  8
_0-7_枠細線
  6
CONTINUOUS
 62
    5
 10
948
 20
124
 11
996
 21
124
  0
LINE
  8
_0-7_枠細線
  6
CONTINUOUS
 62
    5
 10
996
 20
80
 11
740
 21
80
  0
LINE
  8
_0-7_枠細線
  6
CONTINUOUS
 62
    5
 10
1140
 20
72
 11
996
 21
72
  0
LINE
  8
_0-7_枠細線
  6
CONTINUOUS
 62
    5
 10
996
 20
96
 11
1140
 21
96
  0
LINE
  8
_0-7_枠細線
  6
CONTINUOUS
 62
    5
 10
1140
 20
112
 11
996
 21
112
  0
TEXT
  8
_0-7_枠細線
 62
    5
 10
1004
 20
118
 40
20
 41
0.8
 50
0
  1
株式会社シマブン
  0
TEXT
  8
_0-7_枠細線
 62
    5
 10
1002
 20
48
 40
12
 41
1
 50
0
  1
年月日
  0
TEXT
  8
_0-7_枠細線
 62
    5
 10
1002
 20
60
 40
12
 41
1
 50
0
  1
作　成
  0
TEXT
  8
_0-7_枠細線
 62
    5
 10
1000
 20
76
 40
16
 41
1
 50
0
  1
島 英
  0
TEXT
  8
_0-7_枠細線
 62
    5
 10
1005
 20
98
 40
12
 41
1
 50
0
  1
承 認
  0
LINE
  8
_0-7_枠細線
  6
CONTINUOUS
 62
    5
 10
1044
 20
112
 11
1044
 21
48
  0
TEXT
  8
_0-7_枠細線
 62
    5
 10
1052
 20
76
 40
16
 41
1
 50
0
  1
隠塚
  0
TEXT
  8
_0-7_枠細線
 62
    5
 10
1053
 20
98
 40
12
 41
1
 50
0
  1
検 図
  0
LINE
  8
_0-7_枠細線
  6
CONTINUOUS
 62
    5
 10
1092
 20
112
 11
1092
 21
72
  0
TEXT
  8
_0-7_枠細線
 62
    5
 10
1100
 20
76
 40
16
 41
1
 50
0
  1
藤戸
  0
TEXT
  8
_0-7_枠細線
 62
    5
 10
1101
 20
98
 40
12
 41
1
 50
0
  1
設 計
  0
TEXT
  8
_0-7_枠細線
 62
    5
 10
955.19999999999982
 20
94
 40
16
 41
0.6999999999999999
 50
0
  1
１：４
  0
TEXT
  8
_0-7_枠細線
 62
    5
 10
772.39999999999986
 20
120
 40
16
 41
0.5999999999999998
 50
0
  1
「セラハンド」６００ｍｍ
  0
TEXT
  8
_0-7_枠細線
 62
    5
 10
1048
 20
54
 40
12
 41
0.6666666666666666
 50
0
  1
２００８年０６月０６日
  0
LINE
  8
_0-7_枠細線
  6
CONTINUOUS
 62
    5
 10
1140
 20
754
 11
712
 21
754
  0
TEXT
  8
_0-7_枠細線
 62
    5
 10
716
 20
755.99999999999989
 40
10
 41
1
 50
0
  1
記号
  0
TEXT
  8
_0-7_枠細線
 62
    5
 10
797.5
 20
756
 40
10
 41
1
 50
0
  1
訂　 正　 記　 事
  0
TEXT
  8
_0-7_枠細線
 62
    5
 10
945
 20
756
 40
10
 41
1
 50
0
  1
訂 正 年 月 日
  0
TEXT
  8
_0-7_枠細線
 62
    5
 10
1045
 20
756
 40
10
 41
1
 50
0
  1
備　　　　　考
  0
TEXT
  8
_0-7_枠細線
 62
    5
 10
772.39999999999986
 20
56
 40
16
 41
0.5999999999999998
 50
0
  1
柄については品番表参照のこと
  0
TEXT
  8
_0-7_枠細線
 62
    5
 10
772.39999999999986
 20
88
 40
16
 41
0.5999999999999998
 50
0
  1
ＴＩＣ－３２Ｓ６００
  0
LINE
  8
_0-7_枠細線
  6
CONTINUOUS
 62
    5
 10
1140
 20
740
 11
712
 21
740
  0
TEXT
  8
_0-7_枠細線
 62
    5
 10
944
 20
742
 40
10
 41
0.7199999999999999
 50
0
  1
２０１３．０３．１３
  0
LINE
  8
_0-7_枠細線
  6
CONTINUOUS
 62
    5
 10
712
 20
740
 11
712
 21
767.99999999999955
  0
LINE
  8
_0-7_枠細線
  6
CONTINUOUS
 62
    5
 10
740
 20
740
 11
740
 21
767.99999999999955
  0
LINE
  8
_0-7_枠細線
  6
CONTINUOUS
 62
    5
 10
940
 20
740
 11
940
 21
767.99999999999955
  0
LINE
  8
_0-7_枠細線
  6
CONTINUOUS
 62
    5
 10
1020
 20
740
 11
1020
 21
767.99999999999955
  0
TEXT
  8
_0-7_枠細線
 62
    5
 10
751.08029629629618
 20
742
 40
10
 41
1
 50
0
  1
品番変更
  0
LINE
  8
_0-6_現況線
  6
CONTINUOUS
 62
    4
 10
483.76088709324688
 20
624.10567258236267
 11
515.76088709325234
 21
656.1056725823654
  0
LINE
  8
_0-6_現況線
  6
CONTINUOUS
 62
    4
 10
475.2756057190096
 20
624.10567258236267
 11
507.27560571901324
 21
656.1056725823654
  0
LINE
  8
_0-6_現況線
  6
CONTINUOUS
 62
    4
 10
492.2461684674887
 20
624.10567258236244
 11
524.24616846749234
 21
656.1056725823654
  0
LINE
  8
_0-6_現況線
  6
CONTINUOUS
 62
    4
 10
507.17634292368859
 20
624.10567258236267
 11
475.17634292368496
 21
656.10567258236586
  0
LINE
  8
_0-6_現況線
  6
CONTINUOUS
 62
    4
 10
515.66162429792496
 20
624.10567258236244
 11
483.66162429792223
 21
656.10567258236586
  0
LINE
  8
_0-6_現況線
  6
CONTINUOUS
 62
    4
 10
524.14690567216769
 20
624.10567258236244
 11
492.14690567216132
 21
656.10567258236563
  0
LINE
  8
_0-6_現況線
  6
CONTINUOUS
 62
    4
 10
422.32352918130766
 20
624.10567258236244
 11
390.3235291813013
 21
656.10567258236654
  0
LINE
  8
_0-6_現況線
  6
CONTINUOUS
 62
    4
 10
405.35296643282948
 20
624.10567258236267
 11
373.35296643282402
 21
656.10567258236676
  0
LINE
  8
_0-6_現況線
  6
CONTINUOUS
 62
    4
 10
413.83824780706766
 20
624.10567258236267
 11
381.8382478070622
 21
656.10567258236676
  0
LINE
  8
_0-6_現況線
  6
CONTINUOUS
 62
    4
 10
390.42279197662231
 20
624.10567258236244
 11
422.42279197662504
 21
656.10567258236608
  0
LINE
  8
_0-6_現況線
  6
CONTINUOUS
 62
    4
 10
381.93751060238412
 20
624.10567258236267
 11
413.93751060238958
 21
656.10567258236631
  0
LINE
  8
_0-6_現況線
  6
CONTINUOUS
 62
    4
 10
373.45222922814503
 20
624.10567258236267
 11
405.45222922814867
 21
656.10567258236631
  0
LINE
  8
_0-6_現況線
  6
CONTINUOUS
 62
    4
 10
371.41184093587401
 20
624.10567258236267
 11
339.41184093587128
 21
656.10567258236722
  0
LINE
  8
_0-6_現況線
  6
CONTINUOUS
 62
    4
 10
354.44127818739855
 20
624.10567258236244
 11
329.90347218072168
 21
648.64347858904068
  0
LINE
  8
_0-6_現況線
  6
CONTINUOUS
 62
    4
 10
362.92655956163765
 20
624.10567258236267
 11
330.92655956163219
 21
656.10567258236722
  0
LINE
  8
_0-6_現況線
  6
CONTINUOUS
 62
    4
 10
339.51110373118865
 20
624.10567258236244
 11
371.51110373119502
 21
656.10567258236654
  0
LINE
  8
_0-6_現況線
  6
CONTINUOUS
 62
    4
 10
329.90347218072168
 20
631.46860378037229
 11
354.54054098271592
 21
656.10567258236676
  0
LINE
  8
_0-6_現況線
  6
CONTINUOUS
 62
    4
 10
331.02582235694956
 20
624.10567258236267
 11
363.02582235695411
 21
656.10567258236676
  0
LINE
  8
_0-6_現況線
  6
CONTINUOUS
 62
    4
 10
345.95599681316037
 20
624.10567258236267
 11
329.90347218072168
 21
640.15819721480227
  0
LINE
  8
_0-6_現況線
  6
CONTINUOUS
 62
    4
 10
337.47071543892218
 20
624.10567258236267
 11
329.90347218072259
 21
631.67291584056409
  0
LINE
  8
_0-6_現況線
  6
CONTINUOUS
 62
    4
 10
329.90347218072259
 20
639.95388515461025
 11
346.05525960847592
 21
656.10567258236722
  0
LINE
  8
_0-6_現況線
  6
CONTINUOUS
 62
    4
 10
329.90347218071986
 20
648.43916652884889
 11
337.56997823423683
 21
656.10567258236676
  0
LINE
  8
_0-6_現況線
  6
CONTINUOUS
 62
    4
 10
396.86768505859038
 20
624.10567258236267
 11
364.86768505858583
 21
656.10567258236676
  0
LINE
  8
_0-6_現況線
  6
CONTINUOUS
 62
    4
 10
388.38240368435402
 20
624.10567258236267
 11
356.38240368434856
 21
656.10567258236676
  0
LINE
  8
_0-6_現況線
  6
CONTINUOUS
 62
    4
 10
379.89712231011401
 20
624.10567258236267
 11
347.89712231010947
 21
656.10567258236722
  0
LINE
  8
_0-6_現況線
  6
CONTINUOUS
 62
    4
 10
347.99638510542866
 20
624.10567258236244
 11
379.9963851054323
 21
656.10567258236631
  0
LINE
  8
_0-6_現況線
  6
CONTINUOUS
 62
    4
 10
364.96694785390412
 20
624.10567258236267
 11
396.96694785390957
 21
656.10567258236631
  0
LINE
  8
_0-6_現況線
  6
CONTINUOUS
 62
    4
 10
356.48166647966593
 20
624.10567258236244
 11
388.48166647967048
 21
656.10567258236631
  0
LINE
  8
_0-6_現況線
  6
CONTINUOUS
 62
    4
 10
473.23521742673404
 20
624.10567258236244
 11
441.23521742672949
 21
656.10567258236608
  0
LINE
  8
_0-6_現況線
  6
CONTINUOUS
 62
    4
 10
456.26465467825858
 20
624.10567258236267
 11
424.26465467825312
 21
656.10567258236631
  0
LINE
  8
_0-6_現況線
  6
CONTINUOUS
 62
    4
 10
464.74993605249495
 20
624.10567258236267
 11
432.74993605249131
 21
656.10567258236631
  0
LINE
  8
_0-6_現況線
  6
CONTINUOUS
 62
    4
 10
432.84919884781687
 20
624.10567258236267
 11
464.8491988478205
 21
656.10567258236586
  0
LINE
  8
_0-6_現況線
  6
CONTINUOUS
 62
    4
 10
441.33448022205323
 20
624.10567258236244
 11
473.33448022205869
 21
656.10567258236586
  0
LINE
  8
_0-6_現況線
  6
CONTINUOUS
 62
    4
 10
424.36391747357686
 20
624.10567258236267
 11
456.36391747358141
 21
656.10567258236586
  0
LINE
  8
_0-6_現況線
  6
CONTINUOUS
 62
    4
 10
447.77937330401949
 20
624.10567258236267
 11
415.77937330401585
 21
656.10567258236631
  0
LINE
  8
_0-6_現況線
  6
CONTINUOUS
 62
    4
 10
439.2940919297813
 20
624.10567258236267
 11
407.29409192977766
 21
656.10567258236631
  0
LINE
  8
_0-6_現況線
  6
CONTINUOUS
 62
    4
 10
430.80881055554403
 20
624.10567258236244
 11
398.80881055553857
 21
656.10567258236654
  0
LINE
  8
_0-6_現況線
  6
CONTINUOUS
 62
    4
 10
415.87863609933686
 20
624.10567258236267
 11
447.87863609934141
 21
656.10567258236608
  0
LINE
  8
_0-6_現況線
  6
CONTINUOUS
 62
    4
 10
407.39335472509958
 20
624.10567258236244
 11
439.39335472510413
 21
656.10567258236608
  0
LINE
  8
_0-6_現況線
  6
CONTINUOUS
 62
    4
 10
398.9080733508614
 20
624.10567258236244
 11
430.90807335086322
 21
656.10567258236608
  0
LINE
  8
_0-6_現況線
  6
CONTINUOUS
 62
    4
 10
498.69106154944768
 20
624.10567258236267
 11
466.69106154944768
 21
656.10567258236586
  0
LINE
  8
_0-6_現況線
  6
CONTINUOUS
 62
    4
 10
490.20578017521132
 20
624.10567258236267
 11
458.20578017520586
 21
656.10567258236608
  0
LINE
  8
_0-6_現況線
  6
CONTINUOUS
 62
    4
 10
481.72049880097404
 20
624.10567258236244
 11
449.72049880096949
 21
656.10567258236608
  0
LINE
  8
_0-6_現況線
  6
CONTINUOUS
 62
    4
 10
458.30504297053324
 20
624.10567258236244
 11
490.30504297053596
 21
656.10567258236563
  0
LINE
  8
_0-6_現況線
  6
CONTINUOUS
 62
    4
 10
449.81976159629323
 20
624.10567258236244
 11
481.81976159629596
 21
656.10567258236563
  0
LINE
  8
_0-6_現況線
  6
CONTINUOUS
 62
    4
 10
466.79032434477142
 20
624.10567258236267
 11
498.79032434477597
 21
656.1056725823654
  0
LINE
  8
_0-6_現況線
  6
CONTINUOUS
 62
    4
 10
710.82309590540683
 20
624.10567258236244
 11
678.8230959054041
 21
656.10567258236426
  0
LINE
  8
_0-6_現況線
  6
CONTINUOUS
 62
    4
 10
719.30837727964501
 20
624.10567258236267
 11
687.30837727964411
 21
656.10567258236404
  0
LINE
  8
_0-6_現況線
  6
CONTINUOUS
 62
    4
 10
727.79365865388502
 20
624.10567258236244
 11
695.79365865388229
 21
656.10567258236404
  0
LINE
  8
_0-6_現況線
  6
CONTINUOUS
 62
    4
 10
678.92235870074148
 20
624.10567258236267
 11
710.92235870074512
 21
656.10567258236358
  0
LINE
  8
_0-6_現況線
  6
CONTINUOUS
 62
    4
 10
695.89292144921785
 20
624.10567258236244
 11
727.8929214492224
 21
656.10567258236358
  0
LINE
  8
_0-6_現況線
  6
CONTINUOUS
 62
    4
 10
687.40764007498058
 20
624.10567258236267
 11
719.4076400749824
 21
656.10567258236358
  0
LINE
  8
_0-6_現況線
  6
CONTINUOUS
 62
    4
 10
670.43707732650421
 20
624.10567258236267
 11
702.43707732650421
 21
656.10567258236358
  0
LINE
  8
_0-6_現況線
  6
CONTINUOUS
 62
    4
 10
608.99971941454771
 20
624.10567258236244
 11
576.99971941454407
 21
656.10567258236495
  0
LINE
  8
_0-6_現況線
  6
CONTINUOUS
 62
    4
 10
617.48500078878772
 20
624.10567258236267
 11
585.48500078878408
 21
656.10567258236495
  0
LINE
  8
_0-6_現況線
  6
CONTINUOUS
 62
    4
 10
625.97028216302317
 20
624.10567258236267
 11
593.97028216302135
 21
656.10567258236495
  0
LINE
  8
_0-6_現況線
  6
CONTINUOUS
 62
    4
 10
568.61370083563691
 20
624.10567258236267
 11
600.61370083564145
 21
656.10567258236449
  0
LINE
  8
_0-6_現況線
  6
CONTINUOUS
 62
    4
 10
577.09898220987509
 20
624.10567258236267
 11
609.09898220987964
 21
656.10567258236449
  0
LINE
  8
_0-6_現況線
  6
CONTINUOUS
 62
    4
 10
585.58426358411691
 20
624.10567258236244
 11
617.58426358411691
 21
656.10567258236449
  0
LINE
  8
_0-6_現況線
  6
CONTINUOUS
 62
    4
 10
594.0695449583551
 20
624.10567258236267
 11
626.0695449583551
 21
656.10567258236449
  0
LINE
  8
_0-6_現況線
  6
CONTINUOUS
 62
    4
 10
566.5733125433577
 20
624.10567258236244
 11
534.57331254335224
 21
656.1056725823654
  0
LINE
  8
_0-6_現況線
  6
CONTINUOUS
 62
    4
 10
575.05859391759498
 20
624.10567258236244
 11
543.05859391759043
 21
656.1056725823654
  0
LINE
  8
_0-6_現況線
  6
CONTINUOUS
 62
    4
 10
543.15785671292053
 20
624.10567258236267
 11
575.15785671292326
 21
656.10567258236495
  0
LINE
  8
_0-6_現況線
  6
CONTINUOUS
 62
    4
 10
534.67257533868235
 20
624.10567258236244
 11
566.67257533868417
 21
656.10567258236495
  0
LINE
  8
_0-6_現況線
  6
CONTINUOUS
 62
    4
 10
517.70201259020507
 20
624.10567258236267
 11
549.70201259020689
 21
656.10567258236517
  0
LINE
  8
_0-6_現況線
  6
CONTINUOUS
 62
    4
 10
526.18729396444417
 20
624.10567258236244
 11
558.18729396444417
 21
656.10567258236495
  0
LINE
  8
_0-6_現況線
  6
CONTINUOUS
 62
    4
 10
558.0880311691177
 20
624.10567258236267
 11
526.08803116911588
 21
656.1056725823654
  0
LINE
  8
_0-6_現況線
  6
CONTINUOUS
 62
    4
 10
500.73144984172598
 20
624.10567258236267
 11
532.73144984173052
 21
656.10567258236517
  0
LINE
  8
_0-6_現況線
  6
CONTINUOUS
 62
    4
 10
509.21673121596325
 20
624.10567258236267
 11
541.21673121596962
 21
656.10567258236517
  0
LINE
  8
_0-6_現況線
  6
CONTINUOUS
 62
    4
 10
532.63218704640406
 20
624.10567258236244
 11
500.63218704639951
 21
656.10567258236563
  0
LINE
  8
_0-6_現況線
  6
CONTINUOUS
 62
    4
 10
541.11746842064133
 20
624.10567258236267
 11
509.11746842063769
 21
656.1056725823654
  0
LINE
  8
_0-6_現況線
  6
CONTINUOUS
 62
    4
 10
549.60274979487951
 20
624.10567258236267
 11
517.60274979487588
 21
656.1056725823654
  0
LINE
  8
_0-6_現況線
  6
CONTINUOUS
 62
    4
 10
583.54387529183225
 20
624.10567258236267
 11
551.54387529182861
 21
656.10567258236517
  0
LINE
  8
_0-6_現況線
  6
CONTINUOUS
 62
    4
 10
592.02915666607043
 20
624.10567258236267
 11
560.02915666606771
 21
656.10567258236517
  0
LINE
  8
_0-6_現況線
  6
CONTINUOUS
 62
    4
 10
600.51443804030771
 20
624.10567258236267
 11
568.51443804030407
 21
656.10567258236517
  0
LINE
  8
_0-6_現況線
  6
CONTINUOUS
 62
    4
 10
560.12841946139963
 20
624.10567258236267
 11
592.12841946140327
 21
656.10567258236495
  0
LINE
  8
_0-6_現況線
  6
CONTINUOUS
 62
    4
 10
551.64313808715963
 20
624.10567258236267
 11
583.64313808716417
 21
656.10567258236495
  0
LINE
  8
_0-6_現況線
  6
CONTINUOUS
 62
    4
 10
659.91140765997864
 20
624.10567258236244
 11
627.911407659975
 21
656.10567258236449
  0
LINE
  8
_0-6_現況線
  6
CONTINUOUS
 62
    4
 10
668.39668903421409
 20
624.10567258236267
 11
636.39668903421227
 21
656.10567258236449
  0
LINE
  8
_0-6_現況線
  6
CONTINUOUS
 62
    4
 10
676.88197040845409
 20
624.10567258236267
 11
644.88197040845228
 21
656.10567258236449
  0
LINE
  8
_0-6_現況線
  6
CONTINUOUS
 62
    4
 10
619.52538908107056
 20
624.10567258236244
 11
651.52538908107329
 21
656.10567258236426
  0
LINE
  8
_0-6_現況線
  6
CONTINUOUS
 62
    4
 10
628.01067045530783
 20
624.10567258236244
 11
660.01067045531056
 21
656.10567258236426
  0
LINE
  8
_0-6_現況線
  6
CONTINUOUS
 62
    4
 10
636.49595182954783
 20
624.10567258236267
 11
668.49595182955147
 21
656.10567258236404
  0
LINE
  8
_0-6_現況線
  6
CONTINUOUS
 62
    4
 10
644.98123320378602
 20
624.10567258236267
 11
676.98123320379057
 21
656.10567258236404
  0
LINE
  8
_0-6_現況線
  6
CONTINUOUS
 62
    4
 10
651.42612628574136
 20
624.10567258236267
 11
619.42612628573681
 21
656.10567258236449
  0
LINE
  8
_0-6_現況線
  6
CONTINUOUS
 62
    4
 10
634.45556353726317
 20
624.10567258236267
 11
602.45556353726045
 21
656.10567258236495
  0
LINE
  8
_0-6_現況線
  6
CONTINUOUS
 62
    4
 10
642.94084491150227
 20
624.10567258236267
 11
610.94084491149954
 21
656.10567258236449
  0
LINE
  8
_0-6_現況線
  6
CONTINUOUS
 62
    4
 10
602.55482633259328
 20
624.10567258236267
 11
634.55482633259601
 21
656.10567258236449
  0
LINE
  8
_0-6_現況線
  6
CONTINUOUS
 62
    4
 10
611.04010770683146
 20
624.10567258236244
 11
643.04010770683419
 21
656.10567258236426
  0
LINE
  8
_0-6_現況線
  6
CONTINUOUS
 62
    4
 10
685.36725178269319
 20
624.10567258236267
 11
653.36725178269046
 21
656.10567258236449
  0
LINE
  8
_0-6_現況線
  6
CONTINUOUS
 62
    4
 10
693.85253315693137
 20
624.10567258236244
 11
661.85253315692864
 21
656.10567258236426
  0
LINE
  8
_0-6_現況線
  6
CONTINUOUS
 62
    4
 10
702.33781453116956
 20
624.10567258236244
 11
670.33781453116592
 21
656.10567258236426
  0
LINE
  8
_0-6_現況線
  6
CONTINUOUS
 62
    4
 10
661.95179595226602
 20
624.10567258236267
 11
693.95179595226602
 21
656.10567258236404
  0
LINE
  8
_0-6_現況線
  6
CONTINUOUS
 62
    4
 10
653.4665145780242
 20
624.10567258236267
 11
685.46651457802784
 21
656.10567258236404
  0
LINE
  8
_0-6_現況線
  6
CONTINUOUS
 62
    4
 10
821.13175377050504
 20
624.10567258236267
 11
789.13175377050413
 21
656.10567258236313
  0
LINE
  8
_0-6_現況線
  6
CONTINUOUS
 62
    4
 10
829.61703514474232
 20
624.10567258236267
 11
797.61703514474232
 21
656.10567258236313
  0
LINE
  8
_0-6_現況線
  6
CONTINUOUS
 62
    4
 10
812.64647239626504
 20
624.10567258236244
 11
780.64647239626595
 21
656.10567258236313
  0
LINE
  8
_0-6_現況線
  6
CONTINUOUS
 62
    4
 10
797.71629794008606
 20
624.10567258236267
 11
829.71629794008606
 21
656.10567258236267
  0
LINE
  8
_0-6_現況線
  6
CONTINUOUS
 62
    4
 10
780.74573519160788
 20
624.10567258236267
 11
812.7457351916097
 21
656.10567258236313
  0
LINE
  8
_0-6_現況線
  6
CONTINUOUS
 62
    4
 10
772.26045381736697
 20
624.10567258236267
 11
804.2604538173706
 21
656.10567258236313
  0
LINE
  8
_0-6_現況線
  6
CONTINUOUS
 62
    4
 10
789.23101656584606
 20
624.10567258236267
 11
821.23101656584788
 21
656.10567258236267
  0
LINE
  8
_0-6_現況線
  6
CONTINUOUS
 62
    4
 10
761.73478415083957
 20
624.10567258236244
 11
729.73478415083503
 21
656.10567258236358
  0
LINE
  8
_0-6_現況線
  6
CONTINUOUS
 62
    4
 10
770.22006552507594
 20
624.10567258236244
 11
738.22006552507412
 21
656.10567258236358
  0
LINE
  8
_0-6_現況線
  6
CONTINUOUS
 62
    4
 10
778.70534689931503
 20
624.10567258236267
 11
746.70534689931139
 21
656.10567258236358
  0
LINE
  8
_0-6_現況線
  6
CONTINUOUS
 62
    4
 10
721.34876557193513
 20
624.10567258236267
 11
753.34876557193968
 21
656.10567258236313
  0
LINE
  8
_0-6_現況線
  6
CONTINUOUS
 62
    4
 10
738.31932832041514
 20
624.10567258236267
 11
770.31932832041514
 21
656.10567258236313
  0
LINE
  8
_0-6_現況線
  6
CONTINUOUS
 62
    4
 10
729.83404694617604
 20
624.10567258236267
 11
761.83404694617695
 21
656.10567258236313
  0
LINE
  8
_0-6_現況線
  6
CONTINUOUS
 62
    4
 10
746.80460969465241
 20
624.10567258236267
 11
778.80460969465332
 21
656.10567258236313
  0
LINE
  8
_0-6_現況線
  6
CONTINUOUS
 62
    4
 10
736.27894002812047
 20
624.10567258236267
 11
704.27894002812047
 21
656.10567258236404
  0
LINE
  8
_0-6_現況線
  6
CONTINUOUS
 62
    4
 10
744.76422140236048
 20
624.10567258236267
 11
712.76422140235957
 21
656.10567258236404
  0
LINE
  8
_0-6_現況線
  6
CONTINUOUS
 62
    4
 10
753.24950277660048
 20
624.10567258236244
 11
721.24950277659684
 21
656.10567258236404
  0
LINE
  8
_0-6_現況線
  6
CONTINUOUS
 62
    4
 10
712.86348419769695
 20
624.10567258236244
 11
744.86348419769695
 21
656.10567258236335
  0
LINE
  8
_0-6_現況線
  6
CONTINUOUS
 62
    4
 10
704.37820282345695
 20
624.10567258236244
 11
736.37820282345967
 21
656.10567258236358
  0
LINE
  8
_0-6_現況線
  6
CONTINUOUS
 62
    4
 10
787.19062827355322
 20
624.10567258236267
 11
755.19062827355049
 21
656.10567258236358
  0
LINE
  8
_0-6_現況線
  6
CONTINUOUS
 62
    4
 10
795.67590964779049
 20
624.10567258236267
 11
763.67590964778958
 21
656.10567258236358
  0
LINE
  8
_0-6_現況線
  6
CONTINUOUS
 62
    4
 10
804.16119102202867
 20
624.10567258236267
 11
772.16119102202686
 21
656.10567258236335
  0
LINE
  8
_0-6_現況線
  6
CONTINUOUS
 62
    4
 10
763.7751724431306
 20
624.10567258236267
 11
795.77517244313333
 21
656.10567258236313
  0
LINE
  8
_0-6_現況線
  6
CONTINUOUS
 62
    4
 10
755.28989106889151
 20
624.10567258236267
 11
787.28989106889242
 21
656.10567258236313
  0
LINE
  8
_0-6_現況線
  6
CONTINUOUS
 62
    4
 10
863.55816064169505
 20
624.10567258236267
 11
831.55816064169414
 21
656.10567258236267
  0
LINE
  8
_0-6_現況線
  6
CONTINUOUS
 62
    4
 10
872.04344201593506
 20
624.10567258236267
 11
840.04344201593233
 21
656.10567258236267
  0
LINE
  8
_0-6_現況線
  6
CONTINUOUS
 62
    4
 10
880.52872339017233
 20
624.10567258236244
 11
848.52872339017324
 21
656.10567258236267
  0
LINE
  8
_0-6_現況線
  6
CONTINUOUS
 62
    4
 10
848.62798618551972
 20
624.10567258236267
 11
880.62798618551972
 21
656.10567258236222
  0
LINE
  8
_0-6_現況線
  6
CONTINUOUS
 62
    4
 10
840.14270481127971
 20
624.10567258236267
 11
872.14270481128153
 21
656.10567258236222
  0
LINE
  8
_0-6_現況線
  6
CONTINUOUS
 62
    4
 10
831.65742343704153
 20
624.10567258236267
 11
863.65742343704244
 21
656.10567258236244
  0
LINE
  8
_0-6_現況線
  6
CONTINUOUS
 62
    4
 10
823.17214206280335
 20
624.10567258236267
 11
855.17214206280426
 21
656.10567258236267
  0
LINE
  8
_0-6_現況線
  6
CONTINUOUS
 62
    4
 10
838.10231651898232
 20
624.10567258236267
 11
806.10231651897959
 21
656.10567258236313
  0
LINE
  8
_0-6_現況線
  6
CONTINUOUS
 62
    4
 10
846.5875978932205
 20
624.10567258236267
 11
814.58759789321959
 21
656.10567258236313
  0
LINE
  8
_0-6_現況線
  6
CONTINUOUS
 62
    4
 10
855.07287926745687
 20
624.10567258236267
 11
823.07287926745596
 21
656.10567258236313
  0
LINE
  8
_0-6_現況線
  6
CONTINUOUS
 62
    4
 10
806.20157931432516
 20
624.10567258236244
 11
838.20157931432607
 21
656.10567258236267
  0
LINE
  8
_0-6_現況線
  6
CONTINUOUS
 62
    4
 10
814.68686068856334
 20
624.10567258236267
 11
846.68686068856425
 21
656.10567258236267
  0
LINE
  8
_0-6_現況線
  6
CONTINUOUS
 62
    4
 10
889.01400476441233
 20
624.10567258236267
 11
857.01400476441233
 21
656.10567258236267
  0
LINE
  8
_0-6_現況線
  6
CONTINUOUS
 62
    4
 10
857.11326755975972
 20
624.10567258236244
 11
889.11326755975972
 21
656.10567258236222
  0
LINE
  8
_0-5_寸法線
  6
CONTINUOUS
 62
    7
 10
797.42249524508657
 20
624.10567258236244
 11
799.49304760590667
 21
616.37826597204992
  0
LINE
  8
_0-5_寸法線
  6
CONTINUOUS
 62
    7
 10
797.42249524508657
 20
624.10567258236244
 11
795.35194288426635
 21
616.37826597204992
  0
LINE
  8
_0-5_寸法線
  6
CONTINUOUS
 62
    7
 10
797.42249524508657
 20
656.10567258236222
 11
795.35194288426646
 21
663.83307919267475
  0
LINE
  8
_0-5_寸法線
  6
CONTINUOUS
 62
    7
 10
797.42249524508657
 20
656.10567258236222
 11
799.49304760590678
 21
663.83307919267475
  0
ARC
  8
_0-1_計細線
  6
CONTINUOUS
 62
    3
 10
186.40347218071702
 20
473.10567258236176
 40
16
 50
322.83271453872976
 51
217.16728546127442
  0
LINE
  8
_0-1_計細線
  6
CONTINUOUS
 62
    3
 10
173.65347218071611
 20
417.60567258236381
 11
173.65347218071611
 21
464.29162130046177
  0
LINE
  8
_0-1_計細線
  6
CONTINUOUS
 62
    3
 10
199.15347218071702
 20
417.60567258236381
 11
199.15347218071702
 21
464.29162130046086
  0
LINE
  8
_0-1_計細線
  6
CONTINUOUS
 62
    3
 10
173.65347218071611
 20
417.60567258236381
 11
199.15347218071702
 21
417.60567258236381
  0
LINE
  8
_0-1_計細線
  6
CONTINUOUS
 62
    3
 10
608.15347215572058
 20
457.10567258235972
 11
593.65347215571967
 21
457.10567258235972
  0
LINE
  8
_0-1_計細線
  6
CONTINUOUS
 62
    3
 10
370.15347215572149
 20
457.10567258235972
 11
355.65347215571967
 21
457.10567258235972
  0
ARC
  8
_0-1_計細線
  6
CONTINUOUS
 62
    3
 10
349.65347215571785
 20
439.6056725823629
 40
18.49999999999784
 50
71.075355583946475
 51
108.92464441605352
  0
LINE
  8
_0-1_計細線
  6
CONTINUOUS
 62
    3
 10
396.6534721557224
 20
457.10567258235972
 11
382.15347215571785
 21
457.10567258235972
  0
ARC
  8
_0-1_計細線
  6
CONTINUOUS
 62
    3
 10
376.15347215571785
 20
439.6056725823629
 40
18.49999999999784
 50
71.075355583946475
 51
108.92464441605352
  0
LINE
  8
_0-1_計細線
  6
CONTINUOUS
 62
    3
 10
423.15347215572149
 20
457.10567258235972
 11
408.65347215571967
 21
457.10567258235972
  0
LINE
  8
_0-1_計細線
  6
CONTINUOUS
 62
    3
 10
449.55347215572112
 20
457.10567258235972
 11
435.15347215571785
 21
457.10567258235972
  0
ARC
  8
_0-1_計細線
  6
CONTINUOUS
 62
    3
 10
429.15347215572149
 20
439.60567258236176
 40
18.49999999999784
 50
71.075355583946475
 51
108.92464441605352
  0
ARC
  8
_0-1_計細線
  6
CONTINUOUS
 62
    3
 10
402.65347215572058
 20
439.60567258236176
 40
18.49999999999784
 50
71.075355583946475
 51
108.92464441605352
  0
LINE
  8
_0-1_計細線
  6
CONTINUOUS
 62
    3
 10
475.95347215572258
 20
457.10567258235972
 11
461.5534721557184
 21
457.10567258235972
  0
LINE
  8
_0-1_計細線
  6
CONTINUOUS
 62
    3
 10
502.35347215572131
 20
457.10567258235972
 11
487.95347215571894
 21
457.10567258235972
  0
ARC
  8
_0-1_計細線
  6
CONTINUOUS
 62
    3
 10
481.95347215571894
 20
439.60567258236176
 40
18.49999999999784
 50
71.075355583946475
 51
108.92464441605352
  0
LINE
  8
_0-1_計細線
  6
CONTINUOUS
 62
    3
 10
528.75347215572003
 20
457.10567258235972
 11
514.35347215571949
 21
457.10567258235972
  0
LINE
  8
_0-1_計細線
  6
CONTINUOUS
 62
    3
 10
555.15347215572058
 20
457.10567258235972
 11
540.75347215572003
 21
457.10567258235972
  0
ARC
  8
_0-1_計細線
  6
CONTINUOUS
 62
    3
 10
534.75347215572003
 20
439.60567258236176
 40
18.49999999999784
 50
71.075355583946475
 51
108.92464441605352
  0
ARC
  8
_0-1_計細線
  6
CONTINUOUS
 62
    3
 10
508.3534721557204
 20
439.60567258236176
 40
18.49999999999784
 50
71.075355583946475
 51
108.92464441605352
  0
ARC
  8
_0-1_計細線
  6
CONTINUOUS
 62
    3
 10
455.55347215572021
 20
439.60567258236176
 40
18.49999999999784
 50
71.075355583946475
 51
108.92464441605352
  0
LINE
  8
_0-1_計細線
  6
CONTINUOUS
 62
    3
 10
581.65347215572058
 20
457.10567258235972
 11
567.15347215572058
 21
457.10567258235972
  0
ARC
  8
_0-1_計細線
  6
CONTINUOUS
 62
    3
 10
587.65347215572149
 20
439.60567258236176
 40
18.49999999999784
 50
71.075355583946475
 51
108.92464441605352
  0
ARC
  8
_0-1_計細線
  6
CONTINUOUS
 62
    3
 10
561.15347215572058
 20
439.60567258236176
 40
18.49999999999784
 50
71.075355583946475
 51
108.92464441605352
  0
LINE
  8
_0-1_計細線
  6
CONTINUOUS
 62
    3
 10
858.15347215571785
 20
457.10567258235972
 11
872.6534721557224
 21
457.10567258235972
  0
ARC
  8
_0-1_計細線
  6
CONTINUOUS
 62
    3
 10
878.6534721557224
 20
439.6056725823629
 40
18.49999999999784
 50
71.075355583946475
 51
108.92464441605352
  0
LINE
  8
_0-1_計細線
  6
CONTINUOUS
 62
    3
 10
831.65347215571785
 20
457.10567258235972
 11
846.15347215572149
 21
457.10567258235972
  0
ARC
  8
_0-1_計細線
  6
CONTINUOUS
 62
    3
 10
852.1534721557224
 20
439.6056725823629
 40
18.49999999999784
 50
71.075355583946475
 51
108.92464441605352
  0
LINE
  8
_0-1_計細線
  6
CONTINUOUS
 62
    3
 10
805.15347215571967
 20
457.10567258235972
 11
819.65347215572149
 21
457.10567258235972
  0
LINE
  8
_0-1_計細線
  6
CONTINUOUS
 62
    3
 10
778.75347215571821
 20
457.10567258235972
 11
793.15347215572149
 21
457.10567258235972
  0
ARC
  8
_0-1_計細線
  6
CONTINUOUS
 62
    3
 10
799.15347215572058
 20
439.60567258236176
 40
18.49999999999784
 50
71.075355583946475
 51
108.92464441605352
  0
ARC
  8
_0-1_計細線
  6
CONTINUOUS
 62
    3
 10
825.65347215572058
 20
439.60567258236176
 40
18.49999999999784
 50
71.075355583946475
 51
108.92464441605352
  0
LINE
  8
_0-1_計細線
  6
CONTINUOUS
 62
    3
 10
752.35347215571949
 20
457.10567258235972
 11
766.75347215572094
 21
457.10567258235972
  0
LINE
  8
_0-1_計細線
  6
CONTINUOUS
 62
    3
 10
725.95347215571894
 20
457.10567258235972
 11
740.35347215572131
 21
457.10567258235972
  0
ARC
  8
_0-1_計細線
  6
CONTINUOUS
 62
    3
 10
746.3534721557204
 20
439.60567258236176
 40
18.49999999999784
 50
71.075355583946475
 51
108.92464441605352
  0
LINE
  8
_0-1_計細線
  6
CONTINUOUS
 62
    3
 10
699.55347215572021
 20
457.10567258235972
 11
713.95347215571985
 21
457.10567258235972
  0
LINE
  8
_0-1_計細線
  6
CONTINUOUS
 62
    3
 10
673.15347215571967
 20
457.10567258235972
 11
687.55347215572021
 21
457.10567258235972
  0
ARC
  8
_0-1_計細線
  6
CONTINUOUS
 62
    3
 10
693.55347215572021
 20
439.60567258236176
 40
18.49999999999784
 50
71.075355583946475
 51
108.92464441605352
  0
ARC
  8
_0-1_計細線
  6
CONTINUOUS
 62
    3
 10
719.95347215571985
 20
439.60567258236176
 40
18.49999999999784
 50
71.075355583946475
 51
108.92464441605352
  0
ARC
  8
_0-1_計細線
  6
CONTINUOUS
 62
    3
 10
772.75347215572003
 20
439.60567258236176
 40
18.49999999999784
 50
71.075355583946475
 51
108.92464441605352
  0
LINE
  8
_0-1_計細線
  6
CONTINUOUS
 62
    3
 10
646.65347215571967
 20
457.10567258235972
 11
661.15347215572149
 21
457.10567258235972
  0
LINE
  8
_0-1_計細線
  6
CONTINUOUS
 62
    3
 10
620.15347215572058
 20
457.10567258235972
 11
634.65347215572058
 21
457.10567258235972
  0
ARC
  8
_0-1_計細線
  6
CONTINUOUS
 62
    3
 10
640.65347215572149
 20
439.60567258236176
 40
18.49999999999784
 50
71.075355583946475
 51
108.92464441605352
  0
ARC
  8
_0-1_計細線
  6
CONTINUOUS
 62
    3
 10
614.15347215572058
 20
439.60567258236176
 40
18.49999999999784
 50
71.075355583946475
 51
108.92464441605352
  0
ARC
  8
_0-1_計細線
  6
CONTINUOUS
 62
    3
 10
667.15347215572058
 20
439.60567258236176
 40
18.49999999999784
 50
71.075355583946475
 51
108.92464441605352
  0
ARC
  8
_0-0_計極細
  6
CONTINUOUS
 62
    2
 10
186.40347218071702
 20
473.10567258236176
 40
15.5
 50
325.34396688178828
 51
214.65603311821067
  0
LINE
  8
_0-6_現況線
  6
CONTINUOUS
 62
    4
 10
484.57430403926139
 20
457.91908952836491
 11
515.76088709325506
 21
489.10567258235676
  0
LINE
  8
_0-6_現況線
  6
CONTINUOUS
 62
    4
 10
475.27560571901233
 20
457.1056725823538
 11
507.27560571901597
 21
489.10567258235676
  0
LINE
  8
_0-6_現況線
  6
CONTINUOUS
 62
    4
 10
492.24616846749234
 20
457.1056725823538
 11
524.24616846749416
 21
489.10567258235676
  0
LINE
  8
_0-6_現況線
  6
CONTINUOUS
 62
    4
 10
506.29160218022719
 20
457.99041332581794
 11
475.17634292368768
 21
489.10567258235676
  0
LINE
  8
_0-6_現況線
  6
CONTINUOUS
 62
    4
 10
515.66162429792769
 20
457.1056725823538
 11
483.66162429792496
 21
489.10567258235676
  0
LINE
  8
_0-6_現況線
  6
CONTINUOUS
 62
    4
 10
524.14690567216951
 20
457.1056725823538
 11
492.14690567216405
 21
489.10567258235676
  0
LINE
  8
_0-6_現況線
  6
CONTINUOUS
 62
    4
 10
422.32352918130857
 20
457.1056725823538
 11
390.32352918130402
 21
489.1056725823579
  0
LINE
  8
_0-6_現況線
  6
CONTINUOUS
 62
    4
 10
404.43936893855664
 20
458.01927007663187
 11
373.35296643282584
 21
489.1056725823579
  0
LINE
  8
_0-6_現況線
  6
CONTINUOUS
 62
    4
 10
413.8382478070713
 20
457.1056725823538
 11
381.83824780706402
 21
489.1056725823579
  0
LINE
  8
_0-6_現況線
  6
CONTINUOUS
 62
    4
 10
390.42279197662413
 20
457.1056725823538
 11
422.42279197662958
 21
489.1056725823579
  0
LINE
  8
_0-6_現況線
  6
CONTINUOUS
 62
    4
 10
381.93751060238503
 20
457.1056725823538
 11
413.93751060239231
 21
489.1056725823579
  0
LINE
  8
_0-6_現況線
  6
CONTINUOUS
 62
    4
 10
374.36563879493644
 20
458.01908214914272
 11
405.4522292281514
 21
489.1056725823579
  0
LINE
  8
_0-6_現況線
  6
CONTINUOUS
 62
    4
 10
371.11201704892812
 20
457.40549646930378
 11
339.4118409358731
 21
489.10567258235881
  0
LINE
  8
_0-6_現況線
  6
CONTINUOUS
 62
    4
 10
353.94621281954517
 20
457.60073795020787
 11
329.90347218072441
 21
481.64347858903182
  0
LINE
  8
_0-6_現況線
  6
CONTINUOUS
 62
    4
 10
362.92655956164037
 20
457.1056725823538
 11
330.92655956163492
 21
489.10567258235881
  0
LINE
  8
_0-6_現況線
  6
CONTINUOUS
 62
    4
 10
339.51110373119138
 20
457.1056725823538
 11
371.51110373119684
 21
489.1056725823579
  0
LINE
  8
_0-6_現況線
  6
CONTINUOUS
 62
    4
 10
329.90347218072441
 20
464.46860378036388
 11
354.54054098271865
 21
489.1056725823579
  0
LINE
  8
_0-6_現況線
  6
CONTINUOUS
 62
    4
 10
331.02582235695229
 20
457.1056725823538
 11
363.02582235695684
 21
489.1056725823579
  0
LINE
  8
_0-6_現況線
  6
CONTINUOUS
 62
    4
 10
345.44178805829927
 20
457.61988133721673
 11
329.90347218072441
 21
473.15819721479386
  0
LINE
  8
_0-6_現況線
  6
CONTINUOUS
 62
    4
 10
337.470715438924
 20
457.1056725823538
 11
329.90347218072532
 21
464.6729158405559
  0
LINE
  8
_0-6_現況線
  6
CONTINUOUS
 62
    4
 10
329.90347218072532
 20
472.95388515460183
 11
346.05525960848047
 21
489.10567258235881
  0
LINE
  8
_0-6_現況線
  6
CONTINUOUS
 62
    4
 10
329.90347218072259
 20
481.43916652883979
 11
337.56997823424047
 21
489.1056725823579
  0
LINE
  8
_0-6_現況線
  6
CONTINUOUS
 62
    4
 10
396.86768505859311
 20
457.1056725823538
 11
364.86768505858856
 21
489.1056725823579
  0
LINE
  8
_0-6_現況線
  6
CONTINUOUS
 62
    4
 10
388.38240368435766
 20
457.1056725823538
 11
356.38240368434947
 21
489.1056725823579
  0
LINE
  8
_0-6_現況線
  6
CONTINUOUS
 62
    4
 10
379.13973359756767
 20
457.86306129490492
 11
347.89712231011129
 21
489.10567258235881
  0
LINE
  8
_0-6_現況線
  6
CONTINUOUS
 62
    4
 10
348.9842778737617
 20
458.09356535068275
 11
379.99638510543502
 21
489.1056725823579
  0
LINE
  8
_0-6_現況線
  6
CONTINUOUS
 62
    4
 10
364.96694785390866
 20
457.1056725823538
 11
396.9669478539123
 21
489.1056725823579
  0
LINE
  8
_0-6_現況線
  6
CONTINUOUS
 62
    4
 10
356.48166647966957
 20
457.1056725823538
 11
388.4816664796723
 21
489.1056725823579
  0
LINE
  8
_0-6_現況線
  6
CONTINUOUS
 62
    4
 10
473.23521742673586
 20
457.1056725823538
 11
441.23521742673222
 21
489.1056725823579
  0
LINE
  8
_0-6_現況線
  6
CONTINUOUS
 62
    4
 10
455.2668747592403
 20
458.10345250137573
 11
424.26465467825585
 21
489.1056725823579
  0
LINE
  8
_0-6_現況線
  6
CONTINUOUS
 62
    4
 10
464.74993605249858
 20
457.1056725823538
 11
432.74993605249404
 21
489.1056725823579
  0
LINE
  8
_0-6_現況線
  6
CONTINUOUS
 62
    4
 10
433.36373891463757
 20
457.62021264917178
 11
464.84919884782323
 21
489.10567258235676
  0
LINE
  8
_0-6_現況線
  6
CONTINUOUS
 62
    4
 10
441.33448022205596
 20
457.1056725823538
 11
473.33448022206142
 21
489.10567258235676
  0
LINE
  8
_0-6_現況線
  6
CONTINUOUS
 62
    4
 10
424.85843481103586
 20
457.60018991980985
 11
456.36391747358414
 21
489.10567258235676
  0
LINE
  8
_0-6_現況線
  6
CONTINUOUS
 62
    4
 10
447.77937330402222
 20
457.1056725823538
 11
415.77937330401949
 21
489.1056725823579
  0
LINE
  8
_0-6_現況線
  6
CONTINUOUS
 62
    4
 10
439.29409192978403
 20
457.1056725823538
 11
407.29409192978039
 21
489.1056725823579
  0
LINE
  8
_0-6_現況線
  6
CONTINUOUS
 62
    4
 10
429.82085220784813
 20
458.09363093005288
 11
398.8088105555413
 21
489.1056725823579
  0
LINE
  8
_0-6_現況線
  6
CONTINUOUS
 62
    4
 10
415.8786360993405
 20
457.1056725823538
 11
447.87863609934413
 21
489.10567258235676
  0
LINE
  8
_0-6_現況線
  6
CONTINUOUS
 62
    4
 10
407.69356452475824
 20
457.40588238200974
 11
439.39335472510595
 21
489.1056725823579
  0
LINE
  8
_0-6_現況線
  6
CONTINUOUS
 62
    4
 10
399.66511996872453
 20
457.86271920021375
 11
430.90807335086686
 21
489.1056725823579
  0
LINE
  8
_0-6_現況線
  6
CONTINUOUS
 62
    4
 10
498.69106154945041
 20
457.1056725823538
 11
466.6910615494495
 21
489.10567258235676
  0
LINE
  8
_0-6_現況線
  6
CONTINUOUS
 62
    4
 10
490.20578017521314
 20
457.1056725823538
 11
458.2057801752095
 21
489.10567258235676
  0
LINE
  8
_0-6_現況線
  6
CONTINUOUS
 62
    4
 10
480.75909416290745
 20
458.0670772204229
 11
449.72049880097222
 21
489.1056725823579
  0
LINE
  8
_0-6_現況線
  6
CONTINUOUS
 62
    4
 10
458.98416196541405
 20
457.78479157723075
 11
490.3050429705396
 21
489.10567258235676
  0
LINE
  8
_0-6_現況線
  6
CONTINUOUS
 62
    4
 10
449.81976159629505
 20
457.1056725823538
 11
481.8197615962996
 21
489.10567258235676
  0
LINE
  8
_0-6_現況線
  6
CONTINUOUS
 62
    4
 10
466.79032434477324
 20
457.1056725823538
 11
498.7903243447787
 21
489.10567258235676
  0
LINE
  8
_0-6_現況線
  6
CONTINUOUS
 62
    4
 10
710.82309590541047
 20
457.1056725823538
 11
678.82309590540683
 21
489.10567258235585
  0
LINE
  8
_0-6_現況線
  6
CONTINUOUS
 62
    4
 10
718.37577387844306
 20
458.03827598355872
 11
687.30837727964683
 21
489.10567258235585
  0
LINE
  8
_0-6_現況線
  6
CONTINUOUS
 62
    4
 10
727.79365865388684
 20
457.1056725823538
 11
695.79365865388502
 21
489.10567258235585
  0
LINE
  8
_0-6_現況線
  6
CONTINUOUS
 62
    4
 10
678.9223587007433
 20
457.1056725823538
 11
710.92235870074785
 21
489.10567258235471
  0
LINE
  8
_0-6_現況線
  6
CONTINUOUS
 62
    4
 10
696.63454876031449
 20
457.84729989344794
 11
727.89292144922513
 21
489.10567258235471
  0
LINE
  8
_0-6_現況線
  6
CONTINUOUS
 62
    4
 10
687.40764007498331
 20
457.1056725823538
 11
719.40764007498512
 21
489.10567258235471
  0
LINE
  8
_0-6_現況線
  6
CONTINUOUS
 62
    4
 10
671.02701092056543
 20
457.69560617641275
 11
702.43707732650694
 21
489.10567258235471
  0
LINE
  8
_0-6_現況線
  6
CONTINUOUS
 62
    4
 10
608.7932725582383
 20
457.31211943866481
 11
576.99971941454862
 21
489.10567258235585
  0
LINE
  8
_0-6_現況線
  6
CONTINUOUS
 62
    4
 10
616.65489166661757
 20
457.93578170452577
 11
585.48500078878772
 21
489.10567258235585
  0
LINE
  8
_0-6_現況線
  6
CONTINUOUS
 62
    4
 10
625.97028216302499
 20
457.1056725823538
 11
593.97028216302408
 21
489.10567258235585
  0
LINE
  8
_0-6_現況線
  6
CONTINUOUS
 62
    4
 10
568.61370083564145
 20
457.1056725823538
 11
600.61370083564327
 21
489.10567258235585
  0
LINE
  8
_0-6_現況線
  6
CONTINUOUS
 62
    4
 10
577.09898220987782
 20
457.1056725823538
 11
609.09898220988146
 21
489.10567258235585
  0
LINE
  8
_0-6_現況線
  6
CONTINUOUS
 62
    4
 10
586.55140891332542
 20
458.0728179115589
 11
617.58426358412055
 21
489.10567258235585
  0
LINE
  8
_0-6_現況線
  6
CONTINUOUS
 62
    4
 10
594.069544958356
 20
457.1056725823538
 11
626.06954495835782
 21
489.10567258235585
  0
LINE
  8
_0-6_現況線
  6
CONTINUOUS
 62
    4
 10
566.57331254336043
 20
457.1056725823538
 11
534.57331254335406
 21
489.10567258235676
  0
LINE
  8
_0-6_現況線
  6
CONTINUOUS
 62
    4
 10
575.05859391759861
 20
457.1056725823538
 11
543.05859391759225
 21
489.10567258235676
  0
LINE
  8
_0-6_現況線
  6
CONTINUOUS
 62
    4
 10
543.15785671292326
 20
457.1056725823538
 11
575.15785671292599
 21
489.10567258235585
  0
LINE
  8
_0-6_現況線
  6
CONTINUOUS
 62
    4
 10
535.65080041562817
 20
458.0838976592978
 11
566.6725753386869
 21
489.10567258235585
  0
LINE
  8
_0-6_現況線
  6
CONTINUOUS
 62
    4
 10
517.70201259020689
 20
457.1056725823538
 11
549.70201259021053
 21
489.10567258235585
  0
LINE
  8
_0-6_現況線
  6
CONTINUOUS
 62
    4
 10
526.18729396444508
 20
457.1056725823538
 11
558.18729396444689
 21
489.10567258235585
  0
LINE
  8
_0-6_現況線
  6
CONTINUOUS
 62
    4
 10
557.46039527400228
 20
457.73330847747081
 11
526.08803116911861
 21
489.10567258235676
  0
LINE
  8
_0-6_現況線
  6
CONTINUOUS
 62
    4
 10
500.73144984172961
 20
457.1056725823538
 11
532.73144984173325
 21
489.10567258235676
  0
LINE
  8
_0-6_現況線
  6
CONTINUOUS
 62
    4
 10
510.13112628595138
 20
458.02006765233875
 11
541.21673121597235
 21
489.10567258235676
  0
LINE
  8
_0-6_現況線
  6
CONTINUOUS
 62
    4
 10
531.85988189837428
 20
457.87797773038676
 11
500.63218704640224
 21
489.10567258235676
  0
LINE
  8
_0-6_現況線
  6
CONTINUOUS
 62
    4
 10
541.11746842064406
 20
457.1056725823538
 11
509.11746842064042
 21
489.10567258235676
  0
LINE
  8
_0-6_現況線
  6
CONTINUOUS
 62
    4
 10
549.60274979488224
 20
457.1056725823538
 11
517.6027497948786
 21
489.10567258235676
  0
LINE
  8
_0-6_現況線
  6
CONTINUOUS
 62
    4
 10
583.11037865899164
 20
457.53916921519692
 11
551.54387529183134
 21
489.10567258235676
  0
LINE
  8
_0-6_現況線
  6
CONTINUOUS
 62
    4
 10
591.41575820938908
 20
457.71907103903789
 11
560.02915666607043
 21
489.10567258235585
  0
LINE
  8
_0-6_現況線
  6
CONTINUOUS
 62
    4
 10
600.51443804031044
 20
457.1056725823538
 11
568.51443804030771
 21
489.10567258235585
  0
LINE
  8
_0-6_現況線
  6
CONTINUOUS
 62
    4
 10
561.12840247521456
 20
458.10565559616578
 11
592.12841946140509
 21
489.10567258235585
  0
LINE
  8
_0-6_現況線
  6
CONTINUOUS
 62
    4
 10
551.64313808716236
 20
457.1056725823538
 11
583.64313808716599
 21
489.10567258235585
  0
LINE
  8
_0-6_現況線
  6
CONTINUOUS
 62
    4
 10
659.91140765998136
 20
457.1056725823538
 11
627.91140765997682
 21
489.10567258235585
  0
LINE
  8
_0-6_現況線
  6
CONTINUOUS
 62
    4
 10
667.398309245718
 20
458.10405237085376
 11
636.39668903421409
 21
489.10567258235585
  0
LINE
  8
_0-6_現況線
  6
CONTINUOUS
 62
    4
 10
676.88197040845591
 20
457.1056725823538
 11
644.88197040845409
 21
489.10567258235585
  0
LINE
  8
_0-6_現況線
  6
CONTINUOUS
 62
    4
 10
619.52538908107329
 20
457.1056725823538
 11
651.52538908107601
 21
489.10567258235585
  0
LINE
  8
_0-6_現況線
  6
CONTINUOUS
 62
    4
 10
628.01067045531147
 20
457.1056725823538
 11
660.0106704553142
 21
489.10567258235585
  0
LINE
  8
_0-6_現況線
  6
CONTINUOUS
 62
    4
 10
637.16385045232767
 20
457.77357120512886
 11
668.49595182955329
 21
489.10567258235585
  0
LINE
  8
_0-6_現況線
  6
CONTINUOUS
 62
    4
 10
645.36992009819517
 20
457.49435947676091
 11
676.98123320379329
 21
489.10567258235585
  0
LINE
  8
_0-6_現況線
  6
CONTINUOUS
 62
    4
 10
651.42612628574409
 20
457.1056725823538
 11
619.42612628573954
 21
489.10567258235585
  0
LINE
  8
_0-6_現況線
  6
CONTINUOUS
 62
    4
 10
634.45556353726499
 20
457.1056725823538
 11
602.45556353726317
 21
489.10567258235585
  0
LINE
  8
_0-6_現況線
  6
CONTINUOUS
 62
    4
 10
641.98912313662788
 20
458.05739435722978
 11
610.94084491150136
 21
489.10567258235585
  0
LINE
  8
_0-6_現況線
  6
CONTINUOUS
 62
    4
 10
602.5548263325951
 20
457.1056725823538
 11
634.55482633259965
 21
489.10567258235585
  0
LINE
  8
_0-6_現況線
  6
CONTINUOUS
 62
    4
 10
611.9026760727553
 20
457.96824094827582
 11
643.04010770683692
 21
489.10567258235585
  0
LINE
  8
_0-6_現況線
  6
CONTINUOUS
 62
    4
 10
685.36725178269592
 20
457.1056725823538
 11
653.36725178269228
 21
489.10567258235585
  0
LINE
  8
_0-6_現況線
  6
CONTINUOUS
 62
    4
 10
692.86533574154021
 20
458.09286999774679
 11
661.85253315693046
 21
489.10567258235585
  0
LINE
  8
_0-6_現況線
  6
CONTINUOUS
 62
    4
 10
702.33781453117319
 20
457.1056725823538
 11
670.33781453116865
 21
489.10567258235585
  0
LINE
  8
_0-6_現況線
  6
CONTINUOUS
 62
    4
 10
662.30520849713014
 20
457.45908512721473
 11
693.95179595226966
 21
489.10567258235471
  0
LINE
  8
_0-6_現況線
  6
CONTINUOUS
 62
    4
 10
653.46651457802693
 20
457.1056725823538
 11
685.46651457803057
 21
489.10567258235585
  0
LINE
  8
_0-6_現況線
  6
CONTINUOUS
 62
    4
 10
820.78408966200152
 20
457.45333669086074
 11
789.13175377050686
 21
489.10567258235471
  0
LINE
  8
_0-6_現況線
  6
CONTINUOUS
 62
    4
 10
828.9050219723955
 20
457.81768575470585
 11
797.61703514474414
 21
489.10567258235471
  0
LINE
  8
_0-6_現況線
  6
CONTINUOUS
 62
    4
 10
812.64647239626686
 20
457.1056725823538
 11
780.64647239626868
 21
489.10567258235471
  0
LINE
  8
_0-6_現況線
  6
CONTINUOUS
 62
    4
 10
798.71100593020003
 20
458.10038057246572
 11
829.71629794008788
 21
489.1056725823538
  0
LINE
  8
_0-6_現況線
  6
CONTINUOUS
 62
    4
 10
780.74573519161152
 20
457.1056725823538
 11
812.74573519161243
 21
489.1056725823538
  0
LINE
  8
_0-6_現況線
  6
CONTINUOUS
 62
    4
 10
773.25368993687209
 20
458.09890870185575
 11
804.26045381737424
 21
489.10567258235471
  0
LINE
  8
_0-6_現況線
  6
CONTINUOUS
 62
    4
 10
789.23101656585061
 20
457.1056725823538
 11
821.23101656585061
 21
489.1056725823538
  0
LINE
  8
_0-6_現況線
  6
CONTINUOUS
 62
    4
 10
761.73478415084139
 20
457.1056725823538
 11
729.73478415083957
 21
489.10567258235471
  0
LINE
  8
_0-6_現況線
  6
CONTINUOUS
 62
    4
 10
769.50712435750995
 20
457.81861374992184
 11
738.22006552507685
 21
489.10567258235471
  0
LINE
  8
_0-6_現況線
  6
CONTINUOUS
 62
    4
 10
778.70534689931594
 20
457.1056725823538
 11
746.70534689931412
 21
489.10567258235471
  0
LINE
  8
_0-6_現況線
  6
CONTINUOUS
 62
    4
 10
722.21056145121895
 20
457.96746846163489
 11
753.3487655719415
 21
489.10567258235471
  0
LINE
  8
_0-6_現況線
  6
CONTINUOUS
 62
    4
 10
738.31932832041696
 20
457.1056725823538
 11
770.31932832041787
 21
489.10567258235471
  0
LINE
  8
_0-6_現況線
  6
CONTINUOUS
 62
    4
 10
729.83404694617786
 20
457.1056725823538
 11
761.83404694617968
 21
489.10567258235471
  0
LINE
  8
_0-6_現況線
  6
CONTINUOUS
 62
    4
 10
747.75169541861999
 20
458.05275830631888
 11
778.80460969465605
 21
489.10567258235471
  0
LINE
  8
_0-6_現況線
  6
CONTINUOUS
 62
    4
 10
736.2789400281232
 20
457.1056725823538
 11
704.2789400281232
 21
489.10567258235585
  0
LINE
  8
_0-6_現況線
  6
CONTINUOUS
 62
    4
 10
743.92438653294687
 20
457.94550745176991
 11
712.76422140236321
 21
489.10567258235585
  0
LINE
  8
_0-6_現況線
  6
CONTINUOUS
 62
    4
 10
753.2495027766023
 20
457.1056725823538
 11
721.24950277660048
 21
489.10567258235471
  0
LINE
  8
_0-6_現況線
  6
CONTINUOUS
 62
    4
 10
712.8634841977015
 20
457.1056725823538
 11
744.8634841977015
 21
489.10567258235471
  0
LINE
  8
_0-6_現況線
  6
CONTINUOUS
 62
    4
 10
704.37820282346058
 20
457.1056725823538
 11
736.37820282346331
 21
489.10567258235471
  0
LINE
  8
_0-6_現況線
  6
CONTINUOUS
 62
    4
 10
787.19062827355503
 20
457.1056725823538
 11
755.19062827355231
 21
489.10567258235471
  0
LINE
  8
_0-6_現況線
  6
CONTINUOUS
 62
    4
 10
795.12078707677904
 20
457.66079515336685
 11
763.67590964779049
 21
489.10567258235471
  0
LINE
  8
_0-6_現況線
  6
CONTINUOUS
 62
    4
 10
803.73832507674126
 20
457.52853852764372
 11
772.16119102202958
 21
489.10567258235471
  0
LINE
  8
_0-6_現況線
  6
CONTINUOUS
 62
    4
 10
763.77517244313333
 20
457.1056725823538
 11
795.77517244313606
 21
489.10567258235471
  0
LINE
  8
_0-6_現況線
  6
CONTINUOUS
 62
    4
 10
755.28989106889424
 20
457.1056725823538
 11
787.28989106889514
 21
489.10567258235471
  0
LINE
  8
_0-6_現況線
  6
CONTINUOUS
 62
    4
 10
863.55816064169869
 20
457.1056725823538
 11
831.55816064169869
 21
489.1056725823538
  0
LINE
  8
_0-6_現況線
  6
CONTINUOUS
 62
    4
 10
872.04344201593869
 20
457.1056725823538
 11
840.04344201593506
 21
489.1056725823538
  0
LINE
  8
_0-6_現況線
  6
CONTINUOUS
 62
    4
 10
879.5504828968111
 20
458.08391307571776
 11
848.52872339017597
 21
489.1056725823538
  0
LINE
  8
_0-6_現況線
  6
CONTINUOUS
 62
    4
 10
849.42579403415004
 20
457.90348043098277
 11
880.62798618552335
 21
489.1056725823538
  0
LINE
  8
_0-6_現況線
  6
CONTINUOUS
 62
    4
 10
840.14270481128244
 20
457.1056725823538
 11
872.14270481128517
 21
489.1056725823538
  0
LINE
  8
_0-6_現況線
  6
CONTINUOUS
 62
    4
 10
831.65742343704426
 20
457.1056725823538
 11
863.65742343704517
 21
489.1056725823538
  0
LINE
  8
_0-6_現況線
  6
CONTINUOUS
 62
    4
 10
824.10742740443459
 20
458.04095792398186
 11
855.17214206280698
 21
489.1056725823538
  0
LINE
  8
_0-6_現況線
  6
CONTINUOUS
 62
    4
 10
838.10231651898505
 20
457.1056725823538
 11
806.10231651898232
 21
489.10567258235471
  0
LINE
  8
_0-6_現況線
  6
CONTINUOUS
 62
    4
 10
846.58759789322323
 20
457.1056725823538
 11
814.58759789322232
 21
489.10567258235471
  0
LINE
  8
_0-6_現況線
  6
CONTINUOUS
 62
    4
 10
854.1847312811766
 20
457.99382056863885
 11
823.07287926746051
 21
489.1056725823538
  0
LINE
  8
_0-6_現況線
  6
CONTINUOUS
 62
    4
 10
806.20157931432698
 20
457.1056725823538
 11
838.20157931432698
 21
489.1056725823538
  0
LINE
  8
_0-6_現況線
  6
CONTINUOUS
 62
    4
 10
814.68686068856425
 20
457.1056725823538
 11
846.68686068856698
 21
489.1056725823538
  0
LINE
  8
_0-6_現況線
  6
CONTINUOUS
 62
    4
 10
889.01400476441506
 20
457.1056725823538
 11
857.01400476441506
 21
489.1056725823538
  0
LINE
  8
_0-6_現況線
  6
CONTINUOUS
 62
    4
 10
857.36425907299838
 20
457.35666409558974
 11
889.11326755976154
 21
489.1056725823538
  0
LINE
  8
_0-0_計極細
  6
CONTINUOUS
 62
    2
 10
173.65347218071611
 20
464.29162130046177
 11
175.65347218071702
 21
464.93943109683289
  0
LINE
  8
_0-0_計極細
  6
CONTINUOUS
 62
    2
 10
199.15347218071702
 20
464.29162130046086
 11
197.15347218071611
 21
464.93943109683289
  0
LINE
  8
_0-0_計極細
  6
CONTINUOUS
 62
    2
 10
197.15347218071611
 20
417.60567258236381
 11
197.15347218071611
 21
464.93943109683175
  0
ARC
  8
_0-0_計極細
  6
CONTINUOUS
 62
    2
 10
186.40347218071702
 20
473.10567258236176
 40
13.5
 50
322.77786610393781
 51
217.22213389606111
  0
LINE
  8
_0-0_計極細
  6
CONTINUOUS
 62
    2
 10
175.65347218071702
 20
417.60567258236381
 11
175.65347218071702
 21
464.93943109683175
  0
CIRCLE
  8
_0-1_計細線
  6
CONTINUOUS
 62
    3
 10
349.65347215571512
 20
267.11159944658777
 40
6
  0
CIRCLE
  8
_0-1_計細線
  6
CONTINUOUS
 62
    3
 10
878.65347215571512
 20
267.11159944658573
 40
6
  0
CIRCLE
  8
_0-1_計細線
  6
CONTINUOUS
 62
    3
 10
402.65347215571512
 20
267.11159944658687
 40
6
  0
CIRCLE
  8
_0-1_計細線
  6
CONTINUOUS
 62
    3
 10
376.15347215571421
 20
267.11159944658687
 40
6
  0
CIRCLE
  8
_0-1_計細線
  6
CONTINUOUS
 62
    3
 10
455.45347215571348
 20
267.11159944658687
 40
6
  0
CIRCLE
  8
_0-1_計細線
  6
CONTINUOUS
 62
    3
 10
508.25347215571549
 20
267.11159944658687
 40
6
  0
CIRCLE
  8
_0-1_計細線
  6
CONTINUOUS
 62
    3
 10
481.85347215571494
 20
267.11159944658687
 40
6
  0
CIRCLE
  8
_0-1_計細線
  6
CONTINUOUS
 62
    3
 10
429.05347215571567
 20
267.11159944658687
 40
6
  0
CIRCLE
  8
_0-1_計細線
  6
CONTINUOUS
 62
    3
 10
561.15347215571512
 20
267.11159944658573
 40
6
  0
CIRCLE
  8
_0-1_計細線
  6
CONTINUOUS
 62
    3
 10
587.65347215571421
 20
267.11159944658573
 40
6
  0
CIRCLE
  8
_0-1_計細線
  6
CONTINUOUS
 62
    3
 10
534.65347215571512
 20
267.11159944658573
 40
6
  0
CIRCLE
  8
_0-1_計細線
  6
CONTINUOUS
 62
    3
 10
852.15347215571512
 20
267.11159944658573
 40
6
  0
CIRCLE
  8
_0-1_計細線
  6
CONTINUOUS
 62
    3
 10
799.15347215571512
 20
267.11159944658573
 40
6
  0
CIRCLE
  8
_0-1_計細線
  6
CONTINUOUS
 62
    3
 10
825.65347215571512
 20
267.11159944658573
 40
6
  0
CIRCLE
  8
_0-1_計細線
  6
CONTINUOUS
 62
    3
 10
746.35347215571403
 20
267.11159944658573
 40
6
  0
CIRCLE
  8
_0-1_計細線
  6
CONTINUOUS
 62
    3
 10
693.55347215571567
 20
267.11159944658573
 40
6
  0
CIRCLE
  8
_0-1_計細線
  6
CONTINUOUS
 62
    3
 10
719.95347215571439
 20
267.11159944658573
 40
6
  0
CIRCLE
  8
_0-1_計細線
  6
CONTINUOUS
 62
    3
 10
772.75347215571458
 20
267.11159944658573
 40
6
  0
CIRCLE
  8
_0-1_計細線
  6
CONTINUOUS
 62
    3
 10
640.65347215571512
 20
267.11159944658573
 40
6
  0
CIRCLE
  8
_0-1_計細線
  6
CONTINUOUS
 62
    3
 10
614.15347215571512
 20
267.11159944658573
 40
6
  0
CIRCLE
  8
_0-1_計細線
  6
CONTINUOUS
 62
    3
 10
667.15347215571512
 20
267.11159944658573
 40
6
  0
LINE
  8
_0-6_現況線
  6
CONTINUOUS
 62
    4
 10
483.76088709324597
 20
251.10567258236176
 11
515.76088709325052
 21
283.10567258236472
  0
LINE
  8
_0-6_現況線
  6
CONTINUOUS
 62
    4
 10
475.27560571900869
 20
251.10567258236176
 11
507.27560571901142
 21
283.10567258236472
  0
LINE
  8
_0-6_現況線
  6
CONTINUOUS
 62
    4
 10
492.24616846748597
 20
251.10567258236176
 11
504.01014311244455
 21
262.86964722731989
  0
LINE
  8
_0-6_現況線
  6
CONTINUOUS
 62
    4
 10
507.17634292368768
 20
251.10567258236176
 11
475.17634292368314
 21
283.10567258236586
  0
LINE
  8
_0-6_現況線
  6
CONTINUOUS
 62
    4
 10
515.66162429792314
 20
251.10567258236176
 11
483.66162429792041
 21
283.10567258236586
  0
LINE
  8
_0-6_現況線
  6
CONTINUOUS
 62
    4
 10
524.14690567216405
 20
251.10567258236176
 11
512.43949330831822
 21
262.81308494620873
  0
LINE
  8
_0-6_現況線
  6
CONTINUOUS
 62
    4
 10
422.32352918130493
 20
251.10567258236176
 11
408.31222477788072
 21
265.11697698578575
  0
LINE
  8
_0-6_現況線
  6
CONTINUOUS
 62
    4
 10
405.35296643282766
 20
251.10567258236176
 11
373.3529664328222
 21
283.10567258236586
  0
LINE
  8
_0-6_現況線
  6
CONTINUOUS
 62
    4
 10
413.83824780706584
 20
251.10567258236176
 11
403.73418932497736
 21
261.20973106445092
  0
LINE
  8
_0-6_現況線
  6
CONTINUOUS
 62
    4
 10
390.42279197661958
 20
251.10567258236176
 11
400.74150629461531
 21
261.42438690035772
  0
LINE
  8
_0-6_現況線
  6
CONTINUOUS
 62
    4
 10
381.93751060238139
 20
251.10567258236176
 11
396.769447400167
 21
265.93760938014691
  0
LINE
  8
_0-6_現況線
  6
CONTINUOUS
 62
    4
 10
373.45222922814321
 20
251.10567258236176
 11
405.45222922814685
 21
283.10567258236586
  0
LINE
  8
_0-6_現況線
  6
CONTINUOUS
 62
    4
 10
371.4118409358731
 20
251.10567258236176
 11
355.6485635824489
 21
266.86894993578574
  0
LINE
  8
_0-6_現況線
  6
CONTINUOUS
 62
    4
 10
362.92655956163492
 20
251.10567258236176
 11
352.30363021415508
 21
261.72860192984183
  0
LINE
  8
_0-6_現況線
  6
CONTINUOUS
 62
    4
 10
339.51110373118684
 20
251.10567258236176
 11
349.51854783494366
 21
261.11311668611677
  0
LINE
  8
_0-6_現況線
  6
CONTINUOUS
 62
    4
 10
331.02582235694865
 20
251.10567258236176
 11
344.30755898944119
 21
264.38740921485589
  0
LINE
  8
_0-6_現況線
  6
CONTINUOUS
 62
    4
 10
396.86768505858856
 20
251.10567258236176
 11
382.0372058941681
 21
265.93615174678177
  0
LINE
  8
_0-6_現況線
  6
CONTINUOUS
 62
    4
 10
388.3824036843522
 20
251.10567258236176
 11
378.06412920426703
 21
261.42394706244693
  0
LINE
  8
_0-6_現況線
  6
CONTINUOUS
 62
    4
 10
379.89712231011129
 20
251.10567258236176
 11
347.89712231010856
 21
283.10567258236676
  0
LINE
  8
_0-6_現況線
  6
CONTINUOUS
 62
    4
 10
347.99638510542593
 20
251.10567258236176
 11
379.99638510543048
 21
283.10567258236586
  0
LINE
  8
_0-6_現況線
  6
CONTINUOUS
 62
    4
 10
364.96694785390321
 20
251.10567258236176
 11
375.07127714187629
 21
261.21000187033485
  0
LINE
  8
_0-6_現況線
  6
CONTINUOUS
 62
    4
 10
356.4816664796632
 20
251.10567258236176
 11
370.49426392309272
 21
265.11827002579082
  0
LINE
  8
_0-6_現況線
  6
CONTINUOUS
 62
    4
 10
473.23521742673222
 20
251.10567258236176
 11
460.49006997679737
 21
263.85082003229593
  0
LINE
  8
_0-6_現況線
  6
CONTINUOUS
 62
    4
 10
456.26465467825767
 20
251.10567258236176
 11
424.2646546782513
 21
283.10567258236586
  0
LINE
  8
_0-6_現況線
  6
CONTINUOUS
 62
    4
 10
464.74993605249313
 20
251.10567258236176
 11
454.69600397634133
 21
261.15960465851492
  0
LINE
  8
_0-6_現況線
  6
CONTINUOUS
 62
    4
 10
432.84919884781505
 20
251.10567258236176
 11
449.48681771513986
 21
267.74329144968772
  0
LINE
  8
_0-6_現況線
  6
CONTINUOUS
 62
    4
 10
441.33448022205141
 20
251.10567258236176
 11
452.26053186281263
 21
262.03172422312275
  0
LINE
  8
_0-6_現況線
  6
CONTINUOUS
 62
    4
 10
424.36391747357504
 20
251.10567258236176
 11
456.3639174735805
 21
283.10567258236586
  0
LINE
  8
_0-6_現況線
  6
CONTINUOUS
 62
    4
 10
447.77937330401767
 20
251.10567258236176
 11
434.43221967546799
 21
264.45282621091076
  0
LINE
  8
_0-6_現況線
  6
CONTINUOUS
 62
    4
 10
439.29409192977948
 20
251.10567258236176
 11
429.28374465200488
 21
261.11601986013682
  0
LINE
  8
_0-6_現況線
  6
CONTINUOUS
 62
    4
 10
430.80881055554221
 20
251.10567258236176
 11
398.80881055553584
 21
283.10567258236586
  0
LINE
  8
_0-6_現況線
  6
CONTINUOUS
 62
    4
 10
415.87863609933595
 20
251.10567258236176
 11
426.46948868620314
 21
261.69652516922986
  0
LINE
  8
_0-6_現況線
  6
CONTINUOUS
 62
    4
 10
407.39335472509867
 20
251.10567258236176
 11
423.06290848169613
 21
266.77522633896081
  0
LINE
  8
_0-6_現況線
  6
CONTINUOUS
 62
    4
 10
398.90807335086049
 20
251.10567258236176
 11
430.90807335086231
 21
283.10567258236586
  0
LINE
  8
_0-6_現況線
  6
CONTINUOUS
 62
    4
 10
498.69106154944586
 20
251.10567258236176
 11
486.49151662674524
 21
263.30521750506375
  0
LINE
  8
_0-6_現況線
  6
CONTINUOUS
 62
    4
 10
490.2057801752095
 20
251.10567258236176
 11
479.85847321614949
 21
261.45297954142086
  0
LINE
  8
_0-6_現況線
  6
CONTINUOUS
 62
    4
 10
481.72049880097222
 20
251.10567258236176
 11
449.72049880096768
 21
283.10567258236586
  0
LINE
  8
_0-6_現況線
  6
CONTINUOUS
 62
    4
 10
458.30504297053142
 20
251.10567258236176
 11
476.13859945682236
 21
268.93922906865293
  0
LINE
  8
_0-6_現況線
  6
CONTINUOUS
 62
    4
 10
449.81976159629141
 20
251.10567258236176
 11
481.81976159629505
 21
283.10567258236586
  0
LINE
  8
_0-6_現況線
  6
CONTINUOUS
 62
    4
 10
466.79032434476869
 20
251.10567258236176
 11
478.10848979242621
 21
262.42383803001883
  0
LINE
  8
_0-6_現況線
  6
CONTINUOUS
 62
    4
 10
710.8230959054041
 20
251.10567258236176
 11
698.38064746836119
 21
263.54812101940581
  0
LINE
  8
_0-6_現況線
  6
CONTINUOUS
 62
    4
 10
719.30837727964229
 20
251.10567258236176
 11
687.30837727964138
 21
283.10567258236381
  0
LINE
  8
_0-6_現況線
  6
CONTINUOUS
 62
    4
 10
727.7936586538832
 20
251.10567258236176
 11
695.79365865387956
 21
283.10567258236381
  0
LINE
  8
_0-6_現況線
  6
CONTINUOUS
 62
    4
 10
678.92235870073785
 20
251.10567258236176
 11
690.05429648058964
 21
262.23761036220992
  0
LINE
  8
_0-6_現況線
  6
CONTINUOUS
 62
    4
 10
695.89292144921694
 20
251.10567258236176
 11
727.89292144922058
 21
283.1056725823629
  0
LINE
  8
_0-6_現況線
  6
CONTINUOUS
 62
    4
 10
687.40764007497967
 20
251.10567258236176
 11
719.40764007498058
 21
283.1056725823629
  0
LINE
  8
_0-6_現況線
  6
CONTINUOUS
 62
    4
 10
670.43707732650148
 20
251.10567258236176
 11
687.68300355666054
 21
268.35159881252173
  0
LINE
  8
_0-6_現況線
  6
CONTINUOUS
 62
    4
 10
608.99971941454407
 20
251.10567258236176
 11
593.62063773983994
 21
266.4847542570659
  0
LINE
  8
_0-6_現況線
  6
CONTINUOUS
 62
    4
 10
617.48500078878499
 20
251.10567258236176
 11
585.48500078878226
 21
283.10567258236472
  0
LINE
  8
_0-6_現況線
  6
CONTINUOUS
 62
    4
 10
625.97028216302135
 20
251.10567258236176
 11
615.74846993224548
 21
261.32748481313786
  0
LINE
  8
_0-6_現況線
  6
CONTINUOUS
 62
    4
 10
568.613700835636
 20
251.10567258236176
 11
582.17436026114922
 21
264.66633200787385
  0
LINE
  8
_0-6_現況線
  6
CONTINUOUS
 62
    4
 10
577.09898220987327
 20
251.10567258236176
 11
587.12796640220915
 21
261.13465677469787
  0
LINE
  8
_0-6_現況線
  6
CONTINUOUS
 62
    4
 10
585.58426358411509
 20
251.10567258236176
 11
617.584263584116
 21
283.10567258236381
  0
LINE
  8
_0-6_現況線
  6
CONTINUOUS
 62
    4
 10
594.06954495835237
 20
251.10567258236176
 11
608.39392386813836
 21
265.43005149214889
  0
LINE
  8
_0-6_現況線
  6
CONTINUOUS
 62
    4
 10
566.57331254335406
 20
251.10567258236176
 11
534.57331254335134
 21
283.10567258236472
  0
LINE
  8
_0-6_現況線
  6
CONTINUOUS
 62
    4
 10
575.05859391759225
 20
251.10567258236176
 11
564.21362364025083
 21
261.95064285970386
  0
LINE
  8
_0-6_現況線
  6
CONTINUOUS
 62
    4
 10
543.15785671291962
 20
251.10567258236176
 11
556.03427520933531
 21
263.98209107877881
  0
LINE
  8
_0-6_現況線
  6
CONTINUOUS
 62
    4
 10
534.67257533867962
 20
251.10567258236176
 11
566.67257533868235
 21
283.10567258236472
  0
LINE
  8
_0-6_現況線
  6
CONTINUOUS
 62
    4
 10
517.70201259020325
 20
251.10567258236176
 11
529.96448807140371
 21
263.36814806356176
  0
LINE
  8
_0-6_現況線
  6
CONTINUOUS
 62
    4
 10
526.18729396444144
 20
251.10567258236176
 11
536.47705579263186
 21
261.39543441055287
  0
LINE
  8
_0-6_現況線
  6
CONTINUOUS
 62
    4
 10
558.08803116911588
 20
251.10567258236176
 11
540.41811895924786
 21
268.77558479222978
  0
LINE
  8
_0-6_現況線
  6
CONTINUOUS
 62
    4
 10
500.73144984172325
 20
251.10567258236176
 11
532.73144984172961
 21
283.10567258236472
  0
LINE
  8
_0-6_現況線
  6
CONTINUOUS
 62
    4
 10
509.21673121596052
 20
251.10567258236176
 11
541.21673121596871
 21
283.10567258236472
  0
LINE
  8
_0-6_現況線
  6
CONTINUOUS
 62
    4
 10
532.63218704640224
 20
251.10567258236176
 11
500.6321870463986
 21
283.10567258236586
  0
LINE
  8
_0-6_現況線
  6
CONTINUOUS
 62
    4
 10
541.11746842063951
 20
251.10567258236176
 11
509.11746842063587
 21
283.10567258236586
  0
LINE
  8
_0-6_現況線
  6
CONTINUOUS
 62
    4
 10
549.6027497948777
 20
251.10567258236176
 11
538.33476428391043
 21
262.37365809333085
  0
LINE
  8
_0-6_現況線
  6
CONTINUOUS
 62
    4
 10
583.54387529183043
 20
251.10567258236176
 11
567.14027925366702
 21
267.50926862052472
  0
LINE
  8
_0-6_現況線
  6
CONTINUOUS
 62
    4
 10
592.02915666606862
 20
251.10567258236176
 11
560.02915666606498
 21
283.10567258236472
  0
LINE
  8
_0-6_現況線
  6
CONTINUOUS
 62
    4
 10
600.51443804030589
 20
251.10567258236176
 11
590.02146182936269
 21
261.59864879330587
  0
LINE
  8
_0-6_現況線
  6
CONTINUOUS
 62
    4
 10
560.12841946139599
 20
251.10567258236176
 11
592.12841946140054
 21
283.10567258236472
  0
LINE
  8
_0-6_現況線
  6
CONTINUOUS
 62
    4
 10
551.64313808715872
 20
251.10567258236176
 11
561.67146662699326
 21
261.1340011221979
  0
LINE
  8
_0-6_現況線
  6
CONTINUOUS
 62
    4
 10
659.91140765997682
 20
251.10567258236176
 11
646.19816374971799
 21
264.81891649262082
  0
LINE
  8
_0-6_現況線
  6
CONTINUOUS
 62
    4
 10
668.39668903421318
 20
251.10567258236176
 11
636.39668903421045
 21
283.10567258236381
  0
LINE
  8
_0-6_現況線
  6
CONTINUOUS
 62
    4
 10
676.88197040845228
 20
251.10567258236176
 11
666.8693107934165
 21
261.1183321973989
  0
LINE
  8
_0-6_現況線
  6
CONTINUOUS
 62
    4
 10
619.52538908106965
 20
251.10567258236176
 11
634.70995721606016
 21
266.29024071735182
  0
LINE
  8
_0-6_現況線
  6
CONTINUOUS
 62
    4
 10
628.01067045530601
 20
251.10567258236176
 11
638.4398650002264
 21
261.53486712728193
  0
LINE
  8
_0-6_現況線
  6
CONTINUOUS
 62
    4
 10
636.49595182954693
 20
251.10567258236176
 11
668.49595182954783
 21
283.10567258236381
  0
LINE
  8
_0-6_現況線
  6
CONTINUOUS
 62
    4
 10
644.9812332037842
 20
251.10567258236176
 11
661.15584380812436
 21
267.28028318670079
  0
LINE
  8
_0-6_現況線
  6
CONTINUOUS
 62
    4
 10
651.42612628573954
 20
251.10567258236176
 11
641.37647860220625
 21
261.15532026589483
  0
LINE
  8
_0-6_現況線
  6
CONTINUOUS
 62
    4
 10
634.45556353726226
 20
251.10567258236176
 11
619.96020752857351
 21
265.60102859104984
  0
LINE
  8
_0-6_現況線
  6
CONTINUOUS
 62
    4
 10
642.94084491150045
 20
251.10567258236176
 11
610.9408449114959
 21
283.10567258236472
  0
LINE
  8
_0-6_現況線
  6
CONTINUOUS
 62
    4
 10
602.55482633259055
 20
251.10567258236176
 11
612.73165153922457
 21
261.28249778899578
  0
LINE
  8
_0-6_現況線
  6
CONTINUOUS
 62
    4
 10
611.04010770683055
 20
251.10567258236176
 11
643.04010770683237
 21
283.10567258236381
  0
LINE
  8
_0-6_現況線
  6
CONTINUOUS
 62
    4
 10
685.36725178269137
 20
251.10567258236176
 11
672.35390272291863
 21
264.11902164213382
  0
LINE
  8
_0-6_現況線
  6
CONTINUOUS
 62
    4
 10
693.85253315692955
 20
251.10567258236176
 11
661.85253315692592
 21
283.10567258236381
  0
LINE
  8
_0-6_現況線
  6
CONTINUOUS
 62
    4
 10
702.33781453116683
 20
251.10567258236176
 11
692.17027488526003
 21
261.27321222826879
  0
LINE
  8
_0-6_現況線
  6
CONTINUOUS
 62
    4
 10
661.95179595226421
 20
251.10567258236176
 11
693.95179595226421
 21
283.10567258236381
  0
LINE
  8
_0-6_現況線
  6
CONTINUOUS
 62
    4
 10
653.46651457802238
 20
251.10567258236176
 11
664.23183007195587
 21
261.87098807629593
  0
LINE
  8
_0-6_現況線
  6
CONTINUOUS
 62
    4
 10
821.13175377050413
 20
251.10567258236176
 11
805.15340875883123
 21
267.08401759403489
  0
LINE
  8
_0-6_現況線
  6
CONTINUOUS
 62
    4
 10
829.61703514474232
 20
251.10567258236176
 11
797.61703514473959
 21
283.1056725823629
  0
LINE
  8
_0-6_現況線
  6
CONTINUOUS
 62
    4
 10
812.64647239626322
 20
251.10567258236176
 11
801.94932916019081
 21
261.80281581843485
  0
LINE
  8
_0-6_現況線
  6
CONTINUOUS
 62
    4
 10
797.71629794008425
 20
251.10567258236176
 11
829.71629794008425
 21
283.1056725823629
  0
LINE
  8
_0-6_現況線
  6
CONTINUOUS
 62
    4
 10
780.74573519160515
 20
251.10567258236176
 11
793.88343610996765
 21
264.24337350072176
  0
LINE
  8
_0-6_現況線
  6
CONTINUOUS
 62
    4
 10
772.26045381736606
 20
251.10567258236176
 11
804.26045381736787
 21
283.1056725823629
  0
LINE
  8
_0-6_現況線
  6
CONTINUOUS
 62
    4
 10
789.23101656584515
 20
251.10567258236176
 11
799.23753230130626
 21
261.11218831782287
  0
LINE
  8
_0-6_現況線
  6
CONTINUOUS
 62
    4
 10
761.73478415083684
 20
251.10567258236176
 11
750.27229507442792
 21
262.56816165876887
  0
LINE
  8
_0-6_現況線
  6
CONTINUOUS
 62
    4
 10
770.22006552507412
 20
251.10567258236176
 11
751.88145384387792
 21
269.44428426355773
  0
LINE
  8
_0-6_現況線
  6
CONTINUOUS
 62
    4
 10
778.7053468993123
 20
251.10567258236176
 11
746.70534689930957
 21
283.1056725823629
  0
LINE
  8
_0-6_現況線
  6
CONTINUOUS
 62
    4
 10
721.34876557193331
 20
251.10567258236176
 11
753.34876557193695
 21
283.1056725823629
  0
LINE
  8
_0-6_現況線
  6
CONTINUOUS
 62
    4
 10
738.31932832041241
 20
251.10567258236176
 11
748.88586140497193
 21
261.67220566692174
  0
LINE
  8
_0-6_現況線
  6
CONTINUOUS
 62
    4
 10
729.83404694617423
 20
251.10567258236176
 11
741.86185818446631
 21
263.13348382065385
  0
LINE
  8
_0-6_現況線
  6
CONTINUOUS
 62
    4
 10
746.80460969465059
 20
251.10567258236176
 11
778.80460969465241
 21
283.1056725823629
  0
LINE
  8
_0-6_現況線
  6
CONTINUOUS
 62
    4
 10
736.27894002811865
 20
251.10567258236176
 11
724.35287393929286
 21
263.03173867118687
  0
LINE
  8
_0-6_現況線
  6
CONTINUOUS
 62
    4
 10
744.76422140235957
 20
251.10567258236176
 11
712.76422140235684
 21
283.10567258236381
  0
LINE
  8
_0-6_現況線
  6
CONTINUOUS
 62
    4
 10
753.24950277659684
 20
251.10567258236176
 11
721.24950277659411
 21
283.10567258236381
  0
LINE
  8
_0-6_現況線
  6
CONTINUOUS
 62
    4
 10
712.86348419769604
 20
251.10567258236176
 11
744.86348419769604
 21
283.1056725823629
  0
LINE
  8
_0-6_現況線
  6
CONTINUOUS
 62
    4
 10
704.37820282345513
 20
251.10567258236176
 11
715.9316280998097
 21
262.65909785871588
  0
LINE
  8
_0-6_現況線
  6
CONTINUOUS
 62
    4
 10
787.19062827355049
 20
251.10567258236176
 11
776.13858790211691
 21
262.15771295379488
  0
LINE
  8
_0-6_現況線
  6
CONTINUOUS
 62
    4
 10
795.67590964778958
 20
251.10567258236176
 11
778.66946427078585
 21
268.11211795936481
  0
LINE
  8
_0-6_現況線
  6
CONTINUOUS
 62
    4
 10
804.16119102202686
 20
251.10567258236176
 11
772.16119102202504
 21
283.1056725823629
  0
LINE
  8
_0-6_現況線
  6
CONTINUOUS
 62
    4
 10
763.77517244312787
 20
251.10567258236176
 11
773.88965788967437
 21
261.22015802890576
  0
LINE
  8
_0-6_現況線
  6
CONTINUOUS
 62
    4
 10
755.2898910688906
 20
251.10567258236176
 11
767.84507436767728
 21
263.66085588115072
  0
LINE
  8
_0-6_現況線
  6
CONTINUOUS
 62
    4
 10
863.55816064169414
 20
251.10567258236176
 11
853.4175621197561
 21
261.24627110430072
  0
LINE
  8
_0-6_現況線
  6
CONTINUOUS
 62
    4
 10
872.04344201593233
 20
251.10567258236176
 11
857.86756901103456
 21
265.28154558725976
  0
LINE
  8
_0-6_現況線
  6
CONTINUOUS
 62
    4
 10
880.52872339017051
 20
251.10567258236176
 11
848.52872339017142
 21
283.10567258236176
  0
LINE
  8
_0-6_現況線
  6
CONTINUOUS
 62
    4
 10
848.62798618551608
 20
251.10567258236176
 11
880.6279861855179
 21
283.10567258236176
  0
LINE
  8
_0-6_現況線
  6
CONTINUOUS
 62
    4
 10
840.14270481127699
 20
251.10567258236176
 11
850.40810186212514
 21
261.37106963320991
  0
LINE
  8
_0-6_現況線
  6
CONTINUOUS
 62
    4
 10
831.65742343703971
 20
251.10567258236176
 11
846.30845269635995
 21
265.75670184168291
  0
LINE
  8
_0-6_現況線
  6
CONTINUOUS
 62
    4
 10
823.17214206280153
 20
251.10567258236176
 11
855.17214206280153
 21
283.10567258236176
  0
LINE
  8
_0-6_現況線
  6
CONTINUOUS
 62
    4
 10
838.1023165189805
 20
251.10567258236176
 11
827.72678643476195
 21
261.48120266657986
  0
LINE
  8
_0-6_現況線
  6
CONTINUOUS
 62
    4
 10
846.58759789321869
 20
251.10567258236176
 11
831.57129624356151
 21
266.12197423201872
  0
LINE
  8
_0-6_現況線
  6
CONTINUOUS
 62
    4
 10
855.07287926745505
 20
251.10567258236176
 11
823.07287926745505
 21
283.1056725823629
  0
LINE
  8
_0-6_現況線
  6
CONTINUOUS
 62
    4
 10
806.20157931432334
 20
251.10567258236176
 11
820.05346329398401
 21
264.95755656202289
  0
LINE
  8
_0-6_現況線
  6
CONTINUOUS
 62
    4
 10
814.68686068856061
 20
251.10567258236176
 11
824.75972611572035
 21
261.17853800951991
  0
LINE
  8
_0-6_現況線
  6
CONTINUOUS
 62
    4
 10
889.01400476441052
 20
251.10567258236176
 11
878.99816842393432
 21
261.12150892283887
  0
LINE
  8
_0-6_現況線
  6
CONTINUOUS
 62
    4
 10
865.59854893399336
 20
251.10567258236176
 11
876.15117378395882
 21
261.65829743232791
  0
LINE
  8
_0-6_現況線
  6
CONTINUOUS
 62
    4
 10
857.11326755975699
 20
251.10567258236176
 11
872.67028874771097
 21
266.66269377031688
  0
LINE
  8
_0-6_現況線
  6
CONTINUOUS
 62
    4
 10
352.37766238744609
 20
272.4575126128608
 11
363.02582235695229
 21
283.10567258236586
  0
LINE
  8
_0-6_現況線
  6
CONTINUOUS
 62
    4
 10
355.65195491618636
 20
267.24652376735878
 11
371.5111037311932
 21
283.10567258236586
  0
LINE
  8
_0-6_現況線
  6
CONTINUOUS
 62
    4
 10
344.27047463896963
 20
269.76175750502773
 11
330.92655956163037
 21
283.10567258236676
  0
LINE
  8
_0-6_現況線
  6
CONTINUOUS
 62
    4
 10
349.41082264491217
 20
273.10669087332178
 11
339.41184093586946
 21
283.10567258236676
  0
LINE
  8
_0-6_現況線
  6
CONTINUOUS
 62
    4
 10
378.14680157651094
 20
272.77080767920972
 11
388.48166647966684
 21
283.10567258236586
  0
LINE
  8
_0-6_現況線
  6
CONTINUOUS
 62
    4
 10
382.05506973196736
 20
268.19379446042592
 11
396.96694785390866
 21
283.10567258236586
  0
LINE
  8
_0-6_現況線
  6
CONTINUOUS
 62
    4
 10
370.46581977157496
 20
269.02225649513878
 11
356.38240368434583
 21
283.10567258236676
  0
LINE
  8
_0-6_現況線
  6
CONTINUOUS
 62
    4
 10
374.97802445590935
 20
272.99533318504075
 11
364.86768505858402
 21
283.10567258236586
  0
LINE
  8
_0-6_現況線
  6
CONTINUOUS
 62
    4
 10
403.82746222215758
 20
272.99562420213476
 11
413.93751060238685
 21
283.10567258236586
  0
LINE
  8
_0-6_現況線
  6
CONTINUOUS
 62
    4
 10
408.34068470194381
 20
269.02356530768691
 11
422.42279197662413
 21
283.10567258236586
  0
LINE
  8
_0-6_現況線
  6
CONTINUOUS
 62
    4
 10
396.75160377357827
 20
268.19231661584979
 11
381.83824780706038
 21
283.10567258236586
  0
LINE
  8
_0-6_現況線
  6
CONTINUOUS
 62
    4
 10
400.65884969491401
 20
272.77035206875291
 11
390.32352918129948
 21
283.10567258236586
  0
LINE
  8
_0-6_現況線
  6
CONTINUOUS
 62
    4
 10
429.38984526333991
 20
273.10216312060481
 11
439.39335472510231
 21
283.10567258236586
  0
LINE
  8
_0-6_現況線
  6
CONTINUOUS
 62
    4
 10
434.46854643307108
 20
269.69558291609781
 11
447.87863609933959
 21
283.10567258236586
  0
LINE
  8
_0-6_現況線
  6
CONTINUOUS
 62
    4
 10
423.05789256926403
 20
267.3418719428779
 11
407.29409192977585
 21
283.10567258236586
  0
LINE
  8
_0-6_現況線
  6
CONTINUOUS
 62
    4
 10
426.3946989200391
 20
272.49034696633987
 11
415.77937330401494
 21
283.10567258236586
  0
LINE
  8
_0-6_現況線
  6
CONTINUOUS
 62
    4
 10
460.53334737917851
 20
270.30453973948772
 11
473.33448022205687
 21
283.10567258236586
  0
LINE
  8
_0-6_現況線
  6
CONTINUOUS
 62
    4
 10
454.82178015261309
 20
273.0782538871598
 11
464.84919884781959
 21
283.10567258236586
  0
LINE
  8
_0-6_現況線
  6
CONTINUOUS
 62
    4
 10
449.50147736764268
 20
266.35413126721289
 11
432.7499360524904
 21
283.10567258236586
  0
LINE
  8
_0-6_現況線
  6
CONTINUOUS
 62
    4
 10
452.192692741423
 20
272.14819726766984
 11
441.23521742672767
 21
283.10567258236586
  0
LINE
  8
_0-6_現況線
  6
CONTINUOUS
 62
    4
 10
486.54123357228184
 20
270.85658180987491
 11
498.79032434477415
 21
283.10567258236586
  0
LINE
  8
_0-6_現況線
  6
CONTINUOUS
 62
    4
 10
478.04709021419296
 20
271.74964391761694
 11
466.69106154944495
 21
283.10567258236586
  0
LINE
  8
_0-6_現況線
  6
CONTINUOUS
 62
    4
 10
480.02584253364932
 20
272.82647214547876
 11
490.30504297053324
 21
283.10567258236586
  0
LINE
  8
_0-6_現況線
  6
CONTINUOUS
 62
    4
 10
476.19485225054962
 20
265.11660050702073
 11
458.20578017520495
 21
283.10567258236586
  0
LINE
  8
_0-6_現況線
  6
CONTINUOUS
 62
    4
 10
503.9549576553369
 20
271.29762059918983
 11
492.14690567215951
 21
283.10567258236586
  0
LINE
  8
_0-6_現況線
  6
CONTINUOUS
 62
    4
 10
512.49542437498133
 20
271.35492848985689
 11
524.24616846748961
 21
283.10567258236472
  0
LINE
  8
_0-6_現況線
  6
CONTINUOUS
 62
    4
 10
536.31745750135963
 20
272.87624625011892
 11
526.08803116911406
 21
283.10567258236472
  0
LINE
  8
_0-6_現況線
  6
CONTINUOUS
 62
    4
 10
540.36963719174821
 20
265.28801580966876
 11
558.18729396444417
 21
283.10567258236472
  0
LINE
  8
_0-6_現況線
  6
CONTINUOUS
 62
    4
 10
529.91553080245887
 20
270.79289157478081
 11
517.60274979487406
 21
283.10567258236586
  0
LINE
  8
_0-6_現況線
  6
CONTINUOUS
 62
    4
 10
538.39692353873909
 20
271.80058353089873
 11
549.70201259020598
 21
283.10567258236472
  0
LINE
  8
_0-6_現況線
  6
CONTINUOUS
 62
    4
 10
567.13107048010318
 20
266.5936049753069
 11
583.64313808716236
 21
283.10567258236472
  0
LINE
  8
_0-6_現況線
  6
CONTINUOUS
 62
    4
 10
561.55114132965411
 20
273.09840654453876
 11
551.5438752918277
 21
283.10567258236472
  0
LINE
  8
_0-6_現況線
  6
CONTINUOUS
 62
    4
 10
564.28298052352204
 20
272.23079639296577
 11
575.15785671292144
 21
283.10567258236472
  0
LINE
  8
_0-6_現況線
  6
CONTINUOUS
 62
    4
 10
555.99251556883121
 20
270.1717509311228
 11
543.05859391758952
 21
283.10567258236472
  0
LINE
  8
_0-6_現況線
  6
CONTINUOUS
 62
    4
 10
582.1405215024339
 20
269.47958912023284
 11
568.51443804030316
 21
283.10567258236472
  0
LINE
  8
_0-6_現況線
  6
CONTINUOUS
 62
    4
 10
593.63041482760366
 20
267.63710520009079
 11
609.09898220987691
 21
283.10567258236472
  0
LINE
  8
_0-6_現況線
  6
CONTINUOUS
 62
    4
 10
590.09873959442723
 20
272.59071134115186
 11
600.61370083563781
 21
283.10567258236472
  0
LINE
  8
_0-6_現況線
  6
CONTINUOUS
 62
    4
 10
587.02662696619666
 20
273.07876503071191
 11
576.99971941454316
 21
283.10567258236472
  0
LINE
  8
_0-6_現況線
  6
CONTINUOUS
 62
    4
 10
619.98257381330552
 20
268.53342006307582
 11
634.55482633259328
 21
283.10567258236381
  0
LINE
  8
_0-6_現況線
  6
CONTINUOUS
 62
    4
 10
612.64290130017946
 20
272.91833481944388
 11
602.45556353725863
 21
283.10567258236472
  0
LINE
  8
_0-6_現況線
  6
CONTINUOUS
 62
    4
 10
615.83502011015082
 20
272.87114773416272
 11
626.0695449583551
 21
283.10567258236381
  0
LINE
  8
_0-6_現況線
  6
CONTINUOUS
 62
    4
 10
608.36935752226748
 20
268.70659722311586
 11
593.97028216301953
 21
283.10567258236472
  0
LINE
  8
_0-6_現況線
  6
CONTINUOUS
 62
    4
 10
634.697192975024
 20
267.83460589307572
 11
619.42612628573409
 21
283.10567258236472
  0
LINE
  8
_0-6_現況線
  6
CONTINUOUS
 62
    4
 10
646.23020447501915
 20
269.3252066020749
 11
660.01067045530783
 21
283.10567258236381
  0
LINE
  8
_0-6_現況線
  6
CONTINUOUS
 62
    4
 10
641.47483088494812
 20
273.05511438624183
 11
651.52538908107147
 21
283.10567258236381
  0
LINE
  8
_0-6_現況線
  6
CONTINUOUS
 62
    4
 10
638.36078920175044
 20
272.65629104058792
 11
627.91140765997318
 21
283.10567258236381
  0
LINE
  8
_0-6_現況線
  6
CONTINUOUS
 62
    4
 10
672.39408352600515
 20
270.03324153034384
 11
685.46651457802602
 21
283.10567258236381
  0
LINE
  8
_0-6_現況線
  6
CONTINUOUS
 62
    4
 10
664.16089435126344
 20
272.31203001378879
 11
653.36725178268864
 21
283.10567258236381
  0
LINE
  8
_0-6_現況線
  6
CONTINUOUS
 62
    4
 10
666.9847884156012
 20
273.10922779417581
 11
676.98123320378966
 21
283.10567258236381
  0
LINE
  8
_0-6_現況線
  6
CONTINUOUS
 62
    4
 10
661.16020490652829
 20
266.82743808428575
 11
644.88197040844955
 21
283.10567258236381
  0
LINE
  8
_0-6_現況線
  6
CONTINUOUS
 62
    4
 10
687.71508493739805
 20
265.72840217613077
 11
670.3378145311641
 21
283.10567258236381
  0
LINE
  8
_0-6_現況線
  6
CONTINUOUS
 62
    4
 10
692.3134727897783
 20
272.98206804563972
 11
702.43707732650421
 21
283.10567258236381
  0
LINE
  8
_0-6_現況線
  6
CONTINUOUS
 62
    4
 10
698.42746124009011
 20
270.61077512171084
 11
710.9223587007433
 21
283.10567258236381
  0
LINE
  8
_0-6_現況線
  6
CONTINUOUS
 62
    4
 10
689.98999372853416
 20
271.93877475923193
 11
678.8230959054041
 21
283.10567258236381
  0
LINE
  8
_0-6_現況線
  6
CONTINUOUS
 62
    4
 10
724.40597374358515
 20
271.13344350248974
 11
736.37820282345695
 21
283.1056725823629
  0
LINE
  8
_0-6_現況線
  6
CONTINUOUS
 62
    4
 10
715.87361138031667
 20
271.51100123016488
 11
704.27894002811865
 21
283.10567258236381
  0
LINE
  8
_0-6_現況線
  6
CONTINUOUS
 62
    4
 10
750.33158778164636
 20
271.60321341783481
 11
761.83404694617514
 21
283.1056725823629
  0
LINE
  8
_0-6_現況線
  6
CONTINUOUS
 62
    4
 10
741.81003436789854
 20
271.03042236529984
 11
729.73478415083412
 21
283.10567258236381
  0
LINE
  8
_0-6_現況線
  6
CONTINUOUS
 62
    4
 10
748.68615697268672
 20
272.63958113474894
 11
738.2200655250723
 21
283.10567258236381
  0
LINE
  8
_0-6_現況線
  6
CONTINUOUS
 62
    4
 10
751.79286593537802
 20
264.57921019732692
 11
770.31932832041332
 21
283.1056725823629
  0
LINE
  8
_0-6_現況線
  6
CONTINUOUS
 62
    4
 10
776.20421572115049
 20
272.01999723462279
 11
787.28989106889151
 21
283.1056725823629
  0
LINE
  8
_0-6_現況線
  6
CONTINUOUS
 62
    4
 10
778.64491357339341
 20
265.97541371262594
 11
795.77517244313151
 21
283.1056725823629
  0
LINE
  8
_0-6_現況線
  6
CONTINUOUS
 62
    4
 10
773.75399066849297
 20
273.02759156165678
 11
763.67590964778685
 21
283.1056725823629
  0
LINE
  8
_0-6_現況線
  6
CONTINUOUS
 62
    4
 10
767.79958566292464
 20
270.49671519298875
 11
755.19062827354958
 21
283.1056725823629
  0
LINE
  8
_0-6_現況線
  6
CONTINUOUS
 62
    4
 10
805.15288328447843
 20
267.02753930099391
 11
821.23101656584606
 21
283.1056725823629
  0
LINE
  8
_0-6_現況線
  6
CONTINUOUS
 62
    4
 10
802.02169810157886
 20
272.38163549233275
 11
812.74573519160788
 21
283.1056725823629
  0
LINE
  8
_0-6_現況線
  6
CONTINUOUS
 62
    4
 10
793.84468852756402
 20
269.90745645106188
 11
780.64647239626413
 21
283.1056725823629
  0
LINE
  8
_0-6_現況線
  6
CONTINUOUS
 62
    4
 10
799.12589030316451
 20
273.11153604970184
 11
789.13175377050231
 21
283.1056725823629
  0
LINE
  8
_0-6_現況線
  6
CONTINUOUS
 62
    4
 10
831.58653359278071
 20
268.00534548657981
 11
846.68686068856425
 21
283.10567258236176
  0
LINE
  8
_0-6_現況線
  6
CONTINUOUS
 62
    4
 10
827.80751504027796
 20
272.71160830831684
 11
838.20157931432334
 21
283.10567258236176
  0
LINE
  8
_0-6_現況線
  6
CONTINUOUS
 62
    4
 10
824.6638469411497
 20
273.02942353443188
 11
814.58759789321687
 21
283.1056725823629
  0
LINE
  8
_0-6_現況線
  6
CONTINUOUS
 62
    4
 10
820.02307537570925
 20
269.18491372563187
 11
806.10231651897686
 21
283.1056725823629
  0
LINE
  8
_0-6_現況線
  6
CONTINUOUS
 62
    4
 10
853.50836976061839
 20
272.95661890593976
 11
863.65742343704062
 21
283.10567258236176
  0
LINE
  8
_0-6_現況線
  6
CONTINUOUS
 62
    4
 10
857.89400196909139
 20
268.85696974017389
 11
872.14270481127971
 21
283.10567258236176
  0
LINE
  8
_0-6_現況線
  6
CONTINUOUS
 62
    4
 10
850.32341829638938
 20
272.82569630190471
 11
840.04344201593142
 21
283.1056725823629
  0
LINE
  8
_0-6_現況線
  6
CONTINUOUS
 62
    4
 10
846.28814381342966
 20
268.3756894106258
 11
831.55816064169323
 21
283.1056725823629
  0
LINE
  8
_0-6_現況線
  6
CONTINUOUS
 62
    4
 10
879.10237783198465
 20
273.09478285458988
 11
889.11326755975699
 21
283.10567258236176
  0
LINE
  8
_0-6_現況線
  6
CONTINUOUS
 62
    4
 10
876.07544619439489
 20
272.52951252661489
 11
865.4992861386487
 21
283.10567258236176
  0
LINE
  8
_0-6_現況線
  6
CONTINUOUS
 62
    4
 10
872.66338163196872
 20
267.45629571480492
 11
857.01400476441052
 21
283.10567258236176
  0
LINE
  8
_0-1_計細線
  6
CONTINUOUS
 62
    3
 10
898.65347213072766
 20
625.10715429841628
 11
897.65347213072857
 21
624.10567258236244
  0
LINE
  8
_0-1_計細線
  6
CONTINUOUS
 62
    3
 10
897.65347213072403
 20
656.10567258236722
 11
898.65347213073039
 21
655.10715429841559
  0
LINE
  8
_0-1_計細線
  6
CONTINUOUS
 62
    3
 10
976.15347213072585
 20
626.60567258236722
 11
974.15347213072494
 21
624.60567258236608
  0
LINE
  8
_0-1_計細線
  6
CONTINUOUS
 62
    3
 10
974.15347213072494
 20
624.60567258236517
 11
922.15347213072494
 21
624.60567258236586
  0
LINE
  8
_0-1_計細線
  6
CONTINUOUS
 62
    3
 10
974.15347213072494
 20
655.6056725823629
 11
922.15347213072766
 21
655.60567258236358
  0
LINE
  8
_0-1_計細線
  6
CONTINUOUS
 62
    3
 10
976.15347213072585
 20
653.6056725823629
 11
974.15347213072494
 21
655.60567258236358
  0
LINE
  8
_0-1_計細線
  6
CONTINUOUS
 62
    3
 10
976.15347213072585
 20
626.60567258236722
 11
976.15347213072585
 21
653.6056725823629
  0
ARC
  8
_0-1_計細線
  6
CONTINUOUS
 62
    3
 10
898.95347213073148
 20
655.80567258235726
 40
0.2999999999999999
 50
89.999999999999915
 51
179.99999999999983
  0
ARC
  8
_0-1_計細線
  6
CONTINUOUS
 62
    3
 10
898.95347213072603
 20
655.80567258236431
 40
0.2999999999999999
 50
89.999999999999915
 51
179.99999999999983
  0
LINE
  8
_0-1_計細線
  6
CONTINUOUS
 62
    3
 10
921.85347213072566
 20
656.10567258236335
 11
898.95347213072603
 21
656.10567258236426
  0
ARC
  8
_0-1_計細線
  6
CONTINUOUS
 62
    3
 10
898.95347213072694
 20
624.40567258235922
 40
0.2999999999999999
 50
179.99999999999983
 51
269.99999999999977
  0
ARC
  8
_0-1_計細線
  6
CONTINUOUS
 62
    3
 10
921.85347213072384
 20
624.40567258236626
 40
0.2999999999999999
 50
269.99999999999977
 51
359.99999999999966
  0
ARC
  8
_0-1_計細線
  6
CONTINUOUS
 62
    3
 10
898.9534721307233
 20
624.40567258236626
 40
0.2999999999999999
 50
179.99999999999983
 51
269.99999999999977
  0
LINE
  8
_0-1_計細線
  6
CONTINUOUS
 62
    3
 10
898.9534721307233
 20
624.10567258236517
 11
921.85347213072384
 21
624.10567258236517
  0
LINE
  8
_0-1_計細線
  6
CONTINUOUS
 62
    3
 10
898.65347213072312
 20
624.40567258235922
 11
898.65347213072312
 21
655.80567258235726
  0
LINE
  8
_0-1_計細線
  6
CONTINUOUS
 62
    3
 10
922.15347213072403
 20
624.40567258236626
 11
922.15347213072403
 21
655.8056725823634
  0
ARC
  8
_0-1_計細線
  6
CONTINUOUS
 62
    3
 10
921.85347213072384
 20
655.80567258236226
 40
0.2999999999999999
 50
0
 51
89.999999999999915
  0
LINE
  8
_0-0_計極細
  6
CONTINUOUS
 62
    2
 10
897.65347213072039
 20
624.10567258236244
 11
897.65347213072221
 21
656.10567258236244
  0
LINE
  8
_0-0_計極細
  6
CONTINUOUS
 62
    2
 10
974.15347213072494
 20
624.60567258236517
 11
974.15347213072494
 21
655.6056725823629
  0
LINE
  8
_0-0_計極細
  6
CENTER1
 62
    2
 10
1061.7534721307234
 20
473.10567258236381
 11
1022.1534721307231
 21
473.10567258236381
  0
LINE
  8
_0-0_計極細
  6
CENTER1
 62
    2
 10
1041.9534721307232
 20
413.60567258236381
 11
1041.9534721307232
 21
492.90567258236376
  0
LINE
  8
_0-1_計細線
  6
CONTINUOUS
 62
    3
 10
938.65347213072403
 20
417.60567258236472
 11
976.15347213072403
 21
417.60567258236472
  0
LINE
  8
_0-1_計細線
  6
CONTINUOUS
 62
    3
 10
974.15347213072221
 20
488.60567258236085
 11
922.15347213072494
 21
488.60567258236176
  0
LINE
  8
_0-1_計細線
  6
CONTINUOUS
 62
    3
 10
976.15347213072403
 20
486.60567258236085
 11
974.15347213072403
 21
488.60567258236176
  0
LINE
  8
_0-1_計細線
  6
CONTINUOUS
 62
    3
 10
976.15347213072403
 20
417.60567258236381
 11
976.15347213072403
 21
486.60567258236085
  0
LINE
  8
_0-1_計細線
  6
CONTINUOUS
 62
    3
 10
922.15347213072403
 20
457.60567258236381
 11
938.65347213072403
 21
457.60567258236381
  0
LINE
  8
_0-1_計細線
  6
CONTINUOUS
 62
    3
 10
898.65347213072312
 20
458.10715429841491
 11
897.65347213072403
 21
457.10567258235972
  0
LINE
  8
_0-1_計細線
  6
CONTINUOUS
 62
    3
 10
897.65347213072039
 20
489.10567258236472
 11
898.65347213072403
 21
488.10715429841377
  0
ARC
  8
_0-1_計細線
  6
CONTINUOUS
 62
    3
 10
1046.9534721307241
 20
485.15567258236285
 40
1
 50
0
 51
89.999999999999915
  0
ARC
  8
_0-1_計細線
  6
CONTINUOUS
 62
    3
 10
1046.9534721307241
 20
483.85567258236381
 40
1
 50
269.99999999999977
 51
359.99999999999966
  0
LINE
  8
_0-1_計細線
  6
CONTINUOUS
 62
    3
 10
1047.9534721307241
 20
483.85567258236381
 11
1047.9534721307241
 21
485.15567258236285
  0
ARC
  8
_0-1_計細線
  6
CONTINUOUS
 62
    3
 10
1036.9534721307241
 20
485.15567258236285
 40
1
 50
89.999999999999915
 51
179.99999999999983
  0
ARC
  8
_0-1_計細線
  6
CONTINUOUS
 62
    3
 10
1036.9534721307241
 20
483.85567258236381
 40
1
 50
179.99999999999983
 51
269.99999999999977
  0
LINE
  8
_0-1_計細線
  6
CONTINUOUS
 62
    3
 10
1036.9534721307241
 20
482.85567258236381
 11
1046.9534721307241
 21
482.85567258236381
  0
LINE
  8
_0-1_計細線
  6
CONTINUOUS
 62
    3
 10
1036.9534721307241
 20
486.15567258236285
 11
1046.9534721307241
 21
486.15567258236285
  0
LINE
  8
_0-1_計細線
  6
CONTINUOUS
 62
    3
 10
1035.953472130725
 20
483.85567258236381
 11
1035.9534721307241
 21
485.15567258236285
  0
ARC
  8
_0-1_計細線
  6
CONTINUOUS
 62
    3
 10
1041.9534721307232
 20
473.10567258236381
 40
13
 50
117.48642625038997
 51
62.513573749609691
  0
CIRCLE
  8
_0-1_計細線
  6
CONTINUOUS
 62
    3
 10
1041.9534721307232
 20
473.10567258236381
 40
3.25
  0
LINE
  8
_0-1_計細線
  6
CONTINUOUS
 62
    3
 10
1054.7034721307241
 20
417.60567258236381
 11
1029.2034721307241
 21
417.60567258236381
  0
LINE
  8
_0-1_計細線
  6
CONTINUOUS
 62
    3
 10
884.65347215572149
 20
457.10567258235972
 11
897.65347213071584
 21
457.10567258235972
  0
ARC
  8
_0-1_計細線
  6
CONTINUOUS
 62
    3
 10
898.95347213073148
 20
488.80567258235476
 40
0.2999999999999999
 50
89.999999999999915
 51
179.99999999999983
  0
ARC
  8
_0-1_計細線
  6
CONTINUOUS
 62
    3
 10
921.85347213072566
 20
488.8056725823609
 40
0.2999999999999999
 50
0
 51
89.999999999999915
  0
ARC
  8
_0-1_計細線
  6
CONTINUOUS
 62
    3
 10
898.95347213072603
 20
488.80567258236181
 40
0.2999999999999999
 50
89.999999999999915
 51
179.99999999999983
  0
LINE
  8
_0-1_計細線
  6
CONTINUOUS
 62
    3
 10
921.85347213072566
 20
489.10567258236085
 11
898.95347213072603
 21
489.10567258236176
  0
ARC
  8
_0-1_計細線
  6
CONTINUOUS
 62
    3
 10
898.95347213072694
 20
457.40567258235671
 40
0.2999999999999999
 50
179.99999999999983
 51
269.99999999999977
  0
ARC
  8
_0-1_計細線
  6
CONTINUOUS
 62
    3
 10
921.85347213072384
 20
457.40567258236376
 40
0.2999999999999999
 50
269.99999999999977
 51
359.99999999999966
  0
ARC
  8
_0-1_計細線
  6
CONTINUOUS
 62
    3
 10
898.9534721307233
 20
457.40567258236376
 40
0.2999999999999999
 50
179.99999999999983
 51
269.99999999999977
  0
LINE
  8
_0-1_計細線
  6
CONTINUOUS
 62
    3
 10
898.9534721307233
 20
457.10567258236267
 11
921.85347213072384
 21
457.10567258236267
  0
LINE
  8
_0-1_計細線
  6
CONTINUOUS
 62
    3
 10
898.65347213072312
 20
457.40567258235671
 11
898.65347213072312
 21
488.80567258235476
  0
CIRCLE
  8
_0-1_計細線
  6
CONTINUOUS
 62
    3
 10
1041.9534721307232
 20
473.10567258236381
 40
16
  0
LINE
  8
_0-1_計細線
  6
CONTINUOUS
 62
    3
 10
1054.7034721307241
 20
463.43936511777417
 11
1054.7034721307195
 21
417.60567258236381
  0
LINE
  8
_0-1_計細線
  6
CONTINUOUS
 62
    3
 10
1029.2034721307241
 20
463.4393651177719
 11
1029.2034721307241
 21
417.60567258236381
  0
LINE
  8
_0-1_計細線
  6
CONTINUOUS
 62
    3
 10
922.15347213072403
 20
457.40567258236376
 11
922.15347213072403
 21
488.8056725823609
  0
LINE
  8
_0-1_計細線
  6
CONTINUOUS
 62
    3
 10
938.65347213072403
 20
457.60567258236381
 11
938.65347213072403
 21
417.60567258236472
  0
LINE
  8
_0-0_計極細
  6
CONTINUOUS
 62
    2
 10
938.65347213072403
 20
462.04396995577088
 11
938.65347213072403
 21
457.60567258236381
  0
LINE
  8
_0-0_計極細
  6
CONTINUOUS
 62
    2
 10
974.15347213072494
 20
417.60567258236381
 11
974.15347213072221
 21
488.60567258236085
  0
LINE
  8
_0-0_計極細
  6
CONTINUOUS
 62
    2
 10
897.65347213072221
 20
457.10567258236472
 11
897.65347213072494
 21
489.10567258235972
  0
LINE
  8
_0-0_計極細
  6
CONTINUOUS
 62
    2
 10
940.65347213072494
 20
464.29162130046177
 11
940.65347213072494
 21
417.60567258236472
  0
LINE
  8
_0-0_計極細
  6
CONTINUOUS
 62
    2
 10
938.65347213072403
 20
462.04396995577088
 11
940.65347213072494
 21
464.29162130046177
  0
LINE
  8
_0-0_計極細
  6
CONTINUOUS
 62
    2
 10
974.15347213072403
 20
464.29162130046177
 11
976.15347213072403
 21
464.9394310968338
  0
LINE
  8
_0-0_計極細
  6
CONTINUOUS
 62
    2
 10
974.15347213072403
 20
464.29162130046177
 11
922.15347213072403
 21
464.29162130046177
  0
LINE
  8
_0-0_計極細
  6
CONTINUOUS
 62
    2
 10
1031.203472130725
 20
461.25503968787154
 11
1031.2034721307241
 21
417.60567258236381
  0
LINE
  8
_0-0_計極細
  6
CONTINUOUS
 62
    2
 10
1052.7034721307232
 20
461.25503968786995
 11
1052.7034721307205
 21
417.60567258236381
  0
CIRCLE
  8
_0-0_計極細
  6
CONTINUOUS
 62
    2
 10
1041.9534721307232
 20
473.10567258236381
 40
15
  0
LINE
  8
_0-0_計極細
  6
CONTINUOUS
 62
    2
 10
1036.4534721307241
 20
483.85567258236381
 11
1036.4534721307241
 21
485.15567258236376
  0
ARC
  8
_0-0_計極細
  6
CONTINUOUS
 62
    2
 10
1037.4534721307232
 20
483.85567258236381
 40
1
 50
179.99999999999983
 51
269.99999999999977
  0
ARC
  8
_0-0_計極細
  6
CONTINUOUS
 62
    2
 10
1037.4534721307232
 20
485.15567258236376
 40
1
 50
89.999999999999915
 51
179.99999999999983
  0
LINE
  8
_0-0_計極細
  6
CONTINUOUS
 62
    2
 10
1047.4534721307241
 20
483.85567258236381
 11
1047.4534721307241
 21
485.15567258236376
  0
ARC
  8
_0-0_計極細
  6
CONTINUOUS
 62
    2
 10
1046.4534721307241
 20
483.85567258236381
 40
1
 50
269.99999999999977
 51
359.99999999999966
  0
ARC
  8
_0-0_計極細
  6
CONTINUOUS
 62
    2
 10
1046.4534721307241
 20
485.15567258236376
 40
1
 50
0
 51
89.999999999999915
  0
LINE
  8
_0-5_寸法線
  6
CONTINUOUS
 62
    7
 10
938.65347213072403
 20
409.60567258236472
 11
938.65347213072391
 21
385.60567258236472
  0
LINE
  8
_0-5_寸法線
  6
CONTINUOUS
 62
    7
 10
938.65347213072391
 20
389.60567258236472
 11
946.38087874103644
 21
391.67622494318488
  0
LINE
  8
_0-5_寸法線
  6
CONTINUOUS
 62
    7
 10
938.65347213072391
 20
389.60567258236472
 11
946.38087874103644
 21
387.53512022154456
  0
LINE
  8
_0-5_寸法線
  6
CONTINUOUS
 62
    7
 10
976.15347213072403
 20
409.60567258236472
 11
976.15347213072391
 21
385.60567258236472
  0
LINE
  8
_0-5_寸法線
  6
CONTINUOUS
 62
    7
 10
976.15347213072391
 20
389.60567258236472
 11
968.42606552041138
 21
387.53512022154456
  0
LINE
  8
_0-5_寸法線
  6
CONTINUOUS
 62
    7
 10
976.15347213072391
 20
389.60567258236472
 11
968.42606552041138
 21
391.67622494318493
  0
LINE
  8
_0-5_寸法線
  6
CONTINUOUS
 62
    7
 10
938.65347213072391
 20
389.60567258236472
 11
976.15347213072391
 21
389.60567258236472
  0
TEXT
  8
_0-5_寸法線
 62
    7
 10
945.40347213072391
 20
389.60567258236472
 40
12
 41
1
 50
0
  1
37.5
  0
LINE
  8
_0-5_寸法線
  6
CONTINUOUS
 62
    7
 10
898.65347213072323
 20
449.40567258236376
 11
898.65347213072255
 21
361.60567258236472
  0
LINE
  8
_0-5_寸法線
  6
CONTINUOUS
 62
    7
 10
898.65347213072255
 20
365.60567258236472
 11
906.38087874103508
 21
367.67622494318488
  0
LINE
  8
_0-5_寸法線
  6
CONTINUOUS
 62
    7
 10
898.65347213072255
 20
365.60567258236472
 11
906.38087874103508
 21
363.53512022154456
  0
LINE
  8
_0-5_寸法線
  6
CONTINUOUS
 62
    7
 10
976.15347213072391
 20
409.60567258236472
 11
976.15347213072357
 21
361.60567258236472
  0
LINE
  8
_0-5_寸法線
  6
CONTINUOUS
 62
    7
 10
976.15347213072357
 20
365.60567258236472
 11
968.42606552041104
 21
363.53512022154456
  0
LINE
  8
_0-5_寸法線
  6
CONTINUOUS
 62
    7
 10
976.15347213072357
 20
365.60567258236472
 11
968.42606552041104
 21
367.67622494318493
  0
LINE
  8
_0-5_寸法線
  6
CONTINUOUS
 62
    7
 10
898.65347213072255
 20
365.60567258236472
 11
976.15347213072357
 21
365.60567258236472
  0
TEXT
  8
_0-5_寸法線
 62
    7
 10
925.403472130723
 20
365.60567258236472
 40
12
 41
1
 50
0
  1
77.5
  0
LINE
  8
_0-5_寸法線
  6
CONTINUOUS
 62
    7
 10
982.15347213072221
 20
488.60567258236358
 11
1008.153472130724
 21
488.60567258236358
  0
LINE
  8
_0-5_寸法線
  6
CONTINUOUS
 62
    7
 10
1004.153472130724
 20
488.60567258236358
 11
1006.2240244915442
 21
480.87826597205105
  0
LINE
  8
_0-5_寸法線
  6
CONTINUOUS
 62
    7
 10
1004.153472130724
 20
488.60567258236358
 11
1002.0829197699039
 21
480.87826597205105
  0
LINE
  8
_0-5_寸法線
  6
CONTINUOUS
 62
    7
 10
984.15347213072403
 20
417.60567258236472
 11
1008.153472130724
 21
417.60567258236472
  0
LINE
  8
_0-5_寸法線
  6
CONTINUOUS
 62
    7
 10
1004.153472130724
 20
417.60567258236472
 11
1002.0829197699039
 21
425.33307919267725
  0
LINE
  8
_0-5_寸法線
  6
CONTINUOUS
 62
    7
 10
1004.153472130724
 20
417.60567258236472
 11
1006.2240244915442
 21
425.33307919267725
  0
LINE
  8
_0-5_寸法線
  6
CONTINUOUS
 62
    7
 10
1004.153472130724
 20
488.60567258236358
 11
1004.153472130724
 21
417.60567258236472
  0
TEXT
  8
_0-5_寸法線
 62
    7
 10
1004.153472130724
 20
447.10567258236404
 40
12
 41
1
 50
90
  1
71
  0
LINE
  8
_0-5_寸法線
  6
CONTINUOUS
 62
    7
 10
1069.7534721307234
 20
473.10567258236381
 11
1086.7034721307195
 21
473.10567258236381
  0
LINE
  8
_0-5_寸法線
  6
CONTINUOUS
 62
    7
 10
1082.7034721307195
 20
473.10567258236381
 11
1084.7740244915396
 21
465.37826597205128
  0
LINE
  8
_0-5_寸法線
  6
CONTINUOUS
 62
    7
 10
1082.7034721307195
 20
473.10567258236381
 11
1080.6329197698994
 21
465.37826597205128
  0
LINE
  8
_0-5_寸法線
  6
CONTINUOUS
 62
    7
 10
1062.7034721307195
 20
417.60567258236381
 11
1086.7034721307195
 21
417.60567258236381
  0
LINE
  8
_0-5_寸法線
  6
CONTINUOUS
 62
    7
 10
1082.7034721307195
 20
417.60567258236381
 11
1080.6329197698994
 21
425.33307919267634
  0
LINE
  8
_0-5_寸法線
  6
CONTINUOUS
 62
    7
 10
1082.7034721307195
 20
417.60567258236381
 11
1084.7740244915396
 21
425.33307919267634
  0
LINE
  8
_0-5_寸法線
  6
CONTINUOUS
 62
    7
 10
1082.7034721307195
 20
473.10567258236381
 11
1082.7034721307195
 21
417.60567258236381
  0
TEXT
  8
_0-5_寸法線
 62
    7
 10
1082.7034721307195
 20
433.35567258236381
 40
12
 41
1
 50
90
  1
55.5
  0
LINE
  8
_0-5_寸法線
  6
CONTINUOUS
 62
    7
 10
1049.9534721307232
 20
489.10567258236375
 11
1110.7034721307195
 21
489.10567258236307
  0
LINE
  8
_0-5_寸法線
  6
CONTINUOUS
 62
    7
 10
1106.7034721307195
 20
489.10567258236313
 11
1108.7740244915396
 21
481.3782659720506
  0
LINE
  8
_0-5_寸法線
  6
CONTINUOUS
 62
    7
 10
1106.7034721307195
 20
489.10567258236313
 11
1104.6329197698994
 21
481.3782659720506
  0
LINE
  8
_0-5_寸法線
  6
CONTINUOUS
 62
    7
 10
1062.7034721307195
 20
417.60567258236375
 11
1110.7034721307195
 21
417.6056725823633
  0
LINE
  8
_0-5_寸法線
  6
CONTINUOUS
 62
    7
 10
1106.7034721307195
 20
417.60567258236335
 11
1104.6329197698994
 21
425.33307919267588
  0
LINE
  8
_0-5_寸法線
  6
CONTINUOUS
 62
    7
 10
1106.7034721307195
 20
417.60567258236335
 11
1108.7740244915396
 21
425.33307919267588
  0
LINE
  8
_0-5_寸法線
  6
CONTINUOUS
 62
    7
 10
1106.7034721307195
 20
489.10567258236313
 11
1106.7034721307195
 21
417.60567258236335
  0
TEXT
  8
_0-5_寸法線
 62
    7
 10
1106.7034721307195
 20
441.35567258236313
 40
12
 41
1
 50
90
  1
71.5
  0
LINE
  8
_0-5_寸法線
  6
CONTINUOUS
 62
    7
 10
1029.2034721307241
 20
409.60567258236381
 11
1029.2034721307241
 21
385.60567258236472
  0
LINE
  8
_0-5_寸法線
  6
CONTINUOUS
 62
    7
 10
1029.2034721307241
 20
389.60567258236472
 11
1036.9308787410366
 21
391.67622494318488
  0
LINE
  8
_0-5_寸法線
  6
CONTINUOUS
 62
    7
 10
1029.2034721307241
 20
389.60567258236472
 11
1036.9308787410366
 21
387.53512022154456
  0
LINE
  8
_0-5_寸法線
  6
CONTINUOUS
 62
    7
 10
1054.7034721307195
 20
409.60567258236381
 11
1054.7034721307193
 21
385.60567258236472
  0
LINE
  8
_0-5_寸法線
  6
CONTINUOUS
 62
    7
 10
1054.7034721307193
 20
389.60567258236472
 11
1046.9760655204068
 21
387.53512022154456
  0
LINE
  8
_0-5_寸法線
  6
CONTINUOUS
 62
    7
 10
1054.7034721307193
 20
389.60567258236472
 11
1046.9760655204068
 21
391.67622494318493
  0
LINE
  8
_0-5_寸法線
  6
CONTINUOUS
 62
    7
 10
1029.2034721307241
 20
389.60567258236472
 11
1054.7034721307193
 21
389.60567258236472
  0
TEXT
  8
_0-5_寸法線
 62
    7
 10
1029.9534721307218
 20
389.60567258236472
 40
12
 41
1
 50
0
  1
25.5
  0
LINE
  8
_0-5_寸法線
  6
CONTINUOUS
 62
    7
 10
1025.9534721307232
 20
481.10567258236381
 11
1025.9534721307232
 21
521.10567258236199
  0
LINE
  8
_0-5_寸法線
  6
CONTINUOUS
 62
    7
 10
1025.9534721307232
 20
517.10567258236199
 11
1033.6808787410357
 21
519.17622494318221
  0
LINE
  8
_0-5_寸法線
  6
CONTINUOUS
 62
    7
 10
1025.9534721307232
 20
517.10567258236199
 11
1033.6808787410357
 21
515.03512022154177
  0
LINE
  8
_0-5_寸法線
  6
CONTINUOUS
 62
    7
 10
1057.9534721307232
 20
481.10567258236381
 11
1057.9534721307232
 21
521.10567258236199
  0
LINE
  8
_0-5_寸法線
  6
CONTINUOUS
 62
    7
 10
1057.9534721307232
 20
517.10567258236199
 11
1050.2260655204107
 21
515.03512022154189
  0
LINE
  8
_0-5_寸法線
  6
CONTINUOUS
 62
    7
 10
1057.9534721307232
 20
517.10567258236199
 11
1050.2260655204107
 21
519.17622494318221
  0
LINE
  8
_0-5_寸法線
  6
CONTINUOUS
 62
    7
 10
1025.9534721307232
 20
517.10567258236199
 11
1057.9534721307232
 21
517.10567258236199
  0
TEXT
  8
_0-5_寸法線
 62
    7
 10
1035.9534721307232
 20
517.10567258236199
 40
12
 41
1
 50
0
  1
32
  0
LINE
  8
_0-1_計細線
  6
CONTINUOUS
 62
    3
 10
898.65347213072312
 20
252.10715429841787
 11
897.65347213072403
 21
251.10567258236381
  0
LINE
  8
_0-1_計細線
  6
CONTINUOUS
 62
    3
 10
897.65347213072039
 20
283.1056725823679
 11
898.65347213072403
 21
282.10715429841673
  0
LINE
  8
_0-1_計細線
  6
CONTINUOUS
 62
    3
 10
974.15347213072221
 20
251.6056725823679
 11
922.15347213072039
 21
251.60567258236881
  0
LINE
  8
_0-1_計細線
  6
CONTINUOUS
 62
    3
 10
974.15347213072221
 20
282.60567258236381
 11
922.15347213072221
 21
282.60567258236381
  0
LINE
  8
_0-1_計細線
  6
CONTINUOUS
 62
    3
 10
976.15347213072221
 20
280.60567258236381
 11
974.15347213072221
 21
282.60567258236381
  0
LINE
  8
_0-1_計細線
  6
CONTINUOUS
 62
    3
 10
976.15347213072221
 20
253.6056725823679
 11
974.15347213072221
 21
251.6056725823679
  0
LINE
  8
_0-1_計細線
  6
CONTINUOUS
 62
    3
 10
976.15347213072221
 20
253.6056725823679
 11
976.15347213072221
 21
280.60567258236381
  0
CIRCLE
  8
_0-1_計細線
  6
CONTINUOUS
 62
    3
 10
948.40347213072221
 20
259.10567258236472
 40
2.5
  0
CIRCLE
  8
_0-1_計細線
  6
CONTINUOUS
 62
    3
 10
948.40347213072221
 20
275.10567258236472
 40
2.5
  0
CIRCLE
  8
_0-1_計細線
  6
CONTINUOUS
 62
    3
 10
968.40347213072221
 20
267.1056725823679
 40
2.5
  0
ARC
  8
_0-1_計細線
  6
CONTINUOUS
 62
    3
 10
898.95347213073148
 20
282.80567258235794
 40
0.2999999999999999
 50
89.999999999999915
 51
179.99999999999983
  0
ARC
  8
_0-1_計細線
  6
CONTINUOUS
 62
    3
 10
898.95347213072603
 20
282.80567258236499
 40
0.2999999999999999
 50
89.999999999999915
 51
179.99999999999983
  0
LINE
  8
_0-1_計細線
  6
CONTINUOUS
 62
    3
 10
921.85347213072566
 20
283.10567258236404
 11
898.95347213072603
 21
283.10567258236495
  0
ARC
  8
_0-1_計細線
  6
CONTINUOUS
 62
    3
 10
898.95347213072694
 20
251.4056725823599
 40
0.2999999999999999
 50
179.99999999999983
 51
269.99999999999977
  0
ARC
  8
_0-1_計細線
  6
CONTINUOUS
 62
    3
 10
921.85347213072384
 20
251.40567258236695
 40
0.2999999999999999
 50
269.99999999999977
 51
359.99999999999966
  0
ARC
  8
_0-1_計細線
  6
CONTINUOUS
 62
    3
 10
898.9534721307233
 20
251.40567258236695
 40
0.2999999999999999
 50
179.99999999999983
 51
269.99999999999977
  0
LINE
  8
_0-1_計細線
  6
CONTINUOUS
 62
    3
 10
898.9534721307233
 20
251.10567258236586
 11
921.85347213072384
 21
251.10567258236586
  0
LINE
  8
_0-1_計細線
  6
CONTINUOUS
 62
    3
 10
898.65347213072312
 20
251.4056725823599
 11
898.65347213072312
 21
282.80567258235794
  0
LINE
  8
_0-1_計細線
  6
CONTINUOUS
 62
    3
 10
922.15347213072403
 20
251.40567258236695
 11
922.15347213072403
 21
282.80567258236408
  0
ARC
  8
_0-1_計細線
  6
CONTINUOUS
 62
    3
 10
921.85347213072384
 20
282.80567258236476
 40
0.2999999999999999
 50
0
 51
89.999999999999915
  0
LINE
  8
_0-0_計極細
  6
CONTINUOUS
 62
    2
 10
922.15347213072221
 20
254.35567258236586
 11
974.15347213072221
 21
254.35567258236586
  0
LINE
  8
_0-0_計極細
  6
CONTINUOUS
 62
    2
 10
922.15347213072403
 20
279.85567258236586
 11
974.15347213072221
 21
279.85567258236586
  0
LINE
  8
_0-0_計極細
  6
CONTINUOUS
 62
    2
 10
940.6534721307213
 20
254.35567258236586
 11
938.65347213072312
 21
256.35567258236586
  0
LINE
  8
_0-0_計極細
  6
CONTINUOUS
 62
    2
 10
938.65347213072312
 20
277.85567258236586
 11
940.6534721307213
 21
279.85567258236586
  0
LINE
  8
_0-0_計極細
  6
CONTINUOUS
 62
    2
 10
938.65347213072312
 20
256.35567258236586
 11
938.65347213072312
 21
277.85567258236586
  0
LINE
  8
_0-0_計極細
  6
CONTINUOUS
 62
    2
 10
974.15347213072221
 20
282.60567258236381
 11
974.15347213072221
 21
251.6056725823679
  0
LINE
  8
_0-0_計極細
  6
CONTINUOUS
 62
    2
 10
974.15347213072221
 20
254.35567258236676
 11
976.15347213072221
 21
256.35567258236676
  0
LINE
  8
_0-0_計極細
  6
CONTINUOUS
 62
    2
 10
976.15347213072221
 20
277.85567258236586
 11
974.15347213072221
 21
279.85567258236676
  0
LINE
  8
_0-0_計極細
  6
CONTINUOUS
 62
    2
 10
897.6534721307122
 20
251.10567258236881
 11
897.65347213071493
 21
283.10567258236881
  0
LINE
  8
_0-5_寸法線
  6
CONTINUOUS
 62
    7
 10
948.40347213072221
 20
290.60567258236381
 11
948.40347213072221
 21
314.60567258236381
  0
LINE
  8
_0-5_寸法線
  6
CONTINUOUS
 62
    7
 10
948.40347213072221
 20
310.60567258236381
 11
956.13087874103473
 21
312.67622494318397
  0
LINE
  8
_0-5_寸法線
  6
CONTINUOUS
 62
    7
 10
948.40347213072221
 20
310.60567258236381
 11
956.13087874103473
 21
308.53512022154365
  0
LINE
  8
_0-5_寸法線
  6
CONTINUOUS
 62
    7
 10
968.40347213072221
 20
290.60567258236381
 11
968.40347213072221
 21
314.60567258236381
  0
LINE
  8
_0-5_寸法線
  6
CONTINUOUS
 62
    7
 10
968.40347213072221
 20
310.60567258236381
 11
960.67606552040968
 21
308.53512022154365
  0
LINE
  8
_0-5_寸法線
  6
CONTINUOUS
 62
    7
 10
968.40347213072221
 20
310.60567258236381
 11
960.67606552040968
 21
312.67622494318402
  0
LINE
  8
_0-5_寸法線
  6
CONTINUOUS
 62
    7
 10
948.40347213072221
 20
310.60567258236381
 11
968.40347213072221
 21
310.60567258236381
  0
TEXT
  8
_0-5_寸法線
 62
    7
 10
952.40347213072221
 20
310.60567258236381
 40
12
 41
1
 50
0
  1
20
  0
LINE
  8
_0-5_寸法線
  6
CONTINUOUS
 62
    7
 10
976.15347213072221
 20
288.60567258236381
 11
976.15347213072232
 21
338.60567258236381
  0
LINE
  8
_0-5_寸法線
  6
CONTINUOUS
 62
    7
 10
976.15347213072232
 20
334.60567258236381
 11
968.42606552040979
 21
332.53512022154365
  0
LINE
  8
_0-5_寸法線
  6
CONTINUOUS
 62
    7
 10
976.15347213072232
 20
334.60567258236381
 11
968.42606552040979
 21
336.67622494318402
  0
LINE
  8
_0-5_寸法線
  6
CONTINUOUS
 62
    7
 10
938.65347213072312
 20
290.60567258236381
 11
938.65347213072323
 21
338.60567258236381
  0
LINE
  8
_0-5_寸法線
  6
CONTINUOUS
 62
    7
 10
938.65347213072323
 20
334.60567258236381
 11
946.38087874103576
 21
336.67622494318397
  0
LINE
  8
_0-5_寸法線
  6
CONTINUOUS
 62
    7
 10
938.65347213072323
 20
334.60567258236381
 11
946.38087874103576
 21
332.53512022154365
  0
LINE
  8
_0-5_寸法線
  6
CONTINUOUS
 62
    7
 10
976.15347213072232
 20
334.60567258236381
 11
938.65347213072323
 21
334.60567258236381
  0
TEXT
  8
_0-5_寸法線
 62
    7
 10
945.40347213072278
 20
334.60567258236381
 40
12
 41
1
 50
0
  1
37.5
  0
LINE
  8
_0-1_計細線
  6
CONTINUOUS
 62
    3
 10
329.65347218072259
 20
625.10715429841628
 11
330.65347218072259
 21
624.10567258236244
  0
LINE
  8
_0-1_計細線
  6
CONTINUOUS
 62
    3
 10
330.65347218072532
 20
656.10567258236722
 11
329.65347218072168
 21
655.10715429841559
  0
LINE
  8
_0-1_計細線
  6
CONTINUOUS
 62
    3
 10
252.1534721807235
 20
626.60567258236722
 11
254.15347218072259
 21
624.60567258236608
  0
LINE
  8
_0-1_計細線
  6
CONTINUOUS
 62
    3
 10
254.15347218072259
 20
624.60567258236517
 11
306.15347218072441
 21
624.60567258236586
  0
LINE
  8
_0-1_計細線
  6
CONTINUOUS
 62
    3
 10
254.15347218072441
 20
655.6056725823629
 11
306.15347218071986
 21
655.60567258236358
  0
LINE
  8
_0-1_計細線
  6
CONTINUOUS
 62
    3
 10
252.1534721807235
 20
653.6056725823629
 11
254.15347218072259
 21
655.60567258236358
  0
LINE
  8
_0-1_計細線
  6
CONTINUOUS
 62
    3
 10
252.1534721807235
 20
626.60567258236722
 11
252.1534721807235
 21
653.6056725823629
  0
ARC
  8
_0-1_計細線
  6
CONTINUOUS
 62
    3
 10
329.35347248686014
 20
655.80567258235726
 40
0.2999999999999999
 50
0
 51
89.999999999999915
  0
ARC
  8
_0-1_計細線
  6
CONTINUOUS
 62
    3
 10
306.45347248686596
 20
655.8056725823634
 40
0.2999999999999999
 50
89.999999999999915
 51
179.99999999999983
  0
ARC
  8
_0-1_計細線
  6
CONTINUOUS
 62
    3
 10
329.3534724868656
 20
655.80567258236431
 40
0.2999999999999999
 50
0
 51
89.999999999999915
  0
LINE
  8
_0-1_計細線
  6
CONTINUOUS
 62
    3
 10
306.45347248686596
 20
656.10567258236335
 11
329.3534724868656
 21
656.10567258236426
  0
ARC
  8
_0-1_計細線
  6
CONTINUOUS
 62
    3
 10
329.3534724868648
 20
624.40567258235922
 40
0.2999999999999999
 50
269.99999999999977
 51
359.99999999999966
  0
ARC
  8
_0-1_計細線
  6
CONTINUOUS
 62
    3
 10
306.45347248686789
 20
624.40567258236626
 40
0.2999999999999999
 50
179.99999999999983
 51
269.99999999999977
  0
ARC
  8
_0-1_計細線
  6
CONTINUOUS
 62
    3
 10
329.35347248686844
 20
624.40567258236626
 40
0.2999999999999999
 50
269.99999999999977
 51
359.99999999999966
  0
LINE
  8
_0-1_計細線
  6
CONTINUOUS
 62
    3
 10
329.35347248686844
 20
624.10567258236517
 11
306.45347248686789
 21
624.10567258236517
  0
LINE
  8
_0-1_計細線
  6
CONTINUOUS
 62
    3
 10
329.65347248686862
 20
624.40567258235922
 11
329.65347248686851
 21
655.80567258235726
  0
LINE
  8
_0-1_計細線
  6
CONTINUOUS
 62
    3
 10
306.15347248686771
 20
624.40567258236626
 11
306.1534724868676
 21
655.8056725823634
  0
LINE
  8
_0-0_計極細
  6
CONTINUOUS
 62
    2
 10
254.15347218072259
 20
624.60567258236517
 11
254.15347218072441
 21
655.6056725823629
  0
LINE
  8
_0-0_計極細
  6
CONTINUOUS
 62
    2
 10
330.65347218072259
 20
624.10567258236244
 11
330.65347218072168
 21
656.10567258236222
  0
LINE
  8
_0-1_計細線
  6
CONTINUOUS
 62
    3
 10
289.65347218071622
 20
417.60567258236472
 11
252.15347218071622
 21
417.60567258236472
  0
LINE
  8
_0-1_計細線
  6
CONTINUOUS
 62
    3
 10
254.15347218071804
 20
488.60567258236085
 11
306.15347218071531
 21
488.60567258236176
  0
LINE
  8
_0-1_計細線
  6
CONTINUOUS
 62
    3
 10
252.15347218071622
 20
486.60567258236085
 11
254.15347218071713
 21
488.60567258236176
  0
LINE
  8
_0-1_計細線
  6
CONTINUOUS
 62
    3
 10
252.15347218071622
 20
417.60567258236381
 11
252.15347218071622
 21
486.60567258236085
  0
LINE
  8
_0-1_計細線
  6
CONTINUOUS
 62
    3
 10
306.15347218071713
 20
457.60567258236381
 11
289.65347218071622
 21
457.60567258236381
  0
LINE
  8
_0-1_計細線
  6
CONTINUOUS
 62
    3
 10
329.65347218071804
 20
458.10715429841491
 11
330.65347218071713
 21
457.10567258235972
  0
LINE
  8
_0-1_計細線
  6
CONTINUOUS
 62
    3
 10
330.65347218072168
 20
489.10567258236472
 11
329.65347218071622
 21
488.10715429841377
  0
LINE
  8
_0-1_計細線
  6
CONTINUOUS
 62
    3
 10
343.6534721557324
 20
457.10567258236472
 11
330.65347218071804
 21
457.10567258236472
  0
LINE
  8
_0-1_計細線
  6
CONTINUOUS
 62
    3
 10
289.65347218071622
 20
457.60567258236381
 11
289.65347218071622
 21
417.60567258236472
  0
ARC
  8
_0-1_計細線
  6
CONTINUOUS
 62
    3
 10
329.35347248686014
 20
488.80567258235476
 40
0.2999999999999999
 50
0
 51
89.999999999999915
  0
ARC
  8
_0-1_計細線
  6
CONTINUOUS
 62
    3
 10
306.45347248686596
 20
488.8056725823609
 40
0.2999999999999999
 50
89.999999999999915
 51
179.99999999999983
  0
ARC
  8
_0-1_計細線
  6
CONTINUOUS
 62
    3
 10
329.3534724868656
 20
488.80567258236181
 40
0.2999999999999999
 50
0
 51
89.999999999999915
  0
LINE
  8
_0-1_計細線
  6
CONTINUOUS
 62
    3
 10
306.45347248686596
 20
489.10567258236085
 11
329.3534724868656
 21
489.10567258236176
  0
ARC
  8
_0-1_計細線
  6
CONTINUOUS
 62
    3
 10
329.3534724868648
 20
457.40567258235671
 40
0.2999999999999999
 50
269.99999999999977
 51
359.99999999999966
  0
ARC
  8
_0-1_計細線
  6
CONTINUOUS
 62
    3
 10
306.45347248686789
 20
457.40567258236376
 40
0.2999999999999999
 50
179.99999999999983
 51
269.99999999999977
  0
ARC
  8
_0-1_計細線
  6
CONTINUOUS
 62
    3
 10
329.35347248686844
 20
457.40567258236376
 40
0.2999999999999999
 50
269.99999999999977
 51
359.99999999999966
  0
LINE
  8
_0-1_計細線
  6
CONTINUOUS
 62
    3
 10
329.35347248686844
 20
457.10567258236267
 11
306.45347248686789
 21
457.10567258236267
  0
LINE
  8
_0-1_計細線
  6
CONTINUOUS
 62
    3
 10
329.65347248686862
 20
457.40567258235671
 11
329.65347248686851
 21
488.80567258235476
  0
LINE
  8
_0-1_計細線
  6
CONTINUOUS
 62
    3
 10
306.15347248686771
 20
457.40567258236376
 11
306.1534724868676
 21
488.8056725823609
  0
LINE
  8
_0-0_計極細
  6
CONTINUOUS
 62
    2
 10
254.15347218071531
 20
417.60567258236381
 11
254.15347218071804
 21
488.60567258236085
  0
LINE
  8
_0-0_計極細
  6
CONTINUOUS
 62
    2
 10
289.65347218071622
 20
462.04396995577088
 11
289.65347218071622
 21
457.60567258236381
  0
LINE
  8
_0-0_計極細
  6
CONTINUOUS
 62
    2
 10
330.65347218071804
 20
457.10567258236472
 11
330.65347218071622
 21
489.10567258235972
  0
LINE
  8
_0-0_計極細
  6
CONTINUOUS
 62
    2
 10
287.65347218071531
 20
464.29162130046177
 11
287.65347218071531
 21
417.60567258236472
  0
LINE
  8
_0-0_計極細
  6
CONTINUOUS
 62
    2
 10
289.65347218071622
 20
462.04396995577088
 11
287.65347218071531
 21
464.29162130046177
  0
LINE
  8
_0-0_計極細
  6
CONTINUOUS
 62
    2
 10
254.15347218071713
 20
464.29162130046177
 11
252.15347218071622
 21
464.9394310968338
  0
LINE
  8
_0-0_計極細
  6
CONTINUOUS
 62
    2
 10
254.15347218071713
 20
464.29162130046177
 11
306.15347218071713
 21
464.29162130046177
  0
LINE
  8
_0-1_計細線
  6
CONTINUOUS
 62
    3
 10
329.65347218070622
 20
252.10715429841787
 11
330.65347218070622
 21
251.10567258236381
  0
LINE
  8
_0-1_計細線
  6
CONTINUOUS
 62
    3
 10
330.65347218070895
 20
283.1056725823679
 11
329.6534721807044
 21
282.10715429841673
  0
LINE
  8
_0-1_計細線
  6
CONTINUOUS
 62
    3
 10
254.15347218070622
 20
251.6056725823679
 11
306.15347218070804
 21
251.60567258236881
  0
LINE
  8
_0-1_計細線
  6
CONTINUOUS
 62
    3
 10
254.15347218070622
 20
282.60567258236381
 11
306.15347218070804
 21
282.60567258236381
  0
LINE
  8
_0-1_計細線
  6
CONTINUOUS
 62
    3
 10
252.15347218070622
 20
280.60567258236381
 11
254.15347218070622
 21
282.60567258236381
  0
LINE
  8
_0-1_計細線
  6
CONTINUOUS
 62
    3
 10
252.15347218070622
 20
253.6056725823679
 11
254.15347218070622
 21
251.6056725823679
  0
LINE
  8
_0-1_計細線
  6
CONTINUOUS
 62
    3
 10
252.15347218070622
 20
253.6056725823679
 11
252.15347218070622
 21
280.60567258236381
  0
CIRCLE
  8
_0-1_計細線
  6
CONTINUOUS
 62
    3
 10
279.90347218070804
 20
259.10567258236472
 40
2.5
  0
CIRCLE
  8
_0-1_計細線
  6
CONTINUOUS
 62
    3
 10
279.90347218070804
 20
275.10567258236472
 40
2.5
  0
CIRCLE
  8
_0-1_計細線
  6
CONTINUOUS
 62
    3
 10
259.90347218070713
 20
267.1056725823679
 40
2.5
  0
ARC
  8
_0-1_計細線
  6
CONTINUOUS
 62
    3
 10
329.35347248686014
 20
282.80567258235794
 40
0.2999999999999999
 50
0
 51
89.999999999999915
  0
ARC
  8
_0-1_計細線
  6
CONTINUOUS
 62
    3
 10
306.45347248686596
 20
282.80567258236408
 40
0.2999999999999999
 50
89.999999999999915
 51
179.99999999999983
  0
ARC
  8
_0-1_計細線
  6
CONTINUOUS
 62
    3
 10
329.3534724868656
 20
282.80567258236499
 40
0.2999999999999999
 50
0
 51
89.999999999999915
  0
LINE
  8
_0-1_計細線
  6
CONTINUOUS
 62
    3
 10
306.45347248686596
 20
283.10567258236404
 11
329.3534724868656
 21
283.10567258236495
  0
ARC
  8
_0-1_計細線
  6
CONTINUOUS
 62
    3
 10
329.3534724868648
 20
251.4056725823599
 40
0.2999999999999999
 50
269.99999999999977
 51
359.99999999999966
  0
ARC
  8
_0-1_計細線
  6
CONTINUOUS
 62
    3
 10
306.45347248686789
 20
251.40567258236695
 40
0.2999999999999999
 50
179.99999999999983
 51
269.99999999999977
  0
ARC
  8
_0-1_計細線
  6
CONTINUOUS
 62
    3
 10
329.35347248686844
 20
251.40567258236695
 40
0.2999999999999999
 50
269.99999999999977
 51
359.99999999999966
  0
LINE
  8
_0-1_計細線
  6
CONTINUOUS
 62
    3
 10
329.35347248686844
 20
251.10567258236586
 11
306.45347248686789
 21
251.10567258236586
  0
LINE
  8
_0-1_計細線
  6
CONTINUOUS
 62
    3
 10
329.65347248686862
 20
251.4056725823599
 11
329.65347248686851
 21
282.80567258235794
  0
LINE
  8
_0-1_計細線
  6
CONTINUOUS
 62
    3
 10
306.15347248686771
 20
251.40567258236695
 11
306.1534724868676
 21
282.80567258236408
  0
LINE
  8
_0-0_計極細
  6
CONTINUOUS
 62
    2
 10
306.15347218070713
 20
254.35567258236586
 11
254.15347218070713
 21
254.35567258236586
  0
LINE
  8
_0-0_計極細
  6
CONTINUOUS
 62
    2
 10
306.15347218070622
 20
279.85567258236586
 11
254.15347218070713
 21
279.85567258236586
  0
LINE
  8
_0-0_計極細
  6
CONTINUOUS
 62
    2
 10
287.65347218070622
 20
254.35567258236586
 11
289.65347218070622
 21
256.35567258236586
  0
LINE
  8
_0-0_計極細
  6
CONTINUOUS
 62
    2
 10
289.65347218070622
 20
277.85567258236586
 11
287.65347218070622
 21
279.85567258236586
  0
LINE
  8
_0-0_計極細
  6
CONTINUOUS
 62
    2
 10
289.65347218070622
 20
256.35567258236586
 11
289.65347218070622
 21
277.85567258236586
  0
LINE
  8
_0-0_計極細
  6
CONTINUOUS
 62
    2
 10
254.15347218070804
 20
282.60567258236381
 11
254.15347218070622
 21
251.6056725823679
  0
LINE
  8
_0-0_計極細
  6
CONTINUOUS
 62
    2
 10
254.15347218070622
 20
254.35567258236676
 11
252.15347218070622
 21
256.35567258236676
  0
LINE
  8
_0-0_計極細
  6
CONTINUOUS
 62
    2
 10
252.15347218070622
 20
277.85567258236586
 11
254.15347218070622
 21
279.85567258236676
  0
LINE
  8
_0-0_計極細
  6
CONTINUOUS
 62
    2
 10
330.65347218071167
 20
251.1056725823679
 11
330.65347218070895
 21
283.1056725823679
  0
LINE
  8
_0-1_計細線
  6
CONTINUOUS
 62
    3
 10
897.65347213072403
 20
656.10567258236222
 11
330.65347218072532
 21
656.10567258236722
  0
LINE
  8
_0-1_計細線
  6
CONTINUOUS
 62
    3
 10
330.65347218072259
 20
624.10567258236244
 11
897.65347213072039
 21
624.10567258236244
  0
LINE
  8
_0-1_計細線
  6
CONTINUOUS
 62
    3
 10
897.65347213071948
 20
489.10567258235972
 11
330.65347218072168
 21
489.10567258236472
  0
LINE
  8
_0-5_寸法線
  6
CONTINUOUS
 62
    7
 10
252.15347218071622
 20
494.60567258236085
 11
252.15347218071634
 21
545.10567258236176
  0
LINE
  8
_0-5_寸法線
  6
CONTINUOUS
 62
    7
 10
252.15347218071634
 20
541.10567258236176
 11
259.88087879102886
 21
543.17622494318198
  0
LINE
  8
_0-5_寸法線
  6
CONTINUOUS
 62
    7
 10
252.15347218071634
 20
541.10567258236176
 11
259.88087879102886
 21
539.03512022154155
  0
LINE
  8
_0-5_寸法線
  6
CONTINUOUS
 62
    7
 10
976.15347213072403
 20
494.60567258236085
 11
976.15347213072403
 21
545.10567258236176
  0
LINE
  8
_0-5_寸法線
  6
CONTINUOUS
 62
    7
 10
976.15347213072403
 20
541.10567258236176
 11
968.4260655204115
 21
539.03512022154166
  0
LINE
  8
_0-5_寸法線
  6
CONTINUOUS
 62
    7
 10
976.15347213072403
 20
541.10567258236176
 11
968.4260655204115
 21
543.17622494318198
  0
LINE
  8
_0-5_寸法線
  6
CONTINUOUS
 62
    7
 10
252.15347218071634
 20
541.10567258236176
 11
976.15347213072403
 21
541.10567258236176
  0
LINE
  8
_0-1_計細線
  6
CONTINUOUS
 62
    3
 10
330.65347218072168
 20
251.10567258236176
 11
897.65347213071948
 21
251.10567258236176
  0
LINE
  8
_0-1_計細線
  6
CONTINUOUS
 62
    3
 10
897.65347213071493
 20
283.10567258236881
 11
330.65347218071531
 21
283.1056725823729
  0
LINE
  8
_0-5_寸法線
  6
CONTINUOUS
 62
    7
 10
314.15347215572018
 20
497.10567258236131
 11
314.15347215572024
 21
521.10567258236199
  0
LINE
  8
_0-5_寸法線
  6
CONTINUOUS
 62
    7
 10
314.15347215572024
 20
517.10567258236199
 11
321.88087876603277
 21
519.17622494318221
  0
LINE
  8
_0-5_寸法線
  6
CONTINUOUS
 62
    7
 10
314.15347215572024
 20
517.10567258236199
 11
321.88087876603277
 21
515.03512022154177
  0
LINE
  8
_0-5_寸法線
  6
CONTINUOUS
 62
    7
 10
914.15347215572012
 20
497.10567258236131
 11
914.15347215572024
 21
521.10567258236199
  0
LINE
  8
_0-5_寸法線
  6
CONTINUOUS
 62
    7
 10
914.15347215572024
 20
517.10567258236199
 11
906.42606554540771
 21
515.03512022154189
  0
LINE
  8
_0-5_寸法線
  6
CONTINUOUS
 62
    7
 10
914.15347215572024
 20
517.10567258236199
 11
906.42606554540771
 21
519.17622494318221
  0
LINE
  8
_0-5_寸法線
  6
CONTINUOUS
 62
    7
 10
314.15347215572024
 20
517.10567258236199
 11
914.15347215572024
 21
517.10567258236199
  0
LINE
  8
_0-0_計極細
  6
CENTER1
 62
    2
 10
957.15347213072221
 20
250.33499528386358
 11
957.15347213072221
 21
295.00814279211875
  0
LINE
  8
_0-0_計極細
  6
CENTER1
 62
    2
 10
271.15347218070622
 20
250.33499528386358
 11
271.15347218070622
 21
295.00814279211875
  0
LINE
  8
_0-5_寸法線
  6
CONTINUOUS
 62
    7
 10
271.15347218070616
 20
242.33499528386358
 11
271.15347218070593
 21
218.33499528386358
  0
LINE
  8
_0-5_寸法線
  6
CONTINUOUS
 62
    7
 10
271.15347218070599
 20
222.33499528386358
 11
278.88087879101852
 21
224.40554764468374
  0
LINE
  8
_0-5_寸法線
  6
CONTINUOUS
 62
    7
 10
271.15347218070599
 20
222.33499528386358
 11
278.88087879101852
 21
220.26444292304342
  0
LINE
  8
_0-5_寸法線
  6
CONTINUOUS
 62
    7
 10
957.15347213072209
 20
242.33499528386358
 11
957.15347213072198
 21
218.33499528386358
  0
LINE
  8
_0-5_寸法線
  6
CONTINUOUS
 62
    7
 10
957.15347213072198
 20
222.33499528386358
 11
949.42606552040945
 21
220.26444292304345
  0
LINE
  8
_0-5_寸法線
  6
CONTINUOUS
 62
    7
 10
957.15347213072198
 20
222.33499528386358
 11
949.42606552040945
 21
224.40554764468376
  0
LINE
  8
_0-5_寸法線
  6
CONTINUOUS
 62
    7
 10
271.15347218070599
 20
222.33499528386358
 11
957.15347213072198
 21
222.33499528386358
  0
ARC
  8
_0-1_計細線
  6
CONTINUOUS
 62
    3
 10
956.40347213072221
 20
267.10567258236586
 40
4.25
 50
89.999999999999915
 51
269.99999999999977
  0
LINE
  8
_0-1_計細線
  6
CONTINUOUS
 62
    3
 10
957.90347213072221
 20
262.85567258236586
 11
956.40347213072221
 21
262.85567258236586
  0
LINE
  8
_0-1_計細線
  6
CONTINUOUS
 62
    3
 10
957.90347213072221
 20
271.35567258236586
 11
956.40347213072221
 21
271.35567258236586
  0
ARC
  8
_0-1_計細線
  6
CONTINUOUS
 62
    3
 10
957.90347213072221
 20
267.10567258236586
 40
4.25
 50
269.99999999999977
 51
89.999999999999545
  0
ARC
  8
_0-1_計細線
  6
CONTINUOUS
 62
    3
 10
270.40347218070622
 20
267.10567258236586
 40
4.25
 50
89.999999999999915
 51
269.99999999999977
  0
LINE
  8
_0-1_計細線
  6
CONTINUOUS
 62
    3
 10
271.90347218070622
 20
262.85567258236586
 11
270.40347218070622
 21
262.85567258236586
  0
LINE
  8
_0-1_計細線
  6
CONTINUOUS
 62
    3
 10
271.90347218070622
 20
271.35567258236586
 11
270.40347218070622
 21
271.35567258236586
  0
ARC
  8
_0-1_計細線
  6
CONTINUOUS
 62
    3
 10
271.90347218070622
 20
267.10567258236586
 40
4.25
 50
269.99999999999977
 51
89.999999999999545
  0
LINE
  8
_0-0_計極細
  6
CENTER1
 62
    2
 10
991.6174988093195
 20
267.10567258236586
 11
242.73946806888114
 21
267.10567258236586
  0
LINE
  8
_0-6_現況線
  6
CONTINUOUS
 62
    4
 10
865.59854893399518
 20
624.10567258236267
 11
897.59854893399552
 21
656.10567258236256
  0
LINE
  8
_0-6_現況線
  6
CONTINUOUS
 62
    4
 10
898.65347213072323
 20
648.40733071300428
 11
890.95513026136507
 21
656.10567258236222
  0
LINE
  8
_0-6_現況線
  6
CONTINUOUS
 62
    4
 10
874.08383030823518
 20
624.10567258236267
 11
898.65347213072312
 21
648.67531440484845
  0
LINE
  8
_0-6_現況線
  6
CONTINUOUS
 62
    4
 10
882.56911168247427
 20
624.10567258236267
 11
898.65347213072323
 21
640.19003303061083
  0
LINE
  8
_0-6_現況線
  6
CONTINUOUS
 62
    4
 10
898.65347213072403
 20
639.9220493387669
 11
882.46984888712689
 21
656.10567258236222
  0
LINE
  8
_0-6_現況線
  6
CONTINUOUS
 62
    4
 10
898.65347213072243
 20
631.43676796452894
 11
873.98456751289052
 21
656.10567258236222
  0
LINE
  8
_0-6_現況線
  6
CONTINUOUS
 62
    4
 10
891.05439305671246
 20
624.10567258236244
 11
898.65347213072312
 21
631.70475165637185
  0
LINE
  8
_0-6_現況線
  6
CONTINUOUS
 62
    4
 10
897.49928613865166
 20
624.10567258236335
 11
865.49928613865052
 21
656.10567258236267
  0
LINE
  8
_0-6_現況線
  6
CONTINUOUS
 62
    4
 10
865.5985489339979
 20
457.1056725823538
 11
897.59854893400404
 21
489.10567258235949
  0
LINE
  8
_0-6_現況線
  6
CONTINUOUS
 62
    4
 10
898.65347213072289
 20
481.40733071299917
 11
890.95513026136689
 21
489.1056725823538
  0
LINE
  8
_0-6_現況線
  6
CONTINUOUS
 62
    4
 10
874.64415670710662
 20
457.66599898122388
 11
898.65347213072312
 21
481.67531440483668
  0
LINE
  8
_0-6_現況線
  6
CONTINUOUS
 62
    4
 10
883.04124217092669
 20
457.57780307080486
 11
898.65347213072312
 21
473.1900330305985
  0
LINE
  8
_0-6_現況線
  6
CONTINUOUS
 62
    4
 10
898.65347213072391
 20
472.92204933876229
 11
882.46984888712961
 21
489.1056725823538
  0
LINE
  8
_0-6_現況線
  6
CONTINUOUS
 62
    4
 10
898.65347213072312
 20
464.43676796452206
 11
873.98456751289143
 21
489.1056725823538
  0
LINE
  8
_0-6_現況線
  6
CONTINUOUS
 62
    4
 10
891.05439305671518
 20
457.1056725823538
 11
898.65347213072312
 21
464.70475165635958
  0
LINE
  8
_0-6_現況線
  6
CONTINUOUS
 62
    4
 10
897.49928613864802
 20
457.10567258236023
 11
865.49928613865325
 21
489.1056725823538
  0
LINE
  8
_0-6_現況線
  6
CONTINUOUS
 62
    4
 10
897.49928613864972
 20
251.10567258236188
 11
884.07138523574542
 21
264.53357348526481
  0
LINE
  8
_0-6_現況線
  6
CONTINUOUS
 62
    4
 10
891.05439305671155
 20
251.10567258236176
 11
898.65347213072312
 21
258.70475165637311
  0
LINE
  8
_0-6_現況線
  6
CONTINUOUS
 62
    4
 10
898.65347213072289
 20
258.43676796452507
 11
873.9845675128887
 21
283.10567258236176
  0
LINE
  8
_0-6_現況線
  6
CONTINUOUS
 62
    4
 10
898.65347213072346
 20
266.92204933876525
 11
882.46984888712507
 21
283.10567258236176
  0
LINE
  8
_0-6_現況線
  6
CONTINUOUS
 62
    4
 10
882.56911168247154
 20
251.10567258236176
 11
898.65347213072323
 21
267.19003303061226
  0
LINE
  8
_0-6_現況線
  6
CONTINUOUS
 62
    4
 10
884.10677416997316
 20
269.61389781834089
 11
897.59854893400154
 21
283.10567258236881
  0
LINE
  8
_0-6_現況線
  6
CONTINUOUS
 62
    4
 10
898.65347213072323
 20
275.40733071300252
 11
890.95513026136325
 21
283.10567258236176
  0
LINE
  8
_0-6_現況線
  6
CONTINUOUS
 62
    4
 10
874.08383030823336
 20
251.10567258236176
 11
898.65347213072312
 21
275.67531440485016
  0
LINE
  8
_0-6_現況線
  6
CONTINUOUS
 62
    4
 10
329.65347248686851
 20
275.18916683499936
 11
337.56997823423592
 21
283.10567258236676
  0
LINE
  8
_0-6_現況線
  6
CONTINUOUS
 62
    4
 10
354.44127818739582
 20
251.10567258236176
 11
329.65347248686857
 21
275.8934782828922
  0
LINE
  8
_0-6_現況線
  6
CONTINUOUS
 62
    4
 10
329.65347248686828
 20
266.70388546075628
 11
346.0552596084741
 21
283.10567258236676
  0
LINE
  8
_0-6_現況線
  6
CONTINUOUS
 62
    4
 10
345.95599681315764
 20
251.10567258236176
 11
329.65347248686862
 21
267.40819690865311
  0
LINE
  8
_0-6_現況線
  6
CONTINUOUS
 62
    4
 10
329.65347248686896
 20
258.21860408652094
 11
354.54054098271411
 21
283.10567258236676
  0
LINE
  8
_0-6_現況線
  6
CONTINUOUS
 62
    4
 10
337.47071543891946
 20
251.10567258236176
 11
329.65347248686862
 21
258.92291553441709
  0
TEXT
  8
_0-7_枠細線
 62
    5
 10
104.80000000000018
 20
245.99999999999997
 40
12
 41
0.8000000000000001
 50
0
  1
品　　番
  0
TEXT
  8
_0-7_枠細線
 62
    5
 10
191.20000000000027
 20
245.99999999999997
 40
12
 41
0.8000000000000001
 50
0
  1
柄
  0
TEXT
  8
_0-7_枠細線
 62
    5
 10
170.80000000000064
 20
166
 40
12
 41
0.5999999999999999
 50
0
  1
古伊万里木甲
  0
TEXT
  8
_0-7_枠細線
 62
    5
 10
170.80000000000064
 20
146
 40
12
 41
0.5999999999999999
 50
0
  1
古伊万里花
  0
LINE
  8
_0-7_枠細線
  6
CONTINUOUS
 62
    5
 10
82
 20
262
 11
226
 21
262
  0
LINE
  8
_0-7_枠細線
  6
CONTINUOUS
 62
    5
 10
82
 20
241.99999999999997
 11
226
 21
241.99999999999997
  0
LINE
  8
_0-7_枠細線
  6
CONTINUOUS
 62
    5
 10
82
 20
222.00000000000009
 11
226
 21
222.00000000000009
  0
LINE
  8
_0-7_枠細線
  6
CONTINUOUS
 62
    5
 10
82
 20
202.00000000000009
 11
226
 21
202.00000000000009
  0
LINE
  8
_0-7_枠細線
  6
CONTINUOUS
 62
    5
 10
82
 20
182.00000000000006
 11
226
 21
182.00000000000006
  0
LINE
  8
_0-7_枠細線
  6
CONTINUOUS
 62
    5
 10
82
 20
162
 11
226
 21
162
  0
LINE
  8
_0-7_枠細線
  6
CONTINUOUS
 62
    5
 10
82
 20
142.00000000000006
 11
226
 21
142.00000000000006
  0
TEXT
  8
_0-7_枠細線
 62
    5
 10
105
 20
266
 40
14
 41
1
 50
0
  1
品番表
  0
TEXT
  8
_0-7_枠細線
 62
    5
 10
170.80000000000064
 20
225.99999999999997
 40
12
 41
0.5999999999999999
 50
0
  1
花　　鳥
  0
TEXT
  8
_0-7_枠細線
 62
    5
 10
170.80000000000064
 20
186.00000000000011
 40
12
 41
0.5999999999999999
 50
0
  1
古伊万里花唐草
  0
TEXT
  8
_0-7_枠細線
 62
    5
 10
170.80000000000064
 20
205.99999999999997
 40
12
 41
0.5999999999999999
 50
0
  1
モダンスクエア
  0
TEXT
  8
_0-7_枠細線
 62
    5
 10
85.345185185185755
 20
225.99999999999997
 40
12
 41
0.4666666666666666
 50
0
  1
ＴＩＣ－３２Ｓ６００－ＣＷ
  0
TEXT
  8
_0-7_枠細線
 62
    5
 10
85.345185185185755
 20
206.00000000000009
 40
12
 41
0.4666666666666666
 50
0
  1
ＴＩＣ－３２Ｓ６００－ＩＥ
  0
TEXT
  8
_0-7_枠細線
 62
    5
 10
85.345185185185755
 20
186.00000000000009
 40
12
 41
0.4666666666666666
 50
0
  1
ＴＩＣ－３２Ｓ６００－ＫＩＣ
  0
TEXT
  8
_0-7_枠細線
 62
    5
 10
85.345185185185755
 20
166.00000000000006
 40
12
 41
0.4666666666666666
 50
0
  1
ＴＩＣ－３２Ｓ６００－ＫＩＫ
  0
TEXT
  8
_0-7_枠細線
 62
    5
 10
85.345185185185755
 20
146
 40
12
 41
0.4666666666666666
 50
0
  1
ＴＩＣ－３２Ｓ６００－ＫＩＨ
  0
LINE
  8
_0-7_枠細線
  6
CONTINUOUS
 62
    5
 10
82
 20
122
 11
226
 21
122
  0
LINE
  8
_0-7_枠細線
  6
CONTINUOUS
 62
    5
 10
82
 20
102
 11
226
 21
102
  0
LINE
  8
_0-7_枠細線
  6
CONTINUOUS
 62
    5
 10
82
 20
82
 11
226
 21
82
  0
TEXT
  8
_0-7_枠細線
 62
    5
 10
170.80000000000064
 20
126
 40
12
 41
0.5999999999999999
 50
0
  1
野　　苺
  0
TEXT
  8
_0-7_枠細線
 62
    5
 10
170.80000000000064
 20
105.99999999999994
 40
12
 41
0.5999999999999999
 50
0
  1
コバルト葡萄
  0
TEXT
  8
_0-7_枠細線
 62
    5
 10
170.80000000000064
 20
85.999999999999886
 40
12
 41
0.5999999999999999
 50
0
  1
ルビー葡萄
  0
LINE
  8
_0-7_枠細線
  6
CONTINUOUS
 62
    5
 10
82
 20
262
 11
82
 21
82
  0
LINE
  8
_0-7_枠細線
  6
CONTINUOUS
 62
    5
 10
166.00000000000045
 20
262
 11
166.00000000000045
 21
82
  0
LINE
  8
_0-7_枠細線
  6
CONTINUOUS
 62
    5
 10
226
 20
262
 11
226
 21
82
  0
TEXT
  8
_0-7_枠細線
 62
    5
 10
85.345185185185755
 20
126.00000000000006
 40
12
 41
0.4666666666666666
 50
0
  1
ＴＩＣ－３２Ｓ６００－ＩＷ
  0
TEXT
  8
_0-7_枠細線
 62
    5
 10
85.345185185185755
 20
106
 40
12
 41
0.4666666666666666
 50
0
  1
ＴＩＣ－３２Ｓ６００－ＢＢ
  0
TEXT
  8
_0-7_枠細線
 62
    5
 10
85.345185185185755
 20
86
 40
12
 41
0.4666666666666666
 50
0
  1
ＴＩＣ－３２Ｓ６００－ＢＲ
  0
LINE
  8
_0-9_枠極太
  6
CONTINUOUS
 62
    5
 10
48
 20
48
 11
48
 21
768
  0
LINE
  8
_0-9_枠極太
  6
CONTINUOUS
 62
    5
 10
48
 20
768
 11
1140
 21
768
  0
LINE
  8
_0-9_枠極太
  6
CONTINUOUS
 62
    5
 10
1140
 20
768
 11
1140
 21
48
  0
LINE
  8
_0-9_枠極太
  6
CONTINUOUS
 62
    5
 10
1140
 20
48
 11
48
 21
48
  0
TEXT
  8
_0-5_寸法線
 62
    7
 10
597.65347215572012
 20
541.10567258236176
 40
12
 41
1
 50
0
  1
724±2.0
  0
TEXT
  8
_0-5_寸法線
 62
    7
 10
597.65347215572024
 20
517.10567258236199
 40
12
 41
1
 50
0
  1
600±2.0
  0
TEXT
  8
_0-5_寸法線
 62
    7
 10
597.65347215571398
 20
222.33499528386358
 40
12
 41
1
 50
0
  1
686±2.0
  0
TEXT
  8
_0-5_寸法線
 62
    7
 10
797.42249524508657
 20
662.20615655658787
 40
12
 41
1
 50
90
  1
φ32
  0
TEXT
  8
_0-1_計細線
 62
    7
 10
797.5695652173913
 20
684.23913043478251
 40
12
 41
1
 50
90
  1
_-0
  0
TEXT
  8
_0-1_計細線
 62
    7
 10
784.9434782608696
 20
689.02173913043475
 40
12
 41
1
 50
90
  1
+1.0
  0
LINE
  8
_0-5_寸法線
  6
CONTINUOUS
 62
    7
 10
797.42249524508657
 20
604.10567258236244
 11
797.42249524508657
 21
715.46956521739128
  0
ENDSEC
  0
EOF
