  0
SECTION
  2
HEADER
  9
$ACADVER
  1
AC1009
  9
$INSBASE
 10
0
 20
0
 30
0
  9
$EXTMIN
 10
0
 20
0
  9
$EXTMAX
 10
2970
 20
2100
  9
$LIMMIN
 10
0
 20
0
  9
$LIMMAX
 10
2970
 20
2100
  9
$LTSCALE
 40
10
  0
ENDSEC
  0
SECTION
  2
TABLES
  0
TABLE
  2
LTYPE
 70
     9
  0
LTYPE
  2
CONTINUOUS
 70
    64
  3
実線
 72
    65
 73
     0
 40
0.0
  0
LTYPE
  2
DASHED1
 70
    64
  3
--  --  --  --  --  --  --  --  
 72
    65
 73
     2
 40
2.5
 49
1.25
 49
-1.25
  0
LTYPE
  2
DASHED2
 70
    64
  3
----    ----    ----    ----    
 72
    65
 73
     2
 40
5.0
 49
2.5
 49
-2.5
  0
LTYPE
  2
DASHED3
 70
    64
  3
------  ------  ------  ------  
 72
    65
 73
     2
 40
5.0
 49
3.75
 49
-1.25
  0
LTYPE
  2
CENTER1
 70
    64
  3
----- - ----- - ----- - ----- - 
 72
    65
 73
     4
 40
10.0
 49
6.25
 49
-1.25
 49
1.25
 49
-1.25
  0
LTYPE
  2
CENTER2
 70
    64
  3
----------  --  ----------  --  
 72
    65
 73
     4
 40
20.0
 49
12.5
 49
-2.5
 49
2.5
 49
-2.5
  0
LTYPE
  2
PHANTOM1
 70
    64
  3
--- - - --- - - --- - - --- - - 
 72
    65
 73
     6
 40
10.0
 49
3.25
 49
-1.25
 49
1.25
 49
-1.25
 49
1.25
 49
-1.25
  0
LTYPE
  2
PHANTOM2
 70
    64
  3
--------  -  -  --------  -  -  
 72
    65
 73
     6
 40
20.0
 49
10.0
 49
-2.5
 49
1.25
 49
-2.5
 49
1.25
 49
-2.5
  0
LTYPE
  2
DOT
 70
    64
  3
-   -   -   -   -   -   -   -   
 72
    65
 73
     2
 40
2.5
 49
0.625
 49
-1.875
  0
LTYPE
  2
DUMMY
 70
    64
  3
ダミー
 72
    65
 73
     0
 40
0.0
  0
LTYPE
  2
RAND1
 70
    64
  3
ランダム線1
 72
    65
 73
     4
 40
10.0
 49
1.0
 49
-2.0
 49
3.0
 49
-4.0
  0
LTYPE
  2
RAND2
 70
    64
  3
ランダム線2
 72
    65
 73
     4
 40
14.0
 49
2.0
 49
-3.0
 49
4.0
 49
-5.0
  0
LTYPE
  2
RAND3
 70
    64
  3
ランダム線3
 72
    65
 73
     4
 40
18.0
 49
3.0
 49
-4.0
 49
5.0
 49
-6.0
  0
LTYPE
  2
RAND4
 70
    64
  3
ランダム線4
 72
    65
 73
     4
 40
22.0
 49
4.0
 49
-5.0
 49
6.0
 49
-7.0
  0
LTYPE
  2
RAND5
 70
    64
  3
ランダム線5
 72
    65
 73
     4
 40
26.0
 49
5.0
 49
-6.0
 49
7.0
 49
-8.0
  0
LTYPE
  2
LONG1
 70
    64
  3
----------  --  ----------  --  
 72
    65
 73
     4
 40
40.0
 49
32.5
 49
-2.5
 49
2.5
 49
-2.5
  0
LTYPE
  2
LONG2
 70
    64
  3
--------  -  -  --------  -  -  
 72
    65
 73
     6
 40
40.0
 49
30.0
 49
-2.5
 49
1.25
 49
-2.5
 49
1.25
 49
-2.5
  0
LTYPE
  2
LONG3
 70
    64
  3
+++++++++++++++..+++++++++++++++
 72
    65
 73
     2
 40
40.0
 49
37.5
 49
-2.5
  0
LTYPE
  2
LONG4
 70
    64
  3
+++++++++++++++..+++++++++++++++
 72
    65
 73
     2
 40
80.0
 49
75.0
 49
-5.0
  0
LTYPE
  2
LONG5
 70
    64
  3
----------  --  ----------  --  
 72
    65
 73
     4
 40
60.0
 49
37.5
 49
-7.5
 49
7.5
 49
-7.5
  0
LTYPE
  2
dashed
 70
   64
  3
-------   -------------   ------
 72
   65
 73
    2
 40
7.5
 49
6
 49
-1.5
  0
LTYPE
  2
dashed_spaced
 70
   64
  3
----        --------        ----
 72
   65
 73
    2
 40
12
 49
6
 49
-6
  0
LTYPE
  2
long_dashed_dotted
 70
   64
  3
------------- --- --------------
 72
   65
 73
    4
 40
15.25
 49
12
 49
-1.5
 49
0.25
 49
-1.5
  0
LTYPE
  2
long_dashed_double-dotted
 70
   64
  3
----------- --- --- ------------
 72
   65
 73
    6
 40
17
 49
12
 49
-1.5
 49
0.25
 49
-1.5
 49
0.25
 49
-1.5
  0
LTYPE
  2
long_dashed_triplicate-dotted
 70
   64
  3
--------- --- --- --- ----------
 72
   65
 73
    8
 40
18.75
 49
12
 49
-1.5
 49
0.25
 49
-1.5
 49
0.25
 49
-1.5
 49
0.25
 49
-1.5
  0
LTYPE
  2
dotted
 70
   64
  3
   -       -       -       -    
 72
   65
 73
    2
 40
1.75
 49
0.25
 49
-1.5
  0
LTYPE
  2
chain
 70
   64
  3
-------------- -- --------------
 72
   65
 73
    4
 40
18.5
 49
12
 49
-1.5
 49
3.5
 49
-1.5
  0
LTYPE
  2
chain_double_dash
 70
   64
  3
------------ -- -- -------------
 72
   65
 73
    6
 40
23.5
 49
12
 49
-1.5
 49
3.5
 49
-1.5
 49
3.5
 49
-1.5
  0
LTYPE
  2
dashed_dotted
 70
   64
  3
-----------     -     ----------
 72
   65
 73
    4
 40
9.25
 49
6
 49
-1.5
 49
0.25
 49
-1.5
  0
LTYPE
  2
double-dashed_dotted
 70
   64
  3
------   -----------   -   -----
 72
   65
 73
    6
 40
16.75
 49
6
 49
-1.5
 49
6
 49
-1.5
 49
0.25
 49
-1.5
  0
LTYPE
  2
dashed_double-dotted
 70
   64
  3
---------    -    -    ---------
 72
   65
 73
    6
 40
11
 49
6
 49
-1.5
 49
0.25
 49
-1.5
 49
0.25
 49
-1.5
  0
LTYPE
  2
double-dashed_double-dotted
 70
   64
  3
-----   ---------   -   -   ----
 72
   65
 73
    8
 40
18.5
 49
6
 49
-1.5
 49
6
 49
-1.5
 49
0.25
 49
-1.5
 49
0.25
 49
-1.5
  0
LTYPE
  2
dashed_triplicate-dotted
 70
   64
  3
-------    -    -    -    ------
 72
   65
 73
    8
 40
12.75
 49
6
 49
-1.5
 49
0.25
 49
-1.5
 49
0.25
 49
-1.5
 49
0.25
 49
-1.5
  0
LTYPE
  2
double-dashed_triplicate-dotted
 70
   64
  3
-----  ---------  -  -  -  -----
 72
   65
 73
   10
 40
20.25
 49
6
 49
-1.5
 49
6
 49
-1.5
 49
0.25
 49
-1.5
 49
0.25
 49
-1.5
 49
0.25
 49
-1.5
  0
LTYPE
  2
undefined
 70
   64
  3
--------------------------------
 72
   65
 73
    0
 40
0
  0
ENDTAB
  0
TABLE
  2
STYLE
  5
3
100
AcDbSymbolTable
 70
     1
  0
STYLE
  5
10
100
AcDbSymbolTableRecord
100
AcDbTextStyleTableRecord
  2
STANDARD
 70
     0
 40
0.0
 41
1.0
 50
0.0
 71
     0
 42
0.2
  3
txt
  4
bigfont.shx
  0
STYLE
  5
26
100
AcDbSymbolTableRecord
100
AcDbTextStyleTableRecord
  2
TATEGAKI
 70
    68
 40
0.0
 41
1.0
 50
0.0
 71
     0
 42
1.0
  3
txt
  4
bigfont.shx
  0
ENDTAB
  0
TABLE
  2
LAYER
 70
    9
  0
LAYER
  2
_0-0_計極細
 70
   64
 62
    7
  6
CONTINUOUS
  0
LAYER
  2
_0-1_計細線
 70
   64
 62
    7
  6
CONTINUOUS
  0
LAYER
  2
_0-5_寸法線
 70
   64
 62
    7
  6
CONTINUOUS
  0
LAYER
  2
_0-7_枠細線
 70
   64
 62
    7
  6
CONTINUOUS
  0
LAYER
  2
_0-8_枠中線
 70
   64
 62
    7
  6
CONTINUOUS
  0
LAYER
  2
_1-2_極細2
 70
   64
 62
    7
  6
CONTINUOUS
  0
LAYER
  2
_1-3_細線2
 70
   64
 62
    7
  6
CONTINUOUS
  0
LAYER
  2
_1-5_寸法2
 70
   64
 62
    7
  6
CONTINUOUS
  0
LAYER
  2
ADD_LINE
 70
   64
 62
    7
  6
CONTINUOUS
  0
ENDTAB
  0
ENDSEC
  0
SECTION
  2
BLOCKS
  0
ENDSEC
  0
SECTION
  2
ENTITIES
  0
LINE
  8
_0-8_枠中線
  6
CONTINUOUS
 62
    5
 10
120
 20
120
 11
120
 21
1920
  0
LINE
  8
_0-8_枠中線
  6
CONTINUOUS
 62
    5
 10
120
 20
1920
 11
2850
 21
1920
  0
LINE
  8
_0-8_枠中線
  6
CONTINUOUS
 62
    5
 10
2850
 20
1920
 11
2850
 21
120
  0
LINE
  8
_0-8_枠中線
  6
CONTINUOUS
 62
    5
 10
2850
 20
120
 11
120
 21
120
  0
LINE
  8
_0-7_枠細線
  6
CONTINUOUS
 62
    5
 10
2370
 20
360
 11
2370
 21
200
  0
TEXT
  8
_0-7_枠細線
 62
    5
 10
1875
 20
195
 40
35
 41
1
 50
0
  1
備考
  7
TATEGAKI
  0
TEXT
  8
_0-7_枠細線
 62
    5
 10
1875
 20
275
 40
35
 41
1
 50
0
  1
品番
  7
TATEGAKI
  0
TEXT
  8
_0-7_枠細線
 62
    5
 10
1875
 20
355
 40
35
 41
1
 50
0
  1
品名
  7
TATEGAKI
  0
LINE
  8
_0-7_枠細線
  6
CONTINUOUS
 62
    5
 10
2370
 20
280
 11
1850
 21
280
  0
LINE
  8
_0-7_枠細線
  6
CONTINUOUS
 62
    5
 10
1900
 20
360
 11
1900
 21
120
  0
LINE
  8
_0-8_枠中線
  6
CONTINUOUS
 62
    5
 10
2850
 20
360
 11
1850
 21
360
  0
LINE
  8
_0-8_枠中線
  6
CONTINUOUS
 62
    5
 10
1850
 20
360
 11
1850
 21
120
  0
LINE
  8
_0-7_枠細線
  6
CONTINUOUS
 62
    5
 10
2490
 20
360
 11
2490
 21
120
  0
TEXT
  8
_0-7_枠細線
 62
    5
 10
2385
 20
320
 40
30
 41
1
 50
0
  1
縮　尺
  0
LINE
  8
_0-7_枠細線
  6
CONTINUOUS
 62
    5
 10
2370
 20
310
 11
2490
 21
310
  0
LINE
  8
_0-7_枠細線
  6
CONTINUOUS
 62
    5
 10
2490
 20
200
 11
1850
 21
200
  0
LINE
  8
_0-7_枠細線
  6
CONTINUOUS
 62
    5
 10
2850
 20
180
 11
2490
 21
180
  0
LINE
  8
_0-7_枠細線
  6
CONTINUOUS
 62
    5
 10
2490
 20
240
 11
2850
 21
240
  0
LINE
  8
_0-7_枠細線
  6
CONTINUOUS
 62
    5
 10
2850
 20
280
 11
2490
 21
280
  0
TEXT
  8
_0-7_枠細線
 62
    5
 10
2510
 20
295
 40
50
 41
0.8
 50
0
  1
株式会社シマブン
  0
TEXT
  8
_0-7_枠細線
 62
    5
 10
2505
 20
120
 40
30
 41
1
 50
0
  1
年月日
  0
TEXT
  8
_0-7_枠細線
 62
    5
 10
2505
 20
150
 40
30
 41
1
 50
0
  1
作　成
  0
TEXT
  8
_0-7_枠細線
 62
    5
 10
2512.5
 20
245
 40
30
 41
1
 50
0
  1
承 認
  0
LINE
  8
_0-7_枠細線
  6
CONTINUOUS
 62
    5
 10
2610
 20
280
 11
2610
 21
120
  0
TEXT
  8
_0-7_枠細線
 62
    5
 10
2632.5
 20
245
 40
30
 41
1
 50
0
  1
検 図
  0
LINE
  8
_0-7_枠細線
  6
CONTINUOUS
 62
    5
 10
2730
 20
280
 11
2730
 21
180
  0
TEXT
  8
_0-7_枠細線
 62
    5
 10
2752.5
 20
245
 40
30
 41
1
 50
0
  1
設 計
  0
LINE
  8
_0-7_枠細線
  6
CONTINUOUS
 62
    5
 10
2850
 20
1885
 11
1780
 21
1885
  0
TEXT
  8
_0-7_枠細線
 62
    5
 10
1790
 20
1889.9999999999991
 40
25
 41
1
 50
0
  1
記号
  0
TEXT
  8
_0-7_枠細線
 62
    5
 10
1993.75
 20
1890
 40
25
 41
1
 50
0
  1
訂　 正　 記　 事
  0
TEXT
  8
_0-7_枠細線
 62
    5
 10
2362.5
 20
1890
 40
25
 41
1
 50
0
  1
訂 正 年 月 日
  0
TEXT
  8
_0-7_枠細線
 62
    5
 10
2612.5
 20
1890
 40
25
 41
1
 50
0
  1
備　　　　　考
  0
LINE
  8
_0-7_枠細線
  6
CONTINUOUS
 62
    5
 10
2850
 20
1850
 11
1780
 21
1850
  0
TEXT
  8
_0-7_枠細線
 62
    5
 10
1930.9999999999995
 20
300
 40
40
 41
0.6
 50
0
  1
玄関排水ユニット
  0
TEXT
  8
_0-7_枠細線
 62
    5
 10
2750
 20
190
 40
40
 41
1
 50
0
  1
藤戸
  0
LINE
  8
_0-7_枠細線
  6
CONTINUOUS
 62
    5
 10
1780
 20
1850
 11
1780
 21
1919.9999999999989
  0
LINE
  8
_0-7_枠細線
  6
CONTINUOUS
 62
    5
 10
1850
 20
1850
 11
1850
 21
1919.9999999999989
  0
LINE
  8
_0-7_枠細線
  6
CONTINUOUS
 62
    5
 10
2350
 20
1850
 11
2350
 21
1920
  0
LINE
  8
_0-7_枠細線
  6
CONTINUOUS
 62
    5
 10
2550
 20
1850
 11
2550
 21
1919.9999999999989
  0
TEXT
  8
_0-7_枠細線
 62
    5
 10
2510
 20
190
 40
40
 41
1
 50
0
  1
大野
  0
TEXT
  8
_0-7_枠細線
 62
    5
 10
2630
 20
190
 40
40
 41
1
 50
0
  1
深川
  0
TEXT
  8
_0-7_枠細線
 62
    5
 10
2620
 20
135
 40
30
 41
0.6666666666666666
 50
0
  1
２０１５年０４月０１日
  0
LINE
  8
_1-3_細線2
  6
CONTINUOUS
 62
    4
 10
627.21480702578697
 20
561.70045163252723
 11
627.21480702578697
 21
552.70045163266786
  0
LINE
  8
_1-3_細線2
  6
CONTINUOUS
 62
    4
 10
309.71480734328708
 20
561.70045163252701
 11
338.99604378558661
 21
561.70045163252701
  0
LINE
  8
_1-3_細線2
  6
CONTINUOUS
 62
    4
 10
338.99604378558661
 20
561.70045163252723
 11
351.7148073012882
 21
537.69891679428224
  0
LINE
  8
_1-3_細線2
  6
CONTINUOUS
 62
    4
 10
309.71480734328708
 20
561.70045163252723
 11
309.71480734328708
 21
552.70045163266786
  0
ARC
  8
_1-3_細線2
  6
CONTINUOUS
 62
    4
 10
351.85422730114766
 20
577.2004516324223
 40
7.4999999924999994
 50
7.1889771515935248
 51
89.999999999999915
  0
LINE
  8
_1-3_細線2
  6
CONTINUOUS
 62
    4
 10
351.85422730114766
 20
584.70045163234727
 11
307.21480734578705
 21
584.70045163234727
  0
LINE
  8
_1-3_細線2
  6
CONTINUOUS
 62
    4
 10
468.46480718453734
 20
584.70045163234727
 11
351.85422730114766
 21
584.70045163234727
  0
LINE
  8
_1-3_細線2
  6
CONTINUOUS
 62
    4
 10
359.29526825761712
 20
578.13901935594572
 11
368.46480728453713
 21
505.1872428260009
  0
LINE
  8
_1-3_細線2
  6
CONTINUOUS
 62
    4
 10
368.46480728453713
 20
505.1872428260009
 11
368.46480728453713
 21
463.70045163355826
  0
LINE
  8
_1-3_細線2
  6
CONTINUOUS
 62
    4
 10
324.71480732828724
 20
537.70045163281793
 11
338.46480731453681
 21
537.70045163281793
  0
LINE
  8
_1-3_細線2
  6
CONTINUOUS
 62
    4
 10
338.46480731453681
 20
537.70045163281793
 11
338.46480731453681
 21
487.7004516333177
  0
LINE
  8
_1-3_細線2
  6
CONTINUOUS
 62
    4
 10
351.7148073012882
 20
487.7004516333177
 11
338.46480731453681
 21
487.7004516333177
  0
LINE
  8
_1-3_細線2
  6
CONTINUOUS
 62
    4
 10
351.7148073012882
 20
537.69891679428224
 11
351.7148073012882
 21
487.7004516333177
  0
LINE
  8
_1-3_細線2
  6
CONTINUOUS
 62
    4
 10
351.7148073012882
 20
487.7004516333177
 11
351.7148073012882
 21
378.68513830107531
  0
ARC
  8
_1-3_細線2
  6
CONTINUOUS
 62
    4
 10
324.71480732828724
 20
552.70045163266786
 40
14.999999984999999
 50
179.99999999999983
 51
269.99999999999977
  0
LINE
  8
_1-3_細線2
  6
CONTINUOUS
 62
    4
 10
351.7148073012882
 20
562.20045163257237
 11
351.7148073012882
 21
537.70045163281793
  0
LINE
  8
_1-3_細線2
  6
CONTINUOUS
 62
    4
 10
356.71480729628826
 20
487.7004516333177
 11
351.7148073012882
 21
487.7004516333177
  0
LINE
  8
_1-3_細線2
  6
CONTINUOUS
 62
    4
 10
628.46480702453687
 20
572.20045163247232
 11
628.46480702453687
 21
566.70045163252701
  0
ARC
  8
_1-3_細線2
  6
CONTINUOUS
 62
    4
 10
612.21480704078726
 20
552.70045163266786
 40
14.999999984999999
 50
269.99999999999977
 51
359.99999999999966
  0
LINE
  8
_1-3_細線2
  6
CONTINUOUS
 62
    4
 10
583.46480706953707
 20
537.70045163281793
 11
583.46480706953707
 21
487.7004516333177
  0
LINE
  8
_1-3_細線2
  6
CONTINUOUS
 62
    4
 10
598.46480705453757
 20
537.70045163281793
 11
598.46480705453757
 21
487.7004516333177
  0
LINE
  8
_1-3_細線2
  6
CONTINUOUS
 62
    4
 10
629.71480702328699
 20
572.20045163247232
 11
629.71480702328699
 21
584.70045163234727
  0
LINE
  8
_1-3_細線2
  6
CONTINUOUS
 62
    4
 10
446.22771387344102
 20
491.92904496660913
 11
451.63578720136752
 21
492.71603829993444
  0
LINE
  8
_1-3_細線2
  6
CONTINUOUS
 62
    4
 10
457.17189386249686
 20
493.28249829992876
 11
462.79390052354029
 21
493.62410496659129
  0
LINE
  8
_1-3_細線2
  6
CONTINUOUS
 62
    4
 10
451.63578720136752
 20
492.71603829993444
 11
457.17189386249686
 21
493.28249829992876
  0
LINE
  8
_1-3_細線2
  6
CONTINUOUS
 62
    4
 10
462.79390052354029
 20
493.62410496659129
 11
468.4590205178759
 21
493.7382649665899
  0
LINE
  8
_1-3_細線2
  6
CONTINUOUS
 62
    4
 10
435.95902055037556
 20
489.71903163329819
 11
440.98883387868
 21
490.92749829995148
  0
LINE
  8
_1-3_細線2
  6
CONTINUOUS
 62
    4
 10
431.17655388849272
 20
488.31282496664505
 11
435.95902055037556
 21
489.71903163329819
  0
LINE
  8
_1-3_細線2
  6
CONTINUOUS
 62
    4
 10
418.66613390100156
 20
483.02189830003158
 11
422.49708056384065
 21
484.95147163334536
  0
LINE
  8
_1-3_細線2
  6
CONTINUOUS
 62
    4
 10
409.54902057678652
 20
476.41681163343071
 11
412.16737390750211
 21
478.73826496673962
  0
LINE
  8
_1-3_細線2
  6
CONTINUOUS
 62
    4
 10
415.21414057112139
 20
480.94555830005174
 11
418.66613390100156
 21
483.02189830003158
  0
LINE
  8
_1-3_細線2
  6
CONTINUOUS
 62
    4
 10
412.16737390750211
 20
478.73826496673962
 11
415.21414057112139
 21
480.94555830005174
  0
LINE
  8
_1-3_細線2
  6
CONTINUOUS
 62
    4
 10
422.49708056384065
 20
484.95147163334536
 11
426.67782722632364
 21
486.71959829999378
  0
LINE
  8
_1-3_細線2
  6
CONTINUOUS
 62
    4
 10
426.67782722632364
 20
486.71959829999378
 11
431.17655388849272
 21
488.31282496664505
  0
LINE
  8
_1-3_細線2
  6
CONTINUOUS
 62
    4
 10
468.46480718453734
 20
493.70045163325847
 11
368.46480728453713
 21
493.70045163325847
  0
LINE
  8
_1-3_細線2
  6
CONTINUOUS
 62
    4
 10
440.98883387868
 20
490.92749829995148
 11
446.22771387344102
 21
491.92904496660913
  0
LINE
  8
_1-3_細線2
  6
CONTINUOUS
 62
    4
 10
483.46480716953721
 20
537.70045163281793
 11
483.46480716953721
 21
487.7004516333177
  0
ARC
  8
_1-3_細線2
  6
CONTINUOUS
 62
    4
 10
351.85422730114766
 20
577.2004516324223
 40
4.9999999950000005
 50
7.1641169999944312
 51
89.999999999999915
  0
ARC
  8
_1-3_細線2
  6
CONTINUOUS
 62
    4
 10
341.7148073112881
 20
562.20045163257237
 40
9.9999999900000009
 50
0
 51
89.999999999999915
  0
LINE
  8
_1-3_細線2
  6
CONTINUOUS
 62
    4
 10
308.46480734453689
 20
572.20045163247232
 11
308.46480734453689
 21
566.70045163252701
  0
LINE
  8
_1-3_細線2
  6
CONTINUOUS
 62
    4
 10
350.64509396902463
 20
566.70045163252701
 11
308.46480734453689
 21
566.70045163252701
  0
LINE
  8
_1-3_細線2
  6
CONTINUOUS
 62
    4
 10
341.7148073112881
 20
572.20045163247232
 11
307.21480734578705
 21
572.20045163247232
  0
LINE
  8
_1-3_細線2
  6
CONTINUOUS
 62
    4
 10
351.85422730114766
 20
582.20045163237228
 11
307.21480734578705
 21
582.20045163237228
  0
LINE
  8
_1-3_細線2
  6
CONTINUOUS
 62
    4
 10
362.86980062346316
 20
549.70045163269742
 11
360.35013395931884
 21
549.70045163269742
  0
LINE
  8
_1-3_細線2
  6
CONTINUOUS
 62
    4
 10
351.7148073012882
 20
547.20045163272243
 11
356.71480729628826
 21
547.20045163272243
  0
LINE
  8
_1-3_細線2
  6
CONTINUOUS
 62
    4
 10
351.7148073012882
 20
537.70045163281793
 11
356.71480729628826
 21
537.70045163281793
  0
LINE
  8
_1-3_細線2
  6
CONTINUOUS
 62
    4
 10
356.81519396285421
 20
577.82401163241514
 11
360.35013395931884
 21
549.70045163269742
  0
LINE
  8
_1-3_細線2
  6
CONTINUOUS
 62
    4
 10
307.21480734578705
 20
572.20045163247232
 11
307.21480734578705
 21
584.70045163234727
  0
LINE
  8
_1-3_細線2
  6
CONTINUOUS
 62
    4
 10
468.46480718453734
 20
537.70045163281793
 11
612.21480704078726
 21
537.70045163281793
  0
LINE
  8
_1-3_細線2
  6
CONTINUOUS
 62
    4
 10
468.46480718453734
 20
487.7004516333177
 11
598.46480705453757
 21
487.7004516333177
  0
LINE
  8
_1-3_細線2
  6
CONTINUOUS
 62
    4
 10
468.46480718453734
 20
584.70045163234727
 11
629.71480702328699
 21
584.70045163234727
  0
LINE
  8
_1-3_細線2
  6
CONTINUOUS
 62
    4
 10
468.46480718453734
 20
572.20045163247232
 11
629.71480702328699
 21
572.20045163247232
  0
LINE
  8
_1-3_細線2
  6
CONTINUOUS
 62
    4
 10
468.46480718453734
 20
566.70045163252701
 11
628.46480702453687
 21
566.70045163252701
  0
LINE
  8
_1-3_細線2
  6
CONTINUOUS
 62
    4
 10
585.1752737344932
 20
378.64560496774061
 11
580.17334040616242
 21
373.64367830112496
  0
LINE
  8
_1-3_細線2
  6
CONTINUOUS
 62
    4
 10
405.67384724732574
 20
471.50283830014621
 11
407.37900057895627
 21
473.99887163345466
  0
LINE
  8
_1-3_細線2
  6
CONTINUOUS
 62
    4
 10
404.44652058188876
 20
468.94771163350538
 11
405.67384724732574
 21
471.50283830014621
  0
LINE
  8
_1-3_細線2
  6
CONTINUOUS
 62
    4
 10
385.96480726703732
 20
469.8509916334956
 11
385.96480726703732
 21
463.70045163355826
  0
LINE
  8
_1-3_細線2
  6
CONTINUOUS
 62
    4
 10
403.45902058287561
 20
463.73826496688969
 11
403.70636724929636
 21
466.35293830019805
  0
LINE
  8
_1-3_細線2
  6
CONTINUOUS
 62
    4
 10
403.70636724929636
 20
466.35293830019805
 11
404.44652058188876
 21
468.94771163350538
  0
LINE
  8
_1-3_細線2
  6
CONTINUOUS
 62
    4
 10
468.46480718453734
 20
463.70045163355826
 11
368.46480728453713
 21
463.70045163355826
  0
LINE
  8
_1-3_細線2
  6
CONTINUOUS
 62
    4
 10
468.46480718453734
 20
448.70045163370833
 11
368.46480728453713
 21
448.70045163370833
  0
LINE
  8
_1-3_細線2
  6
CONTINUOUS
 62
    4
 10
368.46480728453713
 20
448.70045163370833
 11
368.46480728453713
 21
373.7004516344582
  0
LINE
  8
_1-3_細線2
  6
CONTINUOUS
 62
    4
 10
351.75434063458084
 20
378.64560496774061
 11
356.75627396291162
 21
373.64367830112496
  0
LINE
  8
_1-3_細線2
  6
CONTINUOUS
 62
    4
 10
468.46480718453734
 20
373.7004516344582
 11
356.71480729628826
 21
373.7004516344582
  0
LINE
  8
_1-3_細線2
  6
CONTINUOUS
 62
    4
 10
468.46480718453734
 20
378.70045163440818
 11
585.21480706778584
 21
378.70045163440818
  0
LINE
  8
_1-3_細線2
  6
CONTINUOUS
 62
    4
 10
468.46480718453734
 20
373.7004516344582
 11
580.21480707278579
 21
373.7004516344582
  0
LINE
  8
_1-3_細線2
  6
CONTINUOUS
 62
    4
 10
356.71480729628826
 20
547.20045163272243
 11
356.71480729628826
 21
373.7004516344582
  0
LINE
  8
_1-3_細線2
  6
CONTINUOUS
 62
    4
 10
580.21480707278579
 20
487.7004516333177
 11
580.21480707278579
 21
373.7004516344582
  0
LINE
  8
_1-3_細線2
  6
CONTINUOUS
 62
    4
 10
585.21480706778584
 20
487.7004516333177
 11
585.21480706778584
 21
378.68513830107531
  0
ARC
  8
_1-3_細線2
  6
CONTINUOUS
 62
    4
 10
360.96480729203705
 20
469.8509916334956
 40
24.999999974999998
 50
0
 51
72.549879000004665
  0
LINE
  8
_1-3_細線2
  6
CONTINUOUS
 62
    4
 10
407.37900057895627
 20
473.99887163345466
 11
409.54902057678652
 21
476.41681163343071
  0
LINE
  8
_1-2_極細2
  6
CONTINUOUS
 62
    2
 10
747.8818402384527
 20
617.03795829869171
 11
686.1483269668538
 21
555.30444496597397
  0
LINE
  8
_1-2_極細2
  6
CONTINUOUS
 62
    2
 10
743.16779357649875
 20
621.75200496530931
 11
681.43428030490008
 21
560.01849163259476
  0
LINE
  8
_1-2_極細2
  6
CONTINUOUS
 62
    2
 10
268.96702071736769
 20
622.84463163196688
 11
207.23350744576877
 21
561.11111829924914
  0
LINE
  8
_1-2_極細2
  6
CONTINUOUS
 62
    2
 10
273.68106737932135
 20
618.13058496534609
 11
211.94755410771975
 21
556.39707829929716
  0
LINE
  8
_1-2_極細2
  6
CONTINUOUS
 62
    2
 10
590.96480718453734
 20
561.70045163252701
 11
468.46480718453734
 21
561.70045163252701
  0
LINE
  8
_1-2_極細2
  6
CONTINUOUS
 62
    2
 10
590.96480718453734
 20
566.70045163252701
 11
468.46480718453734
 21
566.70045163252701
  0
LINE
  8
_1-2_極細2
  6
CONTINUOUS
 62
    2
 10
628.46480718453734
 20
566.70045163252701
 11
590.96480718453734
 21
566.70045163252701
  0
LINE
  8
_1-2_極細2
  6
CONTINUOUS
 62
    2
 10
628.46480718453734
 20
561.70045163252701
 11
590.96480718453734
 21
561.70045163252701
  0
LINE
  8
_1-2_極細2
  6
CONTINUOUS
 62
    2
 10
590.96480718453734
 20
561.70045163252701
 11
590.96480718453734
 21
566.70045163252701
  0
LINE
  8
_1-2_極細2
  6
CONTINUOUS
 62
    2
 10
638.46480718453734
 20
595.20045163252837
 11
468.46480718453734
 21
595.20045163252837
  0
ARC
  8
_1-2_極細2
  6
CONTINUOUS
 62
    2
 10
638.46480718453734
 20
587.70045163252837
 40
7.5
 50
89.999999999999915
 51
179.99999999999983
  0
LINE
  8
_1-2_極細2
  6
CONTINUOUS
 62
    2
 10
630.96480718453734
 20
569.20045163252701
 11
630.96480718453734
 21
587.70045163252837
  0
ARC
  8
_1-2_極細2
  6
CONTINUOUS
 62
    2
 10
628.46480718453734
 20
569.20045163252701
 40
7.5
 50
269.99999999999977
 51
359.99999999999966
  0
LINE
  8
_1-2_極細2
  6
CONTINUOUS
 62
    2
 10
635.96480718453734
 20
587.70045163252837
 11
635.96480718453734
 21
569.20045163252701
  0
ARC
  8
_1-2_極細2
  6
CONTINUOUS
 62
    2
 10
638.46480718453734
 20
587.70045163252837
 40
2.5
 50
89.999999999999915
 51
179.99999999999983
  0
ARC
  8
_1-2_極細2
  6
CONTINUOUS
 62
    2
 10
628.46480718453734
 20
569.20045163252701
 40
2.5
 50
269.99999999999977
 51
359.99999999999966
  0
LINE
  8
_1-2_極細2
  6
CONTINUOUS
 62
    2
 10
716.6162402700038
 20
595.20045163252837
 11
638.46480718453734
 21
595.20045163252837
  0
LINE
  8
_1-2_極細2
  6
CONTINUOUS
 62
    2
 10
711.61624027495373
 20
590.20045163252837
 11
638.46480718453734
 21
590.20045163252837
  0
LINE
  8
_1-2_極細2
  6
CONTINUOUS
 62
    2
 10
308.46480718453734
 20
566.70045163252701
 11
345.96480718453734
 21
566.70045163252701
  0
LINE
  8
_1-2_極細2
  6
CONTINUOUS
 62
    2
 10
308.46480718453734
 20
561.70045163252701
 11
345.96480718453734
 21
561.70045163252701
  0
LINE
  8
_1-2_極細2
  6
CONTINUOUS
 62
    2
 10
345.96480718453734
 20
561.70045163252701
 11
345.96480718453734
 21
566.70045163252701
  0
ARC
  8
_1-2_極細2
  6
CONTINUOUS
 62
    2
 10
298.46480718453734
 20
587.70045163252837
 40
7.5
 50
0
 51
89.999999999999915
  0
LINE
  8
_1-2_極細2
  6
CONTINUOUS
 62
    2
 10
305.96480718453734
 20
569.20045163252701
 11
305.96480718453734
 21
587.70045163252837
  0
ARC
  8
_1-2_極細2
  6
CONTINUOUS
 62
    2
 10
308.46480718453734
 20
569.20045163252701
 40
7.5
 50
179.99999999999983
 51
269.99999999999977
  0
LINE
  8
_1-2_極細2
  6
CONTINUOUS
 62
    2
 10
300.96480718453734
 20
587.70045163252837
 11
300.96480718453734
 21
569.20045163252701
  0
ARC
  8
_1-2_極細2
  6
CONTINUOUS
 62
    2
 10
298.46480718453734
 20
587.70045163252837
 40
2.5
 50
0
 51
89.999999999999915
  0
ARC
  8
_1-2_極細2
  6
CONTINUOUS
 62
    2
 10
308.46480718453734
 20
569.20045163252701
 40
2.5
 50
179.99999999999983
 51
269.99999999999977
  0
LINE
  8
_1-2_極細2
  6
CONTINUOUS
 62
    2
 10
250.75093159295449
 20
595.20045163252837
 11
298.46480718453734
 21
595.20045163252837
  0
LINE
  8
_1-2_極細2
  6
CONTINUOUS
 62
    2
 10
245.75093105794906
 20
590.20045163252837
 11
298.46480718453734
 21
590.20045163252837
  0
LINE
  8
_1-2_極細2
  6
CONTINUOUS
 62
    2
 10
709.58792847001575
 20
590.20045163252871
 11
714.58792847001519
 21
595.20045163252837
  0
LINE
  8
_1-2_極細2
  6
CONTINUOUS
 62
    2
 10
705.34528778289609
 20
590.2004516325286
 11
710.34528778289598
 21
595.20045163252837
  0
LINE
  8
_1-2_極細2
  6
CONTINUOUS
 62
    2
 10
701.102647095777
 20
590.20045163252871
 11
706.10264709577677
 21
595.20045163252837
  0
LINE
  8
_1-2_極細2
  6
CONTINUOUS
 62
    2
 10
696.86000640865757
 20
590.2004516325286
 11
701.86000640865757
 21
595.20045163252837
  0
LINE
  8
_1-2_極細2
  6
CONTINUOUS
 62
    2
 10
692.61736572153859
 20
590.20045163252871
 11
697.61736572153836
 21
595.2004516325286
  0
LINE
  8
_1-2_極細2
  6
CONTINUOUS
 62
    2
 10
688.37472503441916
 20
590.2004516325286
 11
693.37472503441916
 21
595.20045163252837
  0
LINE
  8
_1-2_極細2
  6
CONTINUOUS
 62
    2
 10
684.13208434729995
 20
590.20045163252871
 11
689.13208434729995
 21
595.2004516325286
  0
LINE
  8
_1-2_極細2
  6
CONTINUOUS
 62
    2
 10
679.88944366018075
 20
590.2004516325286
 11
684.88944366018075
 21
595.20045163252837
  0
LINE
  8
_1-2_極細2
  6
CONTINUOUS
 62
    2
 10
675.64680297306154
 20
590.20045163252871
 11
680.64680297306154
 21
595.2004516325286
  0
LINE
  8
_1-2_極細2
  6
CONTINUOUS
 62
    2
 10
671.40416228594233
 20
590.2004516325286
 11
676.40416228594199
 21
595.20045163252837
  0
LINE
  8
_1-2_極細2
  6
CONTINUOUS
 62
    2
 10
667.16152159882313
 20
590.20045163252871
 11
672.16152159882267
 21
595.2004516325286
  0
LINE
  8
_1-2_極細2
  6
CONTINUOUS
 62
    2
 10
662.91888091170358
 20
590.20045163252871
 11
667.91888091170358
 21
595.2004516325286
  0
LINE
  8
_1-2_極細2
  6
CONTINUOUS
 62
    2
 10
630.44138404733587
 20
561.96559545527987
 11
635.69966336178436
 21
567.22387476972881
  0
LINE
  8
_1-2_極細2
  6
CONTINUOUS
 62
    2
 10
658.67624022458472
 20
590.20045163252871
 11
663.67624022458426
 21
595.2004516325286
  0
LINE
  8
_1-2_極細2
  6
CONTINUOUS
 62
    2
 10
625.93359953746381
 20
561.70045163252723
 11
635.96480718453745
 21
571.73165927960076
  0
LINE
  8
_1-2_極細2
  6
CONTINUOUS
 62
    2
 10
654.43359953746517
 20
590.2004516325286
 11
659.43359953746517
 21
595.20045163252837
  0
LINE
  8
_1-2_極細2
  6
CONTINUOUS
 62
    2
 10
621.69095885034437
 20
561.70045163252701
 11
626.69095885034437
 21
566.70045163252701
  0
LINE
  8
_1-2_極細2
  6
CONTINUOUS
 62
    2
 10
630.96480718453734
 20
570.9742999667202
 11
635.96480718453734
 21
575.9742999667202
  0
LINE
  8
_1-2_極細2
  6
CONTINUOUS
 62
    2
 10
650.19095885034631
 20
590.20045163252871
 11
655.19095885034574
 21
595.2004516325286
  0
LINE
  8
_1-2_極細2
  6
CONTINUOUS
 62
    2
 10
617.44831816322517
 20
561.70045163252723
 11
622.44831816322517
 21
566.70045163252723
  0
LINE
  8
_1-2_極細2
  6
CONTINUOUS
 62
    2
 10
630.96480718453745
 20
575.21694065383952
 11
635.96480718453734
 21
580.2169406538394
  0
LINE
  8
_1-2_極細2
  6
CONTINUOUS
 62
    2
 10
645.94831816322676
 20
590.2004516325286
 11
650.94831816322653
 21
595.20045163252837
  0
LINE
  8
_1-2_極細2
  6
CONTINUOUS
 62
    2
 10
613.20567747610596
 20
561.70045163252701
 11
618.20567747610596
 21
566.70045163252701
  0
LINE
  8
_1-2_極細2
  6
CONTINUOUS
 62
    2
 10
630.96480718453734
 20
579.45958134095861
 11
635.96480718453745
 21
584.45958134095861
  0
LINE
  8
_1-2_極細2
  6
CONTINUOUS
 62
    2
 10
641.70567747610744
 20
590.20045163252871
 11
646.70567747610733
 21
595.2004516325286
  0
LINE
  8
_1-2_極細2
  6
CONTINUOUS
 62
    2
 10
608.96303678898676
 20
561.70045163252723
 11
613.96303678898676
 21
566.70045163252735
  0
LINE
  8
_1-2_極細2
  6
CONTINUOUS
 62
    2
 10
630.96480718453745
 20
583.70222202807793
 11
636.47019873343311
 21
589.20761357697313
  0
LINE
  8
_1-2_極細2
  6
CONTINUOUS
 62
    2
 10
636.95764524009246
 20
589.69506008363294
 11
642.46303678898812
 21
595.2004516325286
  0
LINE
  8
_1-2_極細2
  6
CONTINUOUS
 62
    2
 10
604.72039610186755
 20
561.70045163252701
 11
609.72039610186755
 21
566.70045163252723
  0
LINE
  8
_1-2_極細2
  6
CONTINUOUS
 62
    2
 10
630.96892612714737
 20
587.94898165780705
 11
638.21627715925865
 21
595.19633268991822
  0
LINE
  8
_1-2_極細2
  6
CONTINUOUS
 62
    2
 10
600.47775541474834
 20
561.70045163252723
 11
605.47775541474834
 21
566.70045163252723
  0
LINE
  8
_1-2_極細2
  6
CONTINUOUS
 62
    2
 10
596.2351147276288
 20
561.70045163252701
 11
601.23511472762914
 21
566.70045163252701
  0
LINE
  8
_1-2_極細2
  6
CONTINUOUS
 62
    2
 10
591.99247404050993
 20
561.70045163252723
 11
596.99247404050993
 21
566.70045163252723
  0
LINE
  8
_1-2_極細2
  6
CONTINUOUS
 62
    2
 10
590.96480718453734
 20
564.91542546367396
 11
592.74983335339039
 21
566.70045163252701
  0
LINE
  8
_1-2_極細2
  6
CONTINUOUS
 62
    2
 10
587.74983335338959
 20
561.70045163252701
 11
590.96480718453734
 21
564.91542546367475
  0
LINE
  8
_1-2_極細2
  6
CONTINUOUS
 62
    2
 10
583.50719266627038
 20
561.70045163252723
 11
588.50719266627038
 21
566.70045163252723
  0
LINE
  8
_1-2_極細2
  6
CONTINUOUS
 62
    2
 10
579.26455197915118
 20
561.70045163252701
 11
584.26455197915118
 21
566.70045163252701
  0
LINE
  8
_1-2_極細2
  6
CONTINUOUS
 62
    2
 10
575.02191129203197
 20
561.70045163252723
 11
580.02191129203197
 21
566.70045163252735
  0
LINE
  8
_1-2_極細2
  6
CONTINUOUS
 62
    2
 10
570.77927060491277
 20
561.70045163252723
 11
575.77927060491277
 21
566.70045163252723
  0
LINE
  8
_1-2_極細2
  6
CONTINUOUS
 62
    2
 10
566.53662991779356
 20
561.70045163252723
 11
571.53662991779356
 21
566.70045163252723
  0
LINE
  8
_1-2_極細2
  6
CONTINUOUS
 62
    2
 10
562.29398923067401
 20
561.70045163252701
 11
567.29398923067436
 21
566.70045163252723
  0
LINE
  8
_1-2_極細2
  6
CONTINUOUS
 62
    2
 10
558.05134854355515
 20
561.70045163252723
 11
563.05134854355515
 21
566.70045163252723
  0
LINE
  8
_1-2_極細2
  6
CONTINUOUS
 62
    2
 10
553.8087078564356
 20
561.70045163252701
 11
558.8087078564356
 21
566.70045163252701
  0
LINE
  8
_1-2_極細2
  6
CONTINUOUS
 62
    2
 10
549.56606716931628
 20
561.70045163252735
 11
554.56606716931674
 21
566.70045163252735
  0
LINE
  8
_1-2_極細2
  6
CONTINUOUS
 62
    2
 10
545.32342648219719
 20
561.70045163252723
 11
550.32342648219719
 21
566.70045163252723
  0
LINE
  8
_1-2_極細2
  6
CONTINUOUS
 62
    2
 10
541.08078579507787
 20
561.70045163252723
 11
546.08078579507787
 21
566.70045163252735
  0
LINE
  8
_1-2_極細2
  6
CONTINUOUS
 62
    2
 10
536.83814510795855
 20
561.70045163252723
 11
541.83814510795878
 21
566.70045163252723
  0
LINE
  8
_1-2_極細2
  6
CONTINUOUS
 62
    2
 10
532.59550442083946
 20
561.70045163252723
 11
537.59550442083946
 21
566.70045163252723
  0
LINE
  8
_1-2_極細2
  6
CONTINUOUS
 62
    2
 10
528.35286373372014
 20
561.70045163252701
 11
533.35286373372014
 21
566.70045163252723
  0
LINE
  8
_1-2_極細2
  6
CONTINUOUS
 62
    2
 10
524.11022304660094
 20
561.70045163252701
 11
529.11022304660105
 21
566.70045163252723
  0
LINE
  8
_1-2_極細2
  6
CONTINUOUS
 62
    2
 10
519.86758235948173
 20
561.70045163252723
 11
524.86758235948173
 21
566.70045163252723
  0
LINE
  8
_1-2_極細2
  6
CONTINUOUS
 62
    2
 10
515.62494167236252
 20
561.70045163252701
 11
520.62494167236252
 21
566.70045163252723
  0
LINE
  8
_1-2_極細2
  6
CONTINUOUS
 62
    2
 10
511.38230098524332
 20
561.70045163252723
 11
516.38230098524332
 21
566.70045163252723
  0
LINE
  8
_1-2_極細2
  6
CONTINUOUS
 62
    2
 10
507.13966029812411
 20
561.70045163252701
 11
512.13966029812411
 21
566.70045163252701
  0
LINE
  8
_1-2_極細2
  6
CONTINUOUS
 62
    2
 10
502.89701961100491
 20
561.70045163252723
 11
507.89701961100491
 21
566.70045163252723
  0
LINE
  8
_1-2_極細2
  6
CONTINUOUS
 62
    2
 10
498.65437892388542
 20
561.70045163252701
 11
503.65437892388542
 21
566.70045163252701
  0
LINE
  8
_1-2_極細2
  6
CONTINUOUS
 62
    2
 10
494.41173823676604
 20
561.70045163252701
 11
499.41173823676604
 21
566.70045163252723
  0
LINE
  8
_1-2_極細2
  6
CONTINUOUS
 62
    2
 10
490.16909754964701
 20
561.70045163252701
 11
495.16909754964701
 21
566.70045163252723
  0
LINE
  8
_1-2_極細2
  6
CONTINUOUS
 62
    2
 10
485.92645686252763
 20
561.70045163252723
 11
490.92645686252763
 21
566.70045163252723
  0
LINE
  8
_1-2_極細2
  6
CONTINUOUS
 62
    2
 10
481.68381617540831
 20
561.70045163252701
 11
486.68381617540831
 21
566.70045163252701
  0
LINE
  8
_1-2_極細2
  6
CONTINUOUS
 62
    2
 10
477.4411754882891
 20
561.70045163252723
 11
482.44117548828922
 21
566.70045163252723
  0
LINE
  8
_1-2_極細2
  6
CONTINUOUS
 62
    2
 10
473.1985348011699
 20
561.70045163252701
 11
478.1985348011699
 21
566.70045163252701
  0
LINE
  8
_1-2_極細2
  6
CONTINUOUS
 62
    2
 10
468.95589411405069
 20
561.70045163252701
 11
473.95589411405069
 21
566.70045163252723
  0
LINE
  8
_1-2_極細2
  6
CONTINUOUS
 62
    2
 10
468.46480718453745
 20
565.45200539013308
 11
469.71325342693149
 21
566.70045163252723
  0
LINE
  8
_1-2_極細2
  6
CONTINUOUS
 62
    2
 10
345.91931418759032
 20
561.70045163252723
 11
345.96480718453745
 21
561.74594462947437
  0
LINE
  8
_1-2_極細2
  6
CONTINUOUS
 62
    2
 10
341.67667350047083
 20
561.70045163252723
 11
345.96480718453745
 21
565.98858531659357
  0
LINE
  8
_1-2_極細2
  6
CONTINUOUS
 62
    2
 10
337.43403281335145
 20
561.70045163252701
 11
342.43403281335145
 21
566.70045163252723
  0
LINE
  8
_1-2_極細2
  6
CONTINUOUS
 62
    2
 10
333.19139212623242
 20
561.70045163252701
 11
338.19139212623242
 21
566.70045163252723
  0
LINE
  8
_1-2_極細2
  6
CONTINUOUS
 62
    2
 10
328.94875143911304
 20
561.70045163252701
 11
333.94875143911304
 21
566.70045163252701
  0
LINE
  8
_1-2_極細2
  6
CONTINUOUS
 62
    2
 10
324.706110751994
 20
561.70045163252723
 11
329.706110751994
 21
566.70045163252723
  0
LINE
  8
_1-2_極細2
  6
CONTINUOUS
 62
    2
 10
320.46347006487463
 20
561.70045163252723
 11
325.46347006487463
 21
566.70045163252723
  0
LINE
  8
_1-2_極細2
  6
CONTINUOUS
 62
    2
 10
316.22082937775542
 20
561.70045163252723
 11
321.22082937775559
 21
566.70045163252723
  0
LINE
  8
_1-2_極細2
  6
CONTINUOUS
 62
    2
 10
311.97818869063622
 20
561.70045163252723
 11
316.97818869063622
 21
566.70045163252723
  0
LINE
  8
_1-2_極細2
  6
CONTINUOUS
 62
    2
 10
307.76798857457322
 20
561.73289220358356
 11
312.73554800351701
 21
566.70045163252723
  0
LINE
  8
_1-2_極細2
  6
CONTINUOUS
 62
    2
 10
304.57840315099048
 20
562.78594746711974
 11
308.49290731639769
 21
566.70045163252723
  0
LINE
  8
_1-2_極細2
  6
CONTINUOUS
 62
    2
 10
302.37398288778365
 20
564.8241678910324
 11
306.06154606893625
 21
568.51173107218483
  0
LINE
  8
_1-2_極細2
  6
CONTINUOUS
 62
    2
 10
301.09839273924564
 20
567.79121842961342
 11
305.96480718453734
 21
572.6576328749054
  0
LINE
  8
_1-2_極細2
  6
CONTINUOUS
 62
    2
 10
300.96480718453734
 20
571.90027356202449
 11
305.96480718453734
 21
576.90027356202449
  0
LINE
  8
_1-2_極細2
  6
CONTINUOUS
 62
    2
 10
300.96480718453734
 20
576.14291424914381
 11
305.96480718453745
 21
581.14291424914381
  0
LINE
  8
_1-2_極細2
  6
CONTINUOUS
 62
    2
 10
300.96480718453734
 20
580.38555493626302
 11
305.96480718453745
 21
585.38555493626302
  0
LINE
  8
_1-2_極細2
  6
CONTINUOUS
 62
    2
 10
300.96480718453745
 20
584.62819562338223
 11
305.76341685025142
 21
589.42680528909648
  0
LINE
  8
_1-2_極細2
  6
CONTINUOUS
 62
    2
 10
300.76761080826213
 20
588.67363993422612
 11
304.39108144469014
 21
592.29711057065435
  0
LINE
  8
_1-2_極細2
  6
CONTINUOUS
 62
    2
 10
298.05178181944541
 20
590.20045163252871
 11
302.10766414985784
 21
594.25633396294143
  0
LINE
  8
_1-2_極細2
  6
CONTINUOUS
 62
    2
 10
293.80914113232575
 20
590.20045163252871
 11
298.80157641629989
 21
595.19288691650274
  0
LINE
  8
_1-2_極細2
  6
CONTINUOUS
 62
    2
 10
289.56650044520671
 20
590.20045163252871
 11
294.56650044520671
 21
595.2004516325286
  0
LINE
  8
_1-2_極細2
  6
CONTINUOUS
 62
    2
 10
285.32385975808734
 20
590.20045163252871
 11
290.32385975808734
 21
595.2004516325286
  0
LINE
  8
_1-2_極細2
  6
CONTINUOUS
 62
    2
 10
281.0812190709683
 20
590.20045163252871
 11
286.0812190709683
 21
595.2004516325286
  0
LINE
  8
_1-2_極細2
  6
CONTINUOUS
 62
    2
 10
276.83857838384893
 20
590.2004516325286
 11
281.83857838384893
 21
595.2004516325286
  0
LINE
  8
_1-2_極細2
  6
CONTINUOUS
 62
    2
 10
272.59593769672989
 20
590.20045163252871
 11
277.59593769672972
 21
595.20045163252871
  0
LINE
  8
_1-2_極細2
  6
CONTINUOUS
 62
    2
 10
268.35329700961051
 20
590.2004516325286
 11
273.3532970096104
 21
595.2004516325286
  0
LINE
  8
_1-2_極細2
  6
CONTINUOUS
 62
    2
 10
264.11065632249131
 20
590.2004516325286
 11
269.1106563224912
 21
595.2004516325286
  0
LINE
  8
_1-2_極細2
  6
CONTINUOUS
 62
    2
 10
259.86801563537199
 20
590.2004516325286
 11
264.86801563537199
 21
595.2004516325286
  0
LINE
  8
_1-2_極細2
  6
CONTINUOUS
 62
    2
 10
255.62537494825278
 20
590.2004516325286
 11
260.62537494825278
 21
595.2004516325286
  0
LINE
  8
_1-2_極細2
  6
CONTINUOUS
 62
    2
 10
251.38273426113329
 20
590.2004516325286
 11
256.38273426113329
 21
595.20045163252837
  0
LINE
  8
_1-2_極細2
  6
CONTINUOUS
 62
    2
 10
247.14009357401409
 20
590.20045163252871
 11
252.14009357401409
 21
595.2004516325286
  0
LINE
  8
_1-2_極細2
  6
CONTINUOUS
 62
    2
 10
338.46480731453681
 20
491.49460751795721
 11
342.25896319917609
 21
487.7004516333177
  0
LINE
  8
_1-2_極細2
  6
CONTINUOUS
 62
    2
 10
338.46480731453681
 20
495.73724820507618
 11
346.5016038862953
 21
487.7004516333177
  0
LINE
  8
_1-2_極細2
  6
CONTINUOUS
 62
    2
 10
338.46480731453681
 20
499.97988889219562
 11
350.74424457341479
 21
487.7004516333177
  0
LINE
  8
_1-2_極細2
  6
CONTINUOUS
 62
    2
 10
338.46480731453681
 20
504.22252957931505
 11
351.7148073012882
 21
490.97252959256366
  0
LINE
  8
_1-2_極細2
  6
CONTINUOUS
 62
    2
 10
338.46480731453681
 20
508.46517026643426
 11
351.7148073012882
 21
495.21517027968264
  0
LINE
  8
_1-2_極細2
  6
CONTINUOUS
 62
    2
 10
338.46480731453681
 20
512.70781095355346
 11
351.7148073012882
 21
499.45781096680207
  0
LINE
  8
_1-2_極細2
  6
CONTINUOUS
 62
    2
 10
338.46480731453681
 20
516.95045164067278
 11
351.7148073012882
 21
503.70045165392139
  0
LINE
  8
_1-2_極細2
  6
CONTINUOUS
 62
    2
 10
310.03362413323174
 20
549.62427550909752
 11
321.63863120471689
 21
538.01926843761237
  0
LINE
  8
_1-2_極細2
  6
CONTINUOUS
 62
    2
 10
338.46480731453681
 20
521.19309232779221
 11
351.7148073012882
 21
507.94309234104082
  0
LINE
  8
_1-2_極細2
  6
CONTINUOUS
 62
    2
 10
309.71480734328708
 20
554.18573298616172
 11
326.20008868338488
 21
537.70045164606358
  0
LINE
  8
_1-2_極細2
  6
CONTINUOUS
 62
    2
 10
338.46480731453681
 20
525.43573301491142
 11
351.7148073012882
 21
512.18573302816003
  0
LINE
  8
_1-2_極細2
  6
CONTINUOUS
 62
    2
 10
309.71480734328708
 20
558.42837367328116
 11
330.44272937508623
 21
537.70045164148155
  0
LINE
  8
_1-2_極細2
  6
CONTINUOUS
 62
    2
 10
338.46480731453681
 20
529.67837370203085
 11
351.7148073012882
 21
516.42837371527946
  0
LINE
  8
_1-2_極細2
  6
CONTINUOUS
 62
    2
 10
310.68537007116021
 20
561.70045163252701
 11
334.68537006678741
 21
537.70045163689963
  0
LINE
  8
_1-2_極細2
  6
CONTINUOUS
 62
    2
 10
338.46480731453681
 20
533.92101438915006
 11
351.7148073012882
 21
520.67101440239867
  0
LINE
  8
_1-2_極細2
  6
CONTINUOUS
 62
    2
 10
314.92801075827941
 20
561.70045163252701
 11
351.7148073012882
 21
524.91365508951799
  0
LINE
  8
_1-2_極細2
  6
CONTINUOUS
 62
    2
 10
319.17065144539862
 20
561.70045163252701
 11
351.7148073012882
 21
529.15629577663719
  0
LINE
  8
_1-2_極細2
  6
CONTINUOUS
 62
    2
 10
323.41329213251782
 20
561.70045163252701
 11
351.7148073012882
 21
533.3989364637564
  0
LINE
  8
_1-2_極細2
  6
CONTINUOUS
 62
    2
 10
327.65593281963731
 20
561.70045163252701
 11
351.7148073012882
 21
537.64157715087583
  0
LINE
  8
_1-2_極細2
  6
CONTINUOUS
 62
    2
 10
331.89857350675652
 20
561.70045163252701
 11
346.99683042351126
 21
546.60219471577227
  0
LINE
  8
_1-2_極細2
  6
CONTINUOUS
 62
    2
 10
336.14121419387573
 20
561.70045163252701
 11
342.21421611369635
 21
555.62744971270638
  0
LINE
  8
_1-2_極細2
  6
CONTINUOUS
 62
    2
 10
348.86913625523363
 20
487.7004516333177
 11
351.7148073012882
 21
490.54612267937227
  0
LINE
  8
_1-2_極細2
  6
CONTINUOUS
 62
    2
 10
344.62649556811425
 20
487.7004516333177
 11
351.7148073012882
 21
494.78876336649171
  0
LINE
  8
_1-2_極細2
  6
CONTINUOUS
 62
    2
 10
340.38385488099505
 20
487.7004516333177
 11
351.7148073012882
 21
499.03140405361069
  0
LINE
  8
_1-2_極細2
  6
CONTINUOUS
 62
    2
 10
338.46480731453681
 20
490.02404475397873
 11
351.7148073012882
 21
503.27404474073012
  0
LINE
  8
_1-2_極細2
  6
CONTINUOUS
 62
    2
 10
338.46480731453681
 20
494.26668544109816
 11
351.7148073012882
 21
507.51668542784932
  0
LINE
  8
_1-2_極細2
  6
CONTINUOUS
 62
    2
 10
338.46480731453681
 20
498.50932612821748
 11
351.7148073012882
 21
511.75932611496853
  0
LINE
  8
_1-2_極細2
  6
CONTINUOUS
 62
    2
 10
338.46480731453681
 20
502.75196681533669
 11
351.7148073012882
 21
516.00196680208796
  0
LINE
  8
_1-2_極細2
  6
CONTINUOUS
 62
    2
 10
338.46480731453681
 20
506.99460750245589
 11
351.7148073012882
 21
520.24460748920717
  0
LINE
  8
_1-2_極細2
  6
CONTINUOUS
 62
    2
 10
338.46480731453681
 20
511.23724818957533
 11
351.7148073012882
 21
524.48724817632637
  0
LINE
  8
_1-2_極細2
  6
CONTINUOUS
 62
    2
 10
338.46480731453681
 20
515.47988887669453
 11
351.7148073012882
 21
528.72988886344569
  0
LINE
  8
_1-2_極細2
  6
CONTINUOUS
 62
    2
 10
338.46480731453681
 20
519.72252956381374
 11
351.7148073012882
 21
532.9725295505649
  0
LINE
  8
_1-2_極細2
  6
CONTINUOUS
 62
    2
 10
338.46480731453681
 20
523.96517025093317
 11
351.7148073012882
 21
537.21517023768411
  0
LINE
  8
_1-2_極細2
  6
CONTINUOUS
 62
    2
 10
338.46480731453681
 20
528.20781093805238
 11
350.41284387316364
 21
540.15584749667892
  0
LINE
  8
_1-2_極細2
  6
CONTINUOUS
 62
    2
 10
338.46480731453681
 20
532.45045162517158
 11
348.94332575919208
 21
542.92897006982685
  0
LINE
  8
_1-2_極細2
  6
CONTINUOUS
 62
    2
 10
338.46480731453681
 20
536.6930923122909
 11
347.47380764522063
 21
545.70209264297443
  0
LINE
  8
_1-2_極細2
  6
CONTINUOUS
 62
    2
 10
335.22952595143863
 20
537.70045163631187
 11
346.00428953124901
 21
548.47521521612214
  0
LINE
  8
_1-2_極細2
  6
CONTINUOUS
 62
    2
 10
330.98688526890129
 20
537.70045164089379
 11
344.53477141727745
 21
551.24833778926995
  0
LINE
  8
_1-2_極細2
  6
CONTINUOUS
 62
    2
 10
326.74424458636423
 20
537.70045164547594
 11
343.06525330330601
 21
554.02146036241766
  0
LINE
  8
_1-2_極細2
  6
CONTINUOUS
 62
    2
 10
322.64508217566583
 20
537.84392992189692
 11
341.59573518933439
 21
556.79458293556536
  0
LINE
  8
_1-2_極細2
  6
CONTINUOUS
 62
    2
 10
319.27867482686366
 20
538.72016326021401
 11
340.12621707536283
 21
559.56770550871317
  0
LINE
  8
_1-2_極細2
  6
CONTINUOUS
 62
    2
 10
316.47931239319291
 20
540.16344151366252
 11
338.01632251205729
 21
561.70045163252701
  0
LINE
  8
_1-2_極細2
  6
CONTINUOUS
 62
    2
 10
314.13768371920384
 20
542.06445352679293
 11
333.77368182493825
 21
561.70045163252701
  0
LINE
  8
_1-2_極細2
  6
CONTINUOUS
 62
    2
 10
312.22465394950575
 20
544.39406444421377
 11
329.53104113781887
 21
561.70045163252701
  0
LINE
  8
_1-2_極細2
  6
CONTINUOUS
 62
    2
 10
310.76769837538649
 20
547.179749557214
 11
325.28840045069967
 21
561.70045163252701
  0
LINE
  8
_1-2_極細2
  6
CONTINUOUS
 62
    2
 10
309.87300382645259
 20
550.52769569539953
 11
321.04575976358035
 21
561.70045163252701
  0
LINE
  8
_1-2_極細2
  6
CONTINUOUS
 62
    2
 10
309.71480734328708
 20
554.612139899353
 11
316.80311907646114
 21
561.70045163252701
  0
LINE
  8
_1-2_極細2
  6
CONTINUOUS
 62
    2
 10
309.71480734328708
 20
558.8547805864722
 11
312.56047838934165
 21
561.70045163252701
  0
LINE
  8
_1-2_極細2
  6
CONTINUOUS
 62
    2
 10
349.43236709537445
 20
566.70045163252723
 11
350.20921187791214
 21
567.47729641506487
  0
LINE
  8
_1-2_極細2
  6
CONTINUOUS
 62
    2
 10
348.018153533001
 20
566.70045163252723
 11
349.62982381181473
 21
568.31212191134114
  0
LINE
  8
_1-2_極細2
  6
CONTINUOUS
 62
    2
 10
346.60393997062812
 20
566.70045163252723
 11
348.97776411147305
 21
569.07427577337216
  0
LINE
  8
_1-2_極細2
  6
CONTINUOUS
 62
    2
 10
345.18972640825524
 20
566.70045163252723
 11
348.25473466798627
 21
569.76545989225804
  0
LINE
  8
_1-2_極細2
  6
CONTINUOUS
 62
    2
 10
343.77551284588236
 20
566.70045163252723
 11
347.4602487735072
 21
570.38518756015208
  0
LINE
  8
_1-2_極細2
  6
CONTINUOUS
 62
    2
 10
342.36129928350874
 20
566.70045163252723
 11
346.59155378393876
 21
570.93070613295708
  0
LINE
  8
_1-2_極細2
  6
CONTINUOUS
 62
    2
 10
340.94708572113586
 20
566.70045163252723
 11
345.64317001229739
 21
571.39653592368859
  0
LINE
  8
_1-2_極細2
  6
CONTINUOUS
 62
    2
 10
339.53287215876298
 20
566.70045163252723
 11
344.60584868517941
 21
571.77342815894349
  0
LINE
  8
_1-2_極細2
  6
CONTINUOUS
 62
    2
 10
338.11865859639011
 20
566.70045163252723
 11
343.46441299821959
 21
572.04620603435683
  0
LINE
  8
_1-2_極細2
  6
CONTINUOUS
 62
    2
 10
336.70444503401683
 20
566.70045163252723
 11
342.19300483650073
 21
572.18901143501034
  0
LINE
  8
_1-2_極細2
  6
CONTINUOUS
 62
    2
 10
335.29023147164395
 20
566.70045163252723
 11
340.79023146195453
 21
572.20045162283782
  0
LINE
  8
_1-2_極細2
  6
CONTINUOUS
 62
    2
 10
333.87601790927107
 20
566.70045163252723
 11
339.37601789998735
 21
572.20045162324368
  0
LINE
  8
_1-2_極細2
  6
CONTINUOUS
 62
    2
 10
332.46180434689819
 20
566.70045163252723
 11
337.96180433802033
 21
572.20045162364931
  0
LINE
  8
_1-2_極細2
  6
CONTINUOUS
 62
    2
 10
331.04759078452474
 20
566.70045163252723
 11
336.54759077605291
 21
572.2004516240554
  0
LINE
  8
_1-2_極細2
  6
CONTINUOUS
 62
    2
 10
329.63337722215186
 20
566.70045163252723
 11
335.1333772140859
 21
572.20045162446104
  0
LINE
  8
_1-2_極細2
  6
CONTINUOUS
 62
    2
 10
328.21916365977899
 20
566.70045163252723
 11
333.71916365211888
 21
572.20045162486667
  0
LINE
  8
_1-2_極細2
  6
CONTINUOUS
 62
    2
 10
326.80495009740611
 20
566.70045163252723
 11
332.30495009015112
 21
572.20045162527254
  0
LINE
  8
_1-2_極細2
  6
CONTINUOUS
 62
    2
 10
325.39073653503266
 20
566.70045163252723
 11
330.89073652818428
 21
572.2004516256784
  0
LINE
  8
_1-2_極細2
  6
CONTINUOUS
 62
    2
 10
323.97652297265978
 20
566.70045163252723
 11
329.47652296621726
 21
572.20045162608426
  0
LINE
  8
_1-2_極細2
  6
CONTINUOUS
 62
    2
 10
322.5623094102869
 20
566.70045163252723
 11
328.06230940424967
 21
572.20045162649012
  0
LINE
  8
_1-2_極細2
  6
CONTINUOUS
 62
    2
 10
321.14809584791402
 20
566.70045163252723
 11
326.64809584228266
 21
572.20045162689598
  0
LINE
  8
_1-2_極細2
  6
CONTINUOUS
 62
    2
 10
319.7338822855404
 20
566.70045163252723
 11
325.23388228031564
 21
572.20045162730185
  0
LINE
  8
_1-2_極細2
  6
CONTINUOUS
 62
    2
 10
318.31966872316752
 20
566.70045163252723
 11
323.81966871834788
 21
572.20045162770759
  0
LINE
  8
_1-2_極細2
  6
CONTINUOUS
 62
    2
 10
316.90545516079465
 20
566.70045163252723
 11
322.40545515638087
 21
572.20045162811346
  0
LINE
  8
_1-2_極細2
  6
CONTINUOUS
 62
    2
 10
315.49124159842177
 20
566.70045163252723
 11
320.99124159441385
 21
572.20045162851932
  0
LINE
  8
_1-2_極細2
  6
CONTINUOUS
 62
    2
 10
314.07702803604849
 20
566.70045163252723
 11
319.57702803244644
 21
572.20045162892495
  0
LINE
  8
_1-2_極細2
  6
CONTINUOUS
 62
    2
 10
312.66281447367561
 20
566.70045163252723
 11
318.16281447047942
 21
572.20045162933081
  0
LINE
  8
_1-2_極細2
  6
CONTINUOUS
 62
    2
 10
311.24860091130273
 20
566.70045163252723
 11
316.7486009085124
 21
572.20045162973668
  0
LINE
  8
_1-2_極細2
  6
CONTINUOUS
 62
    2
 10
309.83438734892985
 20
566.70045163252723
 11
315.33438734654482
 21
572.20045163014254
  0
LINE
  8
_1-2_極細2
  6
CONTINUOUS
 62
    2
 10
308.46480734453689
 20
566.74508519050767
 11
313.9201737845778
 21
572.20045163054817
  0
LINE
  8
_1-2_極細2
  6
CONTINUOUS
 62
    2
 10
308.46480734453689
 20
568.15929875288055
 11
312.50596022261061
 21
572.20045163095426
  0
LINE
  8
_1-2_極細2
  6
CONTINUOUS
 62
    2
 10
308.46480734453689
 20
569.57351231525365
 11
311.0917466606432
 21
572.2004516313599
  0
LINE
  8
_1-2_極細2
  6
CONTINUOUS
 62
    2
 10
308.46480734453689
 20
570.98772587762664
 11
309.67753309867618
 21
572.20045163176565
  0
LINE
  8
_1-2_極細2
  6
CONTINUOUS
 62
    2
 10
350.5985750237258
 20
566.79160301664297
 11
346.30595869535824
 21
571.08421934501007
  0
LINE
  8
_1-2_極細2
  6
CONTINUOUS
 62
    2
 10
349.27551284546809
 20
566.70045163252723
 11
344.05262092423385
 21
571.92334355376147
  0
LINE
  8
_1-2_極細2
  6
CONTINUOUS
 62
    2
 10
347.86129928309521
 20
566.70045163252723
 11
342.38369490166491
 21
572.17805601395753
  0
LINE
  8
_1-2_極細2
  6
CONTINUOUS
 62
    2
 10
346.44708572072233
 20
566.70045163252723
 11
340.94708573045665
 21
572.20045162279268
  0
LINE
  8
_1-2_極細2
  6
CONTINUOUS
 62
    2
 10
345.03287215834945
 20
566.70045163252723
 11
339.53287216767791
 21
572.20045162319855
  0
LINE
  8
_1-2_極細2
  6
CONTINUOUS
 62
    2
 10
343.61865859597657
 20
566.70045163252723
 11
338.11865860489917
 21
572.20045162360441
  0
LINE
  8
_1-2_極細2
  6
CONTINUOUS
 62
    2
 10
342.20444503360369
 20
566.70045163252723
 11
336.70444504212043
 21
572.20045162401004
  0
LINE
  8
_1-2_極細2
  6
CONTINUOUS
 62
    2
 10
340.79023147123081
 20
566.70045163252723
 11
335.29023147934168
 21
572.2004516244159
  0
LINE
  8
_1-2_極細2
  6
CONTINUOUS
 62
    2
 10
339.37601790885793
 20
566.70045163252723
 11
333.87601791656294
 21
572.20045162482199
  0
LINE
  8
_1-2_極細2
  6
CONTINUOUS
 62
    2
 10
337.96180434648431
 20
566.70045163252723
 11
332.4618043537842
 21
572.20045162522763
  0
LINE
  8
_1-2_極細2
  6
CONTINUOUS
 62
    2
 10
336.54759078411143
 20
566.70045163252723
 11
331.04759079100546
 21
572.20045162563338
  0
LINE
  8
_1-2_極細2
  6
CONTINUOUS
 62
    2
 10
335.13337722173856
 20
566.70045163252723
 11
329.63337722822672
 21
572.20045162603935
  0
LINE
  8
_1-2_極細2
  6
CONTINUOUS
 62
    2
 10
333.71916365936568
 20
566.70045163252723
 11
328.21916366544798
 21
572.2004516264451
  0
LINE
  8
_1-2_極細2
  6
CONTINUOUS
 62
    2
 10
332.3049500969928
 20
566.70045163252723
 11
326.80495010266924
 21
572.20045162685096
  0
LINE
  8
_1-2_極細2
  6
CONTINUOUS
 62
    2
 10
330.89073653461992
 20
566.70045163252723
 11
325.3907365398905
 21
572.20045162725683
  0
LINE
  8
_1-2_極細2
  6
CONTINUOUS
 62
    2
 10
329.47652297224704
 20
566.70045163252723
 11
323.97652297711176
 21
572.20045162766269
  0
LINE
  8
_1-2_極細2
  6
CONTINUOUS
 62
    2
 10
328.06230940987416
 20
566.70045163252723
 11
322.56230941433301
 21
572.20045162806855
  0
LINE
  8
_1-2_極細2
  6
CONTINUOUS
 62
    2
 10
326.64809584750088
 20
566.70045163252723
 11
321.14809585155427
 21
572.20045162847418
  0
LINE
  8
_1-2_極細2
  6
CONTINUOUS
 62
    2
 10
325.233882285128
 20
566.70045163252723
 11
319.73388228877553
 21
572.20045162888027
  0
LINE
  8
_1-2_極細2
  6
CONTINUOUS
 62
    2
 10
323.81966872275513
 20
566.70045163252723
 11
318.31966872599622
 21
572.20045162928568
  0
LINE
  8
_1-2_極細2
  6
CONTINUOUS
 62
    2
 10
322.40545516038225
 20
566.70045163252723
 11
316.90545516321805
 21
572.20045162969154
  0
LINE
  8
_1-2_極細2
  6
CONTINUOUS
 62
    2
 10
320.99124159800937
 20
566.70045163252723
 11
315.49124160043857
 21
572.2004516300974
  0
LINE
  8
_1-2_極細2
  6
CONTINUOUS
 62
    2
 10
319.57702803563649
 20
566.70045163252723
 11
314.07702803765983
 21
572.20045163050327
  0
LINE
  8
_1-2_極細2
  6
CONTINUOUS
 62
    2
 10
318.16281447326361
 20
566.70045163252723
 11
312.66281447488109
 21
572.20045163090913
  0
LINE
  8
_1-2_極細2
  6
CONTINUOUS
 62
    2
 10
316.74860091089073
 20
566.70045163252723
 11
311.24860091210252
 21
572.20045163131499
  0
LINE
  8
_1-2_極細2
  6
CONTINUOUS
 62
    2
 10
315.33438734851728
 20
566.70045163252723
 11
309.83438734932378
 21
572.20045163172074
  0
LINE
  8
_1-2_極細2
  6
CONTINUOUS
 62
    2
 10
313.9201737861444
 20
566.70045163252723
 11
308.46480734453689
 21
572.15581807413469
  0
LINE
  8
_1-2_極細2
  6
CONTINUOUS
 62
    2
 10
312.50596022377152
 20
566.70045163252723
 11
308.46480734453689
 21
570.74160451176169
  0
LINE
  8
_1-2_極細2
  6
CONTINUOUS
 62
    2
 10
311.09174666139864
 20
566.70045163252723
 11
308.46480734453689
 21
569.32739094938881
  0
LINE
  8
_1-2_極細2
  6
CONTINUOUS
 62
    2
 10
309.67753309902577
 20
566.70045163252723
 11
308.46480734453689
 21
567.91317738701571
  0
LINE
  8
_1-2_極細2
  6
CONTINUOUS
 62
    2
 10
627.73919372220371
 20
566.70045163252723
 11
628.46480702453755
 21
567.42606493486107
  0
LINE
  8
_1-2_極細2
  6
CONTINUOUS
 62
    2
 10
626.32498015983083
 20
566.70045163252723
 11
628.46480702453755
 21
568.84027849723395
  0
LINE
  8
_1-2_極細2
  6
CONTINUOUS
 62
    2
 10
624.91076659745795
 20
566.70045163252723
 11
628.46480702453755
 21
570.25449205960695
  0
LINE
  8
_1-2_極細2
  6
CONTINUOUS
 62
    2
 10
623.49655303508507
 20
566.70045163252723
 11
628.46480702453755
 21
571.66870562197983
  0
LINE
  8
_1-2_極細2
  6
CONTINUOUS
 62
    2
 10
622.08233947271196
 20
566.70045163252723
 11
627.58233947265717
 21
572.20045163247232
  0
LINE
  8
_1-2_極細2
  6
CONTINUOUS
 62
    2
 10
620.66812591033909
 20
566.70045163252723
 11
626.16812591028429
 21
572.20045163247232
  0
LINE
  8
_1-2_極細2
  6
CONTINUOUS
 62
    2
 10
619.25391234796621
 20
566.70045163252723
 11
624.75391234791073
 21
572.20045163247232
  0
LINE
  8
_1-2_極細2
  6
CONTINUOUS
 62
    2
 10
617.83969878559333
 20
566.70045163252723
 11
623.33969878553785
 21
572.20045163247232
  0
LINE
  8
_1-2_極細2
  6
CONTINUOUS
 62
    2
 10
616.42548522321954
 20
566.70045163252723
 11
621.92548522316497
 21
572.20045163247232
  0
LINE
  8
_1-2_極細2
  6
CONTINUOUS
 62
    2
 10
615.01127166084666
 20
566.70045163252723
 11
620.51127166079164
 21
572.20045163247232
  0
LINE
  8
_1-2_極細2
  6
CONTINUOUS
 62
    2
 10
613.59705809847378
 20
566.70045163252723
 11
619.09705809841876
 21
572.20045163247232
  0
LINE
  8
_1-2_極細2
  6
CONTINUOUS
 62
    2
 10
612.1828445361009
 20
566.70045163252723
 11
617.68284453604588
 21
572.20045163247232
  0
LINE
  8
_1-2_極細2
  6
CONTINUOUS
 62
    2
 10
610.76863097372734
 20
566.70045163252723
 11
616.268630973673
 21
572.20045163247232
  0
LINE
  8
_1-2_極細2
  6
CONTINUOUS
 62
    2
 10
609.35441741135446
 20
566.70045163252723
 11
614.85441741130012
 21
572.20045163247232
  0
LINE
  8
_1-2_極細2
  6
CONTINUOUS
 62
    2
 10
607.94020384898158
 20
566.70045163252723
 11
613.44020384892701
 21
572.20045163247232
  0
LINE
  8
_1-2_極細2
  6
CONTINUOUS
 62
    2
 10
606.5259902866087
 20
566.70045163252723
 11
612.02599028655413
 21
572.20045163247232
  0
LINE
  8
_1-2_極細2
  6
CONTINUOUS
 62
    2
 10
605.11177672423537
 20
566.70045163252723
 11
610.61177672418125
 21
572.20045163247232
  0
LINE
  8
_1-2_極細2
  6
CONTINUOUS
 62
    2
 10
603.69756316186249
 20
566.70045163252723
 11
609.19756316180838
 21
572.20045163247232
  0
LINE
  8
_1-2_極細2
  6
CONTINUOUS
 62
    2
 10
602.28334959948961
 20
566.70045163252723
 11
607.78334959943459
 21
572.20045163247232
  0
LINE
  8
_1-2_極細2
  6
CONTINUOUS
 62
    2
 10
600.86913603711673
 20
566.70045163252723
 11
606.36913603706171
 21
572.20045163247232
  0
LINE
  8
_1-2_極細2
  6
CONTINUOUS
 62
    2
 10
599.45492247474317
 20
566.70045163252723
 11
604.95492247468883
 21
572.20045163247232
  0
LINE
  8
_1-2_極細2
  6
CONTINUOUS
 62
    2
 10
598.04070891237029
 20
566.70045163252723
 11
603.54070891231595
 21
572.20045163247232
  0
LINE
  8
_1-2_極細2
  6
CONTINUOUS
 62
    2
 10
596.62649534999741
 20
566.70045163252723
 11
602.12649534994239
 21
572.20045163247232
  0
LINE
  8
_1-2_極細2
  6
CONTINUOUS
 62
    2
 10
595.21228178762453
 20
566.70045163252723
 11
600.71228178756951
 21
572.20045163247232
  0
LINE
  8
_1-2_極細2
  6
CONTINUOUS
 62
    2
 10
593.79806822525154
 20
566.70045163252723
 11
599.29806822519663
 21
572.20045163247232
  0
LINE
  8
_1-2_極細2
  6
CONTINUOUS
 62
    2
 10
592.38385466287866
 20
566.70045163252723
 11
597.88385466282375
 21
572.20045163247232
  0
LINE
  8
_1-2_極細2
  6
CONTINUOUS
 62
    2
 10
590.96964110050578
 20
566.70045163252723
 11
596.46964110045042
 21
572.20045163247232
  0
LINE
  8
_1-2_極細2
  6
CONTINUOUS
 62
    2
 10
589.5554275381329
 20
566.70045163252723
 11
595.05542753807754
 21
572.20045163247232
  0
LINE
  8
_1-2_極細2
  6
CONTINUOUS
 62
    2
 10
588.141213975759
 20
566.70045163252723
 11
593.64121397570466
 21
572.20045163247232
  0
LINE
  8
_1-2_極細2
  6
CONTINUOUS
 62
    2
 10
586.72700041338612
 20
566.70045163252723
 11
592.22700041333178
 21
572.20045163247232
  0
LINE
  8
_1-2_極細2
  6
CONTINUOUS
 62
    2
 10
585.31278685101324
 20
566.70045163252723
 11
590.81278685095822
 21
572.20045163247232
  0
LINE
  8
_1-2_極細2
  6
CONTINUOUS
 62
    2
 10
583.89857328864036
 20
566.70045163252723
 11
589.39857328858534
 21
572.20045163247232
  0
LINE
  8
_1-2_極細2
  6
CONTINUOUS
 62
    2
 10
582.48435972626703
 20
566.70045163252723
 11
587.98435972621246
 21
572.20045163247232
  0
LINE
  8
_1-2_極細2
  6
CONTINUOUS
 62
    2
 10
581.07014616389415
 20
566.70045163252723
 11
586.57014616383958
 21
572.20045163247232
  0
LINE
  8
_1-2_極細2
  6
CONTINUOUS
 62
    2
 10
579.65593260152127
 20
566.70045163252723
 11
585.15593260146659
 21
572.20045163247232
  0
LINE
  8
_1-2_極細2
  6
CONTINUOUS
 62
    2
 10
578.24171903914839
 20
566.70045163252723
 11
583.74171903909371
 21
572.20045163247232
  0
LINE
  8
_1-2_極細2
  6
CONTINUOUS
 62
    2
 10
576.82750547677483
 20
566.70045163252723
 11
582.32750547672083
 21
572.20045163247232
  0
LINE
  8
_1-2_極細2
  6
CONTINUOUS
 62
    2
 10
575.41329191440195
 20
566.70045163252723
 11
580.91329191434795
 21
572.20045163247232
  0
LINE
  8
_1-2_極細2
  6
CONTINUOUS
 62
    2
 10
573.99907835202907
 20
566.70045163252723
 11
579.49907835197405
 21
572.20045163247232
  0
LINE
  8
_1-2_極細2
  6
CONTINUOUS
 62
    2
 10
572.58486478965619
 20
566.70045163252723
 11
578.08486478960117
 21
572.20045163247232
  0
LINE
  8
_1-2_極細2
  6
CONTINUOUS
 62
    2
 10
571.17065122728286
 20
566.70045163252723
 11
576.67065122722829
 21
572.20045163247232
  0
LINE
  8
_1-2_極細2
  6
CONTINUOUS
 62
    2
 10
569.75643766490998
 20
566.70045163252723
 11
575.25643766485541
 21
572.20045163247232
  0
LINE
  8
_1-2_極細2
  6
CONTINUOUS
 62
    2
 10
568.3422241025371
 20
566.70045163252723
 11
573.84222410248208
 21
572.20045163247232
  0
LINE
  8
_1-2_極細2
  6
CONTINUOUS
 62
    2
 10
566.92801054016422
 20
566.70045163252723
 11
572.4280105401092
 21
572.20045163247232
  0
LINE
  8
_1-2_極細2
  6
CONTINUOUS
 62
    2
 10
565.51379697779112
 20
566.70045163252723
 11
571.01379697773632
 21
572.20045163247232
  0
LINE
  8
_1-2_極細2
  6
CONTINUOUS
 62
    2
 10
564.09958341541824
 20
566.70045163252723
 11
569.59958341536344
 21
572.20045163247232
  0
LINE
  8
_1-2_極細2
  6
CONTINUOUS
 62
    2
 10
562.68536985304536
 20
566.70045163252723
 11
568.18536985298988
 21
572.20045163247232
  0
LINE
  8
_1-2_極細2
  6
CONTINUOUS
 62
    2
 10
561.27115629067248
 20
566.70045163252723
 11
566.771156290617
 21
572.20045163247232
  0
LINE
  8
_1-2_極細2
  6
CONTINUOUS
 62
    2
 10
559.85694272829869
 20
566.70045163252723
 11
565.35694272824412
 21
572.20045163247232
  0
LINE
  8
_1-2_極細2
  6
CONTINUOUS
 62
    2
 10
558.44272916592581
 20
566.70045163252723
 11
563.94272916587124
 21
572.20045163247232
  0
LINE
  8
_1-2_極細2
  6
CONTINUOUS
 62
    2
 10
557.02851560355293
 20
566.70045163252723
 11
562.52851560349791
 21
572.20045163247232
  0
LINE
  8
_1-2_極細2
  6
CONTINUOUS
 62
    2
 10
555.61430204118005
 20
566.70045163252723
 11
561.11430204112503
 21
572.20045163247232
  0
LINE
  8
_1-2_極細2
  6
CONTINUOUS
 62
    2
 10
554.20008847880649
 20
566.70045163252723
 11
559.70008847875215
 21
572.20045163247232
  0
LINE
  8
_1-2_極細2
  6
CONTINUOUS
 62
    2
 10
552.78587491643361
 20
566.70045163252723
 11
558.28587491637927
 21
572.20045163247232
  0
LINE
  8
_1-2_極細2
  6
CONTINUOUS
 62
    2
 10
551.37166135406073
 20
566.70045163252723
 11
556.87166135400616
 21
572.20045163247232
  0
LINE
  8
_1-2_極細2
  6
CONTINUOUS
 62
    2
 10
549.95744779168785
 20
566.70045163252723
 11
555.45744779163329
 21
572.20045163247232
  0
LINE
  8
_1-2_極細2
  6
CONTINUOUS
 62
    2
 10
548.54323422931452
 20
566.70045163252723
 11
554.04323422926041
 21
572.20045163247232
  0
LINE
  8
_1-2_極細2
  6
CONTINUOUS
 62
    2
 10
547.12902066694164
 20
566.70045163252723
 11
552.62902066688753
 21
572.20045163247232
  0
LINE
  8
_1-2_極細2
  6
CONTINUOUS
 62
    2
 10
545.71480710456876
 20
566.70045163252723
 11
551.21480710451374
 21
572.20045163247232
  0
LINE
  8
_1-2_極細2
  6
CONTINUOUS
 62
    2
 10
544.30059354219588
 20
566.70045163252723
 11
549.80059354214086
 21
572.20045163247232
  0
LINE
  8
_1-2_極細2
  6
CONTINUOUS
 62
    2
 10
542.88637997982232
 20
566.70045163252723
 11
548.38637997976798
 21
572.20045163247232
  0
LINE
  8
_1-2_極細2
  6
CONTINUOUS
 62
    2
 10
541.47216641744944
 20
566.70045163252723
 11
546.9721664173951
 21
572.20045163247232
  0
LINE
  8
_1-2_極細2
  6
CONTINUOUS
 62
    2
 10
540.05795285507656
 20
566.70045163252723
 11
545.55795285502154
 21
572.20045163247232
  0
LINE
  8
_1-2_極細2
  6
CONTINUOUS
 62
    2
 10
538.64373929270369
 20
566.70045163252723
 11
544.14373929264866
 21
572.20045163247232
  0
LINE
  8
_1-2_極細2
  6
CONTINUOUS
 62
    2
 10
537.22952573033069
 20
566.70045163252723
 11
542.72952573027578
 21
572.20045163247232
  0
LINE
  8
_1-2_極細2
  6
CONTINUOUS
 62
    2
 10
535.81531216795781
 20
566.70045163252723
 11
541.3153121679029
 21
572.20045163247232
  0
LINE
  8
_1-2_極細2
  6
CONTINUOUS
 62
    2
 10
534.40109860558493
 20
566.70045163252723
 11
539.90109860552957
 21
572.20045163247232
  0
LINE
  8
_1-2_極細2
  6
CONTINUOUS
 62
    2
 10
532.98688504321206
 20
566.70045163252723
 11
538.48688504315669
 21
572.20045163247232
  0
LINE
  8
_1-2_極細2
  6
CONTINUOUS
 62
    2
 10
531.57267148083815
 20
566.70045163252723
 11
537.07267148078381
 21
572.20045163247232
  0
LINE
  8
_1-2_極細2
  6
CONTINUOUS
 62
    2
 10
530.15845791846527
 20
566.70045163252723
 11
535.65845791841093
 21
572.20045163247232
  0
LINE
  8
_1-2_極細2
  6
CONTINUOUS
 62
    2
 10
528.74424435609239
 20
566.70045163252723
 11
534.24424435603737
 21
572.20045163247232
  0
LINE
  8
_1-2_極細2
  6
CONTINUOUS
 62
    2
 10
527.33003079371952
 20
566.70045163252723
 11
532.83003079366449
 21
572.20045163247232
  0
LINE
  8
_1-2_極細2
  6
CONTINUOUS
 62
    2
 10
525.91581723134618
 20
566.70045163252723
 11
531.41581723129161
 21
572.20045163247232
  0
LINE
  8
_1-2_極細2
  6
CONTINUOUS
 62
    2
 10
524.5016036689733
 20
566.70045163252723
 11
530.00160366891873
 21
572.20045163247232
  0
LINE
  8
_1-2_極細2
  6
CONTINUOUS
 62
    2
 10
523.08739010660042
 20
566.70045163252723
 11
528.58739010654574
 21
572.20045163247232
  0
LINE
  8
_1-2_極細2
  6
CONTINUOUS
 62
    2
 10
521.67317654422754
 20
566.70045163252723
 11
527.17317654417286
 21
572.20045163247232
  0
LINE
  8
_1-2_極細2
  6
CONTINUOUS
 62
    2
 10
520.25896298185398
 20
566.70045163252723
 11
525.75896298179998
 21
572.20045163247232
  0
LINE
  8
_1-2_極細2
  6
CONTINUOUS
 62
    2
 10
518.8447494194811
 20
566.70045163252723
 11
524.3447494194271
 21
572.20045163247232
  0
LINE
  8
_1-2_極細2
  6
CONTINUOUS
 62
    2
 10
517.43053585710823
 20
566.70045163252723
 11
522.9305358570532
 21
572.20045163247232
  0
LINE
  8
_1-2_極細2
  6
CONTINUOUS
 62
    2
 10
516.01632229473535
 20
566.70045163252723
 11
521.51632229468032
 21
572.20045163247232
  0
LINE
  8
_1-2_極細2
  6
CONTINUOUS
 62
    2
 10
514.60210873236201
 20
566.70045163252723
 11
520.10210873230744
 21
572.20045163247232
  0
LINE
  8
_1-2_極細2
  6
CONTINUOUS
 62
    2
 10
513.18789516998913
 20
566.70045163252723
 11
518.68789516993456
 21
572.20045163247232
  0
LINE
  8
_1-2_極細2
  6
CONTINUOUS
 62
    2
 10
511.77368160761631
 20
566.70045163252723
 11
517.27368160756123
 21
572.20045163247232
  0
LINE
  8
_1-2_極細2
  6
CONTINUOUS
 62
    2
 10
510.35946804524343
 20
566.70045163252723
 11
515.85946804518835
 21
572.20045163247232
  0
LINE
  8
_1-2_極細2
  6
CONTINUOUS
 62
    2
 10
508.94525448287027
 20
566.70045163252723
 11
514.44525448281547
 21
572.20045163247232
  0
LINE
  8
_1-2_極細2
  6
CONTINUOUS
 62
    2
 10
507.53104092049739
 20
566.70045163252723
 11
513.03104092044259
 21
572.20045163247232
  0
LINE
  8
_1-2_極細2
  6
CONTINUOUS
 62
    2
 10
506.11682735812451
 20
566.70045163252723
 11
511.61682735806903
 21
572.20045163247232
  0
LINE
  8
_1-2_極細2
  6
CONTINUOUS
 62
    2
 10
504.70261379575163
 20
566.70045163252723
 11
510.20261379569615
 21
572.20045163247232
  0
LINE
  8
_1-2_極細2
  6
CONTINUOUS
 62
    2
 10
503.2884002333779
 20
566.70045163252723
 11
508.78840023332327
 21
572.20045163247232
  0
LINE
  8
_1-2_極細2
  6
CONTINUOUS
 62
    2
 10
501.87418667100502
 20
566.70045163252723
 11
507.37418667095039
 21
572.20045163247232
  0
LINE
  8
_1-2_極細2
  6
CONTINUOUS
 62
    2
 10
500.45997310863214
 20
566.70045163252723
 11
505.95997310857712
 21
572.20045163247232
  0
LINE
  8
_1-2_極細2
  6
CONTINUOUS
 62
    2
 10
499.04575954625926
 20
566.70045163252723
 11
504.54575954620424
 21
572.20045163247232
  0
LINE
  8
_1-2_極細2
  6
CONTINUOUS
 62
    2
 10
497.63154598388564
 20
566.70045163252723
 11
503.13154598383136
 21
572.20045163247232
  0
LINE
  8
_1-2_極細2
  6
CONTINUOUS
 62
    2
 10
496.21733242151276
 20
566.70045163252723
 11
501.71733242145848
 21
572.20045163247232
  0
LINE
  8
_1-2_極細2
  6
CONTINUOUS
 62
    2
 10
494.80311885913989
 20
566.70045163252723
 11
500.30311885908532
 21
572.20045163247232
  0
LINE
  8
_1-2_極細2
  6
CONTINUOUS
 62
    2
 10
493.38890529676701
 20
566.70045163252723
 11
498.88890529671244
 21
572.20045163247232
  0
LINE
  8
_1-2_極細2
  6
CONTINUOUS
 62
    2
 10
491.97469173439373
 20
566.70045163252723
 11
497.47469173433956
 21
572.20045163247232
  0
LINE
  8
_1-2_極細2
  6
CONTINUOUS
 62
    2
 10
490.56047817202085
 20
566.70045163252723
 11
496.06047817196668
 21
572.20045163247232
  0
LINE
  8
_1-2_極細2
  6
CONTINUOUS
 62
    2
 10
489.14626460964797
 20
566.70045163252723
 11
494.64626460959295
 21
572.20045163247232
  0
LINE
  8
_1-2_極細2
  6
CONTINUOUS
 62
    2
 10
487.73205104727509
 20
566.70045163252723
 11
493.23205104722007
 21
572.20045163247232
  0
LINE
  8
_1-2_極細2
  6
CONTINUOUS
 62
    2
 10
486.31783748490147
 20
566.70045163252723
 11
491.81783748484719
 21
572.20045163247232
  0
LINE
  8
_1-2_極細2
  6
CONTINUOUS
 62
    2
 10
484.9036239225286
 20
566.70045163252723
 11
490.40362392247431
 21
572.20045163247232
  0
LINE
  8
_1-2_極細2
  6
CONTINUOUS
 62
    2
 10
483.48941036015572
 20
566.70045163252723
 11
488.98941036010069
 21
572.20045163247232
  0
LINE
  8
_1-2_極細2
  6
CONTINUOUS
 62
    2
 10
482.07519679778284
 20
566.70045163252723
 11
487.57519679772781
 21
572.20045163247232
  0
LINE
  8
_1-2_極細2
  6
CONTINUOUS
 62
    2
 10
480.66098323540984
 20
566.70045163252723
 11
486.16098323535493
 21
572.20045163247232
  0
LINE
  8
_1-2_極細2
  6
CONTINUOUS
 62
    2
 10
479.24676967303697
 20
566.70045163252723
 11
484.74676967298205
 21
572.20045163247232
  0
LINE
  8
_1-2_極細2
  6
CONTINUOUS
 62
    2
 10
477.83255611066409
 20
566.70045163252723
 11
483.33255611060878
 21
572.20045163247232
  0
LINE
  8
_1-2_極細2
  6
CONTINUOUS
 62
    2
 10
476.41834254829121
 20
566.70045163252723
 11
481.9183425482359
 21
572.20045163247232
  0
LINE
  8
_1-2_極細2
  6
CONTINUOUS
 62
    2
 10
475.0041289859173
 20
566.70045163252723
 11
480.50412898586302
 21
572.20045163247232
  0
LINE
  8
_1-2_極細2
  6
CONTINUOUS
 62
    2
 10
473.58991542354443
 20
566.70045163252723
 11
479.08991542349014
 21
572.20045163247232
  0
LINE
  8
_1-2_極細2
  6
CONTINUOUS
 62
    2
 10
472.17570186117155
 20
566.70045163252723
 11
477.67570186111652
 21
572.20045163247232
  0
LINE
  8
_1-2_極細2
  6
CONTINUOUS
 62
    2
 10
470.76148829879867
 20
566.70045163252723
 11
476.26148829874364
 21
572.20045163247232
  0
LINE
  8
_1-2_極細2
  6
CONTINUOUS
 62
    2
 10
469.34727473642539
 20
566.70045163252723
 11
474.84727473637076
 21
572.20045163247232
  0
LINE
  8
_1-2_極細2
  6
CONTINUOUS
 62
    2
 10
468.46480718453734
 20
567.23219764301177
 11
473.43306117399788
 21
572.20045163247232
  0
LINE
  8
_1-2_極細2
  6
CONTINUOUS
 62
    2
 10
468.46480718453734
 20
568.64641120538465
 11
472.01884761162489
 21
572.20045163247232
  0
LINE
  8
_1-2_極細2
  6
CONTINUOUS
 62
    2
 10
468.46480718453734
 20
570.06062476775764
 11
470.60463404925201
 21
572.20045163247232
  0
LINE
  8
_1-2_極細2
  6
CONTINUOUS
 62
    2
 10
468.46480718453734
 20
571.47483833013052
 11
469.19042048687913
 21
572.20045163247232
  0
LINE
  8
_1-2_極細2
  6
CONTINUOUS
 62
    2
 10
628.46480702453755
 20
571.47483833013848
 11
627.73919372220371
 21
572.20045163247232
  0
LINE
  8
_1-2_極細2
  6
CONTINUOUS
 62
    2
 10
628.46480702453755
 20
570.0606247677656
 11
626.32498015983083
 21
572.20045163247232
  0
LINE
  8
_1-2_極細2
  6
CONTINUOUS
 62
    2
 10
628.46480702453755
 20
568.64641120539261
 11
624.91076659745795
 21
572.20045163247232
  0
LINE
  8
_1-2_極細2
  6
CONTINUOUS
 62
    2
 10
628.46480702453755
 20
567.23219764301973
 11
623.49655303508484
 21
572.20045163247232
  0
LINE
  8
_1-2_極細2
  6
CONTINUOUS
 62
    2
 10
627.58233947265717
 20
566.70045163252723
 11
622.08233947271196
 21
572.20045163247232
  0
LINE
  8
_1-2_極細2
  6
CONTINUOUS
 62
    2
 10
626.16812591028429
 20
566.70045163252723
 11
620.66812591033909
 21
572.20045163247232
  0
LINE
  8
_1-2_極細2
  6
CONTINUOUS
 62
    2
 10
624.75391234791141
 20
566.70045163252723
 11
619.25391234796621
 21
572.20045163247232
  0
LINE
  8
_1-2_極細2
  6
CONTINUOUS
 62
    2
 10
623.33969878553785
 20
566.70045163252723
 11
617.83969878559333
 21
572.20045163247232
  0
LINE
  8
_1-2_極細2
  6
CONTINUOUS
 62
    2
 10
621.92548522316497
 20
566.70045163252723
 11
616.42548522322045
 21
572.20045163247232
  0
LINE
  8
_1-2_極細2
  6
CONTINUOUS
 62
    2
 10
620.51127166079209
 20
566.70045163252723
 11
615.01127166084757
 21
572.20045163247232
  0
LINE
  8
_1-2_極細2
  6
CONTINUOUS
 62
    2
 10
619.09705809841921
 20
566.70045163252723
 11
613.59705809847469
 21
572.20045163247232
  0
LINE
  8
_1-2_極細2
  6
CONTINUOUS
 62
    2
 10
617.68284453604633
 20
566.70045163252723
 11
612.1828445361009
 21
572.20045163247232
  0
LINE
  8
_1-2_極細2
  6
CONTINUOUS
 62
    2
 10
616.26863097367345
 20
566.70045163252723
 11
610.76863097372802
 21
572.20045163247232
  0
LINE
  8
_1-2_極細2
  6
CONTINUOUS
 62
    2
 10
614.85441741130057
 20
566.70045163252723
 11
609.35441741135514
 21
572.20045163247232
  0
LINE
  8
_1-2_極細2
  6
CONTINUOUS
 62
    2
 10
613.44020384892769
 20
566.70045163252723
 11
607.94020384898226
 21
572.20045163247232
  0
LINE
  8
_1-2_極細2
  6
CONTINUOUS
 62
    2
 10
612.02599028655436
 20
566.70045163252723
 11
606.52599028660939
 21
572.20045163247232
  0
LINE
  8
_1-2_極細2
  6
CONTINUOUS
 62
    2
 10
610.61177672418148
 20
566.70045163252723
 11
605.11177672423651
 21
572.20045163247232
  0
LINE
  8
_1-2_極細2
  6
CONTINUOUS
 62
    2
 10
609.1975631618086
 20
566.70045163252723
 11
603.69756316186363
 21
572.20045163247232
  0
LINE
  8
_1-2_極細2
  6
CONTINUOUS
 62
    2
 10
607.78334959943572
 20
566.70045163252723
 11
602.28334959949075
 21
572.20045163247232
  0
LINE
  8
_1-2_極細2
  6
CONTINUOUS
 62
    2
 10
606.36913603706284
 20
566.70045163252723
 11
600.86913603711719
 21
572.20045163247232
  0
LINE
  8
_1-2_極細2
  6
CONTINUOUS
 62
    2
 10
604.95492247468997
 20
566.70045163252723
 11
599.45492247474431
 21
572.20045163247232
  0
LINE
  8
_1-2_極細2
  6
CONTINUOUS
 62
    2
 10
603.54070891231709
 20
566.70045163252723
 11
598.04070891237143
 21
572.20045163247232
  0
LINE
  8
_1-2_極細2
  6
CONTINUOUS
 62
    2
 10
602.12649534994421
 20
566.70045163252723
 11
596.62649534999855
 21
572.20045163247232
  0
LINE
  8
_1-2_極細2
  6
CONTINUOUS
 62
    2
 10
600.7122817875711
 20
566.70045163252723
 11
595.21228178762567
 21
572.20045163247232
  0
LINE
  8
_1-2_極細2
  6
CONTINUOUS
 62
    2
 10
599.29806822519822
 20
566.70045163252723
 11
593.79806822525279
 21
572.20045163247232
  0
LINE
  8
_1-2_極細2
  6
CONTINUOUS
 62
    2
 10
597.88385466282534
 20
566.70045163252723
 11
592.38385466287991
 21
572.20045163247232
  0
LINE
  8
_1-2_極細2
  6
CONTINUOUS
 62
    2
 10
596.46964110045246
 20
566.70045163252723
 11
590.96964110050703
 21
572.20045163247232
  0
LINE
  8
_1-2_極細2
  6
CONTINUOUS
 62
    2
 10
595.05542753807958
 20
566.70045163252723
 11
589.5554275381337
 21
572.20045163247232
  0
LINE
  8
_1-2_極細2
  6
CONTINUOUS
 62
    2
 10
593.64121397570671
 20
566.70045163252723
 11
588.14121397576082
 21
572.20045163247232
  0
LINE
  8
_1-2_極細2
  6
CONTINUOUS
 62
    2
 10
592.22700041333383
 20
566.70045163252723
 11
586.72700041338794
 21
572.20045163247232
  0
LINE
  8
_1-2_極細2
  6
CONTINUOUS
 62
    2
 10
590.81278685096095
 20
566.70045163252723
 11
585.31278685101506
 21
572.20045163247232
  0
LINE
  8
_1-2_極細2
  6
CONTINUOUS
 62
    2
 10
589.39857328858716
 20
566.70045163252723
 11
583.89857328864218
 21
572.20045163247232
  0
LINE
  8
_1-2_極細2
  6
CONTINUOUS
 62
    2
 10
587.98435972621428
 20
566.70045163252723
 11
582.4843597262693
 21
572.20045163247232
  0
LINE
  8
_1-2_極細2
  6
CONTINUOUS
 62
    2
 10
586.5701461638414
 20
566.70045163252723
 11
581.07014616389642
 21
572.20045163247232
  0
LINE
  8
_1-2_極細2
  6
CONTINUOUS
 62
    2
 10
585.15593260146852
 20
566.70045163252723
 11
579.65593260152355
 21
572.20045163247232
  0
LINE
  8
_1-2_極細2
  6
CONTINUOUS
 62
    2
 10
583.74171903909564
 20
566.70045163252723
 11
578.24171903914998
 21
572.20045163247232
  0
LINE
  8
_1-2_極細2
  6
CONTINUOUS
 62
    2
 10
582.32750547672276
 20
566.70045163252723
 11
576.82750547677711
 21
572.20045163247232
  0
LINE
  8
_1-2_極細2
  6
CONTINUOUS
 62
    2
 10
580.91329191434988
 20
566.70045163252723
 11
575.41329191440423
 21
572.20045163247232
  0
LINE
  8
_1-2_極細2
  6
CONTINUOUS
 62
    2
 10
579.499078351977
 20
566.70045163252723
 11
573.99907835203135
 21
572.20045163247232
  0
LINE
  8
_1-2_極細2
  6
CONTINUOUS
 62
    2
 10
578.08486478960344
 20
566.70045163252723
 11
572.58486478965847
 21
572.20045163247232
  0
LINE
  8
_1-2_極細2
  6
CONTINUOUS
 62
    2
 10
576.67065122723056
 20
566.70045163252723
 11
571.17065122728559
 21
572.20045163247232
  0
LINE
  8
_1-2_極細2
  6
CONTINUOUS
 62
    2
 10
575.25643766485769
 20
566.70045163252723
 11
569.75643766491271
 21
572.20045163247232
  0
LINE
  8
_1-2_極細2
  6
CONTINUOUS
 62
    2
 10
573.84222410248481
 20
566.70045163252723
 11
568.34222410253983
 21
572.20045163247232
  0
LINE
  8
_1-2_極細2
  6
CONTINUOUS
 62
    2
 10
572.42801054011193
 20
566.70045163252723
 11
566.92801054016684
 21
572.20045163247232
  0
LINE
  8
_1-2_極細2
  6
CONTINUOUS
 62
    2
 10
571.01379697773905
 20
566.70045163252723
 11
565.51379697779396
 21
572.20045163247232
  0
LINE
  8
_1-2_極細2
  6
CONTINUOUS
 62
    2
 10
569.59958341536617
 20
566.70045163252723
 11
564.09958341542108
 21
572.20045163247232
  0
LINE
  8
_1-2_極細2
  6
CONTINUOUS
 62
    2
 10
568.18536985299329
 20
566.70045163252723
 11
562.6853698530482
 21
572.20045163247232
  0
LINE
  8
_1-2_極細2
  6
CONTINUOUS
 62
    2
 10
566.77115629061996
 20
566.70045163252723
 11
561.27115629067532
 21
572.20045163247232
  0
LINE
  8
_1-2_極細2
  6
CONTINUOUS
 62
    2
 10
565.35694272824708
 20
566.70045163252723
 11
559.85694272830244
 21
572.20045163247232
  0
LINE
  8
_1-2_極細2
  6
CONTINUOUS
 62
    2
 10
563.9427291658742
 20
566.70045163252723
 11
558.44272916592956
 21
572.20045163247232
  0
LINE
  8
_1-2_極細2
  6
CONTINUOUS
 62
    2
 10
562.52851560350132
 20
566.70045163252723
 11
557.02851560355668
 21
572.20045163247232
  0
LINE
  8
_1-2_極細2
  6
CONTINUOUS
 62
    2
 10
561.11430204112844
 20
566.70045163252723
 11
555.61430204118278
 21
572.20045163247232
  0
LINE
  8
_1-2_極細2
  6
CONTINUOUS
 62
    2
 10
559.70008847875556
 20
566.70045163252723
 11
554.2000884788099
 21
572.20045163247232
  0
LINE
  8
_1-2_極細2
  6
CONTINUOUS
 62
    2
 10
558.28587491638268
 20
566.70045163252723
 11
552.78587491643702
 21
572.20045163247232
  0
LINE
  8
_1-2_極細2
  6
CONTINUOUS
 62
    2
 10
556.8716613540098
 20
566.70045163252723
 11
551.37166135406414
 21
572.20045163247232
  0
LINE
  8
_1-2_極細2
  6
CONTINUOUS
 62
    2
 10
555.45744779163624
 20
566.70045163252723
 11
549.95744779169127
 21
572.20045163247232
  0
LINE
  8
_1-2_極細2
  6
CONTINUOUS
 62
    2
 10
554.04323422926336
 20
566.70045163252723
 11
548.54323422931839
 21
572.20045163247232
  0
LINE
  8
_1-2_極細2
  6
CONTINUOUS
 62
    2
 10
552.62902066689048
 20
566.70045163252723
 11
547.12902066694551
 21
572.20045163247232
  0
LINE
  8
_1-2_極細2
  6
CONTINUOUS
 62
    2
 10
551.2148071045176
 20
566.70045163252723
 11
545.71480710457263
 21
572.20045163247232
  0
LINE
  8
_1-2_極細2
  6
CONTINUOUS
 62
    2
 10
549.80059354214472
 20
566.70045163252723
 11
544.30059354219929
 21
572.20045163247232
  0
LINE
  8
_1-2_極細2
  6
CONTINUOUS
 62
    2
 10
548.38637997977185
 20
566.70045163252723
 11
542.88637997982642
 21
572.20045163247232
  0
LINE
  8
_1-2_極細2
  6
CONTINUOUS
 62
    2
 10
546.97216641739897
 20
566.70045163252723
 11
541.47216641745354
 21
572.20045163247232
  0
LINE
  8
_1-2_極細2
  6
CONTINUOUS
 62
    2
 10
545.55795285502609
 20
566.70045163252723
 11
540.05795285508066
 21
572.20045163247232
  0
LINE
  8
_1-2_極細2
  6
CONTINUOUS
 62
    2
 10
544.14373929265309
 20
566.70045163252723
 11
538.64373929270778
 21
572.20045163247232
  0
LINE
  8
_1-2_極細2
  6
CONTINUOUS
 62
    2
 10
542.72952573028022
 20
566.70045163252723
 11
537.2295257303349
 21
572.20045163247232
  0
LINE
  8
_1-2_極細2
  6
CONTINUOUS
 62
    2
 10
541.31531216790734
 20
566.70045163252723
 11
535.81531216796202
 21
572.20045163247232
  0
LINE
  8
_1-2_極細2
  6
CONTINUOUS
 62
    2
 10
539.90109860553446
 20
566.70045163252723
 11
534.40109860558914
 21
572.20045163247232
  0
LINE
  8
_1-2_極細2
  6
CONTINUOUS
 62
    2
 10
538.48688504316158
 20
566.70045163252723
 11
532.98688504321558
 21
572.20045163247232
  0
LINE
  8
_1-2_極細2
  6
CONTINUOUS
 62
    2
 10
537.0726714807887
 20
566.70045163252723
 11
531.5726714808427
 21
572.20045163247232
  0
LINE
  8
_1-2_極細2
  6
CONTINUOUS
 62
    2
 10
535.65845791841582
 20
566.70045163252723
 11
530.15845791846982
 21
572.20045163247232
  0
LINE
  8
_1-2_極細2
  6
CONTINUOUS
 62
    2
 10
534.24424435604294
 20
566.70045163252723
 11
528.74424435609694
 21
572.20045163247232
  0
LINE
  8
_1-2_極細2
  6
CONTINUOUS
 62
    2
 10
532.83003079366904
 20
566.70045163252723
 11
527.33003079372406
 21
572.20045163247232
  0
LINE
  8
_1-2_極細2
  6
CONTINUOUS
 62
    2
 10
531.41581723129616
 20
566.70045163252723
 11
525.91581723135118
 21
572.20045163247232
  0
LINE
  8
_1-2_極細2
  6
CONTINUOUS
 62
    2
 10
530.00160366892328
 20
566.70045163252723
 11
524.5016036689783
 21
572.20045163247232
  0
LINE
  8
_1-2_極細2
  6
CONTINUOUS
 62
    2
 10
528.5873901065504
 20
566.70045163252723
 11
523.08739010660543
 21
572.20045163247232
  0
LINE
  8
_1-2_極細2
  6
CONTINUOUS
 62
    2
 10
527.17317654417752
 20
566.70045163252723
 11
521.67317654423209
 21
572.20045163247232
  0
LINE
  8
_1-2_極細2
  6
CONTINUOUS
 62
    2
 10
525.75896298180464
 20
566.70045163252723
 11
520.25896298185921
 21
572.20045163247232
  0
LINE
  8
_1-2_極細2
  6
CONTINUOUS
 62
    2
 10
524.34474941943176
 20
566.70045163252723
 11
518.84474941948633
 21
572.20045163247232
  0
LINE
  8
_1-2_極細2
  6
CONTINUOUS
 62
    2
 10
522.93053585705889
 20
566.70045163252723
 11
517.43053585711345
 21
572.20045163247232
  0
LINE
  8
_1-2_極細2
  6
CONTINUOUS
 62
    2
 10
521.51632229468555
 20
566.70045163252723
 11
516.01632229474058
 21
572.20045163247232
  0
LINE
  8
_1-2_極細2
  6
CONTINUOUS
 62
    2
 10
520.10210873231267
 20
566.70045163252723
 11
514.6021087323677
 21
572.20045163247232
  0
LINE
  8
_1-2_極細2
  6
CONTINUOUS
 62
    2
 10
518.68789516993979
 20
566.70045163252723
 11
513.18789516999482
 21
572.20045163247232
  0
LINE
  8
_1-2_極細2
  6
CONTINUOUS
 62
    2
 10
517.27368160756691
 20
566.70045163252723
 11
511.773681607622
 21
572.20045163247232
  0
LINE
  8
_1-2_極細2
  6
CONTINUOUS
 62
    2
 10
515.85946804519403
 20
566.70045163252723
 11
510.35946804524883
 21
572.20045163247232
  0
LINE
  8
_1-2_極細2
  6
CONTINUOUS
 62
    2
 10
514.44525448282116
 20
566.70045163252723
 11
508.94525448287595
 21
572.20045163247232
  0
LINE
  8
_1-2_極細2
  6
CONTINUOUS
 62
    2
 10
513.03104092044828
 20
566.70045163252723
 11
507.53104092050307
 21
572.20045163247232
  0
LINE
  8
_1-2_極細2
  6
CONTINUOUS
 62
    2
 10
511.61682735807545
 20
566.70045163252723
 11
506.11682735813019
 21
572.20045163247232
  0
LINE
  8
_1-2_極細2
  6
CONTINUOUS
 62
    2
 10
510.20261379570184
 20
566.70045163252723
 11
504.70261379575732
 21
572.20045163247232
  0
LINE
  8
_1-2_極細2
  6
CONTINUOUS
 62
    2
 10
508.78840023332896
 20
566.70045163252723
 11
503.28840023338444
 21
572.20045163247232
  0
LINE
  8
_1-2_極細2
  6
CONTINUOUS
 62
    2
 10
507.37418667095608
 20
566.70045163252723
 11
501.87418667101156
 21
572.20045163247232
  0
LINE
  8
_1-2_極細2
  6
CONTINUOUS
 62
    2
 10
505.9599731085832
 20
566.70045163252723
 11
500.45997310863868
 21
572.20045163247232
  0
LINE
  8
_1-2_極細2
  6
CONTINUOUS
 62
    2
 10
504.54575954621032
 20
566.70045163252723
 11
499.04575954626495
 21
572.20045163247232
  0
LINE
  8
_1-2_極細2
  6
CONTINUOUS
 62
    2
 10
503.13154598383744
 20
566.70045163252723
 11
497.63154598389207
 21
572.20045163247232
  0
LINE
  8
_1-2_極細2
  6
CONTINUOUS
 62
    2
 10
501.71733242146456
 20
566.70045163252723
 11
496.21733242151919
 21
572.20045163247232
  0
LINE
  8
_1-2_極細2
  6
CONTINUOUS
 62
    2
 10
500.30311885909168
 20
566.70045163252723
 11
494.80311885914631
 21
572.20045163247232
  0
LINE
  8
_1-2_極細2
  6
CONTINUOUS
 62
    2
 10
498.88890529671841
 20
566.70045163252723
 11
493.38890529677343
 21
572.20045163247232
  0
LINE
  8
_1-2_極細2
  6
CONTINUOUS
 62
    2
 10
497.47469173434553
 20
566.70045163252723
 11
491.97469173440055
 21
572.20045163247232
  0
LINE
  8
_1-2_極細2
  6
CONTINUOUS
 62
    2
 10
496.06047817197265
 20
566.70045163252723
 11
490.56047817202767
 21
572.20045163247232
  0
LINE
  8
_1-2_極細2
  6
CONTINUOUS
 62
    2
 10
494.64626460959977
 20
566.70045163252723
 11
489.14626460965479
 21
572.20045163247232
  0
LINE
  8
_1-2_極細2
  6
CONTINUOUS
 62
    2
 10
493.23205104722689
 20
566.70045163252723
 11
487.73205104728117
 21
572.20045163247232
  0
LINE
  8
_1-2_極細2
  6
CONTINUOUS
 62
    2
 10
491.81783748485401
 20
566.70045163252723
 11
486.3178374849083
 21
572.20045163247232
  0
LINE
  8
_1-2_極細2
  6
CONTINUOUS
 62
    2
 10
490.40362392248113
 20
566.70045163252723
 11
484.90362392253542
 21
572.20045163247232
  0
LINE
  8
_1-2_極細2
  6
CONTINUOUS
 62
    2
 10
488.98941036010825
 20
566.70045163252723
 11
483.48941036016254
 21
572.20045163247232
  0
LINE
  8
_1-2_極細2
  6
CONTINUOUS
 62
    2
 10
487.57519679773509
 20
566.70045163252723
 11
482.07519679778966
 21
572.20045163247232
  0
LINE
  8
_1-2_極細2
  6
CONTINUOUS
 62
    2
 10
486.16098323536221
 20
566.70045163252723
 11
480.66098323541678
 21
572.20045163247232
  0
LINE
  8
_1-2_極細2
  6
CONTINUOUS
 62
    2
 10
484.74676967298933
 20
566.70045163252723
 11
479.2467696730439
 21
572.20045163247232
  0
LINE
  8
_1-2_極細2
  6
CONTINUOUS
 62
    2
 10
483.33255611061645
 20
566.70045163252723
 11
477.83255611067102
 21
572.20045163247232
  0
LINE
  8
_1-2_極細2
  6
CONTINUOUS
 62
    2
 10
481.91834254824357
 20
566.70045163252723
 11
476.41834254829774
 21
572.20045163247232
  0
LINE
  8
_1-2_極細2
  6
CONTINUOUS
 62
    2
 10
480.50412898587069
 20
566.70045163252723
 11
475.00412898592486
 21
572.20045163247232
  0
LINE
  8
_1-2_極細2
  6
CONTINUOUS
 62
    2
 10
479.08991542349781
 20
566.70045163252723
 11
473.58991542355199
 21
572.20045163247232
  0
LINE
  8
_1-2_極細2
  6
CONTINUOUS
 62
    2
 10
477.67570186112494
 20
566.70045163252723
 11
472.17570186117911
 21
572.20045163247232
  0
LINE
  8
_1-2_極細2
  6
CONTINUOUS
 62
    2
 10
476.2614882987512
 20
566.70045163252723
 11
470.76148829880623
 21
572.20045163247232
  0
LINE
  8
_1-2_極細2
  6
CONTINUOUS
 62
    2
 10
474.84727473637832
 20
566.70045163252723
 11
469.34727473643335
 21
572.20045163247232
  0
LINE
  8
_1-2_極細2
  6
CONTINUOUS
 62
    2
 10
473.43306117400545
 20
566.70045163252723
 11
468.46480718453734
 21
571.66870562199574
  0
LINE
  8
_1-2_極細2
  6
CONTINUOUS
 62
    2
 10
472.01884761163257
 20
566.70045163252723
 11
468.46480718453734
 21
570.25449205962286
  0
LINE
  8
_1-2_極細2
  6
CONTINUOUS
 62
    2
 10
470.60463404925969
 20
566.70045163252723
 11
468.46480718453734
 21
568.84027849724987
  0
LINE
  8
_1-2_極細2
  6
CONTINUOUS
 62
    2
 10
469.19042048688681
 20
566.70045163252723
 11
468.46480718453734
 21
567.42606493487699
  0
LINE
  8
_1-2_極細2
  6
CONTINUOUS
 62
    2
 10
464.65582444343636
 20
448.70045163370833
 11
468.46480718453734
 21
452.50943437480896
  0
LINE
  8
_1-2_極細2
  6
CONTINUOUS
 62
    2
 10
457.58475663157083
 20
448.70045163370833
 11
468.46480718453734
 21
459.58050218667449
  0
LINE
  8
_1-2_極細2
  6
CONTINUOUS
 62
    2
 10
450.51368881970575
 20
448.70045163370833
 11
465.51368881955568
 21
463.70045163355826
  0
LINE
  8
_1-2_極細2
  6
CONTINUOUS
 62
    2
 10
368.4426210085897
 20
373.7004516344582
 11
368.46480728453753
 21
373.72263791040638
  0
LINE
  8
_1-2_極細2
  6
CONTINUOUS
 62
    2
 10
443.44262100783976
 20
448.70045163370833
 11
458.4426210076897
 21
463.70045163355826
  0
LINE
  8
_1-2_極細2
  6
CONTINUOUS
 62
    2
 10
361.37155319672416
 20
373.7004516344582
 11
368.46480728453753
 21
380.79370572227191
  0
LINE
  8
_1-2_極細2
  6
CONTINUOUS
 62
    2
 10
436.37155319597423
 20
448.70045163370833
 11
451.37155319582416
 21
463.70045163355826
  0
LINE
  8
_1-2_極細2
  6
CONTINUOUS
 62
    2
 10
356.71480729628826
 20
376.11477354588783
 11
368.46480728453753
 21
387.86477353413744
  0
LINE
  8
_1-2_極細2
  6
CONTINUOUS
 62
    2
 10
429.3004853841087
 20
448.70045163370833
 11
444.30048538395863
 21
463.70045163355826
  0
LINE
  8
_1-2_極細2
  6
CONTINUOUS
 62
    2
 10
356.71480729628826
 20
383.18584135775336
 11
368.46480728453753
 21
394.93584134600297
  0
LINE
  8
_1-2_極細2
  6
CONTINUOUS
 62
    2
 10
422.22941757224316
 20
448.70045163370833
 11
437.2294175720931
 21
463.70045163355826
  0
LINE
  8
_1-2_極細2
  6
CONTINUOUS
 62
    2
 10
356.71480729628826
 20
390.25690916961889
 11
368.46480728453753
 21
402.00690915786851
  0
LINE
  8
_1-2_極細2
  6
CONTINUOUS
 62
    2
 10
415.15834976037809
 20
448.70045163370833
 11
430.15834976022802
 21
463.70045163355826
  0
LINE
  8
_1-2_極細2
  6
CONTINUOUS
 62
    2
 10
356.71480729628826
 20
397.32797698148443
 11
368.46480728453753
 21
409.07797696973404
  0
LINE
  8
_1-2_極細2
  6
CONTINUOUS
 62
    2
 10
408.0872819485121
 20
448.70045163370833
 11
423.08728194836203
 21
463.70045163355826
  0
LINE
  8
_1-2_極細2
  6
CONTINUOUS
 62
    2
 10
356.71480729628826
 20
404.39904479334996
 11
368.46480728453753
 21
416.14904478159963
  0
LINE
  8
_1-2_極細2
  6
CONTINUOUS
 62
    2
 10
401.01621413664657
 20
448.70045163370833
 11
416.0162141364965
 21
463.70045163355826
  0
LINE
  8
_1-2_極細2
  6
CONTINUOUS
 62
    2
 10
356.71480729628826
 20
411.47011260521549
 11
368.46480728453753
 21
423.22011259346516
  0
LINE
  8
_1-2_極細2
  6
CONTINUOUS
 62
    2
 10
393.94514632478104
 20
448.70045163370833
 11
408.94514632463097
 21
463.70045163355826
  0
LINE
  8
_1-2_極細2
  6
CONTINUOUS
 62
    2
 10
356.71480729628826
 20
418.54118041708102
 11
368.46480728453753
 21
430.29118040533069
  0
LINE
  8
_1-2_極細2
  6
CONTINUOUS
 62
    2
 10
386.8740785129155
 20
448.70045163370833
 11
401.87407851276544
 21
463.70045163355826
  0
LINE
  8
_1-2_極細2
  6
CONTINUOUS
 62
    2
 10
356.71480729628826
 20
425.61224822894656
 11
368.46480728453753
 21
437.36224821719622
  0
LINE
  8
_1-2_極細2
  6
CONTINUOUS
 62
    2
 10
379.80301070105014
 20
448.70045163370833
 11
394.80301070090007
 21
463.70045163355826
  0
LINE
  8
_1-2_極細2
  6
CONTINUOUS
 62
    2
 10
356.71480729628826
 20
432.68331604081209
 11
368.46480728453753
 21
444.43331602906176
  0
LINE
  8
_1-2_極細2
  6
CONTINUOUS
 62
    2
 10
372.73194288918444
 20
448.70045163370833
 11
387.73194288903437
 21
463.70045163355826
  0
LINE
  8
_1-2_極細2
  6
CONTINUOUS
 62
    2
 10
356.71480729628826
 20
439.75438385267762
 11
380.66087507716901
 21
463.70045163355826
  0
LINE
  8
_1-2_極細2
  6
CONTINUOUS
 62
    2
 10
356.71480729628826
 20
446.82545166454315
 11
373.58980726530331
 21
463.70045163355826
  0
LINE
  8
_1-2_極細2
  6
CONTINUOUS
 62
    2
 10
356.71480729628826
 20
453.89651947640868
 11
368.46480728453753
 21
465.64651946465835
  0
LINE
  8
_1-2_極細2
  6
CONTINUOUS
 62
    2
 10
356.71480729628826
 20
460.96758728827422
 11
368.46480728453753
 21
472.71758727652389
  0
LINE
  8
_1-2_極細2
  6
CONTINUOUS
 62
    2
 10
356.71480729628826
 20
468.03865510013975
 11
368.46480728453753
 21
479.78865508838942
  0
LINE
  8
_1-2_極細2
  6
CONTINUOUS
 62
    2
 10
356.71480729628826
 20
475.10972291200528
 11
368.46480728453753
 21
486.85972290025495
  0
LINE
  8
_1-2_極細2
  6
CONTINUOUS
 62
    2
 10
356.71480729628826
 20
482.18079072387081
 11
368.46480728453753
 21
493.93079071212048
  0
LINE
  8
_1-2_極細2
  6
CONTINUOUS
 62
    2
 10
356.71480729628826
 20
489.25185853573635
 11
368.46480728453753
 21
501.00185852398602
  0
LINE
  8
_1-2_極細2
  6
CONTINUOUS
 62
    2
 10
356.71480729628826
 20
496.32292634760188
 11
368.14259632891049
 21
507.75071538022451
  0
LINE
  8
_1-2_極細2
  6
CONTINUOUS
 62
    2
 10
356.71480729628826
 20
503.39399415946741
 11
367.35305183826
 21
514.03223870143938
  0
LINE
  8
_1-2_極細2
  6
CONTINUOUS
 62
    2
 10
356.71480729628826
 20
510.46506197133294
 11
366.56350734760935
 21
520.31376202265426
  0
LINE
  8
_1-2_極細2
  6
CONTINUOUS
 62
    2
 10
356.71480729628826
 20
517.53612978319848
 11
365.77396285695869
 21
526.59528534386914
  0
LINE
  8
_1-2_極細2
  6
CONTINUOUS
 62
    2
 10
356.71480729628826
 20
524.60719759506401
 11
364.98441836630803
 21
532.87680866508401
  0
LINE
  8
_1-2_極細2
  6
CONTINUOUS
 62
    2
 10
356.71480729628826
 20
531.67826540692954
 11
364.19487387565738
 21
539.15833198629889
  0
LINE
  8
_1-2_極細2
  6
CONTINUOUS
 62
    2
 10
356.71480729628826
 20
538.74933321879507
 11
363.40532938500655
 21
545.43985530751377
  0
LINE
  8
_1-2_極細2
  6
CONTINUOUS
 62
    2
 10
356.71480729628826
 20
545.82040103066061
 11
360.59485789832507
 21
549.70045163269742
  0
LINE
  8
_1-2_極細2
  6
CONTINUOUS
 62
    2
 10
351.7148073012882
 20
547.89146884752608
 11
359.58791477683377
 21
555.76457632307165
  0
LINE
  8
_1-2_極細2
  6
CONTINUOUS
 62
    2
 10
351.7148073012882
 20
554.96253665939162
 11
358.79837009123918
 21
562.04609944934305
  0
LINE
  8
_1-2_極細2
  6
CONTINUOUS
 62
    2
 10
351.7148073012882
 20
562.03360447125715
 11
358.00882540564515
 21
568.3276225756141
  0
LINE
  8
_1-2_極細2
  6
CONTINUOUS
 62
    2
 10
350.162264900119
 20
567.55212988195353
 11
357.21928072005056
 21
574.60914570188527
  0
LINE
  8
_1-2_極細2
  6
CONTINUOUS
 62
    2
 10
346.51312434009441
 20
570.9740571337943
 11
355.8045880951866
 21
580.26552088888661
  0
LINE
  8
_1-2_極細2
  6
CONTINUOUS
 62
    2
 10
340.66845102690678
 20
572.20045163247232
 11
350.66845102198812
 21
582.20045162755389
  0
LINE
  8
_1-2_極細2
  6
CONTINUOUS
 62
    2
 10
333.59738321504125
 20
572.20045163247232
 11
343.59738321090686
 21
582.2004516283381
  0
LINE
  8
_1-2_極細2
  6
CONTINUOUS
 62
    2
 10
326.52631540317572
 20
572.20045163247232
 11
336.52631539982536
 21
582.20045162912197
  0
LINE
  8
_1-2_極細2
  6
CONTINUOUS
 62
    2
 10
319.45524759131018
 20
572.20045163247232
 11
329.45524758874427
 21
582.2004516299063
  0
LINE
  8
_1-2_極細2
  6
CONTINUOUS
 62
    2
 10
312.38417977944465
 20
572.20045163247232
 11
322.38417977766261
 21
582.20045163069017
  0
LINE
  8
_1-2_極細2
  6
CONTINUOUS
 62
    2
 10
307.21480734578705
 20
574.10214701068026
 11
315.31311196658095
 21
582.20045163147461
  0
LINE
  8
_1-2_極細2
  6
CONTINUOUS
 62
    2
 10
307.21480734578705
 20
581.17321482254579
 11
308.24204415549985
 21
582.20045163225848
  0
LINE
  8
_1-2_極細2
  6
CONTINUOUS
 62
    2
 10
468.46480718453734
 20
460.96506202082946
 11
465.72941757180797
 21
463.70045163355826
  0
LINE
  8
_1-2_極細2
  6
CONTINUOUS
 62
    2
 10
357.56410510781762
 20
571.86576409754969
 11
347.229417577432
 21
582.20045162793531
  0
LINE
  8
_1-2_極細2
  6
CONTINUOUS
 62
    2
 10
468.46480718453734
 20
453.89399420896439
 11
458.65834975994346
 21
463.70045163355826
  0
LINE
  8
_1-2_極細2
  6
CONTINUOUS
 62
    2
 10
358.58066481806446
 20
563.77813657543732
 11
340.1583497647826
 21
582.20045162871941
  0
LINE
  8
_1-2_極細2
  6
CONTINUOUS
 62
    2
 10
466.58728194792758
 20
448.70045163370833
 11
451.58728194807765
 21
463.70045163355826
  0
LINE
  8
_1-2_極細2
  6
CONTINUOUS
 62
    2
 10
359.5972245283113
 20
555.69050905332517
 11
351.60422260086489
 21
563.68351098077096
  0
LINE
  8
_1-2_極細2
  6
CONTINUOUS
 62
    2
 10
343.19786665948669
 20
572.08986692214955
 11
333.08728195213303
 21
582.20045162950339
  0
LINE
  8
_1-2_極細2
  6
CONTINUOUS
 62
    2
 10
459.51621413606205
 20
448.70045163370833
 11
444.51621413621211
 21
463.70045163355826
  0
LINE
  8
_1-2_極細2
  6
CONTINUOUS
 62
    2
 10
363.49568728113837
 20
544.72097848863268
 11
351.7148073012882
 21
556.50185846848285
  0
LINE
  8
_1-2_極細2
  6
CONTINUOUS
 62
    2
 10
336.01621413729873
 20
572.20045163247232
 11
326.01621413948379
 21
582.20045163028772
  0
LINE
  8
_1-2_極細2
  6
CONTINUOUS
 62
    2
 10
452.44514632419651
 20
448.70045163370833
 11
437.44514632434658
 21
463.70045163355826
  0
LINE
  8
_1-2_極細2
  6
CONTINUOUS
 62
    2
 10
364.51224666822168
 20
536.63335128968356
 11
356.71480729628826
 21
544.43079066161715
  0
LINE
  8
_1-2_極細2
  6
CONTINUOUS
 62
    2
 10
353.94514632518309
 20
547.20045163272243
 11
351.7148073012882
 21
549.43079065661732
  0
LINE
  8
_1-2_極細2
  6
CONTINUOUS
 62
    2
 10
328.9451463254332
 20
572.20045163247232
 11
318.94514632683382
 21
582.2004516310717
  0
LINE
  8
_1-2_極細2
  6
CONTINUOUS
 62
    2
 10
445.37407851233098
 20
448.70045163370833
 11
430.37407851248105
 21
463.70045163355826
  0
LINE
  8
_1-2_極細2
  6
CONTINUOUS
 62
    2
 10
365.52880605530589
 20
528.5457240907341
 11
356.71480729628826
 21
537.35972284975162
  0
LINE
  8
_1-2_極細2
  6
CONTINUOUS
 62
    2
 10
321.87407851356767
 20
572.20045163247232
 11
311.87407851418425
 21
582.2004516318558
  0
LINE
  8
_1-2_極細2
  6
CONTINUOUS
 62
    2
 10
438.30301070046573
 20
448.70045163370833
 11
423.3030107006158
 21
463.70045163355826
  0
LINE
  8
_1-2_極細2
  6
CONTINUOUS
 62
    2
 10
366.54536544238937
 20
520.45809689178498
 11
356.71480729628826
 21
530.2886550378862
  0
LINE
  8
_1-2_極細2
  6
CONTINUOUS
 62
    2
 10
314.80301070170214
 20
572.20045163247232
 11
307.21480734578705
 21
579.78865498838786
  0
LINE
  8
_1-2_極細2
  6
CONTINUOUS
 62
    2
 10
431.23194288860032
 20
448.70045163370833
 11
416.23194288875038
 21
463.70045163355826
  0
LINE
  8
_1-2_極細2
  6
CONTINUOUS
 62
    2
 10
367.56192482947341
 20
512.37046969283551
 11
356.71480729628826
 21
523.21758722602067
  0
LINE
  8
_1-2_極細2
  6
CONTINUOUS
 62
    2
 10
307.7319428898366
 20
572.20045163247232
 11
307.21480734578705
 21
572.71758717652233
  0
LINE
  8
_1-2_極細2
  6
CONTINUOUS
 62
    2
 10
424.16087507673478
 20
448.70045163370833
 11
409.16087507688485
 21
463.70045163355826
  0
LINE
  8
_1-2_極細2
  6
CONTINUOUS
 62
    2
 10
368.46480728453753
 20
504.39651942590569
 11
356.71480729628826
 21
516.14651941415514
  0
LINE
  8
_1-2_極細2
  6
CONTINUOUS
 62
    2
 10
417.08980726486971
 20
448.70045163370833
 11
402.08980726501977
 21
463.70045163355826
  0
LINE
  8
_1-2_極細2
  6
CONTINUOUS
 62
    2
 10
368.46480728453753
 20
497.32545161404039
 11
356.71480729628826
 21
509.0754516022896
  0
LINE
  8
_1-2_極細2
  6
CONTINUOUS
 62
    2
 10
410.01873945300372
 20
448.70045163370833
 11
395.01873945315378
 21
463.70045163355826
  0
LINE
  8
_1-2_極細2
  6
CONTINUOUS
 62
    2
 10
368.46480728453753
 20
490.25438380217486
 11
356.71480729628826
 21
502.00438379042407
  0
LINE
  8
_1-2_極細2
  6
CONTINUOUS
 62
    2
 10
402.94767164113819
 20
448.70045163370833
 11
387.94767164128842
 21
463.70045163355826
  0
LINE
  8
_1-2_極細2
  6
CONTINUOUS
 62
    2
 10
368.46480728453753
 20
483.18331599030932
 11
356.71480729628826
 21
494.93331597855899
  0
LINE
  8
_1-2_極細2
  6
CONTINUOUS
 62
    2
 10
395.87660382927265
 20
448.70045163370833
 11
380.87660382942272
 21
463.70045163355826
  0
LINE
  8
_1-2_極細2
  6
CONTINUOUS
 62
    2
 10
368.46480728453753
 20
476.11224817844379
 11
356.71480729628826
 21
487.86224816669346
  0
LINE
  8
_1-2_極細2
  6
CONTINUOUS
 62
    2
 10
388.80553601740786
 20
448.70045163370833
 11
373.80553601755793
 21
463.70045163355826
  0
LINE
  8
_1-2_極細2
  6
CONTINUOUS
 62
    2
 10
368.46480728453753
 20
469.04118036657826
 11
356.71480729628826
 21
480.79118035482793
  0
LINE
  8
_1-2_極細2
  6
CONTINUOUS
 62
    2
 10
381.73446820554233
 20
448.70045163370833
 11
356.71480729628826
 21
473.7201125429624
  0
LINE
  8
_1-2_極細2
  6
CONTINUOUS
 62
    2
 10
374.6634003936768
 20
448.70045163370833
 11
356.71480729628826
 21
466.64904473109686
  0
LINE
  8
_1-2_極細2
  6
CONTINUOUS
 62
    2
 10
368.46480728453753
 20
447.82797693098166
 11
356.71480729628826
 21
459.57797691923167
  0
LINE
  8
_1-2_極細2
  6
CONTINUOUS
 62
    2
 10
368.46480728453753
 20
440.75690911911613
 11
356.71480729628826
 21
452.5069091073658
  0
LINE
  8
_1-2_極細2
  6
CONTINUOUS
 62
    2
 10
368.46480728453753
 20
433.68584130725094
 11
356.71480729628826
 21
445.43584129550061
  0
LINE
  8
_1-2_極細2
  6
CONTINUOUS
 62
    2
 10
368.46480728453753
 20
426.61477349538541
 11
356.71480729628826
 21
438.36477348363508
  0
LINE
  8
_1-2_極細2
  6
CONTINUOUS
 62
    2
 10
368.46480728453753
 20
419.54370568351987
 11
356.71480729628826
 21
431.29370567176954
  0
LINE
  8
_1-2_極細2
  6
CONTINUOUS
 62
    2
 10
368.46480728453753
 20
412.47263787165434
 11
356.71480729628826
 21
424.22263785990401
  0
LINE
  8
_1-2_極細2
  6
CONTINUOUS
 62
    2
 10
368.46480728453753
 20
405.40157005978881
 11
356.71480729628826
 21
417.15157004803848
  0
LINE
  8
_1-2_極細2
  6
CONTINUOUS
 62
    2
 10
368.46480728453753
 20
398.33050224792373
 11
356.71480729628826
 21
410.08050223617295
  0
LINE
  8
_1-2_極細2
  6
CONTINUOUS
 62
    2
 10
368.46480728453753
 20
391.25943443605775
 11
356.71480729628826
 21
403.00943442430736
  0
LINE
  8
_1-2_極細2
  6
CONTINUOUS
 62
    2
 10
368.46480728453753
 20
384.18836662419267
 11
356.71480729628826
 21
395.93836661244183
  0
LINE
  8
_1-2_極細2
  6
CONTINUOUS
 62
    2
 10
368.46480728453753
 20
377.11729881232714
 11
356.71480729628826
 21
388.86729880057629
  0
LINE
  8
_1-2_極細2
  6
CONTINUOUS
 62
    2
 10
364.81058665054064
 20
373.7004516344582
 11
356.71480729628826
 21
381.79623098871116
  0
LINE
  8
_1-2_極細2
  6
CONTINUOUS
 62
    2
 10
357.73951883867568
 20
373.7004516344582
 11
356.71480729628826
 21
374.72516317684563
  0
LINE
  8
_1-2_極細2
  6
CONTINUOUS
 62
    2
 10
360.30754487032965
 20
550.03928516551196
 11
362.54587033822673
 21
552.27761063340927
  0
LINE
  8
_1-2_極細2
  6
CONTINUOUS
 62
    2
 10
359.51799983793336
 20
556.3208079449812
 11
361.75632584757665
 21
558.55913395462437
  0
LINE
  8
_1-2_極細2
  6
CONTINUOUS
 62
    2
 10
358.72845480553707
 20
562.60233072445044
 11
360.96678135692582
 21
564.84065727583925
  0
LINE
  8
_1-2_極細2
  6
CONTINUOUS
 62
    2
 10
357.93890977314078
 20
568.88385350391968
 11
360.17723686627534
 21
571.12218059705424
  0
LINE
  8
_1-2_極細2
  6
CONTINUOUS
 62
    2
 10
357.14936474074449
 20
575.16537628338881
 11
359.38769237562451
 21
577.40370391826912
  0
LINE
  8
_1-2_極細2
  6
CONTINUOUS
 62
    2
 10
355.51695856677981
 20
580.60403792128966
 11
357.28551752192658
 21
582.37259687643643
  0
LINE
  8
_1-2_極細2
  6
CONTINUOUS
 62
    2
 10
350.04230446599678
 20
582.20045163237228
 11
352.51329070097609
 21
584.67143786735176
  0
LINE
  8
_1-2_極細2
  6
CONTINUOUS
 62
    2
 10
342.97123665413125
 20
582.20045163237228
 11
345.47123664774318
 21
584.70045162598421
  0
LINE
  8
_1-2_極細2
  6
CONTINUOUS
 62
    2
 10
335.90016884226571
 20
582.20045163237228
 11
338.40016883705357
 21
584.70045162716031
  0
LINE
  8
_1-2_極細2
  6
CONTINUOUS
 62
    2
 10
328.82910103040018
 20
582.20045163237228
 11
331.3291010263643
 21
584.7004516283364
  0
LINE
  8
_1-2_極細2
  6
CONTINUOUS
 62
    2
 10
321.75803321853465
 20
582.20045163237228
 11
324.25803321567469
 21
584.70045162951249
  0
LINE
  8
_1-2_極細2
  6
CONTINUOUS
 62
    2
 10
314.68696540666912
 20
582.20045163237228
 11
317.18696540498541
 21
584.70045163068858
  0
LINE
  8
_1-2_極細2
  6
CONTINUOUS
 62
    2
 10
307.61589759480358
 20
582.20045163237228
 11
310.1158975942958
 21
584.70045163186489
  0
LINE
  8
_1-5_寸法2
  6
CONTINUOUS
 62
    7
 10
390.4841978163293
 20
484.41468176929902
 11
380.48419790082914
 21
467.09417364482425
  0
LINE
  8
_1-5_寸法2
  6
CONTINUOUS
 62
    7
 10
390.4841978163293
 20
484.41468176929902
 11
373.1636897894266
 21
474.41468168479923
  0
LINE
  8
_1-5_寸法2
  6
CONTINUOUS
 62
    7
 10
390.4841978163293
 20
484.41468176929902
 11
328.3883340634722
 21
422.3188174105602
  0
LINE
  8
_1-5_寸法2
  6
CONTINUOUS
 62
    7
 10
328.3883340634722
 20
422.3188174105602
 11
184.38833406347214
 21
422.3188174105602
  0
TEXT
  8
_1-5_寸法2
 62
    7
 10
184.38833406347214
 20
422.3188174105602
 40
30
 41
0.7999999999999998
 50
0
  1
ストレーナー
  0
LINE
  8
_1-5_寸法2
  6
CONTINUOUS
 62
    7
 10
563.82010988167917
 20
406.09537029067042
 11
578.69192853003278
 21
392.72267385014374
  0
LINE
  8
_1-5_寸法2
  6
CONTINUOUS
 62
    7
 10
563.82010988167917
 20
406.09537029067042
 11
570.01313441136529
 21
387.07836613189954
  0
LINE
  8
_1-5_寸法2
  6
CONTINUOUS
 62
    7
 10
563.82010988167917
 20
406.09537029067042
 11
649.9239684373506
 21
273.7004516344582
  0
LINE
  8
_1-5_寸法2
  6
CONTINUOUS
 62
    7
 10
649.9239684373506
 20
273.7004516344582
 11
721.92396843735071
 21
273.7004516344582
  0
TEXT
  8
_1-5_寸法2
 62
    7
 10
649.9239684373506
 20
273.7004516344582
 40
30
 41
0.7999999999999998
 50
0
  1
排水口
  0
LINE
  8
_1-5_寸法2
  6
CONTINUOUS
 62
    7
 10
618.74065270477968
 20
551.56486066886634
 11
637.44750318026627
 21
544.48999351196619
  0
LINE
  8
_1-5_寸法2
  6
CONTINUOUS
 62
    7
 10
618.74065270477968
 20
551.56486066886634
 11
631.40382686289809
 21
536.08442074484731
  0
LINE
  8
_1-5_寸法2
  6
CONTINUOUS
 62
    7
 10
618.74065270477968
 20
551.56486066886634
 11
706.10808933012891
 21
488.74695137572257
  0
LINE
  8
_1-5_寸法2
  6
CONTINUOUS
 62
    7
 10
706.10808933012891
 20
488.74695137572257
 11
850.10808933012891
 21
488.74695137572257
  0
TEXT
  8
_1-5_寸法2
 62
    7
 10
706.10808933012891
 20
488.74695137572257
 40
30
 41
0.7999999999999998
 50
0
  1
ロックナット
  0
LINE
  8
_1-5_寸法2
  6
CONTINUOUS
 62
    7
 10
617.05416501615355
 20
570.157558550207
 11
621.57309012153871
 21
589.64035393207973
  0
LINE
  8
_1-5_寸法2
  6
CONTINUOUS
 62
    7
 10
617.05416501615355
 20
570.157558550207
 11
630.70906664615279
 21
584.77069173495045
  0
LINE
  8
_1-5_寸法2
  6
CONTINUOUS
 62
    7
 10
617.05416501615355
 20
570.157558550207
 11
685.21480706778584
 21
698.0337849655474
  0
LINE
  8
_1-5_寸法2
  6
CONTINUOUS
 62
    7
 10
685.21480706778584
 20
698.0337849655474
 11
781.21480706778596
 21
698.0337849655474
  0
TEXT
  8
_1-5_寸法2
 62
    7
 10
685.21480706778584
 20
698.0337849655474
 40
30
 41
0.7999999999999998
 50
0
  1
パッキン
  0
LINE
  8
_1-5_寸法2
  6
CONTINUOUS
 62
    7
 10
351.7148073012882
 20
358.68513830107531
 11
351.71480730128735
 21
263.7004516344582
  0
LINE
  8
_1-5_寸法2
  6
CONTINUOUS
 62
    7
 10
351.71480730128746
 20
273.7004516344582
 11
371.03332382706895
 21
278.87683253650863
  0
LINE
  8
_1-5_寸法2
  6
CONTINUOUS
 62
    7
 10
351.71480730128746
 20
273.7004516344582
 11
371.03332382706895
 21
268.52407073240784
  0
LINE
  8
_1-5_寸法2
  6
CONTINUOUS
 62
    7
 10
585.21480706778584
 20
358.68513830107531
 11
585.21480706778561
 21
263.7004516344582
  0
LINE
  8
_1-5_寸法2
  6
CONTINUOUS
 62
    7
 10
585.21480706778561
 20
273.7004516344582
 11
565.89629054200429
 21
268.52407073240784
  0
LINE
  8
_1-5_寸法2
  6
CONTINUOUS
 62
    7
 10
585.21480706778561
 20
273.7004516344582
 11
565.89629054200429
 21
278.8768325365088
  0
LINE
  8
_1-5_寸法2
  6
CONTINUOUS
 62
    7
 10
351.71480730128746
 20
273.7004516344582
 11
585.21480706778561
 21
273.7004516344582
  0
TEXT
  8
_1-5_寸法2
 62
    7
 10
438.46480718453631
 20
273.7004516344582
 40
30
 41
1
 50
0
  1
46.7
  0
LINE
  8
_1-2_極細2
  6
CENTER1
 62
    2
 10
468.46480718453734
 20
623.04741829863019
 11
468.46480718453734
 21
349.74419830136367
  0
LINE
  8
_1-5_寸法2
  6
CONTINUOUS
 62
    7
 10
600.21480707278579
 20
373.70045163445809
 11
695.21480706778584
 21
373.70045163445781
  0
LINE
  8
_1-5_寸法2
  6
CONTINUOUS
 62
    7
 10
685.21480706778584
 20
373.70045163445781
 11
680.03842616573547
 21
393.0189681602393
  0
LINE
  8
_1-5_寸法2
  6
CONTINUOUS
 62
    7
 10
685.21480706778584
 20
373.70045163445781
 11
690.39118796983632
 21
393.0189681602393
  0
LINE
  8
_1-5_寸法2
  6
CONTINUOUS
 62
    7
 10
618.46480705453757
 20
487.70045163331764
 11
695.21480706778584
 21
487.7004516333173
  0
LINE
  8
_1-5_寸法2
  6
CONTINUOUS
 62
    7
 10
685.21480706778584
 20
487.70045163331736
 11
690.39118796983632
 21
468.38193510753598
  0
LINE
  8
_1-5_寸法2
  6
CONTINUOUS
 62
    7
 10
685.21480706778584
 20
487.70045163331736
 11
680.03842616573547
 21
468.38193510753598
  0
LINE
  8
_1-5_寸法2
  6
CONTINUOUS
 62
    7
 10
685.21480706778584
 20
373.70045163445781
 11
685.21480706778584
 21
487.70045163331736
  0
TEXT
  8
_1-5_寸法2
 62
    7
 10
685.21480706778584
 20
415.70045163388761
 40
30
 41
1
 50
90
  1
23
  0
LINE
  8
_1-5_寸法2
  6
CONTINUOUS
 62
    7
 10
345.96480718453734
 20
615.2004516325286
 11
345.96480718453745
 21
678.70045233654446
  0
LINE
  8
_1-5_寸法2
  6
CONTINUOUS
 62
    7
 10
345.96480718453745
 20
668.70045233654446
 11
365.28332371031894
 21
673.87683323859494
  0
LINE
  8
_1-5_寸法2
  6
CONTINUOUS
 62
    7
 10
345.96480718453745
 20
668.70045233654446
 11
365.28332371031894
 21
663.52407143449409
  0
LINE
  8
_1-5_寸法2
  6
CONTINUOUS
 62
    7
 10
590.96480718453734
 20
615.2004516325286
 11
590.96480718453745
 21
678.70045233654446
  0
LINE
  8
_1-5_寸法2
  6
CONTINUOUS
 62
    7
 10
590.96480718453745
 20
668.70045233654446
 11
571.64629065875602
 21
663.52407143449409
  0
LINE
  8
_1-5_寸法2
  6
CONTINUOUS
 62
    7
 10
590.96480718453745
 20
668.70045233654446
 11
571.64629065875613
 21
673.87683323859494
  0
LINE
  8
_1-5_寸法2
  6
CONTINUOUS
 62
    7
 10
345.96480718453745
 20
668.70045233654446
 11
590.96480718453745
 21
668.70045233654446
  0
TEXT
  8
_1-5_寸法2
 62
    7
 10
397.21480718453745
 20
668.70045233654446
 40
30
 41
1
 50
0
  1
φ49___±0.5
  0
LINE
  8
_1-5_寸法2
  6
CONTINUOUS
 62
    7
 10
305.96480718453734
 20
615.20045163252837
 11
305.96480718453745
 21
748.70045233654446
  0
LINE
  8
_1-5_寸法2
  6
CONTINUOUS
 62
    7
 10
305.96480718453745
 20
738.70045233654446
 11
325.28332371031894
 21
743.87683323859494
  0
LINE
  8
_1-5_寸法2
  6
CONTINUOUS
 62
    7
 10
305.96480718453745
 20
738.70045233654446
 11
325.28332371031894
 21
733.52407143449409
  0
LINE
  8
_1-5_寸法2
  6
CONTINUOUS
 62
    7
 10
630.96480718453734
 20
615.20045163252837
 11
630.96480718453745
 21
748.70045233654446
  0
LINE
  8
_1-5_寸法2
  6
CONTINUOUS
 62
    7
 10
630.96480718453745
 20
738.70045233654446
 11
611.64629065875602
 21
733.52407143449409
  0
LINE
  8
_1-5_寸法2
  6
CONTINUOUS
 62
    7
 10
630.96480718453745
 20
738.70045233654446
 11
611.64629065875613
 21
743.87683323859494
  0
LINE
  8
_1-5_寸法2
  6
CONTINUOUS
 62
    7
 10
305.96480718453745
 20
738.70045233654446
 11
630.96480718453745
 21
738.70045233654446
  0
TEXT
  8
_1-5_寸法2
 62
    7
 10
397.21480718453745
 20
738.70045233654446
 40
30
 41
1
 50
0
  1
φ65___±0.3
  0
TEXT
  8
_0-7_枠細線
 62
    5
 10
371.47257194243934
 20
791.20847300878097
 40
40
 41
0.8
 50
0
  1
排水部詳細図
  0
TEXT
  8
_0-7_枠細線
 62
    5
 10
591.01666118764206
 20
791.20847300878097
 40
40
 41
0.6000000000000002
 50
0
  1
Ｓ＝１：２
  0
TEXT
  8
_0-7_枠細線
 62
    5
 10
1417.6965183328819
 20
791.20847300878097
 40
40
 41
0.8
 50
0
  1
Ａ－Ａ’断面図
  0
TEXT
  8
_0-7_枠細線
 62
    5
 10
1669.2406075780843
 20
791.20847300878097
 40
40
 41
0.6000000000000002
 50
0
  1
Ｓ＝１：２
  0
LINE
  8
_1-3_細線2
  6
CONTINUOUS
 62
    4
 10
1553.9999999999986
 20
512.700452336544
 11
1516.0000000000014
 21
512.700452336544
  0
LINE
  8
_1-3_細線2
  6
CONTINUOUS
 62
    4
 10
1516.0000000000014
 20
512.700452336544
 11
1516.0000000000014
 21
438.70045233654457
  0
ARC
  8
_1-3_細線2
  6
CONTINUOUS
 62
    4
 10
1554
 20
512.70045233654457
 40
6.0000000000000009
 50
0
 51
89.999999999999915
  0
LINE
  8
_1-3_細線2
  6
CONTINUOUS
 62
    4
 10
1510
 20
512.70045233654457
 11
1510
 21
438.70045233654457
  0
LINE
  8
_1-3_細線2
  6
CONTINUOUS
 62
    4
 10
1554
 20
518.70045233654457
 11
1516.0000000000002
 21
518.70045233654457
  0
ARC
  8
_1-3_細線2
  6
CONTINUOUS
 62
    4
 10
1516.0000000000002
 20
512.70045233654457
 40
6.0000000000000009
 50
89.999999999999915
 51
179.99999999999983
  0
LINE
  8
_1-3_細線2
  6
CONTINUOUS
 62
    4
 10
1510
 20
438.70045233654457
 11
1516.0000000000014
 21
438.70045233654457
  0
LINE
  8
_1-3_細線2
  6
CONTINUOUS
 62
    4
 10
1560
 20
488.70045163252883
 11
1553.9999999999986
 21
488.70045163252837
  0
LINE
  8
_1-3_細線2
  6
CONTINUOUS
 62
    4
 10
1553.9999999999986
 20
512.700452336544
 11
1553.9999999999986
 21
488.70045163252883
  0
LINE
  8
_1-3_細線2
  6
CONTINUOUS
 62
    4
 10
1560
 20
512.70045233654457
 11
1560
 21
488.70045163252883
  0
LINE
  8
_1-3_細線2
  6
CONTINUOUS
 62
    4
 10
1482.500000000002
 20
480.95045163252883
 11
1510
 21
480.95045163252883
  0
LINE
  8
_1-3_細線2
  6
CONTINUOUS
 62
    4
 10
1482.500000000002
 20
446.45045163252871
 11
1510
 21
446.45045163252871
  0
LINE
  8
_1-3_細線2
  6
CONTINUOUS
 62
    4
 10
1587.500000510247
 20
446.45045163252871
 11
1516.0000005102481
 21
446.45045163252871
  0
LINE
  8
_1-3_細線2
  6
CONTINUOUS
 62
    4
 10
1587.500000510247
 20
480.95045163252883
 11
1516.0000005102481
 21
480.95045163252883
  0
LINE
  8
_1-3_細線2
  6
CONTINUOUS
 62
    4
 10
1671.0000005102461
 20
476.62545233654441
 11
1671.0000005102461
 21
456.77545233654428
  0
LINE
  8
_1-3_細線2
  6
CONTINUOUS
 62
    4
 10
1671.0000005102461
 20
512.700452336544
 11
1671.0000005102461
 21
438.70045233654457
  0
LINE
  8
_1-3_細線2
  6
CONTINUOUS
 62
    4
 10
1631.5000005102445
 20
512.700452336544
 11
1593.5000005102449
 21
512.700452336544
  0
LINE
  8
_1-3_細線2
  6
CONTINUOUS
 62
    4
 10
1709.0000005102447
 20
512.700452336544
 11
1671.0000005102461
 21
512.700452336544
  0
LINE
  8
_1-3_細線2
  6
CONTINUOUS
 62
    4
 10
1593.5000005102449
 20
512.700452336544
 11
1593.5000005102449
 21
438.70045233654457
  0
ARC
  8
_1-3_細線2
  6
CONTINUOUS
 62
    4
 10
1709.0000005102461
 20
512.70045233654457
 40
6.0000000000000009
 50
0
 51
89.999999999999915
  0
LINE
  8
_1-3_細線2
  6
CONTINUOUS
 62
    4
 10
1665.0000005102447
 20
512.70045233654457
 11
1665.0000005102447
 21
438.70045233654457
  0
LINE
  8
_1-3_細線2
  6
CONTINUOUS
 62
    4
 10
1709.0000005102461
 20
518.70045233654457
 11
1671.0000005102449
 21
518.70045233654457
  0
ARC
  8
_1-3_細線2
  6
CONTINUOUS
 62
    4
 10
1671.0000005102449
 20
512.70045233654457
 40
6.0000000000000009
 50
89.999999999999915
 51
179.99999999999983
  0
ARC
  8
_1-3_細線2
  6
CONTINUOUS
 62
    4
 10
1631.5000005102456
 20
512.70045233654457
 40
6.0000000000000009
 50
0
 51
89.999999999999915
  0
LINE
  8
_1-3_細線2
  6
CONTINUOUS
 62
    4
 10
1587.500000510247
 20
512.70045233654457
 11
1587.500000510247
 21
438.70045233654457
  0
LINE
  8
_1-3_細線2
  6
CONTINUOUS
 62
    4
 10
1631.5000005102456
 20
518.70045233654457
 11
1593.5000005102472
 21
518.70045233654457
  0
ARC
  8
_1-3_細線2
  6
CONTINUOUS
 62
    4
 10
1593.5000005102472
 20
512.70045233654457
 40
6.0000000000000009
 50
89.999999999999915
 51
179.99999999999983
  0
LINE
  8
_1-3_細線2
  6
CONTINUOUS
 62
    4
 10
1587.500000510247
 20
438.70045233654457
 11
1593.5000005102449
 21
438.70045233654457
  0
LINE
  8
_1-3_細線2
  6
CONTINUOUS
 62
    4
 10
1665.0000005102447
 20
438.70045233654457
 11
1671.0000005102461
 21
438.70045233654457
  0
LINE
  8
_1-3_細線2
  6
CONTINUOUS
 62
    4
 10
1715.0000005102461
 20
488.70045163252883
 11
1709.0000005102447
 21
488.70045163252883
  0
LINE
  8
_1-3_細線2
  6
CONTINUOUS
 62
    4
 10
1637.5000005102459
 20
488.70045163252883
 11
1631.5000005102445
 21
488.70045163252883
  0
LINE
  8
_1-3_細線2
  6
CONTINUOUS
 62
    4
 10
1631.5000005102445
 20
512.700452336544
 11
1631.5000005102445
 21
488.70045163252883
  0
LINE
  8
_1-3_細線2
  6
CONTINUOUS
 62
    4
 10
1709.0000005102447
 20
512.700452336544
 11
1709.0000005102447
 21
488.70045163252883
  0
LINE
  8
_1-3_細線2
  6
CONTINUOUS
 62
    4
 10
1715.0000005102461
 20
512.70045233654457
 11
1715.0000005102461
 21
488.70045163252883
  0
LINE
  8
_1-3_細線2
  6
CONTINUOUS
 62
    4
 10
1637.5000005102459
 20
512.70045233654457
 11
1637.5000005102459
 21
488.70045163252883
  0
ARC
  8
_1-3_細線2
  6
CONTINUOUS
 62
    4
 10
1694.9837410204962
 20
439.70045163253019
 40
1.0000000000000004
 50
269.99999999999977
 51
359.99999999999966
  0
LINE
  8
_1-3_細線2
  6
CONTINUOUS
 62
    4
 10
1691.0000010204951
 20
438.70045163252973
 11
1694.9837410204962
 21
438.70045163252973
  0
ARC
  8
_1-3_細線2
  6
CONTINUOUS
 62
    4
 10
1694.9837410204962
 20
487.70045163252894
 40
1.0000000000000004
 50
0
 51
89.999999999999915
  0
LINE
  8
_1-3_細線2
  6
CONTINUOUS
 62
    4
 10
1691.0000010204951
 20
488.70045163253064
 11
1694.9837410204962
 21
488.70045163253064
  0
LINE
  8
_1-3_細線2
  6
CONTINUOUS
 62
    4
 10
1695.9837410204975
 20
461.20045163252973
 11
1695.9837410204975
 21
439.70045163253019
  0
LINE
  8
_1-3_細線2
  6
CONTINUOUS
 62
    4
 10
1695.9837410204975
 20
487.70045163252894
 11
1695.9837410204975
 21
461.20045163252973
  0
ARC
  8
_1-3_細線2
  6
CONTINUOUS
 62
    4
 10
1688.5000010204951
 20
508.70045163252883
 40
2.5
 50
0
 51
89.999999999999915
  0
LINE
  8
_1-3_細線2
  6
CONTINUOUS
 62
    4
 10
1673.5000010204951
 20
511.20045163252883
 11
1688.5000010204951
 21
511.20045163252883
  0
ARC
  8
_1-3_細線2
  6
CONTINUOUS
 62
    4
 10
1673.5000010204951
 20
508.70045163252883
 40
2.5
 50
89.999999999999915
 51
179.99999999999983
  0
LINE
  8
_1-3_細線2
  6
CONTINUOUS
 62
    4
 10
1691.0000010204951
 20
508.70045163252883
 11
1691.0000010204951
 21
431.20045163252883
  0
ARC
  8
_1-3_細線2
  6
CONTINUOUS
 62
    4
 10
1688.5000010204951
 20
431.20045163252883
 40
2.5
 50
269.99999999999977
 51
359.99999999999966
  0
LINE
  8
_1-3_細線2
  6
CONTINUOUS
 62
    4
 10
1688.5000010204951
 20
428.70045163252883
 11
1673.5000010204951
 21
428.70045163252883
  0
LINE
  8
_1-3_細線2
  6
CONTINUOUS
 62
    4
 10
1671.0000010204951
 20
431.20045163252883
 11
1671.0000010204951
 21
508.70045163252883
  0
ARC
  8
_1-3_細線2
  6
CONTINUOUS
 62
    4
 10
1673.5000010204951
 20
431.20045163252883
 40
2.5
 50
179.99999999999983
 51
269.99999999999977
  0
LINE
  8
_1-3_細線2
  6
CONTINUOUS
 62
    4
 10
1665.000001020494
 20
446.45045163252871
 11
1593.5000010204956
 21
446.45045163252871
  0
LINE
  8
_1-3_細線2
  6
CONTINUOUS
 62
    4
 10
1665.000001020494
 20
480.95045163252883
 11
1593.5000010204956
 21
480.95045163252883
  0
LINE
  8
_1-2_極細2
  6
CONTINUOUS
 62
    2
 10
1695.9837410204975
 20
463.70045163252883
 11
1711.0063210204976
 21
463.70045163252883
  0
LINE
  8
_1-3_細線2
  6
CONTINUOUS
 62
    4
 10
1695.9837410204975
 20
446.2004516325311
 11
1711.0063810204942
 21
446.2004516325311
  0
ARC
  8
_1-3_細線2
  6
CONTINUOUS
 62
    4
 10
1711.0063810204942
 20
447.20045163253019
 40
1.0000000000000004
 50
269.99999999999977
 51
359.99999999999966
  0
ARC
  8
_1-2_極細2
  6
CONTINUOUS
 62
    2
 10
1673.216481020497
 20
454.9497216325318
 40
38.78978
 50
346.96432999999951
 51
13.038021999994726
  0
ARC
  8
_1-3_細線2
  6
CONTINUOUS
 62
    4
 10
1711.0063810204942
 20
480.20045163253155
 40
1.0000000000000004
 50
0
 51
89.999999999999915
  0
ARC
  8
_1-2_極細2
  6
CONTINUOUS
 62
    2
 10
1673.216481020497
 20
472.45117163252928
 40
38.78978
 50
346.96197800000061
 51
13.035669999999778
  0
LINE
  8
_1-3_細線2
  6
CONTINUOUS
 62
    4
 10
1695.9837410204975
 20
481.20045163253064
 11
1711.0063810204942
 21
481.20045163253064
  0
LINE
  8
_1-3_細線2
  6
CONTINUOUS
 62
    4
 10
1712.0063810204965
 20
447.20045163253019
 11
1712.0063810204965
 21
480.20045163253155
  0
LINE
  8
_1-3_細線2
  6
CONTINUOUS
 62
    4
 10
1399.000000000003
 20
512.700452336544
 11
1399.000000000003
 21
438.70045233654457
  0
LINE
  8
_1-3_細線2
  6
CONTINUOUS
 62
    4
 10
1438.5000000000011
 20
512.700452336544
 11
1476.5000000000014
 21
512.700452336544
  0
LINE
  8
_1-3_細線2
  6
CONTINUOUS
 62
    4
 10
1361.0000000000034
 20
512.700452336544
 11
1399.000000000003
 21
512.700452336544
  0
LINE
  8
_1-3_細線2
  6
CONTINUOUS
 62
    4
 10
1476.5000000000014
 20
512.700452336544
 11
1476.5000000000014
 21
438.70045233654457
  0
LINE
  8
_1-3_細線2
  6
CONTINUOUS
 62
    4
 10
1482.500000000002
 20
512.70045233654434
 11
1482.500000000002
 21
438.70045233654457
  0
ARC
  8
_1-3_細線2
  6
CONTINUOUS
 62
    4
 10
1476.5000000000018
 20
512.70045233654457
 40
6.0000000000000009
 50
359.99999999999744
 51
90.000000000004022
  0
LINE
  8
_1-3_細線2
  6
CONTINUOUS
 62
    4
 10
1438.5000000000005
 20
518.70045233654457
 11
1476.5000000000014
 21
518.70045233654457
  0
ARC
  8
_1-3_細線2
  6
CONTINUOUS
 62
    4
 10
1438.5000000000011
 20
512.70045233654457
 40
6.0000000000000009
 50
90.000000000004349
 51
180.00000000000182
  0
LINE
  8
_1-3_細線2
  6
CONTINUOUS
 62
    4
 10
1405.0000000000005
 20
512.70045233654434
 11
1405.0000000000005
 21
438.70045233654457
  0
ARC
  8
_1-3_細線2
  6
CONTINUOUS
 62
    4
 10
1399.0000000000009
 20
512.70045233654457
 40
6.0000000000000009
 50
359.99999999999744
 51
89.999999999999545
  0
LINE
  8
_1-3_細線2
  6
CONTINUOUS
 62
    4
 10
1361.0000000000016
 20
518.70045233654457
 11
1399.0000000000009
 21
518.70045233654457
  0
ARC
  8
_1-3_細線2
  6
CONTINUOUS
 62
    4
 10
1361.0000000000016
 20
512.70045233654457
 40
6.0000000000000009
 50
89.999999999999915
 51
179.99999999999983
  0
LINE
  8
_1-3_細線2
  6
CONTINUOUS
 62
    4
 10
1399.000000000003
 20
438.70045233654457
 11
1405.0000000000005
 21
438.70045233654457
  0
LINE
  8
_1-3_細線2
  6
CONTINUOUS
 62
    4
 10
1476.5000000000014
 20
438.70045233654457
 11
1482.500000000002
 21
438.70045233654457
  0
LINE
  8
_1-3_細線2
  6
CONTINUOUS
 62
    4
 10
1355.000000000002
 20
488.70045163252883
 11
1361.0000000000034
 21
488.70045163252837
  0
LINE
  8
_1-3_細線2
  6
CONTINUOUS
 62
    4
 10
1432.5000000000005
 20
488.70045163252883
 11
1438.5000000000018
 21
488.70045163252837
  0
LINE
  8
_1-3_細線2
  6
CONTINUOUS
 62
    4
 10
1361.0000000000034
 20
512.700452336544
 11
1361.0000000000034
 21
488.70045163252883
  0
LINE
  8
_1-3_細線2
  6
CONTINUOUS
 62
    4
 10
1438.5000000000011
 20
512.700452336544
 11
1438.5000000000018
 21
488.70045163252883
  0
LINE
  8
_1-3_細線2
  6
CONTINUOUS
 62
    4
 10
1432.5000000000005
 20
512.70045233654434
 11
1432.5000000000005
 21
488.70045163252883
  0
LINE
  8
_1-3_細線2
  6
CONTINUOUS
 62
    4
 10
1355.000000000002
 20
512.70045233654457
 11
1355.000000000002
 21
488.70045163252883
  0
ARC
  8
_1-3_細線2
  6
CONTINUOUS
 62
    4
 10
1375.0162600000019
 20
439.70045163253019
 40
1.0000000000000004
 50
179.99999999999983
 51
269.99999999999977
  0
LINE
  8
_1-3_細線2
  6
CONTINUOUS
 62
    4
 10
1379.000000000003
 20
438.70045163252973
 11
1375.0162600000019
 21
438.70045163252973
  0
ARC
  8
_1-3_細線2
  6
CONTINUOUS
 62
    4
 10
1375.0162600000019
 20
487.70045163252894
 40
1.0000000000000004
 50
89.999999999999915
 51
179.99999999999983
  0
LINE
  8
_1-3_細線2
  6
CONTINUOUS
 62
    4
 10
1379.000000000003
 20
488.70045163253064
 11
1375.0162600000019
 21
488.70045163253064
  0
LINE
  8
_1-3_細線2
  6
CONTINUOUS
 62
    4
 10
1374.0162599999999
 20
461.20045163252973
 11
1374.0162599999999
 21
439.70045163253019
  0
LINE
  8
_1-3_細線2
  6
CONTINUOUS
 62
    4
 10
1374.0162599999999
 20
487.70045163252894
 11
1374.0162599999999
 21
461.20045163252973
  0
ARC
  8
_1-3_細線2
  6
CONTINUOUS
 62
    4
 10
1381.500000000003
 20
508.70045163252883
 40
2.5
 50
89.999999999999915
 51
179.99999999999983
  0
LINE
  8
_1-3_細線2
  6
CONTINUOUS
 62
    4
 10
1396.500000000003
 20
511.20045163252883
 11
1381.500000000003
 21
511.20045163252883
  0
ARC
  8
_1-3_細線2
  6
CONTINUOUS
 62
    4
 10
1396.500000000003
 20
508.70045163252883
 40
2.5
 50
0
 51
89.999999999999915
  0
LINE
  8
_1-3_細線2
  6
CONTINUOUS
 62
    4
 10
1379.000000000003
 20
508.70045163252883
 11
1379.000000000003
 21
431.20045163252883
  0
ARC
  8
_1-3_細線2
  6
CONTINUOUS
 62
    4
 10
1381.500000000003
 20
431.20045163252883
 40
2.5
 50
179.99999999999983
 51
269.99999999999977
  0
LINE
  8
_1-3_細線2
  6
CONTINUOUS
 62
    4
 10
1381.500000000003
 20
428.70045163252883
 11
1396.500000000003
 21
428.70045163252883
  0
LINE
  8
_1-3_細線2
  6
CONTINUOUS
 62
    4
 10
1399.000000000003
 20
431.20045163252883
 11
1399.000000000003
 21
508.70045163252883
  0
ARC
  8
_1-3_細線2
  6
CONTINUOUS
 62
    4
 10
1396.500000000003
 20
431.20045163252883
 40
2.5
 50
269.99999999999977
 51
359.99999999999966
  0
LINE
  8
_1-3_細線2
  6
CONTINUOUS
 62
    4
 10
1405.0000000000025
 20
446.45045163252871
 11
1476.5000000000014
 21
446.45045163252871
  0
LINE
  8
_1-3_細線2
  6
CONTINUOUS
 62
    4
 10
1405.0000000000025
 20
480.95045163252883
 11
1476.5000000000014
 21
480.95045163252883
  0
LINE
  8
_1-2_極細2
  6
CONTINUOUS
 62
    2
 10
1374.0162599999999
 20
463.70045163252883
 11
1358.9936799999991
 21
463.70045163252883
  0
LINE
  8
_1-3_細線2
  6
CONTINUOUS
 62
    4
 10
1374.0162599999999
 20
446.2004516325311
 11
1358.9936200000025
 21
446.2004516325311
  0
ARC
  8
_1-3_細線2
  6
CONTINUOUS
 62
    4
 10
1358.9936200000025
 20
447.20045163253019
 40
1.0000000000000004
 50
179.99999999999983
 51
269.99999999999977
  0
ARC
  8
_1-2_極細2
  6
CONTINUOUS
 62
    2
 10
1396.7835200000004
 20
454.9497216325318
 40
38.78978
 50
166.96197800000505
 51
193.03566999999961
  0
ARC
  8
_1-3_細線2
  6
CONTINUOUS
 62
    4
 10
1358.9936200000025
 20
480.20045163253155
 40
1.0000000000000004
 50
89.999999999999915
 51
179.99999999999983
  0
ARC
  8
_1-2_極細2
  6
CONTINUOUS
 62
    2
 10
1396.7835200000004
 20
472.45117163252928
 40
38.78978
 50
166.96433000000002
 51
193.03802199999851
  0
LINE
  8
_1-3_細線2
  6
CONTINUOUS
 62
    4
 10
1374.0162599999999
 20
481.20045163253064
 11
1358.9936200000025
 21
481.20045163253064
  0
LINE
  8
_1-3_細線2
  6
CONTINUOUS
 62
    4
 10
1357.9936200000002
 20
447.20045163253019
 11
1357.9936200000002
 21
480.20045163253155
  0
LINE
  8
_1-5_寸法2
  6
CONTINUOUS
 62
    7
 10
1355.000000000002
 20
532.70045233654457
 11
1355.0000000000023
 21
678.70045233654446
  0
LINE
  8
_1-5_寸法2
  6
CONTINUOUS
 62
    7
 10
1355.0000000000023
 20
668.70045233654446
 11
1374.3185165257839
 21
673.87683323859494
  0
LINE
  8
_1-5_寸法2
  6
CONTINUOUS
 62
    7
 10
1355.0000000000023
 20
668.70045233654446
 11
1374.3185165257839
 21
663.52407143449409
  0
LINE
  8
_1-5_寸法2
  6
CONTINUOUS
 62
    7
 10
1715.0000005102465
 20
532.70045233654457
 11
1715.000000510247
 21
678.70045233654446
  0
LINE
  8
_1-5_寸法2
  6
CONTINUOUS
 62
    7
 10
1715.000000510247
 20
668.70045233654446
 11
1695.6814839844656
 21
663.52407143449409
  0
LINE
  8
_1-5_寸法2
  6
CONTINUOUS
 62
    7
 10
1715.000000510247
 20
668.70045233654446
 11
1695.6814839844656
 21
673.87683323859494
  0
LINE
  8
_1-5_寸法2
  6
CONTINUOUS
 62
    7
 10
1355.0000000000023
 20
668.70045233654446
 11
1715.000000510247
 21
668.70045233654446
  0
TEXT
  8
_1-5_寸法2
 62
    7
 10
1520.0000002551244
 20
668.70045233654446
 40
30
 41
1
 50
0
  1
72
  0
LINE
  8
_1-5_寸法2
  6
CONTINUOUS
 62
    7
 10
1405.000000000002
 20
536.20045163252837
 11
1405.000000000002
 21
618.70045233654457
  0
LINE
  8
_1-5_寸法2
  6
CONTINUOUS
 62
    7
 10
1405.000000000002
 20
598.70045233654457
 11
1385.6814834742204
 21
593.52407143449432
  0
LINE
  8
_1-5_寸法2
  6
CONTINUOUS
 62
    7
 10
1405.000000000002
 20
598.70045233654457
 11
1385.6814834742204
 21
603.87683323859505
  0
LINE
  8
_1-5_寸法2
  6
CONTINUOUS
 62
    7
 10
1432.500000000002
 20
536.20045163252837
 11
1432.500000000002
 21
618.70045233654457
  0
LINE
  8
_1-5_寸法2
  6
CONTINUOUS
 62
    7
 10
1357.7257058398791
 20
598.70045233654457
 11
1432.500000000002
 21
598.70045233654457
  0
TEXT
  8
_1-5_寸法2
 62
    7
 10
1357.7257058398789
 20
598.70045233654457
 40
30
 41
1
 50
0
  1
5.5
  0
LINE
  8
_1-5_寸法2
  6
CONTINUOUS
 62
    7
 10
1432.500000000002
 20
598.70045233654457
 11
1451.8185165257833
 21
603.87683323859483
  0
LINE
  8
_1-5_寸法2
  6
CONTINUOUS
 62
    7
 10
1432.500000000002
 20
598.70045233654457
 11
1451.8185165257833
 21
593.52407143449409
  0
LINE
  8
_1-5_寸法2
  6
CONTINUOUS
 62
    7
 10
1482.500000000002
 20
536.20045163252837
 11
1482.500000000002
 21
618.70045233654457
  0
LINE
  8
_1-5_寸法2
  6
CONTINUOUS
 62
    7
 10
1482.500000000002
 20
598.70045233654457
 11
1463.1814834742204
 21
593.52407143449432
  0
LINE
  8
_1-5_寸法2
  6
CONTINUOUS
 62
    7
 10
1482.500000000002
 20
598.70045233654457
 11
1463.1814834742204
 21
603.87683323859505
  0
LINE
  8
_1-5_寸法2
  6
CONTINUOUS
 62
    7
 10
1432.500000000002
 20
598.70045233654457
 11
1482.500000000002
 21
598.70045233654457
  0
TEXT
  8
_1-5_寸法2
 62
    7
 10
1442.500000000002
 20
598.70045233654457
 40
30
 41
1
 50
0
  1
10
  0
LINE
  8
_1-2_極細2
  6
CONTINUOUS
 62
    2
 10
1720.0000005102468
 20
428.70045163252883
 11
1720.0000005102468
 21
525.2004516325286
  0
LINE
  8
_1-2_極細2
  6
CONTINUOUS
 62
    2
 10
1723.5000005102436
 20
425.20045163252803
 11
1723.5000005102436
 21
521.7004516325278
  0
LINE
  8
_1-2_極細2
  6
CENTER1
 62
    2
 10
1352.7504630885994
 20
463.70045163252883
 11
1715.4675121822063
 21
463.70045163252883
  0
LINE
  8
_1-2_極細2
  6
CONTINUOUS
 62
    2
 10
1766.5000005102454
 20
485.20045163252803
 11
1766.5000005102454
 21
521.7004516325278
  0
LINE
  8
_1-2_極細2
  6
CONTINUOUS
 62
    2
 10
1770.0000005102459
 20
485.20045163252803
 11
1770.0000005102468
 21
525.2004516325286
  0
LINE
  8
_1-2_極細2
  6
CONTINUOUS
 62
    2
 10
1766.5000005102454
 20
485.20045163252803
 11
1770.0000005102459
 21
485.20045163252803
  0
LINE
  8
_1-2_極細2
  6
CONTINUOUS
 62
    2
 10
1720.0000005102468
 20
525.2004516325286
 11
1770.0000005102468
 21
525.2004516325286
  0
LINE
  8
_1-2_極細2
  6
CONTINUOUS
 62
    2
 10
1723.5000005102436
 20
521.7004516325278
 11
1766.5000005102454
 21
521.7004516325278
  0
LINE
  8
_1-5_寸法2
  6
CONTINUOUS
 62
    7
 10
1720.0000005102468
 20
545.2004516325286
 11
1720.0000005102468
 21
688.70045233654446
  0
LINE
  8
_1-5_寸法2
  6
CONTINUOUS
 62
    7
 10
1720.0000005102468
 20
668.70045233654446
 11
1739.318517036028
 21
673.87683323859494
  0
LINE
  8
_1-5_寸法2
  6
CONTINUOUS
 62
    7
 10
1720.0000005102468
 20
668.70045233654446
 11
1739.318517036028
 21
663.52407143449409
  0
LINE
  8
_1-5_寸法2
  6
CONTINUOUS
 62
    7
 10
1770.0000005102468
 20
545.2004516325286
 11
1770.0000005102468
 21
688.70045233654446
  0
LINE
  8
_1-5_寸法2
  6
CONTINUOUS
 62
    7
 10
1770.0000005102468
 20
668.70045233654446
 11
1750.6814839844651
 21
663.52407143449409
  0
LINE
  8
_1-5_寸法2
  6
CONTINUOUS
 62
    7
 10
1770.0000005102468
 20
668.70045233654446
 11
1750.6814839844651
 21
673.87683323859494
  0
LINE
  8
_1-5_寸法2
  6
CONTINUOUS
 62
    7
 10
1720.0000005102468
 20
668.70045233654446
 11
1770.0000005102468
 21
668.70045233654446
  0
TEXT
  8
_1-5_寸法2
 62
    7
 10
1730.0000005102468
 20
668.70045233654446
 40
30
 41
1
 50
0
  1
10
  0
LINE
  8
_1-2_極細2
  6
CONTINUOUS
 62
    2
 10
1346.5000000000023
 20
425.20045163252803
 11
1346.5000000000023
 21
521.7004516325278
  0
LINE
  8
_1-2_極細2
  6
CONTINUOUS
 62
    2
 10
1350.0000000000002
 20
428.70045163252883
 11
1350.0000000000002
 21
525.2004516325286
  0
LINE
  8
_1-2_極細2
  6
CONTINUOUS
 62
    2
 10
1350.0000000000002
 20
428.70045163252883
 11
1720.0000005102468
 21
428.70045163252883
  0
LINE
  8
_1-2_極細2
  6
CONTINUOUS
 62
    2
 10
1723.5000005102436
 20
425.20045163252803
 11
1346.5000000000023
 21
425.20045163252803
  0
LINE
  8
_1-2_極細2
  6
CONTINUOUS
 62
    2
 10
1300.0000000000002
 20
485.20045163252871
 11
1300.0000000000002
 21
525.2004516325286
  0
LINE
  8
_1-2_極細2
  6
CONTINUOUS
 62
    2
 10
1303.5000000000005
 20
485.20045163252803
 11
1303.4999999999982
 21
521.70045163252848
  0
LINE
  8
_1-2_極細2
  6
CONTINUOUS
 62
    2
 10
1300.0000000000002
 20
485.20045163252871
 11
1303.5000000000005
 21
485.20045163252871
  0
LINE
  8
_1-2_極細2
  6
CONTINUOUS
 62
    2
 10
1303.5000000000005
 20
521.7004516325278
 11
1346.5000000000023
 21
521.7004516325278
  0
LINE
  8
_1-2_極細2
  6
CONTINUOUS
 62
    2
 10
1300.0000000000002
 20
525.2004516325286
 11
1350.0000000000002
 21
525.2004516325286
  0
LINE
  8
_1-5_寸法2
  6
CONTINUOUS
 62
    7
 10
1326.5000000000023
 20
425.20045163252809
 11
1180.0000000000002
 21
425.20045163252865
  0
LINE
  8
_1-5_寸法2
  6
CONTINUOUS
 62
    7
 10
1200.0000000000002
 20
425.2004516325286
 11
1194.8236190979499
 21
444.51896815830997
  0
LINE
  8
_1-5_寸法2
  6
CONTINUOUS
 62
    7
 10
1200.0000000000002
 20
425.2004516325286
 11
1205.1763809020506
 21
444.51896815830997
  0
LINE
  8
_1-5_寸法2
  6
CONTINUOUS
 62
    7
 10
1280.0000000000002
 20
485.20045163252888
 11
1180.0000000000002
 21
485.20045163252928
  0
LINE
  8
_1-5_寸法2
  6
CONTINUOUS
 62
    7
 10
1200.0000000000002
 20
485.20045163252917
 11
1205.1763809020506
 21
465.88193510674785
  0
LINE
  8
_1-5_寸法2
  6
CONTINUOUS
 62
    7
 10
1200.0000000000002
 20
485.20045163252917
 11
1194.8236190979496
 21
465.88193510674785
  0
LINE
  8
_1-5_寸法2
  6
CONTINUOUS
 62
    7
 10
1200.0000000000002
 20
425.2004516325286
 11
1200.0000000000002
 21
485.20045163252917
  0
TEXT
  8
_1-5_寸法2
 62
    7
 10
1200.0000000000002
 20
440.20045163252917
 40
30
 41
1
 50
90
  1
12
  0
LINE
  8
_1-5_寸法2
  6
CONTINUOUS
 62
    7
 10
1200.0000000000002
 20
485.20045163252917
 11
1194.8236190979499
 21
504.51896815831054
  0
LINE
  8
_1-5_寸法2
  6
CONTINUOUS
 62
    7
 10
1200.0000000000002
 20
485.20045163252917
 11
1205.1763809020506
 21
504.51896815831054
  0
LINE
  8
_1-5_寸法2
  6
CONTINUOUS
 62
    7
 10
1280.0000000000002
 20
525.20045163252871
 11
1180.0000000000002
 21
525.20045163252905
  0
LINE
  8
_1-5_寸法2
  6
CONTINUOUS
 62
    7
 10
1200.0000000000002
 20
525.20045163252894
 11
1205.1763809020506
 21
505.88193510674756
  0
LINE
  8
_1-5_寸法2
  6
CONTINUOUS
 62
    7
 10
1200.0000000000002
 20
525.20045163252894
 11
1194.8236190979496
 21
505.88193510674762
  0
LINE
  8
_1-5_寸法2
  6
CONTINUOUS
 62
    7
 10
1200.0000000000002
 20
485.20045163252917
 11
1200.0000000000002
 21
525.20045163252894
  0
TEXT
  8
_1-5_寸法2
 62
    7
 10
1200.0000000000002
 20
497.70045163252917
 40
30
 41
1
 50
90
  1
8
  0
LINE
  8
_1-5_寸法2
  6
CONTINUOUS
 62
    7
 10
1300.0000000000002
 20
545.2004516325286
 11
1300.0000000000002
 21
688.70045233654446
  0
LINE
  8
_1-5_寸法2
  6
CONTINUOUS
 62
    7
 10
1300.0000000000002
 20
668.70045233654446
 11
1319.3185165257817
 21
673.87683323859494
  0
LINE
  8
_1-5_寸法2
  6
CONTINUOUS
 62
    7
 10
1300.0000000000002
 20
668.70045233654446
 11
1319.3185165257817
 21
663.52407143449409
  0
LINE
  8
_1-5_寸法2
  6
CONTINUOUS
 62
    7
 10
1350.0000000000002
 20
545.2004516325286
 11
1350.0000000000002
 21
688.70045233654446
  0
LINE
  8
_1-5_寸法2
  6
CONTINUOUS
 62
    7
 10
1350.0000000000002
 20
668.70045233654446
 11
1330.681483474219
 21
663.52407143449409
  0
LINE
  8
_1-5_寸法2
  6
CONTINUOUS
 62
    7
 10
1350.0000000000002
 20
668.70045233654446
 11
1330.681483474219
 21
673.87683323859494
  0
LINE
  8
_1-5_寸法2
  6
CONTINUOUS
 62
    7
 10
1300.0000000000002
 20
668.70045233654446
 11
1350.0000000000002
 21
668.70045233654446
  0
TEXT
  8
_1-5_寸法2
 62
    7
 10
1310.0000000000002
 20
668.70045233654446
 40
30
 41
1
 50
0
  1
10
  0
LINE
  8
_1-5_寸法2
  6
CONTINUOUS
 62
    7
 10
1300.0000000000002
 20
545.2004516325286
 11
1300.0000000000011
 21
758.70045233654446
  0
LINE
  8
_1-5_寸法2
  6
CONTINUOUS
 62
    7
 10
1300.0000000000011
 20
738.70045233654446
 11
1319.3185165257828
 21
743.87683323859494
  0
LINE
  8
_1-5_寸法2
  6
CONTINUOUS
 62
    7
 10
1300.0000000000011
 20
738.70045233654446
 11
1319.3185165257828
 21
733.52407143449409
  0
LINE
  8
_1-5_寸法2
  6
CONTINUOUS
 62
    7
 10
1770.0000005102468
 20
545.2004516325286
 11
1770.0000005102468
 21
758.70045233654446
  0
LINE
  8
_1-5_寸法2
  6
CONTINUOUS
 62
    7
 10
1770.0000005102468
 20
738.70045233654446
 11
1750.6814839844651
 21
733.52407143449409
  0
LINE
  8
_1-5_寸法2
  6
CONTINUOUS
 62
    7
 10
1770.0000005102468
 20
738.70045233654446
 11
1750.6814839844651
 21
743.87683323859494
  0
LINE
  8
_1-5_寸法2
  6
CONTINUOUS
 62
    7
 10
1300.0000000000011
 20
738.70045233654446
 11
1770.0000005102468
 21
738.70045233654446
  0
TEXT
  8
_1-5_寸法2
 62
    7
 10
1520.0000002551246
 20
738.70045233654446
 40
30
 41
1
 50
0
  1
94
  0
LINE
  8
_1-2_極細2
  6
CENTER1
 62
    2
 10
1535
 20
570.44074709513325
 11
1535
 21
390.74910445368602
  0
ARC
  8
_0-1_計細線
  6
CONTINUOUS
 62
    3
 10
1340.9490072064525
 20
1480.6447025597979
 40
32.499868667505325
 50
269.99999999999977
 51
89.999999999999545
  0
LINE
  8
_0-1_計細線
  6
CONTINUOUS
 62
    3
 10
1353.8715883194279
 20
1478.8632764252363
 11
1340.871640852426
 21
1478.8632764252363
  0
CIRCLE
  8
_0-1_計細線
  6
CONTINUOUS
 62
    3
 10
1346.5804511163624
 20
1474.9390522830899
 40
1.9999919180004326
  0
CIRCLE
  8
_0-1_計細線
  6
CONTINUOUS
 62
    3
 10
1353.0566449459591
 20
1473.6053976724097
 40
1.9999919180004326
  0
CIRCLE
  8
_0-1_計細線
  6
CONTINUOUS
 62
    3
 10
1347.9140990604035
 20
1468.4628517868541
 40
1.9999919180004326
  0
LINE
  8
_0-1_計細線
  6
CONTINUOUS
 62
    3
 10
1353.8715883194279
 20
1478.8632764252363
 11
1353.8715883194279
 21
1480.6132693534864
  0
CIRCLE
  8
_0-1_計細線
  6
CONTINUOUS
 62
    3
 10
1335.1628305884867
 20
1474.9390522830899
 40
1.9999919180004326
  0
CIRCLE
  8
_0-1_計細線
  6
CONTINUOUS
 62
    3
 10
1328.68663675889
 20
1473.6053976724097
 40
1.9999919180004326
  0
CIRCLE
  8
_0-1_計細線
  6
CONTINUOUS
 62
    3
 10
1333.8291826444456
 20
1468.4628517868541
 40
1.9999919180004326
  0
CIRCLE
  8
_0-1_計細線
  6
CONTINUOUS
 62
    3
 10
1340.8540342569058
 20
1472.5816751426212
 40
1.9999919180004326
  0
CIRCLE
  8
_0-1_計細線
  6
CONTINUOUS
 62
    3
 10
1340.8540342569058
 20
1466.5805527265884
 40
1.9999919180004326
  0
LINE
  8
_0-1_計細線
  6
CONTINUOUS
 62
    3
 10
1327.8716933854239
 20
1478.8632764252363
 11
1327.8716933854239
 21
1480.6132693534864
  0
LINE
  8
_0-1_計細線
  6
CONTINUOUS
 62
    3
 10
1327.8716933854239
 20
1478.8632764252363
 11
1340.871640852426
 21
1478.8632764252363
  0
LINE
  8
_0-1_計細線
  6
CONTINUOUS
 62
    3
 10
1353.8715883194279
 20
1482.3632622817363
 11
1340.871640852426
 21
1482.3632622817363
  0
CIRCLE
  8
_0-1_計細線
  6
CONTINUOUS
 62
    3
 10
1346.5804511163624
 20
1486.2874864238843
 40
1.9999919180004326
  0
CIRCLE
  8
_0-1_計細線
  6
CONTINUOUS
 62
    3
 10
1353.0566449459591
 20
1487.6211343679242
 40
1.9999919180004326
  0
CIRCLE
  8
_0-1_計細線
  6
CONTINUOUS
 62
    3
 10
1347.9140990604035
 20
1492.7636802534798
 40
1.9999919180004326
  0
LINE
  8
_0-1_計細線
  6
CONTINUOUS
 62
    3
 10
1353.8715883194279
 20
1482.3632622817363
 11
1353.8715883194279
 21
1480.6132693534864
  0
CIRCLE
  8
_0-1_計細線
  6
CONTINUOUS
 62
    3
 10
1335.1628305884867
 20
1486.2874864238843
 40
1.9999919180004326
  0
CIRCLE
  8
_0-1_計細線
  6
CONTINUOUS
 62
    3
 10
1328.68663675889
 20
1487.6211343679242
 40
1.9999919180004326
  0
CIRCLE
  8
_0-1_計細線
  6
CONTINUOUS
 62
    3
 10
1333.8291826444456
 20
1492.7636802534798
 40
1.9999919180004326
  0
CIRCLE
  8
_0-1_計細線
  6
CONTINUOUS
 62
    3
 10
1340.8540342569058
 20
1488.6448568977125
 40
1.9999919180004326
  0
CIRCLE
  8
_0-1_計細線
  6
CONTINUOUS
 62
    3
 10
1340.8540342569058
 20
1494.6459859803858
 40
1.9999919180004326
  0
LINE
  8
_0-1_計細線
  6
CONTINUOUS
 62
    3
 10
1327.8716933854239
 20
1482.3632622817363
 11
1327.8716933854239
 21
1480.6132693534864
  0
LINE
  8
_0-1_計細線
  6
CONTINUOUS
 62
    3
 10
1327.8716933854239
 20
1482.3632622817363
 11
1340.871640852426
 21
1482.3632622817363
  0
CIRCLE
  8
_0-1_計細線
  6
CONTINUOUS
 62
    3
 10
1340.7942744983964
 20
1480.6447025597979
 40
16.499933323502546
  0
CIRCLE
  8
_0-1_計細線
  6
CONTINUOUS
 62
    3
 10
1340.7942744983964
 20
1480.6447025597979
 40
19.999919180003303
  0
CIRCLE
  8
_0-1_計細線
  6
CONTINUOUS
 62
    3
 10
1340.7942744983964
 20
1480.6447025597979
 40
21.999911098003736
  0
CIRCLE
  8
_0-1_計細線
  6
CONTINUOUS
 62
    3
 10
1340.7942744983964
 20
1480.6447025597979
 40
32.249869677755441
  0
ARC
  8
_0-1_計細線
  6
CONTINUOUS
 62
    3
 10
1340.7942744983964
 20
1480.6447025597979
 40
32.499868667505325
 50
89.999999999999915
 51
269.99999999999977
  0
LINE
  8
_0-1_計細線
  6
CONTINUOUS
 62
    3
 10
355.37164085242608
 20
1454.6132693534873
 11
355.37164085242608
 21
1444.6132693534873
  0
LINE
  8
_0-1_計細線
  6
CONTINUOUS
 62
    3
 10
355.37164085242608
 20
1470.1132693534869
 11
355.37164085242608
 21
1460.1132693534869
  0
LINE
  8
_0-1_計細線
  6
CONTINUOUS
 62
    3
 10
355.37164085242608
 20
1485.6132693534864
 11
355.37164085242608
 21
1475.6132693534864
  0
LINE
  8
_0-1_計細線
  6
CONTINUOUS
 62
    3
 10
355.37164085242608
 20
1501.1132693534862
 11
355.37164085242608
 21
1491.1132693534862
  0
LINE
  8
_0-1_計細線
  6
CONTINUOUS
 62
    3
 10
355.37164085242608
 20
1516.6132693534857
 11
355.37164085242608
 21
1506.6132693534857
  0
LINE
  8
_0-0_計極細
  6
CONTINUOUS
 62
    2
 10
364.42163857145175
 20
1506.6132693534857
 11
364.42164085242621
 21
1501.1132693534862
  0
LINE
  8
_0-0_計極細
  6
CONTINUOUS
 62
    2
 10
371.32163854124798
 20
1506.6132693534857
 11
371.32164085242675
 21
1501.1132693534862
  0
LINE
  8
_0-0_計極細
  6
CONTINUOUS
 62
    2
 10
364.4216408616785
 20
1491.1132693534862
 11
364.4216408616785
 21
1485.6132693534864
  0
LINE
  8
_0-0_計極細
  6
CONTINUOUS
 62
    2
 10
371.32164086180097
 20
1491.1132693534862
 11
371.32164086180097
 21
1485.6132693534864
  0
LINE
  8
_0-0_計極細
  6
CONTINUOUS
 62
    2
 10
364.4216408616785
 20
1470.1132693534869
 11
364.4216408616785
 21
1475.6132693534864
  0
LINE
  8
_0-0_計極細
  6
CONTINUOUS
 62
    2
 10
371.32164086180097
 20
1470.1132693534869
 11
371.32164086180097
 21
1475.6132693534864
  0
LINE
  8
_0-0_計極細
  6
CONTINUOUS
 62
    2
 10
364.4216408616785
 20
1454.6132693534873
 11
364.4216408616785
 21
1460.1132693534869
  0
LINE
  8
_0-0_計極細
  6
CONTINUOUS
 62
    2
 10
371.32164086180097
 20
1454.6132693534873
 11
371.32164086180097
 21
1460.1132693534869
  0
LINE
  8
_0-0_計極細
  6
CONTINUOUS
 62
    2
 10
550.77976393609856
 20
1485.6132693534864
 11
746.48349750405828
 21
1491.1132693534862
  0
LINE
  8
_0-0_計極細
  6
CONTINUOUS
 62
    2
 10
550.77976393609856
 20
1475.6132693534864
 11
746.48349750405828
 21
1470.1132693534862
  0
LINE
  8
_0-0_計極細
  6
CONTINUOUS
 62
    2
 10
655.4216362753757
 20
1506.6132693534857
 11
655.42163855635022
 21
1501.1132693534862
  0
LINE
  8
_0-0_計極細
  6
CONTINUOUS
 62
    2
 10
662.32163624517193
 20
1506.6132693534857
 11
662.32163855635076
 21
1501.1132693534862
  0
LINE
  8
_0-0_計極細
  6
CONTINUOUS
 62
    2
 10
655.42163856560251
 20
1491.1132693534862
 11
655.42163856560251
 21
1485.6132693534864
  0
LINE
  8
_0-0_計極細
  6
CONTINUOUS
 62
    2
 10
662.32163856572492
 20
1491.1132693534862
 11
662.32163856572492
 21
1485.6132693534864
  0
LINE
  8
_0-0_計極細
  6
CONTINUOUS
 62
    2
 10
655.42163856560251
 20
1470.1132693534869
 11
655.42163856560251
 21
1475.6132693534864
  0
LINE
  8
_0-0_計極細
  6
CONTINUOUS
 62
    2
 10
662.32163856572492
 20
1470.1132693534869
 11
662.32163856572492
 21
1475.6132693534864
  0
LINE
  8
_0-0_計極細
  6
CONTINUOUS
 62
    2
 10
655.42163856560251
 20
1454.6132693534873
 11
655.42163856560251
 21
1460.1132693534869
  0
LINE
  8
_0-0_計極細
  6
CONTINUOUS
 62
    2
 10
662.32163856572492
 20
1454.6132693534873
 11
662.32163856572492
 21
1460.1132693534869
  0
LINE
  8
_0-0_計極細
  6
CONTINUOUS
 62
    2
 10
946.4216362753757
 20
1506.6132693534857
 11
946.42163855635033
 21
1501.1132693534862
  0
LINE
  8
_0-0_計極細
  6
CONTINUOUS
 62
    2
 10
953.32163624517193
 20
1506.6132693534857
 11
953.32163855635088
 21
1501.1132693534862
  0
LINE
  8
_0-0_計極細
  6
CONTINUOUS
 62
    2
 10
946.42163856560262
 20
1491.1132693534862
 11
946.42163856560262
 21
1485.6132693534864
  0
LINE
  8
_0-0_計極細
  6
CONTINUOUS
 62
    2
 10
953.32163856572492
 20
1491.1132693534862
 11
953.32163856572492
 21
1485.6132693534864
  0
LINE
  8
_0-0_計極細
  6
CONTINUOUS
 62
    2
 10
946.42163856560262
 20
1470.1132693534869
 11
946.42163856560262
 21
1475.6132693534864
  0
LINE
  8
_0-0_計極細
  6
CONTINUOUS
 62
    2
 10
953.32163856572492
 20
1470.1132693534869
 11
953.32163856572492
 21
1475.6132693534864
  0
LINE
  8
_0-0_計極細
  6
CONTINUOUS
 62
    2
 10
946.42163856560262
 20
1454.6132693534873
 11
946.42163856560262
 21
1460.1132693534869
  0
LINE
  8
_0-0_計極細
  6
CONTINUOUS
 62
    2
 10
953.32163856572492
 20
1454.6132693534873
 11
953.32163856572492
 21
1460.1132693534869
  0
LINE
  8
_0-0_計極細
  6
CONTINUOUS
 62
    2
 10
2308.8760028296128
 20
1480.6132693535121
 11
1363.1504827105152
 21
1504.3812899009574
  0
LINE
  8
_0-0_計極細
  6
CONTINUOUS
 62
    2
 10
2308.8760028296119
 20
1480.6132693534605
 11
1363.1504827105152
 21
1456.8452488060152
  0
LINE
  8
_0-0_計極細
  6
CENTER1
 62
    2
 10
335.70018159460062
 20
1480.6132693534864
 11
2346.7289022212335
 21
1480.6132693534864
  0
LINE
  8
_0-1_計細線
  6
CONTINUOUS
 62
    3
 10
353.87164085242603
 20
1517.6132693534862
 11
353.87164085242603
 21
1443.6132693534862
  0
LINE
  8
_0-1_計細線
  6
CONTINUOUS
 62
    3
 10
353.87164085242603
 20
1443.6132693534862
 11
2327.871640852426
 21
1443.6132693534862
  0
LINE
  8
_0-1_計細線
  6
CONTINUOUS
 62
    3
 10
2327.871640852426
 20
1443.6132693534862
 11
2327.871640852426
 21
1517.6132693534862
  0
LINE
  8
_0-1_計細線
  6
CONTINUOUS
 62
    3
 10
2327.871640852426
 20
1517.6132693534862
 11
353.87164085242603
 21
1517.6132693534862
  0
LINE
  8
_0-1_計細線
  6
CONTINUOUS
 62
    3
 10
2337.871640852426
 20
1433.6132693534862
 11
2337.871640852426
 21
1527.6132693534862
  0
LINE
  8
_0-1_計細線
  6
CONTINUOUS
 62
    3
 10
2337.871640852426
 20
1527.6132693534862
 11
343.87164085242603
 21
1527.6132693534862
  0
LINE
  8
_0-1_計細線
  6
CONTINUOUS
 62
    3
 10
343.87164085242603
 20
1527.6132693534862
 11
343.87164085242603
 21
1433.6132693534862
  0
LINE
  8
_0-1_計細線
  6
CONTINUOUS
 62
    3
 10
343.87164085242603
 20
1433.6132693534862
 11
2337.871640852426
 21
1433.6132693534862
  0
LINE
  8
_0-5_寸法線
  6
CONTINUOUS
 62
    7
 10
355.37164085242608
 20
1547.6132693534862
 11
355.37164085242608
 21
1637.6132693534862
  0
LINE
  8
_0-5_寸法線
  6
CONTINUOUS
 62
    7
 10
355.37164085242608
 20
1627.6132693534862
 11
374.6901573782074
 21
1632.7896502555368
  0
LINE
  8
_0-5_寸法線
  6
CONTINUOUS
 62
    7
 10
355.37164085242608
 20
1627.6132693534862
 11
374.6901573782074
 21
1622.4368884514361
  0
LINE
  8
_0-5_寸法線
  6
CONTINUOUS
 62
    7
 10
2326.3716408524269
 20
1547.6132693534862
 11
2326.3716408524269
 21
1637.6132693534862
  0
LINE
  8
_0-5_寸法線
  6
CONTINUOUS
 62
    7
 10
2326.3716408524269
 20
1627.6132693534862
 11
2307.0531243266455
 21
1622.4368884514361
  0
LINE
  8
_0-5_寸法線
  6
CONTINUOUS
 62
    7
 10
2326.3716408524269
 20
1627.6132693534862
 11
2307.0531243266455
 21
1632.7896502555368
  0
LINE
  8
_0-5_寸法線
  6
CONTINUOUS
 62
    7
 10
355.37164085242608
 20
1627.6132693534862
 11
2326.3716408524269
 21
1627.6132693534862
  0
TEXT
  8
_0-5_寸法線
 62
    7
 10
1310.8716408524265
 20
1627.6132693534862
 40
30
 41
1
 50
0
  1
1971
  0
LINE
  8
_0-5_寸法線
  6
CONTINUOUS
 62
    7
 10
2357.871640852426
 20
1433.6132693534862
 11
2517.871640852426
 21
1433.6132693534855
  0
LINE
  8
_0-5_寸法線
  6
CONTINUOUS
 62
    7
 10
2507.871640852426
 20
1433.6132693534855
 11
2502.6952599503757
 21
1452.931785879267
  0
LINE
  8
_0-5_寸法線
  6
CONTINUOUS
 62
    7
 10
2507.871640852426
 20
1433.6132693534855
 11
2513.0480217544764
 21
1452.931785879267
  0
LINE
  8
_0-5_寸法線
  6
CONTINUOUS
 62
    7
 10
2357.871640852426
 20
1527.6132693534862
 11
2517.871640852426
 21
1527.6132693534855
  0
LINE
  8
_0-5_寸法線
  6
CONTINUOUS
 62
    7
 10
2507.871640852426
 20
1527.6132693534855
 11
2513.0480217544764
 21
1508.2947528277041
  0
LINE
  8
_0-5_寸法線
  6
CONTINUOUS
 62
    7
 10
2507.871640852426
 20
1527.6132693534855
 11
2502.6952599503757
 21
1508.2947528277041
  0
LINE
  8
_0-5_寸法線
  6
CONTINUOUS
 62
    7
 10
2507.871640852426
 20
1433.6132693534855
 11
2507.871640852426
 21
1527.6132693534855
  0
TEXT
  8
_0-5_寸法線
 62
    7
 10
2507.871640852426
 20
1465.6132693534855
 40
30
 41
1
 50
90
  1
94
  0
LINE
  8
_0-5_寸法線
  6
CONTINUOUS
 62
    7
 10
2357.871640852426
 20
1433.6132693534862
 11
2447.871640852426
 21
1433.6132693534862
  0
LINE
  8
_0-5_寸法線
  6
CONTINUOUS
 62
    7
 10
2437.871640852426
 20
1433.6132693534862
 11
2432.6952599503757
 21
1452.9317858792674
  0
LINE
  8
_0-5_寸法線
  6
CONTINUOUS
 62
    7
 10
2437.871640852426
 20
1433.6132693534862
 11
2443.0480217544764
 21
1452.9317858792674
  0
LINE
  8
_0-5_寸法線
  6
CONTINUOUS
 62
    7
 10
2357.871640852426
 20
1480.6132693534867
 11
2447.871640852426
 21
1480.6132693534864
  0
LINE
  8
_0-5_寸法線
  6
CONTINUOUS
 62
    7
 10
2437.871640852426
 20
1480.6132693534864
 11
2443.0480217544764
 21
1461.2947528277048
  0
LINE
  8
_0-5_寸法線
  6
CONTINUOUS
 62
    7
 10
2437.871640852426
 20
1480.6132693534864
 11
2432.6952599503757
 21
1461.2947528277048
  0
LINE
  8
_0-5_寸法線
  6
CONTINUOUS
 62
    7
 10
2437.871640852426
 20
1433.6132693534862
 11
2437.871640852426
 21
1480.6132693534864
  0
TEXT
  8
_0-5_寸法線
 62
    7
 10
2437.871640852426
 20
1442.113269353486
 40
30
 41
1
 50
90
  1
47
  0
LINE
  8
_0-5_寸法線
  6
CONTINUOUS
 62
    7
 10
2437.871640852426
 20
1480.6132693534864
 11
2432.6952599503757
 21
1499.9317858792676
  0
LINE
  8
_0-5_寸法線
  6
CONTINUOUS
 62
    7
 10
2437.871640852426
 20
1480.6132693534864
 11
2443.0480217544764
 21
1499.9317858792676
  0
LINE
  8
_0-5_寸法線
  6
CONTINUOUS
 62
    7
 10
2357.871640852426
 20
1527.6132693534862
 11
2447.871640852426
 21
1527.613269353486
  0
LINE
  8
_0-5_寸法線
  6
CONTINUOUS
 62
    7
 10
2437.871640852426
 20
1527.613269353486
 11
2443.0480217544764
 21
1508.2947528277045
  0
LINE
  8
_0-5_寸法線
  6
CONTINUOUS
 62
    7
 10
2437.871640852426
 20
1527.613269353486
 11
2432.6952599503757
 21
1508.2947528277045
  0
LINE
  8
_0-5_寸法線
  6
CONTINUOUS
 62
    7
 10
2437.871640852426
 20
1480.6132693534864
 11
2437.871640852426
 21
1527.613269353486
  0
TEXT
  8
_0-5_寸法線
 62
    7
 10
2437.871640852426
 20
1489.113269353486
 40
30
 41
1
 50
90
  1
47
  0
LINE
  8
_0-5_寸法線
  6
CONTINUOUS
 62
    7
 10
1457.1988874102624
 20
1523.6780307623851
 11
1462.375268312313
 21
1542.9965472881668
  0
LINE
  8
_0-5_寸法線
  6
CONTINUOUS
 62
    7
 10
1457.1988874102624
 20
1523.6780307623851
 11
1471.3410230339935
 21
1537.8201663861159
  0
LINE
  8
_0-5_寸法線
  6
CONTINUOUS
 62
    7
 10
1457.1988874102624
 20
1523.6780307623851
 11
1488.3384119296416
 21
1577.6132693534862
  0
LINE
  8
_0-5_寸法線
  6
CONTINUOUS
 62
    7
 10
1488.3384119296416
 20
1577.6132693534862
 11
1680.3384119296413
 21
1577.6132693534862
  0
TEXT
  8
_0-5_寸法線
 62
    7
 10
1488.3384119296416
 20
1577.6132693534862
 40
30
 41
0.7999999999999998
 50
0
  1
排水ユニット本体
  0
LINE
  8
_0-5_寸法線
  6
CONTINUOUS
 62
    7
 10
1025.3764010663278
 20
1465.5890380948347
 11
1020.2000201642774
 21
1446.2705215690535
  0
LINE
  8
_0-5_寸法線
  6
CONTINUOUS
 62
    7
 10
1025.3764010663278
 20
1465.5890380948347
 11
1011.2342654425969
 21
1451.4469024711038
  0
LINE
  8
_0-5_寸法線
  6
CONTINUOUS
 62
    7
 10
1025.3764010663278
 20
1465.5890380948347
 11
978.04766891648342
 21
1383.6132693534862
  0
LINE
  8
_0-5_寸法線
  6
CONTINUOUS
 62
    7
 10
978.04766891648342
 20
1383.6132693534862
 11
906.04766891648364
 21
1383.6132693534862
  0
TEXT
  8
_0-5_寸法線
 62
    7
 10
906.04766891648353
 20
1383.6132693534862
 40
30
 41
0.7999999999999998
 50
0
  1
上フタ
  0
LINE
  8
_0-5_寸法線
  6
CONTINUOUS
 62
    7
 10
1333.4865576505554
 20
1459.8939588913931
 11
1328.3101767485048
 21
1440.5754423656115
  0
LINE
  8
_0-5_寸法線
  6
CONTINUOUS
 62
    7
 10
1333.4865576505554
 20
1459.8939588913931
 11
1319.3444220268243
 21
1445.7518232676623
  0
LINE
  8
_0-5_寸法線
  6
CONTINUOUS
 62
    7
 10
1333.4865576505554
 20
1459.8939588913931
 11
1289.445881011874
 21
1383.6132693534862
  0
LINE
  8
_0-5_寸法線
  6
CONTINUOUS
 62
    7
 10
1289.445881011874
 20
1383.6132693534862
 11
1217.4458810118742
 21
1383.6132693534862
  0
TEXT
  8
_0-5_寸法線
 62
    7
 10
1217.445881011874
 20
1383.6132693534862
 40
30
 41
0.7999999999999998
 50
0
  1
排水口
  0
LINE
  8
_0-5_寸法線
  6
CONTINUOUS
 62
    7
 10
1343.4000153870181
 20
1478.8632764252363
 11
1353.4000153870181
 21
1461.5427683495475
  0
LINE
  8
_0-5_寸法線
  6
CONTINUOUS
 62
    7
 10
1343.4000153870181
 20
1478.8632764252363
 11
1343.4000153870181
 21
1458.8632764252363
  0
LINE
  8
_0-5_寸法線
  6
CONTINUOUS
 62
    7
 10
1343.4000153870181
 20
1478.8632764252363
 11
1368.9221778609519
 21
1383.6132693534862
  0
LINE
  8
_0-5_寸法線
  6
CONTINUOUS
 62
    7
 10
1368.9221778609519
 20
1383.6132693534862
 11
1512.9221778609519
 21
1383.6132693534862
  0
TEXT
  8
_0-5_寸法線
 62
    7
 10
1368.9221778609519
 20
1383.6132693534862
 40
30
 41
0.7999999999999998
 50
0
  1
ストレーナー
  0
LINE
  8
_0-1_計細線
  6
CONTINUOUS
 62
    3
 10
2632.8281460144362
 20
1512.3632693217362
 11
2634.6281460144082
 21
1512.3632693217362
  0
ARC
  8
_0-1_計細線
  6
CONTINUOUS
 62
    3
 10
2634.6281460144082
 20
1509.3632693247364
 40
2.9999999969999998
 50
0
 51
89.999999999999915
  0
LINE
  8
_0-0_計極細
  6
CONTINUOUS
 62
    2
 10
2637.6281460143791
 20
1503.6132693304862
 11
2647.6281460142791
 21
1503.6132693304862
  0
LINE
  8
_0-1_計細線
  6
CONTINUOUS
 62
    3
 10
2637.6281460143791
 20
1506.6132693274863
 11
2647.6281460142791
 21
1506.6132693274863
  0
LINE
  8
_0-0_計極細
  6
CONTINUOUS
 62
    2
 10
2671.1312086811126
 20
1480.6132693534864
 11
2671.1312086811126
 21
1503.9632693301357
  0
LINE
  8
_0-1_計細線
  6
CONTINUOUS
 62
    3
 10
2672.1281460144364
 20
1480.6132693534864
 11
2672.1281460144364
 21
1502.963269331136
  0
LINE
  8
_0-0_計極細
  6
CONTINUOUS
 62
    2
 10
2647.6281460142791
 20
1502.963269331136
 11
2672.1281460144364
 21
1502.963269331136
  0
LINE
  8
_0-1_計細線
  6
CONTINUOUS
 62
    3
 10
2647.6281460142791
 20
1503.9632693301357
 11
2671.1312086811126
 21
1503.9632693301357
  0
LINE
  8
_0-1_計細線
  6
CONTINUOUS
 62
    3
 10
2647.6281460142791
 20
1480.6132693534864
 11
2647.6281460142791
 21
1506.6132693274863
  0
LINE
  8
_0-1_計細線
  6
CONTINUOUS
 62
    3
 10
2637.6281460143791
 20
1480.6132693534864
 11
2637.6281460143791
 21
1509.3632693247364
  0
LINE
  8
_0-1_計細線
  6
CONTINUOUS
 62
    3
 10
2632.8281460144362
 20
1448.8632693852364
 11
2634.6281460144082
 21
1448.8632693852364
  0
ARC
  8
_0-1_計細線
  6
CONTINUOUS
 62
    3
 10
2634.6281460144082
 20
1451.8632693822362
 40
2.9999999969999998
 50
269.99999999999977
 51
359.99999999999966
  0
LINE
  8
_0-0_計極細
  6
CONTINUOUS
 62
    2
 10
2637.6281460143791
 20
1457.6132693764864
 11
2647.6281460142791
 21
1457.6132693764864
  0
LINE
  8
_0-1_計細線
  6
CONTINUOUS
 62
    3
 10
2637.6281460143791
 20
1454.6132693794862
 11
2647.6281460142791
 21
1454.6132693794862
  0
LINE
  8
_0-0_計極細
  6
CONTINUOUS
 62
    2
 10
2671.1312086811126
 20
1480.6132693534864
 11
2671.1312086811126
 21
1457.2632693768367
  0
LINE
  8
_0-1_計細線
  6
CONTINUOUS
 62
    3
 10
2672.1281460144364
 20
1480.6132693534864
 11
2672.1281460144364
 21
1458.2632693758367
  0
LINE
  8
_0-0_計極細
  6
CONTINUOUS
 62
    2
 10
2647.6281460142791
 20
1458.2632693758367
 11
2672.1281460144364
 21
1458.2632693758367
  0
LINE
  8
_0-1_計細線
  6
CONTINUOUS
 62
    3
 10
2647.6281460142791
 20
1457.2632693768367
 11
2671.1312086811126
 21
1457.2632693768367
  0
LINE
  8
_0-1_計細線
  6
CONTINUOUS
 62
    3
 10
2647.6281460142791
 20
1480.6132693534864
 11
2647.6281460142791
 21
1454.6132693794862
  0
LINE
  8
_0-1_計細線
  6
CONTINUOUS
 62
    3
 10
2637.6281460143791
 20
1480.6132693534864
 11
2637.6281460143791
 21
1451.8632693822362
  0
LINE
  8
_0-0_計極細
  6
CONTINUOUS
 62
    2
 10
2637.6281460143791
 20
1483.613269350486
 11
2647.6281460142791
 21
1483.613269350486
  0
LINE
  8
_0-0_計極細
  6
CONTINUOUS
 62
    2
 10
2637.6281460143791
 20
1477.6132693564862
 11
2647.6281460142791
 21
1477.6132693564862
  0
LINE
  8
_0-1_計細線
  6
CONTINUOUS
 62
    3
 10
2671.1312086811126
 20
1503.9632693301357
 11
2672.1281460144364
 21
1502.963269331136
  0
LINE
  8
_0-1_計細線
  6
CONTINUOUS
 62
    3
 10
2671.1312086811126
 20
1457.2632693768367
 11
2672.1281460144364
 21
1458.2632693758367
  0
LINE
  8
_0-1_計細線
  6
CONTINUOUS
 62
    3
 10
2615.128065194438
 20
1520.5134968617776
 11
2615.128065194438
 21
1519.3134968617776
  0
LINE
  8
_0-1_計細線
  6
CONTINUOUS
 62
    3
 10
2615.128065194438
 20
1519.3134968617776
 11
2650.1280651944371
 21
1519.3134968617776
  0
LINE
  8
_0-1_計細線
  6
CONTINUOUS
 62
    3
 10
2650.1280651944371
 20
1519.3134968617776
 11
2650.1280651944371
 21
1520.5134968617776
  0
LINE
  8
_0-1_計細線
  6
CONTINUOUS
 62
    3
 10
2650.1280651944371
 20
1520.5134968617776
 11
2615.128065194438
 21
1520.5134968617776
  0
LINE
  8
_0-0_計極細
  6
CONTINUOUS
 62
    2
 10
2617.128065194438
 20
1519.3134968617776
 11
2617.128065194438
 21
1520.5134968617776
  0
LINE
  8
_0-0_計極細
  6
CONTINUOUS
 62
    2
 10
2629.128065194438
 20
1519.3134968617776
 11
2629.128065194438
 21
1520.5134968617776
  0
LINE
  8
_0-0_計極細
  6
CONTINUOUS
 62
    2
 10
2631.1280651944371
 20
1519.3134968617776
 11
2631.1280651944371
 21
1520.5134968617776
  0
LINE
  8
_0-0_計極細
  6
CONTINUOUS
 62
    2
 10
2633.1280651944371
 20
1519.3134968617776
 11
2633.1280651944371
 21
1520.5134968617776
  0
LINE
  8
_0-0_計極細
  6
CONTINUOUS
 62
    2
 10
2647.1280651944376
 20
1519.3134968617776
 11
2647.1280651944376
 21
1520.5134968617776
  0
LINE
  8
_0-0_計極細
  6
CONTINUOUS
 62
    2
 10
2627.128065194438
 20
1519.3134968617776
 11
2627.128065194438
 21
1520.5134968617776
  0
LINE
  8
_0-1_計細線
  6
CONTINUOUS
 62
    3
 10
2615.128065194438
 20
1441.9134216991799
 11
2615.128065194438
 21
1440.7134216991801
  0
LINE
  8
_0-1_計細線
  6
CONTINUOUS
 62
    3
 10
2615.128065194438
 20
1440.7134216991801
 11
2650.1280651944371
 21
1440.7134216991801
  0
LINE
  8
_0-1_計細線
  6
CONTINUOUS
 62
    3
 10
2650.1280651944371
 20
1440.7134216991801
 11
2650.1280651944371
 21
1441.9134216991799
  0
LINE
  8
_0-1_計細線
  6
CONTINUOUS
 62
    3
 10
2650.1280651944371
 20
1441.9134216991799
 11
2615.128065194438
 21
1441.9134216991799
  0
LINE
  8
_0-0_計極細
  6
CONTINUOUS
 62
    2
 10
2617.128065194438
 20
1440.7134216991801
 11
2617.128065194438
 21
1441.9134216991799
  0
LINE
  8
_0-0_計極細
  6
CONTINUOUS
 62
    2
 10
2629.128065194438
 20
1440.7134216991801
 11
2629.128065194438
 21
1441.9134216991799
  0
LINE
  8
_0-0_計極細
  6
CONTINUOUS
 62
    2
 10
2631.1280651944371
 20
1440.7134216991801
 11
2631.1280651944371
 21
1441.9134216991799
  0
LINE
  8
_0-0_計極細
  6
CONTINUOUS
 62
    2
 10
2633.1280651944371
 20
1440.7134216991801
 11
2633.1280651944371
 21
1441.9134216991799
  0
LINE
  8
_0-0_計極細
  6
CONTINUOUS
 62
    2
 10
2647.1280651944376
 20
1440.7134216991801
 11
2647.1280651944376
 21
1441.9134216991799
  0
LINE
  8
_0-0_計極細
  6
CONTINUOUS
 62
    2
 10
2627.128065194438
 20
1440.7134216991801
 11
2627.128065194438
 21
1441.9134216991799
  0
LINE
  8
_0-1_計細線
  6
CONTINUOUS
 62
    3
 10
2615.1281136864382
 20
1441.9134216991799
 11
2627.128065194438
 21
1441.9134216991799
  0
LINE
  8
_0-1_計細線
  6
CONTINUOUS
 62
    3
 10
2627.128065194438
 20
1441.9134216991799
 11
2627.128065194438
 21
1519.3134968617776
  0
LINE
  8
_0-1_計細線
  6
CONTINUOUS
 62
    3
 10
2627.128065194438
 20
1519.3134968617776
 11
2615.1281136864382
 21
1519.3134968617776
  0
LINE
  8
_0-1_計細線
  6
CONTINUOUS
 62
    3
 10
2607.1281460144364
 20
1433.6134592804794
 11
2607.1281460144364
 21
1480.6132693534864
  0
LINE
  8
_0-1_計細線
  6
CONTINUOUS
 62
    3
 10
2607.1281460144364
 20
1527.6134592804794
 11
2607.1281460144364
 21
1480.6132693534864
  0
LINE
  8
_0-1_計細線
  6
CONTINUOUS
 62
    3
 10
2607.1281460144364
 20
1527.6134592804794
 11
2615.1281136864382
 21
1527.6134592804794
  0
LINE
  8
_0-1_計細線
  6
CONTINUOUS
 62
    3
 10
2607.1281460144364
 20
1433.6134592804794
 11
2615.1281136864382
 21
1433.6134592804794
  0
LINE
  8
_0-1_計細線
  6
CONTINUOUS
 62
    3
 10
2615.1281136864382
 20
1507.4568871989613
 11
2615.1281136864382
 21
1480.6132693534864
  0
LINE
  8
_0-1_計細線
  6
CONTINUOUS
 62
    3
 10
2615.1281136864382
 20
1453.7696448413722
 11
2615.1281136864382
 21
1480.6132693534864
  0
LINE
  8
_0-1_計細線
  6
CONTINUOUS
 62
    3
 10
2615.1281136864382
 20
1434.3134564517795
 11
2612.232844627285
 21
1434.3134564517795
  0
LINE
  8
_0-1_計細線
  6
CONTINUOUS
 62
    3
 10
2612.128678276149
 20
1433.6134592804794
 11
2615.1281136864382
 21
1453.7696448413722
  0
LINE
  8
_0-1_計細線
  6
CONTINUOUS
 62
    3
 10
2615.1281136864382
 20
1433.6134592804794
 11
2615.1281136864382
 21
1434.3134564517795
  0
LINE
  8
_0-1_計細線
  6
CONTINUOUS
 62
    3
 10
2615.128065194438
 20
1441.9134216991799
 11
2613.3637929811366
 21
1441.9134216991799
  0
LINE
  8
_0-1_計細線
  6
CONTINUOUS
 62
    3
 10
2615.1281136864382
 20
1526.9130822551933
 11
2612.232844627285
 21
1526.9130822551933
  0
LINE
  8
_0-1_計細線
  6
CONTINUOUS
 62
    3
 10
2612.128678276149
 20
1527.613079426493
 11
2615.1281136864382
 21
1507.4568938656007
  0
LINE
  8
_0-1_計細線
  6
CONTINUOUS
 62
    3
 10
2615.1281136864382
 20
1527.613079426493
 11
2615.1281136864382
 21
1526.9130822551933
  0
LINE
  8
_0-1_計細線
  6
CONTINUOUS
 62
    3
 10
2615.128065194438
 20
1519.3131170077925
 11
2613.3637929811366
 21
1519.3131170077925
  0
ARC
  8
_0-1_計細線
  6
CONTINUOUS
 62
    3
 10
2627.9281460144371
 20
1514.6132694300265
 40
0.8000000000000001
 50
179.99999999999983
 51
269.99999999999977
  0
LINE
  8
_0-1_計細線
  6
CONTINUOUS
 62
    3
 10
2627.9281460144371
 20
1513.8132694300268
 11
2631.3281460144362
 21
1513.8132694300268
  0
ARC
  8
_0-1_計細線
  6
CONTINUOUS
 62
    3
 10
2631.3281460144362
 20
1512.3132694300266
 40
1.5000000000000002
 50
0
 51
89.999999999999915
  0
LINE
  8
_0-1_計細線
  6
CONTINUOUS
 62
    3
 10
2632.8281460144362
 20
1512.3132694300266
 11
2632.8281460144362
 21
1480.6132693534867
  0
ARC
  8
_0-1_計細線
  6
CONTINUOUS
 62
    3
 10
2627.9281460144371
 20
1446.6132692769461
 40
0.8000000000000001
 50
89.999999999999915
 51
179.99999999999983
  0
LINE
  8
_0-1_計細線
  6
CONTINUOUS
 62
    3
 10
2627.9281460144371
 20
1447.4132692769458
 11
2631.3281460144362
 21
1447.4132692769458
  0
ARC
  8
_0-1_計細線
  6
CONTINUOUS
 62
    3
 10
2631.3281460144362
 20
1448.9132692769458
 40
1.5000000000000002
 50
269.99999999999977
 51
359.99999999999966
  0
LINE
  8
_0-1_計細線
  6
CONTINUOUS
 62
    3
 10
2632.8281460144362
 20
1448.9132692769458
 11
2632.8281460144362
 21
1480.613269353486
  0
LINE
  8
_0-0_計極細
  6
CONTINUOUS
 62
    2
 10
2627.9281460144371
 20
1460.0438247397128
 11
2627.9281460144371
 21
1447.4132692769458
  0
LINE
  8
_0-0_計極細
  6
CONTINUOUS
 62
    2
 10
2627.9281460144371
 20
1501.1827139672605
 11
2627.9281460144371
 21
1513.8132694300268
  0
LINE
  8
_0-0_計極細
  6
CONTINUOUS
 62
    2
 10
2628.2836871912195
 20
1498.9718351662254
 11
2628.4221066318632
 21
1497.7769199948964
  0
LINE
  8
_0-0_計極細
  6
CONTINUOUS
 62
    2
 10
2627.9817684112772
 20
1500.9328339084643
 11
2628.1365344525329
 21
1500.0264842377051
  0
LINE
  8
_0-0_計極細
  6
CONTINUOUS
 62
    2
 10
2628.1365344525329
 20
1500.0264842377051
 11
2628.2836871912195
 21
1498.9718351662254
  0
LINE
  8
_0-0_計極細
  6
CONTINUOUS
 62
    2
 10
2627.8205757293263
 20
1501.6839908730265
 11
2627.9817684112772
 21
1500.9328339084643
  0
LINE
  8
_0-0_計極細
  6
CONTINUOUS
 62
    2
 10
2627.6541764017516
 20
1502.2742351545073
 11
2627.8205757293263
 21
1501.6839908730265
  0
LINE
  8
_0-0_計極細
  6
CONTINUOUS
 62
    2
 10
2627.4838304234536
 20
1502.6990734377284
 11
2627.6541764017516
 21
1502.2742351545073
  0
LINE
  8
_0-0_計極細
  6
CONTINUOUS
 62
    2
 10
2627.310851122465
 20
1502.9552790690639
 11
2627.4838304234536
 21
1502.6990734377284
  0
LINE
  8
_0-0_計極細
  6
CONTINUOUS
 62
    2
 10
2627.1365384935325
 20
1503.0408987230737
 11
2627.310851122465
 21
1502.9552790690639
  0
LINE
  8
_0-0_計極細
  6
CONTINUOUS
 62
    2
 10
2629.1061438676588
 20
1484.4480605237
 11
2629.1289171089647
 21
1482.5019883878094
  0
LINE
  8
_0-0_計極細
  6
CONTINUOUS
 62
    2
 10
2628.9491445020958
 20
1471.1766741535869
 11
2629.0159175655963
 21
1472.9901268253955
  0
LINE
  8
_0-0_計極細
  6
CONTINUOUS
 62
    2
 10
2628.8685848276382
 20
1469.4355878560111
 11
2628.9491445020958
 21
1471.1766741535869
  0
LINE
  8
_0-0_計極細
  6
CONTINUOUS
 62
    2
 10
2629.1289171089647
 20
1478.7245503191637
 11
2629.1365304115316
 21
1480.6855423947629
  0
LINE
  8
_0-0_計極細
  6
CONTINUOUS
 62
    2
 10
2629.1061438676588
 20
1476.7784781832731
 11
2629.1289171089647
 21
1478.7245503191637
  0
LINE
  8
_0-0_計極細
  6
CONTINUOUS
 62
    2
 10
2629.0683840202473
 20
1474.862139260563
 11
2629.1061438676588
 21
1476.7784781832731
  0
LINE
  8
_0-0_計極細
  6
CONTINUOUS
 62
    2
 10
2629.0159175655963
 20
1472.9901268253955
 11
2629.0683840202473
 21
1474.862139260563
  0
LINE
  8
_0-0_計極細
  6
CONTINUOUS
 62
    2
 10
2629.1289171089647
 20
1482.5019883878094
 11
2629.1365304115316
 21
1480.5409896455703
  0
LINE
  8
_0-0_計極細
  6
CONTINUOUS
 62
    2
 10
2628.6686189690372
 20
1495.0036512017207
 11
2628.774831873161
 21
1493.446410827888
  0
LINE
  8
_0-0_計極細
  6
CONTINUOUS
 62
    2
 10
2628.5507461120287
 20
1496.4508320203061
 11
2628.6686189690372
 21
1495.0036512017207
  0
LINE
  8
_0-0_計極細
  6
CONTINUOUS
 62
    2
 10
2629.0683840202473
 20
1486.3643927797705
 11
2629.1061438676588
 21
1484.4480605237
  0
LINE
  8
_0-0_計極細
  6
CONTINUOUS
 62
    2
 10
2629.0159175655963
 20
1488.2364118815779
 11
2629.0683840202473
 21
1486.3643927797705
  0
LINE
  8
_0-0_計極細
  6
CONTINUOUS
 62
    2
 10
2628.9491445020958
 20
1490.0498645533864
 11
2629.0159175655963
 21
1488.2364118815779
  0
LINE
  8
_0-0_計極細
  6
CONTINUOUS
 62
    2
 10
2628.8685848276382
 20
1491.7909441843219
 11
2628.9491445020958
 21
1490.0498645533864
  0
LINE
  8
_0-0_計極細
  6
CONTINUOUS
 62
    2
 10
2628.774831873161
 20
1493.446410827888
 11
2628.8685848276382
 21
1491.7909441843219
  0
LINE
  8
_0-0_計極細
  6
CONTINUOUS
 62
    2
 10
2628.4221066318632
 20
1497.7769199948964
 11
2628.5507461120287
 21
1496.4508320203061
  0
LINE
  8
_0-0_計極細
  6
CONTINUOUS
 62
    2
 10
2628.6686189690372
 20
1466.2228808386124
 11
2628.774831873161
 21
1467.7801278790853
  0
LINE
  8
_0-0_計極細
  6
CONTINUOUS
 62
    2
 10
2628.4221066318632
 20
1463.449618712076
 11
2628.5507461120287
 21
1464.7757066866668
  0
LINE
  8
_0-0_計極細
  6
CONTINUOUS
 62
    2
 10
2628.2836871912195
 20
1462.254696874108
 11
2628.4221066318632
 21
1463.449618712076
  0
LINE
  8
_0-0_計極細
  6
CONTINUOUS
 62
    2
 10
2628.1365344525329
 20
1461.2000544692685
 11
2628.2836871912195
 21
1462.254696874108
  0
LINE
  8
_0-0_計極細
  6
CONTINUOUS
 62
    2
 10
2627.9817684112772
 20
1460.2937047985085
 11
2628.1365344525329
 21
1461.2000544692685
  0
LINE
  8
_0-0_計極細
  6
CONTINUOUS
 62
    2
 10
2627.8205757293263
 20
1459.5425478339464
 11
2627.9817684112772
 21
1460.2937047985085
  0
LINE
  8
_0-0_計極細
  6
CONTINUOUS
 62
    2
 10
2627.6541764017516
 20
1458.9523035524662
 11
2627.8205757293263
 21
1459.5425478339464
  0
LINE
  8
_0-0_計極細
  6
CONTINUOUS
 62
    2
 10
2627.4838304234536
 20
1458.5274586026046
 11
2627.6541764017516
 21
1458.9523035524662
  0
LINE
  8
_0-0_計極細
  6
CONTINUOUS
 62
    2
 10
2627.310851122465
 20
1458.2712529712692
 11
2627.4838304234536
 21
1458.5274586026046
  0
LINE
  8
_0-0_計極細
  6
CONTINUOUS
 62
    2
 10
2627.1365384935325
 20
1458.1856333172593
 11
2627.310851122465
 21
1458.2712529712692
  0
LINE
  8
_0-0_計極細
  6
CONTINUOUS
 62
    2
 10
2628.5507461120287
 20
1464.7757066866668
 11
2628.6686189690372
 21
1466.2228808386124
  0
LINE
  8
_0-0_計極細
  6
CONTINUOUS
 62
    2
 10
2628.774831873161
 20
1467.7801278790853
 11
2628.8685848276382
 21
1469.4355878560111
  0
LINE
  8
_0-0_計極細
  6
CENTER1
 62
    2
 10
2580.4812495101396
 20
1480.6132693534864
 11
2692.3013933950319
 21
1480.6132693534864
  0
LINE
  8
_0-5_寸法線
  6
CONTINUOUS
 62
    7
 10
2607.1281460144364
 20
1413.613079426493
 11
2607.1281460144364
 21
1326.4262402088796
  0
LINE
  8
_0-5_寸法線
  6
CONTINUOUS
 62
    7
 10
2607.1281460144364
 20
1336.4262402088796
 11
2626.4466625402179
 21
1341.6026211109297
  0
LINE
  8
_0-5_寸法線
  6
CONTINUOUS
 62
    7
 10
2607.1281460144364
 20
1336.4262402088796
 11
2626.4466625402179
 21
1331.249859306829
  0
LINE
  8
_0-5_寸法線
  6
CONTINUOUS
 62
    7
 10
2672.1281460144364
 20
1438.2602080273725
 11
2672.1281460144364
 21
1326.4262402088796
  0
LINE
  8
_0-5_寸法線
  6
CONTINUOUS
 62
    7
 10
2672.1281460144364
 20
1336.4262402088796
 11
2652.8096294886554
 21
1331.249859306829
  0
LINE
  8
_0-5_寸法線
  6
CONTINUOUS
 62
    7
 10
2672.1281460144364
 20
1336.4262402088796
 11
2652.8096294886554
 21
1341.6026211109297
  0
LINE
  8
_0-5_寸法線
  6
CONTINUOUS
 62
    7
 10
2607.1281460144364
 20
1336.4262402088796
 11
2672.1281460144364
 21
1336.4262402088796
  0
TEXT
  8
_0-5_寸法線
 62
    7
 10
2624.6281460144378
 20
1336.4262402088796
 40
30
 41
1
 50
0
  1
65
  0
LINE
  8
_0-5_寸法線
  6
CONTINUOUS
 62
    7
 10
2607.1281460144364
 20
1547.613079426493
 11
2607.1281460144346
 21
1707.6132693534864
  0
LINE
  8
_0-5_寸法線
  6
CONTINUOUS
 62
    7
 10
2607.1281460144346
 20
1697.6132693534864
 11
2626.446662540216
 21
1702.789650255537
  0
LINE
  8
_0-5_寸法線
  6
CONTINUOUS
 62
    7
 10
2607.1281460144346
 20
1697.6132693534864
 11
2626.446662540216
 21
1692.4368884514363
  0
LINE
  8
_0-5_寸法線
  6
CONTINUOUS
 62
    7
 10
2650.1280651944371
 20
1540.5131170077925
 11
2650.1280651944353
 21
1707.6132693534864
  0
LINE
  8
_0-5_寸法線
  6
CONTINUOUS
 62
    7
 10
2650.1280651944353
 20
1697.6132693534864
 11
2630.8095486686539
 21
1692.4368884514363
  0
LINE
  8
_0-5_寸法線
  6
CONTINUOUS
 62
    7
 10
2650.1280651944353
 20
1697.6132693534864
 11
2630.8095486686539
 21
1702.789650255537
  0
LINE
  8
_0-5_寸法線
  6
CONTINUOUS
 62
    7
 10
2607.1281460144346
 20
1697.6132693534864
 11
2650.1280651944353
 21
1697.6132693534864
  0
TEXT
  8
_0-5_寸法線
 62
    7
 10
2613.6281056044349
 20
1697.6132693534864
 40
30
 41
1
 50
0
  1
43
  0
LINE
  8
_0-5_寸法線
  6
CONTINUOUS
 62
    7
 10
2607.1281460144364
 20
1547.613079426493
 11
2607.1281460144364
 21
1637.6132693534862
  0
LINE
  8
_0-5_寸法線
  6
CONTINUOUS
 62
    7
 10
2607.1281460144364
 20
1627.6132693534862
 11
2587.8096294886554
 21
1622.4368884514361
  0
LINE
  8
_0-5_寸法線
  6
CONTINUOUS
 62
    7
 10
2607.1281460144364
 20
1627.6132693534862
 11
2587.8096294886554
 21
1632.7896502555368
  0
LINE
  8
_0-5_寸法線
  6
CONTINUOUS
 62
    7
 10
2627.128065194438
 20
1540.5131170077925
 11
2627.128065194438
 21
1637.6132693534862
  0
CIRCLE
  8
_0-5_寸法線
  6
CONTINUOUS
 62
    1
 10
2627.128065194438
 20
1627.6132693534862
 40
3.0000000000000004
  0
LINE
  8
_0-5_寸法線
  6
CONTINUOUS
 62
    7
 10
2565.0421783886468
 20
1627.6132693534862
 11
2627.128065194438
 21
1627.6132693534862
  0
TEXT
  8
_0-5_寸法線
 62
    7
 10
2565.0421783886468
 20
1627.6132693534862
 40
30
 41
1
 50
0
  1
20
  0
LINE
  8
_0-5_寸法線
  6
CONTINUOUS
 62
    7
 10
2650.1280651944371
 20
1540.5131170077925
 11
2650.1280651944371
 21
1637.6132693534862
  0
LINE
  8
_0-5_寸法線
  6
CONTINUOUS
 62
    7
 10
2650.1280651944371
 20
1627.6132693534862
 11
2669.446581720219
 21
1632.7896502555368
  0
LINE
  8
_0-5_寸法線
  6
CONTINUOUS
 62
    7
 10
2650.1280651944371
 20
1627.6132693534862
 11
2669.446581720219
 21
1622.4368884514356
  0
LINE
  8
_0-5_寸法線
  6
CONTINUOUS
 62
    7
 10
2627.128065194438
 20
1627.6132693534862
 11
2700.3669051993684
 21
1627.6132693534862
  0
TEXT
  8
_0-5_寸法線
 62
    7
 10
2670.3669051993684
 20
1627.613269353486
 40
30
 41
1
 50
0
  1
23
  0
TEXT
  8
_0-7_枠細線
 62
    5
 10
2374
 20
235
 40
40
 41
0.6999999999999998
 50
0
  1
１：１０
  0
TEXT
  8
_0-7_枠細線
 62
    5
 10
1930.9999999999995
 20
220
 40
40
 41
0.6
 50
0
  1
ＧＳＧ－１０Ｌ２０００
  0
LINE
  8
_0-5_寸法線
  6
CONTINUOUS
 62
    7
 10
658.86778727254136
 20
1391.2905664626514
 11
678.18630379832268
 21
1396.4669473647018
  0
LINE
  8
_0-5_寸法線
  6
CONTINUOUS
 62
    7
 10
658.86778727254136
 20
1391.2905664626514
 11
678.18630379832268
 21
1386.1141855606011
  0
LINE
  8
_0-5_寸法線
  6
CONTINUOUS
 62
    7
 10
658.86778727254136
 20
1391.2905664626514
 11
739.43631074646999
 21
1391.2905664626514
  0
LINE
  8
_0-5_寸法線
  6
CONTINUOUS
 62
    7
 10
739.43631074646999
 20
1391.2905664626514
 11
658.87164086752932
 21
1391.2905664626514
  0
LINE
  8
_0-5_寸法線
  6
CONTINUOUS
 62
    7
 10
658.86778727254136
 20
1552.3465354406846
 11
678.18630379832268
 21
1557.5229163427352
  0
LINE
  8
_0-5_寸法線
  6
CONTINUOUS
 62
    7
 10
658.86778727254136
 20
1552.3465354406846
 11
678.18630379832268
 21
1547.1701545386345
  0
LINE
  8
_0-5_寸法線
  6
CONTINUOUS
 62
    7
 10
658.86778727254136
 20
1552.3465354406846
 11
739.43631074646999
 21
1552.3465354406846
  0
LINE
  8
_0-5_寸法線
  6
CONTINUOUS
 62
    7
 10
739.43631074646999
 20
1552.3465354406846
 11
661.25369793863695
 21
1552.3465354406846
  0
LINE
  8
_0-0_計極細
  6
CENTER1
 62
    2
 10
658.87164086752932
 20
1563.9161755075313
 11
658.87164086752932
 21
1377.8801329161511
  0
TEXT
  8
_0-7_枠細線
 62
    5
 10
1930.9999999999993
 20
140
 40
40.000000000000007
 41
0.5999999999999997
 50
0
  1
表面形状については記号表参照のこと
  0
LINE
  8
_0-7_枠細線
  6
CONTINUOUS
 62
    5
 10
1750
 20
354.99999999999915
 11
1750
 21
145
  0
TEXT
  8
_0-7_枠細線
 62
    5
 10
1568.0000000000018
 20
314.99999999999898
 40
30.000000000000004
 41
0.8
 50
0
  1
ノンスリップ
  0
LINE
  8
_0-7_枠細線
  6
CONTINUOUS
 62
    5
 10
1549.8554166756796
 20
209.50554330048234
 11
1739.6163899900384
 21
209.50554330048234
  0
LINE
  8
_0-7_枠細線
  6
CONTINUOUS
 62
    5
 10
1542.385030009759
 20
242.83887663048233
 11
1732.1460033241181
 21
242.83887663048233
  0
ARC
  8
_0-7_枠細線
  6
CONTINUOUS
 62
    5
 10
1571.6666666734989
 20
219.50554329948218
 40
6.6666666659999994
 50
51.317813000007412
 51
203.57817800000174
  0
ARC
  8
_0-7_枠細線
  6
CONTINUOUS
 62
    5
 10
1580.0000000059986
 20
229.91387329844159
 40
6.6666666659999994
 50
231.31781300000125
 51
308.68218699999647
  0
LINE
  8
_0-7_枠細線
  6
CONTINUOUS
 62
    5
 10
1565.5565666741106
 20
216.83887663308226
 11
1594.4434333378874
 21
216.83887663308226
  0
ARC
  8
_0-7_枠細線
  6
CONTINUOUS
 62
    5
 10
1588.333333338499
 20
219.50554329948218
 40
6.6666666659999994
 50
336.42182199999445
 51
128.68218699999832
  0
ARC
  8
_0-7_枠細線
  6
CONTINUOUS
 62
    5
 10
1631.6666666674994
 20
232.83887663148221
 40
6.6666666659999994
 50
156.42182199999678
 51
308.68218699999602
  0
ARC
  8
_0-7_枠細線
  6
CONTINUOUS
 62
    5
 10
1639.9999999999989
 20
222.43054663252281
 40
6.6666666659999994
 50
51.317813000008329
 51
128.68218699999778
  0
ARC
  8
_0-7_枠細線
  6
CONTINUOUS
 62
    5
 10
1648.3333333324993
 20
232.83887663148221
 40
6.6666666659999994
 50
231.31781299999562
 51
23.578178000004431
  0
LINE
  8
_0-7_枠細線
  6
CONTINUOUS
 62
    5
 10
1625.5565666681114
 20
235.50554329788213
 11
1654.443433331887
 21
235.50554329788213
  0
LINE
  8
_0-7_枠細線
  6
CONTINUOUS
 62
    5
 10
1685.556566662111
 20
216.83887663308226
 11
1714.4434333258878
 21
216.83887663308226
  0
ARC
  8
_0-7_枠細線
  6
CONTINUOUS
 62
    5
 10
1691.666666661499
 20
219.50554329948218
 40
6.6666666659999994
 50
51.317813000005891
 51
203.57817800000174
  0
ARC
  8
_0-7_枠細線
  6
CONTINUOUS
 62
    5
 10
1699.9999999939985
 20
229.91387329844159
 40
6.6666666659999994
 50
231.31781300000125
 51
308.68218699999801
  0
ARC
  8
_0-7_枠細線
  6
CONTINUOUS
 62
    5
 10
1708.3333333264989
 20
219.50554329948218
 40
6.6666666659999994
 50
336.42182199999598
 51
128.68218699999832
  0
ARC
  8
_0-7_枠細線
  6
CONTINUOUS
 62
    5
 10
1631.6666666674994
 20
232.83887663148221
 40
12.43333333209006
 50
151.14636799999636
 51
308.68218700000506
  0
LINE
  8
_0-7_枠細線
  6
CONTINUOUS
 62
    5
 10
1541.6524900098334
 20
238.83887663088217
 11
1620.7768666685863
 21
238.83887663088217
  0
LINE
  8
_0-7_枠細線
  6
CONTINUOUS
 62
    5
 10
1599.2231366707426
 20
213.50554330008251
 11
1680.7768666625896
 21
213.50554330008251
  0
ARC
  8
_0-7_枠細線
  6
CONTINUOUS
 62
    5
 10
1533.4407966773215
 20
214.57871996664139
 40
17.180713331615152
 50
317.56162899999947
 51
42.438371000002093
  0
ARC
  8
_0-7_枠細線
  6
CONTINUOUS
 62
    5
 10
1571.6666666734989
 20
219.50554329948218
 40
12.43333333209006
 50
51.317812999993059
 51
208.85363199999719
  0
ARC
  8
_0-7_枠細線
  6
CONTINUOUS
 62
    5
 10
1558.7996533414514
 20
237.76569996432315
 40
17.180713331615152
 50
137.56162900000021
 51
222.43837100000121
  0
LINE
  8
_0-7_枠細線
  6
CONTINUOUS
 62
    5
 10
1550.5879600089395
 20
213.50554330008251
 11
1560.7768666745867
 21
213.50554330008251
  0
ARC
  8
_0-7_枠細線
  6
CONTINUOUS
 62
    5
 10
1580.0000000059986
 20
229.91387329844159
 40
0.899999999909939
 50
231.31781300002788
 51
308.68218700000529
  0
ARC
  8
_0-7_枠細線
  6
CONTINUOUS
 62
    5
 10
1588.333333338499
 20
219.50554329948218
 40
12.43333333209006
 50
331.14636800000108
 51
128.68218700000659
  0
ARC
  8
_0-7_枠細線
  6
CONTINUOUS
 62
    5
 10
1723.2017699916807
 20
214.57871996664139
 40
17.180713331615152
 50
317.56162899999799
 51
42.438371000002093
  0
ARC
  8
_0-7_枠細線
  6
CONTINUOUS
 62
    5
 10
1748.5606266558111
 20
237.76569996432315
 40
17.180713331615152
 50
137.56162900000277
 51
222.43837100000016
  0
LINE
  8
_0-7_枠細線
  6
CONTINUOUS
 62
    5
 10
1719.2231366587428
 20
213.50554330008251
 11
1740.3489333232992
 21
213.50554330008251
  0
LINE
  8
_0-7_枠細線
  6
CONTINUOUS
 62
    5
 10
1659.2231366647432
 20
238.83887663088217
 11
1731.4134633241927
 21
238.83887663088217
  0
ARC
  8
_0-7_枠細線
  6
CONTINUOUS
 62
    5
 10
1691.666666661499
 20
219.50554329948218
 40
12.43333333209006
 50
51.317812999993059
 51
208.85363200000586
  0
ARC
  8
_0-7_枠細線
  6
CONTINUOUS
 62
    5
 10
1639.9999999999989
 20
222.43054663252281
 40
0.899999999909939
 50
51.317813000032764
 51
128.68218699998982
  0
ARC
  8
_0-7_枠細線
  6
CONTINUOUS
 62
    5
 10
1648.3333333324993
 20
232.83887663148221
 40
12.43333333209006
 50
231.31781299999017
 51
28.853631999998242
  0
ARC
  8
_0-7_枠細線
  6
CONTINUOUS
 62
    5
 10
1699.9999999939985
 20
229.91387329844159
 40
0.899999999909939
 50
231.31781300002788
 51
308.68218700000529
  0
ARC
  8
_0-7_枠細線
  6
CONTINUOUS
 62
    5
 10
1708.3333333264989
 20
219.50554329948218
 40
12.43333333209006
 50
331.14636800000056
 51
128.68218700000659
  0
LINE
  8
_0-7_枠細線
  6
CENTER1
 62
    5
 10
1580.0000000059986
 20
245.63845329686856
 11
1580.0000000059986
 21
206.94215663407192
  0
LINE
  8
_0-7_枠細線
  6
CENTER1
 62
    5
 10
1699.9999999939985
 20
245.63845329686856
 11
1699.9999999939985
 21
206.94215663407192
  0
LINE
  8
_0-7_枠細線
  6
CENTER1
 62
    5
 10
1639.9999999999989
 20
245.63845329686856
 11
1639.9999999999989
 21
206.94215663407192
  0
LINE
  8
_0-7_枠細線
  6
CONTINUOUS
 62
    5
 10
1580.0000000059986
 20
199.50554330048234
 11
1580.0000000059986
 21
149.50554330048234
  0
LINE
  8
_0-7_枠細線
  6
CONTINUOUS
 62
    5
 10
1580.0000000059986
 20
159.50554330048234
 11
1599.31851653178
 21
164.68192420253274
  0
LINE
  8
_0-7_枠細線
  6
CONTINUOUS
 62
    5
 10
1580.0000000059986
 20
159.50554330048234
 11
1599.31851653178
 21
154.32916239843195
  0
LINE
  8
_0-7_枠細線
  6
CONTINUOUS
 62
    5
 10
1639.9999999999989
 20
199.50554330048234
 11
1639.9999999999989
 21
149.50554330048234
  0
LINE
  8
_0-7_枠細線
  6
CONTINUOUS
 62
    5
 10
1639.9999999999989
 20
159.50554330048234
 11
1620.6814834742177
 21
154.32916239843195
  0
LINE
  8
_0-7_枠細線
  6
CONTINUOUS
 62
    5
 10
1639.9999999999989
 20
159.50554330048234
 11
1620.6814834742177
 21
164.68192420253274
  0
LINE
  8
_0-7_枠細線
  6
CONTINUOUS
 62
    5
 10
1580.0000000059986
 20
159.50554330048234
 11
1639.9999999999989
 21
159.50554330048234
  0
TEXT
  8
_0-7_枠細線
 62
    5
 10
1595.0000000029988
 20
159.50554330048234
 40
30
 41
1
 50
0
  1
18
  0
LINE
  8
_0-7_枠細線
  6
CONTINUOUS
 62
    5
 10
1639.9999999999989
 20
159.50554330048234
 11
1659.3185165257805
 21
164.6819242025326
  0
LINE
  8
_0-7_枠細線
  6
CONTINUOUS
 62
    5
 10
1639.9999999999989
 20
159.50554330048234
 11
1659.3185165257805
 21
154.32916239843181
  0
LINE
  8
_0-7_枠細線
  6
CONTINUOUS
 62
    5
 10
1699.9999999939985
 20
199.50554330048234
 11
1699.9999999939985
 21
149.50554330048234
  0
LINE
  8
_0-7_枠細線
  6
CONTINUOUS
 62
    5
 10
1699.9999999939985
 20
159.50554330048234
 11
1680.6814834682173
 21
154.32916239843195
  0
LINE
  8
_0-7_枠細線
  6
CONTINUOUS
 62
    5
 10
1699.9999999939985
 20
159.50554330048234
 11
1680.6814834682173
 21
164.68192420253274
  0
LINE
  8
_0-7_枠細線
  6
CONTINUOUS
 62
    5
 10
1639.9999999999989
 20
159.50554330048234
 11
1699.9999999939985
 21
159.50554330048234
  0
TEXT
  8
_0-7_枠細線
 62
    5
 10
1654.9999999969996
 20
159.50554330048234
 40
30
 41
1
 50
0
  1
18
  0
TEXT
  8
_0-7_枠細線
 62
    5
 10
1592.0000000000009
 20
264.99999999999932
 40
30.000000000000004
 41
0.7999999999999998
 50
0
  1
品番－Ｄ
  0
LINE
  8
_0-7_枠細線
  6
CONTINUOUS
 62
    5
 10
1529.9999999999998
 20
354.99999999999915
 11
1529.9999999999998
 21
145
  0
TEXT
  8
_0-7_枠細線
 62
    5
 10
1371.9999999999991
 20
314.99999999999932
 40
30.000000000000004
 41
0.8
 50
0
  1
プレーン
  0
LINE
  8
_0-7_枠細線
  6
CONTINUOUS
 62
    5
 10
1328.8547050091124
 20
209.50554330048234
 11
1518.6156783234717
 21
209.50554330048234
  0
LINE
  8
_0-7_枠細線
  6
CONTINUOUS
 62
    5
 10
1321.3843183431925
 20
242.83887663048233
 11
1511.1452916575522
 21
242.83887663048233
  0
ARC
  8
_0-7_枠細線
  6
CONTINUOUS
 62
    5
 10
1502.2010583251117
 20
214.57871996664139
 40
17.180713331615152
 50
317.56162900000425
 51
42.438370999996138
  0
ARC
  8
_0-7_枠細線
  6
CONTINUOUS
 62
    5
 10
1312.4400850107552
 20
214.57871996664139
 40
17.18071333161534
 50
317.56162899999958
 51
42.438371000000814
  0
LINE
  8
_0-7_枠細線
  6
CONTINUOUS
 62
    5
 10
1320.6517783432671
 20
238.83887663088217
 11
1510.4127516576261
 21
238.83887663088217
  0
LINE
  8
_0-7_枠細線
  6
CONTINUOUS
 62
    5
 10
1329.5872483423732
 20
213.50554330008251
 11
1519.3482216567315
 21
213.50554330008251
  0
ARC
  8
_0-7_枠細線
  6
CONTINUOUS
 62
    5
 10
1337.7989416748874
 20
237.76569996432315
 40
17.18071333161534
 50
137.56162900000015
 51
222.43837100000314
  0
ARC
  8
_0-7_枠細線
  6
CONTINUOUS
 62
    5
 10
1527.5599149892435
 20
237.76569996432315
 40
17.180713331615152
 50
137.5616289999997
 51
222.43837100000272
  0
TEXT
  8
_0-7_枠細線
 62
    5
 10
1372.0000000000009
 20
264.99999999999932
 40
30.000000000000004
 41
0.7999999999999998
 50
0
  1
品番－Ｆ
  0
TEXT
  8
_0-7_枠細線
 62
    5
 10
1212
 20
314.99999999999898
 40
30.000000000000004
 41
0.8
 50
0
  1
タ イ プ
  0
LINE
  8
_0-7_枠細線
  6
CONTINUOUS
 62
    5
 10
1209.9999999999986
 20
254.99999999999929
 11
1750
 21
254.99999999999929
  0
LINE
  8
_0-7_枠細線
  6
CONTINUOUS
 62
    5
 10
1209.9999999999986
 20
304.99999999999898
 11
1750
 21
304.99999999999898
  0
LINE
  8
_0-7_枠細線
  6
CONTINUOUS
 62
    5
 10
1209.9999999999986
 20
354.99999999999915
 11
1750
 21
354.99999999999915
  0
LINE
  8
_0-7_枠細線
  6
CONTINUOUS
 62
    5
 10
1209.9999999999986
 20
145
 11
1750
 21
145
  0
LINE
  8
_0-7_枠細線
  6
CONTINUOUS
 62
    5
 10
1310
 20
354.99999999999915
 11
1310
 21
145
  0
LINE
  8
_0-7_枠細線
  6
CONTINUOUS
 62
    5
 10
1209.9999999999986
 20
354.99999999999915
 11
1209.9999999999986
 21
145
  0
TEXT
  8
_0-7_枠細線
 62
    5
 10
1212
 20
184.99999999999957
 40
30.000000000000004
 41
0.8
 50
0
  1
表面形状
  0
TEXT
  8
_0-7_枠細線
 62
    5
 10
1225.5484226816211
 20
359.99999999999932
 40
35
 41
0.7999999999999998
 50
0
  1
記号表
  0
TEXT
  8
_0-7_枠細線
 62
    5
 10
1212
 20
264.99999999999943
 40
30.000000000000004
 41
0.8
 50
0
  1
記　　号
  0
ARC
  8
_0-0_計極細
  6
CONTINUOUS
 62
    2
 10
1307.7143030185621
 20
1498.6132693534862
 40
40.671428571426198
 50
153.73195538720606
 51
206.26804461279357
  0
ARC
  8
_0-0_計極細
  6
CONTINUOUS
 62
    2
 10
1234.7714458757093
 20
1462.6132693534869
 40
40.671428571426773
 50
333.73195538720614
 51
26.268044612788866
  0
LINE
  8
_0-1_計細線
  6
CONTINUOUS
 62
    3
 10
1271.2428744471363
 20
1516.6132693534857
 11
355.37164085242608
 21
1516.6132693534857
  0
LINE
  8
_0-1_計細線
  6
CONTINUOUS
 62
    3
 10
355.37164085242608
 20
1506.6132693534857
 11
1267.8374287423521
 21
1506.6132693534857
  0
LINE
  8
_0-0_計極細
  6
CONTINUOUS
 62
    2
 10
1267.2735698171387
 20
1502.9390294221785
 11
1318.5927989943364
 21
1504.3812899009574
  0
LINE
  8
_0-1_計細線
  6
CONTINUOUS
 62
    3
 10
1267.1197824272238
 20
1501.1132693534862
 11
355.37164085242608
 21
1501.1132693534862
  0
LINE
  8
_0-1_計細線
  6
CONTINUOUS
 62
    3
 10
355.37164085242608
 20
1491.1132693534862
 11
1267.7403727384328
 21
1491.1132693534862
  0
LINE
  8
_0-1_計細線
  6
CONTINUOUS
 62
    3
 10
1269.1764631460344
 20
1485.6132693534864
 11
355.37164085242608
 21
1485.6132693534864
  0
LINE
  8
_0-1_計細線
  6
CONTINUOUS
 62
    3
 10
355.37164085242608
 20
1475.6132693534864
 11
1273.3092857482379
 21
1475.6132693534864
  0
LINE
  8
_0-1_計細線
  6
CONTINUOUS
 62
    3
 10
1274.7453761558402
 20
1470.1132693534869
 11
355.37164085242608
 21
1470.1132693534869
  0
LINE
  8
_0-1_計細線
  6
CONTINUOUS
 62
    3
 10
355.37164085242608
 20
1460.1132693534869
 11
1275.3659664670495
 21
1460.1132693534869
  0
LINE
  8
_0-1_計細線
  6
CONTINUOUS
 62
    3
 10
1274.6483201519188
 20
1454.6132693534873
 11
355.37164085242608
 21
1454.6132693534873
  0
LINE
  8
_0-1_計細線
  6
CONTINUOUS
 62
    3
 10
355.37164085242608
 20
1444.6132693534873
 11
1271.2428744471363
 21
1444.6132693534873
  0
LINE
  8
_0-0_計極細
  6
CONTINUOUS
 62
    2
 10
1275.1877690062199
 20
1458.0650909652948
 11
1318.5927989943364
 21
1456.8452488060152
  0
TEXT
  8
_0-5_寸法線
 62
    7
 10
698.91376002410971
 20
1551.9537794057035
 40
40
 41
1
 50
0
  1
Ａ’
  0
TEXT
  8
_0-5_寸法線
 62
    7
 10
699.32586443463367
 20
1388.6830169758903
 40
40
 41
1
 50
0
  1
Ａ
  0
LINE
  8
_0-5_寸法線
  6
CONTINUOUS
 62
    7
 10
343.87164085242603
 20
1547.6132693534862
 11
343.87164085242631
 21
1707.6132693534862
  0
LINE
  8
_0-5_寸法線
  6
CONTINUOUS
 62
    7
 10
343.87164085242631
 20
1697.6132693534862
 11
363.19015737820763
 21
1702.7896502555363
  0
LINE
  8
_0-5_寸法線
  6
CONTINUOUS
 62
    7
 10
343.87164085242631
 20
1697.6132693534862
 11
363.19015737820763
 21
1692.4368884514356
  0
LINE
  8
_0-5_寸法線
  6
CONTINUOUS
 62
    7
 10
2337.871640852426
 20
1547.6132693534862
 11
2337.8716408524265
 21
1707.6132693534862
  0
LINE
  8
_0-5_寸法線
  6
CONTINUOUS
 62
    7
 10
2337.8716408524265
 20
1697.6132693534862
 11
2318.553124326645
 21
1692.4368884514356
  0
LINE
  8
_0-5_寸法線
  6
CONTINUOUS
 62
    7
 10
2337.8716408524265
 20
1697.6132693534862
 11
2318.553124326645
 21
1702.7896502555363
  0
LINE
  8
_0-5_寸法線
  6
CONTINUOUS
 62
    7
 10
343.87164085242631
 20
1697.6132693534862
 11
2337.8716408524265
 21
1697.6132693534862
  0
TEXT
  8
_0-5_寸法線
 62
    7
 10
1310.8716408524263
 20
1697.6132693534862
 40
30
 41
1
 50
0
  1
1994
  0
LINE
  8
_0-1_計細線
  6
CONTINUOUS
 62
    3
 10
1372.6216408206753
 20
1123.1874207895175
 11
1372.6216408206753
 21
1121.3874207895456
  0
LINE
  8
_0-1_計細線
  6
CONTINUOUS
 62
    3
 10
1334.8716410766408
 20
1140.8874207895192
 11
1332.871641076641
 21
1138.8874207895192
  0
LINE
  8
_0-1_計細線
  6
CONTINUOUS
 62
    3
 10
1332.871641076641
 20
1128.8874207895192
 11
1332.871641076641
 21
1138.8874207895192
  0
LINE
  8
_0-1_計細線
  6
CONTINUOUS
 62
    3
 10
1348.8716407704794
 20
1138.8874207895192
 11
1346.8716407704796
 21
1140.8874207895192
  0
LINE
  8
_0-1_計細線
  6
CONTINUOUS
 62
    3
 10
1348.8716407704794
 20
1128.8874207895192
 11
1348.8716407704794
 21
1138.8874207895192
  0
LINE
  8
_0-1_計細線
  6
CONTINUOUS
 62
    3
 10
1334.8716410766408
 20
1124.8874207895192
 11
1332.871641076641
 21
1122.8874207895192
  0
LINE
  8
_0-1_計細線
  6
CONTINUOUS
 62
    3
 10
1334.8716410766408
 20
1126.8874207895192
 11
1334.8716410766408
 21
1124.8874207895192
  0
LINE
  8
_0-1_計細線
  6
CONTINUOUS
 62
    3
 10
1332.871641076641
 20
1128.8874207895192
 11
1334.8716410766408
 21
1126.8874207895192
  0
LINE
  8
_0-1_計細線
  6
CONTINUOUS
 62
    3
 10
1346.8716407704796
 20
1124.8874207895192
 11
1348.8716407704794
 21
1122.8874207895192
  0
LINE
  8
_0-1_計細線
  6
CONTINUOUS
 62
    3
 10
1346.8716407704796
 20
1126.8874207895192
 11
1346.8716407704796
 21
1124.8874207895192
  0
LINE
  8
_0-1_計細線
  6
CONTINUOUS
 62
    3
 10
1348.8716407704794
 20
1128.8874207895192
 11
1346.8716407704796
 21
1126.8874207895192
  0
LINE
  8
_0-1_計細線
  6
CONTINUOUS
 62
    3
 10
1332.871641076641
 20
1122.8874207895192
 11
1332.871641076641
 21
1108.8874207895192
  0
ARC
  8
_0-1_計細線
  6
CONTINUOUS
 62
    3
 10
1335.8716410766408
 20
1108.8874207895192
 40
3.0000000000000004
 50
179.99999999999983
 51
269.99999999999977
  0
LINE
  8
_0-1_計細線
  6
CONTINUOUS
 62
    3
 10
1335.8716410766408
 20
1105.8874207895192
 11
1345.8716407704796
 21
1105.8874207895192
  0
LINE
  8
_0-1_計細線
  6
CONTINUOUS
 62
    3
 10
1348.8716407704794
 20
1122.8874207895192
 11
1348.8716407704794
 21
1108.8874207895192
  0
ARC
  8
_0-1_計細線
  6
CONTINUOUS
 62
    3
 10
1345.8716407704796
 20
1108.8874207895192
 40
3.0000000000000004
 50
269.99999999999977
 51
359.99999999999966
  0
LINE
  8
_0-1_計細線
  6
CONTINUOUS
 62
    3
 10
1372.5716409289653
 20
1123.1874207895175
 11
1348.5716407704804
 21
1123.1874207895175
  0
LINE
  8
_0-1_計細線
  6
CONTINUOUS
 62
    3
 10
1309.1716408524253
 20
1123.1874207895175
 11
1333.1716410766394
 21
1123.1874207895175
  0
ARC
  8
_0-1_計細線
  6
CONTINUOUS
 62
    3
 10
1309.1716408524253
 20
1124.6874207895175
 40
1.5000000000000002
 50
179.99999999999983
 51
269.99999999999977
  0
ARC
  8
_0-1_計細線
  6
CONTINUOUS
 62
    3
 10
1372.5716409289653
 20
1124.6874207895175
 40
1.5000000000000002
 50
269.99999999999977
 51
359.99999999999966
  0
ARC
  8
_0-1_計細線
  6
CONTINUOUS
 62
    3
 10
1369.6216408236749
 20
1121.3874207895456
 40
2.9999999969999998
 50
269.99999999999977
 51
359.99999999999966
  0
LINE
  8
_0-0_計極細
  6
CONTINUOUS
 62
    2
 10
1363.8716408294247
 20
1118.3874207895756
 11
1363.8716408294247
 21
1108.3874207896756
  0
LINE
  8
_0-1_計細線
  6
CONTINUOUS
 62
    3
 10
1366.8716408264252
 20
1118.3874207895756
 11
1366.8716408264252
 21
1108.3874207896756
  0
LINE
  8
_0-1_計細線
  6
CONTINUOUS
 62
    3
 10
1348.8716407704769
 20
1118.3874207895756
 11
1369.6216408236749
 21
1118.3874207895756
  0
LINE
  8
_0-1_計細線
  6
CONTINUOUS
 62
    3
 10
1348.8716407704769
 20
1108.3874207896756
 11
1366.8716408264252
 21
1108.3874207896756
  0
LINE
  8
_0-1_計細線
  6
CONTINUOUS
 62
    3
 10
1309.1216408841753
 20
1123.1874207895175
 11
1309.1216408841753
 21
1121.3874207895456
  0
ARC
  8
_0-1_計細線
  6
CONTINUOUS
 62
    3
 10
1312.1216408811752
 20
1121.3874207895456
 40
2.9999999969999998
 50
179.99999999999983
 51
269.99999999999977
  0
LINE
  8
_0-0_計極細
  6
CONTINUOUS
 62
    2
 10
1317.8716408754253
 20
1118.3874207895756
 11
1317.8716408754253
 21
1108.3874207896756
  0
LINE
  8
_0-1_計細線
  6
CONTINUOUS
 62
    3
 10
1314.8716408784248
 20
1118.3874207895756
 11
1314.8716408784248
 21
1108.3874207896756
  0
LINE
  8
_0-1_計細線
  6
CONTINUOUS
 62
    3
 10
1332.8716409343742
 20
1118.3874207895756
 11
1312.1216408811752
 21
1118.3874207895756
  0
LINE
  8
_0-1_計細線
  6
CONTINUOUS
 62
    3
 10
1332.8716409343742
 20
1108.3874207896756
 11
1314.8716408784248
 21
1108.3874207896756
  0
LINE
  8
_0-0_計極細
  6
CONTINUOUS
 62
    2
 10
1340.871640852426
 20
1084.8843581228425
 11
1364.2216408290751
 21
1084.8843581228425
  0
LINE
  8
_0-1_計細線
  6
CONTINUOUS
 62
    3
 10
1340.871640852426
 20
1083.8874207895183
 11
1363.2216408300756
 21
1083.8874207895183
  0
LINE
  8
_0-0_計極細
  6
CONTINUOUS
 62
    2
 10
1363.2216408300756
 20
1108.3874207896756
 11
1363.2216408300756
 21
1083.8874207895183
  0
LINE
  8
_0-1_計細線
  6
CONTINUOUS
 62
    3
 10
1364.2216408290751
 20
1108.3874207896756
 11
1364.2216408290751
 21
1084.8843581228425
  0
LINE
  8
_0-0_計極細
  6
CONTINUOUS
 62
    2
 10
1340.871640852426
 20
1084.8843581228425
 11
1317.521640875776
 21
1084.8843581228425
  0
LINE
  8
_0-1_計細線
  6
CONTINUOUS
 62
    3
 10
1340.871640852426
 20
1083.8874207895183
 11
1318.5216408747763
 21
1083.8874207895183
  0
LINE
  8
_0-0_計極細
  6
CONTINUOUS
 62
    2
 10
1318.5216408747763
 20
1108.3874207896756
 11
1318.5216408747763
 21
1083.8874207895183
  0
LINE
  8
_0-1_計細線
  6
CONTINUOUS
 62
    3
 10
1317.521640875776
 20
1108.3874207896756
 11
1317.521640875776
 21
1084.8843581228425
  0
LINE
  8
_0-1_計細線
  6
CONTINUOUS
 62
    3
 10
1364.2216408290751
 20
1084.8843581228425
 11
1363.2216408300756
 21
1083.8874207895183
  0
LINE
  8
_0-1_計細線
  6
CONTINUOUS
 62
    3
 10
1317.521640875776
 20
1084.8843581228425
 11
1318.5216408747763
 21
1083.8874207895183
  0
LINE
  8
_0-0_計極細
  6
CONTINUOUS
 62
    2
 10
1320.5613352568478
 20
1128.0874207895176
 11
1333.6716410766392
 21
1128.0874207895176
  0
LINE
  8
_0-1_計細線
  6
CONTINUOUS
 62
    3
 10
1307.6716408524251
 20
1126.9558574447942
 11
1307.6716408524251
 21
1124.6874207895175
  0
LINE
  8
_0-1_計細線
  6
CONTINUOUS
 62
    3
 10
1320.5613352568478
 20
1128.8873399695208
 11
1320.5613352568478
 21
1126.9082879669022
  0
LINE
  8
_0-1_計細線
  6
CONTINUOUS
 62
    3
 10
1361.1819464480038
 20
1128.8873399695208
 11
1361.1819464480038
 21
1126.9082879669022
  0
LINE
  8
_0-1_計細線
  6
CONTINUOUS
 62
    3
 10
1374.0716408524256
 20
1126.9558574447942
 11
1374.0716408524256
 21
1124.6874207895175
  0
LINE
  8
_0-0_計極細
  6
CONTINUOUS
 62
    2
 10
1348.0716407704747
 20
1128.0874207895176
 11
1361.1819464480038
 21
1128.0874207895176
  0
LINE
  8
_0-5_寸法線
  6
CONTINUOUS
 62
    7
 10
1322.1428227899523
 20
1093.7851578864834
 11
1316.9011320895654
 21
1074.4842594980282
  0
LINE
  8
_0-5_寸法線
  6
CONTINUOUS
 62
    7
 10
1322.1428227899523
 20
1093.7851578864834
 11
1307.9529362904091
 21
1079.6909349164121
  0
LINE
  8
_0-5_寸法線
  6
CONTINUOUS
 62
    7
 10
1322.1428227899523
 20
1093.7851578864834
 11
1296.133148868629
 21
1049.0849151752827
  0
LINE
  8
_0-5_寸法線
  6
CONTINUOUS
 62
    7
 10
1296.133148868629
 20
1049.0849151752827
 11
1224.1331488686292
 21
1049.0849151752827
  0
TEXT
  8
_0-5_寸法線
 62
    7
 10
1224.1331488686292
 20
1049.0849151752827
 40
30
 41
0.7999999999999998
 50
0
  1
排水口
  0
LINE
  8
_0-5_寸法線
  6
CONTINUOUS
 62
    7
 10
1386.8716408264252
 20
1108.3874207896754
 11
1436.8716408264252
 21
1108.3874207896752
  0
LINE
  8
_0-5_寸法線
  6
CONTINUOUS
 62
    7
 10
1426.8716408264252
 20
1108.3874207896752
 11
1432.0480217284758
 21
1089.0689042638937
  0
LINE
  8
_0-5_寸法線
  6
CONTINUOUS
 62
    7
 10
1426.8716408264252
 20
1108.3874207896752
 11
1421.6952599243746
 21
1089.0689042638937
  0
LINE
  8
_0-5_寸法線
  6
CONTINUOUS
 62
    7
 10
1386.8716408264252
 20
1148.8874207895176
 11
1436.8716408264252
 21
1148.8874207895174
  0
LINE
  8
_0-5_寸法線
  6
CONTINUOUS
 62
    7
 10
1426.8716408264252
 20
1148.8874207895174
 11
1421.6952599243748
 21
1168.2059373152988
  0
LINE
  8
_0-5_寸法線
  6
CONTINUOUS
 62
    7
 10
1426.8716408264252
 20
1148.8874207895174
 11
1432.0480217284758
 21
1168.2059373152988
  0
LINE
  8
_0-5_寸法線
  6
CONTINUOUS
 62
    7
 10
1426.8716408264252
 20
1058.3874207896752
 11
1426.8716408264252
 21
1198.8874207895174
  0
TEXT
  8
_0-5_寸法線
 62
    7
 10
1426.8716408264263
 20
1059.4239800435043
 40
30
 41
1
 50
90
  1
42
  0
LINE
  8
_0-1_計細線
  6
CONTINUOUS
 62
    3
 10
370.87164107664108
 20
1128.8874207895178
 11
354.17164085242632
 21
1128.8874207895178
  0
LINE
  8
_0-1_計細線
  6
CONTINUOUS
 62
    3
 10
372.87164107664097
 20
1140.8874207895192
 11
370.87164107664108
 21
1138.8874207895192
  0
LINE
  8
_0-1_計細線
  6
CONTINUOUS
 62
    3
 10
370.87164107664108
 20
1128.8874207895192
 11
370.87164107664108
 21
1138.8874207895192
  0
LINE
  8
_0-1_計細線
  6
CONTINUOUS
 62
    3
 10
386.87164077047953
 20
1138.8874207895192
 11
384.87164077047964
 21
1140.8874207895192
  0
LINE
  8
_0-1_計細線
  6
CONTINUOUS
 62
    3
 10
386.87164077047953
 20
1128.8874207895192
 11
386.87164077047953
 21
1138.8874207895192
  0
LINE
  8
_0-1_計細線
  6
CONTINUOUS
 62
    3
 10
372.87164107664097
 20
1124.8874207895192
 11
370.87164107664108
 21
1122.8874207895192
  0
LINE
  8
_0-1_計細線
  6
CONTINUOUS
 62
    3
 10
372.87164107664097
 20
1126.8874207895192
 11
372.87164107664097
 21
1124.8874207895192
  0
LINE
  8
_0-1_計細線
  6
CONTINUOUS
 62
    3
 10
370.87164107664108
 20
1128.8874207895192
 11
372.87164107664097
 21
1126.8874207895192
  0
LINE
  8
_0-1_計細線
  6
CONTINUOUS
 62
    3
 10
384.87164077047964
 20
1124.8874207895192
 11
386.87164077047953
 21
1122.8874207895192
  0
LINE
  8
_0-1_計細線
  6
CONTINUOUS
 62
    3
 10
384.87164077047964
 20
1126.8874207895192
 11
384.87164077047964
 21
1124.8874207895192
  0
LINE
  8
_0-1_計細線
  6
CONTINUOUS
 62
    3
 10
386.87164077047953
 20
1128.8874207895192
 11
384.87164077047964
 21
1126.8874207895192
  0
LINE
  8
_0-1_計細線
  6
CONTINUOUS
 62
    3
 10
370.87164107664108
 20
1122.8874207895192
 11
370.87164107664108
 21
1108.8874207895192
  0
ARC
  8
_0-1_計細線
  6
CONTINUOUS
 62
    3
 10
373.87164107664103
 20
1108.8874207895192
 40
3.0000000000000004
 50
179.99999999999983
 51
269.99999999999977
  0
LINE
  8
_0-1_計細線
  6
CONTINUOUS
 62
    3
 10
373.87164107664103
 20
1105.8874207895192
 11
383.8716407704797
 21
1105.8874207895192
  0
LINE
  8
_0-1_計細線
  6
CONTINUOUS
 62
    3
 10
386.87164077047953
 20
1122.8874207895192
 11
386.87164077047953
 21
1108.8874207895192
  0
ARC
  8
_0-1_計細線
  6
CONTINUOUS
 62
    3
 10
383.8716407704797
 20
1108.8874207895192
 40
3.0000000000000004
 50
269.99999999999977
 51
359.99999999999966
  0
LINE
  8
_0-0_計極細
  6
CENTER1
 62
    2
 10
378.87164085242603
 20
1152.528794654907
 11
378.87164085242603
 21
1097.2586768186638
  0
LINE
  8
_0-1_計細線
  6
CONTINUOUS
 62
    3
 10
343.88902078219331
 20
1143.8803410232081
 11
363.87156003243035
 21
1140.8895731089497
  0
LINE
  8
_0-1_計細線
  6
CONTINUOUS
 62
    3
 10
344.57163802372634
 20
1140.8874531175165
 11
344.57163802372634
 21
1143.7781747693971
  0
LINE
  8
_0-1_計細線
  6
CONTINUOUS
 62
    3
 10
343.87164085242603
 20
1140.8874207895192
 11
344.57163802372634
 21
1140.8874207895192
  0
LINE
  8
_0-1_計細線
  6
CONTINUOUS
 62
    3
 10
354.17164085242632
 20
1128.8874207895178
 11
354.17164085242632
 21
1142.3413509181241
  0
LINE
  8
_0-5_寸法線
  6
CONTINUOUS
 62
    7
 10
386.20807697120171
 20
1107.052277686545
 11
401.44988195631612
 21
1094.1028614527627
  0
LINE
  8
_0-5_寸法線
  6
CONTINUOUS
 62
    7
 10
386.20807697120171
 20
1107.052277686545
 11
392.93315917094787
 21
1088.2168517713537
  0
LINE
  8
_0-5_寸法線
  6
CONTINUOUS
 62
    7
 10
386.20807697120171
 20
1107.052277686545
 11
413.83000251817776
 21
1067.0849151752827
  0
LINE
  8
_0-5_寸法線
  6
CONTINUOUS
 62
    7
 10
413.83000251817776
 20
1067.0849151752827
 11
509.83000251817771
 21
1067.0849151752827
  0
TEXT
  8
_0-5_寸法線
 62
    7
 10
413.83000251817776
 20
1067.0849151752827
 40
30
 41
0.7999999999999998
 50
0
  1
アンカー
  0
LINE
  8
_0-1_計細線
  6
CONTINUOUS
 62
    3
 10
2327.5716408524258
 20
1128.8874207895178
 11
2310.8716407704796
 21
1128.8874207895178
  0
LINE
  8
_0-1_計細線
  6
CONTINUOUS
 62
    3
 10
2296.871641076641
 20
1140.8874207895192
 11
2294.871641076641
 21
1138.8874207895192
  0
LINE
  8
_0-1_計細線
  6
CONTINUOUS
 62
    3
 10
2294.871641076641
 20
1128.8874207895192
 11
2294.871641076641
 21
1138.8874207895192
  0
LINE
  8
_0-1_計細線
  6
CONTINUOUS
 62
    3
 10
2310.8716407704796
 20
1138.8874207895192
 11
2308.8716407704796
 21
1140.8874207895192
  0
LINE
  8
_0-1_計細線
  6
CONTINUOUS
 62
    3
 10
2310.8716407704796
 20
1128.8874207895192
 11
2310.8716407704796
 21
1138.8874207895192
  0
LINE
  8
_0-1_計細線
  6
CONTINUOUS
 62
    3
 10
2296.871641076641
 20
1124.8874207895192
 11
2294.871641076641
 21
1122.8874207895192
  0
LINE
  8
_0-1_計細線
  6
CONTINUOUS
 62
    3
 10
2296.871641076641
 20
1126.8874207895192
 11
2296.871641076641
 21
1124.8874207895192
  0
LINE
  8
_0-1_計細線
  6
CONTINUOUS
 62
    3
 10
2294.871641076641
 20
1128.8874207895192
 11
2296.871641076641
 21
1126.8874207895192
  0
LINE
  8
_0-1_計細線
  6
CONTINUOUS
 62
    3
 10
2308.8716407704796
 20
1124.8874207895192
 11
2310.8716407704796
 21
1122.8874207895192
  0
LINE
  8
_0-1_計細線
  6
CONTINUOUS
 62
    3
 10
2308.8716407704796
 20
1126.8874207895192
 11
2308.8716407704796
 21
1124.8874207895192
  0
LINE
  8
_0-1_計細線
  6
CONTINUOUS
 62
    3
 10
2310.8716407704796
 20
1128.8874207895192
 11
2308.8716407704796
 21
1126.8874207895192
  0
LINE
  8
_0-1_計細線
  6
CONTINUOUS
 62
    3
 10
2294.871641076641
 20
1122.8874207895192
 11
2294.871641076641
 21
1108.8874207895192
  0
ARC
  8
_0-1_計細線
  6
CONTINUOUS
 62
    3
 10
2297.871641076641
 20
1108.8874207895192
 40
3.0000000000000004
 50
179.99999999999983
 51
269.99999999999977
  0
LINE
  8
_0-1_計細線
  6
CONTINUOUS
 62
    3
 10
2297.871641076641
 20
1105.8874207895192
 11
2307.8716407704796
 21
1105.8874207895192
  0
LINE
  8
_0-1_計細線
  6
CONTINUOUS
 62
    3
 10
2310.8716407704796
 20
1122.8874207895192
 11
2310.8716407704796
 21
1108.8874207895192
  0
ARC
  8
_0-1_計細線
  6
CONTINUOUS
 62
    3
 10
2307.8716407704796
 20
1108.8874207895192
 40
3.0000000000000004
 50
269.99999999999977
 51
359.99999999999966
  0
LINE
  8
_0-0_計極細
  6
CENTER1
 62
    2
 10
2302.871640852426
 20
1152.528794654907
 11
2302.871640852426
 21
1097.2586768186638
  0
LINE
  8
_0-1_計細線
  6
CONTINUOUS
 62
    3
 10
2327.5716408524258
 20
1142.3413504337777
 11
2327.5716408524258
 21
1128.8874207895178
  0
LINE
  8
_0-1_計細線
  6
CONTINUOUS
 62
    3
 10
2337.8542675892977
 20
1143.8803410232081
 11
2317.8717216724217
 21
1140.8895731089497
  0
LINE
  8
_0-1_計細線
  6
CONTINUOUS
 62
    3
 10
2337.1716436811257
 20
1140.8874531175165
 11
2337.1716436811257
 21
1143.7781747693971
  0
LINE
  8
_0-1_計細線
  6
CONTINUOUS
 62
    3
 10
2337.871640852426
 20
1140.8874531175165
 11
2337.1716436811257
 21
1140.8874531175165
  0
LINE
  8
_0-1_計細線
  6
CONTINUOUS
 62
    3
 10
343.87164085242603
 20
1148.8874207895178
 11
343.87164085242603
 21
1140.8874207895178
  0
LINE
  8
_0-1_計細線
  6
CONTINUOUS
 62
    3
 10
2337.871640852426
 20
1140.8874207895178
 11
2337.871640852426
 21
1148.8874207895178
  0
LINE
  8
_0-1_計細線
  6
CONTINUOUS
 62
    3
 10
2337.871640852426
 20
1148.8874207895178
 11
343.87164085242603
 21
1148.8874207895178
  0
LINE
  8
_0-1_計細線
  6
CONTINUOUS
 62
    3
 10
363.87156003243035
 20
1140.8874207895178
 11
2317.8717216724217
 21
1140.8874207895178
  0
LINE
  8
_0-5_寸法線
  6
CONTINUOUS
 62
    7
 10
2347.5716408524258
 20
1128.8874207895178
 11
2517.871640852426
 21
1128.8874207895174
  0
LINE
  8
_0-5_寸法線
  6
CONTINUOUS
 62
    7
 10
2507.871640852426
 20
1128.8874207895174
 11
2513.0480217544764
 21
1109.5689042637359
  0
LINE
  8
_0-5_寸法線
  6
CONTINUOUS
 62
    7
 10
2507.871640852426
 20
1128.8874207895174
 11
2502.6952599503757
 21
1109.5689042637359
  0
LINE
  8
_0-5_寸法線
  6
CONTINUOUS
 62
    7
 10
2357.871640852426
 20
1148.8874207895178
 11
2517.871640852426
 21
1148.8874207895171
  0
LINE
  8
_0-5_寸法線
  6
CONTINUOUS
 62
    7
 10
2507.871640852426
 20
1148.8874207895171
 11
2502.6952599503757
 21
1168.2059373152988
  0
LINE
  8
_0-5_寸法線
  6
CONTINUOUS
 62
    7
 10
2507.871640852426
 20
1148.8874207895171
 11
2513.0480217544764
 21
1168.2059373152988
  0
LINE
  8
_0-5_寸法線
  6
CONTINUOUS
 62
    7
 10
2507.871640852426
 20
1078.8874207895174
 11
2507.871640852426
 21
1198.8874207895171
  0
TEXT
  8
_0-5_寸法線
 62
    7
 10
2507.871640852426
 20
1155.1065348834873
 40
30
 41
1
 50
90
  1
20
  0
LINE
  8
_0-5_寸法線
  6
CONTINUOUS
 62
    7
 10
2357.871640852426
 20
1140.8874207895192
 11
2447.871640852426
 21
1140.887420789519
  0
LINE
  8
_0-5_寸法線
  6
CONTINUOUS
 62
    7
 10
2437.871640852426
 20
1140.887420789519
 11
2443.0480217544764
 21
1121.5689042637377
  0
LINE
  8
_0-5_寸法線
  6
CONTINUOUS
 62
    7
 10
2437.871640852426
 20
1140.887420789519
 11
2432.6952599503757
 21
1121.5689042637377
  0
LINE
  8
_0-5_寸法線
  6
CONTINUOUS
 62
    7
 10
2357.871640852426
 20
1148.8874207895178
 11
2447.871640852426
 21
1148.8874207895176
  0
LINE
  8
_0-5_寸法線
  6
CONTINUOUS
 62
    7
 10
2437.871640852426
 20
1148.8874207895176
 11
2432.6952599503757
 21
1168.205937315299
  0
LINE
  8
_0-5_寸法線
  6
CONTINUOUS
 62
    7
 10
2437.871640852426
 20
1148.8874207895176
 11
2443.0480217544764
 21
1168.205937315299
  0
LINE
  8
_0-5_寸法線
  6
CONTINUOUS
 62
    7
 10
2437.871640852426
 20
1110.887420789519
 11
2437.871640852426
 21
1178.8874207895176
  0
TEXT
  8
_0-5_寸法線
 62
    7
 10
2437.871640852426
 20
1157.8883933189923
 40
30
 41
1
 50
90
  1
8
  0
LINE
  8
_0-5_寸法線
  6
CONTINUOUS
 62
    7
 10
1317.5216408757756
 20
1064.8843581228425
 11
1317.5216408757742
 21
973.88742078951805
  0
LINE
  8
_0-5_寸法線
  6
CONTINUOUS
 62
    7
 10
1317.5216408757747
 20
983.88742078951805
 11
1336.8401574015559
 21
989.06380169156841
  0
LINE
  8
_0-5_寸法線
  6
CONTINUOUS
 62
    7
 10
1317.5216408757747
 20
983.88742078951805
 11
1336.8401574015559
 21
978.71103988746768
  0
LINE
  8
_0-5_寸法線
  6
CONTINUOUS
 62
    7
 10
1364.2216408290747
 20
1064.8843581228425
 11
1364.2216408290733
 21
973.88742078951805
  0
LINE
  8
_0-5_寸法線
  6
CONTINUOUS
 62
    7
 10
1364.2216408290735
 20
983.88742078951805
 11
1344.9031243032923
 21
978.71103988746768
  0
LINE
  8
_0-5_寸法線
  6
CONTINUOUS
 62
    7
 10
1364.2216408290735
 20
983.88742078951805
 11
1344.9031243032923
 21
989.06380169156864
  0
LINE
  8
_0-5_寸法線
  6
CONTINUOUS
 62
    7
 10
1317.5216408757747
 20
983.88742078951805
 11
1364.2216408290735
 21
983.88742078951805
  0
TEXT
  8
_0-5_寸法線
 62
    7
 10
1310.8716408524244
 20
983.88742078951793
 40
30
 41
1
 50
0
  1
46.7
  0
LINE
  8
_0-1_計細線
  6
CONTINUOUS
 62
    3
 10
853.87164107664091
 20
1140.8874207895192
 11
851.87164107664091
 21
1138.8874207895192
  0
LINE
  8
_0-1_計細線
  6
CONTINUOUS
 62
    3
 10
851.87164107664091
 20
1128.8874207895192
 11
851.87164107664091
 21
1138.8874207895192
  0
LINE
  8
_0-1_計細線
  6
CONTINUOUS
 62
    3
 10
867.87164077047942
 20
1138.8874207895192
 11
865.87164077047942
 21
1140.8874207895192
  0
LINE
  8
_0-1_計細線
  6
CONTINUOUS
 62
    3
 10
867.87164077047942
 20
1128.8874207895192
 11
867.87164077047942
 21
1138.8874207895192
  0
LINE
  8
_0-1_計細線
  6
CONTINUOUS
 62
    3
 10
853.87164107664091
 20
1124.8874207895192
 11
851.87164107664091
 21
1122.8874207895192
  0
LINE
  8
_0-1_計細線
  6
CONTINUOUS
 62
    3
 10
853.87164107664091
 20
1126.8874207895192
 11
853.87164107664091
 21
1124.8874207895192
  0
LINE
  8
_0-1_計細線
  6
CONTINUOUS
 62
    3
 10
851.87164107664091
 20
1128.8874207895192
 11
853.87164107664091
 21
1126.8874207895192
  0
LINE
  8
_0-1_計細線
  6
CONTINUOUS
 62
    3
 10
865.87164077047942
 20
1124.8874207895192
 11
867.87164077047942
 21
1122.8874207895192
  0
LINE
  8
_0-1_計細線
  6
CONTINUOUS
 62
    3
 10
865.87164077047942
 20
1126.8874207895192
 11
865.87164077047942
 21
1124.8874207895192
  0
LINE
  8
_0-1_計細線
  6
CONTINUOUS
 62
    3
 10
867.87164077047942
 20
1128.8874207895192
 11
865.87164077047942
 21
1126.8874207895192
  0
LINE
  8
_0-1_計細線
  6
CONTINUOUS
 62
    3
 10
851.87164107664091
 20
1122.8874207895192
 11
851.87164107664091
 21
1108.8874207895192
  0
ARC
  8
_0-1_計細線
  6
CONTINUOUS
 62
    3
 10
854.8716410766408
 20
1108.8874207895192
 40
3.0000000000000004
 50
179.99999999999983
 51
269.99999999999977
  0
LINE
  8
_0-1_計細線
  6
CONTINUOUS
 62
    3
 10
854.8716410766408
 20
1105.8874207895192
 11
864.87164077047953
 21
1105.8874207895192
  0
LINE
  8
_0-1_計細線
  6
CONTINUOUS
 62
    3
 10
867.87164077047942
 20
1122.8874207895192
 11
867.87164077047942
 21
1108.8874207895192
  0
ARC
  8
_0-1_計細線
  6
CONTINUOUS
 62
    3
 10
864.87164077047953
 20
1108.8874207895192
 40
3.0000000000000004
 50
269.99999999999977
 51
359.99999999999966
  0
LINE
  8
_0-0_計極細
  6
CENTER1
 62
    2
 10
859.8716408524258
 20
1152.528794654907
 11
859.8716408524258
 21
1097.2586768186638
  0
LINE
  8
_0-1_計細線
  6
CONTINUOUS
 62
    3
 10
1332.871641076641
 20
1128.8874207895178
 11
867.87164077047942
 21
1128.8874207895178
  0
LINE
  8
_0-1_計細線
  6
CONTINUOUS
 62
    3
 10
851.87164107664216
 20
1128.8874207895178
 11
386.87164077047953
 21
1128.8874207895178
  0
LINE
  8
_0-1_計細線
  6
CONTINUOUS
 62
    3
 10
1320.5613352568478
 20
1126.9091896634113
 11
866.84526080709543
 21
1127.8449149677956
  0
LINE
  8
_0-1_計細線
  6
CONTINUOUS
 62
    3
 10
852.89802104002388
 20
1127.8772416102117
 11
386.82582567349499
 21
1128.8416056925332
  0
LINE
  8
_0-1_計細線
  6
CONTINUOUS
 62
    3
 10
1815.8716410766408
 20
1140.8874207895192
 11
1813.871641076641
 21
1138.8874207895192
  0
LINE
  8
_0-1_計細線
  6
CONTINUOUS
 62
    3
 10
1813.871641076641
 20
1128.8874207895192
 11
1813.871641076641
 21
1138.8874207895192
  0
LINE
  8
_0-1_計細線
  6
CONTINUOUS
 62
    3
 10
1829.8716407704796
 20
1138.8874207895192
 11
1827.8716407704794
 21
1140.8874207895192
  0
LINE
  8
_0-1_計細線
  6
CONTINUOUS
 62
    3
 10
1829.8716407704796
 20
1128.8874207895192
 11
1829.8716407704796
 21
1138.8874207895192
  0
LINE
  8
_0-1_計細線
  6
CONTINUOUS
 62
    3
 10
1815.8716410766408
 20
1124.8874207895192
 11
1813.871641076641
 21
1122.8874207895192
  0
LINE
  8
_0-1_計細線
  6
CONTINUOUS
 62
    3
 10
1815.8716410766408
 20
1126.8874207895192
 11
1815.8716410766408
 21
1124.8874207895192
  0
LINE
  8
_0-1_計細線
  6
CONTINUOUS
 62
    3
 10
1813.871641076641
 20
1128.8874207895192
 11
1815.8716410766408
 21
1126.8874207895192
  0
LINE
  8
_0-1_計細線
  6
CONTINUOUS
 62
    3
 10
1827.8716407704794
 20
1124.8874207895192
 11
1829.8716407704796
 21
1122.8874207895192
  0
LINE
  8
_0-1_計細線
  6
CONTINUOUS
 62
    3
 10
1827.8716407704794
 20
1126.8874207895192
 11
1827.8716407704794
 21
1124.8874207895192
  0
LINE
  8
_0-1_計細線
  6
CONTINUOUS
 62
    3
 10
1829.8716407704796
 20
1128.8874207895192
 11
1827.8716407704794
 21
1126.8874207895192
  0
LINE
  8
_0-1_計細線
  6
CONTINUOUS
 62
    3
 10
1813.871641076641
 20
1122.8874207895192
 11
1813.871641076641
 21
1108.8874207895192
  0
ARC
  8
_0-1_計細線
  6
CONTINUOUS
 62
    3
 10
1816.871641076641
 20
1108.8874207895192
 40
3.0000000000000004
 50
179.99999999999983
 51
269.99999999999977
  0
LINE
  8
_0-1_計細線
  6
CONTINUOUS
 62
    3
 10
1816.871641076641
 20
1105.8874207895192
 11
1826.8716407704796
 21
1105.8874207895192
  0
LINE
  8
_0-1_計細線
  6
CONTINUOUS
 62
    3
 10
1829.8716407704796
 20
1122.8874207895192
 11
1829.8716407704796
 21
1108.8874207895192
  0
ARC
  8
_0-1_計細線
  6
CONTINUOUS
 62
    3
 10
1826.8716407704796
 20
1108.8874207895192
 40
3.0000000000000004
 50
269.99999999999977
 51
359.99999999999966
  0
LINE
  8
_0-0_計極細
  6
CENTER1
 62
    2
 10
1821.8716408524258
 20
1152.528794654907
 11
1821.8716408524258
 21
1097.2586768186638
  0
LINE
  8
_0-1_計細線
  6
CONTINUOUS
 62
    3
 10
1813.871641076641
 20
1128.8874207895178
 11
1348.8716407704794
 21
1128.8874207895178
  0
LINE
  8
_0-1_計細線
  6
CONTINUOUS
 62
    3
 10
1361.1819464480038
 20
1126.9091896634113
 11
1814.9141096082622
 21
1127.8449522578974
  0
LINE
  8
_0-1_計細線
  6
CONTINUOUS
 62
    3
 10
2294.8716410766419
 20
1128.8874207895178
 11
1829.8716407704776
 21
1128.8874207895178
  0
LINE
  8
_0-1_計細線
  6
CONTINUOUS
 62
    3
 10
1828.829097486052
 20
1127.8772041475086
 11
2294.9174560313586
 21
1128.8416056925332
  0
LINE
  8
_0-5_寸法線
  6
CONTINUOUS
 62
    7
 10
343.87164085242603
 20
1168.8874207895178
 11
343.87164085242603
 21
1258.8874207895178
  0
LINE
  8
_0-5_寸法線
  6
CONTINUOUS
 62
    7
 10
343.87164085242603
 20
1248.8874207895178
 11
363.19015737820735
 21
1254.0638016915682
  0
LINE
  8
_0-5_寸法線
  6
CONTINUOUS
 62
    7
 10
343.87164085242603
 20
1248.8874207895178
 11
363.19015737820735
 21
1243.7110398874675
  0
LINE
  8
_0-5_寸法線
  6
CONTINUOUS
 62
    7
 10
378.87164085242603
 20
1168.8874207895178
 11
378.87164085242603
 21
1258.8874207895178
  0
LINE
  8
_0-5_寸法線
  6
CONTINUOUS
 62
    7
 10
378.87164085242603
 20
1248.8874207895178
 11
359.55312432664471
 21
1243.7110398874675
  0
LINE
  8
_0-5_寸法線
  6
CONTINUOUS
 62
    7
 10
378.87164085242603
 20
1248.8874207895178
 11
359.55312432664471
 21
1254.0638016915682
  0
LINE
  8
_0-5_寸法線
  6
CONTINUOUS
 62
    7
 10
343.87164085242603
 20
1248.8874207895178
 11
378.87164085242603
 21
1248.8874207895178
  0
TEXT
  8
_0-5_寸法線
 62
    7
 10
346.37164085242603
 20
1248.8874207895178
 40
30
 41
1
 50
0
  1
35
  0
LINE
  8
_0-5_寸法線
  6
CONTINUOUS
 62
    7
 10
378.87164085242603
 20
1248.8874207895178
 11
398.19015737820735
 21
1254.0638016915682
  0
LINE
  8
_0-5_寸法線
  6
CONTINUOUS
 62
    7
 10
378.87164085242603
 20
1248.8874207895178
 11
398.19015737820735
 21
1243.7110398874672
  0
LINE
  8
_0-5_寸法線
  6
CONTINUOUS
 62
    7
 10
859.8716408524258
 20
1168.8874207895178
 11
859.87164085242614
 21
1258.8874207895178
  0
LINE
  8
_0-5_寸法線
  6
CONTINUOUS
 62
    7
 10
859.87164085242614
 20
1248.8874207895178
 11
840.55312432664459
 21
1243.7110398874675
  0
LINE
  8
_0-5_寸法線
  6
CONTINUOUS
 62
    7
 10
859.87164085242614
 20
1248.8874207895178
 11
840.55312432664482
 21
1254.0638016915682
  0
LINE
  8
_0-5_寸法線
  6
CONTINUOUS
 62
    7
 10
378.87164085242603
 20
1248.8874207895178
 11
859.87164085242614
 21
1248.8874207895178
  0
TEXT
  8
_0-5_寸法線
 62
    7
 10
596.87164085242614
 20
1248.8874207895178
 40
30
 41
1
 50
0
  1
481
  0
LINE
  8
_0-5_寸法線
  6
CONTINUOUS
 62
    7
 10
859.87164085242614
 20
1248.8874207895178
 11
879.19015737820757
 21
1254.0638016915682
  0
LINE
  8
_0-5_寸法線
  6
CONTINUOUS
 62
    7
 10
859.87164085242614
 20
1248.8874207895178
 11
879.19015737820746
 21
1243.7110398874672
  0
LINE
  8
_0-5_寸法線
  6
CONTINUOUS
 62
    7
 10
1340.871640852426
 20
1168.8874207895178
 11
1340.8716408524263
 21
1258.8874207895178
  0
LINE
  8
_0-5_寸法線
  6
CONTINUOUS
 62
    7
 10
1340.8716408524263
 20
1248.8874207895178
 11
1321.5531243266446
 21
1243.7110398874675
  0
LINE
  8
_0-5_寸法線
  6
CONTINUOUS
 62
    7
 10
1340.8716408524263
 20
1248.8874207895178
 11
1321.5531243266446
 21
1254.0638016915682
  0
LINE
  8
_0-5_寸法線
  6
CONTINUOUS
 62
    7
 10
859.87164085242614
 20
1248.8874207895178
 11
1340.8716408524263
 21
1248.8874207895178
  0
TEXT
  8
_0-5_寸法線
 62
    7
 10
1077.871640852426
 20
1248.8874207895176
 40
30
 41
1
 50
0
  1
481
  0
LINE
  8
_0-5_寸法線
  6
CONTINUOUS
 62
    7
 10
1340.8716408524263
 20
1248.8874207895178
 11
1360.1901573782075
 21
1254.0638016915682
  0
LINE
  8
_0-5_寸法線
  6
CONTINUOUS
 62
    7
 10
1340.8716408524263
 20
1248.8874207895178
 11
1360.1901573782075
 21
1243.7110398874672
  0
LINE
  8
_0-5_寸法線
  6
CONTINUOUS
 62
    7
 10
1821.8716408524258
 20
1168.8874207895178
 11
1821.871640852426
 21
1258.8874207895178
  0
LINE
  8
_0-5_寸法線
  6
CONTINUOUS
 62
    7
 10
1821.871640852426
 20
1248.8874207895178
 11
1802.5531243266448
 21
1243.7110398874675
  0
LINE
  8
_0-5_寸法線
  6
CONTINUOUS
 62
    7
 10
1821.871640852426
 20
1248.8874207895178
 11
1802.5531243266448
 21
1254.0638016915682
  0
LINE
  8
_0-5_寸法線
  6
CONTINUOUS
 62
    7
 10
1340.8716408524263
 20
1248.8874207895178
 11
1821.871640852426
 21
1248.8874207895178
  0
TEXT
  8
_0-5_寸法線
 62
    7
 10
1558.871640852426
 20
1248.8874207895176
 40
30
 41
1
 50
0
  1
481
  0
LINE
  8
_0-5_寸法線
  6
CONTINUOUS
 62
    7
 10
1821.871640852426
 20
1248.8874207895178
 11
1841.1901573782075
 21
1254.0638016915682
  0
LINE
  8
_0-5_寸法線
  6
CONTINUOUS
 62
    7
 10
1821.871640852426
 20
1248.8874207895178
 11
1841.1901573782075
 21
1243.7110398874672
  0
LINE
  8
_0-5_寸法線
  6
CONTINUOUS
 62
    7
 10
2302.871640852426
 20
1168.8874207895178
 11
2302.871640852426
 21
1258.8874207895178
  0
LINE
  8
_0-5_寸法線
  6
CONTINUOUS
 62
    7
 10
2302.871640852426
 20
1248.8874207895178
 11
2283.5531243266446
 21
1243.7110398874675
  0
LINE
  8
_0-5_寸法線
  6
CONTINUOUS
 62
    7
 10
2302.871640852426
 20
1248.8874207895178
 11
2283.5531243266446
 21
1254.0638016915682
  0
LINE
  8
_0-5_寸法線
  6
CONTINUOUS
 62
    7
 10
1821.871640852426
 20
1248.8874207895178
 11
2302.871640852426
 21
1248.8874207895178
  0
TEXT
  8
_0-5_寸法線
 62
    7
 10
2039.8716408524263
 20
1248.8874207895178
 40
30
 41
1
 50
0
  1
481
  0
LINE
  8
_0-5_寸法線
  6
CONTINUOUS
 62
    7
 10
2302.871640852426
 20
1248.8874207895178
 11
2322.1901573782079
 21
1254.0638016915682
  0
LINE
  8
_0-5_寸法線
  6
CONTINUOUS
 62
    7
 10
2302.871640852426
 20
1248.8874207895178
 11
2322.1901573782079
 21
1243.7110398874672
  0
LINE
  8
_0-5_寸法線
  6
CONTINUOUS
 62
    7
 10
2337.871640852426
 20
1168.8874207895178
 11
2337.871640852426
 21
1258.8874207895178
  0
LINE
  8
_0-5_寸法線
  6
CONTINUOUS
 62
    7
 10
2337.871640852426
 20
1248.8874207895178
 11
2318.5531243266446
 21
1243.7110398874675
  0
LINE
  8
_0-5_寸法線
  6
CONTINUOUS
 62
    7
 10
2337.871640852426
 20
1248.8874207895178
 11
2318.5531243266446
 21
1254.0638016915682
  0
LINE
  8
_0-5_寸法線
  6
CONTINUOUS
 62
    7
 10
2302.871640852426
 20
1248.8874207895178
 11
2337.871640852426
 21
1248.8874207895178
  0
TEXT
  8
_0-5_寸法線
 62
    7
 10
2305.371640852426
 20
1248.8874207895178
 40
30
 41
1
 50
0
  1
35
  0
LINE
  8
_0-0_計極細
  6
CENTER1
 62
    2
 10
1340.871640852426
 20
1537.6849434290693
 11
1340.871640852426
 21
1059.2120043371606
  0
LINE
  8
_0-5_寸法線
  6
CONTINUOUS
 62
    7
 10
343.87164085242603
 20
1413.6132693534862
 11
343.87164085242591
 21
1323.6132693534862
  0
LINE
  8
_0-5_寸法線
  6
CONTINUOUS
 62
    7
 10
343.87164085242591
 20
1333.6132693534862
 11
363.19015737820735
 21
1338.7896502555368
  0
LINE
  8
_0-5_寸法線
  6
CONTINUOUS
 62
    7
 10
343.87164085242591
 20
1333.6132693534862
 11
363.19015737820735
 21
1328.4368884514358
  0
LINE
  8
_0-5_寸法線
  6
CONTINUOUS
 62
    7
 10
1340.871640852426
 20
1413.6132693534862
 11
1340.8716408524256
 21
1323.6132693534862
  0
LINE
  8
_0-5_寸法線
  6
CONTINUOUS
 62
    7
 10
1340.8716408524256
 20
1333.6132693534862
 11
1321.5531243266444
 21
1328.4368884514358
  0
LINE
  8
_0-5_寸法線
  6
CONTINUOUS
 62
    7
 10
1340.8716408524256
 20
1333.6132693534862
 11
1321.5531243266444
 21
1338.7896502555368
  0
LINE
  8
_0-5_寸法線
  6
CONTINUOUS
 62
    7
 10
343.87164085242591
 20
1333.6132693534862
 11
1340.8716408524256
 21
1333.6132693534862
  0
TEXT
  8
_0-5_寸法線
 62
    7
 10
819.8716408524258
 20
1333.6132693534862
 40
30
 41
1
 50
0
  1
997
  0
LINE
  8
_0-5_寸法線
  6
CONTINUOUS
 62
    7
 10
1340.8716408524256
 20
1333.6132693534862
 11
1360.190157378207
 21
1338.7896502555368
  0
LINE
  8
_0-5_寸法線
  6
CONTINUOUS
 62
    7
 10
1340.8716408524256
 20
1333.6132693534862
 11
1360.190157378207
 21
1328.4368884514356
  0
LINE
  8
_0-5_寸法線
  6
CONTINUOUS
 62
    7
 10
2337.871640852426
 20
1413.6132693534862
 11
2337.871640852426
 21
1323.6132693534862
  0
LINE
  8
_0-5_寸法線
  6
CONTINUOUS
 62
    7
 10
2337.871640852426
 20
1333.6132693534862
 11
2318.5531243266446
 21
1328.4368884514358
  0
LINE
  8
_0-5_寸法線
  6
CONTINUOUS
 62
    7
 10
2337.871640852426
 20
1333.6132693534862
 11
2318.5531243266446
 21
1338.7896502555368
  0
LINE
  8
_0-5_寸法線
  6
CONTINUOUS
 62
    7
 10
1340.8716408524256
 20
1333.6132693534862
 11
2337.871640852426
 21
1333.6132693534862
  0
TEXT
  8
_0-5_寸法線
 62
    7
 10
1816.8716408524258
 20
1333.6132693534862
 40
30
 41
1
 50
0
  1
997
  0
ENDSEC
  0
EOF
