  0
SECTION
  2
HEADER
  9
$ACADVER
  1
AC1009
  9
$INSBASE
 10
0
 20
0
 30
0
  9
$EXTMIN
 10
0
 20
0
  9
$EXTMAX
 10
2376
 20
1680
  9
$LIMMIN
 10
0
 20
0
  9
$LIMMAX
 10
2376
 20
1680
  9
$LTSCALE
 40
8
  0
ENDSEC
  0
SECTION
  2
TABLES
  0
TABLE
  2
LTYPE
 70
     9
  0
LTYPE
  2
CONTINUOUS
 70
    64
  3
実線
 72
    65
 73
     0
 40
0.0
  0
LTYPE
  2
DASHED1
 70
    64
  3
--  --  --  --  --  --  --  --  
 72
    65
 73
     2
 40
2.5
 49
1.25
 49
-1.25
  0
LTYPE
  2
DASHED2
 70
    64
  3
----    ----    ----    ----    
 72
    65
 73
     2
 40
5.0
 49
2.5
 49
-2.5
  0
LTYPE
  2
DASHED3
 70
    64
  3
------  ------  ------  ------  
 72
    65
 73
     2
 40
5.0
 49
3.75
 49
-1.25
  0
LTYPE
  2
CENTER1
 70
    64
  3
----- - ----- - ----- - ----- - 
 72
    65
 73
     4
 40
10.0
 49
6.25
 49
-1.25
 49
1.25
 49
-1.25
  0
LTYPE
  2
CENTER2
 70
    64
  3
----------  --  ----------  --  
 72
    65
 73
     4
 40
20.0
 49
12.5
 49
-2.5
 49
2.5
 49
-2.5
  0
LTYPE
  2
PHANTOM1
 70
    64
  3
--- - - --- - - --- - - --- - - 
 72
    65
 73
     6
 40
10.0
 49
3.25
 49
-1.25
 49
1.25
 49
-1.25
 49
1.25
 49
-1.25
  0
LTYPE
  2
PHANTOM2
 70
    64
  3
--------  -  -  --------  -  -  
 72
    65
 73
     6
 40
20.0
 49
10.0
 49
-2.5
 49
1.25
 49
-2.5
 49
1.25
 49
-2.5
  0
LTYPE
  2
DOT
 70
    64
  3
-   -   -   -   -   -   -   -   
 72
    65
 73
     2
 40
2.5
 49
0.625
 49
-1.875
  0
LTYPE
  2
DUMMY
 70
    64
  3
ダミー
 72
    65
 73
     0
 40
0.0
  0
LTYPE
  2
RAND1
 70
    64
  3
ランダム線1
 72
    65
 73
     4
 40
10.0
 49
1.0
 49
-2.0
 49
3.0
 49
-4.0
  0
LTYPE
  2
RAND2
 70
    64
  3
ランダム線2
 72
    65
 73
     4
 40
14.0
 49
2.0
 49
-3.0
 49
4.0
 49
-5.0
  0
LTYPE
  2
RAND3
 70
    64
  3
ランダム線3
 72
    65
 73
     4
 40
18.0
 49
3.0
 49
-4.0
 49
5.0
 49
-6.0
  0
LTYPE
  2
RAND4
 70
    64
  3
ランダム線4
 72
    65
 73
     4
 40
22.0
 49
4.0
 49
-5.0
 49
6.0
 49
-7.0
  0
LTYPE
  2
RAND5
 70
    64
  3
ランダム線5
 72
    65
 73
     4
 40
26.0
 49
5.0
 49
-6.0
 49
7.0
 49
-8.0
  0
LTYPE
  2
LONG1
 70
    64
  3
----------  --  ----------  --  
 72
    65
 73
     4
 40
40.0
 49
32.5
 49
-2.5
 49
2.5
 49
-2.5
  0
LTYPE
  2
LONG2
 70
    64
  3
--------  -  -  --------  -  -  
 72
    65
 73
     6
 40
40.0
 49
30.0
 49
-2.5
 49
1.25
 49
-2.5
 49
1.25
 49
-2.5
  0
LTYPE
  2
LONG3
 70
    64
  3
+++++++++++++++..+++++++++++++++
 72
    65
 73
     2
 40
40.0
 49
37.5
 49
-2.5
  0
LTYPE
  2
LONG4
 70
    64
  3
+++++++++++++++..+++++++++++++++
 72
    65
 73
     2
 40
80.0
 49
75.0
 49
-5.0
  0
LTYPE
  2
LONG5
 70
    64
  3
----------  --  ----------  --  
 72
    65
 73
     4
 40
60.0
 49
37.5
 49
-7.5
 49
7.5
 49
-7.5
  0
LTYPE
  2
dashed
 70
   64
  3
-------   -------------   ------
 72
   65
 73
    2
 40
7.5
 49
6
 49
-1.5
  0
LTYPE
  2
dashed_spaced
 70
   64
  3
----        --------        ----
 72
   65
 73
    2
 40
12
 49
6
 49
-6
  0
LTYPE
  2
long_dashed_dotted
 70
   64
  3
------------- --- --------------
 72
   65
 73
    4
 40
15.25
 49
12
 49
-1.5
 49
0.25
 49
-1.5
  0
LTYPE
  2
long_dashed_double-dotted
 70
   64
  3
----------- --- --- ------------
 72
   65
 73
    6
 40
17
 49
12
 49
-1.5
 49
0.25
 49
-1.5
 49
0.25
 49
-1.5
  0
LTYPE
  2
long_dashed_triplicate-dotted
 70
   64
  3
--------- --- --- --- ----------
 72
   65
 73
    8
 40
18.75
 49
12
 49
-1.5
 49
0.25
 49
-1.5
 49
0.25
 49
-1.5
 49
0.25
 49
-1.5
  0
LTYPE
  2
dotted
 70
   64
  3
   -       -       -       -    
 72
   65
 73
    2
 40
1.75
 49
0.25
 49
-1.5
  0
LTYPE
  2
chain
 70
   64
  3
-------------- -- --------------
 72
   65
 73
    4
 40
18.5
 49
12
 49
-1.5
 49
3.5
 49
-1.5
  0
LTYPE
  2
chain_double_dash
 70
   64
  3
------------ -- -- -------------
 72
   65
 73
    6
 40
23.5
 49
12
 49
-1.5
 49
3.5
 49
-1.5
 49
3.5
 49
-1.5
  0
LTYPE
  2
dashed_dotted
 70
   64
  3
-----------     -     ----------
 72
   65
 73
    4
 40
9.25
 49
6
 49
-1.5
 49
0.25
 49
-1.5
  0
LTYPE
  2
double-dashed_dotted
 70
   64
  3
------   -----------   -   -----
 72
   65
 73
    6
 40
16.75
 49
6
 49
-1.5
 49
6
 49
-1.5
 49
0.25
 49
-1.5
  0
LTYPE
  2
dashed_double-dotted
 70
   64
  3
---------    -    -    ---------
 72
   65
 73
    6
 40
11
 49
6
 49
-1.5
 49
0.25
 49
-1.5
 49
0.25
 49
-1.5
  0
LTYPE
  2
double-dashed_double-dotted
 70
   64
  3
-----   ---------   -   -   ----
 72
   65
 73
    8
 40
18.5
 49
6
 49
-1.5
 49
6
 49
-1.5
 49
0.25
 49
-1.5
 49
0.25
 49
-1.5
  0
LTYPE
  2
dashed_triplicate-dotted
 70
   64
  3
-------    -    -    -    ------
 72
   65
 73
    8
 40
12.75
 49
6
 49
-1.5
 49
0.25
 49
-1.5
 49
0.25
 49
-1.5
 49
0.25
 49
-1.5
  0
LTYPE
  2
double-dashed_triplicate-dotted
 70
   64
  3
-----  ---------  -  -  -  -----
 72
   65
 73
   10
 40
20.25
 49
6
 49
-1.5
 49
6
 49
-1.5
 49
0.25
 49
-1.5
 49
0.25
 49
-1.5
 49
0.25
 49
-1.5
  0
LTYPE
  2
undefined
 70
   64
  3
--------------------------------
 72
   65
 73
    0
 40
0
  0
ENDTAB
  0
TABLE
  2
STYLE
  5
3
100
AcDbSymbolTable
 70
     1
  0
STYLE
  5
10
100
AcDbSymbolTableRecord
100
AcDbTextStyleTableRecord
  2
STANDARD
 70
     0
 40
0.0
 41
1.0
 50
0.0
 71
     0
 42
0.2
  3
txt
  4
bigfont.shx
  0
STYLE
  5
26
100
AcDbSymbolTableRecord
100
AcDbTextStyleTableRecord
  2
TATEGAKI
 70
    68
 40
0.0
 41
1.0
 50
0.0
 71
     0
 42
1.0
  3
txt
  4
bigfont.shx
  0
ENDTAB
  0
TABLE
  2
LAYER
 70
    9
  0
LAYER
  2
_0-0_計極細
 70
   64
 62
    7
  6
CONTINUOUS
  0
LAYER
  2
_0-1_計細線
 70
   64
 62
    7
  6
CONTINUOUS
  0
LAYER
  2
_0-5_寸法線
 70
   64
 62
    7
  6
CONTINUOUS
  0
LAYER
  2
_0-7_枠細線
 70
   64
 62
    7
  6
CONTINUOUS
  0
LAYER
  2
_0-8_枠中線
 70
   64
 62
    7
  6
CONTINUOUS
  0
LAYER
  2
_1-2_極細2
 70
   64
 62
    7
  6
CONTINUOUS
  0
LAYER
  2
_1-3_細線2
 70
   64
 62
    7
  6
CONTINUOUS
  0
LAYER
  2
_1-5_寸法2
 70
   64
 62
    7
  6
CONTINUOUS
  0
LAYER
  2
ADD_LINE
 70
   64
 62
    7
  6
CONTINUOUS
  0
ENDTAB
  0
ENDSEC
  0
SECTION
  2
BLOCKS
  0
ENDSEC
  0
SECTION
  2
ENTITIES
  0
LINE
  8
_0-8_枠中線
  6
CONTINUOUS
 62
    5
 10
96
 20
96
 11
96
 21
1536
  0
LINE
  8
_0-8_枠中線
  6
CONTINUOUS
 62
    5
 10
96
 20
1536
 11
2280
 21
1536
  0
LINE
  8
_0-8_枠中線
  6
CONTINUOUS
 62
    5
 10
2280
 20
1536
 11
2280
 21
96
  0
LINE
  8
_0-8_枠中線
  6
CONTINUOUS
 62
    5
 10
2280
 20
96
 11
96
 21
96
  0
LINE
  8
_0-7_枠細線
  6
CONTINUOUS
 62
    5
 10
1896
 20
288
 11
1896
 21
160
  0
TEXT
  8
_0-7_枠細線
 62
    5
 10
1500
 20
156
 40
28
 41
1
 50
0
  1
備考
  7
TATEGAKI
  0
TEXT
  8
_0-7_枠細線
 62
    5
 10
1500
 20
220
 40
28
 41
1
 50
0
  1
品番
  7
TATEGAKI
  0
TEXT
  8
_0-7_枠細線
 62
    5
 10
1500
 20
284
 40
28
 41
1
 50
0
  1
品名
  7
TATEGAKI
  0
LINE
  8
_0-7_枠細線
  6
CONTINUOUS
 62
    5
 10
1896
 20
224
 11
1480
 21
224
  0
LINE
  8
_0-7_枠細線
  6
CONTINUOUS
 62
    5
 10
1520
 20
288
 11
1520
 21
96
  0
LINE
  8
_0-8_枠中線
  6
CONTINUOUS
 62
    5
 10
2280
 20
288
 11
1480
 21
288
  0
LINE
  8
_0-8_枠中線
  6
CONTINUOUS
 62
    5
 10
1480
 20
288
 11
1480
 21
96
  0
LINE
  8
_0-7_枠細線
  6
CONTINUOUS
 62
    5
 10
1992
 20
288
 11
1992
 21
96
  0
TEXT
  8
_0-7_枠細線
 62
    5
 10
1908
 20
256
 40
24
 41
1
 50
0
  1
縮　尺
  0
LINE
  8
_0-7_枠細線
  6
CONTINUOUS
 62
    5
 10
1896
 20
248
 11
1992
 21
248
  0
LINE
  8
_0-7_枠細線
  6
CONTINUOUS
 62
    5
 10
1992
 20
160
 11
1480
 21
160
  0
LINE
  8
_0-7_枠細線
  6
CONTINUOUS
 62
    5
 10
2280
 20
144
 11
1992
 21
144
  0
LINE
  8
_0-7_枠細線
  6
CONTINUOUS
 62
    5
 10
1992
 20
192
 11
2280
 21
192
  0
LINE
  8
_0-7_枠細線
  6
CONTINUOUS
 62
    5
 10
2280
 20
224
 11
1992
 21
224
  0
TEXT
  8
_0-7_枠細線
 62
    5
 10
2008
 20
236
 40
40
 41
0.8
 50
0
  1
株式会社シマブン
  0
TEXT
  8
_0-7_枠細線
 62
    5
 10
2004
 20
96
 40
24
 41
1
 50
0
  1
年月日
  0
TEXT
  8
_0-7_枠細線
 62
    5
 10
2004
 20
120
 40
24
 41
1
 50
0
  1
作　成
  0
TEXT
  8
_0-7_枠細線
 62
    5
 10
2010
 20
196
 40
24
 41
1
 50
0
  1
承 認
  0
LINE
  8
_0-7_枠細線
  6
CONTINUOUS
 62
    5
 10
2088
 20
224
 11
2088
 21
96
  0
TEXT
  8
_0-7_枠細線
 62
    5
 10
2106
 20
196
 40
24
 41
1
 50
0
  1
検 図
  0
LINE
  8
_0-7_枠細線
  6
CONTINUOUS
 62
    5
 10
2184
 20
224
 11
2184
 21
144
  0
TEXT
  8
_0-7_枠細線
 62
    5
 10
2202
 20
196
 40
24
 41
1
 50
0
  1
設 計
  0
LINE
  8
_0-7_枠細線
  6
CONTINUOUS
 62
    5
 10
2280
 20
1508
 11
1424
 21
1508
  0
TEXT
  8
_0-7_枠細線
 62
    5
 10
1432
 20
1511.9999999999993
 40
20
 41
1
 50
0
  1
記号
  0
TEXT
  8
_0-7_枠細線
 62
    5
 10
1595
 20
1512
 40
20
 41
1
 50
0
  1
訂　 正　 記　 事
  0
TEXT
  8
_0-7_枠細線
 62
    5
 10
1890
 20
1512
 40
20
 41
1
 50
0
  1
訂 正 年 月 日
  0
TEXT
  8
_0-7_枠細線
 62
    5
 10
2090
 20
1512
 40
20
 41
1
 50
0
  1
備　　　　　考
  0
LINE
  8
_0-7_枠細線
  6
CONTINUOUS
 62
    5
 10
2280
 20
1480
 11
1424
 21
1480
  0
TEXT
  8
_0-7_枠細線
 62
    5
 10
1544.7999999999997
 20
240
 40
32
 41
0.6
 50
0
  1
玄関排水ユニット
  0
TEXT
  8
_0-7_枠細線
 62
    5
 10
2200
 20
152
 40
32
 41
1
 50
0
  1
藤戸
  0
LINE
  8
_0-1_計細線
  6
CONTINUOUS
 62
    3
 10
1723.4465993058161
 20
796.64196472428898
 11
1723.4465943692962
 21
796.6433281967345
  0
LINE
  8
_0-7_枠細線
  6
CONTINUOUS
 62
    5
 10
1424
 20
1480
 11
1424
 21
1535.9999999999991
  0
LINE
  8
_0-7_枠細線
  6
CONTINUOUS
 62
    5
 10
1480
 20
1480
 11
1480
 21
1535.9999999999991
  0
LINE
  8
_0-7_枠細線
  6
CONTINUOUS
 62
    5
 10
1880
 20
1480
 11
1880
 21
1536
  0
LINE
  8
_0-7_枠細線
  6
CONTINUOUS
 62
    5
 10
2040
 20
1480
 11
2040
 21
1535.9999999999991
  0
TEXT
  8
_0-7_枠細線
 62
    5
 10
2008
 20
152
 40
32
 41
1
 50
0
  1
大野
  0
TEXT
  8
_0-7_枠細線
 62
    5
 10
2104
 20
152
 40
32
 41
1
 50
0
  1
深川
  0
TEXT
  8
_0-7_枠細線
 62
    5
 10
2096
 20
108
 40
24
 41
0.6666666666666666
 50
0
  1
２０１５年０４月０１日
  0
LINE
  8
_1-3_細線2
  6
CONTINUOUS
 62
    4
 10
501.77184562062962
 20
449.36036130602179
 11
501.77184562062962
 21
442.16036130613429
  0
LINE
  8
_1-3_細線2
  6
CONTINUOUS
 62
    4
 10
247.77184587462966
 20
449.36036130602162
 11
271.19683502846931
 21
449.36036130602162
  0
LINE
  8
_1-3_細線2
  6
CONTINUOUS
 62
    4
 10
271.19683502846931
 20
449.36036130602179
 11
281.37184584103056
 21
430.15913343542582
  0
LINE
  8
_1-3_細線2
  6
CONTINUOUS
 62
    4
 10
247.77184587462966
 20
449.36036130602179
 11
247.77184587462966
 21
442.16036130613429
  0
ARC
  8
_1-3_細線2
  6
CONTINUOUS
 62
    4
 10
281.48338184091813
 20
461.76036130593786
 40
5.9999999939999995
 50
7.1889771515933107
 51
89.999999999999915
  0
LINE
  8
_1-3_細線2
  6
CONTINUOUS
 62
    4
 10
281.48338184091813
 20
467.76036130587784
 11
245.77184587662964
 21
467.76036130587784
  0
LINE
  8
_1-3_細線2
  6
CONTINUOUS
 62
    4
 10
374.77184574762987
 20
467.76036130587784
 11
281.48338184091813
 21
467.76036130587784
  0
LINE
  8
_1-3_細線2
  6
CONTINUOUS
 62
    4
 10
287.4362146060937
 20
462.51121548475658
 11
294.7718458276297
 21
404.14979426080072
  0
LINE
  8
_1-3_細線2
  6
CONTINUOUS
 62
    4
 10
294.7718458276297
 20
404.14979426080072
 11
294.7718458276297
 21
370.96036130684661
  0
LINE
  8
_1-3_細線2
  6
CONTINUOUS
 62
    4
 10
259.77184586262979
 20
430.16036130625434
 11
270.77184585162945
 21
430.16036130625434
  0
LINE
  8
_1-3_細線2
  6
CONTINUOUS
 62
    4
 10
270.77184585162945
 20
430.16036130625434
 11
270.77184585162945
 21
390.16036130665418
  0
LINE
  8
_1-3_細線2
  6
CONTINUOUS
 62
    4
 10
281.37184584103056
 20
390.16036130665418
 11
270.77184585162945
 21
390.16036130665418
  0
LINE
  8
_1-3_細線2
  6
CONTINUOUS
 62
    4
 10
281.37184584103056
 20
430.15913343542582
 11
281.37184584103056
 21
390.16036130665418
  0
LINE
  8
_1-3_細線2
  6
CONTINUOUS
 62
    4
 10
281.37184584103056
 20
390.16036130665418
 11
281.37184584103056
 21
302.94811064086025
  0
ARC
  8
_1-3_細線2
  6
CONTINUOUS
 62
    4
 10
259.77184586262979
 20
442.16036130613429
 40
11.999999987999999
 50
179.99999999999983
 51
269.99999999999977
  0
LINE
  8
_1-3_細線2
  6
CONTINUOUS
 62
    4
 10
281.37184584103056
 20
449.76036130605792
 11
281.37184584103056
 21
430.16036130625434
  0
LINE
  8
_1-3_細線2
  6
CONTINUOUS
 62
    4
 10
285.37184583703061
 20
390.16036130665418
 11
281.37184584103056
 21
390.16036130665418
  0
LINE
  8
_1-3_細線2
  6
CONTINUOUS
 62
    4
 10
502.77184561962952
 20
457.76036130597788
 11
502.77184561962952
 21
453.36036130602162
  0
ARC
  8
_1-3_細線2
  6
CONTINUOUS
 62
    4
 10
489.77184563262983
 20
442.16036130613429
 40
11.999999987999999
 50
269.99999999999977
 51
359.99999999999966
  0
LINE
  8
_1-3_細線2
  6
CONTINUOUS
 62
    4
 10
466.7718456556297
 20
430.16036130625434
 11
466.7718456556297
 21
390.16036130665418
  0
LINE
  8
_1-3_細線2
  6
CONTINUOUS
 62
    4
 10
478.77184564363006
 20
430.16036130625434
 11
478.77184564363006
 21
390.16036130665418
  0
LINE
  8
_1-3_細線2
  6
CONTINUOUS
 62
    4
 10
503.77184561862964
 20
457.76036130597788
 11
503.77184561862964
 21
467.76036130587784
  0
LINE
  8
_1-3_細線2
  6
CONTINUOUS
 62
    4
 10
356.98217109875281
 20
393.54323597328732
 11
361.30862976109404
 21
394.17283063994756
  0
LINE
  8
_1-3_細線2
  6
CONTINUOUS
 62
    4
 10
365.73751508999749
 20
394.62599863994302
 11
370.23512041883225
 21
394.89928397327304
  0
LINE
  8
_1-3_細線2
  6
CONTINUOUS
 62
    4
 10
361.30862976109404
 20
394.17283063994756
 11
365.73751508999749
 21
394.62599863994302
  0
LINE
  8
_1-3_細線2
  6
CONTINUOUS
 62
    4
 10
370.23512041883225
 20
394.89928397327304
 11
374.76721641430072
 21
394.99061197327194
  0
LINE
  8
_1-3_細線2
  6
CONTINUOUS
 62
    4
 10
348.76721644030044
 20
391.77522530663856
 11
352.791067102944
 21
392.7419986399612
  0
LINE
  8
_1-3_細線2
  6
CONTINUOUS
 62
    4
 10
344.94124311079418
 20
390.65025997331605
 11
348.76721644030044
 21
391.77522530663856
  0
LINE
  8
_1-3_細線2
  6
CONTINUOUS
 62
    4
 10
334.93290712080125
 20
386.41751864002526
 11
337.99766445107252
 21
387.96117730667629
  0
LINE
  8
_1-3_細線2
  6
CONTINUOUS
 62
    4
 10
327.63921646142921
 20
381.13344930674458
 11
329.73389912600169
 21
382.99061197339171
  0
LINE
  8
_1-3_細線2
  6
CONTINUOUS
 62
    4
 10
332.17131245689711
 20
384.75644664004142
 11
334.93290712080125
 21
386.41751864002526
  0
LINE
  8
_1-3_細線2
  6
CONTINUOUS
 62
    4
 10
329.73389912600169
 20
382.99061197339171
 11
332.17131245689711
 21
384.75644664004142
  0
LINE
  8
_1-3_細線2
  6
CONTINUOUS
 62
    4
 10
337.99766445107252
 20
387.96117730667629
 11
341.34226178105894
 21
389.37567863999504
  0
LINE
  8
_1-3_細線2
  6
CONTINUOUS
 62
    4
 10
341.34226178105894
 20
389.37567863999504
 11
344.94124311079418
 21
390.65025997331605
  0
LINE
  8
_1-3_細線2
  6
CONTINUOUS
 62
    4
 10
374.77184574762987
 20
394.96036130660679
 11
294.7718458276297
 21
394.96036130660679
  0
LINE
  8
_1-3_細線2
  6
CONTINUOUS
 62
    4
 10
352.791067102944
 20
392.7419986399612
 11
356.98217109875281
 21
393.54323597328732
  0
LINE
  8
_1-3_細線2
  6
CONTINUOUS
 62
    4
 10
386.77184573562977
 20
430.16036130625434
 11
386.77184573562977
 21
390.16036130665418
  0
ARC
  8
_1-3_細線2
  6
CONTINUOUS
 62
    4
 10
281.48338184091813
 20
461.76036130593786
 40
3.9999999960000006
 50
7.1641169999942695
 51
89.999999999999915
  0
ARC
  8
_1-3_細線2
  6
CONTINUOUS
 62
    4
 10
273.37184584903048
 20
449.76036130605792
 40
7.9999999920000011
 50
0
 51
89.999999999999915
  0
LINE
  8
_1-3_細線2
  6
CONTINUOUS
 62
    4
 10
246.77184587562954
 20
457.76036130597788
 11
246.77184587562954
 21
453.36036130602162
  0
LINE
  8
_1-3_細線2
  6
CONTINUOUS
 62
    4
 10
280.51607517521973
 20
453.36036130602162
 11
246.77184587562954
 21
453.36036130602162
  0
LINE
  8
_1-3_細線2
  6
CONTINUOUS
 62
    4
 10
273.37184584903048
 20
457.76036130597788
 11
245.77184587662964
 21
457.76036130597788
  0
LINE
  8
_1-3_細線2
  6
CONTINUOUS
 62
    4
 10
281.48338184091813
 20
465.76036130589785
 11
245.77184587662964
 21
465.76036130589785
  0
LINE
  8
_1-3_細線2
  6
CONTINUOUS
 62
    4
 10
290.29584049877053
 20
439.76036130615796
 11
288.28010716745507
 21
439.76036130615796
  0
LINE
  8
_1-3_細線2
  6
CONTINUOUS
 62
    4
 10
281.37184584103056
 20
437.76036130617797
 11
285.37184583703061
 21
437.76036130617797
  0
LINE
  8
_1-3_細線2
  6
CONTINUOUS
 62
    4
 10
281.37184584103056
 20
430.16036130625434
 11
285.37184583703061
 21
430.16036130625434
  0
LINE
  8
_1-3_細線2
  6
CONTINUOUS
 62
    4
 10
285.45215517028339
 20
462.25920930593213
 11
288.28010716745507
 21
439.76036130615796
  0
LINE
  8
_1-3_細線2
  6
CONTINUOUS
 62
    4
 10
245.77184587662964
 20
457.76036130597788
 11
245.77184587662964
 21
467.76036130587784
  0
LINE
  8
_1-3_細線2
  6
CONTINUOUS
 62
    4
 10
374.77184574762987
 20
430.16036130625434
 11
489.77184563262983
 21
430.16036130625434
  0
LINE
  8
_1-3_細線2
  6
CONTINUOUS
 62
    4
 10
374.77184574762987
 20
390.16036130665418
 11
478.77184564363006
 21
390.16036130665418
  0
LINE
  8
_1-3_細線2
  6
CONTINUOUS
 62
    4
 10
374.77184574762987
 20
467.76036130587784
 11
503.77184561862964
 21
467.76036130587784
  0
LINE
  8
_1-3_細線2
  6
CONTINUOUS
 62
    4
 10
374.77184574762987
 20
457.76036130597788
 11
503.77184561862964
 21
457.76036130597788
  0
LINE
  8
_1-3_細線2
  6
CONTINUOUS
 62
    4
 10
374.77184574762987
 20
453.36036130602162
 11
502.77184561962952
 21
453.36036130602162
  0
LINE
  8
_1-3_細線2
  6
CONTINUOUS
 62
    4
 10
468.14021898759461
 20
302.91648397419249
 11
464.13867232492998
 21
298.91494264089999
  0
LINE
  8
_1-3_細線2
  6
CONTINUOUS
 62
    4
 10
324.53907779786061
 20
377.20227064011698
 11
325.90320046316504
 21
379.19909730676375
  0
LINE
  8
_1-3_細線2
  6
CONTINUOUS
 62
    4
 10
323.55721646551103
 20
375.15816930680433
 11
324.53907779786061
 21
377.20227064011698
  0
LINE
  8
_1-3_細線2
  6
CONTINUOUS
 62
    4
 10
308.77184581362985
 20
375.88079330679648
 11
308.77184581362985
 21
370.96036130684661
  0
LINE
  8
_1-3_細線2
  6
CONTINUOUS
 62
    4
 10
322.76721646630051
 20
370.99061197351176
 11
322.96509379943711
 21
373.08235064015844
  0
LINE
  8
_1-3_細線2
  6
CONTINUOUS
 62
    4
 10
322.96509379943711
 20
373.08235064015844
 11
323.55721646551103
 21
375.15816930680433
  0
LINE
  8
_1-3_細線2
  6
CONTINUOUS
 62
    4
 10
374.77184574762987
 20
370.96036130684661
 11
294.7718458276297
 21
370.96036130684661
  0
LINE
  8
_1-3_細線2
  6
CONTINUOUS
 62
    4
 10
374.77184574762987
 20
358.96036130696666
 11
294.7718458276297
 21
358.96036130696666
  0
LINE
  8
_1-3_細線2
  6
CONTINUOUS
 62
    4
 10
294.7718458276297
 20
358.96036130696666
 11
294.7718458276297
 21
298.96036130756659
  0
LINE
  8
_1-3_細線2
  6
CONTINUOUS
 62
    4
 10
281.40347250766467
 20
302.91648397419249
 11
285.4050191703293
 21
298.91494264089999
  0
LINE
  8
_1-3_細線2
  6
CONTINUOUS
 62
    4
 10
374.77184574762987
 20
298.96036130756659
 11
285.37184583703061
 21
298.96036130756659
  0
LINE
  8
_1-3_細線2
  6
CONTINUOUS
 62
    4
 10
374.77184574762987
 20
302.96036130752657
 11
468.17184565422872
 21
302.96036130752657
  0
LINE
  8
_1-3_細線2
  6
CONTINUOUS
 62
    4
 10
374.77184574762987
 20
298.96036130756659
 11
464.17184565822868
 21
298.96036130756659
  0
LINE
  8
_1-3_細線2
  6
CONTINUOUS
 62
    4
 10
285.37184583703061
 20
437.76036130617797
 11
285.37184583703061
 21
298.96036130756659
  0
LINE
  8
_1-3_細線2
  6
CONTINUOUS
 62
    4
 10
464.17184565822868
 20
390.16036130665418
 11
464.17184565822868
 21
298.96036130756659
  0
LINE
  8
_1-3_細線2
  6
CONTINUOUS
 62
    4
 10
468.17184565422872
 20
390.16036130665418
 11
468.17184565422872
 21
302.94811064086025
  0
ARC
  8
_1-3_細線2
  6
CONTINUOUS
 62
    4
 10
288.77184583362964
 20
375.88079330679648
 40
19.999999979999998
 50
0
 51
72.54987900000468
  0
LINE
  8
_1-3_細線2
  6
CONTINUOUS
 62
    4
 10
325.90320046316504
 20
379.19909730676375
 11
327.63921646142921
 21
381.13344930674458
  0
LINE
  8
_1-2_極細2
  6
CONTINUOUS
 62
    2
 10
598.3054721907622
 20
493.63036663895338
 11
548.91866157348306
 21
444.24355597277918
  0
LINE
  8
_1-2_極細2
  6
CONTINUOUS
 62
    2
 10
594.53423486119902
 20
497.40160397224747
 11
545.14742424392011
 21
448.01479330607583
  0
LINE
  8
_1-2_極細2
  6
CONTINUOUS
 62
    2
 10
215.17361657389415
 20
498.27570530557352
 11
165.78680595661501
 21
448.88889463939933
  0
LINE
  8
_1-2_極細2
  6
CONTINUOUS
 62
    2
 10
218.9448539034571
 20
494.50446797227687
 11
169.5580432861758
 21
445.11766263943775
  0
LINE
  8
_1-2_極細2
  6
CONTINUOUS
 62
    2
 10
472.77184574762987
 20
449.36036130602162
 11
374.77184574762987
 21
449.36036130602162
  0
LINE
  8
_1-2_極細2
  6
CONTINUOUS
 62
    2
 10
472.77184574762987
 20
453.36036130602162
 11
374.77184574762987
 21
453.36036130602162
  0
LINE
  8
_1-2_極細2
  6
CONTINUOUS
 62
    2
 10
502.77184574762987
 20
453.36036130602162
 11
472.77184574762987
 21
453.36036130602162
  0
LINE
  8
_1-2_極細2
  6
CONTINUOUS
 62
    2
 10
502.77184574762987
 20
449.36036130602162
 11
472.77184574762987
 21
449.36036130602162
  0
LINE
  8
_1-2_極細2
  6
CONTINUOUS
 62
    2
 10
472.77184574762987
 20
449.36036130602162
 11
472.77184574762987
 21
453.36036130602162
  0
LINE
  8
_1-2_極細2
  6
CONTINUOUS
 62
    2
 10
510.77184574762987
 20
476.16036130602271
 11
374.77184574762987
 21
476.16036130602271
  0
ARC
  8
_1-2_極細2
  6
CONTINUOUS
 62
    2
 10
510.77184574762987
 20
470.16036130602271
 40
6
 50
89.999999999999915
 51
179.99999999999983
  0
LINE
  8
_1-2_極細2
  6
CONTINUOUS
 62
    2
 10
504.77184574762987
 20
455.36036130602162
 11
504.77184574762987
 21
470.16036130602271
  0
ARC
  8
_1-2_極細2
  6
CONTINUOUS
 62
    2
 10
502.77184574762987
 20
455.36036130602162
 40
6
 50
269.99999999999977
 51
359.99999999999966
  0
LINE
  8
_1-2_極細2
  6
CONTINUOUS
 62
    2
 10
508.77184574762987
 20
470.16036130602271
 11
508.77184574762987
 21
455.36036130602162
  0
ARC
  8
_1-2_極細2
  6
CONTINUOUS
 62
    2
 10
510.77184574762987
 20
470.16036130602271
 40
2
 50
89.999999999999915
 51
179.99999999999983
  0
ARC
  8
_1-2_極細2
  6
CONTINUOUS
 62
    2
 10
502.77184574762987
 20
455.36036130602162
 40
2
 50
269.99999999999977
 51
359.99999999999966
  0
LINE
  8
_1-2_極細2
  6
CONTINUOUS
 62
    2
 10
573.29299221600309
 20
476.16036130602271
 11
510.77184574762987
 21
476.16036130602271
  0
LINE
  8
_1-2_極細2
  6
CONTINUOUS
 62
    2
 10
569.29299221996303
 20
472.16036130602271
 11
510.77184574762987
 21
472.16036130602271
  0
LINE
  8
_1-2_極細2
  6
CONTINUOUS
 62
    2
 10
246.77184574762987
 20
453.36036130602162
 11
276.77184574762987
 21
453.36036130602162
  0
LINE
  8
_1-2_極細2
  6
CONTINUOUS
 62
    2
 10
246.77184574762987
 20
449.36036130602162
 11
276.77184574762987
 21
449.36036130602162
  0
LINE
  8
_1-2_極細2
  6
CONTINUOUS
 62
    2
 10
276.77184574762987
 20
449.36036130602162
 11
276.77184574762987
 21
453.36036130602162
  0
ARC
  8
_1-2_極細2
  6
CONTINUOUS
 62
    2
 10
238.77184574762987
 20
470.16036130602271
 40
6
 50
0
 51
89.999999999999915
  0
LINE
  8
_1-2_極細2
  6
CONTINUOUS
 62
    2
 10
244.77184574762987
 20
455.36036130602162
 11
244.77184574762987
 21
470.16036130602271
  0
ARC
  8
_1-2_極細2
  6
CONTINUOUS
 62
    2
 10
246.77184574762987
 20
455.36036130602162
 40
6
 50
179.99999999999983
 51
269.99999999999977
  0
LINE
  8
_1-2_極細2
  6
CONTINUOUS
 62
    2
 10
240.77184574762987
 20
470.16036130602271
 11
240.77184574762987
 21
455.36036130602162
  0
ARC
  8
_1-2_極細2
  6
CONTINUOUS
 62
    2
 10
238.77184574762987
 20
470.16036130602271
 40
2
 50
0
 51
89.999999999999915
  0
ARC
  8
_1-2_極細2
  6
CONTINUOUS
 62
    2
 10
246.77184574762987
 20
455.36036130602162
 40
2
 50
179.99999999999983
 51
269.99999999999977
  0
LINE
  8
_1-2_極細2
  6
CONTINUOUS
 62
    2
 10
200.60074527436359
 20
476.16036130602271
 11
238.77184574762987
 21
476.16036130602271
  0
LINE
  8
_1-2_極細2
  6
CONTINUOUS
 62
    2
 10
196.60074484635925
 20
472.16036130602271
 11
238.77184574762987
 21
472.16036130602271
  0
LINE
  8
_1-2_極細2
  6
CONTINUOUS
 62
    2
 10
567.6703427760126
 20
472.16036130602299
 11
571.67034277601215
 21
476.16036130602271
  0
LINE
  8
_1-2_極細2
  6
CONTINUOUS
 62
    2
 10
564.2762302263169
 20
472.16036130602288
 11
568.27623022631678
 21
476.16036130602271
  0
LINE
  8
_1-2_極細2
  6
CONTINUOUS
 62
    2
 10
560.88211767662165
 20
472.16036130602299
 11
564.88211767662142
 21
476.16036130602271
  0
LINE
  8
_1-2_極細2
  6
CONTINUOUS
 62
    2
 10
557.48800512692605
 20
472.16036130602288
 11
561.48800512692605
 21
476.16036130602271
  0
LINE
  8
_1-2_極細2
  6
CONTINUOUS
 62
    2
 10
554.09389257723092
 20
472.16036130602299
 11
558.09389257723069
 21
476.16036130602288
  0
LINE
  8
_1-2_極細2
  6
CONTINUOUS
 62
    2
 10
550.69978002753533
 20
472.16036130602288
 11
554.69978002753533
 21
476.16036130602271
  0
LINE
  8
_1-2_極細2
  6
CONTINUOUS
 62
    2
 10
547.30566747783996
 20
472.16036130602299
 11
551.30566747783996
 21
476.16036130602288
  0
LINE
  8
_1-2_極細2
  6
CONTINUOUS
 62
    2
 10
543.9115549281446
 20
472.16036130602288
 11
547.9115549281446
 21
476.16036130602271
  0
LINE
  8
_1-2_極細2
  6
CONTINUOUS
 62
    2
 10
540.51744237844923
 20
472.16036130602299
 11
544.51744237844923
 21
476.16036130602288
  0
LINE
  8
_1-2_極細2
  6
CONTINUOUS
 62
    2
 10
537.12332982875387
 20
472.16036130602288
 11
541.12332982875364
 21
476.16036130602271
  0
LINE
  8
_1-2_極細2
  6
CONTINUOUS
 62
    2
 10
533.7292172790585
 20
472.16036130602299
 11
537.72921727905816
 21
476.16036130602288
  0
LINE
  8
_1-2_極細2
  6
CONTINUOUS
 62
    2
 10
530.33510472936291
 20
472.16036130602299
 11
534.33510472936291
 21
476.16036130602288
  0
LINE
  8
_1-2_極細2
  6
CONTINUOUS
 62
    2
 10
504.3531072378687
 20
449.57247636422392
 11
508.55973068942751
 21
453.77909981578307
  0
LINE
  8
_1-2_極細2
  6
CONTINUOUS
 62
    2
 10
526.94099217966777
 20
472.16036130602299
 11
530.94099217966743
 21
476.16036130602288
  0
LINE
  8
_1-2_極細2
  6
CONTINUOUS
 62
    2
 10
500.74687962997109
 20
449.36036130602179
 11
508.77184574762998
 21
457.38532742368062
  0
LINE
  8
_1-2_極細2
  6
CONTINUOUS
 62
    2
 10
523.54687962997218
 20
472.16036130602288
 11
527.54687962997218
 21
476.16036130602271
  0
LINE
  8
_1-2_極細2
  6
CONTINUOUS
 62
    2
 10
497.3527670802755
 20
449.36036130602162
 11
501.3527670802755
 21
453.36036130602162
  0
LINE
  8
_1-2_極細2
  6
CONTINUOUS
 62
    2
 10
504.77184574762987
 20
456.77943997337616
 11
508.77184574762987
 21
460.77943997337616
  0
LINE
  8
_1-2_極細2
  6
CONTINUOUS
 62
    2
 10
520.15276708027704
 20
472.16036130602299
 11
524.15276708027659
 21
476.16036130602288
  0
LINE
  8
_1-2_極細2
  6
CONTINUOUS
 62
    2
 10
493.95865453058013
 20
449.36036130602179
 11
497.95865453058013
 21
453.36036130602179
  0
LINE
  8
_1-2_極細2
  6
CONTINUOUS
 62
    2
 10
504.77184574762998
 20
460.17355252307163
 11
508.77184574762987
 21
464.17355252307152
  0
LINE
  8
_1-2_極細2
  6
CONTINUOUS
 62
    2
 10
516.75865453058145
 20
472.16036130602288
 11
520.75865453058123
 21
476.16036130602271
  0
LINE
  8
_1-2_極細2
  6
CONTINUOUS
 62
    2
 10
490.56454198088477
 20
449.36036130602162
 11
494.56454198088477
 21
453.36036130602162
  0
LINE
  8
_1-2_極細2
  6
CONTINUOUS
 62
    2
 10
504.77184574762987
 20
463.56766507276689
 11
508.77184574762998
 21
467.56766507276689
  0
LINE
  8
_1-2_極細2
  6
CONTINUOUS
 62
    2
 10
513.36454198088597
 20
472.16036130602299
 11
517.36454198088586
 21
476.16036130602288
  0
LINE
  8
_1-2_極細2
  6
CONTINUOUS
 62
    2
 10
487.1704294311894
 20
449.36036130602179
 11
491.1704294311894
 21
453.3603613060219
  0
LINE
  8
_1-2_極細2
  6
CONTINUOUS
 62
    2
 10
504.77184574762998
 20
466.96177762246236
 11
509.17615898674649
 21
471.36609086157853
  0
LINE
  8
_1-2_極細2
  6
CONTINUOUS
 62
    2
 10
509.56611619207399
 20
471.75604806690637
 11
513.9704294311905
 21
476.16036130602288
  0
LINE
  8
_1-2_極細2
  6
CONTINUOUS
 62
    2
 10
483.77631688149404
 20
449.36036130602162
 11
487.77631688149404
 21
453.36036130602179
  0
LINE
  8
_1-2_極細2
  6
CONTINUOUS
 62
    2
 10
504.77514090171792
 20
470.35918532624567
 11
510.57302172740697
 21
476.1570661519346
  0
LINE
  8
_1-2_極細2
  6
CONTINUOUS
 62
    2
 10
480.38220433179868
 20
449.36036130602179
 11
484.38220433179868
 21
453.36036130602179
  0
LINE
  8
_1-2_極細2
  6
CONTINUOUS
 62
    2
 10
476.98809178210308
 20
449.36036130602162
 11
480.98809178210331
 21
453.36036130602162
  0
LINE
  8
_1-2_極細2
  6
CONTINUOUS
 62
    2
 10
473.59397923240795
 20
449.36036130602179
 11
477.59397923240795
 21
453.36036130602179
  0
LINE
  8
_1-2_極細2
  6
CONTINUOUS
 62
    2
 10
472.77184574762987
 20
451.93234037093919
 11
474.19986668271235
 21
453.36036130602162
  0
LINE
  8
_1-2_極細2
  6
CONTINUOUS
 62
    2
 10
470.19986668271167
 20
449.36036130602162
 11
472.77184574762987
 21
451.93234037093981
  0
LINE
  8
_1-2_極細2
  6
CONTINUOUS
 62
    2
 10
466.80575413301631
 20
449.36036130602179
 11
470.80575413301631
 21
453.36036130602179
  0
LINE
  8
_1-2_極細2
  6
CONTINUOUS
 62
    2
 10
463.41164158332094
 20
449.36036130602162
 11
467.41164158332094
 21
453.36036130602162
  0
LINE
  8
_1-2_極細2
  6
CONTINUOUS
 62
    2
 10
460.01752903362558
 20
449.36036130602179
 11
464.01752903362558
 21
453.3603613060219
  0
LINE
  8
_1-2_極細2
  6
CONTINUOUS
 62
    2
 10
456.62341648393021
 20
449.36036130602179
 11
460.62341648393021
 21
453.36036130602179
  0
LINE
  8
_1-2_極細2
  6
CONTINUOUS
 62
    2
 10
453.22930393423485
 20
449.36036130602179
 11
457.22930393423485
 21
453.36036130602179
  0
LINE
  8
_1-2_極細2
  6
CONTINUOUS
 62
    2
 10
449.83519138453926
 20
449.36036130602162
 11
453.83519138453948
 21
453.36036130602179
  0
LINE
  8
_1-2_極細2
  6
CONTINUOUS
 62
    2
 10
446.44107883484412
 20
449.36036130602179
 11
450.44107883484412
 21
453.36036130602179
  0
LINE
  8
_1-2_極細2
  6
CONTINUOUS
 62
    2
 10
443.04696628514853
 20
449.36036130602162
 11
447.04696628514853
 21
453.36036130602162
  0
LINE
  8
_1-2_極細2
  6
CONTINUOUS
 62
    2
 10
439.65285373545305
 20
449.3603613060219
 11
443.65285373545339
 21
453.3603613060219
  0
LINE
  8
_1-2_極細2
  6
CONTINUOUS
 62
    2
 10
436.2587411857578
 20
449.36036130602179
 11
440.2587411857578
 21
453.36036130602179
  0
LINE
  8
_1-2_極細2
  6
CONTINUOUS
 62
    2
 10
432.86462863606232
 20
449.36036130602179
 11
436.86462863606232
 21
453.3603613060219
  0
LINE
  8
_1-2_極細2
  6
CONTINUOUS
 62
    2
 10
429.47051608636684
 20
449.36036130602179
 11
433.47051608636707
 21
453.36036130602179
  0
LINE
  8
_1-2_極細2
  6
CONTINUOUS
 62
    2
 10
426.07640353667159
 20
449.36036130602179
 11
430.07640353667159
 21
453.36036130602179
  0
LINE
  8
_1-2_極細2
  6
CONTINUOUS
 62
    2
 10
422.68229098697611
 20
449.36036130602162
 11
426.68229098697611
 21
453.36036130602179
  0
LINE
  8
_1-2_極細2
  6
CONTINUOUS
 62
    2
 10
419.28817843728075
 20
449.36036130602162
 11
423.28817843728086
 21
453.36036130602179
  0
LINE
  8
_1-2_極細2
  6
CONTINUOUS
 62
    2
 10
415.89406588758538
 20
449.36036130602179
 11
419.89406588758538
 21
453.36036130602179
  0
LINE
  8
_1-2_極細2
  6
CONTINUOUS
 62
    2
 10
412.49995333789002
 20
449.36036130602162
 11
416.49995333789002
 21
453.36036130602179
  0
LINE
  8
_1-2_極細2
  6
CONTINUOUS
 62
    2
 10
409.10584078819466
 20
449.36036130602179
 11
413.10584078819466
 21
453.36036130602179
  0
LINE
  8
_1-2_極細2
  6
CONTINUOUS
 62
    2
 10
405.71172823849929
 20
449.36036130602162
 11
409.71172823849929
 21
453.36036130602162
  0
LINE
  8
_1-2_極細2
  6
CONTINUOUS
 62
    2
 10
402.31761568880393
 20
449.36036130602179
 11
406.31761568880393
 21
453.36036130602179
  0
LINE
  8
_1-2_極細2
  6
CONTINUOUS
 62
    2
 10
398.92350313910833
 20
449.36036130602162
 11
402.92350313910833
 21
453.36036130602162
  0
LINE
  8
_1-2_極細2
  6
CONTINUOUS
 62
    2
 10
395.52939058941286
 20
449.36036130602162
 11
399.52939058941286
 21
453.36036130602179
  0
LINE
  8
_1-2_極細2
  6
CONTINUOUS
 62
    2
 10
392.1352780397176
 20
449.36036130602162
 11
396.1352780397176
 21
453.36036130602179
  0
LINE
  8
_1-2_極細2
  6
CONTINUOUS
 62
    2
 10
388.74116549002213
 20
449.36036130602179
 11
392.74116549002213
 21
453.36036130602179
  0
LINE
  8
_1-2_極細2
  6
CONTINUOUS
 62
    2
 10
385.34705294032665
 20
449.36036130602162
 11
389.34705294032665
 21
453.36036130602162
  0
LINE
  8
_1-2_極細2
  6
CONTINUOUS
 62
    2
 10
381.95294039063128
 20
449.36036130602179
 11
385.9529403906314
 21
453.36036130602179
  0
LINE
  8
_1-2_極細2
  6
CONTINUOUS
 62
    2
 10
378.55882784093592
 20
449.36036130602162
 11
382.55882784093592
 21
453.36036130602162
  0
LINE
  8
_1-2_極細2
  6
CONTINUOUS
 62
    2
 10
375.16471529124055
 20
449.36036130602162
 11
379.16471529124055
 21
453.36036130602179
  0
LINE
  8
_1-2_極細2
  6
CONTINUOUS
 62
    2
 10
374.77184574762998
 20
452.36160431210646
 11
375.77060274154519
 21
453.36036130602179
  0
LINE
  8
_1-2_極細2
  6
CONTINUOUS
 62
    2
 10
276.73545135007225
 20
449.36036130602179
 11
276.77184574762998
 21
449.39675570357952
  0
LINE
  8
_1-2_極細2
  6
CONTINUOUS
 62
    2
 10
273.34133880037666
 20
449.36036130602179
 11
276.77184574762998
 21
452.79086825327488
  0
LINE
  8
_1-2_極細2
  6
CONTINUOUS
 62
    2
 10
269.94722625068118
 20
449.36036130602162
 11
273.94722625068118
 21
453.36036130602179
  0
LINE
  8
_1-2_極細2
  6
CONTINUOUS
 62
    2
 10
266.55311370098593
 20
449.36036130602162
 11
270.55311370098593
 21
453.36036130602179
  0
LINE
  8
_1-2_極細2
  6
CONTINUOUS
 62
    2
 10
263.15900115129045
 20
449.36036130602162
 11
267.15900115129045
 21
453.36036130602162
  0
LINE
  8
_1-2_極細2
  6
CONTINUOUS
 62
    2
 10
259.7648886015952
 20
449.36036130602179
 11
263.7648886015952
 21
453.36036130602179
  0
LINE
  8
_1-2_極細2
  6
CONTINUOUS
 62
    2
 10
256.37077605189972
 20
449.36036130602179
 11
260.37077605189972
 21
453.36036130602179
  0
LINE
  8
_1-2_極細2
  6
CONTINUOUS
 62
    2
 10
252.97666350220436
 20
449.36036130602179
 11
256.97666350220447
 21
453.36036130602179
  0
LINE
  8
_1-2_極細2
  6
CONTINUOUS
 62
    2
 10
249.582550952509
 20
449.36036130602179
 11
253.582550952509
 21
453.36036130602179
  0
LINE
  8
_1-2_極細2
  6
CONTINUOUS
 62
    2
 10
246.21439085965858
 20
449.38631376286685
 11
250.18843840281363
 21
453.36036130602179
  0
LINE
  8
_1-2_極細2
  6
CONTINUOUS
 62
    2
 10
243.66272252079239
 20
450.22875797369579
 11
246.79432585311815
 21
453.36036130602179
  0
LINE
  8
_1-2_極細2
  6
CONTINUOUS
 62
    2
 10
241.89918631022692
 20
451.85933431282592
 11
244.849236855149
 21
454.80938485774789
  0
LINE
  8
_1-2_極細2
  6
CONTINUOUS
 62
    2
 10
240.87871419139651
 20
454.23297474369076
 11
244.77184574762987
 21
458.12610629992434
  0
LINE
  8
_1-2_極細2
  6
CONTINUOUS
 62
    2
 10
240.77184574762987
 20
457.5202188496196
 11
244.77184574762987
 21
461.5202188496196
  0
LINE
  8
_1-2_極細2
  6
CONTINUOUS
 62
    2
 10
240.77184574762987
 20
460.91433139931507
 11
244.77184574762998
 21
464.91433139931507
  0
LINE
  8
_1-2_極細2
  6
CONTINUOUS
 62
    2
 10
240.77184574762987
 20
464.30844394901044
 11
244.77184574762998
 21
468.30844394901044
  0
LINE
  8
_1-2_極細2
  6
CONTINUOUS
 62
    2
 10
240.77184574762998
 20
467.7025564987058
 11
244.61073348020113
 21
471.54144423127718
  0
LINE
  8
_1-2_極細2
  6
CONTINUOUS
 62
    2
 10
240.61408864660973
 20
470.93891194738092
 11
243.51286515575214
 21
473.83768845652349
  0
LINE
  8
_1-2_極細2
  6
CONTINUOUS
 62
    2
 10
238.44142545555633
 20
472.16036130602299
 11
241.68613131988627
 21
475.40506717035316
  0
LINE
  8
_1-2_極細2
  6
CONTINUOUS
 62
    2
 10
235.04731290586062
 20
472.16036130602299
 11
239.04126113303994
 21
476.15430953320219
  0
LINE
  8
_1-2_極細2
  6
CONTINUOUS
 62
    2
 10
231.65320035616537
 20
472.16036130602299
 11
235.65320035616537
 21
476.16036130602288
  0
LINE
  8
_1-2_極細2
  6
CONTINUOUS
 62
    2
 10
228.25908780646989
 20
472.16036130602299
 11
232.25908780646989
 21
476.16036130602288
  0
LINE
  8
_1-2_極細2
  6
CONTINUOUS
 62
    2
 10
224.86497525677464
 20
472.16036130602299
 11
228.86497525677464
 21
476.16036130602288
  0
LINE
  8
_1-2_極細2
  6
CONTINUOUS
 62
    2
 10
221.47086270707916
 20
472.16036130602288
 11
225.47086270707916
 21
476.16036130602288
  0
LINE
  8
_1-2_極細2
  6
CONTINUOUS
 62
    2
 10
218.07675015738391
 20
472.16036130602299
 11
222.0767501573838
 21
476.16036130602299
  0
LINE
  8
_1-2_極細2
  6
CONTINUOUS
 62
    2
 10
214.68263760768843
 20
472.16036130602288
 11
218.68263760768832
 21
476.16036130602288
  0
LINE
  8
_1-2_極細2
  6
CONTINUOUS
 62
    2
 10
211.28852505799307
 20
472.16036130602288
 11
215.28852505799296
 21
476.16036130602288
  0
LINE
  8
_1-2_極細2
  6
CONTINUOUS
 62
    2
 10
207.89441250829759
 20
472.16036130602288
 11
211.89441250829759
 21
476.16036130602288
  0
LINE
  8
_1-2_極細2
  6
CONTINUOUS
 62
    2
 10
204.50029995860223
 20
472.16036130602288
 11
208.50029995860223
 21
476.16036130602288
  0
LINE
  8
_1-2_極細2
  6
CONTINUOUS
 62
    2
 10
201.10618740890664
 20
472.16036130602288
 11
205.10618740890664
 21
476.16036130602271
  0
LINE
  8
_1-2_極細2
  6
CONTINUOUS
 62
    2
 10
197.71207485921127
 20
472.16036130602299
 11
201.71207485921127
 21
476.16036130602288
  0
LINE
  8
_1-2_極細2
  6
CONTINUOUS
 62
    2
 10
270.77184585162945
 20
393.19568601436578
 11
273.80717055934088
 21
390.16036130665418
  0
LINE
  8
_1-2_極細2
  6
CONTINUOUS
 62
    2
 10
270.77184585162945
 20
396.58979856406097
 11
277.20128310903624
 21
390.16036130665418
  0
LINE
  8
_1-2_極細2
  6
CONTINUOUS
 62
    2
 10
270.77184585162945
 20
399.98391111375651
 11
280.59539565873183
 21
390.16036130665418
  0
LINE
  8
_1-2_極細2
  6
CONTINUOUS
 62
    2
 10
270.77184585162945
 20
403.37802366345204
 11
281.37184584103056
 21
392.77802367405093
  0
LINE
  8
_1-2_極細2
  6
CONTINUOUS
 62
    2
 10
270.77184585162945
 20
406.77213621314741
 11
281.37184584103056
 21
396.17213622374612
  0
LINE
  8
_1-2_極細2
  6
CONTINUOUS
 62
    2
 10
270.77184585162945
 20
410.16624876284277
 11
281.37184584103056
 21
399.56624877344166
  0
LINE
  8
_1-2_極細2
  6
CONTINUOUS
 62
    2
 10
270.77184585162945
 20
413.56036131253825
 11
281.37184584103056
 21
402.96036132313714
  0
LINE
  8
_1-2_極細2
  6
CONTINUOUS
 62
    2
 10
248.02689930658539
 20
439.69942040727801
 11
257.31090496377351
 21
430.41541475008989
  0
LINE
  8
_1-2_極細2
  6
CONTINUOUS
 62
    2
 10
270.77184585162945
 20
416.95447386223378
 11
281.37184584103056
 21
406.35447387283267
  0
LINE
  8
_1-2_極細2
  6
CONTINUOUS
 62
    2
 10
247.77184587462966
 20
443.34858638892939
 11
260.9600709467079
 21
430.16036131685087
  0
LINE
  8
_1-2_極細2
  6
CONTINUOUS
 62
    2
 10
270.77184585162945
 20
420.34858641192915
 11
281.37184584103056
 21
409.74858642252804
  0
LINE
  8
_1-2_極細2
  6
CONTINUOUS
 62
    2
 10
247.77184587462966
 20
446.74269893862493
 11
264.35418350006898
 21
430.16036131318526
  0
LINE
  8
_1-2_極細2
  6
CONTINUOUS
 62
    2
 10
270.77184585162945
 20
423.74269896162468
 11
281.37184584103056
 21
413.14269897222357
  0
LINE
  8
_1-2_極細2
  6
CONTINUOUS
 62
    2
 10
248.54829605692817
 20
449.36036130602162
 11
267.74829605342995
 21
430.16036130951971
  0
LINE
  8
_1-2_極細2
  6
CONTINUOUS
 62
    2
 10
270.77184585162945
 20
427.13681151132005
 11
281.37184584103056
 21
416.53681152191893
  0
LINE
  8
_1-2_極細2
  6
CONTINUOUS
 62
    2
 10
251.94240860662353
 20
449.36036130602162
 11
281.37184584103056
 21
419.93092407161441
  0
LINE
  8
_1-2_極細2
  6
CONTINUOUS
 62
    2
 10
255.3365211563189
 20
449.36036130602162
 11
281.37184584103056
 21
423.32503662130978
  0
LINE
  8
_1-2_極細2
  6
CONTINUOUS
 62
    2
 10
258.73063370601426
 20
449.36036130602162
 11
281.37184584103056
 21
426.71914917100514
  0
LINE
  8
_1-2_極細2
  6
CONTINUOUS
 62
    2
 10
262.12474625570985
 20
449.36036130602162
 11
281.37184584103056
 21
430.11326172070068
  0
LINE
  8
_1-2_極細2
  6
CONTINUOUS
 62
    2
 10
265.51885880540522
 20
449.36036130602162
 11
277.597464338809
 21
437.28175577261783
  0
LINE
  8
_1-2_極細2
  6
CONTINUOUS
 62
    2
 10
268.91297135510058
 20
449.36036130602162
 11
273.77137289095708
 21
444.50195977016512
  0
LINE
  8
_1-2_極細2
  6
CONTINUOUS
 62
    2
 10
279.0953090041869
 20
390.16036130665418
 11
281.37184584103056
 21
392.43689814349784
  0
LINE
  8
_1-2_極細2
  6
CONTINUOUS
 62
    2
 10
275.70119645449142
 20
390.16036130665418
 11
281.37184584103056
 21
395.83101069319338
  0
LINE
  8
_1-2_極細2
  6
CONTINUOUS
 62
    2
 10
272.30708390479606
 20
390.16036130665418
 11
281.37184584103056
 21
399.22512324288857
  0
LINE
  8
_1-2_極細2
  6
CONTINUOUS
 62
    2
 10
270.77184585162945
 20
392.01923580318299
 11
281.37184584103056
 21
402.61923579258411
  0
LINE
  8
_1-2_極細2
  6
CONTINUOUS
 62
    2
 10
270.77184585162945
 20
395.41334835287853
 11
281.37184584103056
 21
406.01334834227947
  0
LINE
  8
_1-2_極細2
  6
CONTINUOUS
 62
    2
 10
270.77184585162945
 20
398.80746090257401
 11
281.37184584103056
 21
409.40746089197484
  0
LINE
  8
_1-2_極細2
  6
CONTINUOUS
 62
    2
 10
270.77184585162945
 20
402.20157345226937
 11
281.37184584103056
 21
412.80157344167037
  0
LINE
  8
_1-2_極細2
  6
CONTINUOUS
 62
    2
 10
270.77184585162945
 20
405.59568600196474
 11
281.37184584103056
 21
416.19568599136574
  0
LINE
  8
_1-2_極細2
  6
CONTINUOUS
 62
    2
 10
270.77184585162945
 20
408.98979855166027
 11
281.37184584103056
 21
419.5897985410611
  0
LINE
  8
_1-2_極細2
  6
CONTINUOUS
 62
    2
 10
270.77184585162945
 20
412.38391110135564
 11
281.37184584103056
 21
422.98391109075658
  0
LINE
  8
_1-2_極細2
  6
CONTINUOUS
 62
    2
 10
270.77184585162945
 20
415.778023651051
 11
281.37184584103056
 21
426.37802364045194
  0
LINE
  8
_1-2_極細2
  6
CONTINUOUS
 62
    2
 10
270.77184585162945
 20
419.17213620074654
 11
281.37184584103056
 21
429.77213619014731
  0
LINE
  8
_1-2_極細2
  6
CONTINUOUS
 62
    2
 10
270.77184585162945
 20
422.5662487504419
 11
280.33027509853093
 21
432.12467799734316
  0
LINE
  8
_1-2_極細2
  6
CONTINUOUS
 62
    2
 10
270.77184585162945
 20
425.96036130013727
 11
279.15466060735366
 21
434.34317605586148
  0
LINE
  8
_1-2_極細2
  6
CONTINUOUS
 62
    2
 10
270.77184585162945
 20
429.35447384983274
 11
277.97904611617651
 21
436.56167411437957
  0
LINE
  8
_1-2_極細2
  6
CONTINUOUS
 62
    2
 10
268.18362076115091
 20
430.16036130904951
 11
276.80343162499923
 21
438.78017217289772
  0
LINE
  8
_1-2_極細2
  6
CONTINUOUS
 62
    2
 10
264.78950821512103
 20
430.16036131271505
 11
275.62781713382196
 21
440.99867023141599
  0
LINE
  8
_1-2_極細2
  6
CONTINUOUS
 62
    2
 10
261.39539566909139
 20
430.16036131638077
 11
274.45220264264481
 21
443.21716828993414
  0
LINE
  8
_1-2_極細2
  6
CONTINUOUS
 62
    2
 10
258.11606574053269
 20
430.27514393751756
 11
273.27658815146754
 21
445.43566634845229
  0
LINE
  8
_1-2_極細2
  6
CONTINUOUS
 62
    2
 10
255.42293986149093
 20
430.97613060817122
 11
272.10097366029026
 21
447.65416440697055
  0
LINE
  8
_1-2_極細2
  6
CONTINUOUS
 62
    2
 10
253.18344991455433
 20
432.13075321093004
 11
270.41305800964585
 21
449.36036130602162
  0
LINE
  8
_1-2_極細2
  6
CONTINUOUS
 62
    2
 10
251.31014697536307
 20
433.65156282143437
 11
267.0189454599506
 21
449.36036130602162
  0
LINE
  8
_1-2_極細2
  6
CONTINUOUS
 62
    2
 10
249.7797231596046
 20
435.51525155537104
 11
263.62483291025512
 21
449.36036130602162
  0
LINE
  8
_1-2_極細2
  6
CONTINUOUS
 62
    2
 10
248.61415870030919
 20
437.74379964577122
 11
260.23072036055976
 21
449.36036130602162
  0
LINE
  8
_1-2_極細2
  6
CONTINUOUS
 62
    2
 10
247.89840306116207
 20
440.42215655631964
 11
256.83660781086428
 21
449.36036130602162
  0
LINE
  8
_1-2_極細2
  6
CONTINUOUS
 62
    2
 10
247.77184587462966
 20
443.68971191948242
 11
253.44249526116892
 21
449.36036130602162
  0
LINE
  8
_1-2_極細2
  6
CONTINUOUS
 62
    2
 10
247.77184587462966
 20
447.08382446917778
 11
250.04838271147332
 21
449.36036130602162
  0
LINE
  8
_1-2_極細2
  6
CONTINUOUS
 62
    2
 10
279.54589367629956
 20
453.36036130602179
 11
280.16736950232973
 21
453.98183713205191
  0
LINE
  8
_1-2_極細2
  6
CONTINUOUS
 62
    2
 10
278.4145228264008
 20
453.36036130602179
 11
279.70385904945181
 21
454.64969752907291
  0
LINE
  8
_1-2_極細2
  6
CONTINUOUS
 62
    2
 10
277.2831519765025
 20
453.36036130602179
 11
279.18221128917844
 21
455.25942061869773
  0
LINE
  8
_1-2_極細2
  6
CONTINUOUS
 62
    2
 10
276.15178112660419
 20
453.36036130602179
 11
278.60378773438902
 21
455.81236791380644
  0
LINE
  8
_1-2_極細2
  6
CONTINUOUS
 62
    2
 10
275.02041027670589
 20
453.36036130602179
 11
277.96819901880576
 21
456.30815004812166
  0
LINE
  8
_1-2_極細2
  6
CONTINUOUS
 62
    2
 10
273.88903942680702
 20
453.36036130602179
 11
277.27324302715101
 21
456.74456490636567
  0
LINE
  8
_1-2_極細2
  6
CONTINUOUS
 62
    2
 10
272.75766857690871
 20
453.36036130602179
 11
276.51453600983791
 21
457.11722873895087
  0
LINE
  8
_1-2_極細2
  6
CONTINUOUS
 62
    2
 10
271.62629772701041
 20
453.36036130602179
 11
275.68467894814353
 21
457.41874252715479
  0
LINE
  8
_1-2_極細2
  6
CONTINUOUS
 62
    2
 10
270.49492687711211
 20
453.36036130602179
 11
274.77153039857569
 21
457.63696482748549
  0
LINE
  8
_1-2_極細2
  6
CONTINUOUS
 62
    2
 10
269.36355602721346
 20
453.36036130602179
 11
273.75440386920059
 21
457.75120914800829
  0
LINE
  8
_1-2_極細2
  6
CONTINUOUS
 62
    2
 10
268.23218517731516
 20
453.36036130602179
 11
272.63218516956363
 21
457.76036129827025
  0
LINE
  8
_1-2_極細2
  6
CONTINUOUS
 62
    2
 10
267.10081432741686
 20
453.36036130602179
 11
271.5008143199899
 21
457.76036129859494
  0
LINE
  8
_1-2_極細2
  6
CONTINUOUS
 62
    2
 10
265.96944347751855
 20
453.36036130602179
 11
270.36944347041629
 21
457.76036129891946
  0
LINE
  8
_1-2_極細2
  6
CONTINUOUS
 62
    2
 10
264.83807262761979
 20
453.36036130602179
 11
269.23807262084233
 21
457.76036129924432
  0
LINE
  8
_1-2_極細2
  6
CONTINUOUS
 62
    2
 10
263.70670177772149
 20
453.36036130602179
 11
268.10670177126872
 21
457.76036129956884
  0
LINE
  8
_1-2_極細2
  6
CONTINUOUS
 62
    2
 10
262.57533092782319
 20
453.36036130602179
 11
266.9753309216951
 21
457.76036129989336
  0
LINE
  8
_1-2_極細2
  6
CONTINUOUS
 62
    2
 10
261.44396007792488
 20
453.36036130602179
 11
265.84396007212092
 21
457.76036130021805
  0
LINE
  8
_1-2_極細2
  6
CONTINUOUS
 62
    2
 10
260.31258922802613
 20
453.36036130602179
 11
264.71258922254742
 21
457.76036130054274
  0
LINE
  8
_1-2_極細2
  6
CONTINUOUS
 62
    2
 10
259.18121837812782
 20
453.36036130602179
 11
263.58121837297381
 21
457.76036130086743
  0
LINE
  8
_1-2_極細2
  6
CONTINUOUS
 62
    2
 10
258.04984752822952
 20
453.36036130602179
 11
262.44984752339974
 21
457.76036130119212
  0
LINE
  8
_1-2_極細2
  6
CONTINUOUS
 62
    2
 10
256.91847667833122
 20
453.36036130602179
 11
261.31847667382613
 21
457.76036130151681
  0
LINE
  8
_1-2_極細2
  6
CONTINUOUS
 62
    2
 10
255.78710582843235
 20
453.36036130602179
 11
260.18710582425251
 21
457.7603613018415
  0
LINE
  8
_1-2_極細2
  6
CONTINUOUS
 62
    2
 10
254.65573497853404
 20
453.36036130602179
 11
259.05573497467833
 21
457.76036130216607
  0
LINE
  8
_1-2_極細2
  6
CONTINUOUS
 62
    2
 10
253.52436412863574
 20
453.36036130602179
 11
257.92436412510472
 21
457.76036130249076
  0
LINE
  8
_1-2_極細2
  6
CONTINUOUS
 62
    2
 10
252.39299327873744
 20
453.36036130602179
 11
256.7929932755311
 21
457.76036130281545
  0
LINE
  8
_1-2_極細2
  6
CONTINUOUS
 62
    2
 10
251.26162242883879
 20
453.36036130602179
 11
255.66162242595715
 21
457.76036130313997
  0
LINE
  8
_1-2_極細2
  6
CONTINUOUS
 62
    2
 10
250.13025157894049
 20
453.36036130602179
 11
254.53025157638353
 21
457.76036130346466
  0
LINE
  8
_1-2_極細2
  6
CONTINUOUS
 62
    2
 10
248.99888072904218
 20
453.36036130602179
 11
253.39888072680992
 21
457.76036130378935
  0
LINE
  8
_1-2_極細2
  6
CONTINUOUS
 62
    2
 10
247.86750987914388
 20
453.36036130602179
 11
252.26750987723585
 21
457.76036130411404
  0
LINE
  8
_1-2_極細2
  6
CONTINUOUS
 62
    2
 10
246.77184587562954
 20
453.39606815240614
 11
251.13613902766224
 21
457.76036130443856
  0
LINE
  8
_1-2_極細2
  6
CONTINUOUS
 62
    2
 10
246.77184587562954
 20
454.52743900230445
 11
250.00476817808851
 21
457.76036130476342
  0
LINE
  8
_1-2_極細2
  6
CONTINUOUS
 62
    2
 10
246.77184587562954
 20
455.65880985220292
 11
248.87339732851456
 21
457.76036130508794
  0
LINE
  8
_1-2_極細2
  6
CONTINUOUS
 62
    2
 10
246.77184587562954
 20
456.79018070210134
 11
247.74202647894094
 21
457.76036130541252
  0
LINE
  8
_1-2_極細2
  6
CONTINUOUS
 62
    2
 10
280.47886001898064
 20
453.43328241331437
 11
277.04476695628659
 21
456.86737547600808
  0
LINE
  8
_1-2_極細2
  6
CONTINUOUS
 62
    2
 10
279.42041027637447
 20
453.36036130602179
 11
275.24209673938708
 21
457.53867484300918
  0
LINE
  8
_1-2_極細2
  6
CONTINUOUS
 62
    2
 10
278.28903942647617
 20
453.36036130602179
 11
273.90695592133193
 21
457.74244481116602
  0
LINE
  8
_1-2_極細2
  6
CONTINUOUS
 62
    2
 10
277.15766857657786
 20
453.36036130602179
 11
272.75766858436532
 21
457.76036129823416
  0
LINE
  8
_1-2_極細2
  6
CONTINUOUS
 62
    2
 10
276.02629772667956
 20
453.36036130602179
 11
271.62629773414233
 21
457.76036129855885
  0
LINE
  8
_1-2_極細2
  6
CONTINUOUS
 62
    2
 10
274.89492687678126
 20
453.36036130602179
 11
270.49492688391933
 21
457.76036129888354
  0
LINE
  8
_1-2_極細2
  6
CONTINUOUS
 62
    2
 10
273.76355602688295
 20
453.36036130602179
 11
269.36355603369634
 21
457.76036129920806
  0
LINE
  8
_1-2_極細2
  6
CONTINUOUS
 62
    2
 10
272.63218517698465
 20
453.36036130602179
 11
268.23218518347335
 21
457.76036129953275
  0
LINE
  8
_1-2_極細2
  6
CONTINUOUS
 62
    2
 10
271.50081432708635
 20
453.36036130602179
 11
267.10081433325036
 21
457.76036129985761
  0
LINE
  8
_1-2_極細2
  6
CONTINUOUS
 62
    2
 10
270.36944347718747
 20
453.36036130602179
 11
265.96944348302736
 21
457.76036130018213
  0
LINE
  8
_1-2_極細2
  6
CONTINUOUS
 62
    2
 10
269.23807262728917
 20
453.36036130602179
 11
264.83807263280437
 21
457.7603613005067
  0
LINE
  8
_1-2_極細2
  6
CONTINUOUS
 62
    2
 10
268.10670177739087
 20
453.36036130602179
 11
263.70670178258138
 21
457.76036130083151
  0
LINE
  8
_1-2_極細2
  6
CONTINUOUS
 62
    2
 10
266.97533092749256
 20
453.36036130602179
 11
262.57533093235838
 21
457.76036130115608
  0
LINE
  8
_1-2_極細2
  6
CONTINUOUS
 62
    2
 10
265.84396007759426
 20
453.36036130602179
 11
261.44396008213539
 21
457.76036130148077
  0
LINE
  8
_1-2_極細2
  6
CONTINUOUS
 62
    2
 10
264.71258922769596
 20
453.36036130602179
 11
260.3125892319124
 21
457.76036130180546
  0
LINE
  8
_1-2_極細2
  6
CONTINUOUS
 62
    2
 10
263.58121837779765
 20
453.36036130602179
 11
259.1812183816894
 21
457.76036130213015
  0
LINE
  8
_1-2_極細2
  6
CONTINUOUS
 62
    2
 10
262.44984752789935
 20
453.36036130602179
 11
258.04984753146641
 21
457.76036130245484
  0
LINE
  8
_1-2_極細2
  6
CONTINUOUS
 62
    2
 10
261.31847667800071
 20
453.36036130602179
 11
256.91847668124342
 21
457.76036130277936
  0
LINE
  8
_1-2_極細2
  6
CONTINUOUS
 62
    2
 10
260.1871058281024
 20
453.36036130602179
 11
255.78710583102043
 21
457.76036130310422
  0
LINE
  8
_1-2_極細2
  6
CONTINUOUS
 62
    2
 10
259.0557349782041
 20
453.36036130602179
 11
254.65573498079698
 21
457.76036130342857
  0
LINE
  8
_1-2_極細2
  6
CONTINUOUS
 62
    2
 10
257.9243641283058
 20
453.36036130602179
 11
253.52436413057444
 21
457.76036130375326
  0
LINE
  8
_1-2_極細2
  6
CONTINUOUS
 62
    2
 10
256.79299327840749
 20
453.36036130602179
 11
252.39299328035088
 21
457.76036130407795
  0
LINE
  8
_1-2_極細2
  6
CONTINUOUS
 62
    2
 10
255.66162242850919
 20
453.36036130602179
 11
251.26162243012789
 21
457.76036130440264
  0
LINE
  8
_1-2_極細2
  6
CONTINUOUS
 62
    2
 10
254.53025157861089
 20
453.36036130602179
 11
250.13025157990489
 21
457.76036130472733
  0
LINE
  8
_1-2_極細2
  6
CONTINUOUS
 62
    2
 10
253.39888072871258
 20
453.36036130602179
 11
248.99888072968201
 21
457.76036130505202
  0
LINE
  8
_1-2_極細2
  6
CONTINUOUS
 62
    2
 10
252.26750987881383
 20
453.36036130602179
 11
247.86750987945902
 21
457.76036130537659
  0
LINE
  8
_1-2_極細2
  6
CONTINUOUS
 62
    2
 10
251.13613902891552
 20
453.36036130602179
 11
246.77184587562954
 21
457.72465445930777
  0
LINE
  8
_1-2_極細2
  6
CONTINUOUS
 62
    2
 10
250.00476817901722
 20
453.36036130602179
 11
246.77184587562954
 21
456.59328360940935
  0
LINE
  8
_1-2_極細2
  6
CONTINUOUS
 62
    2
 10
248.87339732911892
 20
453.36036130602179
 11
246.77184587562954
 21
455.46191275951105
  0
LINE
  8
_1-2_極細2
  6
CONTINUOUS
 62
    2
 10
247.74202647922061
 20
453.36036130602179
 11
246.77184587562954
 21
454.33054190961258
  0
LINE
  8
_1-2_極細2
  6
CONTINUOUS
 62
    2
 10
502.19135497776301
 20
453.36036130602179
 11
502.77184561963008
 21
453.94085194788886
  0
LINE
  8
_1-2_極細2
  6
CONTINUOUS
 62
    2
 10
501.05998412786471
 20
453.36036130602179
 11
502.77184561963008
 21
455.07222279778716
  0
LINE
  8
_1-2_極細2
  6
CONTINUOUS
 62
    2
 10
499.92861327796641
 20
453.36036130602179
 11
502.77184561963008
 21
456.20359364768558
  0
LINE
  8
_1-2_極細2
  6
CONTINUOUS
 62
    2
 10
498.7972424280681
 20
453.36036130602179
 11
502.77184561963008
 21
457.33496449758388
  0
LINE
  8
_1-2_極細2
  6
CONTINUOUS
 62
    2
 10
497.66587157816957
 20
453.36036130602179
 11
502.06587157812578
 21
457.76036130597788
  0
LINE
  8
_1-2_極細2
  6
CONTINUOUS
 62
    2
 10
496.53450072827127
 20
453.36036130602179
 11
500.93450072822748
 21
457.76036130597788
  0
LINE
  8
_1-2_極細2
  6
CONTINUOUS
 62
    2
 10
495.40312987837297
 20
453.36036130602179
 11
499.8031298783286
 21
457.76036130597788
  0
LINE
  8
_1-2_極細2
  6
CONTINUOUS
 62
    2
 10
494.27175902847466
 20
453.36036130602179
 11
498.6717590284303
 21
457.76036130597788
  0
LINE
  8
_1-2_極細2
  6
CONTINUOUS
 62
    2
 10
493.14038817857568
 20
453.36036130602179
 11
497.540388178532
 21
457.76036130597788
  0
LINE
  8
_1-2_極細2
  6
CONTINUOUS
 62
    2
 10
492.00901732867737
 20
453.36036130602179
 11
496.40901732863335
 21
457.76036130597788
  0
LINE
  8
_1-2_極細2
  6
CONTINUOUS
 62
    2
 10
490.87764647877907
 20
453.36036130602179
 11
495.27764647873505
 21
457.76036130597788
  0
LINE
  8
_1-2_極細2
  6
CONTINUOUS
 62
    2
 10
489.74627562888077
 20
453.36036130602179
 11
494.14627562883675
 21
457.76036130597788
  0
LINE
  8
_1-2_極細2
  6
CONTINUOUS
 62
    2
 10
488.6149047789819
 20
453.36036130602179
 11
493.01490477893844
 21
457.76036130597788
  0
LINE
  8
_1-2_極細2
  6
CONTINUOUS
 62
    2
 10
487.48353392908359
 20
453.36036130602179
 11
491.88353392904014
 21
457.76036130597788
  0
LINE
  8
_1-2_極細2
  6
CONTINUOUS
 62
    2
 10
486.35216307918529
 20
453.36036130602179
 11
490.75216307914161
 21
457.76036130597788
  0
LINE
  8
_1-2_極細2
  6
CONTINUOUS
 62
    2
 10
485.22079222928699
 20
453.36036130602179
 11
489.62079222924331
 21
457.76036130597788
  0
LINE
  8
_1-2_極細2
  6
CONTINUOUS
 62
    2
 10
484.08942137938834
 20
453.36036130602179
 11
488.489421379345
 21
457.76036130597788
  0
LINE
  8
_1-2_極細2
  6
CONTINUOUS
 62
    2
 10
482.95805052949004
 20
453.36036130602179
 11
487.3580505294467
 21
457.76036130597788
  0
LINE
  8
_1-2_極細2
  6
CONTINUOUS
 62
    2
 10
481.82667967959173
 20
453.36036130602179
 11
486.22667967954771
 21
457.76036130597788
  0
LINE
  8
_1-2_極細2
  6
CONTINUOUS
 62
    2
 10
480.69530882969343
 20
453.36036130602179
 11
485.09530882964941
 21
457.76036130597788
  0
LINE
  8
_1-2_極細2
  6
CONTINUOUS
 62
    2
 10
479.56393797979456
 20
453.36036130602179
 11
483.96393797975111
 21
457.76036130597788
  0
LINE
  8
_1-2_極細2
  6
CONTINUOUS
 62
    2
 10
478.43256712989626
 20
453.36036130602179
 11
482.83256712985281
 21
457.76036130597788
  0
LINE
  8
_1-2_極細2
  6
CONTINUOUS
 62
    2
 10
477.30119627999795
 20
453.36036130602179
 11
481.70119627995393
 21
457.76036130597788
  0
LINE
  8
_1-2_極細2
  6
CONTINUOUS
 62
    2
 10
476.16982543009965
 20
453.36036130602179
 11
480.56982543005563
 21
457.76036130597788
  0
LINE
  8
_1-2_極細2
  6
CONTINUOUS
 62
    2
 10
475.03845458020123
 20
453.36036130602179
 11
479.43845458015733
 21
457.76036130597788
  0
LINE
  8
_1-2_極細2
  6
CONTINUOUS
 62
    2
 10
473.90708373030293
 20
453.36036130602179
 11
478.30708373025902
 21
457.76036130597788
  0
LINE
  8
_1-2_極細2
  6
CONTINUOUS
 62
    2
 10
472.77571288040463
 20
453.36036130602179
 11
477.17571288036038
 21
457.76036130597788
  0
LINE
  8
_1-2_極細2
  6
CONTINUOUS
 62
    2
 10
471.64434203050632
 20
453.36036130602179
 11
476.04434203046208
 21
457.76036130597788
  0
LINE
  8
_1-2_極細2
  6
CONTINUOUS
 62
    2
 10
470.51297118060722
 20
453.36036130602179
 11
474.91297118056377
 21
457.76036130597788
  0
LINE
  8
_1-2_極細2
  6
CONTINUOUS
 62
    2
 10
469.38160033070892
 20
453.36036130602179
 11
473.78160033066547
 21
457.76036130597788
  0
LINE
  8
_1-2_極細2
  6
CONTINUOUS
 62
    2
 10
468.25022948081062
 20
453.36036130602179
 11
472.6502294807666
 21
457.76036130597788
  0
LINE
  8
_1-2_極細2
  6
CONTINUOUS
 62
    2
 10
467.11885863091231
 20
453.36036130602179
 11
471.51885863086829
 21
457.76036130597788
  0
LINE
  8
_1-2_極細2
  6
CONTINUOUS
 62
    2
 10
465.98748778101367
 20
453.36036130602179
 11
470.38748778096999
 21
457.76036130597788
  0
LINE
  8
_1-2_極細2
  6
CONTINUOUS
 62
    2
 10
464.85611693111537
 20
453.36036130602179
 11
469.25611693107169
 21
457.76036130597788
  0
LINE
  8
_1-2_極細2
  6
CONTINUOUS
 62
    2
 10
463.72474608121706
 20
453.36036130602179
 11
468.12474608117327
 21
457.76036130597788
  0
LINE
  8
_1-2_極細2
  6
CONTINUOUS
 62
    2
 10
462.59337523131876
 20
453.36036130602179
 11
466.99337523127497
 21
457.76036130597788
  0
LINE
  8
_1-2_極細2
  6
CONTINUOUS
 62
    2
 10
461.46200438141989
 20
453.36036130602179
 11
465.86200438137666
 21
457.76036130597788
  0
LINE
  8
_1-2_極細2
  6
CONTINUOUS
 62
    2
 10
460.33063353152158
 20
453.36036130602179
 11
464.73063353147836
 21
457.76036130597788
  0
LINE
  8
_1-2_極細2
  6
CONTINUOUS
 62
    2
 10
459.19926268162328
 20
453.36036130602179
 11
463.59926268157926
 21
457.76036130597788
  0
LINE
  8
_1-2_極細2
  6
CONTINUOUS
 62
    2
 10
458.06789183172498
 20
453.36036130602179
 11
462.46789183168096
 21
457.76036130597788
  0
LINE
  8
_1-2_極細2
  6
CONTINUOUS
 62
    2
 10
456.93652098182633
 20
453.36036130602179
 11
461.33652098178266
 21
457.76036130597788
  0
LINE
  8
_1-2_極細2
  6
CONTINUOUS
 62
    2
 10
455.80515013192803
 20
453.36036130602179
 11
460.20515013188435
 21
457.76036130597788
  0
LINE
  8
_1-2_極細2
  6
CONTINUOUS
 62
    2
 10
454.67377928202973
 20
453.36036130602179
 11
459.07377928198571
 21
457.76036130597788
  0
LINE
  8
_1-2_極細2
  6
CONTINUOUS
 62
    2
 10
453.54240843213142
 20
453.36036130602179
 11
457.9424084320874
 21
457.76036130597788
  0
LINE
  8
_1-2_極細2
  6
CONTINUOUS
 62
    2
 10
452.41103758223289
 20
453.36036130602179
 11
456.8110375821891
 21
457.76036130597788
  0
LINE
  8
_1-2_極細2
  6
CONTINUOUS
 62
    2
 10
451.27966673233459
 20
453.36036130602179
 11
455.6796667322908
 21
457.76036130597788
  0
LINE
  8
_1-2_極細2
  6
CONTINUOUS
 62
    2
 10
450.14829588243629
 20
453.36036130602179
 11
454.54829588239193
 21
457.76036130597788
  0
LINE
  8
_1-2_極細2
  6
CONTINUOUS
 62
    2
 10
449.01692503253798
 20
453.36036130602179
 11
453.41692503249362
 21
457.76036130597788
  0
LINE
  8
_1-2_極細2
  6
CONTINUOUS
 62
    2
 10
447.885554182639
 20
453.36036130602179
 11
452.28555418259532
 21
457.76036130597788
  0
LINE
  8
_1-2_極細2
  6
CONTINUOUS
 62
    2
 10
446.75418333274069
 20
453.36036130602179
 11
451.15418333269702
 21
457.76036130597788
  0
LINE
  8
_1-2_極細2
  6
CONTINUOUS
 62
    2
 10
445.62281248284239
 20
453.36036130602179
 11
450.02281248279837
 21
457.76036130597788
  0
LINE
  8
_1-2_極細2
  6
CONTINUOUS
 62
    2
 10
444.49144163294409
 20
453.36036130602179
 11
448.89144163290007
 21
457.76036130597788
  0
LINE
  8
_1-2_極細2
  6
CONTINUOUS
 62
    2
 10
443.36007078304522
 20
453.36036130602179
 11
447.76007078300177
 21
457.76036130597788
  0
LINE
  8
_1-2_極細2
  6
CONTINUOUS
 62
    2
 10
442.22869993314691
 20
453.36036130602179
 11
446.62869993310346
 21
457.76036130597788
  0
LINE
  8
_1-2_極細2
  6
CONTINUOUS
 62
    2
 10
441.09732908324861
 20
453.36036130602179
 11
445.49732908320493
 21
457.76036130597788
  0
LINE
  8
_1-2_極細2
  6
CONTINUOUS
 62
    2
 10
439.96595823335031
 20
453.36036130602179
 11
444.36595823330663
 21
457.76036130597788
  0
LINE
  8
_1-2_極細2
  6
CONTINUOUS
 62
    2
 10
438.83458738345166
 20
453.36036130602179
 11
443.23458738340832
 21
457.76036130597788
  0
LINE
  8
_1-2_極細2
  6
CONTINUOUS
 62
    2
 10
437.70321653355336
 20
453.36036130602179
 11
442.10321653351002
 21
457.76036130597788
  0
LINE
  8
_1-2_極細2
  6
CONTINUOUS
 62
    2
 10
436.57184568365506
 20
453.36036130602179
 11
440.97184568361104
 21
457.76036130597788
  0
LINE
  8
_1-2_極細2
  6
CONTINUOUS
 62
    2
 10
435.44047483375675
 20
453.36036130602179
 11
439.84047483371273
 21
457.76036130597788
  0
LINE
  8
_1-2_極細2
  6
CONTINUOUS
 62
    2
 10
434.30910398385788
 20
453.36036130602179
 11
438.70910398381443
 21
457.76036130597788
  0
LINE
  8
_1-2_極細2
  6
CONTINUOUS
 62
    2
 10
433.17773313395958
 20
453.36036130602179
 11
437.57773313391613
 21
457.76036130597788
  0
LINE
  8
_1-2_極細2
  6
CONTINUOUS
 62
    2
 10
432.04636228406127
 20
453.36036130602179
 11
436.44636228401725
 21
457.76036130597788
  0
LINE
  8
_1-2_極細2
  6
CONTINUOUS
 62
    2
 10
430.91499143416297
 20
453.36036130602179
 11
435.31499143411895
 21
457.76036130597788
  0
LINE
  8
_1-2_極細2
  6
CONTINUOUS
 62
    2
 10
429.78362058426455
 20
453.36036130602179
 11
434.18362058422065
 21
457.76036130597788
  0
LINE
  8
_1-2_極細2
  6
CONTINUOUS
 62
    2
 10
428.65224973436625
 20
453.36036130602179
 11
433.05224973432234
 21
457.76036130597788
  0
LINE
  8
_1-2_極細2
  6
CONTINUOUS
 62
    2
 10
427.52087888446795
 20
453.36036130602179
 11
431.9208788844237
 21
457.76036130597788
  0
LINE
  8
_1-2_極細2
  6
CONTINUOUS
 62
    2
 10
426.38950803456964
 20
453.36036130602179
 11
430.7895080345254
 21
457.76036130597788
  0
LINE
  8
_1-2_極細2
  6
CONTINUOUS
 62
    2
 10
425.25813718467055
 20
453.36036130602179
 11
429.65813718462709
 21
457.76036130597788
  0
LINE
  8
_1-2_極細2
  6
CONTINUOUS
 62
    2
 10
424.12676633477224
 20
453.36036130602179
 11
428.52676633472879
 21
457.76036130597788
  0
LINE
  8
_1-2_極細2
  6
CONTINUOUS
 62
    2
 10
422.99539548487394
 20
453.36036130602179
 11
427.39539548482992
 21
457.76036130597788
  0
LINE
  8
_1-2_極細2
  6
CONTINUOUS
 62
    2
 10
421.86402463497564
 20
453.36036130602179
 11
426.26402463493162
 21
457.76036130597788
  0
LINE
  8
_1-2_極細2
  6
CONTINUOUS
 62
    2
 10
420.73265378507699
 20
453.36036130602179
 11
425.13265378503331
 21
457.76036130597788
  0
LINE
  8
_1-2_極細2
  6
CONTINUOUS
 62
    2
 10
419.60128293517869
 20
453.36036130602179
 11
424.00128293513501
 21
457.76036130597788
  0
LINE
  8
_1-2_極細2
  6
CONTINUOUS
 62
    2
 10
418.46991208528038
 20
453.36036130602179
 11
422.86991208523659
 21
457.76036130597788
  0
LINE
  8
_1-2_極細2
  6
CONTINUOUS
 62
    2
 10
417.33854123538208
 20
453.36036130602179
 11
421.73854123533829
 21
457.76036130597788
  0
LINE
  8
_1-2_極細2
  6
CONTINUOUS
 62
    2
 10
416.20717038548321
 20
453.36036130602179
 11
420.60717038543999
 21
457.76036130597788
  0
LINE
  8
_1-2_極細2
  6
CONTINUOUS
 62
    2
 10
415.07579953558491
 20
453.36036130602179
 11
419.47579953554168
 21
457.76036130597788
  0
LINE
  8
_1-2_極細2
  6
CONTINUOUS
 62
    2
 10
413.9444286856866
 20
453.36036130602179
 11
418.34442868564258
 21
457.76036130597788
  0
LINE
  8
_1-2_極細2
  6
CONTINUOUS
 62
    2
 10
412.8130578357883
 20
453.36036130602179
 11
417.21305783574428
 21
457.76036130597788
  0
LINE
  8
_1-2_極細2
  6
CONTINUOUS
 62
    2
 10
411.68168698588966
 20
453.36036130602179
 11
416.08168698584598
 21
457.76036130597788
  0
LINE
  8
_1-2_極細2
  6
CONTINUOUS
 62
    2
 10
410.55031613599135
 20
453.36036130602179
 11
414.95031613594767
 21
457.76036130597788
  0
LINE
  8
_1-2_極細2
  6
CONTINUOUS
 62
    2
 10
409.41894528609305
 20
453.36036130602179
 11
413.81894528604903
 21
457.76036130597788
  0
LINE
  8
_1-2_極細2
  6
CONTINUOUS
 62
    2
 10
408.28757443619475
 20
453.36036130602179
 11
412.68757443615073
 21
457.76036130597788
  0
LINE
  8
_1-2_極細2
  6
CONTINUOUS
 62
    2
 10
407.15620358629621
 20
453.36036130602179
 11
411.55620358625242
 21
457.76036130597788
  0
LINE
  8
_1-2_極細2
  6
CONTINUOUS
 62
    2
 10
406.02483273639791
 20
453.36036130602179
 11
410.42483273635412
 21
457.76036130597788
  0
LINE
  8
_1-2_極細2
  6
CONTINUOUS
 62
    2
 10
404.89346188649961
 20
453.36036130602179
 11
409.29346188645525
 21
457.76036130597788
  0
LINE
  8
_1-2_極細2
  6
CONTINUOUS
 62
    2
 10
403.7620910366013
 20
453.36036130602179
 11
408.16209103655694
 21
457.76036130597788
  0
LINE
  8
_1-2_極細2
  6
CONTINUOUS
 62
    2
 10
402.63072018670232
 20
453.36036130602179
 11
407.03072018665864
 21
457.76036130597788
  0
LINE
  8
_1-2_極細2
  6
CONTINUOUS
 62
    2
 10
401.49934933680402
 20
453.36036130602179
 11
405.89934933676034
 21
457.76036130597788
  0
LINE
  8
_1-2_極細2
  6
CONTINUOUS
 62
    2
 10
400.36797848690571
 20
453.36036130602179
 11
404.76797848686169
 21
457.76036130597788
  0
LINE
  8
_1-2_極細2
  6
CONTINUOUS
 62
    2
 10
399.23660763700741
 20
453.36036130602179
 11
403.63660763696339
 21
457.76036130597788
  0
LINE
  8
_1-2_極細2
  6
CONTINUOUS
 62
    2
 10
398.10523678710854
 20
453.36036130602179
 11
402.50523678706509
 21
457.76036130597788
  0
LINE
  8
_1-2_極細2
  6
CONTINUOUS
 62
    2
 10
396.97386593721023
 20
453.36036130602179
 11
401.37386593716678
 21
457.76036130597788
  0
LINE
  8
_1-2_極細2
  6
CONTINUOUS
 62
    2
 10
395.84249508731193
 20
453.36036130602179
 11
400.24249508726825
 21
457.76036130597788
  0
LINE
  8
_1-2_極細2
  6
CONTINUOUS
 62
    2
 10
394.71112423741363
 20
453.36036130602179
 11
399.11112423736995
 21
457.76036130597788
  0
LINE
  8
_1-2_極細2
  6
CONTINUOUS
 62
    2
 10
393.57975338751498
 20
453.36036130602179
 11
397.97975338747165
 21
457.76036130597788
  0
LINE
  8
_1-2_極細2
  6
CONTINUOUS
 62
    2
 10
392.44838253761668
 20
453.36036130602179
 11
396.84838253757334
 21
457.76036130597788
  0
LINE
  8
_1-2_極細2
  6
CONTINUOUS
 62
    2
 10
391.31701168771838
 20
453.36036130602179
 11
395.71701168767436
 21
457.76036130597788
  0
LINE
  8
_1-2_極細2
  6
CONTINUOUS
 62
    2
 10
390.18564083782007
 20
453.36036130602179
 11
394.58564083777605
 21
457.76036130597788
  0
LINE
  8
_1-2_極細2
  6
CONTINUOUS
 62
    2
 10
389.0542699879212
 20
453.36036130602179
 11
393.45426998787775
 21
457.76036130597788
  0
LINE
  8
_1-2_極細2
  6
CONTINUOUS
 62
    2
 10
387.9228991380229
 20
453.36036130602179
 11
392.32289913797945
 21
457.76036130597788
  0
LINE
  8
_1-2_極細2
  6
CONTINUOUS
 62
    2
 10
386.7915282881246
 20
453.36036130602179
 11
391.19152828808058
 21
457.76036130597788
  0
LINE
  8
_1-2_極細2
  6
CONTINUOUS
 62
    2
 10
385.66015743822629
 20
453.36036130602179
 11
390.06015743818227
 21
457.76036130597788
  0
LINE
  8
_1-2_極細2
  6
CONTINUOUS
 62
    2
 10
384.52878658832788
 20
453.36036130602179
 11
388.92878658828397
 21
457.76036130597788
  0
LINE
  8
_1-2_極細2
  6
CONTINUOUS
 62
    2
 10
383.39741573842957
 20
453.36036130602179
 11
387.79741573838567
 21
457.76036130597788
  0
LINE
  8
_1-2_極細2
  6
CONTINUOUS
 62
    2
 10
382.26604488853127
 20
453.36036130602179
 11
386.66604488848702
 21
457.76036130597788
  0
LINE
  8
_1-2_極細2
  6
CONTINUOUS
 62
    2
 10
381.13467403863297
 20
453.36036130602179
 11
385.53467403858872
 21
457.76036130597788
  0
LINE
  8
_1-2_極細2
  6
CONTINUOUS
 62
    2
 10
380.00330318873387
 20
453.36036130602179
 11
384.40330318869042
 21
457.76036130597788
  0
LINE
  8
_1-2_極細2
  6
CONTINUOUS
 62
    2
 10
378.87193233883556
 20
453.36036130602179
 11
383.27193233879211
 21
457.76036130597788
  0
LINE
  8
_1-2_極細2
  6
CONTINUOUS
 62
    2
 10
377.74056148893726
 20
453.36036130602179
 11
382.14056148889324
 21
457.76036130597788
  0
LINE
  8
_1-2_極細2
  6
CONTINUOUS
 62
    2
 10
376.60919063903896
 20
453.36036130602179
 11
381.00919063899494
 21
457.76036130597788
  0
LINE
  8
_1-2_極細2
  6
CONTINUOUS
 62
    2
 10
375.47781978914031
 20
453.36036130602179
 11
379.87781978909663
 21
457.76036130597788
  0
LINE
  8
_1-2_極細2
  6
CONTINUOUS
 62
    2
 10
374.77184574762987
 20
453.78575811440942
 11
378.74644893919833
 21
457.76036130597788
  0
LINE
  8
_1-2_極細2
  6
CONTINUOUS
 62
    2
 10
374.77184574762987
 20
454.91712896430772
 11
377.61507808929991
 21
457.76036130597788
  0
LINE
  8
_1-2_極細2
  6
CONTINUOUS
 62
    2
 10
374.77184574762987
 20
456.04849981420614
 11
376.48370723940161
 21
457.76036130597788
  0
LINE
  8
_1-2_極細2
  6
CONTINUOUS
 62
    2
 10
374.77184574762987
 20
457.17987066410444
 11
375.35233638950331
 21
457.76036130597788
  0
LINE
  8
_1-2_極細2
  6
CONTINUOUS
 62
    2
 10
502.77184561963008
 20
457.17987066411081
 11
502.19135497776301
 21
457.76036130597788
  0
LINE
  8
_1-2_極細2
  6
CONTINUOUS
 62
    2
 10
502.77184561963008
 20
456.04849981421251
 11
501.05998412786471
 21
457.76036130597788
  0
LINE
  8
_1-2_極細2
  6
CONTINUOUS
 62
    2
 10
502.77184561963008
 20
454.91712896431409
 11
499.92861327796641
 21
457.76036130597788
  0
LINE
  8
_1-2_極細2
  6
CONTINUOUS
 62
    2
 10
502.77184561963008
 20
453.78575811441578
 11
498.79724242806788
 21
457.76036130597788
  0
LINE
  8
_1-2_極細2
  6
CONTINUOUS
 62
    2
 10
502.06587157812578
 20
453.36036130602179
 11
497.66587157816957
 21
457.76036130597788
  0
LINE
  8
_1-2_極細2
  6
CONTINUOUS
 62
    2
 10
500.93450072822748
 20
453.36036130602179
 11
496.53450072827127
 21
457.76036130597788
  0
LINE
  8
_1-2_極細2
  6
CONTINUOUS
 62
    2
 10
499.80312987832917
 20
453.36036130602179
 11
495.40312987837297
 21
457.76036130597788
  0
LINE
  8
_1-2_極細2
  6
CONTINUOUS
 62
    2
 10
498.6717590284303
 20
453.36036130602179
 11
494.27175902847466
 21
457.76036130597788
  0
LINE
  8
_1-2_極細2
  6
CONTINUOUS
 62
    2
 10
497.540388178532
 20
453.36036130602179
 11
493.14038817857636
 21
457.76036130597788
  0
LINE
  8
_1-2_極細2
  6
CONTINUOUS
 62
    2
 10
496.40901732863369
 20
453.36036130602179
 11
492.00901732867806
 21
457.76036130597788
  0
LINE
  8
_1-2_極細2
  6
CONTINUOUS
 62
    2
 10
495.27764647873539
 20
453.36036130602179
 11
490.87764647877975
 21
457.76036130597788
  0
LINE
  8
_1-2_極細2
  6
CONTINUOUS
 62
    2
 10
494.14627562883709
 20
453.36036130602179
 11
489.74627562888077
 21
457.76036130597788
  0
LINE
  8
_1-2_極細2
  6
CONTINUOUS
 62
    2
 10
493.01490477893879
 20
453.36036130602179
 11
488.61490477898246
 21
457.76036130597788
  0
LINE
  8
_1-2_極細2
  6
CONTINUOUS
 62
    2
 10
491.88353392904048
 20
453.36036130602179
 11
487.48353392908416
 21
457.76036130597788
  0
LINE
  8
_1-2_極細2
  6
CONTINUOUS
 62
    2
 10
490.75216307914218
 20
453.36036130602179
 11
486.35216307918586
 21
457.76036130597788
  0
LINE
  8
_1-2_極細2
  6
CONTINUOUS
 62
    2
 10
489.62079222924353
 20
453.36036130602179
 11
485.22079222928755
 21
457.76036130597788
  0
LINE
  8
_1-2_極細2
  6
CONTINUOUS
 62
    2
 10
488.48942137934523
 20
453.36036130602179
 11
484.08942137938925
 21
457.76036130597788
  0
LINE
  8
_1-2_極細2
  6
CONTINUOUS
 62
    2
 10
487.35805052944693
 20
453.36036130602179
 11
482.95805052949095
 21
457.76036130597788
  0
LINE
  8
_1-2_極細2
  6
CONTINUOUS
 62
    2
 10
486.22667967954862
 20
453.36036130602179
 11
481.82667967959264
 21
457.76036130597788
  0
LINE
  8
_1-2_極細2
  6
CONTINUOUS
 62
    2
 10
485.09530882965032
 20
453.36036130602179
 11
480.69530882969377
 21
457.76036130597788
  0
LINE
  8
_1-2_極細2
  6
CONTINUOUS
 62
    2
 10
483.96393797975202
 20
453.36036130602179
 11
479.56393797979547
 21
457.76036130597788
  0
LINE
  8
_1-2_極細2
  6
CONTINUOUS
 62
    2
 10
482.83256712985371
 20
453.36036130602179
 11
478.43256712989717
 21
457.76036130597788
  0
LINE
  8
_1-2_極細2
  6
CONTINUOUS
 62
    2
 10
481.70119627995541
 20
453.36036130602179
 11
477.30119627999886
 21
457.76036130597788
  0
LINE
  8
_1-2_極細2
  6
CONTINUOUS
 62
    2
 10
480.56982543005688
 20
453.36036130602179
 11
476.16982543010056
 21
457.76036130597788
  0
LINE
  8
_1-2_極細2
  6
CONTINUOUS
 62
    2
 10
479.43845458015858
 20
453.36036130602179
 11
475.03845458020226
 21
457.76036130597788
  0
LINE
  8
_1-2_極細2
  6
CONTINUOUS
 62
    2
 10
478.30708373026027
 20
453.36036130602179
 11
473.90708373030395
 21
457.76036130597788
  0
LINE
  8
_1-2_極細2
  6
CONTINUOUS
 62
    2
 10
477.17571288036197
 20
453.36036130602179
 11
472.77571288040565
 21
457.76036130597788
  0
LINE
  8
_1-2_極細2
  6
CONTINUOUS
 62
    2
 10
476.04434203046367
 20
453.36036130602179
 11
471.644342030507
 21
457.76036130597788
  0
LINE
  8
_1-2_極細2
  6
CONTINUOUS
 62
    2
 10
474.91297118056536
 20
453.36036130602179
 11
470.5129711806087
 21
457.76036130597788
  0
LINE
  8
_1-2_極細2
  6
CONTINUOUS
 62
    2
 10
473.78160033066706
 20
453.36036130602179
 11
469.3816003307104
 21
457.76036130597788
  0
LINE
  8
_1-2_極細2
  6
CONTINUOUS
 62
    2
 10
472.65022948076876
 20
453.36036130602179
 11
468.2502294808121
 21
457.76036130597788
  0
LINE
  8
_1-2_極細2
  6
CONTINUOUS
 62
    2
 10
471.51885863086977
 20
453.36036130602179
 11
467.11885863091379
 21
457.76036130597788
  0
LINE
  8
_1-2_極細2
  6
CONTINUOUS
 62
    2
 10
470.38748778097147
 20
453.36036130602179
 11
465.98748778101549
 21
457.76036130597788
  0
LINE
  8
_1-2_極細2
  6
CONTINUOUS
 62
    2
 10
469.25611693107317
 20
453.36036130602179
 11
464.85611693111719
 21
457.76036130597788
  0
LINE
  8
_1-2_極細2
  6
CONTINUOUS
 62
    2
 10
468.12474608117486
 20
453.36036130602179
 11
463.72474608121888
 21
457.76036130597788
  0
LINE
  8
_1-2_極細2
  6
CONTINUOUS
 62
    2
 10
466.99337523127656
 20
453.36036130602179
 11
462.59337523132001
 21
457.76036130597788
  0
LINE
  8
_1-2_極細2
  6
CONTINUOUS
 62
    2
 10
465.86200438137826
 20
453.36036130602179
 11
461.46200438142171
 21
457.76036130597788
  0
LINE
  8
_1-2_極細2
  6
CONTINUOUS
 62
    2
 10
464.73063353147995
 20
453.36036130602179
 11
460.3306335315234
 21
457.76036130597788
  0
LINE
  8
_1-2_極細2
  6
CONTINUOUS
 62
    2
 10
463.59926268158165
 20
453.36036130602179
 11
459.1992626816251
 21
457.76036130597788
  0
LINE
  8
_1-2_極細2
  6
CONTINUOUS
 62
    2
 10
462.46789183168278
 20
453.36036130602179
 11
458.0678918317268
 21
457.76036130597788
  0
LINE
  8
_1-2_極細2
  6
CONTINUOUS
 62
    2
 10
461.33652098178447
 20
453.36036130602179
 11
456.93652098182849
 21
457.76036130597788
  0
LINE
  8
_1-2_極細2
  6
CONTINUOUS
 62
    2
 10
460.20515013188617
 20
453.36036130602179
 11
455.80515013193019
 21
457.76036130597788
  0
LINE
  8
_1-2_極細2
  6
CONTINUOUS
 62
    2
 10
459.07377928198787
 20
453.36036130602179
 11
454.67377928203189
 21
457.76036130597788
  0
LINE
  8
_1-2_極細2
  6
CONTINUOUS
 62
    2
 10
457.94240843208956
 20
453.36036130602179
 11
453.54240843213347
 21
457.76036130597788
  0
LINE
  8
_1-2_極細2
  6
CONTINUOUS
 62
    2
 10
456.81103758219126
 20
453.36036130602179
 11
452.41103758223517
 21
457.76036130597788
  0
LINE
  8
_1-2_極細2
  6
CONTINUOUS
 62
    2
 10
455.67966673229296
 20
453.36036130602179
 11
451.27966673233686
 21
457.76036130597788
  0
LINE
  8
_1-2_極細2
  6
CONTINUOUS
 62
    2
 10
454.54829588239465
 20
453.36036130602179
 11
450.14829588243856
 21
457.76036130597788
  0
LINE
  8
_1-2_極細2
  6
CONTINUOUS
 62
    2
 10
453.41692503249601
 20
453.36036130602179
 11
449.01692503254026
 21
457.76036130597788
  0
LINE
  8
_1-2_極細2
  6
CONTINUOUS
 62
    2
 10
452.28555418259771
 20
453.36036130602179
 11
447.88555418264195
 21
457.76036130597788
  0
LINE
  8
_1-2_極細2
  6
CONTINUOUS
 62
    2
 10
451.1541833326994
 20
453.36036130602179
 11
446.75418333274365
 21
457.76036130597788
  0
LINE
  8
_1-2_極細2
  6
CONTINUOUS
 62
    2
 10
450.0228124828011
 20
453.36036130602179
 11
445.62281248284535
 21
457.76036130597788
  0
LINE
  8
_1-2_極細2
  6
CONTINUOUS
 62
    2
 10
448.8914416329028
 20
453.36036130602179
 11
444.49144163294625
 21
457.76036130597788
  0
LINE
  8
_1-2_極細2
  6
CONTINUOUS
 62
    2
 10
447.76007078300449
 20
453.36036130602179
 11
443.36007078304795
 21
457.76036130597788
  0
LINE
  8
_1-2_極細2
  6
CONTINUOUS
 62
    2
 10
446.62869993310619
 20
453.36036130602179
 11
442.22869993314964
 21
457.76036130597788
  0
LINE
  8
_1-2_極細2
  6
CONTINUOUS
 62
    2
 10
445.49732908320789
 20
453.36036130602179
 11
441.09732908325134
 21
457.76036130597788
  0
LINE
  8
_1-2_極細2
  6
CONTINUOUS
 62
    2
 10
444.36595823330902
 20
453.36036130602179
 11
439.96595823335304
 21
457.76036130597788
  0
LINE
  8
_1-2_極細2
  6
CONTINUOUS
 62
    2
 10
443.23458738341071
 20
453.36036130602179
 11
438.83458738345473
 21
457.76036130597788
  0
LINE
  8
_1-2_極細2
  6
CONTINUOUS
 62
    2
 10
442.10321653351241
 20
453.36036130602179
 11
437.70321653355643
 21
457.76036130597788
  0
LINE
  8
_1-2_極細2
  6
CONTINUOUS
 62
    2
 10
440.97184568361411
 20
453.36036130602179
 11
436.57184568365813
 21
457.76036130597788
  0
LINE
  8
_1-2_極細2
  6
CONTINUOUS
 62
    2
 10
439.8404748337158
 20
453.36036130602179
 11
435.44047483375948
 21
457.76036130597788
  0
LINE
  8
_1-2_極細2
  6
CONTINUOUS
 62
    2
 10
438.7091039838175
 20
453.36036130602179
 11
434.30910398386118
 21
457.76036130597788
  0
LINE
  8
_1-2_極細2
  6
CONTINUOUS
 62
    2
 10
437.5777331339192
 20
453.36036130602179
 11
433.17773313396287
 21
457.76036130597788
  0
LINE
  8
_1-2_極細2
  6
CONTINUOUS
 62
    2
 10
436.44636228402089
 20
453.36036130602179
 11
432.04636228406457
 21
457.76036130597788
  0
LINE
  8
_1-2_極細2
  6
CONTINUOUS
 62
    2
 10
435.31499143412248
 20
453.36036130602179
 11
430.91499143416627
 21
457.76036130597788
  0
LINE
  8
_1-2_極細2
  6
CONTINUOUS
 62
    2
 10
434.18362058422417
 20
453.36036130602179
 11
429.78362058426796
 21
457.76036130597788
  0
LINE
  8
_1-2_極細2
  6
CONTINUOUS
 62
    2
 10
433.05224973432587
 20
453.36036130602179
 11
428.65224973436966
 21
457.76036130597788
  0
LINE
  8
_1-2_極細2
  6
CONTINUOUS
 62
    2
 10
431.92087888442757
 20
453.36036130602179
 11
427.52087888447136
 21
457.76036130597788
  0
LINE
  8
_1-2_極細2
  6
CONTINUOUS
 62
    2
 10
430.78950803452926
 20
453.36036130602179
 11
426.38950803457249
 21
457.76036130597788
  0
LINE
  8
_1-2_極細2
  6
CONTINUOUS
 62
    2
 10
429.65813718463096
 20
453.36036130602179
 11
425.25813718467418
 21
457.76036130597788
  0
LINE
  8
_1-2_極細2
  6
CONTINUOUS
 62
    2
 10
428.52676633473266
 20
453.36036130602179
 11
424.12676633477588
 21
457.76036130597788
  0
LINE
  8
_1-2_極細2
  6
CONTINUOUS
 62
    2
 10
427.39539548483435
 20
453.36036130602179
 11
422.99539548487758
 21
457.76036130597788
  0
LINE
  8
_1-2_極細2
  6
CONTINUOUS
 62
    2
 10
426.26402463493525
 20
453.36036130602179
 11
421.86402463497927
 21
457.76036130597788
  0
LINE
  8
_1-2_極細2
  6
CONTINUOUS
 62
    2
 10
425.13265378503695
 20
453.36036130602179
 11
420.73265378508097
 21
457.76036130597788
  0
LINE
  8
_1-2_極細2
  6
CONTINUOUS
 62
    2
 10
424.00128293513865
 20
453.36036130602179
 11
419.60128293518267
 21
457.76036130597788
  0
LINE
  8
_1-2_極細2
  6
CONTINUOUS
 62
    2
 10
422.86991208524034
 20
453.36036130602179
 11
418.46991208528436
 21
457.76036130597788
  0
LINE
  8
_1-2_極細2
  6
CONTINUOUS
 62
    2
 10
421.73854123534204
 20
453.36036130602179
 11
417.33854123538572
 21
457.76036130597788
  0
LINE
  8
_1-2_極細2
  6
CONTINUOUS
 62
    2
 10
420.60717038544374
 20
453.36036130602179
 11
416.20717038548742
 21
457.76036130597788
  0
LINE
  8
_1-2_極細2
  6
CONTINUOUS
 62
    2
 10
419.47579953554543
 20
453.36036130602179
 11
415.07579953558911
 21
457.76036130597788
  0
LINE
  8
_1-2_極細2
  6
CONTINUOUS
 62
    2
 10
418.34442868564713
 20
453.36036130602179
 11
413.94442868569081
 21
457.76036130597788
  0
LINE
  8
_1-2_極細2
  6
CONTINUOUS
 62
    2
 10
417.21305783574849
 20
453.36036130602179
 11
412.81305783579251
 21
457.76036130597788
  0
LINE
  8
_1-2_極細2
  6
CONTINUOUS
 62
    2
 10
416.08168698585018
 20
453.36036130602179
 11
411.6816869858942
 21
457.76036130597788
  0
LINE
  8
_1-2_極細2
  6
CONTINUOUS
 62
    2
 10
414.95031613595188
 20
453.36036130602179
 11
410.5503161359959
 21
457.76036130597788
  0
LINE
  8
_1-2_極細2
  6
CONTINUOUS
 62
    2
 10
413.81894528605358
 20
453.36036130602179
 11
409.4189452860976
 21
457.76036130597788
  0
LINE
  8
_1-2_極細2
  6
CONTINUOUS
 62
    2
 10
412.68757443615527
 20
453.36036130602179
 11
408.28757443619907
 21
457.76036130597788
  0
LINE
  8
_1-2_極細2
  6
CONTINUOUS
 62
    2
 10
411.55620358625697
 20
453.36036130602179
 11
407.15620358630076
 21
457.76036130597788
  0
LINE
  8
_1-2_極細2
  6
CONTINUOUS
 62
    2
 10
410.42483273635867
 20
453.36036130602179
 11
406.02483273640246
 21
457.76036130597788
  0
LINE
  8
_1-2_極細2
  6
CONTINUOUS
 62
    2
 10
409.29346188646036
 20
453.36036130602179
 11
404.89346188650416
 21
457.76036130597788
  0
LINE
  8
_1-2_極細2
  6
CONTINUOUS
 62
    2
 10
408.16209103656149
 20
453.36036130602179
 11
403.76209103660585
 21
457.76036130597788
  0
LINE
  8
_1-2_極細2
  6
CONTINUOUS
 62
    2
 10
407.03072018666319
 20
453.36036130602179
 11
402.63072018670755
 21
457.76036130597788
  0
LINE
  8
_1-2_極細2
  6
CONTINUOUS
 62
    2
 10
405.89934933676489
 20
453.36036130602179
 11
401.49934933680925
 21
457.76036130597788
  0
LINE
  8
_1-2_極細2
  6
CONTINUOUS
 62
    2
 10
404.76797848686658
 20
453.36036130602179
 11
400.36797848691094
 21
457.76036130597788
  0
LINE
  8
_1-2_極細2
  6
CONTINUOUS
 62
    2
 10
403.63660763696828
 20
453.36036130602179
 11
399.23660763701196
 21
457.76036130597788
  0
LINE
  8
_1-2_極細2
  6
CONTINUOUS
 62
    2
 10
402.50523678706998
 20
453.36036130602179
 11
398.10523678711365
 21
457.76036130597788
  0
LINE
  8
_1-2_極細2
  6
CONTINUOUS
 62
    2
 10
401.37386593717167
 20
453.36036130602179
 11
396.97386593721535
 21
457.76036130597788
  0
LINE
  8
_1-2_極細2
  6
CONTINUOUS
 62
    2
 10
400.24249508727337
 20
453.36036130602179
 11
395.84249508731705
 21
457.76036130597788
  0
LINE
  8
_1-2_極細2
  6
CONTINUOUS
 62
    2
 10
399.11112423737472
 20
453.36036130602179
 11
394.71112423741874
 21
457.76036130597788
  0
LINE
  8
_1-2_極細2
  6
CONTINUOUS
 62
    2
 10
397.97975338747642
 20
453.36036130602179
 11
393.57975338752044
 21
457.76036130597788
  0
LINE
  8
_1-2_極細2
  6
CONTINUOUS
 62
    2
 10
396.84838253757812
 20
453.36036130602179
 11
392.44838253762214
 21
457.76036130597788
  0
LINE
  8
_1-2_極細2
  6
CONTINUOUS
 62
    2
 10
395.71701168767981
 20
453.36036130602179
 11
391.31701168772383
 21
457.76036130597788
  0
LINE
  8
_1-2_極細2
  6
CONTINUOUS
 62
    2
 10
394.58564083778151
 20
453.36036130602179
 11
390.18564083782496
 21
457.76036130597788
  0
LINE
  8
_1-2_極細2
  6
CONTINUOUS
 62
    2
 10
393.45426998788321
 20
453.36036130602179
 11
389.05426998792666
 21
457.76036130597788
  0
LINE
  8
_1-2_極細2
  6
CONTINUOUS
 62
    2
 10
392.3228991379849
 20
453.36036130602179
 11
387.92289913802836
 21
457.76036130597788
  0
LINE
  8
_1-2_極細2
  6
CONTINUOUS
 62
    2
 10
391.1915282880866
 20
453.36036130602179
 11
386.79152828813005
 21
457.76036130597788
  0
LINE
  8
_1-2_極細2
  6
CONTINUOUS
 62
    2
 10
390.06015743818807
 20
453.36036130602179
 11
385.66015743823175
 21
457.76036130597788
  0
LINE
  8
_1-2_極細2
  6
CONTINUOUS
 62
    2
 10
388.92878658828977
 20
453.36036130602179
 11
384.52878658833345
 21
457.76036130597788
  0
LINE
  8
_1-2_極細2
  6
CONTINUOUS
 62
    2
 10
387.79741573839146
 20
453.36036130602179
 11
383.39741573843514
 21
457.76036130597788
  0
LINE
  8
_1-2_極細2
  6
CONTINUOUS
 62
    2
 10
386.66604488849316
 20
453.36036130602179
 11
382.26604488853684
 21
457.76036130597788
  0
LINE
  8
_1-2_極細2
  6
CONTINUOUS
 62
    2
 10
385.53467403859486
 20
453.36036130602179
 11
381.1346740386382
 21
457.76036130597788
  0
LINE
  8
_1-2_極細2
  6
CONTINUOUS
 62
    2
 10
384.40330318869655
 20
453.36036130602179
 11
380.00330318873989
 21
457.76036130597788
  0
LINE
  8
_1-2_極細2
  6
CONTINUOUS
 62
    2
 10
383.27193233879825
 20
453.36036130602179
 11
378.87193233884159
 21
457.76036130597788
  0
LINE
  8
_1-2_極細2
  6
CONTINUOUS
 62
    2
 10
382.14056148889995
 20
453.36036130602179
 11
377.74056148894329
 21
457.76036130597788
  0
LINE
  8
_1-2_極細2
  6
CONTINUOUS
 62
    2
 10
381.00919063900096
 20
453.36036130602179
 11
376.60919063904498
 21
457.76036130597788
  0
LINE
  8
_1-2_極細2
  6
CONTINUOUS
 62
    2
 10
379.87781978910266
 20
453.36036130602179
 11
375.47781978914668
 21
457.76036130597788
  0
LINE
  8
_1-2_極細2
  6
CONTINUOUS
 62
    2
 10
378.74644893920436
 20
453.36036130602179
 11
374.77184574762987
 21
457.33496449759662
  0
LINE
  8
_1-2_極細2
  6
CONTINUOUS
 62
    2
 10
377.61507808930605
 20
453.36036130602179
 11
374.77184574762987
 21
456.20359364769831
  0
LINE
  8
_1-2_極細2
  6
CONTINUOUS
 62
    2
 10
376.48370723940775
 20
453.36036130602179
 11
374.77184574762987
 21
455.0722227977999
  0
LINE
  8
_1-2_極細2
  6
CONTINUOUS
 62
    2
 10
375.35233638950945
 20
453.36036130602179
 11
374.77184574762987
 21
453.94085194790159
  0
LINE
  8
_1-2_極細2
  6
CONTINUOUS
 62
    2
 10
371.72465955474911
 20
358.96036130696666
 11
374.77184574762987
 21
362.00754749984719
  0
LINE
  8
_1-2_極細2
  6
CONTINUOUS
 62
    2
 10
366.06780530525668
 20
358.96036130696666
 11
374.77184574762987
 21
367.66440174933962
  0
LINE
  8
_1-2_極細2
  6
CONTINUOUS
 62
    2
 10
360.4109510557646
 20
358.96036130696666
 11
372.41095105564455
 21
370.96036130684661
  0
LINE
  8
_1-2_極細2
  6
CONTINUOUS
 62
    2
 10
294.75409680687176
 20
298.96036130756659
 11
294.77184582763005
 21
298.9781103283251
  0
LINE
  8
_1-2_極細2
  6
CONTINUOUS
 62
    2
 10
354.75409680627183
 20
358.96036130696666
 11
366.75409680615178
 21
370.96036130684661
  0
LINE
  8
_1-2_極細2
  6
CONTINUOUS
 62
    2
 10
289.09724255737933
 20
298.96036130756659
 11
294.77184582763005
 21
304.63496457781753
  0
LINE
  8
_1-2_極細2
  6
CONTINUOUS
 62
    2
 10
349.09724255677941
 20
358.96036130696666
 11
361.09724255665935
 21
370.96036130684661
  0
LINE
  8
_1-2_極細2
  6
CONTINUOUS
 62
    2
 10
285.37184583703061
 20
300.89181883671029
 11
294.77184582763005
 21
310.29181882730995
  0
LINE
  8
_1-2_極細2
  6
CONTINUOUS
 62
    2
 10
343.44038830728698
 20
358.96036130696666
 11
355.44038830716693
 21
370.96036130684661
  0
LINE
  8
_1-2_極細2
  6
CONTINUOUS
 62
    2
 10
285.37184583703061
 20
306.54867308620271
 11
294.77184582763005
 21
315.94867307680238
  0
LINE
  8
_1-2_極細2
  6
CONTINUOUS
 62
    2
 10
337.78353405779455
 20
358.96036130696666
 11
349.7835340576745
 21
370.96036130684661
  0
LINE
  8
_1-2_極細2
  6
CONTINUOUS
 62
    2
 10
285.37184583703061
 20
312.20552733569514
 11
294.77184582763005
 21
321.6055273262948
  0
LINE
  8
_1-2_極細2
  6
CONTINUOUS
 62
    2
 10
332.12667980830247
 20
358.96036130696666
 11
344.12667980818242
 21
370.96036130684661
  0
LINE
  8
_1-2_極細2
  6
CONTINUOUS
 62
    2
 10
285.37184583703061
 20
317.86238158518756
 11
294.77184582763005
 21
327.26238157578723
  0
LINE
  8
_1-2_極細2
  6
CONTINUOUS
 62
    2
 10
326.4698255588097
 20
358.96036130696666
 11
338.46982555868965
 21
370.96036130684661
  0
LINE
  8
_1-2_極細2
  6
CONTINUOUS
 62
    2
 10
285.37184583703061
 20
323.51923583467999
 11
294.77184582763005
 21
332.91923582527971
  0
LINE
  8
_1-2_極細2
  6
CONTINUOUS
 62
    2
 10
320.81297130931728
 20
358.96036130696666
 11
332.81297130919722
 21
370.96036130684661
  0
LINE
  8
_1-2_極細2
  6
CONTINUOUS
 62
    2
 10
285.37184583703061
 20
329.17609008417242
 11
294.77184582763005
 21
338.57609007477214
  0
LINE
  8
_1-2_極細2
  6
CONTINUOUS
 62
    2
 10
315.15611705982485
 20
358.96036130696666
 11
327.1561170597048
 21
370.96036130684661
  0
LINE
  8
_1-2_極細2
  6
CONTINUOUS
 62
    2
 10
285.37184583703061
 20
334.83294433366484
 11
294.77184582763005
 21
344.23294432426457
  0
LINE
  8
_1-2_極細2
  6
CONTINUOUS
 62
    2
 10
309.49926281033243
 20
358.96036130696666
 11
321.49926281021237
 21
370.96036130684661
  0
LINE
  8
_1-2_極細2
  6
CONTINUOUS
 62
    2
 10
285.37184583703061
 20
340.48979858315727
 11
294.77184582763005
 21
349.88979857375699
  0
LINE
  8
_1-2_極細2
  6
CONTINUOUS
 62
    2
 10
303.84240856084011
 20
358.96036130696666
 11
315.84240856072006
 21
370.96036130684661
  0
LINE
  8
_1-2_極細2
  6
CONTINUOUS
 62
    2
 10
285.37184583703061
 20
346.14665283264969
 11
294.77184582763005
 21
355.54665282324942
  0
LINE
  8
_1-2_極細2
  6
CONTINUOUS
 62
    2
 10
298.18555431134757
 20
358.96036130696666
 11
310.18555431122752
 21
370.96036130684661
  0
LINE
  8
_1-2_極細2
  6
CONTINUOUS
 62
    2
 10
285.37184583703061
 20
351.80350708214212
 11
304.52870006173521
 21
370.96036130684661
  0
LINE
  8
_1-2_極細2
  6
CONTINUOUS
 62
    2
 10
285.37184583703061
 20
357.46036133163454
 11
298.87184581224267
 21
370.96036130684661
  0
LINE
  8
_1-2_極細2
  6
CONTINUOUS
 62
    2
 10
285.37184583703061
 20
363.11721558112697
 11
294.77184582763005
 21
372.51721557172669
  0
LINE
  8
_1-2_極細2
  6
CONTINUOUS
 62
    2
 10
285.37184583703061
 20
368.7740698306194
 11
294.77184582763005
 21
378.17406982121912
  0
LINE
  8
_1-2_極細2
  6
CONTINUOUS
 62
    2
 10
285.37184583703061
 20
374.43092408011182
 11
294.77184582763005
 21
383.83092407071155
  0
LINE
  8
_1-2_極細2
  6
CONTINUOUS
 62
    2
 10
285.37184583703061
 20
380.08777832960425
 11
294.77184582763005
 21
389.48777832020397
  0
LINE
  8
_1-2_極細2
  6
CONTINUOUS
 62
    2
 10
285.37184583703061
 20
385.74463257909667
 11
294.77184582763005
 21
395.1446325696964
  0
LINE
  8
_1-2_極細2
  6
CONTINUOUS
 62
    2
 10
285.37184583703061
 20
391.4014868285891
 11
294.77184582763005
 21
400.80148681918882
  0
LINE
  8
_1-2_極細2
  6
CONTINUOUS
 62
    2
 10
285.37184583703061
 20
397.05834107808153
 11
294.51407706312841
 21
406.20057230417962
  0
LINE
  8
_1-2_極細2
  6
CONTINUOUS
 62
    2
 10
285.37184583703061
 20
402.71519532757395
 11
293.882441470608
 21
411.22579096115152
  0
LINE
  8
_1-2_極細2
  6
CONTINUOUS
 62
    2
 10
285.37184583703061
 20
408.37204957706638
 11
293.25080587808748
 21
416.25100961812342
  0
LINE
  8
_1-2_極細2
  6
CONTINUOUS
 62
    2
 10
285.37184583703061
 20
414.0289038265588
 11
292.61917028556695
 21
421.27622827509532
  0
LINE
  8
_1-2_極細2
  6
CONTINUOUS
 62
    2
 10
285.37184583703061
 20
419.68575807605123
 11
291.98753469304643
 21
426.30144693206722
  0
LINE
  8
_1-2_極細2
  6
CONTINUOUS
 62
    2
 10
285.37184583703061
 20
425.34261232554366
 11
291.3558991005259
 21
431.32666558903912
  0
LINE
  8
_1-2_極細2
  6
CONTINUOUS
 62
    2
 10
285.37184583703061
 20
430.99946657503608
 11
290.72426350800527
 21
436.35188424601102
  0
LINE
  8
_1-2_極細2
  6
CONTINUOUS
 62
    2
 10
285.37184583703061
 20
436.65632082452851
 11
288.47588631866006
 21
439.76036130615796
  0
LINE
  8
_1-2_極細2
  6
CONTINUOUS
 62
    2
 10
281.37184584103056
 20
438.31317507802089
 11
287.67033182146702
 21
444.61166105845734
  0
LINE
  8
_1-2_極細2
  6
CONTINUOUS
 62
    2
 10
281.37184584103056
 20
443.97002932751332
 11
287.03869607299134
 21
449.63687955947444
  0
LINE
  8
_1-2_極細2
  6
CONTINUOUS
 62
    2
 10
281.37184584103056
 20
449.62688357700574
 11
286.40706032451612
 21
454.6620980604913
  0
LINE
  8
_1-2_極細2
  6
CONTINUOUS
 62
    2
 10
280.12981192009522
 20
454.04170390556283
 11
285.77542457604045
 21
459.68731656150823
  0
LINE
  8
_1-2_極細2
  6
CONTINUOUS
 62
    2
 10
277.21049947207553
 20
456.77924570703544
 11
284.64367047614928
 21
464.21241671110931
  0
LINE
  8
_1-2_極細2
  6
CONTINUOUS
 62
    2
 10
272.53476082152542
 20
457.76036130597788
 11
280.5347608175905
 21
465.76036130204312
  0
LINE
  8
_1-2_極細2
  6
CONTINUOUS
 62
    2
 10
266.877906572033
 20
457.76036130597788
 11
274.87790656872551
 21
465.7603613026705
  0
LINE
  8
_1-2_極細2
  6
CONTINUOUS
 62
    2
 10
261.22105232254057
 20
457.76036130597788
 11
269.22105231986029
 21
465.7603613032976
  0
LINE
  8
_1-2_極細2
  6
CONTINUOUS
 62
    2
 10
255.56419807304815
 20
457.76036130597788
 11
263.56419807099542
 21
465.76036130392504
  0
LINE
  8
_1-2_極細2
  6
CONTINUOUS
 62
    2
 10
249.90734382355572
 20
457.76036130597788
 11
257.90734382213009
 21
465.76036130455213
  0
LINE
  8
_1-2_極細2
  6
CONTINUOUS
 62
    2
 10
245.77184587662964
 20
459.28171760854423
 11
252.25048957326476
 21
465.76036130517969
  0
LINE
  8
_1-2_極細2
  6
CONTINUOUS
 62
    2
 10
245.77184587662964
 20
464.93857185803665
 11
246.59363532439988
 21
465.76036130580678
  0
LINE
  8
_1-2_極細2
  6
CONTINUOUS
 62
    2
 10
374.77184574762987
 20
368.77204961666359
 11
372.5835340574464
 21
370.96036130684661
  0
LINE
  8
_1-2_極細2
  6
CONTINUOUS
 62
    2
 10
286.0512840862541
 20
457.49261127803976
 11
277.7835340619456
 21
465.76036130234826
  0
LINE
  8
_1-2_極細2
  6
CONTINUOUS
 62
    2
 10
374.77184574762987
 20
363.11519536717151
 11
366.92667980795477
 21
370.96036130684661
  0
LINE
  8
_1-2_極細2
  6
CONTINUOUS
 62
    2
 10
286.86453185445157
 20
451.02250926034986
 11
272.12667981182608
 21
465.76036130297553
  0
LINE
  8
_1-2_極細2
  6
CONTINUOUS
 62
    2
 10
373.26982555834206
 20
358.96036130696666
 11
361.26982555846212
 21
370.96036130684661
  0
LINE
  8
_1-2_極細2
  6
CONTINUOUS
 62
    2
 10
287.67777962264904
 20
444.55240724266014
 11
281.28337808069193
 21
450.94680878461679
  0
LINE
  8
_1-2_極細2
  6
CONTINUOUS
 62
    2
 10
274.55829332758935
 20
457.67189353771965
 11
266.46982556170644
 21
465.76036130360274
  0
LINE
  8
_1-2_極細2
  6
CONTINUOUS
 62
    2
 10
367.61297130884964
 20
358.96036130696666
 11
355.61297130896969
 21
370.96036130684661
  0
LINE
  8
_1-2_極細2
  6
CONTINUOUS
 62
    2
 10
290.7965498249107
 20
435.77678279090617
 11
281.37184584103056
 21
445.2014867747863
  0
LINE
  8
_1-2_極細2
  6
CONTINUOUS
 62
    2
 10
268.81297130983899
 20
457.76036130597788
 11
260.81297131158703
 21
465.76036130423017
  0
LINE
  8
_1-2_極細2
  6
CONTINUOUS
 62
    2
 10
361.95611705935721
 20
358.96036130696666
 11
349.95611705947726
 21
370.96036130684661
  0
LINE
  8
_1-2_極細2
  6
CONTINUOUS
 62
    2
 10
291.60979733457737
 20
429.30668103174685
 11
285.37184583703061
 21
435.54463252929372
  0
LINE
  8
_1-2_極細2
  6
CONTINUOUS
 62
    2
 10
283.15611706014647
 20
437.76036130617797
 11
281.37184584103056
 21
439.54463252529388
  0
LINE
  8
_1-2_極細2
  6
CONTINUOUS
 62
    2
 10
263.15611706034656
 20
457.76036130597788
 11
255.15611706146706
 21
465.76036130485738
  0
LINE
  8
_1-2_極細2
  6
CONTINUOUS
 62
    2
 10
356.29926280986479
 20
358.96036130696666
 11
344.29926280998484
 21
370.96036130684661
  0
LINE
  8
_1-2_極細2
  6
CONTINUOUS
 62
    2
 10
292.42304484424471
 20
422.8365792725873
 11
285.37184583703061
 21
429.8877782798013
  0
LINE
  8
_1-2_極細2
  6
CONTINUOUS
 62
    2
 10
257.49926281085413
 20
457.76036130597788
 11
249.49926281134742
 21
465.76036130548465
  0
LINE
  8
_1-2_極細2
  6
CONTINUOUS
 62
    2
 10
350.64240856037259
 20
358.96036130696666
 11
338.64240856049264
 21
370.96036130684661
  0
LINE
  8
_1-2_極細2
  6
CONTINUOUS
 62
    2
 10
293.23629235391149
 20
416.36647751342798
 11
285.37184583703061
 21
424.23092403030898
  0
LINE
  8
_1-2_極細2
  6
CONTINUOUS
 62
    2
 10
251.84240856136171
 20
457.76036130597788
 11
245.77184587662964
 21
463.83092399071029
  0
LINE
  8
_1-2_極細2
  6
CONTINUOUS
 62
    2
 10
344.98555431088027
 20
358.96036130696666
 11
332.98555431100033
 21
370.96036130684661
  0
LINE
  8
_1-2_極細2
  6
CONTINUOUS
 62
    2
 10
294.04953986357873
 20
409.89637575426843
 11
285.37184583703061
 21
418.57406978081656
  0
LINE
  8
_1-2_極細2
  6
CONTINUOUS
 62
    2
 10
246.18555431186928
 20
457.76036130597788
 11
245.77184587662964
 21
458.17406974121786
  0
LINE
  8
_1-2_極細2
  6
CONTINUOUS
 62
    2
 10
339.32870006138785
 20
358.96036130696666
 11
327.3287000615079
 21
370.96036130684661
  0
LINE
  8
_1-2_極細2
  6
CONTINUOUS
 62
    2
 10
294.77184582763005
 20
403.51721554072458
 11
285.37184583703061
 21
412.91721553132413
  0
LINE
  8
_1-2_極細2
  6
CONTINUOUS
 62
    2
 10
333.67184581189576
 20
358.96036130696666
 11
321.67184581201582
 21
370.96036130684661
  0
LINE
  8
_1-2_極細2
  6
CONTINUOUS
 62
    2
 10
294.77184582763005
 20
397.86036129123232
 11
285.37184583703061
 21
407.26036128183171
  0
LINE
  8
_1-2_極細2
  6
CONTINUOUS
 62
    2
 10
328.014991562403
 20
358.96036130696666
 11
316.01499156252305
 21
370.96036130684661
  0
LINE
  8
_1-2_極細2
  6
CONTINUOUS
 62
    2
 10
294.77184582763005
 20
392.2035070417399
 11
285.37184583703061
 21
401.60350703233928
  0
LINE
  8
_1-2_極細2
  6
CONTINUOUS
 62
    2
 10
322.35813731291057
 20
358.96036130696666
 11
310.35813731303074
 21
370.96036130684661
  0
LINE
  8
_1-2_極細2
  6
CONTINUOUS
 62
    2
 10
294.77184582763005
 20
386.54665279224747
 11
285.37184583703061
 21
395.9466527828472
  0
LINE
  8
_1-2_極細2
  6
CONTINUOUS
 62
    2
 10
316.70128306341815
 20
358.96036130696666
 11
304.7012830635382
 21
370.96036130684661
  0
LINE
  8
_1-2_極細2
  6
CONTINUOUS
 62
    2
 10
294.77184582763005
 20
380.88979854275505
 11
285.37184583703061
 21
390.28979853335477
  0
LINE
  8
_1-2_極細2
  6
CONTINUOUS
 62
    2
 10
311.04442881392629
 20
358.96036130696666
 11
299.04442881404634
 21
370.96036130684661
  0
LINE
  8
_1-2_極細2
  6
CONTINUOUS
 62
    2
 10
294.77184582763005
 20
375.23294429326262
 11
285.37184583703061
 21
384.63294428386234
  0
LINE
  8
_1-2_極細2
  6
CONTINUOUS
 62
    2
 10
305.38757456443386
 20
358.96036130696666
 11
285.37184583703061
 21
378.97609003436992
  0
LINE
  8
_1-2_極細2
  6
CONTINUOUS
 62
    2
 10
299.73072031494144
 20
358.96036130696666
 11
285.37184583703061
 21
373.31923578487749
  0
LINE
  8
_1-2_極細2
  6
CONTINUOUS
 62
    2
 10
294.77184582763005
 20
358.26238154478534
 11
285.37184583703061
 21
367.66238153538535
  0
LINE
  8
_1-2_極細2
  6
CONTINUOUS
 62
    2
 10
294.77184582763005
 20
352.60552729529292
 11
285.37184583703061
 21
362.00552728589264
  0
LINE
  8
_1-2_極細2
  6
CONTINUOUS
 62
    2
 10
294.77184582763005
 20
346.94867304580077
 11
285.37184583703061
 21
356.3486730364005
  0
LINE
  8
_1-2_極細2
  6
CONTINUOUS
 62
    2
 10
294.77184582763005
 20
341.29181879630835
 11
285.37184583703061
 21
350.69181878690807
  0
LINE
  8
_1-2_極細2
  6
CONTINUOUS
 62
    2
 10
294.77184582763005
 20
335.63496454681592
 11
285.37184583703061
 21
345.03496453741565
  0
LINE
  8
_1-2_極細2
  6
CONTINUOUS
 62
    2
 10
294.77184582763005
 20
329.9781102973235
 11
285.37184583703061
 21
339.37811028792322
  0
LINE
  8
_1-2_極細2
  6
CONTINUOUS
 62
    2
 10
294.77184582763005
 20
324.32125604783107
 11
285.37184583703061
 21
333.72125603843079
  0
LINE
  8
_1-2_極細2
  6
CONTINUOUS
 62
    2
 10
294.77184582763005
 20
318.66440179833899
 11
285.37184583703061
 21
328.06440178893837
  0
LINE
  8
_1-2_極細2
  6
CONTINUOUS
 62
    2
 10
294.77184582763005
 20
313.00754754884622
 11
285.37184583703061
 21
322.40754753944589
  0
LINE
  8
_1-2_極細2
  6
CONTINUOUS
 62
    2
 10
294.77184582763005
 20
307.35069329935413
 11
285.37184583703061
 21
316.75069328995346
  0
LINE
  8
_1-2_極細2
  6
CONTINUOUS
 62
    2
 10
294.77184582763005
 20
301.69383904986171
 11
285.37184583703061
 21
311.09383904046103
  0
LINE
  8
_1-2_極細2
  6
CONTINUOUS
 62
    2
 10
291.84846932043251
 20
298.96036130756659
 11
285.37184583703061
 21
305.43698479096895
  0
LINE
  8
_1-2_極細2
  6
CONTINUOUS
 62
    2
 10
286.19161507094054
 20
298.96036130756659
 11
285.37184583703061
 21
299.78013054147652
  0
LINE
  8
_1-2_極細2
  6
CONTINUOUS
 62
    2
 10
288.24603589626372
 20
440.03142813240959
 11
290.03669627058139
 21
441.82208850672743
  0
LINE
  8
_1-2_極細2
  6
CONTINUOUS
 62
    2
 10
287.61439987034669
 20
445.05664635598498
 11
289.40506067806132
 21
446.8473071636995
  0
LINE
  8
_1-2_極細2
  6
CONTINUOUS
 62
    2
 10
286.98276384442966
 20
450.08186457956037
 11
288.77342508554068
 21
451.8725258206714
  0
LINE
  8
_1-2_極細2
  6
CONTINUOUS
 62
    2
 10
286.35112781851262
 20
455.10708280313577
 11
288.14178949302027
 21
456.89774447764341
  0
LINE
  8
_1-2_極細2
  6
CONTINUOUS
 62
    2
 10
285.71949179259559
 20
460.13230102671105
 11
287.51015390049963
 21
461.92296313461532
  0
LINE
  8
_1-2_極細2
  6
CONTINUOUS
 62
    2
 10
284.41356685342384
 20
464.48323033703173
 11
285.82841401754126
 21
465.89807750114915
  0
LINE
  8
_1-2_極細2
  6
CONTINUOUS
 62
    2
 10
280.03384357279742
 20
465.76036130589785
 11
282.01063256078089
 21
467.73715029388143
  0
LINE
  8
_1-2_極細2
  6
CONTINUOUS
 62
    2
 10
274.376989323305
 20
465.76036130589785
 11
276.37698931819455
 21
467.76036130078739
  0
LINE
  8
_1-2_極細2
  6
CONTINUOUS
 62
    2
 10
268.72013507381257
 20
465.76036130589785
 11
270.72013506964288
 21
467.76036130172827
  0
LINE
  8
_1-2_極細2
  6
CONTINUOUS
 62
    2
 10
263.06328082432015
 20
465.76036130589785
 11
265.06328082109144
 21
467.76036130266914
  0
LINE
  8
_1-2_極細2
  6
CONTINUOUS
 62
    2
 10
257.40642657482772
 20
465.76036130589785
 11
259.40642657253977
 21
467.76036130361001
  0
LINE
  8
_1-2_極細2
  6
CONTINUOUS
 62
    2
 10
251.74957232533529
 20
465.76036130589785
 11
253.74957232398833
 21
467.76036130455088
  0
LINE
  8
_1-2_極細2
  6
CONTINUOUS
 62
    2
 10
246.09271807584287
 20
465.76036130589785
 11
248.09271807543666
 21
467.76036130549193
  0
LINE
  8
_1-5_寸法2
  6
CONTINUOUS
 62
    7
 10
312.38735825306344
 20
387.53174541543922
 11
304.38735832066334
 21
373.67533891585941
  0
LINE
  8
_1-5_寸法2
  6
CONTINUOUS
 62
    7
 10
312.38735825306344
 20
387.53174541543922
 11
298.5309518315413
 21
379.53174534783938
  0
LINE
  8
_1-5_寸法2
  6
CONTINUOUS
 62
    7
 10
312.38735825306344
 20
387.53174541543922
 11
262.71066725077776
 21
337.85505392844817
  0
LINE
  8
_1-5_寸法2
  6
CONTINUOUS
 62
    7
 10
262.71066725077776
 20
337.85505392844817
 11
147.51066725077794
 21
337.85505392844817
  0
TEXT
  8
_1-5_寸法2
 62
    7
 10
147.51066725077794
 20
337.85505392844817
 40
24
 41
0.7999999999999998
 50
0
  1
ストレーナー
  0
LINE
  8
_1-5_寸法2
  6
CONTINUOUS
 62
    7
 10
451.05608790534336
 20
324.87629623253633
 11
462.95354282402639
 21
314.17813908011499
  0
LINE
  8
_1-5_寸法2
  6
CONTINUOUS
 62
    7
 10
451.05608790534336
 20
324.87629623253633
 11
456.01050752909225
 21
309.66269290551963
  0
LINE
  8
_1-5_寸法2
  6
CONTINUOUS
 62
    7
 10
451.05608790534336
 20
324.87629623253633
 11
519.93917474988052
 21
218.96036130756659
  0
LINE
  8
_1-5_寸法2
  6
CONTINUOUS
 62
    7
 10
519.93917474988052
 20
218.96036130756659
 11
577.53917474988054
 21
218.96036130756659
  0
TEXT
  8
_1-5_寸法2
 62
    7
 10
519.93917474988052
 20
218.96036130756659
 40
24
 41
0.7999999999999998
 50
0
  1
排水口
  0
LINE
  8
_1-5_寸法2
  6
CONTINUOUS
 62
    7
 10
494.99252216382376
 20
441.25188853509309
 11
509.95800254421306
 21
435.59199480957295
  0
LINE
  8
_1-5_寸法2
  6
CONTINUOUS
 62
    7
 10
494.99252216382376
 20
441.25188853509309
 11
505.12306149031849
 21
428.86753659587788
  0
LINE
  8
_1-5_寸法2
  6
CONTINUOUS
 62
    7
 10
494.99252216382376
 20
441.25188853509309
 11
564.88647146410312
 21
390.99756110057808
  0
LINE
  8
_1-5_寸法2
  6
CONTINUOUS
 62
    7
 10
564.88647146410312
 20
390.99756110057808
 11
680.08647146410306
 21
390.99756110057808
  0
TEXT
  8
_1-5_寸法2
 62
    7
 10
564.88647146410312
 20
390.99756110057808
 40
24
 41
0.7999999999999998
 50
0
  1
ロックナット
  0
LINE
  8
_1-5_寸法2
  6
CONTINUOUS
 62
    7
 10
493.64333201292288
 20
456.1260468401656
 11
497.25847209723099
 21
471.71228314566378
  0
LINE
  8
_1-5_寸法2
  6
CONTINUOUS
 62
    7
 10
493.64333201292288
 20
456.1260468401656
 11
504.56725331692223
 21
467.81655338796031
  0
LINE
  8
_1-5_寸法2
  6
CONTINUOUS
 62
    7
 10
493.64333201292288
 20
456.1260468401656
 11
548.17184565422872
 21
558.42702797243794
  0
LINE
  8
_1-5_寸法2
  6
CONTINUOUS
 62
    7
 10
548.17184565422872
 20
558.42702797243794
 11
624.97184565422856
 21
558.42702797243794
  0
TEXT
  8
_1-5_寸法2
 62
    7
 10
548.17184565422872
 20
558.42702797243794
 40
24
 41
0.7999999999999998
 50
0
  1
パッキン
  0
LINE
  8
_1-5_寸法2
  6
CONTINUOUS
 62
    7
 10
281.37184584103056
 20
286.94811064086025
 11
281.37184584102988
 21
210.96036130756659
  0
LINE
  8
_1-5_寸法2
  6
CONTINUOUS
 62
    7
 10
281.37184584102999
 20
218.96036130756659
 11
296.82665906165516
 21
223.1014660292069
  0
LINE
  8
_1-5_寸法2
  6
CONTINUOUS
 62
    7
 10
281.37184584102999
 20
218.96036130756659
 11
296.82665906165516
 21
214.81925658592627
  0
LINE
  8
_1-5_寸法2
  6
CONTINUOUS
 62
    7
 10
468.17184565422872
 20
286.94811064086025
 11
468.17184565422849
 21
210.96036130756659
  0
LINE
  8
_1-5_寸法2
  6
CONTINUOUS
 62
    7
 10
468.17184565422849
 20
218.96036130756659
 11
452.71703243360344
 21
214.81925658592627
  0
LINE
  8
_1-5_寸法2
  6
CONTINUOUS
 62
    7
 10
468.17184565422849
 20
218.96036130756659
 11
452.71703243360344
 21
223.10146602920702
  0
LINE
  8
_1-5_寸法2
  6
CONTINUOUS
 62
    7
 10
281.37184584102999
 20
218.96036130756659
 11
468.17184565422849
 21
218.96036130756659
  0
TEXT
  8
_1-5_寸法2
 62
    7
 10
350.77184574762907
 20
218.96036130756659
 40
24
 41
1
 50
0
  1
46.7
  0
LINE
  8
_1-2_極細2
  6
CENTER1
 62
    2
 10
374.77184574762987
 20
498.43793463890415
 11
374.77184574762987
 21
279.79535864109096
  0
LINE
  8
_1-5_寸法2
  6
CONTINUOUS
 62
    7
 10
480.17184565822868
 20
298.96036130756647
 11
556.17184565422872
 21
298.96036130756625
  0
LINE
  8
_1-5_寸法2
  6
CONTINUOUS
 62
    7
 10
548.17184565422872
 20
298.96036130756625
 11
544.0307409325884
 21
314.41517452819141
  0
LINE
  8
_1-5_寸法2
  6
CONTINUOUS
 62
    7
 10
548.17184565422872
 20
298.96036130756625
 11
552.31295037586904
 21
314.41517452819141
  0
LINE
  8
_1-5_寸法2
  6
CONTINUOUS
 62
    7
 10
494.77184564363006
 20
390.16036130665412
 11
556.17184565422872
 21
390.16036130665384
  0
LINE
  8
_1-5_寸法2
  6
CONTINUOUS
 62
    7
 10
548.17184565422872
 20
390.1603613066539
 11
552.31295037586904
 21
374.70554808602878
  0
LINE
  8
_1-5_寸法2
  6
CONTINUOUS
 62
    7
 10
548.17184565422872
 20
390.1603613066539
 11
544.0307409325884
 21
374.70554808602878
  0
LINE
  8
_1-5_寸法2
  6
CONTINUOUS
 62
    7
 10
548.17184565422872
 20
298.96036130756625
 11
548.17184565422872
 21
390.1603613066539
  0
TEXT
  8
_1-5_寸法2
 62
    7
 10
548.17184565422872
 20
332.5603613071101
 40
24
 41
1
 50
90
  1
23
  0
LINE
  8
_1-5_寸法2
  6
CONTINUOUS
 62
    7
 10
276.77184574762987
 20
492.16036130602288
 11
276.77184574762998
 21
542.96036186923561
  0
LINE
  8
_1-5_寸法2
  6
CONTINUOUS
 62
    7
 10
276.77184574762998
 20
534.96036186923561
 11
292.22665896825515
 21
539.10146659087593
  0
LINE
  8
_1-5_寸法2
  6
CONTINUOUS
 62
    7
 10
276.77184574762998
 20
534.96036186923561
 11
292.22665896825515
 21
530.81925714759529
  0
LINE
  8
_1-5_寸法2
  6
CONTINUOUS
 62
    7
 10
472.77184574762987
 20
492.16036130602288
 11
472.77184574762998
 21
542.96036186923561
  0
LINE
  8
_1-5_寸法2
  6
CONTINUOUS
 62
    7
 10
472.77184574762998
 20
534.96036186923561
 11
457.31703252700481
 21
530.81925714759529
  0
LINE
  8
_1-5_寸法2
  6
CONTINUOUS
 62
    7
 10
472.77184574762998
 20
534.96036186923561
 11
457.31703252700493
 21
539.10146659087604
  0
LINE
  8
_1-5_寸法2
  6
CONTINUOUS
 62
    7
 10
276.77184574762998
 20
534.96036186923561
 11
472.77184574762998
 21
534.96036186923561
  0
TEXT
  8
_1-5_寸法2
 62
    7
 10
317.77184574762998
 20
534.96036186923561
 40
24
 41
1
 50
0
  1
φ49___±0.5
  0
LINE
  8
_1-5_寸法2
  6
CONTINUOUS
 62
    7
 10
244.77184574762987
 20
492.16036130602271
 11
244.77184574762998
 21
598.96036186923561
  0
LINE
  8
_1-5_寸法2
  6
CONTINUOUS
 62
    7
 10
244.77184574762998
 20
590.96036186923561
 11
260.22665896825515
 21
595.10146659087593
  0
LINE
  8
_1-5_寸法2
  6
CONTINUOUS
 62
    7
 10
244.77184574762998
 20
590.96036186923561
 11
260.22665896825515
 21
586.81925714759529
  0
LINE
  8
_1-5_寸法2
  6
CONTINUOUS
 62
    7
 10
504.77184574762987
 20
492.16036130602271
 11
504.77184574762998
 21
598.96036186923561
  0
LINE
  8
_1-5_寸法2
  6
CONTINUOUS
 62
    7
 10
504.77184574762998
 20
590.96036186923561
 11
489.31703252700481
 21
586.81925714759529
  0
LINE
  8
_1-5_寸法2
  6
CONTINUOUS
 62
    7
 10
504.77184574762998
 20
590.96036186923561
 11
489.31703252700493
 21
595.10146659087604
  0
LINE
  8
_1-5_寸法2
  6
CONTINUOUS
 62
    7
 10
244.77184574762998
 20
590.96036186923561
 11
504.77184574762998
 21
590.96036186923561
  0
TEXT
  8
_1-5_寸法2
 62
    7
 10
317.77184574762998
 20
590.96036186923561
 40
24
 41
1
 50
0
  1
φ65___±0.3
  0
TEXT
  8
_0-7_枠細線
 62
    5
 10
297.17805755395148
 20
632.96677840702478
 40
32
 41
0.8
 50
0
  1
排水部詳細図
  0
TEXT
  8
_0-7_枠細線
 62
    5
 10
472.8133289501136
 20
632.96677840702478
 40
32
 41
0.6000000000000002
 50
0
  1
Ｓ＝１：２
  0
LINE
  8
_1-2_極細2
  6
CONTINUOUS
 62
    2
 10
1513.1999999999991
 20
388.16036130602242
 11
1513.1999999999991
 21
417.36036130602224
  0
LINE
  8
_1-2_極細2
  6
CONTINUOUS
 62
    2
 10
1515.9999999999993
 20
388.16036130602242
 11
1516.0000000000002
 21
420.16036130602288
  0
LINE
  8
_1-2_極細2
  6
CONTINUOUS
 62
    2
 10
1513.1999999999991
 20
388.16036130602242
 11
1515.9999999999993
 21
388.16036130602242
  0
LINE
  8
_1-2_極細2
  6
CONTINUOUS
 62
    2
 10
940
 20
388.16036130602299
 11
940
 21
420.16036130602288
  0
LINE
  8
_1-2_極細2
  6
CONTINUOUS
 62
    2
 10
942.80000000000018
 20
388.16036130602242
 11
942.79999999999836
 21
417.36036130602281
  0
LINE
  8
_1-2_極細2
  6
CONTINUOUS
 62
    2
 10
940
 20
388.16036130602299
 11
942.80000000000018
 21
388.16036130602299
  0
LINE
  8
_1-2_極細2
  6
CONTINUOUS
 62
    2
 10
981.20000000000164
 20
340.16036130602242
 11
981.20000000000164
 21
417.36036130602224
  0
LINE
  8
_1-2_極細2
  6
CONTINUOUS
 62
    2
 10
984
 20
342.96036130602306
 11
984
 21
420.16036130602288
  0
LINE
  8
_1-2_極細2
  6
CONTINUOUS
 62
    2
 10
942.80000000000018
 20
417.36036130602224
 11
981.20000000000164
 21
417.36036130602224
  0
LINE
  8
_1-2_極細2
  6
CONTINUOUS
 62
    2
 10
940
 20
420.16036130602288
 11
984
 21
420.16036130602288
  0
LINE
  8
_1-2_極細2
  6
CONTINUOUS
 62
    2
 10
1472.0000000000002
 20
342.96036130602306
 11
1472.0000000000002
 21
420.16036130602288
  0
LINE
  8
_1-2_極細2
  6
CONTINUOUS
 62
    2
 10
1474.7999999999977
 20
340.16036130602242
 11
1474.7999999999977
 21
417.36036130602224
  0
LINE
  8
_1-2_極細2
  6
CONTINUOUS
 62
    2
 10
1472.0000000000002
 20
420.16036130602288
 11
1516.0000000000002
 21
420.16036130602288
  0
LINE
  8
_1-2_極細2
  6
CONTINUOUS
 62
    2
 10
1474.7999999999977
 20
417.36036130602224
 11
1513.1999999999991
 21
417.36036130602224
  0
LINE
  8
_1-2_極細2
  6
CONTINUOUS
 62
    2
 10
984
 20
342.96036130602306
 11
1472.0000000000002
 21
342.96036130602306
  0
LINE
  8
_1-5_寸法2
  6
CONTINUOUS
 62
    7
 10
965.20000000000164
 20
340.16036130602248
 11
844
 21
340.16036130602293
  0
LINE
  8
_1-5_寸法2
  6
CONTINUOUS
 62
    7
 10
860
 20
340.16036130602288
 11
855.85889527835968
 21
355.61517452664799
  0
LINE
  8
_1-5_寸法2
  6
CONTINUOUS
 62
    7
 10
860
 20
340.16036130602288
 11
864.14110472164032
 21
355.61517452664799
  0
LINE
  8
_1-5_寸法2
  6
CONTINUOUS
 62
    7
 10
924
 20
388.16036130602305
 11
844
 21
388.16036130602339
  0
LINE
  8
_1-5_寸法2
  6
CONTINUOUS
 62
    7
 10
860
 20
388.16036130602333
 11
864.1411047216402
 21
372.70554808539822
  0
LINE
  8
_1-5_寸法2
  6
CONTINUOUS
 62
    7
 10
860
 20
388.16036130602333
 11
855.85889527835957
 21
372.70554808539828
  0
LINE
  8
_1-5_寸法2
  6
CONTINUOUS
 62
    7
 10
860
 20
340.16036130602288
 11
860
 21
388.16036130602333
  0
TEXT
  8
_1-5_寸法2
 62
    7
 10
860
 20
352.16036130602333
 40
24
 41
1
 50
90
  1
12
  0
LINE
  8
_1-5_寸法2
  6
CONTINUOUS
 62
    7
 10
860
 20
388.16036130602333
 11
855.85889527835968
 21
403.61517452664845
  0
LINE
  8
_1-5_寸法2
  6
CONTINUOUS
 62
    7
 10
860
 20
388.16036130602333
 11
864.14110472164032
 21
403.61517452664845
  0
LINE
  8
_1-5_寸法2
  6
CONTINUOUS
 62
    7
 10
924
 20
420.16036130602293
 11
844
 21
420.16036130602322
  0
LINE
  8
_1-5_寸法2
  6
CONTINUOUS
 62
    7
 10
860
 20
420.16036130602316
 11
864.1411047216402
 21
404.70554808539805
  0
LINE
  8
_1-5_寸法2
  6
CONTINUOUS
 62
    7
 10
860
 20
420.16036130602316
 11
855.85889527835957
 21
404.70554808539811
  0
LINE
  8
_1-5_寸法2
  6
CONTINUOUS
 62
    7
 10
860
 20
388.16036130602333
 11
860
 21
420.16036130602316
  0
TEXT
  8
_1-5_寸法2
 62
    7
 10
860
 20
398.16036130602333
 40
24
 41
1
 50
90
  1
8
  0
LINE
  8
_1-3_細線2
  6
CONTINUOUS
 62
    4
 10
1429.8000000000002
 20
381.30036186923553
 11
1429.8000000000002
 21
365.42036186923542
  0
LINE
  8
_1-3_細線2
  6
CONTINUOUS
 62
    4
 10
1274.2
 20
410.1603618692352
 11
1243.8000000000022
 21
410.1603618692352
  0
LINE
  8
_1-3_細線2
  6
CONTINUOUS
 62
    4
 10
1243.8000000000022
 20
410.1603618692352
 11
1243.8000000000022
 21
350.96036186923561
  0
LINE
  8
_1-3_細線2
  6
CONTINUOUS
 62
    4
 10
1429.8000000000002
 20
410.1603618692352
 11
1429.8000000000002
 21
350.96036186923561
  0
LINE
  8
_1-3_細線2
  6
CONTINUOUS
 62
    4
 10
1336.1999999999982
 20
410.1603618692352
 11
1305.8000000000004
 21
410.1603618692352
  0
LINE
  8
_1-3_細線2
  6
CONTINUOUS
 62
    4
 10
1398.1999999999982
 20
410.1603618692352
 11
1367.7999999999986
 21
410.1603618692352
  0
LINE
  8
_1-3_細線2
  6
CONTINUOUS
 62
    4
 10
1460.1999999999991
 20
410.1603618692352
 11
1429.8000000000002
 21
410.1603618692352
  0
LINE
  8
_1-3_細線2
  6
CONTINUOUS
 62
    4
 10
1367.7999999999986
 20
410.1603618692352
 11
1367.7999999999986
 21
350.96036186923561
  0
LINE
  8
_1-3_細線2
  6
CONTINUOUS
 62
    4
 10
1305.8000000000004
 20
410.1603618692352
 11
1305.8000000000004
 21
350.96036186923561
  0
LINE
  8
_1-3_細線2
  6
CONTINUOUS
 62
    4
 10
1181.8000000000004
 20
410.1603618692352
 11
1212.200000000001
 21
410.1603618692352
  0
LINE
  8
_1-3_細線2
  6
CONTINUOUS
 62
    4
 10
1212.200000000001
 20
410.1603618692352
 11
1212.200000000001
 21
350.96036186923561
  0
LINE
  8
_1-3_細線2
  6
CONTINUOUS
 62
    4
 10
1119.8000000000013
 20
410.1603618692352
 11
1150.2000000000019
 21
410.1603618692352
  0
LINE
  8
_1-3_細線2
  6
CONTINUOUS
 62
    4
 10
1150.2000000000019
 20
410.1603618692352
 11
1150.2000000000019
 21
350.96036186923561
  0
LINE
  8
_1-3_細線2
  6
CONTINUOUS
 62
    4
 10
1026.2000000000037
 20
410.1603618692352
 11
1026.2000000000037
 21
350.96036186923561
  0
LINE
  8
_1-3_細線2
  6
CONTINUOUS
 62
    4
 10
1057.8000000000022
 20
410.1603618692352
 11
1088.2000000000028
 21
410.1603618692352
  0
LINE
  8
_1-3_細線2
  6
CONTINUOUS
 62
    4
 10
995.80000000000405
 20
410.1603618692352
 11
1026.2000000000037
 21
410.1603618692352
  0
LINE
  8
_1-3_細線2
  6
CONTINUOUS
 62
    4
 10
1088.2000000000028
 20
410.1603618692352
 11
1088.2000000000028
 21
350.96036186923561
  0
ARC
  8
_1-3_細線2
  6
CONTINUOUS
 62
    4
 10
1460.2000000000003
 20
410.16036186923566
 40
4.7999999999999998
 50
0
 51
89.999999999999915
  0
LINE
  8
_1-3_細線2
  6
CONTINUOUS
 62
    4
 10
1424.9999999999991
 20
410.16036186923566
 11
1424.9999999999991
 21
350.96036186923561
  0
LINE
  8
_1-3_細線2
  6
CONTINUOUS
 62
    4
 10
1460.2000000000003
 20
414.96036186923567
 11
1429.7999999999988
 21
414.96036186923567
  0
ARC
  8
_1-3_細線2
  6
CONTINUOUS
 62
    4
 10
1429.7999999999988
 20
410.16036186923566
 40
4.7999999999999998
 50
89.999999999999915
 51
179.99999999999983
  0
ARC
  8
_1-3_細線2
  6
CONTINUOUS
 62
    4
 10
1398.1999999999994
 20
410.16036186923566
 40
4.7999999999999998
 50
0
 51
89.999999999999915
  0
LINE
  8
_1-3_細線2
  6
CONTINUOUS
 62
    4
 10
1363.0000000000002
 20
410.16036186923566
 11
1363.0000000000002
 21
350.96036186923561
  0
LINE
  8
_1-3_細線2
  6
CONTINUOUS
 62
    4
 10
1398.1999999999994
 20
414.96036186923567
 11
1367.8000000000004
 21
414.96036186923567
  0
ARC
  8
_1-3_細線2
  6
CONTINUOUS
 62
    4
 10
1367.8000000000004
 20
410.16036186923566
 40
4.7999999999999998
 50
89.999999999999915
 51
179.99999999999983
  0
ARC
  8
_1-3_細線2
  6
CONTINUOUS
 62
    4
 10
1336.1999999999994
 20
410.16036186923566
 40
4.7999999999999998
 50
0
 51
89.999999999999915
  0
LINE
  8
_1-3_細線2
  6
CONTINUOUS
 62
    4
 10
1300.9999999999993
 20
410.16036186923566
 11
1300.9999999999993
 21
350.96036186923561
  0
LINE
  8
_1-3_細線2
  6
CONTINUOUS
 62
    4
 10
1336.1999999999994
 20
414.96036186923567
 11
1305.7999999999995
 21
414.96036186923567
  0
ARC
  8
_1-3_細線2
  6
CONTINUOUS
 62
    4
 10
1305.7999999999995
 20
410.16036186923566
 40
4.7999999999999998
 50
89.999999999999915
 51
179.99999999999983
  0
ARC
  8
_1-3_細線2
  6
CONTINUOUS
 62
    4
 10
1274.2000000000012
 20
410.16036186923566
 40
4.7999999999999998
 50
0
 51
89.999999999999915
  0
LINE
  8
_1-3_細線2
  6
CONTINUOUS
 62
    4
 10
1239.0000000000011
 20
410.16036186923566
 11
1239.0000000000011
 21
350.96036186923561
  0
LINE
  8
_1-3_細線2
  6
CONTINUOUS
 62
    4
 10
1274.2000000000012
 20
414.96036186923567
 11
1243.8000000000013
 21
414.96036186923567
  0
ARC
  8
_1-3_細線2
  6
CONTINUOUS
 62
    4
 10
1243.8000000000013
 20
410.16036186923566
 40
4.7999999999999998
 50
89.999999999999915
 51
179.99999999999983
  0
LINE
  8
_1-3_細線2
  6
CONTINUOUS
 62
    4
 10
1217.0000000000011
 20
410.16036186923549
 11
1217.0000000000011
 21
350.96036186923561
  0
ARC
  8
_1-3_細線2
  6
CONTINUOUS
 62
    4
 10
1212.2000000000012
 20
410.16036186923566
 40
4.7999999999999998
 50
359.99999999999761
 51
90.000000000002345
  0
LINE
  8
_1-3_細線2
  6
CONTINUOUS
 62
    4
 10
1181.8000000000002
 20
414.96036186923567
 11
1212.200000000001
 21
414.96036186923567
  0
ARC
  8
_1-3_細線2
  6
CONTINUOUS
 62
    4
 10
1181.8000000000002
 20
410.16036186923566
 40
4.7999999999999998
 50
89.999999999999915
 51
180.00000000000168
  0
LINE
  8
_1-3_細線2
  6
CONTINUOUS
 62
    4
 10
1155.000000000002
 20
410.16036186923549
 11
1155.000000000002
 21
350.96036186923561
  0
ARC
  8
_1-3_細線2
  6
CONTINUOUS
 62
    4
 10
1150.2000000000021
 20
410.16036186923566
 40
4.7999999999999998
 50
359.99999999999761
 51
90.000000000002345
  0
LINE
  8
_1-3_細線2
  6
CONTINUOUS
 62
    4
 10
1119.8000000000011
 20
414.96036186923567
 11
1150.2000000000019
 21
414.96036186923567
  0
ARC
  8
_1-3_細線2
  6
CONTINUOUS
 62
    4
 10
1119.8000000000011
 20
410.16036186923566
 40
4.7999999999999998
 50
89.999999999999915
 51
180.00000000000168
  0
LINE
  8
_1-3_細線2
  6
CONTINUOUS
 62
    4
 10
1093.000000000003
 20
410.16036186923549
 11
1093.000000000003
 21
350.96036186923561
  0
ARC
  8
_1-3_細線2
  6
CONTINUOUS
 62
    4
 10
1088.200000000003
 20
410.16036186923566
 40
4.7999999999999998
 50
359.99999999999761
 51
90.000000000002345
  0
LINE
  8
_1-3_細線2
  6
CONTINUOUS
 62
    4
 10
1057.800000000002
 20
414.96036186923567
 11
1088.2000000000028
 21
414.96036186923567
  0
ARC
  8
_1-3_細線2
  6
CONTINUOUS
 62
    4
 10
1057.800000000002
 20
410.16036186923566
 40
4.7999999999999998
 50
89.999999999999915
 51
180.00000000000168
  0
LINE
  8
_1-3_細線2
  6
CONTINUOUS
 62
    4
 10
1031.000000000002
 20
410.16036186923549
 11
1031.000000000002
 21
350.96036186923561
  0
ARC
  8
_1-3_細線2
  6
CONTINUOUS
 62
    4
 10
1026.2000000000021
 20
410.16036186923566
 40
4.7999999999999998
 50
359.99999999999761
 51
89.999999999999545
  0
LINE
  8
_1-3_細線2
  6
CONTINUOUS
 62
    4
 10
995.80000000000291
 20
414.96036186923567
 11
1026.2000000000021
 21
414.96036186923567
  0
ARC
  8
_1-3_細線2
  6
CONTINUOUS
 62
    4
 10
995.80000000000291
 20
410.16036186923566
 40
4.7999999999999998
 50
89.999999999999915
 51
179.99999999999983
  0
LINE
  8
_1-3_細線2
  6
CONTINUOUS
 62
    4
 10
1026.2000000000037
 20
350.96036186923561
 11
1031.000000000002
 21
350.96036186923561
  0
LINE
  8
_1-3_細線2
  6
CONTINUOUS
 62
    4
 10
1088.2000000000028
 20
350.96036186923561
 11
1093.000000000003
 21
350.96036186923561
  0
LINE
  8
_1-3_細線2
  6
CONTINUOUS
 62
    4
 10
1150.2000000000019
 20
350.96036186923561
 11
1155.000000000002
 21
350.96036186923561
  0
LINE
  8
_1-3_細線2
  6
CONTINUOUS
 62
    4
 10
1212.200000000001
 20
350.96036186923561
 11
1217.0000000000011
 21
350.96036186923561
  0
LINE
  8
_1-3_細線2
  6
CONTINUOUS
 62
    4
 10
1239.0000000000011
 20
350.96036186923561
 11
1243.8000000000022
 21
350.96036186923561
  0
LINE
  8
_1-3_細線2
  6
CONTINUOUS
 62
    4
 10
1300.9999999999993
 20
350.96036186923561
 11
1305.8000000000004
 21
350.96036186923561
  0
LINE
  8
_1-3_細線2
  6
CONTINUOUS
 62
    4
 10
1363.0000000000002
 20
350.96036186923561
 11
1367.7999999999986
 21
350.96036186923561
  0
LINE
  8
_1-3_細線2
  6
CONTINUOUS
 62
    4
 10
1424.9999999999991
 20
350.96036186923561
 11
1429.8000000000002
 21
350.96036186923561
  0
LINE
  8
_1-3_細線2
  6
CONTINUOUS
 62
    4
 10
1279.0000000000011
 20
390.96036130602306
 11
1274.2
 21
390.96036130602272
  0
LINE
  8
_1-3_細線2
  6
CONTINUOUS
 62
    4
 10
1465.0000000000002
 20
390.96036130602306
 11
1460.1999999999991
 21
390.96036130602306
  0
LINE
  8
_1-3_細線2
  6
CONTINUOUS
 62
    4
 10
1402.9999999999993
 20
390.96036130602306
 11
1398.1999999999982
 21
390.96036130602306
  0
LINE
  8
_1-3_細線2
  6
CONTINUOUS
 62
    4
 10
1340.9999999999993
 20
390.96036130602306
 11
1336.1999999999982
 21
390.96036130602272
  0
LINE
  8
_1-3_細線2
  6
CONTINUOUS
 62
    4
 10
1177.0000000000002
 20
390.96036130602306
 11
1181.8000000000013
 21
390.96036130602272
  0
LINE
  8
_1-3_細線2
  6
CONTINUOUS
 62
    4
 10
1115.0000000000011
 20
390.96036130602306
 11
1119.8000000000022
 21
390.96036130602272
  0
LINE
  8
_1-3_細線2
  6
CONTINUOUS
 62
    4
 10
991.00000000000296
 20
390.96036130602306
 11
995.80000000000405
 21
390.96036130602272
  0
LINE
  8
_1-3_細線2
  6
CONTINUOUS
 62
    4
 10
1053.000000000002
 20
390.96036130602306
 11
1057.8000000000031
 21
390.96036130602272
  0
LINE
  8
_1-3_細線2
  6
CONTINUOUS
 62
    4
 10
1274.2
 20
410.1603618692352
 11
1274.2
 21
390.96036130602306
  0
LINE
  8
_1-3_細線2
  6
CONTINUOUS
 62
    4
 10
1398.1999999999982
 20
410.1603618692352
 11
1398.1999999999982
 21
390.96036130602306
  0
LINE
  8
_1-3_細線2
  6
CONTINUOUS
 62
    4
 10
1460.1999999999991
 20
410.1603618692352
 11
1460.1999999999991
 21
390.96036130602306
  0
LINE
  8
_1-3_細線2
  6
CONTINUOUS
 62
    4
 10
1336.1999999999982
 20
410.1603618692352
 11
1336.1999999999982
 21
390.96036130602306
  0
LINE
  8
_1-3_細線2
  6
CONTINUOUS
 62
    4
 10
1181.8000000000004
 20
410.1603618692352
 11
1181.8000000000013
 21
390.96036130602306
  0
LINE
  8
_1-3_細線2
  6
CONTINUOUS
 62
    4
 10
1119.8000000000013
 20
410.1603618692352
 11
1119.8000000000022
 21
390.96036130602306
  0
LINE
  8
_1-3_細線2
  6
CONTINUOUS
 62
    4
 10
995.80000000000405
 20
410.1603618692352
 11
995.80000000000405
 21
390.96036130602306
  0
LINE
  8
_1-3_細線2
  6
CONTINUOUS
 62
    4
 10
1057.8000000000022
 20
410.1603618692352
 11
1057.8000000000031
 21
390.96036130602306
  0
LINE
  8
_1-3_細線2
  6
CONTINUOUS
 62
    4
 10
1465.0000000000002
 20
410.16036186923566
 11
1465.0000000000002
 21
390.96036130602306
  0
LINE
  8
_1-3_細線2
  6
CONTINUOUS
 62
    4
 10
1402.9999999999993
 20
410.16036186923566
 11
1402.9999999999993
 21
390.96036130602306
  0
LINE
  8
_1-3_細線2
  6
CONTINUOUS
 62
    4
 10
1340.9999999999993
 20
410.16036186923566
 11
1340.9999999999993
 21
390.96036130602306
  0
LINE
  8
_1-3_細線2
  6
CONTINUOUS
 62
    4
 10
1279.0000000000011
 20
410.16036186923566
 11
1279.0000000000011
 21
390.96036130602306
  0
LINE
  8
_1-3_細線2
  6
CONTINUOUS
 62
    4
 10
1177.0000000000002
 20
410.16036186923549
 11
1177.0000000000002
 21
390.96036130602306
  0
LINE
  8
_1-3_細線2
  6
CONTINUOUS
 62
    4
 10
1115.0000000000011
 20
410.16036186923549
 11
1115.0000000000011
 21
390.96036130602306
  0
LINE
  8
_1-3_細線2
  6
CONTINUOUS
 62
    4
 10
1053.000000000002
 20
410.16036186923549
 11
1053.000000000002
 21
390.96036130602306
  0
LINE
  8
_1-3_細線2
  6
CONTINUOUS
 62
    4
 10
991.00000000000296
 20
410.16036186923566
 11
991.00000000000296
 21
390.96036130602306
  0
ARC
  8
_1-3_細線2
  6
CONTINUOUS
 62
    4
 10
1007.0130080000029
 20
351.76036130602415
 40
0.8000000000000002
 50
179.99999999999983
 51
269.99999999999977
  0
LINE
  8
_1-3_細線2
  6
CONTINUOUS
 62
    4
 10
1010.2000000000037
 20
350.9603613060238
 11
1007.0130080000029
 21
350.9603613060238
  0
ARC
  8
_1-3_細線2
  6
CONTINUOUS
 62
    4
 10
1007.0130080000029
 20
390.16036130602316
 40
0.8000000000000002
 50
89.999999999999915
 51
179.99999999999983
  0
LINE
  8
_1-3_細線2
  6
CONTINUOUS
 62
    4
 10
1010.2000000000037
 20
390.96036130602454
 11
1007.0130080000029
 21
390.96036130602454
  0
LINE
  8
_1-3_細線2
  6
CONTINUOUS
 62
    4
 10
1006.2130080000015
 20
368.9603613060238
 11
1006.2130080000015
 21
351.76036130602415
  0
LINE
  8
_1-3_細線2
  6
CONTINUOUS
 62
    4
 10
1006.2130080000015
 20
390.16036130602316
 11
1006.2130080000015
 21
368.9603613060238
  0
ARC
  8
_1-3_細線2
  6
CONTINUOUS
 62
    4
 10
1012.2000000000037
 20
406.96036130602306
 40
2
 50
89.999999999999915
 51
179.99999999999983
  0
LINE
  8
_1-3_細線2
  6
CONTINUOUS
 62
    4
 10
1024.2000000000037
 20
408.96036130602306
 11
1012.2000000000037
 21
408.96036130602306
  0
ARC
  8
_1-3_細線2
  6
CONTINUOUS
 62
    4
 10
1024.2000000000037
 20
406.96036130602306
 40
2
 50
0
 51
89.999999999999915
  0
LINE
  8
_1-3_細線2
  6
CONTINUOUS
 62
    4
 10
1010.2000000000037
 20
406.96036130602306
 11
1010.2000000000037
 21
344.96036130602306
  0
ARC
  8
_1-3_細線2
  6
CONTINUOUS
 62
    4
 10
1012.2000000000037
 20
344.96036130602306
 40
2
 50
179.99999999999983
 51
269.99999999999977
  0
LINE
  8
_1-3_細線2
  6
CONTINUOUS
 62
    4
 10
1012.2000000000037
 20
342.96036130602306
 11
1024.2000000000037
 21
342.96036130602306
  0
LINE
  8
_1-3_細線2
  6
CONTINUOUS
 62
    4
 10
1026.2000000000037
 20
344.96036130602306
 11
1026.2000000000037
 21
406.96036130602306
  0
ARC
  8
_1-3_細線2
  6
CONTINUOUS
 62
    4
 10
1024.2000000000037
 20
344.96036130602306
 40
2
 50
269.99999999999977
 51
359.99999999999966
  0
LINE
  8
_1-3_細線2
  6
CONTINUOUS
 62
    4
 10
1031.0000000000036
 20
357.16036130602299
 11
1088.2000000000028
 21
357.16036130602299
  0
LINE
  8
_1-3_細線2
  6
CONTINUOUS
 62
    4
 10
1031.0000000000036
 20
384.76036130602307
 11
1088.2000000000028
 21
384.76036130602307
  0
LINE
  8
_1-3_細線2
  6
CONTINUOUS
 62
    4
 10
1093.0000000000045
 20
357.16036130602299
 11
1150.2000000000037
 21
357.16036130602299
  0
LINE
  8
_1-3_細線2
  6
CONTINUOUS
 62
    4
 10
1093.0000000000045
 20
384.76036130602307
 11
1150.2000000000037
 21
384.76036130602307
  0
LINE
  8
_1-3_細線2
  6
CONTINUOUS
 62
    4
 10
1155.0000000000036
 20
357.16036130602299
 11
1212.2000000000028
 21
357.16036130602299
  0
LINE
  8
_1-3_細線2
  6
CONTINUOUS
 62
    4
 10
1155.0000000000036
 20
384.76036130602307
 11
1212.2000000000028
 21
384.76036130602307
  0
LINE
  8
_1-3_細線2
  6
CONTINUOUS
 62
    4
 10
1217.0000000000027
 20
384.76036130602307
 11
1239.0000000000011
 21
384.76036130602307
  0
LINE
  8
_1-3_細線2
  6
CONTINUOUS
 62
    4
 10
1217.0000000000027
 20
357.16036130602299
 11
1239.0000000000011
 21
357.16036130602299
  0
ARC
  8
_1-3_細線2
  6
CONTINUOUS
 62
    4
 10
1448.9869924081995
 20
351.76036130602415
 40
0.8000000000000002
 50
269.99999999999977
 51
359.99999999999966
  0
LINE
  8
_1-3_細線2
  6
CONTINUOUS
 62
    4
 10
1445.8000004081987
 20
350.9603613060238
 11
1448.9869924081995
 21
350.9603613060238
  0
ARC
  8
_1-3_細線2
  6
CONTINUOUS
 62
    4
 10
1448.9869924081995
 20
390.16036130602316
 40
0.8000000000000002
 50
0
 51
89.999999999999915
  0
LINE
  8
_1-3_細線2
  6
CONTINUOUS
 62
    4
 10
1445.8000004081987
 20
390.96036130602454
 11
1448.9869924081995
 21
390.96036130602454
  0
LINE
  8
_1-3_細線2
  6
CONTINUOUS
 62
    4
 10
1449.7869924082008
 20
368.9603613060238
 11
1449.7869924082008
 21
351.76036130602415
  0
LINE
  8
_1-3_細線2
  6
CONTINUOUS
 62
    4
 10
1449.7869924082008
 20
390.16036130602316
 11
1449.7869924082008
 21
368.9603613060238
  0
ARC
  8
_1-3_細線2
  6
CONTINUOUS
 62
    4
 10
1443.8000004081987
 20
406.96036130602306
 40
2
 50
0
 51
89.999999999999915
  0
LINE
  8
_1-3_細線2
  6
CONTINUOUS
 62
    4
 10
1431.8000004081987
 20
408.96036130602306
 11
1443.8000004081987
 21
408.96036130602306
  0
ARC
  8
_1-3_細線2
  6
CONTINUOUS
 62
    4
 10
1431.8000004081987
 20
406.96036130602306
 40
2
 50
89.999999999999915
 51
179.99999999999983
  0
LINE
  8
_1-3_細線2
  6
CONTINUOUS
 62
    4
 10
1445.8000004081987
 20
406.96036130602306
 11
1445.8000004081987
 21
344.96036130602306
  0
ARC
  8
_1-3_細線2
  6
CONTINUOUS
 62
    4
 10
1443.8000004081987
 20
344.96036130602306
 40
2
 50
269.99999999999977
 51
359.99999999999966
  0
LINE
  8
_1-3_細線2
  6
CONTINUOUS
 62
    4
 10
1443.8000004081987
 20
342.96036130602306
 11
1431.8000004081987
 21
342.96036130602306
  0
LINE
  8
_1-3_細線2
  6
CONTINUOUS
 62
    4
 10
1429.8000004081987
 20
344.96036130602306
 11
1429.8000004081987
 21
406.96036130602306
  0
ARC
  8
_1-3_細線2
  6
CONTINUOUS
 62
    4
 10
1431.8000004081987
 20
344.96036130602306
 40
2
 50
179.99999999999983
 51
269.99999999999977
  0
LINE
  8
_1-3_細線2
  6
CONTINUOUS
 62
    4
 10
1425.0000004081985
 20
357.16036130602299
 11
1367.8000004081996
 21
357.16036130602299
  0
LINE
  8
_1-3_細線2
  6
CONTINUOUS
 62
    4
 10
1425.0000004081985
 20
384.76036130602307
 11
1367.8000004081996
 21
384.76036130602307
  0
LINE
  8
_1-3_細線2
  6
CONTINUOUS
 62
    4
 10
1363.0000004081976
 20
357.16036130602299
 11
1305.8000004081987
 21
357.16036130602299
  0
LINE
  8
_1-3_細線2
  6
CONTINUOUS
 62
    4
 10
1363.0000004081976
 20
384.76036130602307
 11
1305.8000004081987
 21
384.76036130602307
  0
LINE
  8
_1-3_細線2
  6
CONTINUOUS
 62
    4
 10
1301.0000004081985
 20
357.16036130602299
 11
1243.8000004081996
 21
357.16036130602299
  0
LINE
  8
_1-3_細線2
  6
CONTINUOUS
 62
    4
 10
1301.0000004081985
 20
384.76036130602307
 11
1243.8000004081996
 21
384.76036130602307
  0
LINE
  8
_1-2_極細2
  6
CENTER1
 62
    2
 10
989.20037047088101
 20
370.96036130602306
 11
1468.3740093375677
 21
370.96036130602306
  0
LINE
  8
_1-2_極細2
  6
CONTINUOUS
 62
    2
 10
1006.2130080000015
 20
370.96036130602306
 11
994.19494400000099
 21
370.96036130602306
  0
LINE
  8
_1-3_細線2
  6
CONTINUOUS
 62
    4
 10
1006.2130080000015
 20
356.96036130602488
 11
994.19489600000361
 21
356.96036130602488
  0
ARC
  8
_1-3_細線2
  6
CONTINUOUS
 62
    4
 10
994.19489600000361
 20
357.76036130602415
 40
0.8000000000000002
 50
179.99999999999983
 51
269.99999999999977
  0
ARC
  8
_1-2_極細2
  6
CONTINUOUS
 62
    2
 10
1024.426816000002
 20
363.95977730602544
 40
31.031824
 50
166.96197800000505
 51
193.03566999999961
  0
ARC
  8
_1-3_細線2
  6
CONTINUOUS
 62
    4
 10
994.19489600000361
 20
384.16036130602527
 40
0.8000000000000002
 50
89.999999999999915
 51
179.99999999999983
  0
ARC
  8
_1-2_極細2
  6
CONTINUOUS
 62
    2
 10
1024.426816000002
 20
377.96093730602342
 40
31.031824
 50
166.96433000000002
 51
193.03802199999848
  0
LINE
  8
_1-3_細線2
  6
CONTINUOUS
 62
    4
 10
1006.2130080000015
 20
384.96036130602454
 11
994.19489600000361
 21
384.96036130602454
  0
LINE
  8
_1-3_細線2
  6
CONTINUOUS
 62
    4
 10
993.39489600000184
 20
357.76036130602415
 11
993.39489600000184
 21
384.16036130602527
  0
LINE
  8
_1-2_極細2
  6
CONTINUOUS
 62
    2
 10
1449.7869924082008
 20
370.96036130602306
 11
1461.8050564082014
 21
370.96036130602306
  0
LINE
  8
_1-3_細線2
  6
CONTINUOUS
 62
    4
 10
1449.7869924082008
 20
356.96036130602488
 11
1461.8051044081988
 21
356.96036130602488
  0
ARC
  8
_1-3_細線2
  6
CONTINUOUS
 62
    4
 10
1461.8051044081988
 20
357.76036130602415
 40
0.8000000000000002
 50
269.99999999999977
 51
359.99999999999966
  0
ARC
  8
_1-2_極細2
  6
CONTINUOUS
 62
    2
 10
1431.5731844082004
 20
363.95977730602544
 40
31.031824
 50
346.96432999999968
 51
13.038021999994573
  0
ARC
  8
_1-3_細線2
  6
CONTINUOUS
 62
    4
 10
1461.8051044081988
 20
384.16036130602527
 40
0.8000000000000002
 50
0
 51
89.999999999999915
  0
ARC
  8
_1-2_極細2
  6
CONTINUOUS
 62
    2
 10
1431.5731844082004
 20
377.96093730602342
 40
31.031824
 50
346.96197800000078
 51
13.035669999999625
  0
LINE
  8
_1-3_細線2
  6
CONTINUOUS
 62
    4
 10
1449.7869924082008
 20
384.96036130602454
 11
1461.8051044081988
 21
384.96036130602454
  0
LINE
  8
_1-3_細線2
  6
CONTINUOUS
 62
    4
 10
1462.6051044082005
 20
357.76036130602415
 11
1462.6051044082005
 21
384.16036130602527
  0
LINE
  8
_1-5_寸法2
  6
CONTINUOUS
 62
    7
 10
1155.0000000000011
 20
428.96036130602272
 11
1155.0000000000011
 21
494.96036186923567
  0
LINE
  8
_1-5_寸法2
  6
CONTINUOUS
 62
    7
 10
1155.0000000000011
 20
478.96036186923567
 11
1139.5451867793761
 21
474.81925714759541
  0
LINE
  8
_1-5_寸法2
  6
CONTINUOUS
 62
    7
 10
1155.0000000000011
 20
478.96036186923567
 11
1139.5451867793761
 21
483.10146659087604
  0
LINE
  8
_1-5_寸法2
  6
CONTINUOUS
 62
    7
 10
1177.0000000000011
 20
428.96036130602272
 11
1177.0000000000011
 21
494.96036186923567
  0
LINE
  8
_1-5_寸法2
  6
CONTINUOUS
 62
    7
 10
1117.1805646719029
 20
478.96036186923567
 11
1177.0000000000011
 21
478.96036186923567
  0
TEXT
  8
_1-5_寸法2
 62
    7
 10
1117.1805646719029
 20
478.96036186923567
 40
24
 41
1
 50
0
  1
5.5
  0
LINE
  8
_1-5_寸法2
  6
CONTINUOUS
 62
    7
 10
1177.0000000000011
 20
478.96036186923567
 11
1192.4548132206262
 21
483.10146659087587
  0
LINE
  8
_1-5_寸法2
  6
CONTINUOUS
 62
    7
 10
1177.0000000000011
 20
478.96036186923567
 11
1192.4548132206262
 21
474.81925714759524
  0
LINE
  8
_1-5_寸法2
  6
CONTINUOUS
 62
    7
 10
1217.0000000000011
 20
428.96036130602272
 11
1217.0000000000011
 21
494.96036186923567
  0
LINE
  8
_1-5_寸法2
  6
CONTINUOUS
 62
    7
 10
1217.0000000000011
 20
478.96036186923567
 11
1201.5451867793761
 21
474.81925714759541
  0
LINE
  8
_1-5_寸法2
  6
CONTINUOUS
 62
    7
 10
1217.0000000000011
 20
478.96036186923567
 11
1201.5451867793761
 21
483.10146659087604
  0
LINE
  8
_1-5_寸法2
  6
CONTINUOUS
 62
    7
 10
1177.0000000000011
 20
478.96036186923567
 11
1217.0000000000011
 21
478.96036186923567
  0
TEXT
  8
_1-5_寸法2
 62
    7
 10
1185.0000000000011
 20
478.96036186923567
 40
24
 41
1
 50
0
  1
10
  0
LINE
  8
_1-5_寸法2
  6
CONTINUOUS
 62
    7
 10
1472.0000000000002
 20
436.16036130602288
 11
1472.0000000000002
 21
550.96036186923561
  0
LINE
  8
_1-5_寸法2
  6
CONTINUOUS
 62
    7
 10
1472.0000000000002
 20
534.96036186923561
 11
1487.4548132206253
 21
539.10146659087593
  0
LINE
  8
_1-5_寸法2
  6
CONTINUOUS
 62
    7
 10
1472.0000000000002
 20
534.96036186923561
 11
1487.4548132206253
 21
530.81925714759529
  0
LINE
  8
_1-5_寸法2
  6
CONTINUOUS
 62
    7
 10
1516.0000000000002
 20
436.16036130602288
 11
1516.0000000000002
 21
550.96036186923561
  0
LINE
  8
_1-5_寸法2
  6
CONTINUOUS
 62
    7
 10
1516.0000000000002
 20
534.96036186923561
 11
1500.5451867793752
 21
530.81925714759529
  0
LINE
  8
_1-5_寸法2
  6
CONTINUOUS
 62
    7
 10
1516.0000000000002
 20
534.96036186923561
 11
1500.5451867793752
 21
539.10146659087604
  0
LINE
  8
_1-5_寸法2
  6
CONTINUOUS
 62
    7
 10
1472.0000000000002
 20
534.96036186923561
 11
1516.0000000000002
 21
534.96036186923561
  0
TEXT
  8
_1-5_寸法2
 62
    7
 10
1482
 20
534.96036186923561
 40
24
 41
1
 50
0
  1
11
  0
LINE
  8
_1-5_寸法2
  6
CONTINUOUS
 62
    7
 10
940
 20
436.16036130602288
 11
940
 21
550.96036186923561
  0
LINE
  8
_1-5_寸法2
  6
CONTINUOUS
 62
    7
 10
940
 20
534.96036186923561
 11
955.45481322062506
 21
539.10146659087593
  0
LINE
  8
_1-5_寸法2
  6
CONTINUOUS
 62
    7
 10
940
 20
534.96036186923561
 11
955.45481322062506
 21
530.81925714759529
  0
LINE
  8
_1-5_寸法2
  6
CONTINUOUS
 62
    7
 10
984
 20
436.16036130602288
 11
984
 21
550.96036186923561
  0
LINE
  8
_1-5_寸法2
  6
CONTINUOUS
 62
    7
 10
984
 20
534.96036186923561
 11
968.54518677937494
 21
530.81925714759529
  0
LINE
  8
_1-5_寸法2
  6
CONTINUOUS
 62
    7
 10
984
 20
534.96036186923561
 11
968.54518677937494
 21
539.10146659087604
  0
LINE
  8
_1-5_寸法2
  6
CONTINUOUS
 62
    7
 10
940
 20
534.96036186923561
 11
984
 21
534.96036186923561
  0
TEXT
  8
_1-5_寸法2
 62
    7
 10
950
 20
534.96036186923561
 40
24
 41
1
 50
0
  1
11
  0
LINE
  8
_1-5_寸法2
  6
CONTINUOUS
 62
    7
 10
940
 20
436.16036130602288
 11
940.00000000000057
 21
606.96036186923561
  0
LINE
  8
_1-5_寸法2
  6
CONTINUOUS
 62
    7
 10
940.00000000000057
 20
590.96036186923561
 11
955.45481322062562
 21
595.10146659087593
  0
LINE
  8
_1-5_寸法2
  6
CONTINUOUS
 62
    7
 10
940.00000000000057
 20
590.96036186923561
 11
955.45481322062562
 21
586.81925714759529
  0
LINE
  8
_1-5_寸法2
  6
CONTINUOUS
 62
    7
 10
1516.0000000000002
 20
436.16036130602288
 11
1516.0000000000002
 21
606.96036186923561
  0
LINE
  8
_1-5_寸法2
  6
CONTINUOUS
 62
    7
 10
1516.0000000000002
 20
590.96036186923561
 11
1500.5451867793752
 21
586.81925714759529
  0
LINE
  8
_1-5_寸法2
  6
CONTINUOUS
 62
    7
 10
1516.0000000000002
 20
590.96036186923561
 11
1500.5451867793752
 21
595.10146659087604
  0
LINE
  8
_1-5_寸法2
  6
CONTINUOUS
 62
    7
 10
940.00000000000057
 20
590.96036186923561
 11
1516.0000000000002
 21
590.96036186923561
  0
TEXT
  8
_1-5_寸法2
 62
    7
 10
1210.0000000000009
 20
590.96036186923561
 40
24
 41
1
 50
0
  1
144
  0
LINE
  8
_1-5_寸法2
  6
CONTINUOUS
 62
    7
 10
991.00000000000296
 20
426.16036186923566
 11
991.0000000000033
 21
542.96036186923561
  0
LINE
  8
_1-5_寸法2
  6
CONTINUOUS
 62
    7
 10
991.0000000000033
 20
534.96036186923561
 11
1006.4548132206284
 21
539.10146659087593
  0
LINE
  8
_1-5_寸法2
  6
CONTINUOUS
 62
    7
 10
991.0000000000033
 20
534.96036186923561
 11
1006.4548132206284
 21
530.81925714759529
  0
LINE
  8
_1-5_寸法2
  6
CONTINUOUS
 62
    7
 10
1465.0000000000002
 20
426.16036186923566
 11
1465.0000000000005
 21
542.96036186923561
  0
LINE
  8
_1-5_寸法2
  6
CONTINUOUS
 62
    7
 10
1465.0000000000005
 20
534.96036186923561
 11
1449.5451867793754
 21
530.81925714759529
  0
LINE
  8
_1-5_寸法2
  6
CONTINUOUS
 62
    7
 10
1465.0000000000005
 20
534.96036186923561
 11
1449.5451867793754
 21
539.10146659087604
  0
LINE
  8
_1-5_寸法2
  6
CONTINUOUS
 62
    7
 10
991.0000000000033
 20
534.96036186923561
 11
1465.0000000000005
 21
534.96036186923561
  0
TEXT
  8
_1-5_寸法2
 62
    7
 10
1198.0000000000018
 20
534.96036186923561
 40
24
 41
1
 50
0
  1
118.5
  0
LINE
  8
_1-2_極細2
  6
CONTINUOUS
 62
    2
 10
1474.7999999999977
 20
340.16036130602242
 11
981.20000000000164
 21
340.16036130602242
  0
TEXT
  8
_0-7_枠細線
 62
    5
 10
1133.5861497790868
 20
632.96677840702478
 40
32
 41
0.8
 50
0
  1
Ａ－Ａ’断面図
  0
TEXT
  8
_0-7_枠細線
 62
    5
 10
1334.821421175249
 20
632.96677840702478
 40
32
 41
0.6000000000000002
 50
0
  1
Ｓ＝１：２
  0
LINE
  8
_1-2_極細2
  6
CENTER1
 62
    2
 10
1228
 20
456.3525976761066
 11
1228
 21
305.01234567901213
  0
LINE
  8
_0-0_計極細
  6
CONTINUOUS
 62
    2
 10
1039.2944430741395
 20
850.63048906326276
 11
1065.2944432983536
 21
850.63048906326276
  0
LINE
  8
_0-0_計極細
  6
CONTINUOUS
 62
    2
 10
1079.6944429921891
 20
850.63048906326276
 11
1105.6944431506795
 21
850.63048906326276
  0
LINE
  8
_0-1_計細線
  6
CONTINUOUS
 62
    3
 10
1104.2444430423898
 20
845.73048906326267
 11
1104.2444430423898
 21
843.93048906329068
  0
LINE
  8
_0-1_計細線
  6
CONTINUOUS
 62
    3
 10
1066.4944432983552
 20
863.4304890632643
 11
1064.4944432983552
 21
861.4304890632643
  0
LINE
  8
_0-1_計細線
  6
CONTINUOUS
 62
    3
 10
1064.4944432983552
 20
851.4304890632643
 11
1064.4944432983552
 21
861.4304890632643
  0
LINE
  8
_0-1_計細線
  6
CONTINUOUS
 62
    3
 10
1080.4944429921939
 20
861.4304890632643
 11
1078.4944429921939
 21
863.4304890632643
  0
LINE
  8
_0-1_計細線
  6
CONTINUOUS
 62
    3
 10
1080.4944429921939
 20
851.4304890632643
 11
1080.4944429921939
 21
861.4304890632643
  0
LINE
  8
_0-1_計細線
  6
CONTINUOUS
 62
    3
 10
1066.4944432983552
 20
847.4304890632643
 11
1064.4944432983552
 21
845.4304890632643
  0
LINE
  8
_0-1_計細線
  6
CONTINUOUS
 62
    3
 10
1066.4944432983552
 20
849.4304890632643
 11
1066.4944432983552
 21
847.4304890632643
  0
LINE
  8
_0-1_計細線
  6
CONTINUOUS
 62
    3
 10
1064.4944432983552
 20
851.4304890632643
 11
1066.4944432983552
 21
849.4304890632643
  0
LINE
  8
_0-1_計細線
  6
CONTINUOUS
 62
    3
 10
1078.4944429921939
 20
847.4304890632643
 11
1080.4944429921939
 21
845.4304890632643
  0
LINE
  8
_0-1_計細線
  6
CONTINUOUS
 62
    3
 10
1078.4944429921939
 20
849.4304890632643
 11
1078.4944429921939
 21
847.4304890632643
  0
LINE
  8
_0-1_計細線
  6
CONTINUOUS
 62
    3
 10
1080.4944429921939
 20
851.4304890632643
 11
1078.4944429921939
 21
849.4304890632643
  0
LINE
  8
_0-1_計細線
  6
CONTINUOUS
 62
    3
 10
1064.4944432983552
 20
845.4304890632643
 11
1064.4944432983552
 21
831.4304890632643
  0
ARC
  8
_0-1_計細線
  6
CONTINUOUS
 62
    3
 10
1067.4944432983552
 20
831.4304890632643
 40
3
 50
179.99999999999983
 51
269.99999999999977
  0
LINE
  8
_0-1_計細線
  6
CONTINUOUS
 62
    3
 10
1067.4944432983552
 20
828.4304890632643
 11
1077.4944429921939
 21
828.4304890632643
  0
LINE
  8
_0-1_計細線
  6
CONTINUOUS
 62
    3
 10
1080.4944429921939
 20
845.4304890632643
 11
1080.4944429921939
 21
831.4304890632643
  0
ARC
  8
_0-1_計細線
  6
CONTINUOUS
 62
    3
 10
1077.4944429921939
 20
831.4304890632643
 40
3
 50
269.99999999999977
 51
359.99999999999966
  0
LINE
  8
_0-1_計細線
  6
CONTINUOUS
 62
    3
 10
1105.6944431506795
 20
851.43048906326248
 11
1105.6944431506795
 21
847.23048906326267
  0
LINE
  8
_0-1_計細線
  6
CONTINUOUS
 62
    3
 10
1039.2944430741395
 20
851.43048906326248
 11
1039.2944430741395
 21
847.23048906326267
  0
LINE
  8
_0-1_計細線
  6
CONTINUOUS
 62
    3
 10
1104.1944431506795
 20
845.73048906326267
 11
1080.1944429921946
 21
845.73048906326267
  0
LINE
  8
_0-1_計細線
  6
CONTINUOUS
 62
    3
 10
1040.7944430741395
 20
845.73048906326267
 11
1064.7944432983536
 21
845.73048906326267
  0
ARC
  8
_0-1_計細線
  6
CONTINUOUS
 62
    3
 10
1040.7944430741395
 20
847.23048906326267
 40
1.5
 50
179.99999999999983
 51
269.99999999999977
  0
ARC
  8
_0-1_計細線
  6
CONTINUOUS
 62
    3
 10
1104.1944431506795
 20
847.23048906326267
 40
1.5
 50
269.99999999999977
 51
359.99999999999966
  0
ARC
  8
_0-1_計細線
  6
CONTINUOUS
 62
    3
 10
1101.2444430453893
 20
843.93048906329068
 40
2.9999999969999998
 50
269.99999999999977
 51
359.99999999999966
  0
LINE
  8
_0-0_計極細
  6
CONTINUOUS
 62
    2
 10
1095.4944430511391
 20
840.93048906332069
 11
1095.4944430511391
 21
830.93048906342074
  0
LINE
  8
_0-1_計細線
  6
CONTINUOUS
 62
    3
 10
1098.4944430481396
 20
840.93048906332069
 11
1098.4944430481396
 21
830.93048906342074
  0
LINE
  8
_0-1_計細線
  6
CONTINUOUS
 62
    3
 10
1080.4944429921911
 20
840.93048906332069
 11
1101.2444430453893
 21
840.93048906332069
  0
LINE
  8
_0-1_計細線
  6
CONTINUOUS
 62
    3
 10
1080.4944429921911
 20
830.93048906342074
 11
1098.4944430481396
 21
830.93048906342074
  0
LINE
  8
_0-1_計細線
  6
CONTINUOUS
 62
    3
 10
1040.7444431058898
 20
845.73048906326267
 11
1040.7444431058898
 21
843.93048906329068
  0
ARC
  8
_0-1_計細線
  6
CONTINUOUS
 62
    3
 10
1043.7444431028894
 20
843.93048906329068
 40
2.9999999969999998
 50
179.99999999999983
 51
269.99999999999977
  0
LINE
  8
_0-0_計極細
  6
CONTINUOUS
 62
    2
 10
1049.4944430971395
 20
840.93048906332069
 11
1049.4944430971395
 21
830.93048906342074
  0
LINE
  8
_0-1_計細線
  6
CONTINUOUS
 62
    3
 10
1046.4944431001391
 20
840.93048906332069
 11
1046.4944431001391
 21
830.93048906342074
  0
LINE
  8
_0-1_計細線
  6
CONTINUOUS
 62
    3
 10
1064.4944431560884
 20
840.93048906332069
 11
1043.7444431028894
 21
840.93048906332069
  0
LINE
  8
_0-1_計細線
  6
CONTINUOUS
 62
    3
 10
1064.4944431560884
 20
830.93048906342074
 11
1046.4944431001391
 21
830.93048906342074
  0
LINE
  8
_0-0_計極細
  6
CONTINUOUS
 62
    2
 10
1072.4944430741402
 20
807.42742639658763
 11
1095.8444430507893
 21
807.42742639658763
  0
LINE
  8
_0-1_計細線
  6
CONTINUOUS
 62
    3
 10
1072.4944430741402
 20
806.43048906326339
 11
1094.8444430517898
 21
806.43048906326339
  0
LINE
  8
_0-0_計極細
  6
CONTINUOUS
 62
    2
 10
1094.8444430517898
 20
830.93048906342074
 11
1094.8444430517898
 21
806.43048906326339
  0
LINE
  8
_0-1_計細線
  6
CONTINUOUS
 62
    3
 10
1095.8444430507893
 20
830.93048906342074
 11
1095.8444430507893
 21
807.42742639658763
  0
LINE
  8
_0-0_計極細
  6
CONTINUOUS
 62
    2
 10
1072.4944430741402
 20
807.42742639658763
 11
1049.1444430974902
 21
807.42742639658763
  0
LINE
  8
_0-1_計細線
  6
CONTINUOUS
 62
    3
 10
1072.4944430741402
 20
806.43048906326339
 11
1050.1444430964907
 21
806.43048906326339
  0
LINE
  8
_0-0_計極細
  6
CONTINUOUS
 62
    2
 10
1050.1444430964907
 20
830.93048906342074
 11
1050.1444430964907
 21
806.43048906326339
  0
LINE
  8
_0-1_計細線
  6
CONTINUOUS
 62
    3
 10
1049.1444430974902
 20
830.93048906342074
 11
1049.1444430974902
 21
807.42742639658763
  0
LINE
  8
_0-1_計細線
  6
CONTINUOUS
 62
    3
 10
1095.8444430507893
 20
807.42742639658763
 11
1094.8444430517898
 21
806.43048906326339
  0
LINE
  8
_0-1_計細線
  6
CONTINUOUS
 62
    3
 10
1049.1444430974902
 20
807.42742639658763
 11
1050.1444430964907
 21
806.43048906326339
  0
LINE
  8
_0-5_寸法線
  6
CONTINUOUS
 62
    7
 10
1053.7656250116665
 20
816.3282261602285
 11
1049.5722724513573
 21
800.88750744946412
  0
LINE
  8
_0-5_寸法線
  6
CONTINUOUS
 62
    7
 10
1053.7656250116665
 20
816.3282261602285
 11
1042.413715812032
 21
805.05284778417149
  0
LINE
  8
_0-5_寸法線
  6
CONTINUOUS
 62
    7
 10
1053.7656250116665
 20
816.3282261602285
 11
1027.7559510903434
 21
771.62798344902785
  0
LINE
  8
_0-5_寸法線
  6
CONTINUOUS
 62
    7
 10
1027.7559510903434
 20
771.62798344902785
 11
970.15595109034348
 21
771.62798344902785
  0
TEXT
  8
_0-5_寸法線
 62
    7
 10
970.15595109034336
 20
771.62798344902785
 40
24
 41
0.7999999999999998
 50
0
  1
排水口
  0
LINE
  8
_0-1_計細線
  6
CONTINUOUS
 62
    3
 10
201.49444329835524
 20
851.43048906326294
 11
184.79444307414042
 21
851.43048906326294
  0
LINE
  8
_0-1_計細線
  6
CONTINUOUS
 62
    3
 10
184.79444307414042
 20
851.43048906326294
 11
184.79444307414042
 21
863.43048906326294
  0
LINE
  8
_0-1_計細線
  6
CONTINUOUS
 62
    3
 10
203.49444329835524
 20
863.4304890632643
 11
201.49444329835524
 21
861.4304890632643
  0
LINE
  8
_0-1_計細線
  6
CONTINUOUS
 62
    3
 10
201.49444329835524
 20
851.4304890632643
 11
201.49444329835524
 21
861.4304890632643
  0
LINE
  8
_0-1_計細線
  6
CONTINUOUS
 62
    3
 10
217.49444299219385
 20
861.4304890632643
 11
215.49444299219385
 21
863.4304890632643
  0
LINE
  8
_0-1_計細線
  6
CONTINUOUS
 62
    3
 10
217.49444299219385
 20
851.4304890632643
 11
217.49444299219385
 21
861.4304890632643
  0
LINE
  8
_0-1_計細線
  6
CONTINUOUS
 62
    3
 10
203.49444329835524
 20
847.4304890632643
 11
201.49444329835524
 21
845.4304890632643
  0
LINE
  8
_0-1_計細線
  6
CONTINUOUS
 62
    3
 10
203.49444329835524
 20
849.4304890632643
 11
203.49444329835524
 21
847.4304890632643
  0
LINE
  8
_0-1_計細線
  6
CONTINUOUS
 62
    3
 10
201.49444329835524
 20
851.4304890632643
 11
203.49444329835524
 21
849.4304890632643
  0
LINE
  8
_0-1_計細線
  6
CONTINUOUS
 62
    3
 10
215.49444299219385
 20
847.4304890632643
 11
217.49444299219385
 21
845.4304890632643
  0
LINE
  8
_0-1_計細線
  6
CONTINUOUS
 62
    3
 10
215.49444299219385
 20
849.4304890632643
 11
215.49444299219385
 21
847.4304890632643
  0
LINE
  8
_0-1_計細線
  6
CONTINUOUS
 62
    3
 10
217.49444299219385
 20
851.4304890632643
 11
215.49444299219385
 21
849.4304890632643
  0
LINE
  8
_0-1_計細線
  6
CONTINUOUS
 62
    3
 10
201.49444329835524
 20
845.4304890632643
 11
201.49444329835524
 21
831.4304890632643
  0
ARC
  8
_0-1_計細線
  6
CONTINUOUS
 62
    3
 10
204.49444329835524
 20
831.4304890632643
 40
3
 50
179.99999999999983
 51
269.99999999999977
  0
LINE
  8
_0-1_計細線
  6
CONTINUOUS
 62
    3
 10
204.49444329835524
 20
828.4304890632643
 11
214.49444299219385
 21
828.4304890632643
  0
LINE
  8
_0-1_計細線
  6
CONTINUOUS
 62
    3
 10
217.49444299219385
 20
845.4304890632643
 11
217.49444299219385
 21
831.4304890632643
  0
ARC
  8
_0-1_計細線
  6
CONTINUOUS
 62
    3
 10
214.49444299219385
 20
831.4304890632643
 40
3
 50
269.99999999999977
 51
359.99999999999966
  0
LINE
  8
_0-0_計極細
  6
CENTER1
 62
    2
 10
209.49444307414024
 20
875.07186292865208
 11
209.49444307414024
 21
819.80174509240896
  0
LINE
  8
_0-5_寸法線
  6
CONTINUOUS
 62
    7
 10
216.8308791929162
 20
829.59534596029039
 11
229.02432318100773
 21
819.23581297326473
  0
LINE
  8
_0-5_寸法線
  6
CONTINUOUS
 62
    7
 10
216.8308791929162
 20
829.59534596029039
 11
222.21094495271325
 21
814.52700522813745
  0
LINE
  8
_0-5_寸法線
  6
CONTINUOUS
 62
    7
 10
216.8308791929162
 20
829.59534596029039
 11
244.4528047398926
 21
789.62798344902785
  0
LINE
  8
_0-5_寸法線
  6
CONTINUOUS
 62
    7
 10
244.4528047398926
 20
789.62798344902785
 11
321.25280473989255
 21
789.62798344902785
  0
TEXT
  8
_0-5_寸法線
 62
    7
 10
244.4528047398926
 20
789.62798344902785
 40
24
 41
0.7999999999999998
 50
0
  1
アンカー
  0
LINE
  8
_0-1_計細線
  6
CONTINUOUS
 62
    3
 10
1960.1944430741405
 20
851.43048906326294
 11
1943.4944429921943
 21
851.43048906326294
  0
LINE
  8
_0-1_計細線
  6
CONTINUOUS
 62
    3
 10
1960.1944430741405
 20
863.43048906326294
 11
1960.1944430741405
 21
851.43048906326294
  0
LINE
  8
_0-1_計細線
  6
CONTINUOUS
 62
    3
 10
1929.4944432983557
 20
863.4304890632643
 11
1927.4944432983548
 21
861.4304890632643
  0
LINE
  8
_0-1_計細線
  6
CONTINUOUS
 62
    3
 10
1927.4944432983548
 20
851.4304890632643
 11
1927.4944432983548
 21
861.4304890632643
  0
LINE
  8
_0-1_計細線
  6
CONTINUOUS
 62
    3
 10
1943.4944429921943
 20
861.4304890632643
 11
1941.4944429921943
 21
863.4304890632643
  0
LINE
  8
_0-1_計細線
  6
CONTINUOUS
 62
    3
 10
1943.4944429921943
 20
851.4304890632643
 11
1943.4944429921943
 21
861.4304890632643
  0
LINE
  8
_0-1_計細線
  6
CONTINUOUS
 62
    3
 10
1929.4944432983557
 20
847.4304890632643
 11
1927.4944432983548
 21
845.4304890632643
  0
LINE
  8
_0-1_計細線
  6
CONTINUOUS
 62
    3
 10
1929.4944432983557
 20
849.4304890632643
 11
1929.4944432983557
 21
847.4304890632643
  0
LINE
  8
_0-1_計細線
  6
CONTINUOUS
 62
    3
 10
1927.4944432983548
 20
851.4304890632643
 11
1929.4944432983557
 21
849.4304890632643
  0
LINE
  8
_0-1_計細線
  6
CONTINUOUS
 62
    3
 10
1941.4944429921943
 20
847.4304890632643
 11
1943.4944429921943
 21
845.4304890632643
  0
LINE
  8
_0-1_計細線
  6
CONTINUOUS
 62
    3
 10
1941.4944429921943
 20
849.4304890632643
 11
1941.4944429921943
 21
847.4304890632643
  0
LINE
  8
_0-1_計細線
  6
CONTINUOUS
 62
    3
 10
1943.4944429921943
 20
851.4304890632643
 11
1941.4944429921943
 21
849.4304890632643
  0
LINE
  8
_0-1_計細線
  6
CONTINUOUS
 62
    3
 10
1927.4944432983548
 20
845.4304890632643
 11
1927.4944432983548
 21
831.4304890632643
  0
ARC
  8
_0-1_計細線
  6
CONTINUOUS
 62
    3
 10
1930.4944432983557
 20
831.4304890632643
 40
3
 50
179.99999999999983
 51
269.99999999999977
  0
LINE
  8
_0-1_計細線
  6
CONTINUOUS
 62
    3
 10
1930.4944432983557
 20
828.4304890632643
 11
1940.4944429921943
 21
828.4304890632643
  0
LINE
  8
_0-1_計細線
  6
CONTINUOUS
 62
    3
 10
1943.4944429921943
 20
845.4304890632643
 11
1943.4944429921943
 21
831.4304890632643
  0
ARC
  8
_0-1_計細線
  6
CONTINUOUS
 62
    3
 10
1940.4944429921943
 20
831.4304890632643
 40
3
 50
269.99999999999977
 51
359.99999999999966
  0
LINE
  8
_0-0_計極細
  6
CENTER1
 62
    2
 10
1935.4944430741398
 20
875.07186292865208
 11
1935.4944430741398
 21
819.80174509240896
  0
LINE
  8
_0-1_計細線
  6
CONTINUOUS
 62
    3
 10
174.49444307414024
 20
871.43048906326294
 11
174.49444307414024
 21
863.43048906326294
  0
LINE
  8
_0-1_計細線
  6
CONTINUOUS
 62
    3
 10
174.49444307414024
 20
863.43048906326294
 11
1970.4944430741398
 21
863.43048906326294
  0
LINE
  8
_0-1_計細線
  6
CONTINUOUS
 62
    3
 10
1970.4944430741398
 20
863.43048906326294
 11
1970.4944430741398
 21
871.43048906326294
  0
LINE
  8
_0-1_計細線
  6
CONTINUOUS
 62
    3
 10
1970.4944430741398
 20
871.43048906326294
 11
174.49444307414024
 21
871.43048906326294
  0
LINE
  8
_0-1_計細線
  6
CONTINUOUS
 62
    3
 10
634.99444329835524
 20
863.4304890632643
 11
632.99444329835524
 21
861.4304890632643
  0
LINE
  8
_0-1_計細線
  6
CONTINUOUS
 62
    3
 10
632.99444329835524
 20
851.4304890632643
 11
632.99444329835524
 21
861.4304890632643
  0
LINE
  8
_0-1_計細線
  6
CONTINUOUS
 62
    3
 10
648.99444299219385
 20
861.4304890632643
 11
646.99444299219385
 21
863.4304890632643
  0
LINE
  8
_0-1_計細線
  6
CONTINUOUS
 62
    3
 10
648.99444299219385
 20
851.4304890632643
 11
648.99444299219385
 21
861.4304890632643
  0
LINE
  8
_0-1_計細線
  6
CONTINUOUS
 62
    3
 10
634.99444329835524
 20
847.4304890632643
 11
632.99444329835524
 21
845.4304890632643
  0
LINE
  8
_0-1_計細線
  6
CONTINUOUS
 62
    3
 10
634.99444329835524
 20
849.4304890632643
 11
634.99444329835524
 21
847.4304890632643
  0
LINE
  8
_0-1_計細線
  6
CONTINUOUS
 62
    3
 10
632.99444329835524
 20
851.4304890632643
 11
634.99444329835524
 21
849.4304890632643
  0
LINE
  8
_0-1_計細線
  6
CONTINUOUS
 62
    3
 10
646.99444299219385
 20
847.4304890632643
 11
648.99444299219385
 21
845.4304890632643
  0
LINE
  8
_0-1_計細線
  6
CONTINUOUS
 62
    3
 10
646.99444299219385
 20
849.4304890632643
 11
646.99444299219385
 21
847.4304890632643
  0
LINE
  8
_0-1_計細線
  6
CONTINUOUS
 62
    3
 10
648.99444299219385
 20
851.4304890632643
 11
646.99444299219385
 21
849.4304890632643
  0
LINE
  8
_0-1_計細線
  6
CONTINUOUS
 62
    3
 10
632.99444329835524
 20
845.4304890632643
 11
632.99444329835524
 21
831.4304890632643
  0
ARC
  8
_0-1_計細線
  6
CONTINUOUS
 62
    3
 10
635.99444329835524
 20
831.4304890632643
 40
3
 50
179.99999999999983
 51
269.99999999999977
  0
LINE
  8
_0-1_計細線
  6
CONTINUOUS
 62
    3
 10
635.99444329835524
 20
828.4304890632643
 11
645.99444299219385
 21
828.4304890632643
  0
LINE
  8
_0-1_計細線
  6
CONTINUOUS
 62
    3
 10
648.99444299219385
 20
845.4304890632643
 11
648.99444299219385
 21
831.4304890632643
  0
ARC
  8
_0-1_計細線
  6
CONTINUOUS
 62
    3
 10
645.99444299219385
 20
831.4304890632643
 40
3
 50
269.99999999999977
 51
359.99999999999966
  0
LINE
  8
_0-0_計極細
  6
CENTER1
 62
    2
 10
640.99444307414024
 20
875.07186292865208
 11
640.99444307414024
 21
819.80174509240896
  0
LINE
  8
_0-1_計細線
  6
CONTINUOUS
 62
    3
 10
1497.9944432983557
 20
863.4304890632643
 11
1495.9944432983557
 21
861.4304890632643
  0
LINE
  8
_0-1_計細線
  6
CONTINUOUS
 62
    3
 10
1495.9944432983557
 20
851.4304890632643
 11
1495.9944432983557
 21
861.4304890632643
  0
LINE
  8
_0-1_計細線
  6
CONTINUOUS
 62
    3
 10
1511.9944429921943
 20
861.4304890632643
 11
1509.9944429921943
 21
863.4304890632643
  0
LINE
  8
_0-1_計細線
  6
CONTINUOUS
 62
    3
 10
1511.9944429921943
 20
851.4304890632643
 11
1511.9944429921943
 21
861.4304890632643
  0
LINE
  8
_0-1_計細線
  6
CONTINUOUS
 62
    3
 10
1497.9944432983557
 20
847.4304890632643
 11
1495.9944432983557
 21
845.4304890632643
  0
LINE
  8
_0-1_計細線
  6
CONTINUOUS
 62
    3
 10
1497.9944432983557
 20
849.4304890632643
 11
1497.9944432983557
 21
847.4304890632643
  0
LINE
  8
_0-1_計細線
  6
CONTINUOUS
 62
    3
 10
1495.9944432983557
 20
851.4304890632643
 11
1497.9944432983557
 21
849.4304890632643
  0
LINE
  8
_0-1_計細線
  6
CONTINUOUS
 62
    3
 10
1509.9944429921943
 20
847.4304890632643
 11
1511.9944429921943
 21
845.4304890632643
  0
LINE
  8
_0-1_計細線
  6
CONTINUOUS
 62
    3
 10
1509.9944429921943
 20
849.4304890632643
 11
1509.9944429921943
 21
847.4304890632643
  0
LINE
  8
_0-1_計細線
  6
CONTINUOUS
 62
    3
 10
1511.9944429921943
 20
851.4304890632643
 11
1509.9944429921943
 21
849.4304890632643
  0
LINE
  8
_0-1_計細線
  6
CONTINUOUS
 62
    3
 10
1495.9944432983557
 20
845.4304890632643
 11
1495.9944432983557
 21
831.4304890632643
  0
ARC
  8
_0-1_計細線
  6
CONTINUOUS
 62
    3
 10
1498.9944432983557
 20
831.4304890632643
 40
3
 50
179.99999999999983
 51
269.99999999999977
  0
LINE
  8
_0-1_計細線
  6
CONTINUOUS
 62
    3
 10
1498.9944432983557
 20
828.4304890632643
 11
1508.9944429921943
 21
828.4304890632643
  0
LINE
  8
_0-1_計細線
  6
CONTINUOUS
 62
    3
 10
1511.9944429921943
 20
845.4304890632643
 11
1511.9944429921943
 21
831.4304890632643
  0
ARC
  8
_0-1_計細線
  6
CONTINUOUS
 62
    3
 10
1508.9944429921943
 20
831.4304890632643
 40
3
 50
269.99999999999977
 51
359.99999999999966
  0
LINE
  8
_0-0_計極細
  6
CENTER1
 62
    2
 10
1503.9944430741407
 20
875.07186292865208
 11
1503.9944430741407
 21
819.80174509240896
  0
LINE
  8
_0-5_寸法線
  6
CONTINUOUS
 62
    7
 10
174.49444307414024
 20
887.43048906326294
 11
174.49444307414024
 21
959.43048906326294
  0
LINE
  8
_0-5_寸法線
  6
CONTINUOUS
 62
    7
 10
174.49444307414024
 20
951.43048906326294
 11
189.94925629476529
 21
955.57159378490326
  0
LINE
  8
_0-5_寸法線
  6
CONTINUOUS
 62
    7
 10
174.49444307414024
 20
951.43048906326294
 11
189.94925629476529
 21
947.28938434162262
  0
LINE
  8
_0-5_寸法線
  6
CONTINUOUS
 62
    7
 10
209.49444307414024
 20
887.43048906326294
 11
209.49444307414024
 21
959.43048906326294
  0
LINE
  8
_0-5_寸法線
  6
CONTINUOUS
 62
    7
 10
209.49444307414024
 20
951.43048906326294
 11
194.03962985351518
 21
947.28938434162262
  0
LINE
  8
_0-5_寸法線
  6
CONTINUOUS
 62
    7
 10
209.49444307414024
 20
951.43048906326294
 11
194.03962985351518
 21
955.57159378490337
  0
LINE
  8
_0-5_寸法線
  6
CONTINUOUS
 62
    7
 10
174.49444307414024
 20
951.43048906326294
 11
209.49444307414024
 21
951.43048906326294
  0
TEXT
  8
_0-5_寸法線
 62
    7
 10
179.99444307414024
 20
951.43048906326294
 40
24
 41
1
 50
0
  1
35
  0
LINE
  8
_0-5_寸法線
  6
CONTINUOUS
 62
    7
 10
209.49444307414024
 20
951.43048906326294
 11
224.94925629476529
 21
955.57159378490314
  0
LINE
  8
_0-5_寸法線
  6
CONTINUOUS
 62
    7
 10
209.49444307414024
 20
951.43048906326294
 11
224.94925629476529
 21
947.28938434162251
  0
LINE
  8
_0-5_寸法線
  6
CONTINUOUS
 62
    7
 10
640.99444307414024
 20
887.43048906326294
 11
640.99444307414024
 21
959.43048906326294
  0
LINE
  8
_0-5_寸法線
  6
CONTINUOUS
 62
    7
 10
640.99444307414024
 20
951.43048906326294
 11
625.53962985351518
 21
947.28938434162262
  0
LINE
  8
_0-5_寸法線
  6
CONTINUOUS
 62
    7
 10
640.99444307414024
 20
951.43048906326294
 11
625.53962985351518
 21
955.57159378490337
  0
LINE
  8
_0-5_寸法線
  6
CONTINUOUS
 62
    7
 10
209.49444307414024
 20
951.43048906326294
 11
640.99444307414024
 21
951.43048906326294
  0
TEXT
  8
_0-5_寸法線
 62
    7
 10
395.24444307414024
 20
951.43048906326294
 40
24
 41
1
 50
0
  1
431.5
  0
LINE
  8
_0-5_寸法線
  6
CONTINUOUS
 62
    7
 10
640.99444307414024
 20
951.43048906326294
 11
656.44925629476541
 21
955.57159378490314
  0
LINE
  8
_0-5_寸法線
  6
CONTINUOUS
 62
    7
 10
640.99444307414024
 20
951.43048906326294
 11
656.44925629476529
 21
947.28938434162251
  0
LINE
  8
_0-5_寸法線
  6
CONTINUOUS
 62
    7
 10
1072.4944430741402
 20
887.43048906326294
 11
1072.4944430741402
 21
959.43048906326294
  0
LINE
  8
_0-5_寸法線
  6
CONTINUOUS
 62
    7
 10
1072.4944430741402
 20
951.43048906326294
 11
1057.0396298535152
 21
947.28938434162262
  0
LINE
  8
_0-5_寸法線
  6
CONTINUOUS
 62
    7
 10
1072.4944430741402
 20
951.43048906326294
 11
1057.0396298535152
 21
955.57159378490337
  0
LINE
  8
_0-5_寸法線
  6
CONTINUOUS
 62
    7
 10
640.99444307414024
 20
951.43048906326294
 11
1072.4944430741402
 21
951.43048906326294
  0
TEXT
  8
_0-5_寸法線
 62
    7
 10
826.74444307414024
 20
951.43048906326294
 40
24
 41
1
 50
0
  1
431.5
  0
LINE
  8
_0-5_寸法線
  6
CONTINUOUS
 62
    7
 10
1072.4944430741402
 20
951.43048906326294
 11
1087.9492562947653
 21
955.57159378490314
  0
LINE
  8
_0-5_寸法線
  6
CONTINUOUS
 62
    7
 10
1072.4944430741402
 20
951.43048906326294
 11
1087.9492562947653
 21
947.28938434162251
  0
LINE
  8
_0-5_寸法線
  6
CONTINUOUS
 62
    7
 10
1503.9944430741402
 20
887.43048906326294
 11
1503.9944430741402
 21
959.43048906326294
  0
LINE
  8
_0-5_寸法線
  6
CONTINUOUS
 62
    7
 10
1503.9944430741402
 20
951.43048906326294
 11
1488.5396298535152
 21
947.28938434162262
  0
LINE
  8
_0-5_寸法線
  6
CONTINUOUS
 62
    7
 10
1503.9944430741402
 20
951.43048906326294
 11
1488.5396298535152
 21
955.57159378490337
  0
LINE
  8
_0-5_寸法線
  6
CONTINUOUS
 62
    7
 10
1072.4944430741402
 20
951.43048906326294
 11
1503.9944430741402
 21
951.43048906326294
  0
TEXT
  8
_0-5_寸法線
 62
    7
 10
1258.2444430741407
 20
951.43048906326248
 40
24
 41
1
 50
0
  1
431.5
  0
LINE
  8
_0-5_寸法線
  6
CONTINUOUS
 62
    7
 10
1503.9944430741402
 20
951.43048906326294
 11
1519.4492562947653
 21
955.57159378490314
  0
LINE
  8
_0-5_寸法線
  6
CONTINUOUS
 62
    7
 10
1503.9944430741402
 20
951.43048906326294
 11
1519.4492562947653
 21
947.28938434162251
  0
LINE
  8
_0-5_寸法線
  6
CONTINUOUS
 62
    7
 10
1935.4944430741398
 20
887.43048906326294
 11
1935.4944430741398
 21
959.43048906326294
  0
LINE
  8
_0-5_寸法線
  6
CONTINUOUS
 62
    7
 10
1935.4944430741398
 20
951.43048906326294
 11
1920.0396298535147
 21
947.28938434162262
  0
LINE
  8
_0-5_寸法線
  6
CONTINUOUS
 62
    7
 10
1935.4944430741398
 20
951.43048906326294
 11
1920.0396298535147
 21
955.57159378490337
  0
LINE
  8
_0-5_寸法線
  6
CONTINUOUS
 62
    7
 10
1503.9944430741402
 20
951.43048906326294
 11
1935.4944430741398
 21
951.43048906326294
  0
TEXT
  8
_0-5_寸法線
 62
    7
 10
1689.7444430741398
 20
951.43048906326294
 40
24
 41
1
 50
0
  1
431.5
  0
LINE
  8
_0-5_寸法線
  6
CONTINUOUS
 62
    7
 10
1935.4944430741398
 20
951.43048906326294
 11
1950.9492562947648
 21
955.57159378490314
  0
LINE
  8
_0-5_寸法線
  6
CONTINUOUS
 62
    7
 10
1935.4944430741398
 20
951.43048906326294
 11
1950.9492562947648
 21
947.28938434162251
  0
LINE
  8
_0-5_寸法線
  6
CONTINUOUS
 62
    7
 10
1970.4944430741398
 20
887.43048906326294
 11
1970.4944430741398
 21
959.43048906326294
  0
LINE
  8
_0-5_寸法線
  6
CONTINUOUS
 62
    7
 10
1970.4944430741398
 20
951.43048906326294
 11
1955.0396298535147
 21
947.28938434162262
  0
LINE
  8
_0-5_寸法線
  6
CONTINUOUS
 62
    7
 10
1970.4944430741398
 20
951.43048906326294
 11
1955.0396298535147
 21
955.57159378490337
  0
LINE
  8
_0-5_寸法線
  6
CONTINUOUS
 62
    7
 10
1935.4944430741398
 20
951.43048906326294
 11
1970.4944430741398
 21
951.43048906326294
  0
TEXT
  8
_0-5_寸法線
 62
    7
 10
1940.9944430741398
 20
951.43048906326294
 40
24
 41
1
 50
0
  1
35
  0
LINE
  8
_0-5_寸法線
  6
CONTINUOUS
 62
    7
 10
1976.1944430741405
 20
851.43048906326294
 11
2114.4944430741398
 21
851.43048906326248
  0
LINE
  8
_0-5_寸法線
  6
CONTINUOUS
 62
    7
 10
2106.4944430741398
 20
851.43048906326248
 11
2110.63554779578
 21
835.97567584263743
  0
LINE
  8
_0-5_寸法線
  6
CONTINUOUS
 62
    7
 10
2106.4944430741398
 20
851.43048906326248
 11
2102.3533383524996
 21
835.97567584263743
  0
LINE
  8
_0-5_寸法線
  6
CONTINUOUS
 62
    7
 10
1986.4944430741398
 20
871.43048906326294
 11
2114.4944430741398
 21
871.43048906326248
  0
LINE
  8
_0-5_寸法線
  6
CONTINUOUS
 62
    7
 10
2106.4944430741398
 20
871.43048906326248
 11
2102.3533383524996
 21
886.88530228388754
  0
LINE
  8
_0-5_寸法線
  6
CONTINUOUS
 62
    7
 10
2106.4944430741398
 20
871.43048906326248
 11
2110.63554779578
 21
886.88530228388754
  0
LINE
  8
_0-5_寸法線
  6
CONTINUOUS
 62
    7
 10
2106.4944430741398
 20
811.43048906326248
 11
2106.4944430741398
 21
911.43048906326248
  0
TEXT
  8
_0-5_寸法線
 62
    7
 10
2106.4944430741398
 20
876.40578033843838
 40
24
 41
1
 50
90
  1
20
  0
LINE
  8
_0-5_寸法線
  6
CONTINUOUS
 62
    7
 10
1986.4944430741398
 20
863.43048906326419
 11
2058.4944430741398
 21
863.43048906326396
  0
LINE
  8
_0-5_寸法線
  6
CONTINUOUS
 62
    7
 10
2050.4944430741398
 20
863.43048906326396
 11
2054.63554779578
 21
847.97567584263879
  0
LINE
  8
_0-5_寸法線
  6
CONTINUOUS
 62
    7
 10
2050.4944430741398
 20
863.43048906326396
 11
2046.3533383524993
 21
847.97567584263891
  0
LINE
  8
_0-5_寸法線
  6
CONTINUOUS
 62
    7
 10
1986.4944430741398
 20
871.43048906326283
 11
2058.4944430741398
 21
871.4304890632626
  0
LINE
  8
_0-5_寸法線
  6
CONTINUOUS
 62
    7
 10
2050.4944430741398
 20
871.4304890632626
 11
2046.3533383524996
 21
886.88530228388765
  0
LINE
  8
_0-5_寸法線
  6
CONTINUOUS
 62
    7
 10
2050.4944430741398
 20
871.4304890632626
 11
2054.63554779578
 21
886.88530228388765
  0
LINE
  8
_0-5_寸法線
  6
CONTINUOUS
 62
    7
 10
2050.4944430741398
 20
839.43048906326396
 11
2050.4944430741398
 21
895.4304890632626
  0
TEXT
  8
_0-5_寸法線
 62
    7
 10
2050.4944430741398
 20
878.63126708684183
 40
24
 41
1
 50
90
  1
8
  0
LINE
  8
_0-5_寸法線
  6
CONTINUOUS
 62
    7
 10
1049.1444430974902
 20
791.42742639658763
 11
1049.1444430974898
 21
718.43048906326339
  0
LINE
  8
_0-5_寸法線
  6
CONTINUOUS
 62
    7
 10
1049.1444430974898
 20
726.43048906326339
 11
1064.5992563181148
 21
730.57159378490371
  0
LINE
  8
_0-5_寸法線
  6
CONTINUOUS
 62
    7
 10
1049.1444430974898
 20
726.43048906326339
 11
1064.5992563181148
 21
722.28938434162308
  0
LINE
  8
_0-5_寸法線
  6
CONTINUOUS
 62
    7
 10
1095.8444430507893
 20
791.42742639658763
 11
1095.8444430507889
 21
718.43048906326339
  0
LINE
  8
_0-5_寸法線
  6
CONTINUOUS
 62
    7
 10
1095.8444430507889
 20
726.43048906326339
 11
1080.3896298301638
 21
722.28938434162308
  0
LINE
  8
_0-5_寸法線
  6
CONTINUOUS
 62
    7
 10
1095.8444430507889
 20
726.43048906326339
 11
1080.3896298301638
 21
730.57159378490383
  0
LINE
  8
_0-5_寸法線
  6
CONTINUOUS
 62
    7
 10
1049.1444430974898
 20
726.43048906326339
 11
1095.8444430507889
 21
726.43048906326339
  0
TEXT
  8
_0-5_寸法線
 62
    7
 10
1048.4944430741389
 20
726.43048906326339
 40
24
 41
1
 50
0
  1
46.7
  0
LINE
  8
_0-5_寸法線
  6
CONTINUOUS
 62
    7
 10
1114.4944430481396
 20
830.93048906342062
 11
1193.6944431506795
 21
830.9304890634204
  0
LINE
  8
_0-5_寸法線
  6
CONTINUOUS
 62
    7
 10
1185.6944431506795
 20
830.9304890634204
 11
1189.8355478723197
 21
815.47567584279523
  0
LINE
  8
_0-5_寸法線
  6
CONTINUOUS
 62
    7
 10
1185.6944431506795
 20
830.9304890634204
 11
1181.5533384290391
 21
815.47567584279534
  0
LINE
  8
_0-5_寸法線
  6
CONTINUOUS
 62
    7
 10
1114.4944430481396
 20
871.43048906326283
 11
1193.6944431506795
 21
871.4304890632626
  0
LINE
  8
_0-5_寸法線
  6
CONTINUOUS
 62
    7
 10
1185.6944431506795
 20
871.4304890632626
 11
1181.5533384290393
 21
886.88530228388765
  0
LINE
  8
_0-5_寸法線
  6
CONTINUOUS
 62
    7
 10
1185.6944431506795
 20
871.4304890632626
 11
1189.8355478723199
 21
886.88530228388765
  0
LINE
  8
_0-5_寸法線
  6
CONTINUOUS
 62
    7
 10
1185.6944431506795
 20
790.9304890634204
 11
1185.6944431506795
 21
911.4304890632626
  0
TEXT
  8
_0-5_寸法線
 62
    7
 10
1185.6944431506795
 20
791.87593276631787
 40
24
 41
1
 50
90
  1
42
  0
TEXT
  8
_0-7_枠細線
 62
    5
 10
1544.7999999999997
 20
176
 40
32
 41
0.6
 50
0
  1
ＧＳＧ－１５Ｌ１８００
  0
LINE
  8
_0-1_計細線
  6
CONTINUOUS
 62
    3
 10
1064.4944432983552
 20
851.43048906326294
 11
648.99444299219249
 21
851.43048906326294
  0
LINE
  8
_0-1_計細線
  6
CONTINUOUS
 62
    3
 10
632.99444329835524
 20
851.43048906326294
 11
217.49444299219385
 21
851.43048906326294
  0
LINE
  8
_0-1_計細線
  6
CONTINUOUS
 62
    3
 10
1927.4944432983566
 20
851.43048906326294
 11
1511.9944429921929
 21
851.43048906326294
  0
LINE
  8
_0-1_計細線
  6
CONTINUOUS
 62
    3
 10
1495.9944432983557
 20
851.43048906326294
 11
1080.4944429921939
 21
851.43048906326294
  0
TEXT
  8
_0-7_枠細線
 62
    5
 10
1910.4000000000001
 20
188
 40
32
 41
0.6999999999999998
 50
0
  1
１：８
  0
TEXT
  8
_0-7_枠細線
 62
    5
 10
1544.7999999999995
 20
112
 40
32.000000000000007
 41
0.5999999999999997
 50
0
  1
表面形状については記号表参照のこと
  0
LINE
  8
_0-7_枠細線
  6
CONTINUOUS
 62
    5
 10
1400
 20
283.9999999999992
 11
1400
 21
116
  0
TEXT
  8
_0-7_枠細線
 62
    5
 10
1254.4000000000015
 20
251.9999999999992
 40
24.000000000000004
 41
0.8
 50
0
  1
ノンスリップ
  0
LINE
  8
_0-7_枠細線
  6
CONTINUOUS
 62
    5
 10
1239.8843333405437
 20
167.60443464038576
 11
1391.6931119920307
 21
167.60443464038576
  0
LINE
  8
_0-7_枠細線
  6
CONTINUOUS
 62
    5
 10
1233.9080240078072
 20
194.27110130438587
 11
1385.7168026592944
 21
194.27110130438587
  0
ARC
  8
_0-7_枠細線
  6
CONTINUOUS
 62
    5
 10
1257.3333333387991
 20
175.60443463958575
 40
5.3333333327999997
 50
51.317813000006232
 51
203.5781780000018
  0
ARC
  8
_0-7_枠細線
  6
CONTINUOUS
 62
    5
 10
1264.0000000047989
 20
183.93109863875327
 40
5.3333333327999997
 50
231.31781300000054
 51
308.68218699999687
  0
LINE
  8
_0-7_枠細線
  6
CONTINUOUS
 62
    5
 10
1252.4452533392885
 20
173.47110130646581
 11
1275.5547466703099
 21
173.47110130646581
  0
ARC
  8
_0-7_枠細線
  6
CONTINUOUS
 62
    5
 10
1270.6666666707993
 20
175.60443463958575
 40
5.3333333327999997
 50
336.42182199999456
 51
128.68218699999915
  0
ARC
  8
_0-7_枠細線
  6
CONTINUOUS
 62
    5
 10
1305.3333333339995
 20
186.27110130518577
 40
5.3333333327999997
 50
156.42182199999701
 51
308.68218699999397
  0
ARC
  8
_0-7_枠細線
  6
CONTINUOUS
 62
    5
 10
1311.9999999999991
 20
177.94443730601824
 40
5.3333333327999997
 50
51.317813000007185
 51
128.68218699999662
  0
ARC
  8
_0-7_枠細線
  6
CONTINUOUS
 62
    5
 10
1318.6666666659994
 20
186.27110130518577
 40
5.3333333327999997
 50
231.31781299999577
 51
23.578178000004584
  0
LINE
  8
_0-7_枠細線
  6
CONTINUOUS
 62
    5
 10
1300.4452533344888
 20
188.4044346383057
 11
1323.5547466655096
 21
188.4044346383057
  0
LINE
  8
_0-7_枠細線
  6
CONTINUOUS
 62
    5
 10
1348.4452533296885
 20
173.47110130646581
 11
1371.5547466607102
 21
173.47110130646581
  0
ARC
  8
_0-7_枠細線
  6
CONTINUOUS
 62
    5
 10
1353.3333333291991
 20
175.60443463958575
 40
5.3333333327999997
 50
51.317813000006232
 51
203.5781780000018
  0
ARC
  8
_0-7_枠細線
  6
CONTINUOUS
 62
    5
 10
1359.9999999951988
 20
183.93109863875327
 40
5.3333333327999997
 50
231.31781300000245
 51
308.68218699999875
  0
ARC
  8
_0-7_枠細線
  6
CONTINUOUS
 62
    5
 10
1366.6666666611991
 20
175.60443463958575
 40
5.3333333327999997
 50
336.4218219999965
 51
128.68218699999724
  0
ARC
  8
_0-7_枠細線
  6
CONTINUOUS
 62
    5
 10
1305.3333333339995
 20
186.27110130518577
 40
9.9466666656720477
 50
151.14636799999636
 51
308.68218700000392
  0
LINE
  8
_0-7_枠細線
  6
CONTINUOUS
 62
    5
 10
1233.3219920078668
 20
191.07110130470573
 11
1296.621493334869
 21
191.07110130470573
  0
LINE
  8
_0-7_枠細線
  6
CONTINUOUS
 62
    5
 10
1279.3785093365941
 20
170.80443464006601
 11
1344.6214933300716
 21
170.80443464006601
  0
ARC
  8
_0-7_枠細線
  6
CONTINUOUS
 62
    5
 10
1226.7526373418573
 20
171.66297597331311
 40
13.744570665292123
 50
317.56162899999924
 51
42.438371000002093
  0
ARC
  8
_0-7_枠細線
  6
CONTINUOUS
 62
    5
 10
1257.3333333387991
 20
175.60443463958575
 40
9.9466666656720477
 50
51.317812999992654
 51
208.85363199999745
  0
ARC
  8
_0-7_枠細線
  6
CONTINUOUS
 62
    5
 10
1247.0397226731611
 20
190.21255997145852
 40
13.744570665292123
 50
137.56162899999987
 51
222.43837100000144
  0
LINE
  8
_0-7_枠細線
  6
CONTINUOUS
 62
    5
 10
1240.4703680071516
 20
170.80443464006601
 11
1248.6214933396693
 21
170.80443464006601
  0
ARC
  8
_0-7_枠細線
  6
CONTINUOUS
 62
    5
 10
1264.0000000047989
 20
183.93109863875327
 40
0.7199999999279512
 50
231.31781300002814
 51
308.68218699999932
  0
ARC
  8
_0-7_枠細線
  6
CONTINUOUS
 62
    5
 10
1270.6666666707993
 20
175.60443463958575
 40
9.9466666656720477
 50
331.14636800000056
 51
128.68218700000699
  0
ARC
  8
_0-7_枠細線
  6
CONTINUOUS
 62
    5
 10
1378.5614159933446
 20
171.66297597331311
 40
13.744570665292123
 50
317.56162899999799
 51
42.438371000002093
  0
ARC
  8
_0-7_枠細線
  6
CONTINUOUS
 62
    5
 10
1398.8485013246489
 20
190.21255997145852
 40
13.744570665292123
 50
137.56162900000308
 51
222.43837100000016
  0
LINE
  8
_0-7_枠細線
  6
CONTINUOUS
 62
    5
 10
1375.3785093269942
 20
170.80443464006601
 11
1392.2791466586393
 21
170.80443464006601
  0
LINE
  8
_0-7_枠細線
  6
CONTINUOUS
 62
    5
 10
1327.3785093317945
 20
191.07110130470573
 11
1385.1307706593541
 21
191.07110130470573
  0
ARC
  8
_0-7_枠細線
  6
CONTINUOUS
 62
    5
 10
1353.3333333291991
 20
175.60443463958575
 40
9.9466666656720477
 50
51.317812999993677
 51
208.85363200000518
  0
ARC
  8
_0-7_枠細線
  6
CONTINUOUS
 62
    5
 10
1311.9999999999991
 20
177.94443730601824
 40
0.7199999999279512
 50
51.317813000032764
 51
128.68218699999548
  0
ARC
  8
_0-7_枠細線
  6
CONTINUOUS
 62
    5
 10
1318.6666666659994
 20
186.27110130518577
 40
9.9466666656720477
 50
231.31781299999028
 51
28.853631999998139
  0
ARC
  8
_0-7_枠細線
  6
CONTINUOUS
 62
    5
 10
1359.9999999951988
 20
183.93109863875327
 40
0.7199999999279512
 50
231.31781300002814
 51
308.68218700001347
  0
ARC
  8
_0-7_枠細線
  6
CONTINUOUS
 62
    5
 10
1366.6666666611991
 20
175.60443463958575
 40
9.9466666656720477
 50
331.14636800000056
 51
128.682187000006
  0
LINE
  8
_0-7_枠細線
  6
CENTER1
 62
    5
 10
1264.0000000047989
 20
196.51076263749485
 11
1264.0000000047989
 21
165.55372530725754
  0
LINE
  8
_0-7_枠細線
  6
CENTER1
 62
    5
 10
1359.9999999951988
 20
196.51076263749485
 11
1359.9999999951988
 21
165.55372530725754
  0
LINE
  8
_0-7_枠細線
  6
CENTER1
 62
    5
 10
1311.9999999999991
 20
196.51076263749485
 11
1311.9999999999991
 21
165.55372530725754
  0
LINE
  8
_0-7_枠細線
  6
CONTINUOUS
 62
    5
 10
1264.0000000047989
 20
159.60443464038576
 11
1264.0000000047989
 21
119.60443464038576
  0
LINE
  8
_0-7_枠細線
  6
CONTINUOUS
 62
    5
 10
1264.0000000047989
 20
127.60443464038576
 11
1279.454813225424
 21
131.74553936202619
  0
LINE
  8
_0-7_枠細線
  6
CONTINUOUS
 62
    5
 10
1264.0000000047989
 20
127.60443464038576
 11
1279.454813225424
 21
123.46332991874544
  0
LINE
  8
_0-7_枠細線
  6
CONTINUOUS
 62
    5
 10
1311.9999999999991
 20
159.60443464038576
 11
1311.9999999999991
 21
119.60443464038576
  0
LINE
  8
_0-7_枠細線
  6
CONTINUOUS
 62
    5
 10
1311.9999999999991
 20
127.60443464038576
 11
1296.545186779374
 21
123.46332991874556
  0
LINE
  8
_0-7_枠細線
  6
CONTINUOUS
 62
    5
 10
1311.9999999999991
 20
127.60443464038576
 11
1296.545186779374
 21
131.74553936202619
  0
LINE
  8
_0-7_枠細線
  6
CONTINUOUS
 62
    5
 10
1264.0000000047989
 20
127.60443464038576
 11
1311.9999999999991
 21
127.60443464038576
  0
TEXT
  8
_0-7_枠細線
 62
    5
 10
1276.000000002399
 20
127.60443464038576
 40
24
 41
1
 50
0
  1
18
  0
LINE
  8
_0-7_枠細線
  6
CONTINUOUS
 62
    5
 10
1311.9999999999991
 20
127.60443464038576
 11
1327.4548132206241
 21
131.74553936202608
  0
LINE
  8
_0-7_枠細線
  6
CONTINUOUS
 62
    5
 10
1311.9999999999991
 20
127.60443464038576
 11
1327.4548132206241
 21
123.46332991874533
  0
LINE
  8
_0-7_枠細線
  6
CONTINUOUS
 62
    5
 10
1359.9999999951988
 20
159.60443464038576
 11
1359.9999999951988
 21
119.60443464038576
  0
LINE
  8
_0-7_枠細線
  6
CONTINUOUS
 62
    5
 10
1359.9999999951988
 20
127.60443464038576
 11
1344.5451867745737
 21
123.46332991874556
  0
LINE
  8
_0-7_枠細線
  6
CONTINUOUS
 62
    5
 10
1359.9999999951988
 20
127.60443464038576
 11
1344.5451867745737
 21
131.74553936202619
  0
LINE
  8
_0-7_枠細線
  6
CONTINUOUS
 62
    5
 10
1311.9999999999991
 20
127.60443464038576
 11
1359.9999999951988
 21
127.60443464038576
  0
TEXT
  8
_0-7_枠細線
 62
    5
 10
1323.9999999975994
 20
127.60443464038576
 40
24
 41
1
 50
0
  1
18
  0
TEXT
  8
_0-7_枠細線
 62
    5
 10
1273.6000000000006
 20
211.99999999999943
 40
24.000000000000004
 41
0.7999999999999997
 50
0
  1
品番－Ｄ
  0
LINE
  8
_0-7_枠細線
  6
CONTINUOUS
 62
    5
 10
1223.9999999999995
 20
283.9999999999992
 11
1223.9999999999995
 21
116
  0
TEXT
  8
_0-7_枠細線
 62
    5
 10
1097.5999999999992
 20
251.99999999999943
 40
24.000000000000004
 41
0.8
 50
0
  1
プレーン
  0
LINE
  8
_0-7_枠細線
  6
CONTINUOUS
 62
    5
 10
1063.08376400729
 20
167.60443464038576
 11
1214.8925426587773
 21
167.60443464038576
  0
LINE
  8
_0-7_枠細線
  6
CONTINUOUS
 62
    5
 10
1057.107454674554
 20
194.27110130438587
 11
1208.9162333260415
 21
194.27110130438587
  0
ARC
  8
_0-7_枠細線
  6
CONTINUOUS
 62
    5
 10
1201.7608466600891
 20
171.66297597331311
 40
13.744570665292123
 50
317.56162900000493
 51
42.43837099999547
  0
ARC
  8
_0-7_枠細線
  6
CONTINUOUS
 62
    5
 10
1049.9520680086041
 20
171.66297597331311
 40
13.744570665292274
 50
317.56162899999941
 51
42.43837100000097
  0
LINE
  8
_0-7_枠細線
  6
CONTINUOUS
 62
    5
 10
1056.5214226746136
 20
191.07110130470573
 11
1208.3302013261009
 21
191.07110130470573
  0
LINE
  8
_0-7_枠細線
  6
CONTINUOUS
 62
    5
 10
1063.6697986738986
 20
170.80443464006601
 11
1215.4785773253852
 21
170.80443464006601
  0
ARC
  8
_0-7_枠細線
  6
CONTINUOUS
 62
    5
 10
1070.23915333991
 20
190.21255997145852
 40
13.744570665292274
 50
137.56162900000007
 51
222.43837100000314
  0
ARC
  8
_0-7_枠細線
  6
CONTINUOUS
 62
    5
 10
1222.0479319913948
 20
190.21255997145852
 40
13.744570665292123
 50
137.56162899999987
 51
222.43837100000269
  0
TEXT
  8
_0-7_枠細線
 62
    5
 10
1097.6000000000008
 20
211.99999999999943
 40
24.000000000000004
 41
0.7999999999999997
 50
0
  1
品番－Ｆ
  0
TEXT
  8
_0-7_枠細線
 62
    5
 10
969.59999999999991
 20
251.9999999999992
 40
24.000000000000004
 41
0.8
 50
0
  1
タ イ プ
  0
LINE
  8
_0-7_枠細線
  6
CONTINUOUS
 62
    5
 10
967.99999999999886
 20
203.99999999999943
 11
1400
 21
203.99999999999943
  0
LINE
  8
_0-7_枠細線
  6
CONTINUOUS
 62
    5
 10
967.99999999999886
 20
243.9999999999992
 11
1400
 21
243.9999999999992
  0
LINE
  8
_0-7_枠細線
  6
CONTINUOUS
 62
    5
 10
967.99999999999886
 20
283.9999999999992
 11
1400
 21
283.9999999999992
  0
LINE
  8
_0-7_枠細線
  6
CONTINUOUS
 62
    5
 10
967.99999999999886
 20
116
 11
1400
 21
116
  0
LINE
  8
_0-7_枠細線
  6
CONTINUOUS
 62
    5
 10
1048
 20
283.9999999999992
 11
1048
 21
116
  0
LINE
  8
_0-7_枠細線
  6
CONTINUOUS
 62
    5
 10
967.99999999999886
 20
283.9999999999992
 11
967.99999999999886
 21
116
  0
TEXT
  8
_0-7_枠細線
 62
    5
 10
969.59999999999991
 20
147.99999999999966
 40
24.000000000000004
 41
0.8
 50
0
  1
表面形状
  0
TEXT
  8
_0-7_枠細線
 62
    5
 10
980.43873814529684
 20
287.99999999999932
 40
28.000000000000004
 41
0.7999999999999997
 50
0
  1
記号表
  0
TEXT
  8
_0-7_枠細線
 62
    5
 10
969.59999999999991
 20
211.99999999999955
 40
24.000000000000004
 41
0.8
 50
0
  1
記　　号
  0
ARC
  8
_0-1_計細線
  6
CONTINUOUS
 62
    3
 10
1072.5718094281669
 20
1197.073758649035
 40
32.499868667505325
 50
269.99999999999977
 51
89.999999999999545
  0
LINE
  8
_0-1_計細線
  6
CONTINUOUS
 62
    3
 10
1085.4943905411424
 20
1195.2923325144734
 11
1072.4944430741402
 21
1195.2923325144734
  0
CIRCLE
  8
_0-1_計細線
  6
CONTINUOUS
 62
    3
 10
1078.2032533380766
 20
1191.3681083723268
 40
1.9999919180004326
  0
CIRCLE
  8
_0-1_計細線
  6
CONTINUOUS
 62
    3
 10
1084.6794471676735
 20
1190.0344537616465
 40
1.9999919180004326
  0
CIRCLE
  8
_0-1_計細線
  6
CONTINUOUS
 62
    3
 10
1079.5369012821179
 20
1184.891907876091
 40
1.9999919180004326
  0
LINE
  8
_0-1_計細線
  6
CONTINUOUS
 62
    3
 10
1085.4943905411424
 20
1195.2923325144734
 11
1085.4943905411424
 21
1197.0423254427233
  0
CIRCLE
  8
_0-1_計細線
  6
CONTINUOUS
 62
    3
 10
1066.7856328102012
 20
1191.3681083723268
 40
1.9999919180004326
  0
CIRCLE
  8
_0-1_計細線
  6
CONTINUOUS
 62
    3
 10
1060.3094389806042
 20
1190.0344537616465
 40
1.9999919180004326
  0
CIRCLE
  8
_0-1_計細線
  6
CONTINUOUS
 62
    3
 10
1065.4519848661598
 20
1184.891907876091
 40
1.9999919180004326
  0
CIRCLE
  8
_0-1_計細線
  6
CONTINUOUS
 62
    3
 10
1072.47683647862
 20
1189.0107312318582
 40
1.9999919180004326
  0
CIRCLE
  8
_0-1_計細線
  6
CONTINUOUS
 62
    3
 10
1072.47683647862
 20
1183.0096088158252
 40
1.9999919180004326
  0
LINE
  8
_0-1_計細線
  6
CONTINUOUS
 62
    3
 10
1059.4944956071381
 20
1195.2923325144734
 11
1059.4944956071381
 21
1197.0423254427233
  0
LINE
  8
_0-1_計細線
  6
CONTINUOUS
 62
    3
 10
1059.4944956071381
 20
1195.2923325144734
 11
1072.4944430741402
 21
1195.2923325144734
  0
LINE
  8
_0-1_計細線
  6
CONTINUOUS
 62
    3
 10
1085.4943905411424
 20
1198.7923183709731
 11
1072.4944430741402
 21
1198.7923183709731
  0
CIRCLE
  8
_0-1_計細線
  6
CONTINUOUS
 62
    3
 10
1078.2032533380766
 20
1202.7165425131211
 40
1.9999919180004326
  0
CIRCLE
  8
_0-1_計細線
  6
CONTINUOUS
 62
    3
 10
1084.6794471676735
 20
1204.0501904571611
 40
1.9999919180004326
  0
CIRCLE
  8
_0-1_計細線
  6
CONTINUOUS
 62
    3
 10
1079.5369012821179
 20
1209.1927363427167
 40
1.9999919180004326
  0
LINE
  8
_0-1_計細線
  6
CONTINUOUS
 62
    3
 10
1085.4943905411424
 20
1198.7923183709731
 11
1085.4943905411424
 21
1197.0423254427233
  0
CIRCLE
  8
_0-1_計細線
  6
CONTINUOUS
 62
    3
 10
1066.7856328102012
 20
1202.7165425131211
 40
1.9999919180004326
  0
CIRCLE
  8
_0-1_計細線
  6
CONTINUOUS
 62
    3
 10
1060.3094389806042
 20
1204.0501904571611
 40
1.9999919180004326
  0
CIRCLE
  8
_0-1_計細線
  6
CONTINUOUS
 62
    3
 10
1065.4519848661598
 20
1209.1927363427167
 40
1.9999919180004326
  0
CIRCLE
  8
_0-1_計細線
  6
CONTINUOUS
 62
    3
 10
1072.47683647862
 20
1205.0739129869494
 40
1.9999919180004326
  0
CIRCLE
  8
_0-1_計細線
  6
CONTINUOUS
 62
    3
 10
1072.47683647862
 20
1211.0750420696227
 40
1.9999919180004326
  0
LINE
  8
_0-1_計細線
  6
CONTINUOUS
 62
    3
 10
1059.4944956071381
 20
1198.7923183709731
 11
1059.4944956071381
 21
1197.0423254427233
  0
LINE
  8
_0-1_計細線
  6
CONTINUOUS
 62
    3
 10
1059.4944956071381
 20
1198.7923183709731
 11
1072.4944430741402
 21
1198.7923183709731
  0
CIRCLE
  8
_0-1_計細線
  6
CONTINUOUS
 62
    3
 10
1072.4170767201108
 20
1197.073758649035
 40
16.499933323502546
  0
CIRCLE
  8
_0-1_計細線
  6
CONTINUOUS
 62
    3
 10
1072.4170767201108
 20
1197.073758649035
 40
19.999919180003303
  0
CIRCLE
  8
_0-1_計細線
  6
CONTINUOUS
 62
    3
 10
1072.4170767201108
 20
1197.073758649035
 40
21.999911098003736
  0
CIRCLE
  8
_0-1_計細線
  6
CONTINUOUS
 62
    3
 10
1072.4170767201108
 20
1197.073758649035
 40
32.249869677755441
  0
ARC
  8
_0-1_計細線
  6
CONTINUOUS
 62
    3
 10
1072.4170767201108
 20
1197.073758649035
 40
32.499868667505325
 50
89.999999999999915
 51
269.99999999999977
  0
LINE
  8
_0-1_計細線
  6
CONTINUOUS
 62
    3
 10
186.99444307414024
 20
1147.792325442726
 11
186.99444307414024
 21
1137.792325442726
  0
LINE
  8
_0-1_計細線
  6
CONTINUOUS
 62
    3
 10
186.99444307414024
 20
1163.2923254427255
 11
186.99444307414024
 21
1153.2923254427255
  0
LINE
  8
_0-1_計細線
  6
CONTINUOUS
 62
    3
 10
186.99444307414024
 20
1178.7923254427251
 11
186.99444307414024
 21
1168.7923254427251
  0
LINE
  8
_0-1_計細線
  6
CONTINUOUS
 62
    3
 10
186.99444307414024
 20
1194.2923254427246
 11
186.99444307414024
 21
1184.2923254427246
  0
LINE
  8
_0-1_計細線
  6
CONTINUOUS
 62
    3
 10
186.99444307414024
 20
1209.7923254427242
 11
186.99444307414024
 21
1199.7923254427242
  0
LINE
  8
_0-1_計細線
  6
CONTINUOUS
 62
    3
 10
186.99444307414024
 20
1225.2923254427237
 11
186.99444307414024
 21
1215.2923254427237
  0
LINE
  8
_0-1_計細線
  6
CONTINUOUS
 62
    3
 10
186.99444307414024
 20
1240.7923254427237
 11
186.99444307414024
 21
1230.7923254427237
  0
LINE
  8
_0-1_計細線
  6
CONTINUOUS
 62
    3
 10
186.99444307414024
 20
1256.2923254427233
 11
186.99444307414024
 21
1246.2923254427233
  0
LINE
  8
_0-0_計極細
  6
CONTINUOUS
 62
    2
 10
196.0444407931659
 20
1246.2923254427233
 11
196.04444307414087
 21
1240.7923254427237
  0
LINE
  8
_0-0_計極細
  6
CONTINUOUS
 62
    2
 10
202.94444076296259
 20
1246.2923254427233
 11
202.94444307414096
 21
1240.7923254427237
  0
LINE
  8
_0-0_計極細
  6
CONTINUOUS
 62
    2
 10
196.04444308339271
 20
1230.7923254427237
 11
196.04444308339271
 21
1225.2923254427237
  0
LINE
  8
_0-0_計極細
  6
CONTINUOUS
 62
    2
 10
202.94444308351513
 20
1230.7923254427237
 11
202.94444308351513
 21
1225.2923254427237
  0
LINE
  8
_0-0_計極細
  6
CONTINUOUS
 62
    2
 10
196.04444308339271
 20
1209.7923254427242
 11
196.04444308339271
 21
1215.2923254427237
  0
LINE
  8
_0-0_計極細
  6
CONTINUOUS
 62
    2
 10
202.94444308351513
 20
1209.7923254427242
 11
202.94444308351513
 21
1215.2923254427237
  0
LINE
  8
_0-0_計極細
  6
CONTINUOUS
 62
    2
 10
196.04444308339271
 20
1194.2923254427246
 11
196.04444308339271
 21
1199.7923254427242
  0
LINE
  8
_0-0_計極細
  6
CONTINUOUS
 62
    2
 10
202.94444308351513
 20
1194.2923254427246
 11
202.94444308351513
 21
1199.7923254427242
  0
LINE
  8
_0-0_計極細
  6
CONTINUOUS
 62
    2
 10
196.0444407931659
 20
1147.7923254427233
 11
196.04444307414087
 21
1153.2923254427228
  0
LINE
  8
_0-0_計極細
  6
CONTINUOUS
 62
    2
 10
202.94444076296259
 20
1147.7923254427233
 11
202.94444307414096
 21
1153.2923254427228
  0
LINE
  8
_0-0_計極細
  6
CONTINUOUS
 62
    2
 10
196.04444308339271
 20
1163.2923254427228
 11
196.04444308339271
 21
1168.7923254427228
  0
LINE
  8
_0-0_計極細
  6
CONTINUOUS
 62
    2
 10
202.94444308351513
 20
1163.2923254427228
 11
202.94444308351513
 21
1168.7923254427228
  0
LINE
  8
_0-0_計極細
  6
CONTINUOUS
 62
    2
 10
196.04444308339271
 20
1184.2923254427224
 11
196.04444308339271
 21
1178.7923254427228
  0
LINE
  8
_0-0_計極細
  6
CONTINUOUS
 62
    2
 10
202.94444308351513
 20
1184.2923254427224
 11
202.94444308351513
 21
1178.7923254427228
  0
ARC
  8
_0-1_計細線
  6
CONTINUOUS
 62
    3
 10
2180.7577947693699
 20
1231.0423255192636
 40
0.8
 50
179.99999999999983
 51
269.99999999999977
  0
LINE
  8
_0-1_計細線
  6
CONTINUOUS
 62
    3
 10
2180.7577947693699
 20
1230.2423255192637
 11
2184.1577947693695
 21
1230.2423255192637
  0
ARC
  8
_0-1_計細線
  6
CONTINUOUS
 62
    3
 10
2184.1577947693695
 20
1228.7423255192637
 40
1.5
 50
0
 51
89.999999999999915
  0
LINE
  8
_0-1_計細線
  6
CONTINUOUS
 62
    3
 10
2185.6577947693695
 20
1228.7423255192637
 11
2185.6577947693695
 21
1197.0423254427235
  0
LINE
  8
_0-0_計極細
  6
CONTINUOUS
 62
    2
 10
2180.7577947693699
 20
1197.0423254427233
 11
2180.7577947693699
 21
1230.2423255192637
  0
ARC
  8
_0-1_計細線
  6
CONTINUOUS
 62
    3
 10
2180.7577947693699
 20
1163.0423253661829
 40
0.8
 50
89.999999999999915
 51
179.99999999999983
  0
LINE
  8
_0-1_計細線
  6
CONTINUOUS
 62
    3
 10
2180.7577947693699
 20
1163.8423253661829
 11
2184.1577947693695
 21
1163.8423253661829
  0
ARC
  8
_0-1_計細線
  6
CONTINUOUS
 62
    3
 10
2184.1577947693695
 20
1165.3423253661829
 40
1.5
 50
269.99999999999977
 51
359.99999999999966
  0
LINE
  8
_0-1_計細線
  6
CONTINUOUS
 62
    3
 10
2185.6577947693695
 20
1165.3423253661829
 11
2185.6577947693695
 21
1197.042325442723
  0
LINE
  8
_0-0_計極細
  6
CONTINUOUS
 62
    2
 10
2180.7577947693699
 20
1197.0423254427233
 11
2180.7577947693699
 21
1163.8423253661829
  0
LINE
  8
_0-1_計細線
  6
CONTINUOUS
 62
    3
 10
2185.6577947693695
 20
1228.7923254109733
 11
2187.4577947693415
 21
1228.7923254109733
  0
LINE
  8
_0-1_計細線
  6
CONTINUOUS
 62
    3
 10
2167.9577624413705
 20
1259.7425529510147
 11
2167.9577624413705
 21
1134.342477788417
  0
LINE
  8
_0-1_計細線
  6
CONTINUOUS
 62
    3
 10
2167.9577624413705
 20
1134.342477788417
 11
2179.9577139493704
 21
1134.342477788417
  0
LINE
  8
_0-1_計細線
  6
CONTINUOUS
 62
    3
 10
2179.9577139493704
 20
1134.342477788417
 11
2179.9577139493704
 21
1259.7425529510147
  0
LINE
  8
_0-1_計細線
  6
CONTINUOUS
 62
    3
 10
2179.9577139493704
 20
1259.7425529510147
 11
2167.9577624413705
 21
1259.7425529510147
  0
LINE
  8
_0-1_計細線
  6
CONTINUOUS
 62
    3
 10
2159.9577947693688
 20
1125.0425153697165
 11
2159.9577947693688
 21
1197.0423254427233
  0
LINE
  8
_0-1_計細線
  6
CONTINUOUS
 62
    3
 10
2159.9577947693688
 20
1269.0425153697165
 11
2159.9577947693688
 21
1197.0423254427233
  0
LINE
  8
_0-1_計細線
  6
CONTINUOUS
 62
    3
 10
2159.9577947693688
 20
1269.0425153697165
 11
2167.9577624413705
 21
1269.0425153697165
  0
LINE
  8
_0-1_計細線
  6
CONTINUOUS
 62
    3
 10
2167.9577624413705
 20
1269.0425153697165
 11
2167.9577624413705
 21
1197.0423254427233
  0
LINE
  8
_0-1_計細線
  6
CONTINUOUS
 62
    3
 10
2167.9577624413705
 20
1125.0425153697165
 11
2167.9577624413705
 21
1197.0423254427233
  0
LINE
  8
_0-1_計細線
  6
CONTINUOUS
 62
    3
 10
2159.9577947693688
 20
1125.0425153697165
 11
2167.9577624413705
 21
1125.0425153697165
  0
LINE
  8
_0-1_計細線
  6
CONTINUOUS
 62
    3
 10
2167.9577139493704
 20
1260.9425529510145
 11
2167.9577139493704
 21
1259.7425529510147
  0
LINE
  8
_0-1_計細線
  6
CONTINUOUS
 62
    3
 10
2167.9577139493704
 20
1259.7425529510147
 11
2202.9577139493704
 21
1259.7425529510147
  0
LINE
  8
_0-1_計細線
  6
CONTINUOUS
 62
    3
 10
2202.9577139493704
 20
1259.7425529510147
 11
2202.9577139493704
 21
1260.9425529510145
  0
LINE
  8
_0-1_計細線
  6
CONTINUOUS
 62
    3
 10
2202.9577139493704
 20
1260.9425529510145
 11
2167.9577139493704
 21
1260.9425529510145
  0
LINE
  8
_0-0_計極細
  6
CONTINUOUS
 62
    2
 10
2169.9577139493704
 20
1259.7425529510147
 11
2169.9577139493704
 21
1260.9425529510145
  0
LINE
  8
_0-0_計極細
  6
CONTINUOUS
 62
    2
 10
2181.9577139493704
 20
1259.7425529510147
 11
2181.9577139493704
 21
1260.9425529510145
  0
LINE
  8
_0-0_計極細
  6
CONTINUOUS
 62
    2
 10
2183.9577139493704
 20
1259.7425529510147
 11
2183.9577139493704
 21
1260.9425529510145
  0
LINE
  8
_0-0_計極細
  6
CONTINUOUS
 62
    2
 10
2185.9577139493704
 20
1259.7425529510147
 11
2185.9577139493704
 21
1260.9425529510145
  0
LINE
  8
_0-0_計極細
  6
CONTINUOUS
 62
    2
 10
2199.9577139493704
 20
1259.7425529510147
 11
2199.9577139493704
 21
1260.9425529510145
  0
LINE
  8
_0-0_計極細
  6
CONTINUOUS
 62
    2
 10
2179.9577139493704
 20
1259.7425529510147
 11
2179.9577139493704
 21
1260.9425529510145
  0
LINE
  8
_0-1_計細線
  6
CONTINUOUS
 62
    3
 10
2167.9577139493704
 20
1134.342477788417
 11
2167.9577139493704
 21
1133.1424777884172
  0
LINE
  8
_0-1_計細線
  6
CONTINUOUS
 62
    3
 10
2167.9577139493704
 20
1133.1424777884172
 11
2202.9577139493704
 21
1133.1424777884172
  0
LINE
  8
_0-1_計細線
  6
CONTINUOUS
 62
    3
 10
2202.9577139493704
 20
1133.1424777884172
 11
2202.9577139493704
 21
1134.342477788417
  0
LINE
  8
_0-1_計細線
  6
CONTINUOUS
 62
    3
 10
2202.9577139493704
 20
1134.342477788417
 11
2167.9577139493704
 21
1134.342477788417
  0
LINE
  8
_0-0_計極細
  6
CONTINUOUS
 62
    2
 10
2169.9577139493704
 20
1133.1424777884172
 11
2169.9577139493704
 21
1134.342477788417
  0
LINE
  8
_0-0_計極細
  6
CONTINUOUS
 62
    2
 10
2181.9577139493704
 20
1133.1424777884172
 11
2181.9577139493704
 21
1134.342477788417
  0
LINE
  8
_0-0_計極細
  6
CONTINUOUS
 62
    2
 10
2183.9577139493704
 20
1133.1424777884172
 11
2183.9577139493704
 21
1134.342477788417
  0
LINE
  8
_0-0_計極細
  6
CONTINUOUS
 62
    2
 10
2185.9577139493704
 20
1133.1424777884172
 11
2185.9577139493704
 21
1134.342477788417
  0
LINE
  8
_0-0_計極細
  6
CONTINUOUS
 62
    2
 10
2199.9577139493704
 20
1133.1424777884172
 11
2199.9577139493704
 21
1134.342477788417
  0
LINE
  8
_0-0_計極細
  6
CONTINUOUS
 62
    2
 10
2179.9577139493704
 20
1133.1424777884172
 11
2179.9577139493704
 21
1134.342477788417
  0
ARC
  8
_0-1_計細線
  6
CONTINUOUS
 62
    3
 10
2187.4577947693415
 20
1225.7923254139732
 40
2.9999999969999998
 50
0
 51
89.999999999999915
  0
LINE
  8
_0-0_計極細
  6
CONTINUOUS
 62
    2
 10
2190.4577947693124
 20
1220.0423254197231
 11
2200.4577947692123
 21
1220.0423254197231
  0
LINE
  8
_0-1_計細線
  6
CONTINUOUS
 62
    3
 10
2190.4577947693124
 20
1223.0423254167233
 11
2200.4577947692123
 21
1223.0423254167233
  0
LINE
  8
_0-0_計極細
  6
CONTINUOUS
 62
    2
 10
2223.9608574360445
 20
1197.0423254427233
 11
2223.9608574360445
 21
1220.3923254193728
  0
LINE
  8
_0-1_計細線
  6
CONTINUOUS
 62
    3
 10
2224.9577947693688
 20
1197.0423254427233
 11
2224.9577947693688
 21
1219.3923254203728
  0
LINE
  8
_0-0_計極細
  6
CONTINUOUS
 62
    2
 10
2200.4577947692123
 20
1219.3923254203728
 11
2224.9577947693688
 21
1219.3923254203728
  0
LINE
  8
_0-1_計細線
  6
CONTINUOUS
 62
    3
 10
2200.4577947692123
 20
1220.3923254193728
 11
2223.9608574360445
 21
1220.3923254193728
  0
LINE
  8
_0-1_計細線
  6
CONTINUOUS
 62
    3
 10
2200.4577947692123
 20
1197.0423254427233
 11
2200.4577947692123
 21
1223.0423254167233
  0
LINE
  8
_0-1_計細線
  6
CONTINUOUS
 62
    3
 10
2190.4577947693124
 20
1197.0423254427233
 11
2190.4577947693124
 21
1225.7923254139732
  0
LINE
  8
_0-1_計細線
  6
CONTINUOUS
 62
    3
 10
2185.6577947693695
 20
1165.2923254744733
 11
2187.4577947693415
 21
1165.2923254744733
  0
ARC
  8
_0-1_計細線
  6
CONTINUOUS
 62
    3
 10
2187.4577947693415
 20
1168.2923254714733
 40
2.9999999969999998
 50
269.99999999999977
 51
359.99999999999966
  0
LINE
  8
_0-0_計極細
  6
CONTINUOUS
 62
    2
 10
2190.4577947693124
 20
1174.0423254657235
 11
2200.4577947692123
 21
1174.0423254657235
  0
LINE
  8
_0-1_計細線
  6
CONTINUOUS
 62
    3
 10
2190.4577947693124
 20
1171.0423254687232
 11
2200.4577947692123
 21
1171.0423254687232
  0
LINE
  8
_0-0_計極細
  6
CONTINUOUS
 62
    2
 10
2223.9608574360445
 20
1197.0423254427233
 11
2223.9608574360445
 21
1173.6923254660737
  0
LINE
  8
_0-1_計細線
  6
CONTINUOUS
 62
    3
 10
2224.9577947693688
 20
1197.0423254427233
 11
2224.9577947693688
 21
1174.6923254650737
  0
LINE
  8
_0-0_計極細
  6
CONTINUOUS
 62
    2
 10
2200.4577947692123
 20
1174.6923254650737
 11
2224.9577947693688
 21
1174.6923254650737
  0
LINE
  8
_0-1_計細線
  6
CONTINUOUS
 62
    3
 10
2200.4577947692123
 20
1173.6923254660737
 11
2223.9608574360445
 21
1173.6923254660737
  0
LINE
  8
_0-1_計細線
  6
CONTINUOUS
 62
    3
 10
2200.4577947692123
 20
1197.0423254427233
 11
2200.4577947692123
 21
1171.0423254687232
  0
LINE
  8
_0-1_計細線
  6
CONTINUOUS
 62
    3
 10
2190.4577947693124
 20
1197.0423254427233
 11
2190.4577947693124
 21
1168.2923254714733
  0
LINE
  8
_0-0_計極細
  6
CONTINUOUS
 62
    2
 10
2190.4577947693124
 20
1200.0423254397231
 11
2200.4577947692123
 21
1200.0423254397231
  0
LINE
  8
_0-0_計極細
  6
CONTINUOUS
 62
    2
 10
2190.4577947693124
 20
1194.042325445723
 11
2200.4577947692123
 21
1194.042325445723
  0
LINE
  8
_0-1_計細線
  6
CONTINUOUS
 62
    3
 10
2223.9608574360445
 20
1220.3923254193728
 11
2224.9577947693688
 21
1219.3923254203728
  0
LINE
  8
_0-1_計細線
  6
CONTINUOUS
 62
    3
 10
2223.9608574360445
 20
1173.6923254660737
 11
2224.9577947693688
 21
1174.6923254650737
  0
LINE
  8
_0-0_計極細
  6
CENTER1
 62
    2
 10
2133.310898265072
 20
1197.0423254427233
 11
2245.1310421499638
 21
1197.0423254427233
  0
LINE
  8
_0-0_計極細
  6
CENTER1
 62
    2
 10
166.32298381631472
 20
1197.0423254427233
 11
1979.3517044429482
 21
1197.0423254427233
  0
LINE
  8
_0-1_計細線
  6
CONTINUOUS
 62
    3
 10
185.49444307414024
 20
1258.0423254427233
 11
185.49444307414024
 21
1136.0423254427233
  0
LINE
  8
_0-1_計細線
  6
CONTINUOUS
 62
    3
 10
185.49444307414024
 20
1136.0423254427233
 11
1959.4944430741398
 21
1136.0423254427233
  0
LINE
  8
_0-1_計細線
  6
CONTINUOUS
 62
    3
 10
1959.4944430741398
 20
1136.0423254427233
 11
1959.4944430741398
 21
1258.0423254427233
  0
LINE
  8
_0-1_計細線
  6
CONTINUOUS
 62
    3
 10
1959.4944430741398
 20
1258.0423254427233
 11
185.49444307414024
 21
1258.0423254427233
  0
LINE
  8
_0-1_計細線
  6
CONTINUOUS
 62
    3
 10
1970.4944430741398
 20
1125.0423254427233
 11
1970.4944430741398
 21
1269.0423254427233
  0
LINE
  8
_0-1_計細線
  6
CONTINUOUS
 62
    3
 10
1970.4944430741398
 20
1269.0423254427233
 11
174.49444307414024
 21
1269.0423254427233
  0
LINE
  8
_0-1_計細線
  6
CONTINUOUS
 62
    3
 10
174.49444307414024
 20
1269.0423254427233
 11
174.49444307414024
 21
1125.0423254427233
  0
LINE
  8
_0-1_計細線
  6
CONTINUOUS
 62
    3
 10
174.49444307414024
 20
1125.0423254427233
 11
1970.4944430741398
 21
1125.0423254427233
  0
LINE
  8
_0-0_計極細
  6
CONTINUOUS
 62
    2
 10
487.04443849708878
 20
1246.2923254427233
 11
487.04444077806374
 21
1240.7923254427237
  0
LINE
  8
_0-0_計極細
  6
CONTINUOUS
 62
    2
 10
493.94443846688546
 20
1246.2923254427233
 11
493.94444077806384
 21
1240.7923254427237
  0
LINE
  8
_0-0_計極細
  6
CONTINUOUS
 62
    2
 10
487.04444078731558
 20
1230.7923254427237
 11
487.04444078731558
 21
1225.2923254427237
  0
LINE
  8
_0-0_計極細
  6
CONTINUOUS
 62
    2
 10
493.944440787438
 20
1230.7923254427237
 11
493.944440787438
 21
1225.2923254427237
  0
LINE
  8
_0-0_計極細
  6
CONTINUOUS
 62
    2
 10
487.04444078731558
 20
1209.7923254427242
 11
487.04444078731558
 21
1215.2923254427237
  0
LINE
  8
_0-0_計極細
  6
CONTINUOUS
 62
    2
 10
493.944440787438
 20
1209.7923254427242
 11
493.944440787438
 21
1215.2923254427237
  0
LINE
  8
_0-0_計極細
  6
CONTINUOUS
 62
    2
 10
487.04444078731558
 20
1194.2923254427246
 11
487.04444078731558
 21
1199.7923254427242
  0
LINE
  8
_0-0_計極細
  6
CONTINUOUS
 62
    2
 10
493.944440787438
 20
1194.2923254427246
 11
493.944440787438
 21
1199.7923254427242
  0
LINE
  8
_0-0_計極細
  6
CONTINUOUS
 62
    2
 10
487.04443849708878
 20
1147.7923254427233
 11
487.04444077806374
 21
1153.2923254427228
  0
LINE
  8
_0-0_計極細
  6
CONTINUOUS
 62
    2
 10
493.94443846688546
 20
1147.7923254427233
 11
493.94444077806384
 21
1153.2923254427228
  0
LINE
  8
_0-0_計極細
  6
CONTINUOUS
 62
    2
 10
487.04444078731558
 20
1163.2923254427228
 11
487.04444078731558
 21
1168.7923254427228
  0
LINE
  8
_0-0_計極細
  6
CONTINUOUS
 62
    2
 10
493.944440787438
 20
1163.2923254427228
 11
493.944440787438
 21
1168.7923254427228
  0
LINE
  8
_0-0_計極細
  6
CONTINUOUS
 62
    2
 10
487.04444078731558
 20
1184.2923254427224
 11
487.04444078731558
 21
1178.7923254427228
  0
LINE
  8
_0-0_計極細
  6
CONTINUOUS
 62
    2
 10
493.944440787438
 20
1184.2923254427224
 11
493.944440787438
 21
1178.7923254427228
  0
LINE
  8
_0-0_計極細
  6
CONTINUOUS
 62
    2
 10
778.04443849708878
 20
1246.2923254427233
 11
778.04444077806374
 21
1240.7923254427237
  0
LINE
  8
_0-0_計極細
  6
CONTINUOUS
 62
    2
 10
784.94443846688546
 20
1246.2923254427233
 11
784.94444077806384
 21
1240.7923254427237
  0
LINE
  8
_0-0_計極細
  6
CONTINUOUS
 62
    2
 10
778.04444078731558
 20
1230.7923254427237
 11
778.04444078731558
 21
1225.2923254427237
  0
LINE
  8
_0-0_計極細
  6
CONTINUOUS
 62
    2
 10
784.944440787438
 20
1230.7923254427237
 11
784.944440787438
 21
1225.2923254427237
  0
LINE
  8
_0-0_計極細
  6
CONTINUOUS
 62
    2
 10
778.04444078731558
 20
1209.7923254427242
 11
778.04444078731558
 21
1215.2923254427237
  0
LINE
  8
_0-0_計極細
  6
CONTINUOUS
 62
    2
 10
784.944440787438
 20
1209.7923254427242
 11
784.944440787438
 21
1215.2923254427237
  0
LINE
  8
_0-0_計極細
  6
CONTINUOUS
 62
    2
 10
778.04444078731558
 20
1194.2923254427246
 11
778.04444078731558
 21
1199.7923254427242
  0
LINE
  8
_0-0_計極細
  6
CONTINUOUS
 62
    2
 10
784.944440787438
 20
1194.2923254427246
 11
784.944440787438
 21
1199.7923254427242
  0
LINE
  8
_0-0_計極細
  6
CONTINUOUS
 62
    2
 10
778.04443849708878
 20
1147.7923254427233
 11
778.04444077806374
 21
1153.2923254427228
  0
LINE
  8
_0-0_計極細
  6
CONTINUOUS
 62
    2
 10
784.94443846688546
 20
1147.7923254427233
 11
784.94444077806384
 21
1153.2923254427228
  0
LINE
  8
_0-0_計極細
  6
CONTINUOUS
 62
    2
 10
778.04444078731558
 20
1163.2923254427228
 11
778.04444078731558
 21
1168.7923254427228
  0
LINE
  8
_0-0_計極細
  6
CONTINUOUS
 62
    2
 10
784.944440787438
 20
1163.2923254427228
 11
784.944440787438
 21
1168.7923254427228
  0
LINE
  8
_0-0_計極細
  6
CONTINUOUS
 62
    2
 10
778.04444078731558
 20
1184.2923254427224
 11
778.04444078731558
 21
1178.7923254427228
  0
LINE
  8
_0-0_計極細
  6
CONTINUOUS
 62
    2
 10
784.944440787438
 20
1184.2923254427224
 11
784.944440787438
 21
1178.7923254427228
  0
LINE
  8
_0-5_寸法線
  6
CONTINUOUS
 62
    7
 10
186.99444307414024
 20
1285.0423254427233
 11
186.99444307414024
 21
1357.0423254427233
  0
LINE
  8
_0-5_寸法線
  6
CONTINUOUS
 62
    7
 10
186.99444307414024
 20
1349.0423254427233
 11
202.44925629476529
 21
1353.1834301643637
  0
LINE
  8
_0-5_寸法線
  6
CONTINUOUS
 62
    7
 10
186.99444307414024
 20
1349.0423254427233
 11
202.44925629476529
 21
1344.9012207210828
  0
LINE
  8
_0-5_寸法線
  6
CONTINUOUS
 62
    7
 10
1957.9944430741416
 20
1285.0423254427233
 11
1957.9944430741416
 21
1357.0423254427233
  0
LINE
  8
_0-5_寸法線
  6
CONTINUOUS
 62
    7
 10
1957.9944430741416
 20
1349.0423254427233
 11
1942.5396298535165
 21
1344.9012207210831
  0
LINE
  8
_0-5_寸法線
  6
CONTINUOUS
 62
    7
 10
1957.9944430741416
 20
1349.0423254427233
 11
1942.5396298535165
 21
1353.1834301643637
  0
LINE
  8
_0-5_寸法線
  6
CONTINUOUS
 62
    7
 10
186.99444307414024
 20
1349.0423254427233
 11
1957.9944430741416
 21
1349.0423254427233
  0
TEXT
  8
_0-5_寸法線
 62
    7
 10
1048.4944430741407
 20
1349.0423254427228
 40
24
 41
1
 50
0
  1
1771
  0
LINE
  8
_0-5_寸法線
  6
CONTINUOUS
 62
    7
 10
1986.4944430741398
 20
1125.0423254427233
 11
2114.4944430741398
 21
1125.0423254427228
  0
LINE
  8
_0-5_寸法線
  6
CONTINUOUS
 62
    7
 10
2106.4944430741398
 20
1125.0423254427228
 11
2102.3533383524996
 21
1140.4971386633479
  0
LINE
  8
_0-5_寸法線
  6
CONTINUOUS
 62
    7
 10
2106.4944430741398
 20
1125.0423254427228
 11
2110.63554779578
 21
1140.4971386633479
  0
LINE
  8
_0-5_寸法線
  6
CONTINUOUS
 62
    7
 10
1986.4944430741398
 20
1269.0423254427233
 11
2114.4944430741398
 21
1269.0423254427228
  0
LINE
  8
_0-5_寸法線
  6
CONTINUOUS
 62
    7
 10
2106.4944430741398
 20
1269.0423254427228
 11
2110.63554779578
 21
1253.5875122220978
  0
LINE
  8
_0-5_寸法線
  6
CONTINUOUS
 62
    7
 10
2106.4944430741398
 20
1269.0423254427228
 11
2102.3533383524996
 21
1253.5875122220978
  0
LINE
  8
_0-5_寸法線
  6
CONTINUOUS
 62
    7
 10
2106.4944430741398
 20
1125.0423254427228
 11
2106.4944430741398
 21
1269.0423254427228
  0
TEXT
  8
_0-5_寸法線
 62
    7
 10
2106.4944430741398
 20
1179.0423254427233
 40
24
 41
1
 50
90
  1
144
  0
LINE
  8
_0-5_寸法線
  6
CONTINUOUS
 62
    7
 10
1986.4944430741398
 20
1125.0423254427233
 11
2058.4944430741398
 21
1125.0423254427228
  0
LINE
  8
_0-5_寸法線
  6
CONTINUOUS
 62
    7
 10
2050.4944430741398
 20
1125.0423254427228
 11
2046.3533383524996
 21
1140.4971386633479
  0
LINE
  8
_0-5_寸法線
  6
CONTINUOUS
 62
    7
 10
2050.4944430741398
 20
1125.0423254427228
 11
2054.63554779578
 21
1140.4971386633479
  0
LINE
  8
_0-5_寸法線
  6
CONTINUOUS
 62
    7
 10
1986.4944430741398
 20
1197.0423254427235
 11
2058.4944430741398
 21
1197.0423254427233
  0
LINE
  8
_0-5_寸法線
  6
CONTINUOUS
 62
    7
 10
2050.4944430741398
 20
1197.0423254427233
 11
2054.63554779578
 21
1181.5875122220982
  0
LINE
  8
_0-5_寸法線
  6
CONTINUOUS
 62
    7
 10
2050.4944430741398
 20
1197.0423254427233
 11
2046.3533383524993
 21
1181.5875122220982
  0
LINE
  8
_0-5_寸法線
  6
CONTINUOUS
 62
    7
 10
2050.4944430741398
 20
1125.0423254427228
 11
2050.4944430741398
 21
1197.0423254427233
  0
TEXT
  8
_0-5_寸法線
 62
    7
 10
2050.4944430741398
 20
1149.0423254427242
 40
24
 41
1
 50
90
  1
72
  0
LINE
  8
_0-5_寸法線
  6
CONTINUOUS
 62
    7
 10
2050.4944430741398
 20
1197.0423254427233
 11
2046.3533383524996
 21
1212.4971386633483
  0
LINE
  8
_0-5_寸法線
  6
CONTINUOUS
 62
    7
 10
2050.4944430741398
 20
1197.0423254427233
 11
2054.63554779578
 21
1212.4971386633483
  0
LINE
  8
_0-5_寸法線
  6
CONTINUOUS
 62
    7
 10
1986.4944430741398
 20
1269.0423254427233
 11
2058.4944430741398
 21
1269.0423254427228
  0
LINE
  8
_0-5_寸法線
  6
CONTINUOUS
 62
    7
 10
2050.4944430741398
 20
1269.0423254427228
 11
2054.63554779578
 21
1253.5875122220978
  0
LINE
  8
_0-5_寸法線
  6
CONTINUOUS
 62
    7
 10
2050.4944430741398
 20
1269.0423254427228
 11
2046.3533383524993
 21
1253.5875122220978
  0
LINE
  8
_0-5_寸法線
  6
CONTINUOUS
 62
    7
 10
2050.4944430741398
 20
1197.0423254427233
 11
2050.4944430741398
 21
1269.0423254427228
  0
TEXT
  8
_0-5_寸法線
 62
    7
 10
2050.4944430741398
 20
1221.0423254427242
 40
24
 41
1
 50
90
  1
72
  0
LINE
  8
_0-5_寸法線
  6
CONTINUOUS
 62
    7
 10
2159.9577947693688
 20
1285.04213551573
 11
2159.957794769367
 21
1413.0423254427233
  0
LINE
  8
_0-5_寸法線
  6
CONTINUOUS
 62
    7
 10
2159.957794769367
 20
1405.0423254427233
 11
2175.412607989992
 21
1409.1834301643637
  0
LINE
  8
_0-5_寸法線
  6
CONTINUOUS
 62
    7
 10
2159.957794769367
 20
1405.0423254427233
 11
2175.412607989992
 21
1400.9012207210828
  0
LINE
  8
_0-5_寸法線
  6
CONTINUOUS
 62
    7
 10
2202.9577139493704
 20
1276.9421730970294
 11
2202.9577139493695
 21
1413.0423254427233
  0
LINE
  8
_0-5_寸法線
  6
CONTINUOUS
 62
    7
 10
2202.9577139493695
 20
1405.0423254427233
 11
2187.5029007287444
 21
1400.9012207210831
  0
LINE
  8
_0-5_寸法線
  6
CONTINUOUS
 62
    7
 10
2202.9577139493695
 20
1405.0423254427233
 11
2187.5029007287444
 21
1409.1834301643637
  0
LINE
  8
_0-5_寸法線
  6
CONTINUOUS
 62
    7
 10
2159.957794769367
 20
1405.0423254427233
 11
2202.9577139493695
 21
1405.0423254427233
  0
TEXT
  8
_0-5_寸法線
 62
    7
 10
2169.4577543593687
 20
1405.0423254427233
 40
24
 41
1
 50
0
  1
43
  0
LINE
  8
_0-5_寸法線
  6
CONTINUOUS
 62
    7
 10
2159.9577947693688
 20
1285.04213551573
 11
2159.9577947693688
 21
1357.0423254427233
  0
LINE
  8
_0-5_寸法線
  6
CONTINUOUS
 62
    7
 10
2159.9577947693688
 20
1349.0423254427233
 11
2144.5029815487437
 21
1344.9012207210831
  0
LINE
  8
_0-5_寸法線
  6
CONTINUOUS
 62
    7
 10
2159.9577947693688
 20
1349.0423254427233
 11
2144.5029815487437
 21
1353.1834301643637
  0
LINE
  8
_0-5_寸法線
  6
CONTINUOUS
 62
    7
 10
2179.9577139493704
 20
1276.9421730970294
 11
2179.9577139493704
 21
1357.0423254427233
  0
LINE
  8
_0-5_寸法線
  6
CONTINUOUS
 62
    7
 10
2126.2890206687371
 20
1349.0423254427233
 11
2179.9577139493704
 21
1349.0423254427233
  0
TEXT
  8
_0-5_寸法線
 62
    7
 10
2126.2890206687371
 20
1349.0423254427233
 40
24
 41
1
 50
0
  1
20
  0
LINE
  8
_0-5_寸法線
  6
CONTINUOUS
 62
    7
 10
2179.9577139493704
 20
1349.0423254427233
 11
2195.4125271699954
 21
1353.1834301643635
  0
LINE
  8
_0-5_寸法線
  6
CONTINUOUS
 62
    7
 10
2179.9577139493704
 20
1349.0423254427233
 11
2195.4125271699954
 21
1344.9012207210828
  0
LINE
  8
_0-5_寸法線
  6
CONTINUOUS
 62
    7
 10
2202.9577139493704
 20
1276.9421730970294
 11
2202.9577139493704
 21
1357.0423254427233
  0
LINE
  8
_0-5_寸法線
  6
CONTINUOUS
 62
    7
 10
2202.9577139493704
 20
1349.0423254427233
 11
2187.5029007287453
 21
1344.9012207210831
  0
LINE
  8
_0-5_寸法線
  6
CONTINUOUS
 62
    7
 10
2202.9577139493704
 20
1349.0423254427233
 11
2187.5029007287453
 21
1353.1834301643637
  0
LINE
  8
_0-5_寸法線
  6
CONTINUOUS
 62
    7
 10
2179.9577139493704
 20
1349.0423254427233
 11
2202.9577139493704
 21
1349.0423254427233
  0
TEXT
  8
_0-5_寸法線
 62
    7
 10
2179.4577139493704
 20
1349.0423254427228
 40
24
 41
1
 50
0
  1
23
  0
LINE
  8
_0-5_寸法線
  6
CONTINUOUS
 62
    7
 10
2159.9577947693688
 20
1109.04213551573
 11
2159.9577947693688
 21
1037.0423254427233
  0
LINE
  8
_0-5_寸法線
  6
CONTINUOUS
 62
    7
 10
2159.9577947693688
 20
1045.0423254427233
 11
2175.4126079899938
 21
1049.1834301643637
  0
LINE
  8
_0-5_寸法線
  6
CONTINUOUS
 62
    7
 10
2159.9577947693688
 20
1045.0423254427233
 11
2175.4126079899938
 21
1040.9012207210828
  0
LINE
  8
_0-5_寸法線
  6
CONTINUOUS
 62
    7
 10
2224.9577947693688
 20
1158.6892641166094
 11
2224.9577947693688
 21
1037.0423254427233
  0
LINE
  8
_0-5_寸法線
  6
CONTINUOUS
 62
    7
 10
2224.9577947693688
 20
1045.0423254427233
 11
2209.5029815487437
 21
1040.9012207210831
  0
LINE
  8
_0-5_寸法線
  6
CONTINUOUS
 62
    7
 10
2224.9577947693688
 20
1045.0423254427233
 11
2209.5029815487437
 21
1049.1834301643637
  0
LINE
  8
_0-5_寸法線
  6
CONTINUOUS
 62
    7
 10
2159.9577947693688
 20
1045.0423254427233
 11
2224.9577947693688
 21
1045.0423254427233
  0
TEXT
  8
_0-5_寸法線
 62
    7
 10
2180.4577947693697
 20
1045.0423254427233
 40
24
 41
1
 50
0
  1
65
  0
LINE
  8
_0-5_寸法線
  6
CONTINUOUS
 62
    7
 10
400.26550248591093
 20
1157.8656911282742
 11
396.1243977642705
 21
1142.4108779076491
  0
LINE
  8
_0-5_寸法線
  6
CONTINUOUS
 62
    7
 10
400.26550248591093
 20
1157.8656911282742
 11
388.95179398692608
 21
1146.5519826292896
  0
LINE
  8
_0-5_寸法線
  6
CONTINUOUS
 62
    7
 10
400.26550248591093
 20
1157.8656911282742
 11
358.22091270406327
 21
1085.0423254427233
  0
LINE
  8
_0-5_寸法線
  6
CONTINUOUS
 62
    7
 10
358.22091270406327
 20
1085.0423254427233
 11
300.62091270406336
 21
1085.0423254427233
  0
TEXT
  8
_0-5_寸法線
 62
    7
 10
300.62091270406336
 20
1085.0423254427233
 40
24
 41
0.7999999999999998
 50
0
  1
上フタ
  0
LINE
  8
_0-5_寸法線
  6
CONTINUOUS
 62
    7
 10
1065.1093598722696
 20
1176.32301498063
 11
1065.1093598722696
 21
1160.32301498063
  0
LINE
  8
_0-5_寸法線
  6
CONTINUOUS
 62
    7
 10
1065.1093598722696
 20
1176.32301498063
 11
1057.1093598722696
 21
1162.466608520079
  0
LINE
  8
_0-5_寸法線
  6
CONTINUOUS
 62
    7
 10
1065.1093598722696
 20
1176.32301498063
 11
1040.6507728260308
 21
1085.0423254427233
  0
LINE
  8
_0-5_寸法線
  6
CONTINUOUS
 62
    7
 10
1040.6507728260308
 20
1085.0423254427233
 11
983.05077282603088
 21
1085.0423254427233
  0
TEXT
  8
_0-5_寸法線
 62
    7
 10
983.05077282603077
 20
1085.0423254427233
 40
24
 41
0.7999999999999998
 50
0
  1
排水口
  0
LINE
  8
_0-5_寸法線
  6
CONTINUOUS
 62
    7
 10
1075.0228176087326
 20
1195.2923325144734
 11
1083.0228176087326
 21
1181.4359260539225
  0
LINE
  8
_0-5_寸法線
  6
CONTINUOUS
 62
    7
 10
1075.0228176087326
 20
1195.2923325144734
 11
1075.0228176087326
 21
1179.2923325144734
  0
LINE
  8
_0-5_寸法線
  6
CONTINUOUS
 62
    7
 10
1075.0228176087326
 20
1195.2923325144734
 11
1104.5642179691331
 21
1085.0423254427233
  0
LINE
  8
_0-5_寸法線
  6
CONTINUOUS
 62
    7
 10
1104.5642179691331
 20
1085.0423254427233
 11
1219.7642179691329
 21
1085.0423254427233
  0
TEXT
  8
_0-5_寸法線
 62
    7
 10
1104.5642179691331
 20
1085.0423254427233
 40
24
 41
0.7999999999999998
 50
0
  1
ストレーナー
  0
LINE
  8
_0-5_寸法線
  6
CONTINUOUS
 62
    7
 10
1188.8216896319768
 20
1265.1070868516222
 11
1196.8216896319768
 21
1278.9634933121731
  0
LINE
  8
_0-5_寸法線
  6
CONTINUOUS
 62
    7
 10
1188.8216896319768
 20
1265.1070868516222
 11
1202.6780960925278
 21
1273.1070868516222
  0
LINE
  8
_0-5_寸法線
  6
CONTINUOUS
 62
    7
 10
1188.8216896319768
 20
1265.1070868516222
 11
1232.7569282230779
 21
1309.0423254427233
  0
LINE
  8
_0-5_寸法線
  6
CONTINUOUS
 62
    7
 10
1232.7569282230779
 20
1309.0423254427233
 11
1386.3569282230778
 21
1309.0423254427233
  0
TEXT
  8
_0-5_寸法線
 62
    7
 10
1232.7569282230779
 20
1309.0423254427233
 40
24
 41
0.7999999999999998
 50
0
  1
排水ユニット本体
  0
LINE
  8
_0-5_寸法線
  6
CONTINUOUS
 62
    7
 10
490.49058718307606
 20
1085.8897706649525
 11
505.94540040370111
 21
1090.0308753865929
  0
LINE
  8
_0-5_寸法線
  6
CONTINUOUS
 62
    7
 10
490.49058718307606
 20
1085.8897706649525
 11
505.94540040370111
 21
1081.7486659433121
  0
LINE
  8
_0-5_寸法線
  6
CONTINUOUS
 62
    7
 10
490.49058718307606
 20
1085.8897706649525
 11
544.24595324763595
 21
1085.8897706649525
  0
LINE
  8
_0-5_寸法線
  6
CONTINUOUS
 62
    7
 10
544.24595324763595
 20
1085.8897706649525
 11
544.24595324763595
 21
1085.3783283959983
  0
LINE
  8
_0-5_寸法線
  6
CONTINUOUS
 62
    7
 10
490.49058718307606
 20
1286.153163984404
 11
505.94540040370111
 21
1290.2942687060445
  0
LINE
  8
_0-5_寸法線
  6
CONTINUOUS
 62
    7
 10
490.49058718307606
 20
1286.153163984404
 11
505.94540040370111
 21
1282.0120592627636
  0
LINE
  8
_0-5_寸法線
  6
CONTINUOUS
 62
    7
 10
490.49058718307606
 20
1286.153163984404
 11
544.24595324763595
 21
1286.153163984404
  0
LINE
  8
_0-5_寸法線
  6
CONTINUOUS
 62
    7
 10
544.24595324763595
 20
1286.153163984404
 11
544.24595324763595
 21
1285.6417217154496
  0
LINE
  8
_0-0_計極細
  6
CENTER1
 62
    2
 10
490.49444077806402
 20
1304.0357154369349
 11
490.49444077806402
 21
1075.2557779711833
  0
ARC
  8
_0-0_計極細
  6
CONTINUOUS
 62
    2
 10
1042.4795273394705
 20
1168.0423254428133
 40
54.312365187078854
 50
147.72737804884292
 51
213.8460561937558
  0
ARC
  8
_0-0_計極細
  6
CONTINUOUS
 62
    2
 10
950.63546357441851
 20
1226.0423254426371
 40
54.312365187078854
 50
327.72737804884275
 51
33.846056193750599
  0
LINE
  8
_0-1_計細線
  6
CONTINUOUS
 62
    3
 10
995.74389418566352
 20
1256.2923254427233
 11
186.99444307414024
 21
1256.2923254427233
  0
LINE
  8
_0-1_計細線
  6
CONTINUOUS
 62
    3
 10
186.99444307414024
 20
1246.2923254427233
 11
1001.0315994601306
 21
1246.2923254427233
  0
LINE
  8
_0-1_計細線
  6
CONTINUOUS
 62
    3
 10
1002.9065886073863
 20
1240.7923254427237
 11
186.99444307414024
 21
1240.7923254427237
  0
LINE
  8
_0-1_計細線
  6
CONTINUOUS
 62
    3
 10
186.99444307414024
 20
1230.7923254427237
 11
1004.7397195272897
 21
1230.7923254427237
  0
LINE
  8
_0-1_計細線
  6
CONTINUOUS
 62
    3
 10
1004.9426501358189
 20
1225.2923254427237
 11
186.99444307414024
 21
1225.2923254427237
  0
LINE
  8
_0-1_計細線
  6
CONTINUOUS
 62
    3
 10
186.99444307414024
 20
1215.2923254427237
 11
1003.8733308515408
 21
1215.2923254427237
  0
LINE
  8
_0-1_計細線
  6
CONTINUOUS
 62
    3
 10
1002.4598836118616
 20
1209.7923254427242
 11
186.99444307414024
 21
1209.7923254427242
  0
LINE
  8
_0-1_計細線
  6
CONTINUOUS
 62
    3
 10
186.99444307414024
 20
1199.7923254427242
 11
998.18302410300021
 21
1199.7923254427242
  0
LINE
  8
_0-1_計細線
  6
CONTINUOUS
 62
    3
 10
994.93196681088602
 20
1194.2923254427246
 11
186.99444307414024
 21
1194.2923254427246
  0
LINE
  8
_0-1_計細線
  6
CONTINUOUS
 62
    3
 10
186.99444307414024
 20
1184.2923254427246
 11
990.65510730202584
 21
1184.2923254427246
  0
LINE
  8
_0-1_計細線
  6
CONTINUOUS
 62
    3
 10
989.24166006234782
 20
1178.7923254427251
 11
186.99444307414024
 21
1178.7923254427251
  0
LINE
  8
_0-1_計細線
  6
CONTINUOUS
 62
    3
 10
186.99444307414024
 20
1168.7923254427251
 11
988.17234077806995
 21
1168.7923254427251
  0
LINE
  8
_0-1_計細線
  6
CONTINUOUS
 62
    3
 10
988.37527138659925
 20
1163.2923254427255
 11
186.99444307414024
 21
1163.2923254427255
  0
LINE
  8
_0-1_計細線
  6
CONTINUOUS
 62
    3
 10
186.99444307414024
 20
1153.2923254427255
 11
990.20840230650401
 21
1153.2923254427255
  0
LINE
  8
_0-1_計細線
  6
CONTINUOUS
 62
    3
 10
992.08339145375976
 20
1147.792325442726
 11
186.99444307414024
 21
1147.792325442726
  0
LINE
  8
_0-1_計細線
  6
CONTINUOUS
 62
    3
 10
186.99444307414024
 20
1137.792325442726
 11
997.3710967282276
 21
1137.792325442726
  0
TEXT
  8
_0-5_寸法線
 62
    7
 10
510.42272785539353
 20
1285.1633039075675
 40
40
 41
1
 50
0
  1
Ａ’
  0
TEXT
  8
_0-5_寸法線
 62
    7
 10
508.00323264216388
 20
1085.4838100637644
 40
40
 41
1
 50
0
  1
Ａ
  0
LINE
  8
_0-5_寸法線
  6
CONTINUOUS
 62
    7
 10
174.49444307414024
 20
1285.0423254427233
 11
174.49444307414046
 21
1413.0423254427233
  0
LINE
  8
_0-5_寸法線
  6
CONTINUOUS
 62
    7
 10
174.49444307414046
 20
1405.0423254427233
 11
189.94925629476552
 21
1409.1834301643637
  0
LINE
  8
_0-5_寸法線
  6
CONTINUOUS
 62
    7
 10
174.49444307414046
 20
1405.0423254427233
 11
189.94925629476552
 21
1400.9012207210828
  0
LINE
  8
_0-5_寸法線
  6
CONTINUOUS
 62
    7
 10
1970.4944430741398
 20
1285.0423254427233
 11
1970.49444307414
 21
1413.0423254427233
  0
LINE
  8
_0-5_寸法線
  6
CONTINUOUS
 62
    7
 10
1970.49444307414
 20
1405.0423254427233
 11
1955.039629853515
 21
1400.9012207210831
  0
LINE
  8
_0-5_寸法線
  6
CONTINUOUS
 62
    7
 10
1970.49444307414
 20
1405.0423254427233
 11
1955.039629853515
 21
1409.1834301643637
  0
LINE
  8
_0-5_寸法線
  6
CONTINUOUS
 62
    7
 10
174.49444307414046
 20
1405.0423254427233
 11
1970.49444307414
 21
1405.0423254427233
  0
TEXT
  8
_0-5_寸法線
 62
    7
 10
1048.4944430741405
 20
1405.0423254427233
 40
24
 41
1
 50
0
  1
1796
  0
LINE
  8
_0-5_寸法線
  6
CONTINUOUS
 62
    7
 10
174.49444307414024
 20
1109.0423254427233
 11
174.49444307414012
 21
1037.0423254427233
  0
LINE
  8
_0-5_寸法線
  6
CONTINUOUS
 62
    7
 10
174.49444307414012
 20
1045.0423254427233
 11
189.94925629476518
 21
1049.1834301643637
  0
LINE
  8
_0-5_寸法線
  6
CONTINUOUS
 62
    7
 10
174.49444307414012
 20
1045.0423254427233
 11
189.94925629476518
 21
1040.9012207210828
  0
LINE
  8
_0-5_寸法線
  6
CONTINUOUS
 62
    7
 10
1072.4944430741402
 20
1109.0423254427233
 11
1072.49444307414
 21
1037.0423254427233
  0
LINE
  8
_0-5_寸法線
  6
CONTINUOUS
 62
    7
 10
1072.49444307414
 20
1045.0423254427233
 11
1057.039629853515
 21
1040.9012207210831
  0
LINE
  8
_0-5_寸法線
  6
CONTINUOUS
 62
    7
 10
1072.49444307414
 20
1045.0423254427233
 11
1057.039629853515
 21
1049.1834301643637
  0
LINE
  8
_0-5_寸法線
  6
CONTINUOUS
 62
    7
 10
174.49444307414012
 20
1045.0423254427233
 11
1072.49444307414
 21
1045.0423254427233
  0
TEXT
  8
_0-5_寸法線
 62
    7
 10
605.49444307414001
 20
1045.0423254427233
 40
24
 41
1
 50
0
  1
898
  0
LINE
  8
_0-5_寸法線
  6
CONTINUOUS
 62
    7
 10
1072.49444307414
 20
1045.0423254427233
 11
1087.9492562947651
 21
1049.1834301643635
  0
LINE
  8
_0-5_寸法線
  6
CONTINUOUS
 62
    7
 10
1072.49444307414
 20
1045.0423254427233
 11
1087.9492562947651
 21
1040.9012207210828
  0
LINE
  8
_0-5_寸法線
  6
CONTINUOUS
 62
    7
 10
1970.4944430741398
 20
1109.0423254427233
 11
1970.4944430741396
 21
1037.0423254427233
  0
LINE
  8
_0-5_寸法線
  6
CONTINUOUS
 62
    7
 10
1970.4944430741396
 20
1045.0423254427233
 11
1955.0396298535145
 21
1040.9012207210831
  0
LINE
  8
_0-5_寸法線
  6
CONTINUOUS
 62
    7
 10
1970.4944430741396
 20
1045.0423254427233
 11
1955.0396298535145
 21
1049.1834301643637
  0
LINE
  8
_0-5_寸法線
  6
CONTINUOUS
 62
    7
 10
1072.49444307414
 20
1045.0423254427233
 11
1970.4944430741396
 21
1045.0423254427233
  0
TEXT
  8
_0-5_寸法線
 62
    7
 10
1503.4944430741398
 20
1045.0423254427233
 40
24
 41
1
 50
0
  1
898
  0
LINE
  8
_0-0_計極細
  6
CENTER1
 62
    2
 10
1072.4944430741402
 20
1283.5844459711416
 11
1072.4944430741402
 21
800.26496470360644
  0
ENDSEC
  0
EOF
