  0
SECTION
  2
HEADER
  9
$ACADVER
  1
AC1009
  9
$INSBASE
 10
0
 20
0
 30
0
  9
$EXTMIN
 10
0
 20
0
  9
$EXTMAX
 10
1782
 20
1260
  9
$LIMMIN
 10
0
 20
0
  9
$LIMMAX
 10
1782
 20
1260
  9
$LTSCALE
 40
6
  0
ENDSEC
  0
SECTION
  2
TABLES
  0
TABLE
  2
LTYPE
 70
     9
  0
LTYPE
  2
CONTINUOUS
 70
    64
  3
実線
 72
    65
 73
     0
 40
0.0
  0
LTYPE
  2
DASHED1
 70
    64
  3
--  --  --  --  --  --  --  --  
 72
    65
 73
     2
 40
2.5
 49
1.25
 49
-1.25
  0
LTYPE
  2
DASHED2
 70
    64
  3
----    ----    ----    ----    
 72
    65
 73
     2
 40
5.0
 49
2.5
 49
-2.5
  0
LTYPE
  2
DASHED3
 70
    64
  3
------  ------  ------  ------  
 72
    65
 73
     2
 40
5.0
 49
3.75
 49
-1.25
  0
LTYPE
  2
CENTER1
 70
    64
  3
----- - ----- - ----- - ----- - 
 72
    65
 73
     4
 40
10.0
 49
6.25
 49
-1.25
 49
1.25
 49
-1.25
  0
LTYPE
  2
CENTER2
 70
    64
  3
----------  --  ----------  --  
 72
    65
 73
     4
 40
20.0
 49
12.5
 49
-2.5
 49
2.5
 49
-2.5
  0
LTYPE
  2
PHANTOM1
 70
    64
  3
--- - - --- - - --- - - --- - - 
 72
    65
 73
     6
 40
10.0
 49
3.25
 49
-1.25
 49
1.25
 49
-1.25
 49
1.25
 49
-1.25
  0
LTYPE
  2
PHANTOM2
 70
    64
  3
--------  -  -  --------  -  -  
 72
    65
 73
     6
 40
20.0
 49
10.0
 49
-2.5
 49
1.25
 49
-2.5
 49
1.25
 49
-2.5
  0
LTYPE
  2
DOT
 70
    64
  3
-   -   -   -   -   -   -   -   
 72
    65
 73
     2
 40
2.5
 49
0.625
 49
-1.875
  0
LTYPE
  2
DUMMY
 70
    64
  3
ダミー
 72
    65
 73
     0
 40
0.0
  0
LTYPE
  2
RAND1
 70
    64
  3
ランダム線1
 72
    65
 73
     4
 40
10.0
 49
1.0
 49
-2.0
 49
3.0
 49
-4.0
  0
LTYPE
  2
RAND2
 70
    64
  3
ランダム線2
 72
    65
 73
     4
 40
14.0
 49
2.0
 49
-3.0
 49
4.0
 49
-5.0
  0
LTYPE
  2
RAND3
 70
    64
  3
ランダム線3
 72
    65
 73
     4
 40
18.0
 49
3.0
 49
-4.0
 49
5.0
 49
-6.0
  0
LTYPE
  2
RAND4
 70
    64
  3
ランダム線4
 72
    65
 73
     4
 40
22.0
 49
4.0
 49
-5.0
 49
6.0
 49
-7.0
  0
LTYPE
  2
RAND5
 70
    64
  3
ランダム線5
 72
    65
 73
     4
 40
26.0
 49
5.0
 49
-6.0
 49
7.0
 49
-8.0
  0
LTYPE
  2
LONG1
 70
    64
  3
----------  --  ----------  --  
 72
    65
 73
     4
 40
40.0
 49
32.5
 49
-2.5
 49
2.5
 49
-2.5
  0
LTYPE
  2
LONG2
 70
    64
  3
--------  -  -  --------  -  -  
 72
    65
 73
     6
 40
40.0
 49
30.0
 49
-2.5
 49
1.25
 49
-2.5
 49
1.25
 49
-2.5
  0
LTYPE
  2
LONG3
 70
    64
  3
+++++++++++++++..+++++++++++++++
 72
    65
 73
     2
 40
40.0
 49
37.5
 49
-2.5
  0
LTYPE
  2
LONG4
 70
    64
  3
+++++++++++++++..+++++++++++++++
 72
    65
 73
     2
 40
80.0
 49
75.0
 49
-5.0
  0
LTYPE
  2
LONG5
 70
    64
  3
----------  --  ----------  --  
 72
    65
 73
     4
 40
60.0
 49
37.5
 49
-7.5
 49
7.5
 49
-7.5
  0
LTYPE
  2
dashed
 70
   64
  3
-------   -------------   ------
 72
   65
 73
    2
 40
7.5
 49
6
 49
-1.5
  0
LTYPE
  2
dashed_spaced
 70
   64
  3
----        --------        ----
 72
   65
 73
    2
 40
12
 49
6
 49
-6
  0
LTYPE
  2
long_dashed_dotted
 70
   64
  3
------------- --- --------------
 72
   65
 73
    4
 40
15.25
 49
12
 49
-1.5
 49
0.25
 49
-1.5
  0
LTYPE
  2
long_dashed_double-dotted
 70
   64
  3
----------- --- --- ------------
 72
   65
 73
    6
 40
17
 49
12
 49
-1.5
 49
0.25
 49
-1.5
 49
0.25
 49
-1.5
  0
LTYPE
  2
long_dashed_triplicate-dotted
 70
   64
  3
--------- --- --- --- ----------
 72
   65
 73
    8
 40
18.75
 49
12
 49
-1.5
 49
0.25
 49
-1.5
 49
0.25
 49
-1.5
 49
0.25
 49
-1.5
  0
LTYPE
  2
dotted
 70
   64
  3
   -       -       -       -    
 72
   65
 73
    2
 40
1.75
 49
0.25
 49
-1.5
  0
LTYPE
  2
chain
 70
   64
  3
-------------- -- --------------
 72
   65
 73
    4
 40
18.5
 49
12
 49
-1.5
 49
3.5
 49
-1.5
  0
LTYPE
  2
chain_double_dash
 70
   64
  3
------------ -- -- -------------
 72
   65
 73
    6
 40
23.5
 49
12
 49
-1.5
 49
3.5
 49
-1.5
 49
3.5
 49
-1.5
  0
LTYPE
  2
dashed_dotted
 70
   64
  3
-----------     -     ----------
 72
   65
 73
    4
 40
9.25
 49
6
 49
-1.5
 49
0.25
 49
-1.5
  0
LTYPE
  2
double-dashed_dotted
 70
   64
  3
------   -----------   -   -----
 72
   65
 73
    6
 40
16.75
 49
6
 49
-1.5
 49
6
 49
-1.5
 49
0.25
 49
-1.5
  0
LTYPE
  2
dashed_double-dotted
 70
   64
  3
---------    -    -    ---------
 72
   65
 73
    6
 40
11
 49
6
 49
-1.5
 49
0.25
 49
-1.5
 49
0.25
 49
-1.5
  0
LTYPE
  2
double-dashed_double-dotted
 70
   64
  3
-----   ---------   -   -   ----
 72
   65
 73
    8
 40
18.5
 49
6
 49
-1.5
 49
6
 49
-1.5
 49
0.25
 49
-1.5
 49
0.25
 49
-1.5
  0
LTYPE
  2
dashed_triplicate-dotted
 70
   64
  3
-------    -    -    -    ------
 72
   65
 73
    8
 40
12.75
 49
6
 49
-1.5
 49
0.25
 49
-1.5
 49
0.25
 49
-1.5
 49
0.25
 49
-1.5
  0
LTYPE
  2
double-dashed_triplicate-dotted
 70
   64
  3
-----  ---------  -  -  -  -----
 72
   65
 73
   10
 40
20.25
 49
6
 49
-1.5
 49
6
 49
-1.5
 49
0.25
 49
-1.5
 49
0.25
 49
-1.5
 49
0.25
 49
-1.5
  0
LTYPE
  2
undefined
 70
   64
  3
--------------------------------
 72
   65
 73
    0
 40
0
  0
ENDTAB
  0
TABLE
  2
STYLE
  5
3
100
AcDbSymbolTable
 70
     1
  0
STYLE
  5
10
100
AcDbSymbolTableRecord
100
AcDbTextStyleTableRecord
  2
STANDARD
 70
     0
 40
0.0
 41
1.0
 50
0.0
 71
     0
 42
0.2
  3
txt
  4
bigfont.shx
  0
STYLE
  5
26
100
AcDbSymbolTableRecord
100
AcDbTextStyleTableRecord
  2
TATEGAKI
 70
    68
 40
0.0
 41
1.0
 50
0.0
 71
     0
 42
1.0
  3
txt
  4
bigfont.shx
  0
ENDTAB
  0
TABLE
  2
LAYER
 70
    9
  0
LAYER
  2
_0-0_計極細
 70
   64
 62
    7
  6
CONTINUOUS
  0
LAYER
  2
_0-1_計細線
 70
   64
 62
    7
  6
CONTINUOUS
  0
LAYER
  2
_0-5_寸法線
 70
   64
 62
    7
  6
CONTINUOUS
  0
LAYER
  2
_0-7_枠細線
 70
   64
 62
    7
  6
CONTINUOUS
  0
LAYER
  2
_0-8_枠中線
 70
   64
 62
    7
  6
CONTINUOUS
  0
LAYER
  2
_1-2_極細2
 70
   64
 62
    7
  6
CONTINUOUS
  0
LAYER
  2
_1-3_細線2
 70
   64
 62
    7
  6
CONTINUOUS
  0
LAYER
  2
_1-5_寸法2
 70
   64
 62
    7
  6
CONTINUOUS
  0
LAYER
  2
ADD_LINE
 70
   64
 62
    7
  6
CONTINUOUS
  0
ENDTAB
  0
ENDSEC
  0
SECTION
  2
BLOCKS
  0
ENDSEC
  0
SECTION
  2
ENTITIES
  0
LINE
  8
_0-8_枠中線
  6
CONTINUOUS
 62
    5
 10
72
 20
72
 11
72
 21
1152
  0
LINE
  8
_0-8_枠中線
  6
CONTINUOUS
 62
    5
 10
72
 20
1152
 11
1710
 21
1152
  0
LINE
  8
_0-8_枠中線
  6
CONTINUOUS
 62
    5
 10
1710
 20
1152
 11
1710
 21
72
  0
LINE
  8
_0-8_枠中線
  6
CONTINUOUS
 62
    5
 10
1710
 20
72
 11
72
 21
72
  0
LINE
  8
_0-7_枠細線
  6
CONTINUOUS
 62
    5
 10
1422
 20
216
 11
1422
 21
120
  0
TEXT
  8
_0-7_枠細線
 62
    5
 10
1125
 20
117
 40
21
 41
1
 50
0
  1
備考
  7
TATEGAKI
  0
TEXT
  8
_0-7_枠細線
 62
    5
 10
1125
 20
165
 40
21
 41
1
 50
0
  1
品番
  7
TATEGAKI
  0
TEXT
  8
_0-7_枠細線
 62
    5
 10
1125
 20
213
 40
21
 41
1
 50
0
  1
品名
  7
TATEGAKI
  0
LINE
  8
_0-7_枠細線
  6
CONTINUOUS
 62
    5
 10
1422
 20
168
 11
1110
 21
168
  0
LINE
  8
_0-7_枠細線
  6
CONTINUOUS
 62
    5
 10
1140
 20
216
 11
1140
 21
72
  0
LINE
  8
_0-8_枠中線
  6
CONTINUOUS
 62
    5
 10
1710
 20
216
 11
1110
 21
216
  0
LINE
  8
_0-8_枠中線
  6
CONTINUOUS
 62
    5
 10
1110
 20
216
 11
1110
 21
72
  0
LINE
  8
_0-7_枠細線
  6
CONTINUOUS
 62
    5
 10
1494
 20
216
 11
1494
 21
72
  0
TEXT
  8
_0-7_枠細線
 62
    5
 10
1431
 20
192
 40
18
 41
1
 50
0
  1
縮　尺
  0
LINE
  8
_0-7_枠細線
  6
CONTINUOUS
 62
    5
 10
1422
 20
186
 11
1494
 21
186
  0
LINE
  8
_0-7_枠細線
  6
CONTINUOUS
 62
    5
 10
1494
 20
120
 11
1110
 21
120
  0
LINE
  8
_0-7_枠細線
  6
CONTINUOUS
 62
    5
 10
1710
 20
108
 11
1494
 21
108
  0
LINE
  8
_0-7_枠細線
  6
CONTINUOUS
 62
    5
 10
1494
 20
144
 11
1710
 21
144
  0
LINE
  8
_0-7_枠細線
  6
CONTINUOUS
 62
    5
 10
1710
 20
168
 11
1494
 21
168
  0
TEXT
  8
_0-7_枠細線
 62
    5
 10
1506
 20
177
 40
30
 41
0.8
 50
0
  1
株式会社シマブン
  0
TEXT
  8
_0-7_枠細線
 62
    5
 10
1503
 20
72
 40
18
 41
1
 50
0
  1
年月日
  0
TEXT
  8
_0-7_枠細線
 62
    5
 10
1503
 20
90
 40
18
 41
1
 50
0
  1
作　成
  0
TEXT
  8
_0-7_枠細線
 62
    5
 10
1507.5
 20
147
 40
18
 41
1
 50
0
  1
承 認
  0
LINE
  8
_0-7_枠細線
  6
CONTINUOUS
 62
    5
 10
1566
 20
168
 11
1566
 21
72
  0
TEXT
  8
_0-7_枠細線
 62
    5
 10
1579.5
 20
147
 40
18
 41
1
 50
0
  1
検 図
  0
LINE
  8
_0-7_枠細線
  6
CONTINUOUS
 62
    5
 10
1638
 20
168
 11
1638
 21
108
  0
TEXT
  8
_0-7_枠細線
 62
    5
 10
1651.5
 20
147
 40
18
 41
1
 50
0
  1
設 計
  0
LINE
  8
_0-7_枠細線
  6
CONTINUOUS
 62
    5
 10
1710
 20
1131
 11
1068
 21
1131
  0
TEXT
  8
_0-7_枠細線
 62
    5
 10
1074
 20
1133.9999999999995
 40
15
 41
1
 50
0
  1
記号
  0
TEXT
  8
_0-7_枠細線
 62
    5
 10
1196.25
 20
1134
 40
15
 41
1
 50
0
  1
訂　 正　 記　 事
  0
TEXT
  8
_0-7_枠細線
 62
    5
 10
1417.5
 20
1134
 40
15
 41
1
 50
0
  1
訂 正 年 月 日
  0
TEXT
  8
_0-7_枠細線
 62
    5
 10
1567.5
 20
1134
 40
15
 41
1
 50
0
  1
備　　　　　考
  0
LINE
  8
_0-7_枠細線
  6
CONTINUOUS
 62
    5
 10
1710
 20
1110
 11
1068
 21
1110
  0
TEXT
  8
_0-7_枠細線
 62
    5
 10
1650
 20
114
 40
24
 41
1
 50
0
  1
藤戸
  0
TEXT
  8
_0-7_枠細線
 62
    5
 10
1432.7999999999997
 20
141
 40
24
 41
0.6999999999999998
 50
0
  1
１：６
  0
LINE
  8
_0-1_計細線
  6
CONTINUOUS
 62
    3
 10
1723.4465993058161
 20
796.64196472428898
 11
1723.446594369296
 21
796.6433281967345
  0
LINE
  8
_0-7_枠細線
  6
CONTINUOUS
 62
    5
 10
1068
 20
1110
 11
1068
 21
1151.9999999999993
  0
LINE
  8
_0-7_枠細線
  6
CONTINUOUS
 62
    5
 10
1110
 20
1110
 11
1110
 21
1151.9999999999993
  0
LINE
  8
_0-7_枠細線
  6
CONTINUOUS
 62
    5
 10
1410
 20
1110
 11
1410
 21
1152
  0
LINE
  8
_0-7_枠細線
  6
CONTINUOUS
 62
    5
 10
1530
 20
1110
 11
1530
 21
1151.9999999999993
  0
TEXT
  8
_0-7_枠細線
 62
    5
 10
1506
 20
114
 40
24
 41
1
 50
0
  1
大野
  0
TEXT
  8
_0-7_枠細線
 62
    5
 10
1578
 20
114
 40
24
 41
1
 50
0
  1
深川
  0
TEXT
  8
_0-7_枠細線
 62
    5
 10
1572
 20
81
 40
18
 41
0.6666666666666666
 50
0
  1
２０１５年０４月０１日
  0
LINE
  8
_1-3_細線2
  6
CONTINUOUS
 62
    4
 10
376.32888421547221
 20
337.02027097951634
 11
376.32888421547221
 21
331.62027097960072
  0
LINE
  8
_1-3_細線2
  6
CONTINUOUS
 62
    4
 10
185.82888440597225
 20
337.02027097951623
 11
203.39762627135198
 21
337.02027097951623
  0
LINE
  8
_1-3_細線2
  6
CONTINUOUS
 62
    4
 10
203.39762627135198
 20
337.02027097951634
 11
211.02888438077292
 21
322.61935007656939
  0
LINE
  8
_1-3_細線2
  6
CONTINUOUS
 62
    4
 10
185.82888440597225
 20
337.02027097951634
 11
185.82888440597225
 21
331.62027097960072
  0
ARC
  8
_1-3_細線2
  6
CONTINUOUS
 62
    4
 10
211.1125363806886
 20
346.32027097945343
 40
4.4999999954999996
 50
7.188977151592951
 51
89.999999999999929
  0
LINE
  8
_1-3_細線2
  6
CONTINUOUS
 62
    4
 10
211.1125363806886
 20
350.82027097940841
 11
184.32888440747223
 21
350.82027097940841
  0
LINE
  8
_1-3_細線2
  6
CONTINUOUS
 62
    4
 10
281.0788843107224
 20
350.82027097940841
 11
211.1125363806886
 21
350.82027097940841
  0
LINE
  8
_1-3_細線2
  6
CONTINUOUS
 62
    4
 10
215.57716095457027
 20
346.88341161356743
 11
221.07888437072228
 21
303.11234569560054
  0
LINE
  8
_1-3_細線2
  6
CONTINUOUS
 62
    4
 10
221.07888437072228
 20
303.11234569560054
 11
221.07888437072228
 21
278.22027098013496
  0
LINE
  8
_1-3_細線2
  6
CONTINUOUS
 62
    4
 10
194.82888439697234
 20
322.62027097969076
 11
203.07888438872209
 21
322.62027097969076
  0
LINE
  8
_1-3_細線2
  6
CONTINUOUS
 62
    4
 10
203.07888438872209
 20
322.62027097969076
 11
203.07888438872209
 21
292.62027097999066
  0
LINE
  8
_1-3_細線2
  6
CONTINUOUS
 62
    4
 10
211.02888438077292
 20
292.62027097999066
 11
203.07888438872209
 21
292.62027097999066
  0
LINE
  8
_1-3_細線2
  6
CONTINUOUS
 62
    4
 10
211.02888438077292
 20
322.61935007656939
 11
211.02888438077292
 21
292.62027097999066
  0
LINE
  8
_1-3_細線2
  6
CONTINUOUS
 62
    4
 10
211.02888438077292
 20
292.62027097999066
 11
211.02888438077292
 21
227.21108298064519
  0
ARC
  8
_1-3_細線2
  6
CONTINUOUS
 62
    4
 10
194.82888439697234
 20
331.62027097960072
 40
8.9999999909999993
 50
179.99999999999983
 51
269.99999999999977
  0
LINE
  8
_1-3_細線2
  6
CONTINUOUS
 62
    4
 10
211.02888438077292
 20
337.32027097954347
 11
211.02888438077292
 21
322.62027097969076
  0
LINE
  8
_1-3_細線2
  6
CONTINUOUS
 62
    4
 10
214.02888437777295
 20
292.62027097999066
 11
211.02888438077292
 21
292.62027097999066
  0
LINE
  8
_1-3_細線2
  6
CONTINUOUS
 62
    4
 10
377.07888421472217
 20
343.32027097948344
 11
377.07888421472217
 21
340.02027097951623
  0
ARC
  8
_1-3_細線2
  6
CONTINUOUS
 62
    4
 10
367.3288842244724
 20
331.62027097960072
 40
8.9999999909999993
 50
269.99999999999977
 51
359.99999999999966
  0
LINE
  8
_1-3_細線2
  6
CONTINUOUS
 62
    4
 10
350.07888424172228
 20
322.62027097969076
 11
350.07888424172228
 21
292.62027097999066
  0
LINE
  8
_1-3_細線2
  6
CONTINUOUS
 62
    4
 10
359.07888423272254
 20
322.62027097969076
 11
359.07888423272254
 21
292.62027097999066
  0
LINE
  8
_1-3_細線2
  6
CONTINUOUS
 62
    4
 10
377.82888421397223
 20
343.32027097948344
 11
377.82888421397223
 21
350.82027097940841
  0
LINE
  8
_1-3_細線2
  6
CONTINUOUS
 62
    4
 10
267.73662832406461
 20
295.15742697996552
 11
270.98147232082056
 21
295.62962297996069
  0
LINE
  8
_1-3_細線2
  6
CONTINUOUS
 62
    4
 10
274.30313631749812
 20
295.96949897995728
 11
277.67634031412422
 21
296.1744629799548
  0
LINE
  8
_1-3_細線2
  6
CONTINUOUS
 62
    4
 10
270.98147232082056
 20
295.62962297996069
 11
274.30313631749812
 21
295.96949897995728
  0
LINE
  8
_1-3_細線2
  6
CONTINUOUS
 62
    4
 10
277.67634031412422
 20
296.1744629799548
 11
281.07541231072554
 21
296.24295897995398
  0
LINE
  8
_1-3_細線2
  6
CONTINUOUS
 62
    4
 10
261.57541233022533
 20
293.83141897997893
 11
264.593300327208
 21
294.55649897997091
  0
LINE
  8
_1-3_細線2
  6
CONTINUOUS
 62
    4
 10
258.70593233309563
 20
292.98769497998705
 11
261.57541233022533
 21
293.83141897997893
  0
LINE
  8
_1-3_細線2
  6
CONTINUOUS
 62
    4
 10
251.19968034060093
 20
289.81313898001895
 11
253.49824833830439
 21
290.97088298000722
  0
LINE
  8
_1-3_細線2
  6
CONTINUOUS
 62
    4
 10
245.72941234607191
 20
285.85008698005845
 11
247.30042434450127
 21
287.2429589800438
  0
LINE
  8
_1-3_細線2
  6
CONTINUOUS
 62
    4
 10
249.12848434267283
 20
288.56733498003109
 11
251.19968034060093
 21
289.81313898001895
  0
LINE
  8
_1-3_細線2
  6
CONTINUOUS
 62
    4
 10
247.30042434450127
 20
287.2429589800438
 11
249.12848434267283
 21
288.56733498003109
  0
LINE
  8
_1-3_細線2
  6
CONTINUOUS
 62
    4
 10
253.49824833830439
 20
290.97088298000722
 11
256.00669633579423
 21
292.03175897999631
  0
LINE
  8
_1-3_細線2
  6
CONTINUOUS
 62
    4
 10
256.00669633579423
 20
292.03175897999631
 11
258.70593233309563
 21
292.98769497998705
  0
LINE
  8
_1-3_細線2
  6
CONTINUOUS
 62
    4
 10
281.0788843107224
 20
296.2202709799551
 11
221.07888437072228
 21
296.2202709799551
  0
LINE
  8
_1-3_細線2
  6
CONTINUOUS
 62
    4
 10
264.593300327208
 20
294.55649897997091
 11
267.73662832406461
 21
295.15742697996552
  0
LINE
  8
_1-3_細線2
  6
CONTINUOUS
 62
    4
 10
290.07888430172233
 20
322.62027097969076
 11
290.07888430172233
 21
292.62027097999066
  0
ARC
  8
_1-3_細線2
  6
CONTINUOUS
 62
    4
 10
211.1125363806886
 20
346.32027097945343
 40
2.9999999970000006
 50
7.1641169999940004
 51
89.999999999999915
  0
ARC
  8
_1-3_細線2
  6
CONTINUOUS
 62
    4
 10
205.02888438677286
 20
337.32027097954347
 40
5.9999999940000013
 50
0
 51
89.999999999999915
  0
LINE
  8
_1-3_細線2
  6
CONTINUOUS
 62
    4
 10
185.07888440672215
 20
343.32027097948344
 11
185.07888440672215
 21
340.02027097951623
  0
LINE
  8
_1-3_細線2
  6
CONTINUOUS
 62
    4
 10
210.38705638141479
 20
340.02027097951623
 11
185.07888440672215
 21
340.02027097951623
  0
LINE
  8
_1-3_細線2
  6
CONTINUOUS
 62
    4
 10
205.02888438677286
 20
343.32027097948344
 11
184.32888440747223
 21
343.32027097948344
  0
LINE
  8
_1-3_細線2
  6
CONTINUOUS
 62
    4
 10
211.1125363806886
 20
349.32027097942341
 11
184.32888440747223
 21
349.32027097942341
  0
LINE
  8
_1-3_細線2
  6
CONTINUOUS
 62
    4
 10
217.7218803740779
 20
329.8202709796185
 11
216.2100803755913
 21
329.8202709796185
  0
LINE
  8
_1-3_細線2
  6
CONTINUOUS
 62
    4
 10
211.02888438077292
 20
328.32027097963351
 11
214.02888437777295
 21
328.32027097963351
  0
LINE
  8
_1-3_細線2
  6
CONTINUOUS
 62
    4
 10
211.02888438077292
 20
322.62027097969076
 11
214.02888437777295
 21
322.62027097969076
  0
LINE
  8
_1-3_細線2
  6
CONTINUOUS
 62
    4
 10
214.08911637771254
 20
346.69440697944913
 11
216.2100803755913
 21
329.8202709796185
  0
LINE
  8
_1-3_細線2
  6
CONTINUOUS
 62
    4
 10
184.32888440747223
 20
343.32027097948344
 11
184.32888440747223
 21
350.82027097940841
  0
LINE
  8
_1-3_細線2
  6
CONTINUOUS
 62
    4
 10
281.0788843107224
 20
322.62027097969076
 11
367.3288842244724
 21
322.62027097969076
  0
LINE
  8
_1-3_細線2
  6
CONTINUOUS
 62
    4
 10
281.0788843107224
 20
292.62027097999066
 11
359.07888423272254
 21
292.62027097999066
  0
LINE
  8
_1-3_細線2
  6
CONTINUOUS
 62
    4
 10
281.0788843107224
 20
350.82027097940841
 11
377.82888421397223
 21
350.82027097940841
  0
LINE
  8
_1-3_細線2
  6
CONTINUOUS
 62
    4
 10
281.0788843107224
 20
343.32027097948344
 11
377.82888421397223
 21
343.32027097948344
  0
LINE
  8
_1-3_細線2
  6
CONTINUOUS
 62
    4
 10
281.0788843107224
 20
340.02027097951623
 11
377.07888421472217
 21
340.02027097951623
  0
LINE
  8
_1-3_細線2
  6
CONTINUOUS
 62
    4
 10
351.10516424069596
 20
227.18736298064437
 11
348.10400424369749
 21
224.186206980675
  0
LINE
  8
_1-3_細線2
  6
CONTINUOUS
 62
    4
 10
243.40430834839546
 20
282.90170298008775
 11
244.42740034737378
 21
284.39932298007284
  0
LINE
  8
_1-3_細線2
  6
CONTINUOUS
 62
    4
 10
242.66791234913327
 20
281.36862698010327
 11
243.40430834839546
 21
282.90170298008775
  0
LINE
  8
_1-3_細線2
  6
CONTINUOUS
 62
    4
 10
231.57888436022239
 20
281.91059498009736
 11
231.57888436022239
 21
278.22027098013496
  0
LINE
  8
_1-3_細線2
  6
CONTINUOUS
 62
    4
 10
242.07541234972538
 20
278.24295898013384
 11
242.22382034957784
 21
279.81176298011883
  0
LINE
  8
_1-3_細線2
  6
CONTINUOUS
 62
    4
 10
242.22382034957784
 20
279.81176298011883
 11
242.66791234913327
 21
281.36862698010327
  0
LINE
  8
_1-3_細線2
  6
CONTINUOUS
 62
    4
 10
281.0788843107224
 20
278.22027098013496
 11
221.07888437072228
 21
278.22027098013496
  0
LINE
  8
_1-3_細線2
  6
CONTINUOUS
 62
    4
 10
281.0788843107224
 20
269.220270980225
 11
221.07888437072228
 21
269.220270980225
  0
LINE
  8
_1-3_細線2
  6
CONTINUOUS
 62
    4
 10
221.07888437072228
 20
269.220270980225
 11
221.07888437072228
 21
224.22027098067494
  0
LINE
  8
_1-3_細線2
  6
CONTINUOUS
 62
    4
 10
211.05260438074851
 20
227.18736298064437
 11
214.05376437774697
 21
224.186206980675
  0
LINE
  8
_1-3_細線2
  6
CONTINUOUS
 62
    4
 10
281.0788843107224
 20
224.22027098067494
 11
214.02888437777295
 21
224.22027098067494
  0
LINE
  8
_1-3_細線2
  6
CONTINUOUS
 62
    4
 10
281.0788843107224
 20
227.22027098064493
 11
351.12888424067154
 21
227.22027098064493
  0
LINE
  8
_1-3_細線2
  6
CONTINUOUS
 62
    4
 10
281.0788843107224
 20
224.22027098067494
 11
348.12888424367151
 21
224.22027098067494
  0
LINE
  8
_1-3_細線2
  6
CONTINUOUS
 62
    4
 10
214.02888437777295
 20
328.32027097963351
 11
214.02888437777295
 21
224.22027098067494
  0
LINE
  8
_1-3_細線2
  6
CONTINUOUS
 62
    4
 10
348.12888424367151
 20
292.62027097999066
 11
348.12888424367151
 21
224.22027098067494
  0
LINE
  8
_1-3_細線2
  6
CONTINUOUS
 62
    4
 10
351.12888424067154
 20
292.62027097999066
 11
351.12888424067154
 21
227.21108298064519
  0
ARC
  8
_1-3_細線2
  6
CONTINUOUS
 62
    4
 10
216.57888437522223
 20
281.91059498009736
 40
14.999999984999999
 50
0
 51
72.549879000004722
  0
LINE
  8
_1-3_細線2
  6
CONTINUOUS
 62
    4
 10
244.42740034737378
 20
284.39932298007284
 11
245.72941234607191
 21
285.85008698005845
  0
LINE
  8
_1-2_極細2
  6
CONTINUOUS
 62
    2
 10
448.72910414307165
 20
370.22277497921505
 11
411.68899618011233
 21
333.18266697958438
  0
LINE
  8
_1-2_極細2
  6
CONTINUOUS
 62
    2
 10
445.9006761458993
 20
373.05120297918563
 11
408.86056818294009
 21
336.0110949795569
  0
LINE
  8
_1-2_極細2
  6
CONTINUOUS
 62
    2
 10
161.38021243042061
 20
373.70677897918017
 11
124.34010446746126
 21
336.66667097954951
  0
LINE
  8
_1-2_極細2
  6
CONTINUOUS
 62
    2
 10
164.20864042759283
 20
370.87835097920765
 11
127.16853246463185
 21
333.83824697957834
  0
LINE
  8
_1-2_極細2
  6
CONTINUOUS
 62
    2
 10
354.5788843107224
 20
337.02027097951623
 11
281.0788843107224
 21
337.02027097951623
  0
LINE
  8
_1-2_極細2
  6
CONTINUOUS
 62
    2
 10
354.5788843107224
 20
340.02027097951623
 11
281.0788843107224
 21
340.02027097951623
  0
LINE
  8
_1-2_極細2
  6
CONTINUOUS
 62
    2
 10
377.0788843107224
 20
340.02027097951623
 11
354.5788843107224
 21
340.02027097951623
  0
LINE
  8
_1-2_極細2
  6
CONTINUOUS
 62
    2
 10
377.0788843107224
 20
337.02027097951623
 11
354.5788843107224
 21
337.02027097951623
  0
LINE
  8
_1-2_極細2
  6
CONTINUOUS
 62
    2
 10
354.5788843107224
 20
337.02027097951623
 11
354.5788843107224
 21
340.02027097951623
  0
LINE
  8
_1-2_極細2
  6
CONTINUOUS
 62
    2
 10
383.0788843107224
 20
357.12027097951704
 11
281.0788843107224
 21
357.12027097951704
  0
ARC
  8
_1-2_極細2
  6
CONTINUOUS
 62
    2
 10
383.0788843107224
 20
352.62027097951704
 40
4.5
 50
89.999999999999915
 51
179.99999999999983
  0
LINE
  8
_1-2_極細2
  6
CONTINUOUS
 62
    2
 10
378.5788843107224
 20
341.52027097951623
 11
378.5788843107224
 21
352.62027097951704
  0
ARC
  8
_1-2_極細2
  6
CONTINUOUS
 62
    2
 10
377.0788843107224
 20
341.52027097951623
 40
4.5
 50
269.99999999999977
 51
359.99999999999966
  0
LINE
  8
_1-2_極細2
  6
CONTINUOUS
 62
    2
 10
381.5788843107224
 20
352.62027097951704
 11
381.5788843107224
 21
341.52027097951623
  0
ARC
  8
_1-2_極細2
  6
CONTINUOUS
 62
    2
 10
383.0788843107224
 20
352.62027097951704
 40
1.5
 50
89.999999999999915
 51
179.99999999999983
  0
ARC
  8
_1-2_極細2
  6
CONTINUOUS
 62
    2
 10
377.0788843107224
 20
341.52027097951623
 40
1.5
 50
269.99999999999977
 51
359.99999999999966
  0
LINE
  8
_1-2_極細2
  6
CONTINUOUS
 62
    2
 10
429.96974416200231
 20
357.12027097951704
 11
383.0788843107224
 21
357.12027097951704
  0
LINE
  8
_1-2_極細2
  6
CONTINUOUS
 62
    2
 10
426.96974416497227
 20
354.12027097951704
 11
383.0788843107224
 21
354.12027097951704
  0
LINE
  8
_1-2_極細2
  6
CONTINUOUS
 62
    2
 10
185.0788843107224
 20
340.02027097951623
 11
207.5788843107224
 21
340.02027097951623
  0
LINE
  8
_1-2_極細2
  6
CONTINUOUS
 62
    2
 10
185.0788843107224
 20
337.02027097951623
 11
207.5788843107224
 21
337.02027097951623
  0
LINE
  8
_1-2_極細2
  6
CONTINUOUS
 62
    2
 10
207.5788843107224
 20
337.02027097951623
 11
207.5788843107224
 21
340.02027097951623
  0
ARC
  8
_1-2_極細2
  6
CONTINUOUS
 62
    2
 10
179.0788843107224
 20
352.62027097951704
 40
4.5
 50
0
 51
89.999999999999915
  0
LINE
  8
_1-2_極細2
  6
CONTINUOUS
 62
    2
 10
183.5788843107224
 20
341.52027097951623
 11
183.5788843107224
 21
352.62027097951704
  0
ARC
  8
_1-2_極細2
  6
CONTINUOUS
 62
    2
 10
185.0788843107224
 20
341.52027097951623
 40
4.5
 50
179.99999999999983
 51
269.99999999999977
  0
LINE
  8
_1-2_極細2
  6
CONTINUOUS
 62
    2
 10
180.5788843107224
 20
352.62027097951704
 11
180.5788843107224
 21
341.52027097951623
  0
ARC
  8
_1-2_極細2
  6
CONTINUOUS
 62
    2
 10
179.0788843107224
 20
352.62027097951704
 40
1.5
 50
0
 51
89.999999999999915
  0
ARC
  8
_1-2_極細2
  6
CONTINUOUS
 62
    2
 10
185.0788843107224
 20
341.52027097951623
 40
1.5
 50
179.99999999999983
 51
269.99999999999977
  0
LINE
  8
_1-2_極細2
  6
CONTINUOUS
 62
    2
 10
150.45055895577269
 20
357.12027097951704
 11
179.0788843107224
 21
357.12027097951704
  0
LINE
  8
_1-2_極細2
  6
CONTINUOUS
 62
    2
 10
147.45055863476944
 20
354.12027097951704
 11
179.0788843107224
 21
354.12027097951704
  0
LINE
  8
_1-2_極細2
  6
CONTINUOUS
 62
    2
 10
425.75275708200945
 20
354.12027097951727
 11
428.75275708200911
 21
357.12027097951704
  0
LINE
  8
_1-2_極細2
  6
CONTINUOUS
 62
    2
 10
423.2071726697377
 20
354.12027097951716
 11
426.20717266973759
 21
357.12027097951704
  0
LINE
  8
_1-2_極細2
  6
CONTINUOUS
 62
    2
 10
420.66158825746624
 20
354.12027097951727
 11
423.66158825746606
 21
357.12027097951704
  0
LINE
  8
_1-2_極細2
  6
CONTINUOUS
 62
    2
 10
418.11600384519454
 20
354.12027097951716
 11
421.11600384519454
 21
357.12027097951704
  0
LINE
  8
_1-2_極細2
  6
CONTINUOUS
 62
    2
 10
415.57041943292319
 20
354.12027097951727
 11
418.57041943292302
 21
357.12027097951716
  0
LINE
  8
_1-2_極細2
  6
CONTINUOUS
 62
    2
 10
413.02483502065149
 20
354.12027097951716
 11
416.02483502065149
 21
357.12027097951704
  0
LINE
  8
_1-2_極細2
  6
CONTINUOUS
 62
    2
 10
410.47925060837997
 20
354.12027097951727
 11
413.47925060837997
 21
357.12027097951716
  0
LINE
  8
_1-2_極細2
  6
CONTINUOUS
 62
    2
 10
407.93366619610845
 20
354.12027097951716
 11
410.93366619610845
 21
357.12027097951704
  0
LINE
  8
_1-2_極細2
  6
CONTINUOUS
 62
    2
 10
405.38808178383692
 20
354.12027097951727
 11
408.38808178383692
 21
357.12027097951716
  0
LINE
  8
_1-2_極細2
  6
CONTINUOUS
 62
    2
 10
402.8424973715654
 20
354.12027097951716
 11
405.84249737156523
 21
357.12027097951704
  0
LINE
  8
_1-2_極細2
  6
CONTINUOUS
 62
    2
 10
400.29691295929388
 20
354.12027097951727
 11
403.29691295929365
 21
357.12027097951716
  0
LINE
  8
_1-2_極細2
  6
CONTINUOUS
 62
    2
 10
397.75132854702218
 20
354.12027097951727
 11
400.75132854702218
 21
357.12027097951716
  0
LINE
  8
_1-2_極細2
  6
CONTINUOUS
 62
    2
 10
378.26483042840152
 20
337.17935727316797
 11
381.41979801707066
 21
340.33432486183733
  0
LINE
  8
_1-2_極細2
  6
CONTINUOUS
 62
    2
 10
395.20574413475083
 20
354.12027097951727
 11
398.2057441347506
 21
357.12027097951716
  0
LINE
  8
_1-2_極細2
  6
CONTINUOUS
 62
    2
 10
375.56015972247832
 20
337.02027097951634
 11
381.57888431072251
 21
343.03899556776048
  0
LINE
  8
_1-2_極細2
  6
CONTINUOUS
 62
    2
 10
392.66015972247914
 20
354.12027097951716
 11
395.66015972247914
 21
357.12027097951704
  0
LINE
  8
_1-2_極細2
  6
CONTINUOUS
 62
    2
 10
373.01457531020662
 20
337.02027097951623
 11
376.01457531020662
 21
340.02027097951623
  0
LINE
  8
_1-2_極細2
  6
CONTINUOUS
 62
    2
 10
378.5788843107224
 20
342.58457998003212
 11
381.5788843107224
 21
345.58457998003212
  0
LINE
  8
_1-2_極細2
  6
CONTINUOUS
 62
    2
 10
390.11457531020778
 20
354.12027097951727
 11
393.11457531020744
 21
357.12027097951716
  0
LINE
  8
_1-2_極細2
  6
CONTINUOUS
 62
    2
 10
370.4689908979351
 20
337.02027097951634
 11
373.4689908979351
 21
340.02027097951634
  0
LINE
  8
_1-2_極細2
  6
CONTINUOUS
 62
    2
 10
378.57888431072251
 20
345.13016439230375
 11
381.5788843107224
 21
348.13016439230364
  0
LINE
  8
_1-2_極細2
  6
CONTINUOUS
 62
    2
 10
387.56899089793609
 20
354.12027097951716
 11
390.56899089793592
 21
357.12027097951704
  0
LINE
  8
_1-2_極細2
  6
CONTINUOUS
 62
    2
 10
367.92340648566358
 20
337.02027097951623
 11
370.92340648566358
 21
340.02027097951623
  0
LINE
  8
_1-2_極細2
  6
CONTINUOUS
 62
    2
 10
378.5788843107224
 20
347.67574880457516
 11
381.57888431072251
 21
350.67574880457516
  0
LINE
  8
_1-2_極細2
  6
CONTINUOUS
 62
    2
 10
385.02340648566451
 20
354.12027097951727
 11
388.0234064856644
 21
357.12027097951716
  0
LINE
  8
_1-2_極細2
  6
CONTINUOUS
 62
    2
 10
365.37782207339205
 20
337.02027097951634
 11
368.37782207339205
 21
340.02027097951645
  0
LINE
  8
_1-2_極細2
  6
CONTINUOUS
 62
    2
 10
378.57888431072251
 20
350.2213332168468
 11
381.88211924005986
 21
353.52456814618392
  0
LINE
  8
_1-2_極細2
  6
CONTINUOUS
 62
    2
 10
382.17458714405552
 20
353.81703605017981
 11
385.47782207339287
 21
357.12027097951716
  0
LINE
  8
_1-2_極細2
  6
CONTINUOUS
 62
    2
 10
362.83223766112053
 20
337.02027097951623
 11
365.83223766112053
 21
340.02027097951634
  0
LINE
  8
_1-2_極細2
  6
CONTINUOUS
 62
    2
 10
378.58135567628847
 20
352.76938899468428
 11
382.92976629555523
 21
357.11779961395098
  0
LINE
  8
_1-2_極細2
  6
CONTINUOUS
 62
    2
 10
360.28665324884901
 20
337.02027097951634
 11
363.28665324884901
 21
340.02027097951634
  0
LINE
  8
_1-2_極細2
  6
CONTINUOUS
 62
    2
 10
357.74106883657731
 20
337.02027097951623
 11
360.74106883657748
 21
340.02027097951623
  0
LINE
  8
_1-2_極細2
  6
CONTINUOUS
 62
    2
 10
355.19548442430596
 20
337.02027097951634
 11
358.19548442430596
 21
340.02027097951634
  0
LINE
  8
_1-2_極細2
  6
CONTINUOUS
 62
    2
 10
354.5788843107224
 20
338.94925527820442
 11
355.64990001203427
 21
340.02027097951623
  0
LINE
  8
_1-2_極細2
  6
CONTINUOUS
 62
    2
 10
352.64990001203375
 20
337.02027097951623
 11
354.5788843107224
 21
338.94925527820487
  0
LINE
  8
_1-2_極細2
  6
CONTINUOUS
 62
    2
 10
350.10431559976223
 20
337.02027097951634
 11
353.10431559976223
 21
340.02027097951634
  0
LINE
  8
_1-2_極細2
  6
CONTINUOUS
 62
    2
 10
347.55873118749071
 20
337.02027097951623
 11
350.55873118749071
 21
340.02027097951623
  0
LINE
  8
_1-2_極細2
  6
CONTINUOUS
 62
    2
 10
345.01314677521918
 20
337.02027097951634
 11
348.01314677521918
 21
340.02027097951645
  0
LINE
  8
_1-2_極細2
  6
CONTINUOUS
 62
    2
 10
342.46756236294766
 20
337.02027097951634
 11
345.46756236294766
 21
340.02027097951634
  0
LINE
  8
_1-2_極細2
  6
CONTINUOUS
 62
    2
 10
339.92197795067614
 20
337.02027097951634
 11
342.92197795067614
 21
340.02027097951634
  0
LINE
  8
_1-2_極細2
  6
CONTINUOUS
 62
    2
 10
337.37639353840444
 20
337.02027097951623
 11
340.37639353840461
 21
340.02027097951634
  0
LINE
  8
_1-2_極細2
  6
CONTINUOUS
 62
    2
 10
334.83080912613309
 20
337.02027097951634
 11
337.83080912613309
 21
340.02027097951634
  0
LINE
  8
_1-2_極細2
  6
CONTINUOUS
 62
    2
 10
332.2852247138614
 20
337.02027097951623
 11
335.2852247138614
 21
340.02027097951623
  0
LINE
  8
_1-2_極細2
  6
CONTINUOUS
 62
    2
 10
329.73964030158982
 20
337.02027097951645
 11
332.73964030159004
 21
340.02027097951645
  0
LINE
  8
_1-2_極細2
  6
CONTINUOUS
 62
    2
 10
327.19405588931835
 20
337.02027097951634
 11
330.19405588931835
 21
340.02027097951634
  0
LINE
  8
_1-2_極細2
  6
CONTINUOUS
 62
    2
 10
324.64847147704677
 20
337.02027097951634
 11
327.64847147704677
 21
340.02027097951645
  0
LINE
  8
_1-2_極細2
  6
CONTINUOUS
 62
    2
 10
322.10288706477513
 20
337.02027097951634
 11
325.1028870647753
 21
340.02027097951634
  0
LINE
  8
_1-2_極細2
  6
CONTINUOUS
 62
    2
 10
319.55730265250372
 20
337.02027097951634
 11
322.55730265250372
 21
340.02027097951634
  0
LINE
  8
_1-2_極細2
  6
CONTINUOUS
 62
    2
 10
317.01171824023209
 20
337.02027097951623
 11
320.01171824023209
 21
340.02027097951634
  0
LINE
  8
_1-2_極細2
  6
CONTINUOUS
 62
    2
 10
314.46613382796056
 20
337.02027097951623
 11
317.46613382796068
 21
340.02027097951634
  0
LINE
  8
_1-2_極細2
  6
CONTINUOUS
 62
    2
 10
311.92054941568904
 20
337.02027097951634
 11
314.92054941568904
 21
340.02027097951634
  0
LINE
  8
_1-2_極細2
  6
CONTINUOUS
 62
    2
 10
309.37496500341751
 20
337.02027097951623
 11
312.37496500341751
 21
340.02027097951634
  0
LINE
  8
_1-2_極細2
  6
CONTINUOUS
 62
    2
 10
306.82938059114599
 20
337.02027097951634
 11
309.82938059114599
 21
340.02027097951634
  0
LINE
  8
_1-2_極細2
  6
CONTINUOUS
 62
    2
 10
304.28379617887447
 20
337.02027097951623
 11
307.28379617887447
 21
340.02027097951623
  0
LINE
  8
_1-2_極細2
  6
CONTINUOUS
 62
    2
 10
301.73821176660294
 20
337.02027097951634
 11
304.73821176660294
 21
340.02027097951634
  0
LINE
  8
_1-2_極細2
  6
CONTINUOUS
 62
    2
 10
299.19262735433125
 20
337.02027097951623
 11
302.19262735433125
 21
340.02027097951623
  0
LINE
  8
_1-2_極細2
  6
CONTINUOUS
 62
    2
 10
296.64704294205967
 20
337.02027097951623
 11
299.64704294205967
 21
340.02027097951634
  0
LINE
  8
_1-2_極細2
  6
CONTINUOUS
 62
    2
 10
294.1014585297882
 20
337.02027097951623
 11
297.1014585297882
 21
340.02027097951634
  0
LINE
  8
_1-2_極細2
  6
CONTINUOUS
 62
    2
 10
291.55587411751662
 20
337.02027097951634
 11
294.55587411751662
 21
340.02027097951634
  0
LINE
  8
_1-2_極細2
  6
CONTINUOUS
 62
    2
 10
289.01028970524499
 20
337.02027097951623
 11
292.01028970524499
 21
340.02027097951623
  0
LINE
  8
_1-2_極細2
  6
CONTINUOUS
 62
    2
 10
286.46470529297346
 20
337.02027097951634
 11
289.46470529297358
 21
340.02027097951634
  0
LINE
  8
_1-2_極細2
  6
CONTINUOUS
 62
    2
 10
283.91912088070194
 20
337.02027097951623
 11
286.91912088070194
 21
340.02027097951623
  0
LINE
  8
_1-2_極細2
  6
CONTINUOUS
 62
    2
 10
281.37353646843042
 20
337.02027097951623
 11
284.37353646843042
 21
340.02027097951634
  0
LINE
  8
_1-2_極細2
  6
CONTINUOUS
 62
    2
 10
281.07888431072251
 20
339.27120323407985
 11
281.82795205615889
 21
340.02027097951634
  0
LINE
  8
_1-2_極細2
  6
CONTINUOUS
 62
    2
 10
207.55158851255419
 20
337.02027097951634
 11
207.57888431072249
 21
337.04756677768466
  0
LINE
  8
_1-2_極細2
  6
CONTINUOUS
 62
    2
 10
205.0060041002825
 20
337.02027097951634
 11
207.57888431072249
 21
339.59315118995619
  0
LINE
  8
_1-2_極細2
  6
CONTINUOUS
 62
    2
 10
202.46041968801089
 20
337.02027097951623
 11
205.46041968801089
 21
340.02027097951634
  0
LINE
  8
_1-2_極細2
  6
CONTINUOUS
 62
    2
 10
199.91483527573945
 20
337.02027097951623
 11
202.91483527573945
 21
340.02027097951634
  0
LINE
  8
_1-2_極細2
  6
CONTINUOUS
 62
    2
 10
197.36925086346784
 20
337.02027097951623
 11
200.36925086346784
 21
340.02027097951623
  0
LINE
  8
_1-2_極細2
  6
CONTINUOUS
 62
    2
 10
194.8236664511964
 20
337.02027097951634
 11
197.8236664511964
 21
340.02027097951634
  0
LINE
  8
_1-2_極細2
  6
CONTINUOUS
 62
    2
 10
192.27808203892479
 20
337.02027097951634
 11
195.27808203892479
 21
340.02027097951634
  0
LINE
  8
_1-2_極細2
  6
CONTINUOUS
 62
    2
 10
189.73249762665327
 20
337.02027097951634
 11
192.73249762665336
 21
340.02027097951634
  0
LINE
  8
_1-2_極細2
  6
CONTINUOUS
 62
    2
 10
187.18691321438175
 20
337.02027097951634
 11
190.18691321438175
 21
340.02027097951634
  0
LINE
  8
_1-2_極細2
  6
CONTINUOUS
 62
    2
 10
184.66079314474393
 20
337.03973532215014
 11
187.64132880211022
 21
340.02027097951634
  0
LINE
  8
_1-2_極細2
  6
CONTINUOUS
 62
    2
 10
182.74704189059429
 20
337.67156848027184
 11
185.09574438983861
 21
340.02027097951634
  0
LINE
  8
_1-2_極細2
  6
CONTINUOUS
 62
    2
 10
181.42438973267019
 20
338.89450073461944
 11
183.63692764136175
 21
341.10703864331094
  0
LINE
  8
_1-2_極細2
  6
CONTINUOUS
 62
    2
 10
180.65903564354738
 20
340.6747310577681
 11
183.5788843107224
 21
343.59457972494329
  0
LINE
  8
_1-2_極細2
  6
CONTINUOUS
 62
    2
 10
180.5788843107224
 20
343.1401641372147
 11
183.5788843107224
 21
346.1401641372147
  0
LINE
  8
_1-2_極細2
  6
CONTINUOUS
 62
    2
 10
180.5788843107224
 20
345.68574854948633
 11
183.57888431072249
 21
348.68574854948633
  0
LINE
  8
_1-2_極細2
  6
CONTINUOUS
 62
    2
 10
180.5788843107224
 20
348.23133296175786
 11
183.57888431072249
 21
351.23133296175786
  0
LINE
  8
_1-2_極細2
  6
CONTINUOUS
 62
    2
 10
180.57888431072249
 20
350.77691737402938
 11
183.45805011015085
 21
353.65608317345789
  0
LINE
  8
_1-2_極細2
  6
CONTINUOUS
 62
    2
 10
180.4605664849573
 20
353.20418396053572
 11
182.6346488668141
 21
355.37826634239264
  0
LINE
  8
_1-2_極細2
  6
CONTINUOUS
 62
    2
 10
178.83106909166725
 20
354.12027097951727
 11
181.2645984899147
 21
356.5538003777649
  0
LINE
  8
_1-2_極細2
  6
CONTINUOUS
 62
    2
 10
176.28548467939547
 20
354.12027097951727
 11
179.28094584977995
 21
357.11573214990165
  0
LINE
  8
_1-2_極細2
  6
CONTINUOUS
 62
    2
 10
173.73990026712403
 20
354.12027097951727
 11
176.73990026712403
 21
357.12027097951716
  0
LINE
  8
_1-2_極細2
  6
CONTINUOUS
 62
    2
 10
171.19431585485242
 20
354.12027097951727
 11
174.19431585485242
 21
357.12027097951716
  0
LINE
  8
_1-2_極細2
  6
CONTINUOUS
 62
    2
 10
168.64873144258098
 20
354.12027097951727
 11
171.64873144258098
 21
357.12027097951716
  0
LINE
  8
_1-2_極細2
  6
CONTINUOUS
 62
    2
 10
166.10314703030937
 20
354.12027097951716
 11
169.10314703030937
 21
357.12027097951716
  0
LINE
  8
_1-2_極細2
  6
CONTINUOUS
 62
    2
 10
163.55756261803793
 20
354.12027097951727
 11
166.55756261803785
 21
357.12027097951727
  0
LINE
  8
_1-2_極細2
  6
CONTINUOUS
 62
    2
 10
161.01197820576633
 20
354.12027097951716
 11
164.01197820576624
 21
357.12027097951716
  0
LINE
  8
_1-2_極細2
  6
CONTINUOUS
 62
    2
 10
158.4663937934948
 20
354.12027097951716
 11
161.46639379349472
 21
357.12027097951716
  0
LINE
  8
_1-2_極細2
  6
CONTINUOUS
 62
    2
 10
155.92080938122319
 20
354.12027097951716
 11
158.92080938122319
 21
357.12027097951716
  0
LINE
  8
_1-2_極細2
  6
CONTINUOUS
 62
    2
 10
153.37522496895167
 20
354.12027097951716
 11
156.37522496895167
 21
357.12027097951716
  0
LINE
  8
_1-2_極細2
  6
CONTINUOUS
 62
    2
 10
150.82964055667998
 20
354.12027097951716
 11
153.82964055667998
 21
357.12027097951704
  0
LINE
  8
_1-2_極細2
  6
CONTINUOUS
 62
    2
 10
148.28405614440845
 20
354.12027097951727
 11
151.28405614440845
 21
357.12027097951716
  0
LINE
  8
_1-2_極細2
  6
CONTINUOUS
 62
    2
 10
203.07888438872209
 20
294.89676451077435
 11
205.35537791950566
 21
292.62027097999066
  0
LINE
  8
_1-2_極細2
  6
CONTINUOUS
 62
    2
 10
203.07888438872209
 20
297.44234892304576
 11
207.90096233177718
 21
292.62027097999066
  0
LINE
  8
_1-2_極細2
  6
CONTINUOUS
 62
    2
 10
203.07888438872209
 20
299.98793333531739
 11
210.44654674404887
 21
292.62027097999066
  0
LINE
  8
_1-2_極細2
  6
CONTINUOUS
 62
    2
 10
203.07888438872209
 20
302.53351774758903
 11
211.02888438077292
 21
294.5835177555382
  0
LINE
  8
_1-2_極細2
  6
CONTINUOUS
 62
    2
 10
203.07888438872209
 20
305.07910215986055
 11
211.02888438077292
 21
297.12910216780961
  0
LINE
  8
_1-2_極細2
  6
CONTINUOUS
 62
    2
 10
203.07888438872209
 20
307.62468657213208
 11
211.02888438077292
 21
299.67468658008124
  0
LINE
  8
_1-2_極細2
  6
CONTINUOUS
 62
    2
 10
203.07888438872209
 20
310.17027098440371
 11
211.02888438077292
 21
302.22027099235288
  0
LINE
  8
_1-2_極細2
  6
CONTINUOUS
 62
    2
 10
186.02017447993904
 20
329.77456530545851
 11
192.98317872283013
 21
322.81156106256742
  0
LINE
  8
_1-2_極細2
  6
CONTINUOUS
 62
    2
 10
203.07888438872209
 20
312.71585539667535
 11
211.02888438077292
 21
304.76585540462452
  0
LINE
  8
_1-2_極細2
  6
CONTINUOUS
 62
    2
 10
185.82888440597225
 20
332.51143979169706
 11
195.72005321003093
 21
322.62027098763815
  0
LINE
  8
_1-2_極細2
  6
CONTINUOUS
 62
    2
 10
203.07888438872209
 20
315.26143980894688
 11
211.02888438077292
 21
307.31143981689604
  0
LINE
  8
_1-2_極細2
  6
CONTINUOUS
 62
    2
 10
185.82888440597225
 20
335.05702420396869
 11
198.26563762505174
 21
322.62027098488898
  0
LINE
  8
_1-2_極細2
  6
CONTINUOUS
 62
    2
 10
203.07888438872209
 20
317.80702422121851
 11
211.02888438077292
 21
309.85702422916768
  0
LINE
  8
_1-2_極細2
  6
CONTINUOUS
 62
    2
 10
186.41122204269612
 20
337.02027097951623
 11
200.81122204007247
 21
322.6202709821398
  0
LINE
  8
_1-2_極細2
  6
CONTINUOUS
 62
    2
 10
203.07888438872209
 20
320.35260863349004
 11
211.02888438077292
 21
312.4026086414392
  0
LINE
  8
_1-2_極細2
  6
CONTINUOUS
 62
    2
 10
188.95680645496765
 20
337.02027097951623
 11
211.02888438077292
 21
314.94819305371084
  0
LINE
  8
_1-2_極細2
  6
CONTINUOUS
 62
    2
 10
191.50239086723917
 20
337.02027097951623
 11
211.02888438077292
 21
317.49377746598236
  0
LINE
  8
_1-2_極細2
  6
CONTINUOUS
 62
    2
 10
194.04797527951069
 20
337.02027097951623
 11
211.02888438077292
 21
320.03936187825389
  0
LINE
  8
_1-2_極細2
  6
CONTINUOUS
 62
    2
 10
196.59355969178239
 20
337.02027097951623
 11
211.02888438077292
 21
322.58494629052552
  0
LINE
  8
_1-2_極細2
  6
CONTINUOUS
 62
    2
 10
199.13914410405391
 20
337.02027097951623
 11
208.19809825410675
 21
327.96131682946339
  0
LINE
  8
_1-2_極細2
  6
CONTINUOUS
 62
    2
 10
201.68472851632544
 20
337.02027097951623
 11
205.32852966821781
 21
333.37646982762385
  0
LINE
  8
_1-2_極細2
  6
CONTINUOUS
 62
    2
 10
209.32148175314018
 20
292.62027097999066
 11
211.02888438077292
 21
294.32767360762341
  0
LINE
  8
_1-2_極細2
  6
CONTINUOUS
 62
    2
 10
206.77589734086857
 20
292.62027097999066
 11
211.02888438077292
 21
296.87325801989505
  0
LINE
  8
_1-2_極細2
  6
CONTINUOUS
 62
    2
 10
204.23031292859704
 20
292.62027097999066
 11
211.02888438077292
 21
299.41884243216646
  0
LINE
  8
_1-2_極細2
  6
CONTINUOUS
 62
    2
 10
203.07888438872209
 20
294.01442685238726
 11
211.02888438077292
 21
301.96442684443809
  0
LINE
  8
_1-2_極細2
  6
CONTINUOUS
 62
    2
 10
203.07888438872209
 20
296.5600112646589
 11
211.02888438077292
 21
304.51001125670962
  0
LINE
  8
_1-2_極細2
  6
CONTINUOUS
 62
    2
 10
203.07888438872209
 20
299.10559567693053
 11
211.02888438077292
 21
307.05559566898114
  0
LINE
  8
_1-2_極細2
  6
CONTINUOUS
 62
    2
 10
203.07888438872209
 20
301.65118008920206
 11
211.02888438077292
 21
309.60118008125278
  0
LINE
  8
_1-2_極細2
  6
CONTINUOUS
 62
    2
 10
203.07888438872209
 20
304.19676450147358
 11
211.02888438077292
 21
312.1467644935243
  0
LINE
  8
_1-2_極細2
  6
CONTINUOUS
 62
    2
 10
203.07888438872209
 20
306.74234891374522
 11
211.02888438077292
 21
314.69234890579582
  0
LINE
  8
_1-2_極細2
  6
CONTINUOUS
 62
    2
 10
203.07888438872209
 20
309.28793332601674
 11
211.02888438077292
 21
317.23793331806746
  0
LINE
  8
_1-2_極細2
  6
CONTINUOUS
 62
    2
 10
203.07888438872209
 20
311.83351773828826
 11
211.02888438077292
 21
319.78351773033899
  0
LINE
  8
_1-2_極細2
  6
CONTINUOUS
 62
    2
 10
203.07888438872209
 20
314.3791021505599
 11
211.02888438077292
 21
322.32910214261051
  0
LINE
  8
_1-2_極細2
  6
CONTINUOUS
 62
    2
 10
203.07888438872209
 20
316.92468656283143
 11
210.2477063238982
 21
324.0935084980074
  0
LINE
  8
_1-2_極細2
  6
CONTINUOUS
 62
    2
 10
203.07888438872209
 20
319.47027097510295
 11
209.36599545551525
 21
325.75738204189611
  0
LINE
  8
_1-2_極細2
  6
CONTINUOUS
 62
    2
 10
203.07888438872209
 20
322.01585538737459
 11
208.48428458713238
 21
327.42125558578471
  0
LINE
  8
_1-2_極細2
  6
CONTINUOUS
 62
    2
 10
201.13771557086318
 20
322.62027098178714
 11
207.60257371874943
 21
329.08512912967331
  0
LINE
  8
_1-2_極細2
  6
CONTINUOUS
 62
    2
 10
198.59213116134077
 20
322.62027098453632
 11
206.72086285036647
 21
330.74900267356202
  0
LINE
  8
_1-2_極細2
  6
CONTINUOUS
 62
    2
 10
196.04654675181854
 20
322.62027098728561
 11
205.8391519819836
 21
332.41287621745062
  0
LINE
  8
_1-2_極細2
  6
CONTINUOUS
 62
    2
 10
193.58704930539952
 20
322.70635795313819
 11
204.95744111360065
 21
334.07674976133922
  0
LINE
  8
_1-2_極細2
  6
CONTINUOUS
 62
    2
 10
191.5672048961182
 20
323.23209795612843
 11
204.0757302452177
 21
335.74062330522793
  0
LINE
  8
_1-2_極細2
  6
CONTINUOUS
 62
    2
 10
189.88758743591575
 20
324.09806490819756
 11
202.80979350723439
 21
337.02027097951623
  0
LINE
  8
_1-2_極細2
  6
CONTINUOUS
 62
    2
 10
188.4826102315223
 20
325.2386721160758
 11
200.26420909496295
 21
337.02027097951623
  0
LINE
  8
_1-2_極細2
  6
CONTINUOUS
 62
    2
 10
187.33479236970345
 20
326.63643866652831
 11
197.71862468269134
 21
337.02027097951623
  0
LINE
  8
_1-2_極細2
  6
CONTINUOUS
 62
    2
 10
186.46061902523189
 20
328.30784973432844
 11
195.17304027041982
 21
337.02027097951623
  0
LINE
  8
_1-2_極細2
  6
CONTINUOUS
 62
    2
 10
185.92380229587155
 20
330.31661741723974
 11
192.62745585814821
 21
337.02027097951623
  0
LINE
  8
_1-2_極細2
  6
CONTINUOUS
 62
    2
 10
185.82888440597225
 20
332.76728393961184
 11
190.08187144587669
 21
337.02027097951623
  0
LINE
  8
_1-2_極細2
  6
CONTINUOUS
 62
    2
 10
185.82888440597225
 20
335.31286835188337
 11
187.53628703360499
 21
337.02027097951623
  0
LINE
  8
_1-2_極細2
  6
CONTINUOUS
 62
    2
 10
209.65942025722467
 20
340.02027097951634
 11
210.1255271267473
 21
340.48637784903894
  0
LINE
  8
_1-2_極細2
  6
CONTINUOUS
 62
    2
 10
208.8108921198006
 20
340.02027097951634
 11
209.77789428708886
 21
340.98727314680468
  0
LINE
  8
_1-2_極細2
  6
CONTINUOUS
 62
    2
 10
207.96236398237687
 20
340.02027097951634
 11
209.38665846688383
 21
341.4445654640233
  0
LINE
  8
_1-2_極細2
  6
CONTINUOUS
 62
    2
 10
207.11383584495314
 20
340.02027097951634
 11
208.95284080079176
 21
341.85927593535484
  0
LINE
  8
_1-2_極細2
  6
CONTINUOUS
 62
    2
 10
206.26530770752942
 20
340.02027097951634
 11
208.47614926410432
 21
342.23111253609125
  0
LINE
  8
_1-2_極細2
  6
CONTINUOUS
 62
    2
 10
205.41677957010526
 20
340.02027097951634
 11
207.95493227036326
 21
342.55842367977425
  0
LINE
  8
_1-2_極細2
  6
CONTINUOUS
 62
    2
 10
204.56825143268154
 20
340.02027097951634
 11
207.38590200737843
 21
342.83792155421315
  0
LINE
  8
_1-2_極細2
  6
CONTINUOUS
 62
    2
 10
203.71972329525781
 20
340.02027097951634
 11
206.76350921110765
 21
343.06405689536609
  0
LINE
  8
_1-2_極細2
  6
CONTINUOUS
 62
    2
 10
202.87119515783408
 20
340.02027097951634
 11
206.07864779893177
 21
343.22772362061414
  0
LINE
  8
_1-2_極細2
  6
CONTINUOUS
 62
    2
 10
202.0226670204101
 20
340.02027097951634
 11
205.31580290190044
 21
343.31340686100623
  0
LINE
  8
_1-2_極細2
  6
CONTINUOUS
 62
    2
 10
201.17413888298637
 20
340.02027097951634
 11
204.47413887717272
 21
343.32027097370269
  0
LINE
  8
_1-2_極細2
  6
CONTINUOUS
 62
    2
 10
200.32561074556264
 20
340.02027097951634
 11
203.62561073999242
 21
343.32027097394621
  0
LINE
  8
_1-2_極細2
  6
CONTINUOUS
 62
    2
 10
199.47708260813891
 20
340.02027097951634
 11
202.77708260281221
 21
343.32027097418961
  0
LINE
  8
_1-2_極細2
  6
CONTINUOUS
 62
    2
 10
198.62855447071485
 20
340.02027097951634
 11
201.92855446563175
 21
343.32027097443324
  0
LINE
  8
_1-2_極細2
  6
CONTINUOUS
 62
    2
 10
197.78002633329112
 20
340.02027097951634
 11
201.08002632845154
 21
343.32027097467665
  0
LINE
  8
_1-2_極細2
  6
CONTINUOUS
 62
    2
 10
196.93149819586739
 20
340.02027097951634
 11
200.23149819127133
 21
343.32027097492005
  0
LINE
  8
_1-2_極細2
  6
CONTINUOUS
 62
    2
 10
196.08297005844366
 20
340.02027097951634
 11
199.38297005409069
 21
343.32027097516357
  0
LINE
  8
_1-2_極細2
  6
CONTINUOUS
 62
    2
 10
195.2344419210196
 20
340.02027097951634
 11
198.53444191691057
 21
343.32027097540708
  0
LINE
  8
_1-2_極細2
  6
CONTINUOUS
 62
    2
 10
194.38591378359587
 20
340.02027097951634
 11
197.68591377973036
 21
343.3202709756506
  0
LINE
  8
_1-2_極細2
  6
CONTINUOUS
 62
    2
 10
193.53738564617214
 20
340.02027097951634
 11
196.8373856425498
 21
343.32027097589412
  0
LINE
  8
_1-2_極細2
  6
CONTINUOUS
 62
    2
 10
192.68885750874841
 20
340.02027097951634
 11
195.98885750536959
 21
343.32027097613764
  0
LINE
  8
_1-2_極細2
  6
CONTINUOUS
 62
    2
 10
191.84032937132426
 20
340.02027097951634
 11
195.14032936818938
 21
343.32027097638115
  0
LINE
  8
_1-2_極細2
  6
CONTINUOUS
 62
    2
 10
190.99180123390053
 20
340.02027097951634
 11
194.29180123100875
 21
343.32027097662456
  0
LINE
  8
_1-2_極細2
  6
CONTINUOUS
 62
    2
 10
190.1432730964768
 20
340.02027097951634
 11
193.44327309382854
 21
343.32027097686807
  0
LINE
  8
_1-2_極細2
  6
CONTINUOUS
 62
    2
 10
189.29474495905308
 20
340.02027097951634
 11
192.59474495664833
 21
343.32027097711159
  0
LINE
  8
_1-2_極細2
  6
CONTINUOUS
 62
    2
 10
188.44621682162909
 20
340.02027097951634
 11
191.74621681946786
 21
343.32027097735499
  0
LINE
  8
_1-2_極細2
  6
CONTINUOUS
 62
    2
 10
187.59768868420537
 20
340.02027097951634
 11
190.89768868228765
 21
343.32027097759851
  0
LINE
  8
_1-2_極細2
  6
CONTINUOUS
 62
    2
 10
186.74916054678164
 20
340.02027097951634
 11
190.04916054510744
 21
343.32027097784203
  0
LINE
  8
_1-2_極細2
  6
CONTINUOUS
 62
    2
 10
185.90063240935791
 20
340.02027097951634
 11
189.20063240792689
 21
343.32027097808555
  0
LINE
  8
_1-2_極細2
  6
CONTINUOUS
 62
    2
 10
185.07888440672215
 20
340.04705111430462
 11
188.35210427074668
 21
343.32027097832895
  0
LINE
  8
_1-2_極細2
  6
CONTINUOUS
 62
    2
 10
185.07888440672215
 20
340.89557925172835
 11
187.50357613356638
 21
343.32027097857258
  0
LINE
  8
_1-2_極細2
  6
CONTINUOUS
 62
    2
 10
185.07888440672215
 20
341.74410738915219
 11
186.65504799638592
 21
343.32027097881598
  0
LINE
  8
_1-2_極細2
  6
CONTINUOUS
 62
    2
 10
185.07888440672215
 20
342.59263552657603
 11
185.80651985920571
 21
343.32027097905939
  0
LINE
  8
_1-2_極細2
  6
CONTINUOUS
 62
    2
 10
210.35914501423548
 20
340.07496180998578
 11
207.78357521721495
 21
342.65053160700609
  0
LINE
  8
_1-2_極細2
  6
CONTINUOUS
 62
    2
 10
209.56530770728085
 20
340.02027097951634
 11
206.43157255454031
 21
343.15400613225688
  0
LINE
  8
_1-2_極細2
  6
CONTINUOUS
 62
    2
 10
208.71677956985712
 20
340.02027097951634
 11
205.43021694099895
 21
343.30683360837452
  0
LINE
  8
_1-2_極細2
  6
CONTINUOUS
 62
    2
 10
207.8682514324334
 20
340.02027097951634
 11
204.56825143827399
 21
343.32027097367563
  0
LINE
  8
_1-2_極細2
  6
CONTINUOUS
 62
    2
 10
207.01972329500967
 20
340.02027097951634
 11
203.71972330060674
 21
343.32027097391915
  0
LINE
  8
_1-2_極細2
  6
CONTINUOUS
 62
    2
 10
206.17119515758594
 20
340.02027097951634
 11
202.8711951629395
 21
343.32027097416267
  0
LINE
  8
_1-2_極細2
  6
CONTINUOUS
 62
    2
 10
205.32266702016221
 20
340.02027097951634
 11
202.02266702527226
 21
343.32027097440607
  0
LINE
  8
_1-2_極細2
  6
CONTINUOUS
 62
    2
 10
204.47413888273849
 20
340.02027097951634
 11
201.17413888760501
 21
343.32027097464959
  0
LINE
  8
_1-2_極細2
  6
CONTINUOUS
 62
    2
 10
203.62561074531476
 20
340.02027097951634
 11
200.32561074993777
 21
343.32027097489322
  0
LINE
  8
_1-2_極細2
  6
CONTINUOUS
 62
    2
 10
202.77708260789061
 20
340.02027097951634
 11
199.47708261227052
 21
343.32027097513662
  0
LINE
  8
_1-2_極細2
  6
CONTINUOUS
 62
    2
 10
201.92855447046688
 20
340.02027097951634
 11
198.62855447460328
 21
343.32027097538003
  0
LINE
  8
_1-2_極細2
  6
CONTINUOUS
 62
    2
 10
201.08002633304315
 20
340.02027097951634
 11
197.78002633693603
 21
343.32027097562366
  0
LINE
  8
_1-2_極細2
  6
CONTINUOUS
 62
    2
 10
200.23149819561942
 20
340.02027097951634
 11
196.93149819926879
 21
343.32027097586706
  0
LINE
  8
_1-2_極細2
  6
CONTINUOUS
 62
    2
 10
199.3829700581957
 20
340.02027097951634
 11
196.08297006160154
 21
343.32027097611058
  0
LINE
  8
_1-2_極細2
  6
CONTINUOUS
 62
    2
 10
198.53444192077197
 20
340.02027097951634
 11
195.2344419239343
 21
343.3202709763541
  0
LINE
  8
_1-2_極細2
  6
CONTINUOUS
 62
    2
 10
197.68591378334824
 20
340.02027097951634
 11
194.38591378626705
 21
343.32027097659761
  0
LINE
  8
_1-2_極細2
  6
CONTINUOUS
 62
    2
 10
196.83738564592451
 20
340.02027097951634
 11
193.53738564859981
 21
343.32027097684113
  0
LINE
  8
_1-2_極細2
  6
CONTINUOUS
 62
    2
 10
195.98885750850053
 20
340.02027097951634
 11
192.68885751093256
 21
343.32027097708453
  0
LINE
  8
_1-2_極細2
  6
CONTINUOUS
 62
    2
 10
195.1403293710768
 20
340.02027097951634
 11
191.84032937326532
 21
343.32027097732816
  0
LINE
  8
_1-2_極細2
  6
CONTINUOUS
 62
    2
 10
194.29180123365308
 20
340.02027097951634
 11
190.99180123559773
 21
343.32027097757145
  0
LINE
  8
_1-2_極細2
  6
CONTINUOUS
 62
    2
 10
193.44327309622935
 20
340.02027097951634
 11
190.14327309793083
 21
343.32027097781497
  0
LINE
  8
_1-2_極細2
  6
CONTINUOUS
 62
    2
 10
192.59474495880562
 20
340.02027097951634
 11
189.29474496026316
 21
343.32027097805849
  0
LINE
  8
_1-2_極細2
  6
CONTINUOUS
 62
    2
 10
191.74621682138189
 20
340.02027097951634
 11
188.44621682259591
 21
343.32027097830201
  0
LINE
  8
_1-2_極細2
  6
CONTINUOUS
 62
    2
 10
190.89768868395817
 20
340.02027097951634
 11
187.59768868492867
 21
343.32027097854552
  0
LINE
  8
_1-2_極細2
  6
CONTINUOUS
 62
    2
 10
190.04916054653444
 20
340.02027097951634
 11
186.74916054726151
 21
343.32027097878904
  0
LINE
  8
_1-2_極細2
  6
CONTINUOUS
 62
    2
 10
189.20063240911037
 20
340.02027097951634
 11
185.90063240959427
 21
343.32027097903244
  0
LINE
  8
_1-2_極細2
  6
CONTINUOUS
 62
    2
 10
188.35210427168664
 20
340.02027097951634
 11
185.07888440672215
 21
343.29349084448086
  0
LINE
  8
_1-2_極細2
  6
CONTINUOUS
 62
    2
 10
187.50357613426291
 20
340.02027097951634
 11
185.07888440672215
 21
342.44496270705702
  0
LINE
  8
_1-2_極細2
  6
CONTINUOUS
 62
    2
 10
186.65504799683919
 20
340.02027097951634
 11
185.07888440672215
 21
341.59643456963329
  0
LINE
  8
_1-2_極細2
  6
CONTINUOUS
 62
    2
 10
185.80651985941546
 20
340.02027097951634
 11
185.07888440672215
 21
340.74790643220945
  0
LINE
  8
_1-2_極細2
  6
CONTINUOUS
 62
    2
 10
376.64351623332226
 20
340.02027097951634
 11
377.07888421472256
 21
340.45563896091664
  0
LINE
  8
_1-2_極細2
  6
CONTINUOUS
 62
    2
 10
375.79498809589853
 20
340.02027097951634
 11
377.07888421472256
 21
341.30416709834037
  0
LINE
  8
_1-2_極細2
  6
CONTINUOUS
 62
    2
 10
374.9464599584748
 20
340.02027097951634
 11
377.07888421472256
 21
342.15269523576421
  0
LINE
  8
_1-2_極細2
  6
CONTINUOUS
 62
    2
 10
374.09793182105108
 20
340.02027097951634
 11
377.07888421472256
 21
343.00122337318794
  0
LINE
  8
_1-2_極細2
  6
CONTINUOUS
 62
    2
 10
373.24940368362718
 20
340.02027097951634
 11
376.54940368359433
 21
343.32027097948344
  0
LINE
  8
_1-2_極細2
  6
CONTINUOUS
 62
    2
 10
372.40087554620345
 20
340.02027097951634
 11
375.70087554617061
 21
343.32027097948344
  0
LINE
  8
_1-2_極細2
  6
CONTINUOUS
 62
    2
 10
371.55234740877972
 20
340.02027097951634
 11
374.85234740874648
 21
343.32027097948344
  0
LINE
  8
_1-2_極細2
  6
CONTINUOUS
 62
    2
 10
370.703819271356
 20
340.02027097951634
 11
374.00381927132275
 21
343.32027097948344
  0
LINE
  8
_1-2_極細2
  6
CONTINUOUS
 62
    2
 10
369.85529113393176
 20
340.02027097951634
 11
373.15529113389903
 21
343.32027097948344
  0
LINE
  8
_1-2_極細2
  6
CONTINUOUS
 62
    2
 10
369.00676299650803
 20
340.02027097951634
 11
372.30676299647502
 21
343.32027097948344
  0
LINE
  8
_1-2_極細2
  6
CONTINUOUS
 62
    2
 10
368.1582348590843
 20
340.02027097951634
 11
371.45823485905129
 21
343.32027097948344
  0
LINE
  8
_1-2_極細2
  6
CONTINUOUS
 62
    2
 10
367.30970672166058
 20
340.02027097951634
 11
370.60970672162756
 21
343.32027097948344
  0
LINE
  8
_1-2_極細2
  6
CONTINUOUS
 62
    2
 10
366.46117858423645
 20
340.02027097951634
 11
369.76117858420383
 21
343.32027097948344
  0
LINE
  8
_1-2_極細2
  6
CONTINUOUS
 62
    2
 10
365.61265044681272
 20
340.02027097951634
 11
368.91265044678011
 21
343.32027097948344
  0
LINE
  8
_1-2_極細2
  6
CONTINUOUS
 62
    2
 10
364.76412230938899
 20
340.02027097951634
 11
368.06412230935621
 21
343.32027097948344
  0
LINE
  8
_1-2_極細2
  6
CONTINUOUS
 62
    2
 10
363.91559417196527
 20
340.02027097951634
 11
367.21559417193248
 21
343.32027097948344
  0
LINE
  8
_1-2_極細2
  6
CONTINUOUS
 62
    2
 10
363.06706603454126
 20
340.02027097951634
 11
366.36706603450875
 21
343.32027097948344
  0
LINE
  8
_1-2_極細2
  6
CONTINUOUS
 62
    2
 10
362.21853789711753
 20
340.02027097951634
 11
365.51853789708503
 21
343.32027097948344
  0
LINE
  8
_1-2_極細2
  6
CONTINUOUS
 62
    2
 10
361.3700097596938
 20
340.02027097951634
 11
364.67000975966079
 21
343.32027097948344
  0
LINE
  8
_1-2_極細2
  6
CONTINUOUS
 62
    2
 10
360.52148162227007
 20
340.02027097951634
 11
363.82148162223706
 21
343.32027097948344
  0
LINE
  8
_1-2_極細2
  6
CONTINUOUS
 62
    2
 10
359.67295348484595
 20
340.02027097951634
 11
362.97295348481333
 21
343.32027097948344
  0
LINE
  8
_1-2_極細2
  6
CONTINUOUS
 62
    2
 10
358.82442534742222
 20
340.02027097951634
 11
362.1244253473896
 21
343.32027097948344
  0
LINE
  8
_1-2_極細2
  6
CONTINUOUS
 62
    2
 10
357.97589720999849
 20
340.02027097951634
 11
361.27589720996548
 21
343.32027097948344
  0
LINE
  8
_1-2_極細2
  6
CONTINUOUS
 62
    2
 10
357.12736907257477
 20
340.02027097951634
 11
360.42736907254175
 21
343.32027097948344
  0
LINE
  8
_1-2_極細2
  6
CONTINUOUS
 62
    2
 10
356.27884093515092
 20
340.02027097951634
 11
359.57884093511802
 21
343.32027097948344
  0
LINE
  8
_1-2_極細2
  6
CONTINUOUS
 62
    2
 10
355.4303127977272
 20
340.02027097951634
 11
358.7303127976943
 21
343.32027097948344
  0
LINE
  8
_1-2_極細2
  6
CONTINUOUS
 62
    2
 10
354.58178466030347
 20
340.02027097951634
 11
357.88178466027028
 21
343.32027097948344
  0
LINE
  8
_1-2_極細2
  6
CONTINUOUS
 62
    2
 10
353.73325652287974
 20
340.02027097951634
 11
357.03325652284656
 21
343.32027097948344
  0
LINE
  8
_1-2_極細2
  6
CONTINUOUS
 62
    2
 10
352.88472838545545
 20
340.02027097951634
 11
356.18472838542283
 21
343.32027097948344
  0
LINE
  8
_1-2_極細2
  6
CONTINUOUS
 62
    2
 10
352.03620024803172
 20
340.02027097951634
 11
355.3362002479991
 21
343.32027097948344
  0
LINE
  8
_1-2_極細2
  6
CONTINUOUS
 62
    2
 10
351.18767211060799
 20
340.02027097951634
 11
354.48767211057498
 21
343.32027097948344
  0
LINE
  8
_1-2_極細2
  6
CONTINUOUS
 62
    2
 10
350.33914397318426
 20
340.02027097951634
 11
353.63914397315125
 21
343.32027097948344
  0
LINE
  8
_1-2_極細2
  6
CONTINUOUS
 62
    2
 10
349.49061583576025
 20
340.02027097951634
 11
352.79061583572752
 21
343.32027097948344
  0
LINE
  8
_1-2_極細2
  6
CONTINUOUS
 62
    2
 10
348.64208769833652
 20
340.02027097951634
 11
351.94208769830379
 21
343.32027097948344
  0
LINE
  8
_1-2_極細2
  6
CONTINUOUS
 62
    2
 10
347.7935595609128
 20
340.02027097951634
 11
351.09355956087995
 21
343.32027097948344
  0
LINE
  8
_1-2_極細2
  6
CONTINUOUS
 62
    2
 10
346.94503142348907
 20
340.02027097951634
 11
350.24503142345623
 21
343.32027097948344
  0
LINE
  8
_1-2_極細2
  6
CONTINUOUS
 62
    2
 10
346.09650328606494
 20
340.02027097951634
 11
349.3965032860325
 21
343.32027097948344
  0
LINE
  8
_1-2_極細2
  6
CONTINUOUS
 62
    2
 10
345.24797514864122
 20
340.02027097951634
 11
348.54797514860877
 21
343.32027097948344
  0
LINE
  8
_1-2_極細2
  6
CONTINUOUS
 62
    2
 10
344.39944701121749
 20
340.02027097951634
 11
347.69944701118447
 21
343.32027097948344
  0
LINE
  8
_1-2_極細2
  6
CONTINUOUS
 62
    2
 10
343.55091887379376
 20
340.02027097951634
 11
346.85091887376075
 21
343.32027097948344
  0
LINE
  8
_1-2_極細2
  6
CONTINUOUS
 62
    2
 10
342.70239073636975
 20
340.02027097951634
 11
346.00239073633702
 21
343.32027097948344
  0
LINE
  8
_1-2_極細2
  6
CONTINUOUS
 62
    2
 10
341.85386259894602
 20
340.02027097951634
 11
345.15386259891329
 21
343.32027097948344
  0
LINE
  8
_1-2_極細2
  6
CONTINUOUS
 62
    2
 10
341.0053344615223
 20
340.02027097951634
 11
344.30533446148928
 21
343.32027097948344
  0
LINE
  8
_1-2_極細2
  6
CONTINUOUS
 62
    2
 10
340.15680632409857
 20
340.02027097951634
 11
343.45680632406555
 21
343.32027097948344
  0
LINE
  8
_1-2_極細2
  6
CONTINUOUS
 62
    2
 10
339.30827818667467
 20
340.02027097951634
 11
342.60827818664183
 21
343.32027097948344
  0
LINE
  8
_1-2_極細2
  6
CONTINUOUS
 62
    2
 10
338.45975004925094
 20
340.02027097951634
 11
341.7597500492181
 21
343.32027097948344
  0
LINE
  8
_1-2_極細2
  6
CONTINUOUS
 62
    2
 10
337.61122191182722
 20
340.02027097951634
 11
340.91122191179397
 21
343.32027097948344
  0
LINE
  8
_1-2_極細2
  6
CONTINUOUS
 62
    2
 10
336.76269377440349
 20
340.02027097951634
 11
340.06269377437025
 21
343.32027097948344
  0
LINE
  8
_1-2_極細2
  6
CONTINUOUS
 62
    2
 10
335.91416563697925
 20
340.02027097951634
 11
339.21416563694652
 21
343.32027097948344
  0
LINE
  8
_1-2_極細2
  6
CONTINUOUS
 62
    2
 10
335.06563749955552
 20
340.02027097951634
 11
338.36563749952279
 21
343.32027097948344
  0
LINE
  8
_1-2_極細2
  6
CONTINUOUS
 62
    2
 10
334.21710936213179
 20
340.02027097951634
 11
337.51710936209878
 21
343.32027097948344
  0
LINE
  8
_1-2_極細2
  6
CONTINUOUS
 62
    2
 10
333.36858122470807
 20
340.02027097951634
 11
336.66858122467505
 21
343.32027097948344
  0
LINE
  8
_1-2_極細2
  6
CONTINUOUS
 62
    2
 10
332.52005308728394
 20
340.02027097951634
 11
335.82005308725132
 21
343.32027097948344
  0
LINE
  8
_1-2_極細2
  6
CONTINUOUS
 62
    2
 10
331.67152494986021
 20
340.02027097951634
 11
334.9715249498276
 21
343.32027097948344
  0
LINE
  8
_1-2_極細2
  6
CONTINUOUS
 62
    2
 10
330.82299681243649
 20
340.02027097951634
 11
334.1229968124037
 21
343.32027097948344
  0
LINE
  8
_1-2_極細2
  6
CONTINUOUS
 62
    2
 10
329.97446867501276
 20
340.02027097951634
 11
333.27446867497997
 21
343.32027097948344
  0
LINE
  8
_1-2_極細2
  6
CONTINUOUS
 62
    2
 10
329.12594053758875
 20
340.02027097951634
 11
332.42594053755624
 21
343.32027097948344
  0
LINE
  8
_1-2_極細2
  6
CONTINUOUS
 62
    2
 10
328.27741240016502
 20
340.02027097951634
 11
331.57741240013252
 21
343.32027097948344
  0
LINE
  8
_1-2_極細2
  6
CONTINUOUS
 62
    2
 10
327.42888426274129
 20
340.02027097951634
 11
330.72888426270828
 21
343.32027097948344
  0
LINE
  8
_1-2_極細2
  6
CONTINUOUS
 62
    2
 10
326.58035612531756
 20
340.02027097951634
 11
329.88035612528455
 21
343.32027097948344
  0
LINE
  8
_1-2_極細2
  6
CONTINUOUS
 62
    2
 10
325.73182798789344
 20
340.02027097951634
 11
329.03182798786082
 21
343.32027097948344
  0
LINE
  8
_1-2_極細2
  6
CONTINUOUS
 62
    2
 10
324.88329985046971
 20
340.02027097951634
 11
328.18329985043709
 21
343.32027097948344
  0
LINE
  8
_1-2_極細2
  6
CONTINUOUS
 62
    2
 10
324.03477171304598
 20
340.02027097951634
 11
327.33477171301297
 21
343.32027097948344
  0
LINE
  8
_1-2_極細2
  6
CONTINUOUS
 62
    2
 10
323.18624357562226
 20
340.02027097951634
 11
326.48624357558924
 21
343.32027097948344
  0
LINE
  8
_1-2_極細2
  6
CONTINUOUS
 62
    2
 10
322.33771543819842
 20
340.02027097951634
 11
325.63771543816551
 21
343.32027097948344
  0
LINE
  8
_1-2_極細2
  6
CONTINUOUS
 62
    2
 10
321.48918730077469
 20
340.02027097951634
 11
324.78918730074179
 21
343.32027097948344
  0
LINE
  8
_1-2_極細2
  6
CONTINUOUS
 62
    2
 10
320.64065916335096
 20
340.02027097951634
 11
323.94065916331778
 21
343.32027097948344
  0
LINE
  8
_1-2_極細2
  6
CONTINUOUS
 62
    2
 10
319.79213102592723
 20
340.02027097951634
 11
323.09213102589405
 21
343.32027097948344
  0
LINE
  8
_1-2_極細2
  6
CONTINUOUS
 62
    2
 10
318.94360288850294
 20
340.02027097951634
 11
322.24360288847032
 21
343.32027097948344
  0
LINE
  8
_1-2_極細2
  6
CONTINUOUS
 62
    2
 10
318.09507475107921
 20
340.02027097951634
 11
321.39507475104659
 21
343.32027097948344
  0
LINE
  8
_1-2_極細2
  6
CONTINUOUS
 62
    2
 10
317.24654661365548
 20
340.02027097951634
 11
320.54654661362247
 21
343.32027097948344
  0
LINE
  8
_1-2_極細2
  6
CONTINUOUS
 62
    2
 10
316.39801847623175
 20
340.02027097951634
 11
319.69801847619874
 21
343.32027097948344
  0
LINE
  8
_1-2_極細2
  6
CONTINUOUS
 62
    2
 10
315.54949033880774
 20
340.02027097951634
 11
318.84949033877501
 21
343.32027097948344
  0
LINE
  8
_1-2_極細2
  6
CONTINUOUS
 62
    2
 10
314.70096220138402
 20
340.02027097951634
 11
318.00096220135129
 21
343.32027097948344
  0
LINE
  8
_1-2_極細2
  6
CONTINUOUS
 62
    2
 10
313.85243406396029
 20
340.02027097951634
 11
317.15243406392744
 21
343.32027097948344
  0
LINE
  8
_1-2_極細2
  6
CONTINUOUS
 62
    2
 10
313.00390592653656
 20
340.02027097951634
 11
316.30390592650372
 21
343.32027097948344
  0
LINE
  8
_1-2_極細2
  6
CONTINUOUS
 62
    2
 10
312.15537778911244
 20
340.02027097951634
 11
315.45537778907999
 21
343.32027097948344
  0
LINE
  8
_1-2_極細2
  6
CONTINUOUS
 62
    2
 10
311.30684965168871
 20
340.02027097951634
 11
314.60684965165626
 21
343.32027097948344
  0
LINE
  8
_1-2_極細2
  6
CONTINUOUS
 62
    2
 10
310.45832151426498
 20
340.02027097951634
 11
313.75832151423197
 21
343.32027097948344
  0
LINE
  8
_1-2_極細2
  6
CONTINUOUS
 62
    2
 10
309.60979337684125
 20
340.02027097951634
 11
312.90979337680824
 21
343.32027097948344
  0
LINE
  8
_1-2_極細2
  6
CONTINUOUS
 62
    2
 10
308.76126523941724
 20
340.02027097951634
 11
312.06126523938451
 21
343.32027097948344
  0
LINE
  8
_1-2_極細2
  6
CONTINUOUS
 62
    2
 10
307.91273710199351
 20
340.02027097951634
 11
311.21273710196078
 21
343.32027097948344
  0
LINE
  8
_1-2_極細2
  6
CONTINUOUS
 62
    2
 10
307.06420896456979
 20
340.02027097951634
 11
310.36420896453677
 21
343.32027097948344
  0
LINE
  8
_1-2_極細2
  6
CONTINUOUS
 62
    2
 10
306.21568082714606
 20
340.02027097951634
 11
309.51568082711304
 21
343.32027097948344
  0
LINE
  8
_1-2_極細2
  6
CONTINUOUS
 62
    2
 10
305.36715268972216
 20
340.02027097951634
 11
308.66715268968932
 21
343.32027097948344
  0
LINE
  8
_1-2_極細2
  6
CONTINUOUS
 62
    2
 10
304.51862455229843
 20
340.02027097951634
 11
307.81862455226559
 21
343.32027097948344
  0
LINE
  8
_1-2_極細2
  6
CONTINUOUS
 62
    2
 10
303.67009641487471
 20
340.02027097951634
 11
306.97009641484146
 21
343.32027097948344
  0
LINE
  8
_1-2_極細2
  6
CONTINUOUS
 62
    2
 10
302.82156827745098
 20
340.02027097951634
 11
306.12156827741774
 21
343.32027097948344
  0
LINE
  8
_1-2_極細2
  6
CONTINUOUS
 62
    2
 10
301.97304014002674
 20
340.02027097951634
 11
305.27304013999401
 21
343.32027097948344
  0
LINE
  8
_1-2_極細2
  6
CONTINUOUS
 62
    2
 10
301.12451200260301
 20
340.02027097951634
 11
304.42451200257028
 21
343.32027097948344
  0
LINE
  8
_1-2_極細2
  6
CONTINUOUS
 62
    2
 10
300.27598386517928
 20
340.02027097951634
 11
303.57598386514627
 21
343.32027097948344
  0
LINE
  8
_1-2_極細2
  6
CONTINUOUS
 62
    2
 10
299.42745572775556
 20
340.02027097951634
 11
302.72745572772254
 21
343.32027097948344
  0
LINE
  8
_1-2_極細2
  6
CONTINUOUS
 62
    2
 10
298.57892759033143
 20
340.02027097951634
 11
301.87892759029882
 21
343.32027097948344
  0
LINE
  8
_1-2_極細2
  6
CONTINUOUS
 62
    2
 10
297.7303994529077
 20
340.02027097951634
 11
301.03039945287509
 21
343.32027097948344
  0
LINE
  8
_1-2_極細2
  6
CONTINUOUS
 62
    2
 10
296.88187131548398
 20
340.02027097951634
 11
300.18187131545119
 21
343.32027097948344
  0
LINE
  8
_1-2_極細2
  6
CONTINUOUS
 62
    2
 10
296.03334317806025
 20
340.02027097951634
 11
299.33334317802746
 21
343.32027097948344
  0
LINE
  8
_1-2_極細2
  6
CONTINUOUS
 62
    2
 10
295.18481504063624
 20
340.02027097951634
 11
298.48481504060373
 21
343.32027097948344
  0
LINE
  8
_1-2_極細2
  6
CONTINUOUS
 62
    2
 10
294.33628690321251
 20
340.02027097951634
 11
297.63628690318001
 21
343.32027097948344
  0
LINE
  8
_1-2_極細2
  6
CONTINUOUS
 62
    2
 10
293.48775876578878
 20
340.02027097951634
 11
296.78775876575577
 21
343.32027097948344
  0
LINE
  8
_1-2_極細2
  6
CONTINUOUS
 62
    2
 10
292.63923062836506
 20
340.02027097951634
 11
295.93923062833204
 21
343.32027097948344
  0
LINE
  8
_1-2_極細2
  6
CONTINUOUS
 62
    2
 10
291.79070249094093
 20
340.02027097951634
 11
295.09070249090831
 21
343.32027097948344
  0
LINE
  8
_1-2_極細2
  6
CONTINUOUS
 62
    2
 10
290.9421743535172
 20
340.02027097951634
 11
294.24217435348459
 21
343.32027097948344
  0
LINE
  8
_1-2_極細2
  6
CONTINUOUS
 62
    2
 10
290.09364621609348
 20
340.02027097951634
 11
293.39364621606046
 21
343.32027097948344
  0
LINE
  8
_1-2_極細2
  6
CONTINUOUS
 62
    2
 10
289.24511807866975
 20
340.02027097951634
 11
292.54511807863673
 21
343.32027097948344
  0
LINE
  8
_1-2_極細2
  6
CONTINUOUS
 62
    2
 10
288.39658994124591
 20
340.02027097951634
 11
291.69658994121301
 21
343.32027097948344
  0
LINE
  8
_1-2_極細2
  6
CONTINUOUS
 62
    2
 10
287.54806180382218
 20
340.02027097951634
 11
290.84806180378928
 21
343.32027097948344
  0
LINE
  8
_1-2_極細2
  6
CONTINUOUS
 62
    2
 10
286.69953366639845
 20
340.02027097951634
 11
289.99953366636527
 21
343.32027097948344
  0
LINE
  8
_1-2_極細2
  6
CONTINUOUS
 62
    2
 10
285.85100552897472
 20
340.02027097951634
 11
289.15100552894154
 21
343.32027097948344
  0
LINE
  8
_1-2_極細2
  6
CONTINUOUS
 62
    2
 10
285.00247739155043
 20
340.02027097951634
 11
288.30247739151781
 21
343.32027097948344
  0
LINE
  8
_1-2_極細2
  6
CONTINUOUS
 62
    2
 10
284.1539492541267
 20
340.02027097951634
 11
287.45394925409408
 21
343.32027097948344
  0
LINE
  8
_1-2_極細2
  6
CONTINUOUS
 62
    2
 10
283.30542111670297
 20
340.02027097951634
 11
286.60542111666996
 21
343.32027097948344
  0
LINE
  8
_1-2_極細2
  6
CONTINUOUS
 62
    2
 10
282.45689297927925
 20
340.02027097951634
 11
285.75689297924623
 21
343.32027097948344
  0
LINE
  8
_1-2_極細2
  6
CONTINUOUS
 62
    2
 10
281.60836484185523
 20
340.02027097951634
 11
284.9083648418225
 21
343.32027097948344
  0
LINE
  8
_1-2_極細2
  6
CONTINUOUS
 62
    2
 10
281.0788843107224
 20
340.33931858580706
 11
284.05983670439878
 21
343.32027097948344
  0
LINE
  8
_1-2_極細2
  6
CONTINUOUS
 62
    2
 10
281.0788843107224
 20
341.18784672323079
 11
283.21130856697494
 21
343.32027097948344
  0
LINE
  8
_1-2_極細2
  6
CONTINUOUS
 62
    2
 10
281.0788843107224
 20
342.03637486065463
 11
282.36278042955121
 21
343.32027097948344
  0
LINE
  8
_1-2_極細2
  6
CONTINUOUS
 62
    2
 10
281.0788843107224
 20
342.88490299807836
 11
281.51425229212748
 21
343.32027097948344
  0
LINE
  8
_1-2_極細2
  6
CONTINUOUS
 62
    2
 10
377.07888421472256
 20
342.88490299808313
 11
376.64351623332226
 21
343.32027097948344
  0
LINE
  8
_1-2_極細2
  6
CONTINUOUS
 62
    2
 10
377.07888421472256
 20
342.03637486065941
 11
375.79498809589853
 21
343.32027097948344
  0
LINE
  8
_1-2_極細2
  6
CONTINUOUS
 62
    2
 10
377.07888421472256
 20
341.18784672323557
 11
374.9464599584748
 21
343.32027097948344
  0
LINE
  8
_1-2_極細2
  6
CONTINUOUS
 62
    2
 10
377.07888421472256
 20
340.33931858581184
 11
374.09793182105091
 21
343.32027097948344
  0
LINE
  8
_1-2_極細2
  6
CONTINUOUS
 62
    2
 10
376.54940368359433
 20
340.02027097951634
 11
373.24940368362718
 21
343.32027097948344
  0
LINE
  8
_1-2_極細2
  6
CONTINUOUS
 62
    2
 10
375.70087554617061
 20
340.02027097951634
 11
372.40087554620345
 21
343.32027097948344
  0
LINE
  8
_1-2_極細2
  6
CONTINUOUS
 62
    2
 10
374.85234740874688
 20
340.02027097951634
 11
371.55234740877972
 21
343.32027097948344
  0
LINE
  8
_1-2_極細2
  6
CONTINUOUS
 62
    2
 10
374.00381927132275
 20
340.02027097951634
 11
370.703819271356
 21
343.32027097948344
  0
LINE
  8
_1-2_極細2
  6
CONTINUOUS
 62
    2
 10
373.15529113389903
 20
340.02027097951634
 11
369.85529113393227
 21
343.32027097948344
  0
LINE
  8
_1-2_極細2
  6
CONTINUOUS
 62
    2
 10
372.3067629964753
 20
340.02027097951634
 11
369.00676299650854
 21
343.32027097948344
  0
LINE
  8
_1-2_極細2
  6
CONTINUOUS
 62
    2
 10
371.45823485905157
 20
340.02027097951634
 11
368.15823485908481
 21
343.32027097948344
  0
LINE
  8
_1-2_極細2
  6
CONTINUOUS
 62
    2
 10
370.60970672162784
 20
340.02027097951634
 11
367.30970672166058
 21
343.32027097948344
  0
LINE
  8
_1-2_極細2
  6
CONTINUOUS
 62
    2
 10
369.76117858420412
 20
340.02027097951634
 11
366.46117858423685
 21
343.32027097948344
  0
LINE
  8
_1-2_極細2
  6
CONTINUOUS
 62
    2
 10
368.91265044678039
 20
340.02027097951634
 11
365.61265044681312
 21
343.32027097948344
  0
LINE
  8
_1-2_極細2
  6
CONTINUOUS
 62
    2
 10
368.06412230935666
 20
340.02027097951634
 11
364.76412230938939
 21
343.32027097948344
  0
LINE
  8
_1-2_極細2
  6
CONTINUOUS
 62
    2
 10
367.21559417193265
 20
340.02027097951634
 11
363.91559417196567
 21
343.32027097948344
  0
LINE
  8
_1-2_極細2
  6
CONTINUOUS
 62
    2
 10
366.36706603450892
 20
340.02027097951634
 11
363.06706603454194
 21
343.32027097948344
  0
LINE
  8
_1-2_極細2
  6
CONTINUOUS
 62
    2
 10
365.5185378970852
 20
340.02027097951634
 11
362.21853789711821
 21
343.32027097948344
  0
LINE
  8
_1-2_極細2
  6
CONTINUOUS
 62
    2
 10
364.67000975966147
 20
340.02027097951634
 11
361.37000975969448
 21
343.32027097948344
  0
LINE
  8
_1-2_極細2
  6
CONTINUOUS
 62
    2
 10
363.82148162223774
 20
340.02027097951634
 11
360.52148162227036
 21
343.32027097948344
  0
LINE
  8
_1-2_極細2
  6
CONTINUOUS
 62
    2
 10
362.97295348481401
 20
340.02027097951634
 11
359.67295348484663
 21
343.32027097948344
  0
LINE
  8
_1-2_極細2
  6
CONTINUOUS
 62
    2
 10
362.12442534739029
 20
340.02027097951634
 11
358.8244253474229
 21
343.32027097948344
  0
LINE
  8
_1-2_極細2
  6
CONTINUOUS
 62
    2
 10
361.27589720996656
 20
340.02027097951634
 11
357.97589720999918
 21
343.32027097948344
  0
LINE
  8
_1-2_極細2
  6
CONTINUOUS
 62
    2
 10
360.42736907254266
 20
340.02027097951634
 11
357.12736907257545
 21
343.32027097948344
  0
LINE
  8
_1-2_極細2
  6
CONTINUOUS
 62
    2
 10
359.57884093511893
 20
340.02027097951634
 11
356.27884093515172
 21
343.32027097948344
  0
LINE
  8
_1-2_極細2
  6
CONTINUOUS
 62
    2
 10
358.73031279769521
 20
340.02027097951634
 11
355.43031279772799
 21
343.32027097948344
  0
LINE
  8
_1-2_極細2
  6
CONTINUOUS
 62
    2
 10
357.88178466027148
 20
340.02027097951634
 11
354.58178466030427
 21
343.32027097948344
  0
LINE
  8
_1-2_極細2
  6
CONTINUOUS
 62
    2
 10
357.03325652284775
 20
340.02027097951634
 11
353.73325652288025
 21
343.32027097948344
  0
LINE
  8
_1-2_極細2
  6
CONTINUOUS
 62
    2
 10
356.18472838542402
 20
340.02027097951634
 11
352.88472838545653
 21
343.32027097948344
  0
LINE
  8
_1-2_極細2
  6
CONTINUOUS
 62
    2
 10
355.3362002480003
 20
340.02027097951634
 11
352.0362002480328
 21
343.32027097948344
  0
LINE
  8
_1-2_極細2
  6
CONTINUOUS
 62
    2
 10
354.48767211057657
 20
340.02027097951634
 11
351.18767211060907
 21
343.32027097948344
  0
LINE
  8
_1-2_極細2
  6
CONTINUOUS
 62
    2
 10
353.63914397315233
 20
340.02027097951634
 11
350.33914397318534
 21
343.32027097948344
  0
LINE
  8
_1-2_極細2
  6
CONTINUOUS
 62
    2
 10
352.7906158357286
 20
340.02027097951634
 11
349.49061583576162
 21
343.32027097948344
  0
LINE
  8
_1-2_極細2
  6
CONTINUOUS
 62
    2
 10
351.94208769830487
 20
340.02027097951634
 11
348.64208769833789
 21
343.32027097948344
  0
LINE
  8
_1-2_極細2
  6
CONTINUOUS
 62
    2
 10
351.09355956088115
 20
340.02027097951634
 11
347.79355956091416
 21
343.32027097948344
  0
LINE
  8
_1-2_極細2
  6
CONTINUOUS
 62
    2
 10
350.24503142345742
 20
340.02027097951634
 11
346.94503142349004
 21
343.32027097948344
  0
LINE
  8
_1-2_極細2
  6
CONTINUOUS
 62
    2
 10
349.39650328603369
 20
340.02027097951634
 11
346.09650328606631
 21
343.32027097948344
  0
LINE
  8
_1-2_極細2
  6
CONTINUOUS
 62
    2
 10
348.54797514860996
 20
340.02027097951634
 11
345.24797514864258
 21
343.32027097948344
  0
LINE
  8
_1-2_極細2
  6
CONTINUOUS
 62
    2
 10
347.69944701118624
 20
340.02027097951634
 11
344.39944701121885
 21
343.32027097948344
  0
LINE
  8
_1-2_極細2
  6
CONTINUOUS
 62
    2
 10
346.85091887376211
 20
340.02027097951634
 11
343.55091887379513
 21
343.32027097948344
  0
LINE
  8
_1-2_極細2
  6
CONTINUOUS
 62
    2
 10
346.00239073633838
 20
340.02027097951634
 11
342.7023907363714
 21
343.32027097948344
  0
LINE
  8
_1-2_極細2
  6
CONTINUOUS
 62
    2
 10
345.15386259891466
 20
340.02027097951634
 11
341.85386259894767
 21
343.32027097948344
  0
LINE
  8
_1-2_極細2
  6
CONTINUOUS
 62
    2
 10
344.30533446149093
 20
340.02027097951634
 11
341.00533446152394
 21
343.32027097948344
  0
LINE
  8
_1-2_極細2
  6
CONTINUOUS
 62
    2
 10
343.4568063240672
 20
340.02027097951634
 11
340.1568063241001
 21
343.32027097948344
  0
LINE
  8
_1-2_極細2
  6
CONTINUOUS
 62
    2
 10
342.60827818664347
 20
340.02027097951634
 11
339.30827818667638
 21
343.32027097948344
  0
LINE
  8
_1-2_極細2
  6
CONTINUOUS
 62
    2
 10
341.75975004921975
 20
340.02027097951634
 11
338.45975004925265
 21
343.32027097948344
  0
LINE
  8
_1-2_極細2
  6
CONTINUOUS
 62
    2
 10
340.91122191179602
 20
340.02027097951634
 11
337.61122191182892
 21
343.32027097948344
  0
LINE
  8
_1-2_極細2
  6
CONTINUOUS
 62
    2
 10
340.06269377437201
 20
340.02027097951634
 11
336.76269377440519
 21
343.32027097948344
  0
LINE
  8
_1-2_極細2
  6
CONTINUOUS
 62
    2
 10
339.21416563694828
 20
340.02027097951634
 11
335.91416563698147
 21
343.32027097948344
  0
LINE
  8
_1-2_極細2
  6
CONTINUOUS
 62
    2
 10
338.36563749952455
 20
340.02027097951634
 11
335.06563749955774
 21
343.32027097948344
  0
LINE
  8
_1-2_極細2
  6
CONTINUOUS
 62
    2
 10
337.51710936210083
 20
340.02027097951634
 11
334.21710936213401
 21
343.32027097948344
  0
LINE
  8
_1-2_極細2
  6
CONTINUOUS
 62
    2
 10
336.6685812246771
 20
340.02027097951634
 11
333.36858122470971
 21
343.32027097948344
  0
LINE
  8
_1-2_極細2
  6
CONTINUOUS
 62
    2
 10
335.82005308725337
 20
340.02027097951634
 11
332.52005308728599
 21
343.32027097948344
  0
LINE
  8
_1-2_極細2
  6
CONTINUOUS
 62
    2
 10
334.97152494982964
 20
340.02027097951634
 11
331.67152494986226
 21
343.32027097948344
  0
LINE
  8
_1-2_極細2
  6
CONTINUOUS
 62
    2
 10
334.12299681240592
 20
340.02027097951634
 11
330.82299681243853
 21
343.32027097948344
  0
LINE
  8
_1-2_極細2
  6
CONTINUOUS
 62
    2
 10
333.27446867498179
 20
340.02027097951634
 11
329.9744686750148
 21
343.32027097948344
  0
LINE
  8
_1-2_極細2
  6
CONTINUOUS
 62
    2
 10
332.42594053755806
 20
340.02027097951634
 11
329.12594053759108
 21
343.32027097948344
  0
LINE
  8
_1-2_極細2
  6
CONTINUOUS
 62
    2
 10
331.57741240013434
 20
340.02027097951634
 11
328.27741240016735
 21
343.32027097948344
  0
LINE
  8
_1-2_極細2
  6
CONTINUOUS
 62
    2
 10
330.72888426271061
 20
340.02027097951634
 11
327.42888426274362
 21
343.32027097948344
  0
LINE
  8
_1-2_極細2
  6
CONTINUOUS
 62
    2
 10
329.88035612528688
 20
340.02027097951634
 11
326.58035612531961
 21
343.32027097948344
  0
LINE
  8
_1-2_極細2
  6
CONTINUOUS
 62
    2
 10
329.03182798786315
 20
340.02027097951634
 11
325.73182798789588
 21
343.32027097948344
  0
LINE
  8
_1-2_極細2
  6
CONTINUOUS
 62
    2
 10
328.18329985043943
 20
340.02027097951634
 11
324.88329985047216
 21
343.32027097948344
  0
LINE
  8
_1-2_極細2
  6
CONTINUOUS
 62
    2
 10
327.3347717130157
 20
340.02027097951634
 11
324.03477171304843
 21
343.32027097948344
  0
LINE
  8
_1-2_極細2
  6
CONTINUOUS
 62
    2
 10
326.48624357559186
 20
340.02027097951634
 11
323.1862435756247
 21
343.32027097948344
  0
LINE
  8
_1-2_極細2
  6
CONTINUOUS
 62
    2
 10
325.63771543816813
 20
340.02027097951634
 11
322.33771543820097
 21
343.32027097948344
  0
LINE
  8
_1-2_極細2
  6
CONTINUOUS
 62
    2
 10
324.7891873007444
 20
340.02027097951634
 11
321.48918730077725
 21
343.32027097948344
  0
LINE
  8
_1-2_極細2
  6
CONTINUOUS
 62
    2
 10
323.94065916332067
 20
340.02027097951634
 11
320.64065916335352
 21
343.32027097948344
  0
LINE
  8
_1-2_極細2
  6
CONTINUOUS
 62
    2
 10
323.09213102589695
 20
340.02027097951634
 11
319.79213102592939
 21
343.32027097948344
  0
LINE
  8
_1-2_極細2
  6
CONTINUOUS
 62
    2
 10
322.24360288847322
 20
340.02027097951634
 11
318.94360288850567
 21
343.32027097948344
  0
LINE
  8
_1-2_極細2
  6
CONTINUOUS
 62
    2
 10
321.39507475104949
 20
340.02027097951634
 11
318.09507475108194
 21
343.32027097948344
  0
LINE
  8
_1-2_極細2
  6
CONTINUOUS
 62
    2
 10
320.54654661362576
 20
340.02027097951634
 11
317.24654661365821
 21
343.32027097948344
  0
LINE
  8
_1-2_極細2
  6
CONTINUOUS
 62
    2
 10
319.69801847620147
 20
340.02027097951634
 11
316.39801847623448
 21
343.32027097948344
  0
LINE
  8
_1-2_極細2
  6
CONTINUOUS
 62
    2
 10
318.84949033877774
 20
340.02027097951634
 11
315.54949033881076
 21
343.32027097948344
  0
LINE
  8
_1-2_極細2
  6
CONTINUOUS
 62
    2
 10
318.00096220135401
 20
340.02027097951634
 11
314.70096220138703
 21
343.32027097948344
  0
LINE
  8
_1-2_極細2
  6
CONTINUOUS
 62
    2
 10
317.15243406393029
 20
340.02027097951634
 11
313.8524340639633
 21
343.32027097948344
  0
LINE
  8
_1-2_極細2
  6
CONTINUOUS
 62
    2
 10
316.30390592650656
 20
340.02027097951634
 11
313.00390592653929
 21
343.32027097948344
  0
LINE
  8
_1-2_極細2
  6
CONTINUOUS
 62
    2
 10
315.45537778908283
 20
340.02027097951634
 11
312.15537778911556
 21
343.32027097948344
  0
LINE
  8
_1-2_極細2
  6
CONTINUOUS
 62
    2
 10
314.6068496516591
 20
340.02027097951634
 11
311.30684965169183
 21
343.32027097948344
  0
LINE
  8
_1-2_極細2
  6
CONTINUOUS
 62
    2
 10
313.75832151423538
 20
340.02027097951634
 11
310.45832151426811
 21
343.32027097948344
  0
LINE
  8
_1-2_極細2
  6
CONTINUOUS
 62
    2
 10
312.90979337681136
 20
340.02027097951634
 11
309.60979337684438
 21
343.32027097948344
  0
LINE
  8
_1-2_極細2
  6
CONTINUOUS
 62
    2
 10
312.06126523938764
 20
340.02027097951634
 11
308.76126523942065
 21
343.32027097948344
  0
LINE
  8
_1-2_極細2
  6
CONTINUOUS
 62
    2
 10
311.21273710196391
 20
340.02027097951634
 11
307.91273710199692
 21
343.32027097948344
  0
LINE
  8
_1-2_極細2
  6
CONTINUOUS
 62
    2
 10
310.36420896454018
 20
340.02027097951634
 11
307.0642089645732
 21
343.32027097948344
  0
LINE
  8
_1-2_極細2
  6
CONTINUOUS
 62
    2
 10
309.51568082711646
 20
340.02027097951634
 11
306.2156808271493
 21
343.32027097948344
  0
LINE
  8
_1-2_極細2
  6
CONTINUOUS
 62
    2
 10
308.66715268969273
 20
340.02027097951634
 11
305.36715268972557
 21
343.32027097948344
  0
LINE
  8
_1-2_極細2
  6
CONTINUOUS
 62
    2
 10
307.818624552269
 20
340.02027097951634
 11
304.51862455230184
 21
343.32027097948344
  0
LINE
  8
_1-2_極細2
  6
CONTINUOUS
 62
    2
 10
306.97009641484527
 20
340.02027097951634
 11
303.67009641487812
 21
343.32027097948344
  0
LINE
  8
_1-2_極細2
  6
CONTINUOUS
 62
    2
 10
306.12156827742115
 20
340.02027097951634
 11
302.82156827745439
 21
343.32027097948344
  0
LINE
  8
_1-2_極細2
  6
CONTINUOUS
 62
    2
 10
305.27304013999742
 20
340.02027097951634
 11
301.97304014003066
 21
343.32027097948344
  0
LINE
  8
_1-2_極細2
  6
CONTINUOUS
 62
    2
 10
304.42451200257369
 20
340.02027097951634
 11
301.12451200260693
 21
343.32027097948344
  0
LINE
  8
_1-2_極細2
  6
CONTINUOUS
 62
    2
 10
303.57598386514996
 20
340.02027097951634
 11
300.27598386518321
 21
343.32027097948344
  0
LINE
  8
_1-2_極細2
  6
CONTINUOUS
 62
    2
 10
302.72745572772624
 20
340.02027097951634
 11
299.42745572775897
 21
343.32027097948344
  0
LINE
  8
_1-2_極細2
  6
CONTINUOUS
 62
    2
 10
301.87892759030251
 20
340.02027097951634
 11
298.57892759033524
 21
343.32027097948344
  0
LINE
  8
_1-2_極細2
  6
CONTINUOUS
 62
    2
 10
301.03039945287878
 20
340.02027097951634
 11
297.73039945291151
 21
343.32027097948344
  0
LINE
  8
_1-2_極細2
  6
CONTINUOUS
 62
    2
 10
300.18187131545506
 20
340.02027097951634
 11
296.88187131548779
 21
343.32027097948344
  0
LINE
  8
_1-2_極細2
  6
CONTINUOUS
 62
    2
 10
299.33334317803104
 20
340.02027097951634
 11
296.03334317806406
 21
343.32027097948344
  0
LINE
  8
_1-2_極細2
  6
CONTINUOUS
 62
    2
 10
298.48481504060732
 20
340.02027097951634
 11
295.18481504064033
 21
343.32027097948344
  0
LINE
  8
_1-2_極細2
  6
CONTINUOUS
 62
    2
 10
297.63628690318359
 20
340.02027097951634
 11
294.3362869032166
 21
343.32027097948344
  0
LINE
  8
_1-2_極細2
  6
CONTINUOUS
 62
    2
 10
296.78775876575986
 20
340.02027097951634
 11
293.48775876579288
 21
343.32027097948344
  0
LINE
  8
_1-2_極細2
  6
CONTINUOUS
 62
    2
 10
295.93923062833613
 20
340.02027097951634
 11
292.63923062836875
 21
343.32027097948344
  0
LINE
  8
_1-2_極細2
  6
CONTINUOUS
 62
    2
 10
295.09070249091241
 20
340.02027097951634
 11
291.79070249094502
 21
343.32027097948344
  0
LINE
  8
_1-2_極細2
  6
CONTINUOUS
 62
    2
 10
294.24217435348868
 20
340.02027097951634
 11
290.9421743535213
 21
343.32027097948344
  0
LINE
  8
_1-2_極細2
  6
CONTINUOUS
 62
    2
 10
293.39364621606495
 20
340.02027097951634
 11
290.09364621609757
 21
343.32027097948344
  0
LINE
  8
_1-2_極細2
  6
CONTINUOUS
 62
    2
 10
292.54511807864105
 20
340.02027097951634
 11
289.24511807867384
 21
343.32027097948344
  0
LINE
  8
_1-2_極細2
  6
CONTINUOUS
 62
    2
 10
291.69658994121733
 20
340.02027097951634
 11
288.39658994125011
 21
343.32027097948344
  0
LINE
  8
_1-2_極細2
  6
CONTINUOUS
 62
    2
 10
290.8480618037936
 20
340.02027097951634
 11
287.54806180382639
 21
343.32027097948344
  0
LINE
  8
_1-2_極細2
  6
CONTINUOUS
 62
    2
 10
289.99953366636987
 20
340.02027097951634
 11
286.69953366640266
 21
343.32027097948344
  0
LINE
  8
_1-2_極細2
  6
CONTINUOUS
 62
    2
 10
289.15100552894614
 20
340.02027097951634
 11
285.85100552897865
 21
343.32027097948344
  0
LINE
  8
_1-2_極細2
  6
CONTINUOUS
 62
    2
 10
288.30247739152242
 20
340.02027097951634
 11
285.00247739155492
 21
343.32027097948344
  0
LINE
  8
_1-2_極細2
  6
CONTINUOUS
 62
    2
 10
287.45394925409869
 20
340.02027097951634
 11
284.15394925413119
 21
343.32027097948344
  0
LINE
  8
_1-2_極細2
  6
CONTINUOUS
 62
    2
 10
286.60542111667496
 20
340.02027097951634
 11
283.30542111670746
 21
343.32027097948344
  0
LINE
  8
_1-2_極細2
  6
CONTINUOUS
 62
    2
 10
285.75689297925072
 20
340.02027097951634
 11
282.45689297928374
 21
343.32027097948344
  0
LINE
  8
_1-2_極細2
  6
CONTINUOUS
 62
    2
 10
284.90836484182699
 20
340.02027097951634
 11
281.60836484186001
 21
343.32027097948344
  0
LINE
  8
_1-2_極細2
  6
CONTINUOUS
 62
    2
 10
284.05983670440327
 20
340.02027097951634
 11
281.0788843107224
 21
343.00122337319749
  0
LINE
  8
_1-2_極細2
  6
CONTINUOUS
 62
    2
 10
283.21130856697954
 20
340.02027097951634
 11
281.0788843107224
 21
342.15269523577376
  0
LINE
  8
_1-2_極細2
  6
CONTINUOUS
 62
    2
 10
282.36278042955581
 20
340.02027097951634
 11
281.0788843107224
 21
341.30416709834992
  0
LINE
  8
_1-2_極細2
  6
CONTINUOUS
 62
    2
 10
281.51425229213208
 20
340.02027097951634
 11
281.0788843107224
 21
340.45563896092619
  0
LINE
  8
_1-2_極細2
  6
CONTINUOUS
 62
    2
 10
278.79349466606186
 20
269.220270980225
 11
281.0788843107224
 21
271.50566062488542
  0
LINE
  8
_1-2_極細2
  6
CONTINUOUS
 62
    2
 10
274.55085397894254
 20
269.220270980225
 11
281.0788843107224
 21
275.74830131200474
  0
LINE
  8
_1-2_極細2
  6
CONTINUOUS
 62
    2
 10
270.30821329182345
 20
269.220270980225
 11
279.30821329173341
 21
278.22027098013496
  0
LINE
  8
_1-2_極細2
  6
CONTINUOUS
 62
    2
 10
221.06557260515382
 20
224.22027098067494
 11
221.07888437072253
 21
224.23358274624383
  0
LINE
  8
_1-2_極細2
  6
CONTINUOUS
 62
    2
 10
266.0655726047039
 20
269.220270980225
 11
275.06557260461386
 21
278.22027098013496
  0
LINE
  8
_1-2_極細2
  6
CONTINUOUS
 62
    2
 10
216.8229319180345
 20
224.22027098067494
 11
221.07888437072253
 21
228.47622343336315
  0
LINE
  8
_1-2_極細2
  6
CONTINUOUS
 62
    2
 10
261.82293191758458
 20
269.220270980225
 11
270.82293191749454
 21
278.22027098013496
  0
LINE
  8
_1-2_極細2
  6
CONTINUOUS
 62
    2
 10
214.02888437777295
 20
225.66886412753271
 11
221.07888437072253
 21
232.71886412048246
  0
LINE
  8
_1-2_極細2
  6
CONTINUOUS
 62
    2
 10
257.58029123046526
 20
269.220270980225
 11
266.58029123037522
 21
278.22027098013496
  0
LINE
  8
_1-2_極細2
  6
CONTINUOUS
 62
    2
 10
214.02888437777295
 20
229.91150481465203
 11
221.07888437072253
 21
236.96150480760178
  0
LINE
  8
_1-2_極細2
  6
CONTINUOUS
 62
    2
 10
253.33765054334592
 20
269.220270980225
 11
262.3376505432559
 21
278.22027098013496
  0
LINE
  8
_1-2_極細2
  6
CONTINUOUS
 62
    2
 10
214.02888437777295
 20
234.15414550177135
 11
221.07888437072253
 21
241.2041454947211
  0
LINE
  8
_1-2_極細2
  6
CONTINUOUS
 62
    2
 10
249.09500985622685
 20
269.220270980225
 11
258.09500985613681
 21
278.22027098013496
  0
LINE
  8
_1-2_極細2
  6
CONTINUOUS
 62
    2
 10
214.02888437777295
 20
238.39678618889067
 11
221.07888437072253
 21
245.44678618184042
  0
LINE
  8
_1-2_極細2
  6
CONTINUOUS
 62
    2
 10
244.85236916910728
 20
269.220270980225
 11
253.85236916901724
 21
278.22027098013496
  0
LINE
  8
_1-2_極細2
  6
CONTINUOUS
 62
    2
 10
214.02888437777295
 20
242.63942687600999
 11
221.07888437072253
 21
249.6894268689598
  0
LINE
  8
_1-2_極細2
  6
CONTINUOUS
 62
    2
 10
240.60972848198796
 20
269.220270980225
 11
249.60972848189792
 21
278.22027098013496
  0
LINE
  8
_1-2_極細2
  6
CONTINUOUS
 62
    2
 10
214.02888437777295
 20
246.88206756312931
 11
221.07888437072253
 21
253.93206755607912
  0
LINE
  8
_1-2_極細2
  6
CONTINUOUS
 62
    2
 10
236.36708779486864
 20
269.220270980225
 11
245.3670877947786
 21
278.22027098013496
  0
LINE
  8
_1-2_極細2
  6
CONTINUOUS
 62
    2
 10
214.02888437777295
 20
251.12470825024863
 11
221.07888437072253
 21
258.17470824319844
  0
LINE
  8
_1-2_極細2
  6
CONTINUOUS
 62
    2
 10
232.12444710774932
 20
269.220270980225
 11
241.12444710765928
 21
278.22027098013496
  0
LINE
  8
_1-2_極細2
  6
CONTINUOUS
 62
    2
 10
214.02888437777295
 20
255.36734893736795
 11
221.07888437072253
 21
262.41734893031776
  0
LINE
  8
_1-2_極細2
  6
CONTINUOUS
 62
    2
 10
227.88180642063008
 20
269.220270980225
 11
236.88180642054004
 21
278.22027098013496
  0
LINE
  8
_1-2_極細2
  6
CONTINUOUS
 62
    2
 10
214.02888437777295
 20
259.6099896244873
 11
221.07888437072253
 21
266.65998961743708
  0
LINE
  8
_1-2_極細2
  6
CONTINUOUS
 62
    2
 10
223.63916573351068
 20
269.220270980225
 11
232.63916573342064
 21
278.22027098013496
  0
LINE
  8
_1-2_極細2
  6
CONTINUOUS
 62
    2
 10
214.02888437777295
 20
263.85263031160662
 11
228.39652504630141
 21
278.22027098013496
  0
LINE
  8
_1-2_極細2
  6
CONTINUOUS
 62
    2
 10
214.02888437777295
 20
268.09527099872594
 11
224.153884359182
 21
278.22027098013496
  0
LINE
  8
_1-2_極細2
  6
CONTINUOUS
 62
    2
 10
214.02888437777295
 20
272.33791168584526
 11
221.07888437072253
 21
279.38791167879504
  0
LINE
  8
_1-2_極細2
  6
CONTINUOUS
 62
    2
 10
214.02888437777295
 20
276.58055237296458
 11
221.07888437072253
 21
283.63055236591435
  0
LINE
  8
_1-2_極細2
  6
CONTINUOUS
 62
    2
 10
214.02888437777295
 20
280.8231930600839
 11
221.07888437072253
 21
287.87319305303367
  0
LINE
  8
_1-2_極細2
  6
CONTINUOUS
 62
    2
 10
214.02888437777295
 20
285.06583374720321
 11
221.07888437072253
 21
292.11583374015299
  0
LINE
  8
_1-2_極細2
  6
CONTINUOUS
 62
    2
 10
214.02888437777295
 20
289.30847443432253
 11
221.07888437072253
 21
296.35847442727231
  0
LINE
  8
_1-2_極細2
  6
CONTINUOUS
 62
    2
 10
214.02888437777295
 20
293.55111512144185
 11
221.07888437072253
 21
300.60111511439163
  0
LINE
  8
_1-2_極細2
  6
CONTINUOUS
 62
    2
 10
214.02888437777295
 20
297.79375580856117
 11
220.88555779734631
 21
304.65042922813473
  0
LINE
  8
_1-2_極細2
  6
CONTINUOUS
 62
    2
 10
214.02888437777295
 20
302.03639649568049
 11
220.411831102956
 21
308.41934322086365
  0
LINE
  8
_1-2_極細2
  6
CONTINUOUS
 62
    2
 10
214.02888437777295
 20
306.27903718279981
 11
219.93810440856561
 21
312.18825721359258
  0
LINE
  8
_1-2_極細2
  6
CONTINUOUS
 62
    2
 10
214.02888437777295
 20
310.52167786991913
 11
219.46437771417521
 21
315.9571712063215
  0
LINE
  8
_1-2_極細2
  6
CONTINUOUS
 62
    2
 10
214.02888437777295
 20
314.76431855703845
 11
218.99065101978482
 21
319.72608519905043
  0
LINE
  8
_1-2_極細2
  6
CONTINUOUS
 62
    2
 10
214.02888437777295
 20
319.00695924415777
 11
218.51692432539443
 21
323.49499919177936
  0
LINE
  8
_1-2_極細2
  6
CONTINUOUS
 62
    2
 10
214.02888437777295
 20
323.24959993127709
 11
218.04319763100395
 21
327.26391318450828
  0
LINE
  8
_1-2_極細2
  6
CONTINUOUS
 62
    2
 10
214.02888437777295
 20
327.49224061839641
 11
216.35691473899504
 21
329.8202709796185
  0
LINE
  8
_1-2_極細2
  6
CONTINUOUS
 62
    2
 10
211.02888438077292
 20
328.7348813085157
 11
215.75274886610026
 21
333.45874579384304
  0
LINE
  8
_1-2_極細2
  6
CONTINUOUS
 62
    2
 10
211.02888438077292
 20
332.97752199563502
 11
215.27902205474351
 21
337.22765966960583
  0
LINE
  8
_1-2_極細2
  6
CONTINUOUS
 62
    2
 10
211.02888438077292
 20
337.22016268275434
 11
214.80529524338709
 21
340.99657354536851
  0
LINE
  8
_1-2_極細2
  6
CONTINUOUS
 62
    2
 10
210.09735894007142
 20
340.53127792917212
 11
214.33156843203034
 21
344.76548742113118
  0
LINE
  8
_1-2_極細2
  6
CONTINUOUS
 62
    2
 10
207.90787460405664
 20
342.58443428027658
 11
213.48275285711196
 21
348.15931253333201
  0
LINE
  8
_1-2_極細2
  6
CONTINUOUS
 62
    2
 10
204.40107061614407
 20
343.32027097948344
 11
210.40107061319287
 21
349.32027097653236
  0
LINE
  8
_1-2_極細2
  6
CONTINUOUS
 62
    2
 10
200.15842992902475
 20
343.32027097948344
 11
206.15842992654413
 21
349.32027097700291
  0
LINE
  8
_1-2_極細2
  6
CONTINUOUS
 62
    2
 10
195.91578924190543
 20
343.32027097948344
 11
201.91578923989522
 21
349.32027097747323
  0
LINE
  8
_1-2_極細2
  6
CONTINUOUS
 62
    2
 10
191.67314855478611
 20
343.32027097948344
 11
197.67314855324656
 21
349.32027097794378
  0
LINE
  8
_1-2_極細2
  6
CONTINUOUS
 62
    2
 10
187.43050786766679
 20
343.32027097948344
 11
193.43050786659757
 21
349.3202709784141
  0
LINE
  8
_1-2_極細2
  6
CONTINUOUS
 62
    2
 10
184.32888440747223
 20
344.4612882064082
 11
189.18786717994857
 21
349.32027097888476
  0
LINE
  8
_1-2_極細2
  6
CONTINUOUS
 62
    2
 10
184.32888440747223
 20
348.70392889352752
 11
184.94522649329991
 21
349.32027097935509
  0
LINE
  8
_1-2_極細2
  6
CONTINUOUS
 62
    2
 10
281.0788843107224
 20
276.57903721249772
 11
279.43765054308483
 21
278.22027098013496
  0
LINE
  8
_1-2_極細2
  6
CONTINUOUS
 62
    2
 10
214.53846306469057
 20
343.11945845852983
 11
208.3376505464592
 21
349.32027097676121
  0
LINE
  8
_1-2_極細2
  6
CONTINUOUS
 62
    2
 10
281.0788843107224
 20
272.33639652537863
 11
275.19500985596608
 21
278.22027098013496
  0
LINE
  8
_1-2_極細2
  6
CONTINUOUS
 62
    2
 10
215.14839889083868
 20
338.26688194526241
 11
204.09500985886956
 21
349.32027097723164
  0
LINE
  8
_1-2_極細2
  6
CONTINUOUS
 62
    2
 10
279.95236916875655
 20
269.220270980225
 11
270.95236916884659
 21
278.22027098013496
  0
LINE
  8
_1-2_極細2
  6
CONTINUOUS
 62
    2
 10
215.75833471698678
 20
333.4143054319951
 11
210.96253356051895
 21
338.21010658846262
  0
LINE
  8
_1-2_極細2
  6
CONTINUOUS
 62
    2
 10
205.91871999569202
 20
343.25392015328976
 11
199.85236917127983
 21
349.32027097770208
  0
LINE
  8
_1-2_極細2
  6
CONTINUOUS
 62
    2
 10
275.70972848163723
 20
269.220270980225
 11
266.70972848172727
 21
278.22027098013496
  0
LINE
  8
_1-2_極細2
  6
CONTINUOUS
 62
    2
 10
218.09741236868302
 20
326.83258709317965
 11
211.02888438077292
 21
333.90111508108976
  0
LINE
  8
_1-2_極細2
  6
CONTINUOUS
 62
    2
 10
201.60972848237924
 20
343.32027097948344
 11
195.60972848369028
 21
349.32027097817263
  0
LINE
  8
_1-2_極細2
  6
CONTINUOUS
 62
    2
 10
271.46708779451791
 20
269.220270980225
 11
262.46708779460795
 21
278.22027098013496
  0
LINE
  8
_1-2_極細2
  6
CONTINUOUS
 62
    2
 10
218.70734800093302
 20
321.98001077381014
 11
214.02888437777295
 21
326.65847439697029
  0
LINE
  8
_1-2_極細2
  6
CONTINUOUS
 62
    2
 10
212.36708779510985
 20
328.32027097963351
 11
211.02888438077292
 21
329.65847439397044
  0
LINE
  8
_1-2_極細2
  6
CONTINUOUS
 62
    2
 10
197.36708779525992
 20
343.32027097948344
 11
191.36708779610029
 21
349.32027097864307
  0
LINE
  8
_1-2_極細2
  6
CONTINUOUS
 62
    2
 10
267.22444710739859
 20
269.220270980225
 11
258.22444710748863
 21
278.22027098013496
  0
LINE
  8
_1-2_極細2
  6
CONTINUOUS
 62
    2
 10
219.31728363318354
 20
317.1274344544405
 11
214.02888437777295
 21
322.41583370985097
  0
LINE
  8
_1-2_極細2
  6
CONTINUOUS
 62
    2
 10
193.1244471081406
 20
343.32027097948344
 11
187.12444710851057
 21
349.3202709791135
  0
LINE
  8
_1-2_極細2
  6
CONTINUOUS
 62
    2
 10
262.98180642027944
 20
269.220270980225
 11
253.98180642036948
 21
278.22027098013496
  0
LINE
  8
_1-2_極細2
  6
CONTINUOUS
 62
    2
 10
219.92721926543362
 20
312.27485813507099
 11
214.02888437777295
 21
318.17319302273177
  0
LINE
  8
_1-2_極細2
  6
CONTINUOUS
 62
    2
 10
188.88180642102128
 20
343.32027097948344
 11
184.32888440747223
 21
347.87319299303272
  0
LINE
  8
_1-2_極細2
  6
CONTINUOUS
 62
    2
 10
258.73916573316023
 20
269.220270980225
 11
249.73916573325025
 21
278.22027098013496
  0
LINE
  8
_1-2_極細2
  6
CONTINUOUS
 62
    2
 10
220.53715489768405
 20
307.42228181570135
 11
214.02888437777295
 21
313.93055233561245
  0
LINE
  8
_1-2_極細2
  6
CONTINUOUS
 62
    2
 10
184.63916573390196
 20
343.32027097948344
 11
184.32888440747223
 21
343.6305523059134
  0
LINE
  8
_1-2_極細2
  6
CONTINUOUS
 62
    2
 10
254.49652504604089
 20
269.220270980225
 11
245.49652504613093
 21
278.22027098013496
  0
LINE
  8
_1-2_極細2
  6
CONTINUOUS
 62
    2
 10
221.07888437072253
 20
302.63791165554346
 11
214.02888437777295
 21
309.68791164849313
  0
LINE
  8
_1-2_極細2
  6
CONTINUOUS
 62
    2
 10
250.25388435892182
 20
269.220270980225
 11
241.25388435901186
 21
278.22027098013496
  0
LINE
  8
_1-2_極細2
  6
CONTINUOUS
 62
    2
 10
221.07888437072253
 20
298.39527096842426
 11
214.02888437777295
 21
305.44527096137381
  0
LINE
  8
_1-2_極細2
  6
CONTINUOUS
 62
    2
 10
246.01124367180225
 20
269.220270980225
 11
237.01124367189229
 21
278.22027098013496
  0
LINE
  8
_1-2_極細2
  6
CONTINUOUS
 62
    2
 10
221.07888437072253
 20
294.15263028130494
 11
214.02888437777295
 21
301.20263027425449
  0
LINE
  8
_1-2_極細2
  6
CONTINUOUS
 62
    2
 10
241.76860298468293
 20
269.220270980225
 11
232.76860298477305
 21
278.22027098013496
  0
LINE
  8
_1-2_極細2
  6
CONTINUOUS
 62
    2
 10
221.07888437072253
 20
289.90998959418562
 11
214.02888437777295
 21
296.9599895871354
  0
LINE
  8
_1-2_極細2
  6
CONTINUOUS
 62
    2
 10
237.52596229756361
 20
269.220270980225
 11
228.52596229765365
 21
278.22027098013496
  0
LINE
  8
_1-2_極細2
  6
CONTINUOUS
 62
    2
 10
221.07888437072253
 20
285.6673489070663
 11
214.02888437777295
 21
292.71734890001608
  0
LINE
  8
_1-2_極細2
  6
CONTINUOUS
 62
    2
 10
233.28332161044472
 20
269.220270980225
 11
224.28332161053476
 21
278.22027098013496
  0
LINE
  8
_1-2_極細2
  6
CONTINUOUS
 62
    2
 10
221.07888437072253
 20
281.42470821994698
 11
214.02888437777295
 21
288.47470821289676
  0
LINE
  8
_1-2_極細2
  6
CONTINUOUS
 62
    2
 10
229.0406809233254
 20
269.220270980225
 11
214.02888437777295
 21
284.23206752577744
  0
LINE
  8
_1-2_極細2
  6
CONTINUOUS
 62
    2
 10
224.79804023620608
 20
269.220270980225
 11
214.02888437777295
 21
279.98942683865812
  0
LINE
  8
_1-2_極細2
  6
CONTINUOUS
 62
    2
 10
221.07888437072253
 20
268.69678615858902
 11
214.02888437777295
 21
275.74678615153903
  0
LINE
  8
_1-2_極細2
  6
CONTINUOUS
 62
    2
 10
221.07888437072253
 20
264.4541454714697
 11
214.02888437777295
 21
271.50414546441948
  0
LINE
  8
_1-2_極細2
  6
CONTINUOUS
 62
    2
 10
221.07888437072253
 20
260.21150478435061
 11
214.02888437777295
 21
267.26150477730039
  0
LINE
  8
_1-2_極細2
  6
CONTINUOUS
 62
    2
 10
221.07888437072253
 20
255.96886409723126
 11
214.02888437777295
 21
263.01886409018107
  0
LINE
  8
_1-2_極細2
  6
CONTINUOUS
 62
    2
 10
221.07888437072253
 20
251.72622341011194
 11
214.02888437777295
 21
258.77622340306175
  0
LINE
  8
_1-2_極細2
  6
CONTINUOUS
 62
    2
 10
221.07888437072253
 20
247.48358272299262
 11
214.02888437777295
 21
254.53358271594243
  0
LINE
  8
_1-2_極細2
  6
CONTINUOUS
 62
    2
 10
221.07888437072253
 20
243.2409420358733
 11
214.02888437777295
 21
250.29094202882311
  0
LINE
  8
_1-2_極細2
  6
CONTINUOUS
 62
    2
 10
221.07888437072253
 20
238.99830134875424
 11
214.02888437777295
 21
246.04830134170379
  0
LINE
  8
_1-2_極細2
  6
CONTINUOUS
 62
    2
 10
221.07888437072253
 20
234.75566066163466
 11
214.02888437777295
 21
241.80566065458441
  0
LINE
  8
_1-2_極細2
  6
CONTINUOUS
 62
    2
 10
221.07888437072253
 20
230.5130199745156
 11
214.02888437777295
 21
237.5630199674651
  0
LINE
  8
_1-2_極細2
  6
CONTINUOUS
 62
    2
 10
221.07888437072253
 20
226.27037928739628
 11
214.02888437777295
 21
233.32037928034578
  0
LINE
  8
_1-2_極細2
  6
CONTINUOUS
 62
    2
 10
218.88635199032439
 20
224.22027098067494
 11
214.02888437777295
 21
229.07773859322671
  0
LINE
  8
_1-2_極細2
  6
CONTINUOUS
 62
    2
 10
214.64371130320541
 20
224.22027098067494
 11
214.02888437777295
 21
224.83509790610739
  0
LINE
  8
_1-2_極細2
  6
CONTINUOUS
 62
    2
 10
216.18452692219779
 20
330.02357109930722
 11
217.52752220293604
 21
331.36656638004558
  0
LINE
  8
_1-2_極細2
  6
CONTINUOUS
 62
    2
 10
215.71079990276002
 20
333.79248476698876
 11
217.05379550854599
 21
335.13548037277462
  0
LINE
  8
_1-2_極細2
  6
CONTINUOUS
 62
    2
 10
215.23707288332224
 20
337.56139843467031
 11
216.58006881415551
 21
338.90439436550355
  0
LINE
  8
_1-2_極細2
  6
CONTINUOUS
 62
    2
 10
214.76334586388447
 20
341.33031210235185
 11
216.1063421197652
 21
342.67330835823259
  0
LINE
  8
_1-2_極細2
  6
CONTINUOUS
 62
    2
 10
214.28961884444669
 20
345.09922577003329
 11
215.63261542537472
 21
346.44222235096152
  0
LINE
  8
_1-2_極細2
  6
CONTINUOUS
 62
    2
 10
213.31017514006788
 20
348.3624227527738
 11
214.37131051315595
 21
349.42355812586186
  0
LINE
  8
_1-2_極細2
  6
CONTINUOUS
 62
    2
 10
210.02538267959807
 20
349.32027097942341
 11
211.50797442058567
 21
350.8028627204111
  0
LINE
  8
_1-2_極細2
  6
CONTINUOUS
 62
    2
 10
205.78274199247875
 20
349.32027097942341
 11
207.28274198864591
 21
350.82027097559057
  0
LINE
  8
_1-2_極細2
  6
CONTINUOUS
 62
    2
 10
201.54010130535943
 20
349.32027097942341
 11
203.04010130223216
 21
350.82027097629623
  0
LINE
  8
_1-2_極細2
  6
CONTINUOUS
 62
    2
 10
197.29746061824011
 20
349.32027097942341
 11
198.79746061581858
 21
350.82027097700188
  0
LINE
  8
_1-2_極細2
  6
CONTINUOUS
 62
    2
 10
193.05481993112079
 20
349.32027097942341
 11
194.55481992940483
 21
350.82027097770754
  0
LINE
  8
_1-2_極細2
  6
CONTINUOUS
 62
    2
 10
188.81217924400147
 20
349.32027097942341
 11
190.31217924299125
 21
350.82027097841319
  0
LINE
  8
_1-2_極細2
  6
CONTINUOUS
 62
    2
 10
184.56953855688215
 20
349.32027097942341
 11
186.0695385565775
 21
350.82027097911896
  0
LINE
  8
_1-5_寸法2
  6
CONTINUOUS
 62
    7
 10
234.29051868979758
 20
290.64880906157941
 11
228.2905187404975
 21
280.25650418689457
  0
LINE
  8
_1-5_寸法2
  6
CONTINUOUS
 62
    7
 10
234.29051868979758
 20
290.64880906157941
 11
223.89821387365598
 21
284.64880901087952
  0
LINE
  8
_1-5_寸法2
  6
CONTINUOUS
 62
    7
 10
234.29051868979758
 20
290.64880906157941
 11
197.03300043808332
 21
253.39129044633614
  0
LINE
  8
_1-5_寸法2
  6
CONTINUOUS
 62
    7
 10
197.03300043808332
 20
253.39129044633614
 11
110.63300043808346
 21
253.39129044633614
  0
TEXT
  8
_1-5_寸法2
 62
    7
 10
110.63300043808329
 20
253.39129044633614
 40
18
 41
0.7999999999999998
 50
0
  1
ストレーナー
  0
LINE
  8
_1-5_寸法2
  6
CONTINUOUS
 62
    7
 10
338.29206592900755
 20
243.65722217440225
 11
347.21515711801976
 21
235.63360431008616
  0
LINE
  8
_1-5_寸法2
  6
CONTINUOUS
 62
    7
 10
338.29206592900755
 20
243.65722217440225
 11
342.00788064681922
 21
232.24701967913973
  0
LINE
  8
_1-5_寸法2
  6
CONTINUOUS
 62
    7
 10
338.29206592900755
 20
243.65722217440225
 11
389.95438106241039
 21
164.22027098067494
  0
LINE
  8
_1-5_寸法2
  6
CONTINUOUS
 62
    7
 10
389.95438106241039
 20
164.22027098067494
 11
433.15438106241049
 21
164.22027098067494
  0
TEXT
  8
_1-5_寸法2
 62
    7
 10
389.95438106241039
 20
164.22027098067494
 40
18
 41
0.7999999999999998
 50
0
  1
排水口
  0
LINE
  8
_1-5_寸法2
  6
CONTINUOUS
 62
    7
 10
371.24439162286785
 20
330.93891640131983
 11
382.46850190815979
 21
326.69399610717977
  0
LINE
  8
_1-5_寸法2
  6
CONTINUOUS
 62
    7
 10
371.24439162286785
 20
330.93891640131983
 11
378.8422961177389
 21
321.65065244690834
  0
LINE
  8
_1-5_寸法2
  6
CONTINUOUS
 62
    7
 10
371.24439162286785
 20
330.93891640131983
 11
423.66485359807734
 21
293.24817082543359
  0
LINE
  8
_1-5_寸法2
  6
CONTINUOUS
 62
    7
 10
423.66485359807734
 20
293.24817082543359
 11
510.06485359807732
 21
293.24817082543359
  0
TEXT
  8
_1-5_寸法2
 62
    7
 10
423.66485359807734
 20
293.24817082543359
 40
18
 41
0.7999999999999998
 50
0
  1
ロックナット
  0
LINE
  8
_1-5_寸法2
  6
CONTINUOUS
 62
    7
 10
370.23249900969216
 20
342.0945351301242
 11
372.94385407292316
 21
353.78421235924782
  0
LINE
  8
_1-5_寸法2
  6
CONTINUOUS
 62
    7
 10
370.23249900969216
 20
342.0945351301242
 11
378.42543998769168
 21
350.86241504097023
  0
LINE
  8
_1-5_寸法2
  6
CONTINUOUS
 62
    7
 10
370.23249900969216
 20
342.0945351301242
 11
411.12888424067154
 21
418.82027097932848
  0
LINE
  8
_1-5_寸法2
  6
CONTINUOUS
 62
    7
 10
411.12888424067154
 20
418.82027097932848
 11
468.72888424067162
 21
418.82027097932848
  0
TEXT
  8
_1-5_寸法2
 62
    7
 10
411.12888424067154
 20
418.82027097932848
 40
18
 41
0.7999999999999998
 50
0
  1
パッキン
  0
LINE
  8
_1-5_寸法2
  6
CONTINUOUS
 62
    7
 10
211.02888438077292
 20
215.21108298064519
 11
211.02888438077241
 21
158.22027098067494
  0
LINE
  8
_1-5_寸法2
  6
CONTINUOUS
 62
    7
 10
211.0288843807725
 20
164.22027098067494
 11
222.61999429624137
 21
167.32609952190518
  0
LINE
  8
_1-5_寸法2
  6
CONTINUOUS
 62
    7
 10
211.0288843807725
 20
164.22027098067494
 11
222.61999429624137
 21
161.1144424394447
  0
LINE
  8
_1-5_寸法2
  6
CONTINUOUS
 62
    7
 10
351.12888424067154
 20
215.21108298064519
 11
351.12888424067137
 21
158.22027098067494
  0
LINE
  8
_1-5_寸法2
  6
CONTINUOUS
 62
    7
 10
351.12888424067137
 20
164.22027098067494
 11
339.53777432520246
 21
161.1144424394447
  0
LINE
  8
_1-5_寸法2
  6
CONTINUOUS
 62
    7
 10
351.12888424067137
 20
164.22027098067494
 11
339.53777432520258
 21
167.32609952190526
  0
LINE
  8
_1-5_寸法2
  6
CONTINUOUS
 62
    7
 10
211.0288843807725
 20
164.22027098067494
 11
351.12888424067137
 21
164.22027098067494
  0
TEXT
  8
_1-5_寸法2
 62
    7
 10
263.07888431072183
 20
164.22027098067494
 40
18
 41
1
 50
0
  1
46.7
  0
LINE
  8
_1-2_極細2
  6
CENTER1
 62
    2
 10
281.0788843107224
 20
373.82845097917811
 11
281.0788843107224
 21
209.84651898081822
  0
LINE
  8
_1-5_寸法2
  6
CONTINUOUS
 62
    7
 10
360.12888424367151
 20
224.22027098067485
 11
417.12888424067154
 21
224.22027098067468
  0
LINE
  8
_1-5_寸法2
  6
CONTINUOUS
 62
    7
 10
411.12888424067154
 20
224.22027098067468
 11
408.02305569944139
 21
235.81138089614356
  0
LINE
  8
_1-5_寸法2
  6
CONTINUOUS
 62
    7
 10
411.12888424067154
 20
224.22027098067468
 11
414.23471278190186
 21
235.81138089614356
  0
LINE
  8
_1-5_寸法2
  6
CONTINUOUS
 62
    7
 10
371.07888423272254
 20
292.62027097999061
 11
417.12888424067154
 21
292.62027097999044
  0
LINE
  8
_1-5_寸法2
  6
CONTINUOUS
 62
    7
 10
411.12888424067154
 20
292.62027097999044
 11
414.23471278190186
 21
281.02916106452165
  0
LINE
  8
_1-5_寸法2
  6
CONTINUOUS
 62
    7
 10
411.12888424067154
 20
292.62027097999044
 11
408.02305569944139
 21
281.02916106452159
  0
LINE
  8
_1-5_寸法2
  6
CONTINUOUS
 62
    7
 10
411.12888424067154
 20
224.22027098067468
 11
411.12888424067154
 21
292.62027097999044
  0
TEXT
  8
_1-5_寸法2
 62
    7
 10
411.12888424067154
 20
249.42027098033259
 40
18
 41
1
 50
90
  1
23
  0
LINE
  8
_1-5_寸法2
  6
CONTINUOUS
 62
    7
 10
207.5788843107224
 20
369.12027097951716
 11
207.57888431072257
 21
407.22027140192671
  0
LINE
  8
_1-5_寸法2
  6
CONTINUOUS
 62
    7
 10
207.57888431072249
 20
401.22027140192671
 11
219.16999422619136
 21
404.32609994315703
  0
LINE
  8
_1-5_寸法2
  6
CONTINUOUS
 62
    7
 10
207.57888431072249
 20
401.22027140192671
 11
219.16999422619136
 21
398.1144428606965
  0
LINE
  8
_1-5_寸法2
  6
CONTINUOUS
 62
    7
 10
354.5788843107224
 20
369.12027097951716
 11
354.57888431072251
 21
407.22027140192671
  0
LINE
  8
_1-5_寸法2
  6
CONTINUOUS
 62
    7
 10
354.57888431072251
 20
401.22027140192671
 11
342.98777439525361
 21
398.11444286069656
  0
LINE
  8
_1-5_寸法2
  6
CONTINUOUS
 62
    7
 10
354.57888431072251
 20
401.22027140192671
 11
342.98777439525372
 21
404.32609994315703
  0
LINE
  8
_1-5_寸法2
  6
CONTINUOUS
 62
    7
 10
207.57888431072249
 20
401.22027140192671
 11
354.57888431072251
 21
401.22027140192671
  0
TEXT
  8
_1-5_寸法2
 62
    7
 10
238.32888431072249
 20
401.22027140192671
 40
18
 41
1
 50
0
  1
φ49___±0.5
  0
LINE
  8
_1-5_寸法2
  6
CONTINUOUS
 62
    7
 10
183.5788843107224
 20
369.12027097951704
 11
183.57888431072249
 21
449.22027140192671
  0
LINE
  8
_1-5_寸法2
  6
CONTINUOUS
 62
    7
 10
183.57888431072249
 20
443.22027140192671
 11
195.16999422619136
 21
446.32609994315703
  0
LINE
  8
_1-5_寸法2
  6
CONTINUOUS
 62
    7
 10
183.57888431072249
 20
443.22027140192671
 11
195.16999422619136
 21
440.1144428606965
  0
LINE
  8
_1-5_寸法2
  6
CONTINUOUS
 62
    7
 10
378.5788843107224
 20
369.12027097951704
 11
378.57888431072251
 21
449.22027140192671
  0
LINE
  8
_1-5_寸法2
  6
CONTINUOUS
 62
    7
 10
378.57888431072251
 20
443.22027140192671
 11
366.98777439525361
 21
440.11444286069656
  0
LINE
  8
_1-5_寸法2
  6
CONTINUOUS
 62
    7
 10
378.57888431072251
 20
443.22027140192671
 11
366.98777439525372
 21
446.32609994315703
  0
LINE
  8
_1-5_寸法2
  6
CONTINUOUS
 62
    7
 10
183.57888431072249
 20
443.22027140192671
 11
378.57888431072251
 21
443.22027140192671
  0
TEXT
  8
_1-5_寸法2
 62
    7
 10
238.32888431072249
 20
443.22027140192671
 40
18
 41
1
 50
0
  1
φ65___±0.3
  0
TEXT
  8
_0-7_枠細線
 62
    5
 10
222.88354316546361
 20
474.72508380526858
 40
24
 41
0.8
 50
0
  1
排水部詳細図
  0
TEXT
  8
_0-7_枠細線
 62
    5
 10
354.6099967125852
 20
474.72508380526858
 40
24
 41
0.6000000000000002
 50
0
  1
Ｓ＝１：２
  0
LINE
  8
_1-5_寸法2
  6
CONTINUOUS
 62
    7
 10
843
 20
321.72027097951707
 11
843
 21
371.22027140192677
  0
LINE
  8
_1-5_寸法2
  6
CONTINUOUS
 62
    7
 10
843
 20
359.22027140192677
 11
831.40889008453121
 21
356.11444286069656
  0
LINE
  8
_1-5_寸法2
  6
CONTINUOUS
 62
    7
 10
843
 20
359.22027140192677
 11
831.40889008453121
 21
362.32609994315703
  0
LINE
  8
_1-5_寸法2
  6
CONTINUOUS
 62
    7
 10
859.5
 20
321.72027097951707
 11
859.5
 21
371.22027140192677
  0
LINE
  8
_1-5_寸法2
  6
CONTINUOUS
 62
    7
 10
814.63542350392618
 20
359.22027140192677
 11
859.5
 21
359.22027140192677
  0
TEXT
  8
_1-5_寸法2
 62
    7
 10
814.63542350392618
 20
359.22027140192677
 40
18
 41
1
 50
0
  1
5.5
  0
LINE
  8
_1-5_寸法2
  6
CONTINUOUS
 62
    7
 10
859.5
 20
359.22027140192677
 11
871.09110991546879
 21
362.32609994315692
  0
LINE
  8
_1-5_寸法2
  6
CONTINUOUS
 62
    7
 10
859.5
 20
359.22027140192677
 11
871.09110991546879
 21
356.11444286069644
  0
LINE
  8
_1-5_寸法2
  6
CONTINUOUS
 62
    7
 10
889.5
 20
321.72027097951707
 11
889.5
 21
371.22027140192677
  0
LINE
  8
_1-5_寸法2
  6
CONTINUOUS
 62
    7
 10
889.5
 20
359.22027140192677
 11
877.90889008453121
 21
356.11444286069656
  0
LINE
  8
_1-5_寸法2
  6
CONTINUOUS
 62
    7
 10
889.5
 20
359.22027140192677
 11
877.90889008453121
 21
362.32609994315703
  0
LINE
  8
_1-5_寸法2
  6
CONTINUOUS
 62
    7
 10
859.5
 20
359.22027140192677
 11
889.5
 21
359.22027140192677
  0
TEXT
  8
_1-5_寸法2
 62
    7
 10
865.5
 20
359.22027140192677
 40
18
 41
1
 50
0
  1
10
  0
LINE
  8
_1-5_寸法2
  6
CONTINUOUS
 62
    7
 10
813.00000000000239
 20
319.62027140192663
 11
813.00000000000273
 21
407.22027140192671
  0
LINE
  8
_1-5_寸法2
  6
CONTINUOUS
 62
    7
 10
813.00000000000273
 20
401.22027140192671
 11
824.59110991547152
 21
404.32609994315703
  0
LINE
  8
_1-5_寸法2
  6
CONTINUOUS
 62
    7
 10
813.00000000000273
 20
401.22027140192671
 11
824.59110991547152
 21
398.1144428606965
  0
LINE
  8
_1-5_寸法2
  6
CONTINUOUS
 62
    7
 10
1029.0000003061477
 20
319.62027140192663
 11
1029.0000003061482
 21
407.22027140192671
  0
LINE
  8
_1-5_寸法2
  6
CONTINUOUS
 62
    7
 10
1029.0000003061482
 20
401.22027140192671
 11
1017.4088903906794
 21
398.11444286069656
  0
LINE
  8
_1-5_寸法2
  6
CONTINUOUS
 62
    7
 10
1029.0000003061482
 20
401.22027140192671
 11
1017.4088903906794
 21
404.32609994315703
  0
LINE
  8
_1-5_寸法2
  6
CONTINUOUS
 62
    7
 10
813.00000000000273
 20
401.22027140192671
 11
1029.0000003061482
 21
401.22027140192671
  0
TEXT
  8
_1-5_寸法2
 62
    7
 10
912.00000015307546
 20
401.22027140192671
 40
18
 41
1
 50
0
  1
72
  0
LINE
  8
_1-2_極細2
  6
CONTINUOUS
 62
    2
 10
1032.0000003061477
 20
257.22027097951718
 11
1032.0000003061477
 21
315.12027097951716
  0
LINE
  8
_1-2_極細2
  6
CONTINUOUS
 62
    2
 10
1034.1000003061458
 20
255.12027097951682
 11
1034.1000003061458
 21
313.02027097951668
  0
LINE
  8
_1-2_極細2
  6
CONTINUOUS
 62
    2
 10
1059.9000003061474
 20
291.12027097951682
 11
1059.9000003061474
 21
313.02027097951668
  0
LINE
  8
_1-2_極細2
  6
CONTINUOUS
 62
    2
 10
1062.0000003061473
 20
291.12027097951682
 11
1062.0000003061482
 21
315.12027097951716
  0
LINE
  8
_1-2_極細2
  6
CONTINUOUS
 62
    2
 10
1059.9000003061474
 20
291.12027097951682
 11
1062.0000003061473
 21
291.12027097951682
  0
LINE
  8
_1-2_極細2
  6
CONTINUOUS
 62
    2
 10
1032.0000003061477
 20
315.12027097951716
 11
1062.0000003061482
 21
315.12027097951716
  0
LINE
  8
_1-2_極細2
  6
CONTINUOUS
 62
    2
 10
1034.1000003061458
 20
313.02027097951668
 11
1059.9000003061474
 21
313.02027097951668
  0
LINE
  8
_1-5_寸法2
  6
CONTINUOUS
 62
    7
 10
1032.0000003061477
 20
327.12027097951716
 11
1032.0000003061477
 21
413.22027140192671
  0
LINE
  8
_1-5_寸法2
  6
CONTINUOUS
 62
    7
 10
1032.0000003061477
 20
401.22027140192671
 11
1043.5911102216169
 21
404.32609994315703
  0
LINE
  8
_1-5_寸法2
  6
CONTINUOUS
 62
    7
 10
1032.0000003061477
 20
401.22027140192671
 11
1043.5911102216169
 21
398.1144428606965
  0
LINE
  8
_1-5_寸法2
  6
CONTINUOUS
 62
    7
 10
1062.0000003061482
 20
327.12027097951716
 11
1062.0000003061482
 21
413.22027140192671
  0
LINE
  8
_1-5_寸法2
  6
CONTINUOUS
 62
    7
 10
1062.0000003061482
 20
401.22027140192671
 11
1050.4088903906793
 21
398.11444286069656
  0
LINE
  8
_1-5_寸法2
  6
CONTINUOUS
 62
    7
 10
1062.0000003061482
 20
401.22027140192671
 11
1050.4088903906793
 21
404.32609994315703
  0
LINE
  8
_1-5_寸法2
  6
CONTINUOUS
 62
    7
 10
1032.0000003061477
 20
401.22027140192671
 11
1062.0000003061482
 21
401.22027140192671
  0
TEXT
  8
_1-5_寸法2
 62
    7
 10
1038.0000003061477
 20
401.22027140192671
 40
18
 41
1
 50
0
  1
10
  0
LINE
  8
_1-2_極細2
  6
CONTINUOUS
 62
    2
 10
807.90000000000146
 20
255.12027097951682
 11
807.90000000000146
 21
313.02027097951668
  0
LINE
  8
_1-2_極細2
  6
CONTINUOUS
 62
    2
 10
810.00000000000023
 20
257.22027097951718
 11
810.00000000000023
 21
315.12027097951716
  0
LINE
  8
_1-2_極細2
  6
CONTINUOUS
 62
    2
 10
780.00000000000023
 20
291.12027097951727
 11
780.00000000000023
 21
315.12027097951716
  0
LINE
  8
_1-2_極細2
  6
CONTINUOUS
 62
    2
 10
782.10000000000036
 20
291.12027097951682
 11
782.099999999999
 21
313.02027097951714
  0
LINE
  8
_1-2_極細2
  6
CONTINUOUS
 62
    2
 10
780.00000000000023
 20
291.12027097951727
 11
782.10000000000036
 21
291.12027097951727
  0
LINE
  8
_1-2_極細2
  6
CONTINUOUS
 62
    2
 10
782.10000000000036
 20
313.02027097951668
 11
807.90000000000146
 21
313.02027097951668
  0
LINE
  8
_1-2_極細2
  6
CONTINUOUS
 62
    2
 10
780.00000000000023
 20
315.12027097951716
 11
810.00000000000023
 21
315.12027097951716
  0
LINE
  8
_1-5_寸法2
  6
CONTINUOUS
 62
    7
 10
795.90000000000146
 20
255.12027097951682
 11
708.00000000000023
 21
255.12027097951707
  0
LINE
  8
_1-5_寸法2
  6
CONTINUOUS
 62
    7
 10
720.00000000000023
 20
255.12027097951704
 11
716.89417145876996
 21
266.71138089498584
  0
LINE
  8
_1-5_寸法2
  6
CONTINUOUS
 62
    7
 10
720.00000000000023
 20
255.12027097951704
 11
723.10582854123049
 21
266.71138089498584
  0
LINE
  8
_1-5_寸法2
  6
CONTINUOUS
 62
    7
 10
768.00000000000023
 20
291.12027097951733
 11
708.00000000000023
 21
291.12027097951756
  0
LINE
  8
_1-5_寸法2
  6
CONTINUOUS
 62
    7
 10
720.00000000000023
 20
291.1202709795175
 11
723.10582854123027
 21
279.52916106404859
  0
LINE
  8
_1-5_寸法2
  6
CONTINUOUS
 62
    7
 10
720.00000000000023
 20
291.1202709795175
 11
716.89417145876996
 21
279.52916106404871
  0
LINE
  8
_1-5_寸法2
  6
CONTINUOUS
 62
    7
 10
720.00000000000023
 20
255.12027097951704
 11
720.00000000000023
 21
291.1202709795175
  0
TEXT
  8
_1-5_寸法2
 62
    7
 10
720.00000000000023
 20
264.1202709795175
 40
18
 41
1
 50
90
  1
12
  0
LINE
  8
_1-5_寸法2
  6
CONTINUOUS
 62
    7
 10
720.00000000000023
 20
291.1202709795175
 11
716.89417145876996
 21
302.71138089498635
  0
LINE
  8
_1-5_寸法2
  6
CONTINUOUS
 62
    7
 10
720.00000000000023
 20
291.1202709795175
 11
723.10582854123049
 21
302.71138089498629
  0
LINE
  8
_1-5_寸法2
  6
CONTINUOUS
 62
    7
 10
768.00000000000023
 20
315.12027097951716
 11
708.00000000000023
 21
315.12027097951727
  0
LINE
  8
_1-5_寸法2
  6
CONTINUOUS
 62
    7
 10
720.00000000000023
 20
315.12027097951727
 11
723.10582854123027
 21
303.52916106404842
  0
LINE
  8
_1-5_寸法2
  6
CONTINUOUS
 62
    7
 10
720.00000000000023
 20
315.12027097951727
 11
716.89417145876996
 21
303.52916106404848
  0
LINE
  8
_1-5_寸法2
  6
CONTINUOUS
 62
    7
 10
720.00000000000023
 20
291.1202709795175
 11
720.00000000000023
 21
315.12027097951727
  0
TEXT
  8
_1-5_寸法2
 62
    7
 10
720.00000000000023
 20
298.6202709795175
 40
18
 41
1
 50
90
  1
8
  0
LINE
  8
_1-5_寸法2
  6
CONTINUOUS
 62
    7
 10
780.00000000000023
 20
327.12027097951716
 11
780.00000000000023
 21
413.22027140192671
  0
LINE
  8
_1-5_寸法2
  6
CONTINUOUS
 62
    7
 10
780.00000000000023
 20
401.22027140192671
 11
791.59110991546891
 21
404.32609994315703
  0
LINE
  8
_1-5_寸法2
  6
CONTINUOUS
 62
    7
 10
780.00000000000023
 20
401.22027140192671
 11
791.59110991546891
 21
398.1144428606965
  0
LINE
  8
_1-5_寸法2
  6
CONTINUOUS
 62
    7
 10
810.00000000000023
 20
327.12027097951716
 11
810.00000000000023
 21
413.22027140192671
  0
LINE
  8
_1-5_寸法2
  6
CONTINUOUS
 62
    7
 10
810.00000000000023
 20
401.22027140192671
 11
798.40889008453132
 21
398.11444286069656
  0
LINE
  8
_1-5_寸法2
  6
CONTINUOUS
 62
    7
 10
810.00000000000023
 20
401.22027140192671
 11
798.40889008453132
 21
404.32609994315703
  0
LINE
  8
_1-5_寸法2
  6
CONTINUOUS
 62
    7
 10
780.00000000000023
 20
401.22027140192671
 11
810.00000000000023
 21
401.22027140192671
  0
TEXT
  8
_1-5_寸法2
 62
    7
 10
786.00000000000023
 20
401.22027140192671
 40
18
 41
1
 50
0
  1
10
  0
LINE
  8
_1-2_極細2
  6
CONTINUOUS
 62
    2
 10
810.00000000000023
 20
257.22027097951718
 11
1032.0000003061477
 21
257.22027097951718
  0
LINE
  8
_1-5_寸法2
  6
CONTINUOUS
 62
    7
 10
780.00000000000023
 20
327.12027097951716
 11
780.00000000000068
 21
455.22027140192671
  0
LINE
  8
_1-5_寸法2
  6
CONTINUOUS
 62
    7
 10
780.00000000000068
 20
443.22027140192671
 11
791.59110991546947
 21
446.32609994315703
  0
LINE
  8
_1-5_寸法2
  6
CONTINUOUS
 62
    7
 10
780.00000000000068
 20
443.22027140192671
 11
791.59110991546947
 21
440.1144428606965
  0
LINE
  8
_1-5_寸法2
  6
CONTINUOUS
 62
    7
 10
1062.0000003061482
 20
327.12027097951716
 11
1062.0000003061482
 21
455.22027140192671
  0
LINE
  8
_1-5_寸法2
  6
CONTINUOUS
 62
    7
 10
1062.0000003061482
 20
443.22027140192671
 11
1050.4088903906793
 21
440.11444286069656
  0
LINE
  8
_1-5_寸法2
  6
CONTINUOUS
 62
    7
 10
1062.0000003061482
 20
443.22027140192671
 11
1050.4088903906793
 21
446.32609994315703
  0
LINE
  8
_1-5_寸法2
  6
CONTINUOUS
 62
    7
 10
780.00000000000068
 20
443.22027140192671
 11
1062.0000003061482
 21
443.22027140192671
  0
TEXT
  8
_1-5_寸法2
 62
    7
 10
912.00000015307455
 20
443.22027140192671
 40
18
 41
1
 50
0
  1
94
  0
LINE
  8
_1-2_極細2
  6
CONTINUOUS
 62
    2
 10
1034.1000003061458
 20
255.12027097951682
 11
807.90000000000146
 21
255.12027097951682
  0
LINE
  8
_1-3_細線2
  6
CONTINUOUS
 62
    4
 10
932.39999999999918
 20
304.92027097951689
 11
909.60000000000082
 21
304.92027097951689
  0
LINE
  8
_1-3_細線2
  6
CONTINUOUS
 62
    4
 10
909.60000000000082
 20
304.92027097951689
 11
909.60000000000082
 21
260.52027097951725
  0
LINE
  8
_1-3_細線2
  6
CONTINUOUS
 62
    4
 10
863.09999999999945
 20
304.92027097951689
 11
885.89999999999986
 21
304.92027097951689
  0
LINE
  8
_1-3_細線2
  6
CONTINUOUS
 62
    4
 10
885.89999999999986
 20
304.92027097951689
 11
885.89999999999986
 21
260.52027097951725
  0
ARC
  8
_1-3_細線2
  6
CONTINUOUS
 62
    4
 10
932.39999999999986
 20
304.92027097951711
 40
3.5999999999999996
 50
0
 51
89.999999999999915
  0
LINE
  8
_1-3_細線2
  6
CONTINUOUS
 62
    4
 10
906
 20
304.92027097951711
 11
906
 21
260.52027097951725
  0
LINE
  8
_1-3_細線2
  6
CONTINUOUS
 62
    4
 10
932.39999999999986
 20
308.52027097951725
 11
909.59999999999991
 21
308.52027097951725
  0
ARC
  8
_1-3_細線2
  6
CONTINUOUS
 62
    4
 10
909.59999999999991
 20
304.92027097951711
 40
3.5999999999999996
 50
89.999999999999915
 51
179.99999999999983
  0
LINE
  8
_1-3_細線2
  6
CONTINUOUS
 62
    4
 10
889.5
 20
304.92027097951711
 11
889.5
 21
260.52027097951725
  0
ARC
  8
_1-3_細線2
  6
CONTINUOUS
 62
    4
 10
885.89999999999986
 20
304.92027097951711
 40
3.5999999999999996
 50
0
 51
89.999999999999915
  0
LINE
  8
_1-3_細線2
  6
CONTINUOUS
 62
    4
 10
863.09999999999911
 20
308.52027097951725
 11
885.89999999999986
 21
308.52027097951725
  0
ARC
  8
_1-3_細線2
  6
CONTINUOUS
 62
    4
 10
863.09999999999911
 20
304.92027097951711
 40
3.5999999999999996
 50
89.999999999999915
 51
179.99999999999983
  0
LINE
  8
_1-3_細線2
  6
CONTINUOUS
 62
    4
 10
885.89999999999986
 20
260.52027097951725
 11
889.5
 21
260.52027097951725
  0
LINE
  8
_1-3_細線2
  6
CONTINUOUS
 62
    4
 10
906
 20
260.52027097951725
 11
909.60000000000082
 21
260.52027097951725
  0
LINE
  8
_1-3_細線2
  6
CONTINUOUS
 62
    4
 10
936
 20
290.52027055710766
 11
932.39999999999918
 21
290.52027055710744
  0
LINE
  8
_1-3_細線2
  6
CONTINUOUS
 62
    4
 10
859.49999999999932
 20
290.52027055710766
 11
863.10000000000014
 21
290.52027055710744
  0
LINE
  8
_1-3_細線2
  6
CONTINUOUS
 62
    4
 10
932.39999999999918
 20
304.92027097951689
 11
932.39999999999918
 21
290.52027055710766
  0
LINE
  8
_1-3_細線2
  6
CONTINUOUS
 62
    4
 10
863.09999999999945
 20
304.92027097951689
 11
863.10000000000014
 21
290.52027055710766
  0
LINE
  8
_1-3_細線2
  6
CONTINUOUS
 62
    4
 10
936
 20
304.92027097951711
 11
936
 21
290.52027055710766
  0
LINE
  8
_1-3_細線2
  6
CONTINUOUS
 62
    4
 10
859.49999999999932
 20
304.92027097951711
 11
859.49999999999932
 21
290.52027055710766
  0
LINE
  8
_1-3_細線2
  6
CONTINUOUS
 62
    4
 10
843.00000000000171
 20
265.17027055710776
 11
885.90000000000123
 21
265.17027055710776
  0
LINE
  8
_1-3_細線2
  6
CONTINUOUS
 62
    4
 10
843.00000000000171
 20
285.8702705571078
 11
885.90000000000123
 21
285.8702705571078
  0
LINE
  8
_1-3_細線2
  6
CONTINUOUS
 62
    4
 10
889.50000000000102
 20
285.8702705571078
 11
906
 21
285.8702705571078
  0
LINE
  8
_1-3_細線2
  6
CONTINUOUS
 62
    4
 10
889.50000000000102
 20
265.17027055710776
 11
906
 21
265.17027055710776
  0
LINE
  8
_1-3_細線2
  6
CONTINUOUS
 62
    4
 10
952.50000030614785
 20
265.17027055710776
 11
909.60000030614867
 21
265.17027055710776
  0
LINE
  8
_1-3_細線2
  6
CONTINUOUS
 62
    4
 10
952.50000030614785
 20
285.8702705571078
 11
909.60000030614867
 21
285.8702705571078
  0
LINE
  8
_1-3_細線2
  6
CONTINUOUS
 62
    4
 10
1002.6000003061479
 20
283.27527097951713
 11
1002.6000003061479
 21
271.36527097951705
  0
LINE
  8
_1-3_細線2
  6
CONTINUOUS
 62
    4
 10
1002.6000003061479
 20
304.92027097951689
 11
1002.6000003061479
 21
260.52027097951725
  0
LINE
  8
_1-3_細線2
  6
CONTINUOUS
 62
    4
 10
978.90000030614635
 20
304.92027097951689
 11
956.10000030614663
 21
304.92027097951689
  0
LINE
  8
_1-3_細線2
  6
CONTINUOUS
 62
    4
 10
1025.4000003061469
 20
304.92027097951689
 11
1002.6000003061479
 21
304.92027097951689
  0
LINE
  8
_1-3_細線2
  6
CONTINUOUS
 62
    4
 10
956.10000030614663
 20
304.92027097951689
 11
956.10000030614663
 21
260.52027097951725
  0
ARC
  8
_1-3_細線2
  6
CONTINUOUS
 62
    4
 10
1025.4000003061481
 20
304.92027097951711
 40
3.5999999999999996
 50
0
 51
89.999999999999915
  0
LINE
  8
_1-3_細線2
  6
CONTINUOUS
 62
    4
 10
999.00000030614706
 20
304.92027097951711
 11
999.00000030614706
 21
260.52027097951725
  0
LINE
  8
_1-3_細線2
  6
CONTINUOUS
 62
    4
 10
1025.4000003061481
 20
308.52027097951725
 11
1002.600000306147
 21
308.52027097951725
  0
ARC
  8
_1-3_細線2
  6
CONTINUOUS
 62
    4
 10
1002.600000306147
 20
304.92027097951711
 40
3.5999999999999996
 50
89.999999999999915
 51
179.99999999999983
  0
ARC
  8
_1-3_細線2
  6
CONTINUOUS
 62
    4
 10
978.90000030614738
 20
304.92027097951711
 40
3.5999999999999996
 50
0
 51
89.999999999999915
  0
LINE
  8
_1-3_細線2
  6
CONTINUOUS
 62
    4
 10
952.50000030614785
 20
304.92027097951711
 11
952.50000030614785
 21
260.52027097951725
  0
LINE
  8
_1-3_細線2
  6
CONTINUOUS
 62
    4
 10
978.90000030614738
 20
308.52027097951725
 11
956.10000030614799
 21
308.52027097951725
  0
ARC
  8
_1-3_細線2
  6
CONTINUOUS
 62
    4
 10
956.10000030614799
 20
304.92027097951711
 40
3.5999999999999996
 50
89.999999999999915
 51
179.99999999999983
  0
LINE
  8
_1-3_細線2
  6
CONTINUOUS
 62
    4
 10
952.50000030614785
 20
260.52027097951725
 11
956.10000030614663
 21
260.52027097951725
  0
LINE
  8
_1-3_細線2
  6
CONTINUOUS
 62
    4
 10
999.00000030614706
 20
260.52027097951725
 11
1002.6000003061479
 21
260.52027097951725
  0
LINE
  8
_1-3_細線2
  6
CONTINUOUS
 62
    4
 10
1029.0000003061477
 20
290.52027055710766
 11
1025.4000003061469
 21
290.52027055710766
  0
LINE
  8
_1-3_細線2
  6
CONTINUOUS
 62
    4
 10
982.50000030614717
 20
290.52027055710766
 11
978.90000030614635
 21
290.52027055710766
  0
LINE
  8
_1-3_細線2
  6
CONTINUOUS
 62
    4
 10
978.90000030614635
 20
304.92027097951689
 11
978.90000030614635
 21
290.52027055710766
  0
LINE
  8
_1-3_細線2
  6
CONTINUOUS
 62
    4
 10
1025.4000003061469
 20
304.92027097951689
 11
1025.4000003061469
 21
290.52027055710766
  0
LINE
  8
_1-3_細線2
  6
CONTINUOUS
 62
    4
 10
1029.0000003061477
 20
304.92027097951711
 11
1029.0000003061477
 21
290.52027055710766
  0
LINE
  8
_1-3_細線2
  6
CONTINUOUS
 62
    4
 10
982.50000030614717
 20
304.92027097951711
 11
982.50000030614717
 21
290.52027055710766
  0
LINE
  8
_1-3_細線2
  6
CONTINUOUS
 62
    4
 10
999.00000061229662
 20
265.17027055710776
 11
956.10000061229744
 21
265.17027055710776
  0
LINE
  8
_1-3_細線2
  6
CONTINUOUS
 62
    4
 10
999.00000061229662
 20
285.8702705571078
 11
956.10000061229744
 21
285.8702705571078
  0
LINE
  8
_1-3_細線2
  6
CONTINUOUS
 62
    4
 10
839.40000000000293
 20
304.92027097951689
 11
839.40000000000293
 21
260.52027097951725
  0
LINE
  8
_1-3_細線2
  6
CONTINUOUS
 62
    4
 10
816.60000000000321
 20
304.92027097951689
 11
839.40000000000293
 21
304.92027097951689
  0
LINE
  8
_1-3_細線2
  6
CONTINUOUS
 62
    4
 10
843.00000000000171
 20
304.92027097951711
 11
843.00000000000171
 21
260.52027097951725
  0
ARC
  8
_1-3_細線2
  6
CONTINUOUS
 62
    4
 10
839.40000000000191
 20
304.92027097951711
 40
3.5999999999999996
 50
0
 51
89.999999999999915
  0
LINE
  8
_1-3_細線2
  6
CONTINUOUS
 62
    4
 10
816.60000000000241
 20
308.52027097951725
 11
839.40000000000191
 21
308.52027097951725
  0
ARC
  8
_1-3_細線2
  6
CONTINUOUS
 62
    4
 10
816.60000000000241
 20
304.92027097951711
 40
3.5999999999999996
 50
89.999999999999915
 51
179.99999999999983
  0
LINE
  8
_1-3_細線2
  6
CONTINUOUS
 62
    4
 10
839.40000000000293
 20
260.52027097951725
 11
843.00000000000171
 21
260.52027097951725
  0
LINE
  8
_1-3_細線2
  6
CONTINUOUS
 62
    4
 10
813.00000000000239
 20
290.52027055710766
 11
816.60000000000321
 21
290.52027055710744
  0
LINE
  8
_1-3_細線2
  6
CONTINUOUS
 62
    4
 10
816.60000000000321
 20
304.92027097951689
 11
816.60000000000321
 21
290.52027055710766
  0
LINE
  8
_1-3_細線2
  6
CONTINUOUS
 62
    4
 10
813.00000000000239
 20
304.92027097951711
 11
813.00000000000239
 21
290.52027055710766
  0
LINE
  8
_1-2_極細2
  6
CONTINUOUS
 62
    2
 10
991.50000000000023
 20
262.02027097951725
 11
991.5
 21
260.52027097951702
  0
LINE
  8
_1-2_極細2
  6
CONTINUOUS
 62
    2
 10
991.5
 20
258.72027097951718
 11
991.5
 21
257.22027097951718
  0
LINE
  8
_1-2_極細2
  6
CONTINUOUS
 62
    2
 10
987.75000000000023
 20
260.52027097951725
 11
987.75000000000023
 21
258.72027097951718
  0
LINE
  8
_1-2_極細2
  6
CONTINUOUS
 62
    2
 10
989.25000000000023
 20
260.52027097951725
 11
989.25000000000023
 21
258.72027097951718
  0
LINE
  8
_1-2_極細2
  6
CONTINUOUS
 62
    2
 10
987.75000000000023
 20
259.2000000000001
 11
989.25000000000023
 21
259.2000000000001
  0
LINE
  8
_1-2_極細2
  6
CONTINUOUS
 62
    2
 10
987.75000000000023
 20
259.80000000000013
 11
989.25000000000023
 21
259.80000000000013
  0
LINE
  8
_1-2_極細2
  6
CONTINUOUS
 62
    2
 10
987.75000000000023
 20
260.40000000000009
 11
989.25000000000023
 21
260.40000000000009
  0
LINE
  8
_1-2_極細2
  6
CONTINUOUS
 62
    2
 10
970.50000000000023
 20
262.02027097951725
 11
970.50000000000068
 21
260.52027097951725
  0
LINE
  8
_1-2_極細2
  6
CONTINUOUS
 62
    2
 10
970.50000000000068
 20
258.72027097951718
 11
970.5
 21
257.22027097951718
  0
LINE
  8
_1-2_極細2
  6
CONTINUOUS
 62
    2
 10
972.75000000000023
 20
260.52027097951725
 11
972.75000000000023
 21
258.72027097951718
  0
LINE
  8
_1-2_極細2
  6
CONTINUOUS
 62
    2
 10
974.25000000000023
 20
260.52027097951725
 11
974.25000000000023
 21
258.72027097951718
  0
LINE
  8
_1-2_極細2
  6
CONTINUOUS
 62
    2
 10
972.75000000000023
 20
259.2000000000001
 11
974.25000000000023
 21
259.2000000000001
  0
LINE
  8
_1-2_極細2
  6
CONTINUOUS
 62
    2
 10
972.75000000000023
 20
259.80000000000013
 11
974.25000000000023
 21
259.80000000000013
  0
LINE
  8
_1-2_極細2
  6
CONTINUOUS
 62
    2
 10
972.75000000000023
 20
260.40000000000009
 11
974.25000000000023
 21
260.40000000000009
  0
LINE
  8
_1-2_極細2
  6
CONTINUOUS
 62
    2
 10
970.50000000000068
 20
262.02027097951725
 11
991.5
 21
262.02027097951725
  0
LINE
  8
_1-2_極細2
  6
CONTINUOUS
 62
    2
 10
970.50000000000068
 20
261.00000000000006
 11
991.5
 21
261.00000000000006
  0
LINE
  8
_1-2_極細2
  6
CONTINUOUS
 62
    2
 10
970.50000000000068
 20
261.60000000000002
 11
991.5
 21
261.60000000000002
  0
LINE
  8
_1-2_極細2
  6
CONTINUOUS
 62
    2
 10
970.50000000000023
 20
257.40000000000009
 11
991.5
 21
257.40000000000009
  0
LINE
  8
_1-2_極細2
  6
CONTINUOUS
 62
    2
 10
970.50000000000023
 20
258.00000000000011
 11
991.5
 21
258.00000000000011
  0
LINE
  8
_1-2_極細2
  6
CONTINUOUS
 62
    2
 10
970.50000000000023
 20
258.60000000000014
 11
991.5
 21
258.60000000000014
  0
LINE
  8
_1-2_極細2
  6
CONTINUOUS
 62
    2
 10
970.50000000000023
 20
257.22027097951718
 11
991.5
 21
257.22027097951718
  0
LINE
  8
_1-2_極細2
  6
CONTINUOUS
 62
    2
 10
867.75000000000068
 20
260.52027097951725
 11
867.75000000000068
 21
258.72027097951718
  0
LINE
  8
_1-2_極細2
  6
CONTINUOUS
 62
    2
 10
869.25000000000068
 20
260.52027097951725
 11
869.25000000000068
 21
258.72027097951718
  0
LINE
  8
_1-2_極細2
  6
CONTINUOUS
 62
    2
 10
867.75000000000068
 20
259.2000000000001
 11
869.25000000000034
 21
259.2000000000001
  0
LINE
  8
_1-2_極細2
  6
CONTINUOUS
 62
    2
 10
867.75000000000068
 20
259.80000000000013
 11
869.25000000000034
 21
259.80000000000013
  0
LINE
  8
_1-2_極細2
  6
CONTINUOUS
 62
    2
 10
867.75000000000068
 20
260.40000000000009
 11
869.25000000000034
 21
260.40000000000009
  0
LINE
  8
_1-2_極細2
  6
CONTINUOUS
 62
    2
 10
871.50000000000023
 20
258.72027097951718
 11
871.50000000000023
 21
257.22027097951718
  0
LINE
  8
_1-2_極細2
  6
CONTINUOUS
 62
    2
 10
871.50000000000068
 20
262.02027097951725
 11
871.50000000000023
 21
260.52027097951702
  0
LINE
  8
_1-2_極細2
  6
CONTINUOUS
 62
    2
 10
850.50000000000091
 20
258.72027097951718
 11
850.50000000000023
 21
257.22027097951718
  0
LINE
  8
_1-2_極細2
  6
CONTINUOUS
 62
    2
 10
850.50000000000068
 20
262.02027097951725
 11
850.50000000000091
 21
260.52027097951725
  0
LINE
  8
_1-2_極細2
  6
CONTINUOUS
 62
    2
 10
852.75000000000068
 20
260.52027097951725
 11
852.75000000000068
 21
258.72027097951718
  0
LINE
  8
_1-2_極細2
  6
CONTINUOUS
 62
    2
 10
854.25000000000068
 20
260.52027097951725
 11
854.25000000000068
 21
258.72027097951718
  0
LINE
  8
_1-2_極細2
  6
CONTINUOUS
 62
    2
 10
852.75000000000045
 20
259.2000000000001
 11
854.25000000000091
 21
259.2000000000001
  0
LINE
  8
_1-2_極細2
  6
CONTINUOUS
 62
    2
 10
852.75000000000045
 20
259.80000000000013
 11
854.25000000000091
 21
259.80000000000013
  0
LINE
  8
_1-2_極細2
  6
CONTINUOUS
 62
    2
 10
852.75000000000045
 20
260.40000000000009
 11
854.25000000000091
 21
260.40000000000009
  0
LINE
  8
_1-2_極細2
  6
CONTINUOUS
 62
    2
 10
850.50000000000068
 20
257.22027097951718
 11
871.50000000000023
 21
257.22027097951718
  0
LINE
  8
_1-2_極細2
  6
CONTINUOUS
 62
    2
 10
850.50000000000068
 20
257.40000000000009
 11
871.50000000000023
 21
257.40000000000009
  0
LINE
  8
_1-2_極細2
  6
CONTINUOUS
 62
    2
 10
850.50000000000068
 20
258.00000000000011
 11
871.50000000000023
 21
258.00000000000011
  0
LINE
  8
_1-2_極細2
  6
CONTINUOUS
 62
    2
 10
850.50000000000068
 20
258.60000000000014
 11
871.50000000000023
 21
258.60000000000014
  0
LINE
  8
_1-2_極細2
  6
CONTINUOUS
 62
    2
 10
850.50000000000091
 20
261.00000000000006
 11
871.50000000000034
 21
261.00000000000006
  0
LINE
  8
_1-2_極細2
  6
CONTINUOUS
 62
    2
 10
850.50000000000091
 20
261.60000000000002
 11
871.50000000000034
 21
261.60000000000002
  0
LINE
  8
_1-2_極細2
  6
CONTINUOUS
 62
    2
 10
850.50000000000091
 20
262.02027097951725
 11
871.50000000000023
 21
262.02027097951725
  0
LINE
  8
_1-2_極細2
  6
CONTINUOUS
 62
    2
 10
1004.4000000000002
 20
301.62027097951704
 11
1002.6000000000004
 21
301.62027097951704
  0
LINE
  8
_1-2_極細2
  6
CONTINUOUS
 62
    2
 10
1004.4000000000002
 20
301.62027097951704
 11
1004.4000000000002
 21
258.72027097951718
  0
LINE
  8
_1-2_極細2
  6
CONTINUOUS
 62
    2
 10
837.60000000000014
 20
301.62027097951704
 11
839.40000000000009
 21
301.62027097951704
  0
LINE
  8
_1-2_極細2
  6
CONTINUOUS
 62
    2
 10
839.40000000000009
 20
260.52027097951725
 11
1002.6000000000004
 21
260.52027097951725
  0
LINE
  8
_1-2_極細2
  6
CONTINUOUS
 62
    2
 10
837.60000000000014
 20
301.62027097951704
 11
837.60000000000014
 21
258.72027097951718
  0
LINE
  8
_1-2_極細2
  6
CONTINUOUS
 62
    2
 10
837.60000000000014
 20
258.72027097951718
 11
1004.4000000000002
 21
258.72027097951718
  0
LINE
  8
_1-2_極細2
  6
CONTINUOUS
 62
    2
 10
1007.390244000002
 20
275.52027055710766
 11
1016.4037920000022
 21
275.52027055710766
  0
LINE
  8
_1-3_細線2
  6
CONTINUOUS
 62
    4
 10
1007.390244000002
 20
265.02027055710903
 11
1016.4038280000004
 21
265.02027055710903
  0
ARC
  8
_1-3_細線2
  6
CONTINUOUS
 62
    4
 10
1016.4038280000004
 20
265.62027055710848
 40
0.6000000000000002
 50
269.99999999999977
 51
359.99999999999966
  0
ARC
  8
_1-2_極細2
  6
CONTINUOUS
 62
    2
 10
993.72988800000167
 20
270.26983255710945
 40
23.273868
 50
346.96432999999968
 51
13.038021999994573
  0
ARC
  8
_1-3_細線2
  6
CONTINUOUS
 62
    4
 10
1016.4038280000004
 20
285.42027055710935
 40
0.6000000000000002
 50
0
 51
89.999999999999915
  0
ARC
  8
_1-2_極細2
  6
CONTINUOUS
 62
    2
 10
993.72988800000167
 20
280.77070255710794
 40
23.273868
 50
346.9619780000009
 51
13.035669999999625
  0
LINE
  8
_1-3_細線2
  6
CONTINUOUS
 62
    4
 10
1007.390244000002
 20
286.0202705571088
 11
1016.4038280000004
 21
286.0202705571088
  0
LINE
  8
_1-3_細線2
  6
CONTINUOUS
 62
    4
 10
1017.0038280000016
 20
265.62027055710848
 11
1017.0038280000016
 21
285.42027055710935
  0
ARC
  8
_1-3_細線2
  6
CONTINUOUS
 62
    4
 10
1006.7902440000008
 20
261.12027055710848
 40
0.6000000000000002
 50
269.99999999999977
 51
359.99999999999966
  0
LINE
  8
_1-3_細線2
  6
CONTINUOUS
 62
    4
 10
1004.4000000000002
 20
260.52027055710835
 11
1006.7902440000008
 21
260.52027055710835
  0
ARC
  8
_1-3_細線2
  6
CONTINUOUS
 62
    4
 10
1006.7902440000008
 20
289.92027055710776
 40
0.6000000000000002
 50
0
 51
89.999999999999915
  0
LINE
  8
_1-3_細線2
  6
CONTINUOUS
 62
    4
 10
1004.4000000000002
 20
290.5202705571088
 11
1006.7902440000008
 21
290.5202705571088
  0
LINE
  8
_1-3_細線2
  6
CONTINUOUS
 62
    4
 10
1007.390244000002
 20
289.92027055710776
 11
1007.390244000002
 21
261.12027055710848
  0
ARC
  8
_1-3_細線2
  6
CONTINUOUS
 62
    4
 10
835.20975599999952
 20
261.1202701346989
 40
0.6000000000000002
 50
179.99999999999983
 51
269.99999999999977
  0
LINE
  8
_1-3_細線2
  6
CONTINUOUS
 62
    4
 10
837.60000000000014
 20
260.52027013469876
 11
835.20975599999952
 21
260.52027013469876
  0
ARC
  8
_1-3_細線2
  6
CONTINUOUS
 62
    4
 10
835.20975599999952
 20
289.92027013469817
 40
0.6000000000000002
 50
89.999999999999915
 51
179.99999999999983
  0
LINE
  8
_1-3_細線2
  6
CONTINUOUS
 62
    4
 10
837.60000000000014
 20
290.52027013469922
 11
835.20975599999952
 21
290.52027013469922
  0
LINE
  8
_1-3_細線2
  6
CONTINUOUS
 62
    4
 10
834.60975599999836
 20
274.02027013469876
 11
834.60975599999836
 21
261.1202701346989
  0
LINE
  8
_1-3_細線2
  6
CONTINUOUS
 62
    4
 10
834.60975599999836
 20
289.92027013469817
 11
834.60975599999836
 21
274.02027013469876
  0
LINE
  8
_1-2_極細2
  6
CONTINUOUS
 62
    2
 10
834.60975599999836
 20
275.52027013469808
 11
825.59620799999811
 21
275.52027013469808
  0
LINE
  8
_1-3_細線2
  6
CONTINUOUS
 62
    4
 10
834.60975599999836
 20
265.02027013469944
 11
825.59617199999991
 21
265.02027013469944
  0
ARC
  8
_1-3_細線2
  6
CONTINUOUS
 62
    4
 10
825.59617199999991
 20
265.6202701346989
 40
0.6000000000000002
 50
179.99999999999983
 51
269.99999999999977
  0
ARC
  8
_1-2_極細2
  6
CONTINUOUS
 62
    2
 10
848.27011199999868
 20
270.26983213469987
 40
23.273868
 50
166.96197800000505
 51
193.03566999999961
  0
ARC
  8
_1-3_細線2
  6
CONTINUOUS
 62
    4
 10
825.59617199999991
 20
285.42027013469976
 40
0.6000000000000002
 50
89.999999999999915
 51
179.99999999999983
  0
ARC
  8
_1-2_極細2
  6
CONTINUOUS
 62
    2
 10
848.27011199999868
 20
280.77070213469835
 40
23.273868
 50
166.96433000000002
 51
193.03802199999842
  0
LINE
  8
_1-3_細線2
  6
CONTINUOUS
 62
    4
 10
834.60975599999836
 20
286.02027013469922
 11
825.59617199999991
 21
286.02027013469922
  0
LINE
  8
_1-3_細線2
  6
CONTINUOUS
 62
    4
 10
824.99617199999875
 20
265.6202701346989
 11
824.99617199999875
 21
285.42027013469976
  0
LINE
  8
_1-2_極細2
  6
CENTER1
 62
    2
 10
820.91074376027348
 20
275.52027055710766
 11
1022.0586254549157
 21
275.52027055710766
  0
TEXT
  8
_0-7_枠細線
 62
    5
 10
850.61791099972891
 20
474.72508380526858
 40
24
 41
0.8
 50
0
  1
Ａ－Ａ’断面図
  0
TEXT
  8
_0-7_枠細線
 62
    5
 10
1001.5443645468506
 20
474.72508380526858
 40
24
 41
0.6000000000000002
 50
0
  1
Ｓ＝１：２
  0
LINE
  8
_1-2_極細2
  6
CENTER1
 62
    2
 10
921
 20
333.46861461447963
 11
921
 21
233.75638439865222
  0
LINE
  8
_0-1_計細線
  6
CONTINUOUS
 62
    3
 10
810.06304118019625
 20
653.75787947158085
 11
810.06304118019625
 21
651.95787947160875
  0
ARC
  8
_0-1_計細線
  6
CONTINUOUS
 62
    3
 10
746.61304121194644
 20
655.25787947158085
 40
1.5
 50
179.99999999999983
 51
269.99999999999977
  0
ARC
  8
_0-1_計細線
  6
CONTINUOUS
 62
    3
 10
810.01304128848642
 20
655.25787947158085
 40
1.5
 50
269.99999999999977
 51
359.99999999999966
  0
LINE
  8
_0-1_計細線
  6
CONTINUOUS
 62
    3
 10
754.96304123529717
 20
615.4548168049057
 11
755.96304123429718
 21
614.45787947158146
  0
LINE
  8
_0-1_計細線
  6
CONTINUOUS
 62
    3
 10
745.11304121194644
 20
657.52631612685764
 11
745.11304121194644
 21
655.25787947158085
  0
LINE
  8
_0-1_計細線
  6
CONTINUOUS
 62
    3
 10
758.00273561636823
 20
659.45779865158408
 11
758.00273561636823
 21
657.47874664896551
  0
LINE
  8
_0-1_計細線
  6
CONTINUOUS
 62
    3
 10
798.62334680752508
 20
659.45779865158408
 11
798.62334680752508
 21
657.47874664896551
  0
LINE
  8
_0-1_計細線
  6
CONTINUOUS
 62
    3
 10
811.51304121194698
 20
657.52631612685764
 11
811.51304121194698
 21
655.25787947158085
  0
LINE
  8
_0-0_計極細
  6
CONTINUOUS
 62
    2
 10
778.3130412119466
 20
615.4548168049057
 11
801.66304118859614
 21
615.4548168049057
  0
LINE
  8
_0-1_計細線
  6
CONTINUOUS
 62
    3
 10
778.3130412119466
 20
614.45787947158146
 11
800.66304118959624
 21
614.45787947158146
  0
LINE
  8
_0-0_計極細
  6
CONTINUOUS
 62
    2
 10
800.66304118959624
 20
638.95787947173892
 11
800.66304118959624
 21
614.45787947158146
  0
LINE
  8
_0-1_計細線
  6
CONTINUOUS
 62
    3
 10
801.66304118859614
 20
638.95787947173892
 11
801.66304118859614
 21
615.4548168049057
  0
LINE
  8
_0-0_計極細
  6
CONTINUOUS
 62
    2
 10
778.3130412119466
 20
615.4548168049057
 11
754.96304123529717
 21
615.4548168049057
  0
LINE
  8
_0-1_計細線
  6
CONTINUOUS
 62
    3
 10
778.3130412119466
 20
614.45787947158146
 11
755.96304123429718
 21
614.45787947158146
  0
LINE
  8
_0-0_計極細
  6
CONTINUOUS
 62
    2
 10
755.96304123429718
 20
638.95787947173892
 11
755.96304123429718
 21
614.45787947158146
  0
LINE
  8
_0-1_計細線
  6
CONTINUOUS
 62
    3
 10
754.96304123529717
 20
638.95787947173892
 11
754.96304123529717
 21
615.4548168049057
  0
LINE
  8
_0-1_計細線
  6
CONTINUOUS
 62
    3
 10
801.66304118859614
 20
615.4548168049057
 11
800.66304118959624
 21
614.45787947158146
  0
LINE
  8
_0-5_寸法線
  6
CONTINUOUS
 62
    7
 10
759.58422314947347
 20
624.35561656854668
 11
756.4392087292415
 21
612.77507753547343
  0
LINE
  8
_0-5_寸法線
  6
CONTINUOUS
 62
    7
 10
759.58422314947347
 20
624.35561656854668
 11
751.07029124974747
 21
615.89908278650387
  0
LINE
  8
_0-5_寸法線
  6
CONTINUOUS
 62
    7
 10
759.58422314947347
 20
624.35561656854668
 11
733.57454922815032
 21
579.65537385734592
  0
LINE
  8
_0-5_寸法線
  6
CONTINUOUS
 62
    7
 10
733.57454922815032
 20
579.65537385734592
 11
690.37454922815016
 21
579.65537385734592
  0
TEXT
  8
_0-5_寸法線
 62
    7
 10
690.37454922815027
 20
579.65537385734592
 40
18
 41
0.7999999999999998
 50
0
  1
排水口
  0
LINE
  8
_0-5_寸法線
  6
CONTINUOUS
 62
    7
 10
816.31304118594642
 20
638.95787947173881
 11
870.31304118594642
 21
638.95787947173812
  0
LINE
  8
_0-5_寸法線
  6
CONTINUOUS
 62
    7
 10
864.31304118594642
 20
638.95787947173824
 11
861.20721264471626
 21
650.54898938720703
  0
LINE
  8
_0-5_寸法線
  6
CONTINUOUS
 62
    7
 10
864.31304118594642
 20
638.95787947173824
 11
867.4188697271768
 21
650.54898938720703
  0
LINE
  8
_0-5_寸法線
  6
CONTINUOUS
 62
    7
 10
816.31304118594642
 20
679.45787947158101
 11
870.31304118594642
 21
679.45787947158033
  0
LINE
  8
_0-5_寸法線
  6
CONTINUOUS
 62
    7
 10
864.31304118594642
 20
679.45787947158033
 11
867.4188697271768
 21
667.86676955611165
  0
LINE
  8
_0-5_寸法線
  6
CONTINUOUS
 62
    7
 10
864.31304118594642
 20
679.45787947158033
 11
861.20721264471626
 21
667.86676955611165
  0
LINE
  8
_0-5_寸法線
  6
CONTINUOUS
 62
    7
 10
864.31304118594642
 20
638.95787947173824
 11
864.31304118594642
 21
679.45787947158033
  0
TEXT
  8
_0-5_寸法線
 62
    7
 10
864.31304118594642
 20
640.38558052521932
 40
18
 41
1
 50
90
  1
42
  0
LINE
  8
_0-5_寸法線
  6
CONTINUOUS
 62
    7
 10
754.96304123529706
 20
603.4548168049057
 11
754.96304123529671
 21
549.4548168049057
  0
LINE
  8
_0-5_寸法線
  6
CONTINUOUS
 62
    7
 10
754.96304123529671
 20
555.4548168049057
 11
766.55415115076551
 21
558.56064534613608
  0
LINE
  8
_0-5_寸法線
  6
CONTINUOUS
 62
    7
 10
754.96304123529671
 20
555.4548168049057
 11
766.55415115076551
 21
552.34898826367555
  0
LINE
  8
_0-5_寸法線
  6
CONTINUOUS
 62
    7
 10
801.66304118859614
 20
603.4548168049057
 11
801.6630411885958
 21
549.4548168049057
  0
LINE
  8
_0-5_寸法線
  6
CONTINUOUS
 62
    7
 10
801.6630411885958
 20
555.4548168049057
 11
790.07193127312701
 21
552.34898826367566
  0
LINE
  8
_0-5_寸法線
  6
CONTINUOUS
 62
    7
 10
801.6630411885958
 20
555.4548168049057
 11
790.07193127312701
 21
558.56064534613608
  0
LINE
  8
_0-5_寸法線
  6
CONTINUOUS
 62
    7
 10
754.96304123529671
 20
555.4548168049057
 11
801.6630411885958
 21
555.4548168049057
  0
TEXT
  8
_0-5_寸法線
 62
    7
 10
760.31304121194626
 20
555.4548168049057
 40
18
 41
1
 50
0
  1
46.7
  0
TEXT
  8
_0-7_枠細線
 62
    5
 10
1158.5999999999999
 20
180
 40
24
 41
0.6
 50
0
  1
玄関排水ユニット取外し具付
  0
LINE
  8
_0-1_計細線
  6
CONTINUOUS
 62
    3
 10
508.31304143616165
 20
659.45787947158112
 11
491.61304121194689
 21
659.45787947158112
  0
LINE
  8
_0-1_計細線
  6
CONTINUOUS
 62
    3
 10
481.33042114171394
 20
674.45079970527138
 11
501.31296039195104
 21
671.46003179101297
  0
LINE
  8
_0-1_計細線
  6
CONTINUOUS
 62
    3
 10
482.01303838324748
 20
671.45791179957985
 11
482.01303838324748
 21
674.34863345146039
  0
LINE
  8
_0-1_計細線
  6
CONTINUOUS
 62
    3
 10
481.31304121194671
 20
671.45787947158249
 11
482.01303838324748
 21
671.45787947158249
  0
LINE
  8
_0-1_計細線
  6
CONTINUOUS
 62
    3
 10
491.61304121194689
 20
659.45787947158112
 11
491.61304121194689
 21
672.91180960018755
  0
LINE
  8
_0-1_計細線
  6
CONTINUOUS
 62
    3
 10
758.00273561636823
 20
657.47964834547463
 11
524.2672260330155
 21
659.41206437459664
  0
LINE
  8
_0-1_計細線
  6
CONTINUOUS
 62
    3
 10
510.31304143616171
 20
671.45787947158249
 11
508.31304143616165
 21
669.45787947158249
  0
LINE
  8
_0-1_計細線
  6
CONTINUOUS
 62
    3
 10
508.31304143616165
 20
659.45787947158249
 11
508.31304143616165
 21
669.45787947158249
  0
LINE
  8
_0-1_計細線
  6
CONTINUOUS
 62
    3
 10
524.31304113000033
 20
669.45787947158249
 11
522.31304113000033
 21
671.45787947158249
  0
LINE
  8
_0-1_計細線
  6
CONTINUOUS
 62
    3
 10
524.31304113000033
 20
659.45787947158249
 11
524.31304113000033
 21
669.45787947158249
  0
LINE
  8
_0-1_計細線
  6
CONTINUOUS
 62
    3
 10
510.31304143616171
 20
655.45787947158237
 11
508.31304143616165
 21
653.45787947158249
  0
LINE
  8
_0-1_計細線
  6
CONTINUOUS
 62
    3
 10
510.31304143616171
 20
657.45787947158249
 11
510.31304143616171
 21
655.45787947158237
  0
LINE
  8
_0-1_計細線
  6
CONTINUOUS
 62
    3
 10
508.31304143616165
 20
659.45787947158249
 11
510.31304143616171
 21
657.45787947158249
  0
LINE
  8
_0-1_計細線
  6
CONTINUOUS
 62
    3
 10
522.31304113000033
 20
655.45787947158237
 11
524.31304113000033
 21
653.45787947158249
  0
LINE
  8
_0-1_計細線
  6
CONTINUOUS
 62
    3
 10
522.31304113000033
 20
657.45787947158249
 11
522.31304113000033
 21
655.45787947158237
  0
LINE
  8
_0-1_計細線
  6
CONTINUOUS
 62
    3
 10
524.31304113000033
 20
659.45787947158249
 11
522.31304113000033
 21
657.45787947158249
  0
LINE
  8
_0-1_計細線
  6
CONTINUOUS
 62
    3
 10
508.31304143616165
 20
653.45787947158249
 11
508.31304143616165
 21
639.45787947158249
  0
ARC
  8
_0-1_計細線
  6
CONTINUOUS
 62
    3
 10
511.31304143616165
 20
639.45787947158249
 40
3
 50
179.99999999999983
 51
269.99999999999977
  0
LINE
  8
_0-1_計細線
  6
CONTINUOUS
 62
    3
 10
511.31304143616165
 20
636.45787947158249
 11
521.31304113000033
 21
636.45787947158249
  0
LINE
  8
_0-1_計細線
  6
CONTINUOUS
 62
    3
 10
524.31304113000033
 20
653.45787947158249
 11
524.31304113000033
 21
639.45787947158249
  0
ARC
  8
_0-1_計細線
  6
CONTINUOUS
 62
    3
 10
521.31304113000033
 20
639.45787947158249
 40
3
 50
269.99999999999977
 51
359.99999999999966
  0
LINE
  8
_0-0_計極細
  6
CENTER1
 62
    2
 10
516.31304121194671
 20
683.09925333697026
 11
516.31304121194671
 21
627.82913550072715
  0
LINE
  8
_0-5_寸法線
  6
CONTINUOUS
 62
    7
 10
523.64947733072268
 20
637.62273636860857
 11
532.79456032179132
 21
629.85308662833927
  0
LINE
  8
_0-5_寸法線
  6
CONTINUOUS
 62
    7
 10
523.64947733072268
 20
637.62273636860857
 11
527.68452665057043
 21
626.3214808194939
  0
LINE
  8
_0-5_寸法線
  6
CONTINUOUS
 62
    7
 10
523.64947733072268
 20
637.62273636860857
 11
551.27140287769907
 21
597.65537385734592
  0
LINE
  8
_0-5_寸法線
  6
CONTINUOUS
 62
    7
 10
551.27140287769907
 20
597.65537385734592
 11
608.8714028776991
 21
597.65537385734592
  0
TEXT
  8
_0-5_寸法線
 62
    7
 10
551.27140287769907
 20
597.65537385734592
 40
18
 41
0.7999999999999998
 50
0
  1
アンカー
  0
LINE
  8
_0-1_計細線
  6
CONTINUOUS
 62
    3
 10
1065.013041211947
 20
659.45787947158112
 11
1048.3130411300003
 21
659.45787947158112
  0
LINE
  8
_0-1_計細線
  6
CONTINUOUS
 62
    3
 10
1065.013041211947
 20
672.91180911584104
 11
1065.013041211947
 21
659.45787947158112
  0
LINE
  8
_0-1_計細線
  6
CONTINUOUS
 62
    3
 10
1075.2956679488188
 20
674.45079970527138
 11
1055.3131220319428
 21
671.46003179101297
  0
LINE
  8
_0-1_計細線
  6
CONTINUOUS
 62
    3
 10
1074.6130440406469
 20
671.45791179957985
 11
1074.6130440406469
 21
674.34863345146039
  0
LINE
  8
_0-1_計細線
  6
CONTINUOUS
 62
    3
 10
1075.3130412119467
 20
671.45791179957985
 11
1074.6130440406469
 21
671.45791179957985
  0
LINE
  8
_0-1_計細線
  6
CONTINUOUS
 62
    3
 10
798.62334680752508
 20
657.47964834547463
 11
1032.3588563908791
 21
659.41206437459664
  0
LINE
  8
_0-1_計細線
  6
CONTINUOUS
 62
    3
 10
1034.3130414361617
 20
671.45787947158249
 11
1032.3130414361617
 21
669.45787947158249
  0
LINE
  8
_0-1_計細線
  6
CONTINUOUS
 62
    3
 10
1032.3130414361617
 20
659.45787947158249
 11
1032.3130414361617
 21
669.45787947158249
  0
LINE
  8
_0-1_計細線
  6
CONTINUOUS
 62
    3
 10
1048.3130411300003
 20
669.45787947158249
 11
1046.3130411300003
 21
671.45787947158249
  0
LINE
  8
_0-1_計細線
  6
CONTINUOUS
 62
    3
 10
1048.3130411300003
 20
659.45787947158249
 11
1048.3130411300003
 21
669.45787947158249
  0
LINE
  8
_0-1_計細線
  6
CONTINUOUS
 62
    3
 10
1034.3130414361617
 20
655.45787947158237
 11
1032.3130414361617
 21
653.45787947158249
  0
LINE
  8
_0-1_計細線
  6
CONTINUOUS
 62
    3
 10
1034.3130414361617
 20
657.45787947158249
 11
1034.3130414361617
 21
655.45787947158237
  0
LINE
  8
_0-1_計細線
  6
CONTINUOUS
 62
    3
 10
1032.3130414361617
 20
659.45787947158249
 11
1034.3130414361617
 21
657.45787947158249
  0
LINE
  8
_0-1_計細線
  6
CONTINUOUS
 62
    3
 10
1046.3130411300003
 20
655.45787947158237
 11
1048.3130411300003
 21
653.45787947158249
  0
LINE
  8
_0-1_計細線
  6
CONTINUOUS
 62
    3
 10
1046.3130411300003
 20
657.45787947158249
 11
1046.3130411300003
 21
655.45787947158237
  0
LINE
  8
_0-1_計細線
  6
CONTINUOUS
 62
    3
 10
1048.3130411300003
 20
659.45787947158249
 11
1046.3130411300003
 21
657.45787947158249
  0
LINE
  8
_0-1_計細線
  6
CONTINUOUS
 62
    3
 10
1032.3130414361617
 20
653.45787947158249
 11
1032.3130414361617
 21
639.45787947158249
  0
ARC
  8
_0-1_計細線
  6
CONTINUOUS
 62
    3
 10
1035.3130414361617
 20
639.45787947158249
 40
3
 50
179.99999999999983
 51
269.99999999999977
  0
LINE
  8
_0-1_計細線
  6
CONTINUOUS
 62
    3
 10
1035.3130414361617
 20
636.45787947158249
 11
1045.3130411300003
 21
636.45787947158249
  0
LINE
  8
_0-1_計細線
  6
CONTINUOUS
 62
    3
 10
1048.3130411300003
 20
653.45787947158249
 11
1048.3130411300003
 21
639.45787947158249
  0
ARC
  8
_0-1_計細線
  6
CONTINUOUS
 62
    3
 10
1045.3130411300003
 20
639.45787947158249
 40
3
 50
269.99999999999977
 51
359.99999999999966
  0
LINE
  8
_0-0_計極細
  6
CENTER1
 62
    2
 10
1040.3130412119467
 20
683.09925333697026
 11
1040.3130412119467
 21
627.82913550072715
  0
LINE
  8
_0-5_寸法線
  6
CONTINUOUS
 62
    7
 10
1077.013041211947
 20
659.45787947158101
 11
1183.3130412119467
 21
659.45787947157987
  0
LINE
  8
_0-5_寸法線
  6
CONTINUOUS
 62
    7
 10
1177.3130412119467
 20
659.45787947157999
 11
1180.418869753177
 21
647.86676955611119
  0
LINE
  8
_0-5_寸法線
  6
CONTINUOUS
 62
    7
 10
1177.3130412119467
 20
659.45787947157999
 11
1174.2072126707164
 21
647.86676955611119
  0
LINE
  8
_0-5_寸法線
  6
CONTINUOUS
 62
    7
 10
1087.3130412119467
 20
679.45787947158101
 11
1183.3130412119467
 21
679.45787947157987
  0
LINE
  8
_0-5_寸法線
  6
CONTINUOUS
 62
    7
 10
1177.3130412119467
 20
679.45787947157999
 11
1174.2072126707164
 21
691.04898938704878
  0
LINE
  8
_0-5_寸法線
  6
CONTINUOUS
 62
    7
 10
1177.3130412119467
 20
679.45787947157999
 11
1180.418869753177
 21
691.04898938704878
  0
LINE
  8
_0-5_寸法線
  6
CONTINUOUS
 62
    7
 10
1177.3130412119467
 20
629.45787947157999
 11
1177.3130412119467
 21
709.45787947157999
  0
TEXT
  8
_0-5_寸法線
 62
    7
 10
1177.3130412119467
 20
683.18934792796199
 40
18
 41
1
 50
90
  1
20
  0
LINE
  8
_0-5_寸法線
  6
CONTINUOUS
 62
    7
 10
1087.3130412119467
 20
671.45787947158237
 11
1141.3130412119467
 21
671.45787947158169
  0
LINE
  8
_0-5_寸法線
  6
CONTINUOUS
 62
    7
 10
1135.3130412119467
 20
671.4578794715818
 11
1138.418869753177
 21
659.86676955611301
  0
LINE
  8
_0-5_寸法線
  6
CONTINUOUS
 62
    7
 10
1135.3130412119467
 20
671.4578794715818
 11
1132.2072126707164
 21
659.86676955611301
  0
LINE
  8
_0-5_寸法線
  6
CONTINUOUS
 62
    7
 10
1087.3130412119467
 20
679.45787947158101
 11
1141.3130412119467
 21
679.45787947158033
  0
LINE
  8
_0-5_寸法線
  6
CONTINUOUS
 62
    7
 10
1135.3130412119467
 20
679.45787947158033
 11
1132.2072126707164
 21
691.04898938704923
  0
LINE
  8
_0-5_寸法線
  6
CONTINUOUS
 62
    7
 10
1135.3130412119467
 20
679.45787947158033
 11
1138.418869753177
 21
691.04898938704923
  0
LINE
  8
_0-5_寸法線
  6
CONTINUOUS
 62
    7
 10
1135.3130412119467
 20
653.4578794715818
 11
1135.3130412119467
 21
697.45787947158033
  0
TEXT
  8
_0-5_寸法線
 62
    7
 10
1135.3130412119467
 20
684.85846298926515
 40
18
 41
1
 50
90
  1
8
  0
LINE
  8
_0-1_計細線
  6
CONTINUOUS
 62
    3
 10
481.31304121194671
 20
679.45787947158101
 11
481.31304121194671
 21
671.45787947158112
  0
LINE
  8
_0-1_計細線
  6
CONTINUOUS
 62
    3
 10
1075.3130412119467
 20
671.45787947158112
 11
1075.3130412119467
 21
679.45787947158101
  0
LINE
  8
_0-1_計細線
  6
CONTINUOUS
 62
    3
 10
1075.3130412119467
 20
679.45787947158101
 11
481.31304121194671
 21
679.45787947158101
  0
LINE
  8
_0-1_計細線
  6
CONTINUOUS
 62
    3
 10
501.31296039195104
 20
671.45787947158112
 11
1055.3131220319428
 21
671.45787947158112
  0
LINE
  8
_0-1_計細線
  6
CONTINUOUS
 62
    3
 10
778.31304121194671
 20
659.45787947158112
 11
524.31304113000033
 21
659.45787947158112
  0
LINE
  8
_0-0_計極細
  6
CONTINUOUS
 62
    2
 10
758.00273561636823
 20
658.65787947158083
 11
778.31304121194671
 21
658.65787947158083
  0
LINE
  8
_0-1_計細線
  6
CONTINUOUS
 62
    3
 10
746.61304121194644
 20
653.75787947158085
 11
778.31304121194671
 21
653.75787947158085
  0
ARC
  8
_0-1_計細線
  6
CONTINUOUS
 62
    3
 10
807.06304118319622
 20
651.95787947160875
 40
2.9999999969999998
 50
269.99999999999977
 51
359.99999999999966
  0
LINE
  8
_0-0_計極細
  6
CONTINUOUS
 62
    2
 10
801.31304118894604
 20
648.95787947163876
 11
801.31304118894604
 21
638.95787947173892
  0
LINE
  8
_0-1_計細線
  6
CONTINUOUS
 62
    3
 10
804.31304118594642
 20
648.95787947163876
 11
804.31304118594642
 21
638.95787947173892
  0
LINE
  8
_0-1_計細線
  6
CONTINUOUS
 62
    3
 10
746.56304124369626
 20
653.75787947158085
 11
746.56304124369626
 21
651.95787947160875
  0
ARC
  8
_0-1_計細線
  6
CONTINUOUS
 62
    3
 10
749.56304124069629
 20
651.95787947160875
 40
2.9999999969999998
 50
179.99999999999983
 51
269.99999999999977
  0
LINE
  8
_0-0_計極細
  6
CONTINUOUS
 62
    2
 10
755.31304123494647
 20
648.95787947163876
 11
755.31304123494647
 21
638.95787947173892
  0
LINE
  8
_0-1_計細線
  6
CONTINUOUS
 62
    3
 10
752.31304123794598
 20
648.95787947163876
 11
752.31304123794598
 21
638.95787947173892
  0
LINE
  8
_0-1_計細線
  6
CONTINUOUS
 62
    3
 10
778.31304121194671
 20
648.95787947163876
 11
749.56304124069629
 21
648.95787947163876
  0
LINE
  8
_0-1_計細線
  6
CONTINUOUS
 62
    3
 10
778.31304121194671
 20
638.95787947173892
 11
752.31304123794598
 21
638.95787947173892
  0
LINE
  8
_0-1_計細線
  6
CONTINUOUS
 62
    3
 10
778.31304121194671
 20
638.95787947173892
 11
804.31304118594642
 21
638.95787947173892
  0
LINE
  8
_0-1_計細線
  6
CONTINUOUS
 62
    3
 10
778.31304121194671
 20
648.95787947163876
 11
807.06304118319622
 21
648.95787947163876
  0
LINE
  8
_0-1_計細線
  6
CONTINUOUS
 62
    3
 10
810.01304128848642
 20
653.75787947158085
 11
778.31304121194671
 21
653.75787947158085
  0
LINE
  8
_0-0_計極細
  6
CONTINUOUS
 62
    2
 10
778.31304121194671
 20
658.65787947158083
 11
798.62334680752508
 21
658.65787947158083
  0
LINE
  8
_0-1_計細線
  6
CONTINUOUS
 62
    3
 10
1032.3130414361631
 20
659.45787947158112
 11
778.31304121194671
 21
659.45787947158112
  0
LINE
  8
_0-5_寸法線
  6
CONTINUOUS
 62
    7
 10
481.31304121194671
 20
691.45787947158101
 11
481.31304121194671
 21
733.45787947158101
  0
LINE
  8
_0-5_寸法線
  6
CONTINUOUS
 62
    7
 10
481.31304121194671
 20
727.45787947158101
 11
492.9041511274155
 21
730.56370801281139
  0
LINE
  8
_0-5_寸法線
  6
CONTINUOUS
 62
    7
 10
481.31304121194671
 20
727.45787947158101
 11
492.9041511274155
 21
724.35205093035086
  0
LINE
  8
_0-5_寸法線
  6
CONTINUOUS
 62
    7
 10
516.31304121194671
 20
691.45787947158101
 11
516.31304121194671
 21
733.45787947158101
  0
LINE
  8
_0-5_寸法線
  6
CONTINUOUS
 62
    7
 10
516.31304121194671
 20
727.45787947158101
 11
504.72193129647786
 21
724.35205093035097
  0
LINE
  8
_0-5_寸法線
  6
CONTINUOUS
 62
    7
 10
516.31304121194671
 20
727.45787947158101
 11
504.72193129647786
 21
730.56370801281139
  0
LINE
  8
_0-5_寸法線
  6
CONTINUOUS
 62
    7
 10
481.31304121194671
 20
727.45787947158101
 11
516.31304121194671
 21
727.45787947158101
  0
TEXT
  8
_0-5_寸法線
 62
    7
 10
489.81304121194671
 20
727.45787947158101
 40
18
 41
1
 50
0
  1
35
  0
LINE
  8
_0-5_寸法線
  6
CONTINUOUS
 62
    7
 10
516.31304121194671
 20
727.45787947158101
 11
527.90415112741539
 21
730.56370801281128
  0
LINE
  8
_0-5_寸法線
  6
CONTINUOUS
 62
    7
 10
516.31304121194671
 20
727.45787947158101
 11
527.90415112741539
 21
724.35205093035086
  0
LINE
  8
_0-5_寸法線
  6
CONTINUOUS
 62
    7
 10
1040.3130412119467
 20
691.45787947158101
 11
1040.3130412119467
 21
733.45787947158101
  0
LINE
  8
_0-5_寸法線
  6
CONTINUOUS
 62
    7
 10
1040.3130412119467
 20
727.45787947158101
 11
1028.7219312964778
 21
724.35205093035097
  0
LINE
  8
_0-5_寸法線
  6
CONTINUOUS
 62
    7
 10
1040.3130412119467
 20
727.45787947158101
 11
1028.7219312964778
 21
730.56370801281139
  0
LINE
  8
_0-5_寸法線
  6
CONTINUOUS
 62
    7
 10
516.31304121194671
 20
727.45787947158101
 11
1040.3130412119467
 21
727.45787947158101
  0
TEXT
  8
_0-5_寸法線
 62
    7
 10
764.81304121194648
 20
727.45787947158101
 40
18
 41
1
 50
0
  1
524
  0
LINE
  8
_0-5_寸法線
  6
CONTINUOUS
 62
    7
 10
1040.3130412119467
 20
727.45787947158101
 11
1051.9041511274154
 21
730.56370801281128
  0
LINE
  8
_0-5_寸法線
  6
CONTINUOUS
 62
    7
 10
1040.3130412119467
 20
727.45787947158101
 11
1051.9041511274154
 21
724.35205093035086
  0
LINE
  8
_0-5_寸法線
  6
CONTINUOUS
 62
    7
 10
1075.3130412119467
 20
691.45787947158101
 11
1075.3130412119467
 21
733.45787947158101
  0
LINE
  8
_0-5_寸法線
  6
CONTINUOUS
 62
    7
 10
1075.3130412119467
 20
727.45787947158101
 11
1063.7219312964778
 21
724.35205093035097
  0
LINE
  8
_0-5_寸法線
  6
CONTINUOUS
 62
    7
 10
1075.3130412119467
 20
727.45787947158101
 11
1063.7219312964778
 21
730.56370801281139
  0
LINE
  8
_0-5_寸法線
  6
CONTINUOUS
 62
    7
 10
1040.3130412119467
 20
727.45787947158101
 11
1075.3130412119467
 21
727.45787947158101
  0
TEXT
  8
_0-5_寸法線
 62
    7
 10
1048.8130412119467
 20
727.45787947158101
 40
18
 41
1
 50
0
  1
35
  0
TEXT
  8
_0-7_枠細線
 62
    5
 10
1158.5999999999999
 20
132
 40
24
 41
0.6
 50
0
  1
ＧＳＧ－１０Ｌ６００Ｔ
  0
TEXT
  8
_0-7_枠細線
 62
    5
 10
1158.5999999999997
 20
84
 40
24.000000000000007
 41
0.5999999999999997
 50
0
  1
表面形状については記号表参照のこと
  0
LINE
  8
_1-2_極細2
  6
CENTER1
 62
    2
 10
1480.8053580885121
 20
387.78844837092777
 11
1495.6810354412919
 21
352.74354868615012
  0
CIRCLE
  8
_1-2_極細2
  6
DASHED2
 62
    2
 10
1489.2057499145449
 20
367.99836541372235
 40
9
  0
LINE
  8
_1-2_極細2
  6
CENTER1
 62
    2
 10
1505.7666576047395
 20
375.02805366178166
 11
1474.8722167025094
 21
361.91414153790913
  0
LINE
  8
_1-2_極細2
  6
DASHED2
 62
    2
 10
1535.9979920943597
 20
310.62027097951716
 11
1501.241015928354
 21
310.62027097951716
  0
LINE
  8
_1-2_極細2
  6
DASHED2
 62
    2
 10
1501.3989095768848
 20
391.09900084759522
 11
1535.6269564325439
 21
310.46277568516109
  0
LINE
  8
_1-2_極細2
  6
CONTINUOUS
 62
    2
 10
1366.879976236964
 20
313.02027097951679
 11
1392.679975957964
 21
313.0202709795177
  0
LINE
  8
_1-2_極細2
  6
CONTINUOUS
 62
    2
 10
1364.7799762579643
 20
315.1202709795167
 11
1394.7799759579634
 21
315.1202709795167
  0
LINE
  8
_1-2_極細2
  6
CONTINUOUS
 62
    2
 10
1364.7799762579643
 20
291.12027121951735
 11
1364.7799762579643
 21
315.12027097951716
  0
LINE
  8
_1-2_極細2
  6
CONTINUOUS
 62
    2
 10
1366.879976236964
 20
291.12027121951735
 11
1366.879976236964
 21
313.0202709795177
  0
LINE
  8
_1-2_極細2
  6
CONTINUOUS
 62
    2
 10
1364.7799762579643
 20
291.12027121951735
 11
1366.879976236964
 21
291.12027121951735
  0
LINE
  8
_1-2_極細2
  6
CONTINUOUS
 62
    2
 10
1540.241015928354
 20
260.22027157951754
 11
1540.241015928354
 21
262.32027157951791
  0
LINE
  8
_1-2_極細2
  6
CONTINUOUS
 62
    2
 10
1501.241015928354
 20
280.14122203476825
 11
1501.241015928354
 21
262.32027097951743
  0
LINE
  8
_1-2_極細2
  6
CONTINUOUS
 62
    2
 10
1420.241015928354
 20
262.32027157951791
 11
1420.241015928354
 21
260.22027157951754
  0
LINE
  8
_1-2_極細2
  6
CONTINUOUS
 62
    2
 10
1420.241015928354
 20
262.32027157951791
 11
1540.2410145183539
 21
262.32027157951791
  0
LINE
  8
_1-2_極細2
  6
CONTINUOUS
 62
    2
 10
1420.241015928354
 20
260.22027157951754
 11
1540.2410145183539
 21
260.22027157951754
  0
LINE
  8
_1-2_極細2
  6
CONTINUOUS
 62
    2
 10
1421.7799759579634
 20
262.32027157951791
 11
1463.7799759579634
 21
262.32027157951791
  0
LINE
  8
_1-2_極細2
  6
CONTINUOUS
 62
    2
 10
1392.679975957964
 20
313.0202709795177
 11
1392.679975957964
 21
255.12027157951763
  0
LINE
  8
_1-2_極細2
  6
CONTINUOUS
 62
    2
 10
1394.7799759579634
 20
315.12027097951716
 11
1394.7799759579634
 21
257.22027157951754
  0
LINE
  8
_1-2_極細2
  6
DASHED2
 62
    2
 10
1501.241015928354
 20
310.62027097951716
 11
1501.241015928354
 21
280.14122203476825
  0
LINE
  8
_1-5_寸法2
  6
CONTINUOUS
 62
    7
 10
1468.3826403544476
 20
332.37075741922092
 11
1457.6077006499763
 21
327.08864852551335
  0
ARC
  8
_1-5_寸法2
  6
CONTINUOUS
 62
    7
 10
1517.741015928354
 20
275.82027097951743
 40
75.061353277580906
 50
131.11509464913786
 51
160.1952802838328
  0
LINE
  8
_1-5_寸法2
  6
CONTINUOUS
 62
    7
 10
1447.1193268440902
 20
301.25221519830359
 11
1448.1244459889217
 21
313.2100467535937
  0
LINE
  8
_1-5_寸法2
  6
CONTINUOUS
 62
    7
 10
1447.1193268440902
 20
301.25221519830359
 11
1453.968701334989
 21
311.10544152694422
  0
LINE
  8
_1-5_寸法2
  6
CONTINUOUS
 62
    7
 10
1468.3826403544476
 20
332.37075741922092
 11
1461.6923232929835
 21
322.40884707947828
  0
LINE
  8
_1-3_細線2
  6
CONTINUOUS
 62
    4
 10
1540.6277929986568
 20
287.16467203617242
 11
1531.4846845920088
 21
308.70448560695934
  0
LINE
  8
_1-3_細線2
  6
CONTINUOUS
 62
    4
 10
1466.6318186863086
 20
361.67538123670386
 11
1505.3142004067458
 21
270.54540074491217
  0
ARC
  8
_1-3_細線2
  6
CONTINUOUS
 62
    4
 10
1517.741015928354
 20
275.82027097951743
 40
13.5
 50
202.99999999999858
 51
292.99999999999983
  0
LINE
  8
_1-3_細線2
  6
CONTINUOUS
 62
    4
 10
1523.0158861629593
 20
263.39345545790923
 11
1532.6811871242094
 21
267.49613230704665
  0
ARC
  8
_1-3_細線2
  6
CONTINUOUS
 62
    4
 10
1526.8202201968702
 20
281.30370510883324
 40
15
 50
292.99999999999989
 51
22.999999999998316
  0
LINE
  8
_1-3_細線2
  6
CONTINUOUS
 62
    4
 10
1538.3884709929021
 20
311.63496907062893
 11
1504.1604241372415
 21
392.27119423306306
  0
LINE
  8
_1-3_細線2
  6
CONTINUOUS
 62
    4
 10
1531.4846845920088
 20
308.70448560695934
 11
1538.3884709929021
 21
311.63496907062893
  0
LINE
  8
_1-3_細線2
  6
CONTINUOUS
 62
    4
 10
1504.1604241372415
 20
392.27119423306306
 11
1473.7837639733102
 21
379.37706699291687
  0
CIRCLE
  8
_1-3_細線2
  6
CONTINUOUS
 62
    4
 10
1489.2057499145449
 20
367.99836541372235
 40
5.25
  0
ARC
  8
_1-3_細線2
  6
CONTINUOUS
 62
    4
 10
1479.0586342079155
 20
366.95025147130912
 40
13.5
 50
113.00000000000109
 51
202.99999999999881
  0
CIRCLE
  8
_1-3_細線2
  6
CONTINUOUS
 62
    4
 10
1489.2057499145449
 20
367.99836541372235
 40
13.5
  0
LINE
  8
_1-2_極細2
  6
CONTINUOUS
 62
    2
 10
1586.9079882565441
 20
310.62027097951716
 11
1535.9979920943597
 21
310.62027097951716
  0
LINE
  8
_1-2_極細2
  6
CONTINUOUS
 62
    2
 10
1394.7799759579634
 20
257.22027157951754
 11
1603.9610160142254
 21
257.22027157951754
  0
LINE
  8
_1-2_極細2
  6
CONTINUOUS
 62
    2
 10
1392.679975957964
 20
255.12027157951763
 11
1603.5422600215622
 21
255.12027157951763
  0
LINE
  8
_1-2_極細2
  6
CONTINUOUS
 62
    2
 10
1501.241015928354
 20
262.32027097951743
 11
1604.3693776720118
 21
262.32027097951743
  0
LINE
  8
_1-2_極細2
  6
CONTINUOUS
 62
    2
 10
1594.0544132198754
 20
325.43973493771421
 11
1593.9459719451872
 21
325.24823867551697
  0
LINE
  8
_1-2_極細2
  6
CONTINUOUS
 62
    2
 10
1593.9459719451872
 20
325.24823867551697
 11
1593.6237610199512
 21
324.67896920515852
  0
LINE
  8
_1-2_極細2
  6
CONTINUOUS
 62
    2
 10
1593.6237610199512
 20
324.67896920515852
 11
1593.0979060563293
 21
323.74741845291294
  0
LINE
  8
_1-2_極細2
  6
CONTINUOUS
 62
    2
 10
1593.0979060563293
 20
323.74741845291294
 11
1592.3875759832415
 21
322.47886579106296
  0
LINE
  8
_1-2_極細2
  6
CONTINUOUS
 62
    2
 10
1592.3875759832415
 20
322.47886579106296
 11
1591.5233609964578
 21
320.90760978169158
  0
LINE
  8
_1-2_極細2
  6
CONTINUOUS
 62
    2
 10
1591.5233609964578
 20
320.90760978169158
 11
1590.5487933523716
 21
319.07596870323925
  0
LINE
  8
_1-2_極細2
  6
CONTINUOUS
 62
    2
 10
1590.5487933523716
 20
319.07596870323925
 11
1589.5198536318069
 21
317.03310739750452
  0
LINE
  8
_1-2_極細2
  6
CONTINUOUS
 62
    2
 10
1589.5198536318069
 20
317.03310739750452
 11
1588.5017121894323
 21
314.83374315857793
  0
LINE
  8
_1-2_極細2
  6
CONTINUOUS
 62
    2
 10
1588.5017121894323
 20
314.83374315857793
 11
1587.5626318072875
 21
312.53677038234594
  0
LINE
  8
_1-2_極細2
  6
CONTINUOUS
 62
    2
 10
1587.5626318072875
 20
312.53677038234594
 11
1586.7657380313415
 21
310.20382683774926
  0
LINE
  8
_1-2_極細2
  6
CONTINUOUS
 62
    2
 10
1586.7657380313415
 20
310.20382683774926
 11
1586.1600489555369
 21
307.89780899932259
  0
LINE
  8
_1-2_極細2
  6
CONTINUOUS
 62
    2
 10
1586.1600489555369
 20
307.89780899932259
 11
1585.7725620046992
 21
305.68133480884433
  0
LINE
  8
_1-2_極細2
  6
CONTINUOUS
 62
    2
 10
1585.7725620046992
 20
305.68133480884433
 11
1585.6031987610984
 21
303.6151527909384
  0
LINE
  8
_1-2_極細2
  6
CONTINUOUS
 62
    2
 10
1585.6031987610984
 20
303.6151527909384
 11
1585.623981130422
 21
301.75650740071944
  0
LINE
  8
_1-2_極細2
  6
CONTINUOUS
 62
    2
 10
1585.623981130422
 20
301.75650740071944
 11
1585.7830280750929
 21
300.15748981617924
  0
LINE
  8
_1-2_極細2
  6
CONTINUOUS
 62
    2
 10
1585.7830280750929
 20
300.15748981617924
 11
1586.0129855436865
 21
298.86342671319392
  0
LINE
  8
_1-2_極細2
  6
CONTINUOUS
 62
    2
 10
1586.0129855436865
 20
298.86342671319392
 11
1586.242548986769
 21
297.91138110597797
  0
LINE
  8
_1-2_極細2
  6
CONTINUOUS
 62
    2
 10
1586.242548986769
 20
297.91138110597797
 11
1586.4090260273676
 21
297.32885330236184
  0
LINE
  8
_1-2_極細2
  6
CONTINUOUS
 62
    2
 10
1586.4090260273676
 20
297.32885330236184
 11
1586.4695853537717
 21
297.13277197475088
  0
LINE
  8
_1-2_極細2
  6
CONTINUOUS
 62
    2
 10
1586.4695853537717
 20
297.13277197475088
 11
1586.5324574774534
 21
296.93662766030059
  0
LINE
  8
_1-2_極細2
  6
CONTINUOUS
 62
    2
 10
1586.5324574774534
 20
296.93662766030059
 11
1586.7327492527945
 21
296.35316766591507
  0
LINE
  8
_1-2_極細2
  6
CONTINUOUS
 62
    2
 10
1586.7327492527945
 20
296.35316766591507
 11
1587.1019186645665
 21
295.39718417353936
  0
LINE
  8
_1-2_極細2
  6
CONTINUOUS
 62
    2
 10
1587.1019186645665
 20
295.39718417353936
 11
1587.681384667186
 21
294.09291877633734
  0
LINE
  8
_1-2_極細2
  6
CONTINUOUS
 62
    2
 10
1587.681384667186
 20
294.09291877633734
 11
1588.50888766093
 21
292.4734771598479
  0
LINE
  8
_1-2_極細2
  6
CONTINUOUS
 62
    2
 10
1588.50888766093
 20
292.4734771598479
 11
1589.6044302457669
 21
290.58006565844073
  0
LINE
  8
_1-2_極細2
  6
CONTINUOUS
 62
    2
 10
1589.6044302457669
 20
290.58006565844073
 11
1590.9593358589048
 21
288.4610862895039
  0
LINE
  8
_1-2_極細2
  6
CONTINUOUS
 62
    2
 10
1590.9593358589048
 20
288.4610862895039
 11
1592.5312440804535
 21
286.1711159400096
  0
LINE
  8
_1-2_極細2
  6
CONTINUOUS
 62
    2
 10
1592.5312440804535
 20
286.1711159400096
 11
1594.2464565866674
 21
283.76977768461359
  0
LINE
  8
_1-2_極細2
  6
CONTINUOUS
 62
    2
 10
1594.2464565866674
 20
283.76977768461359
 11
1596.0092949002399
 21
281.32049342020366
  0
LINE
  8
_1-2_極細2
  6
CONTINUOUS
 62
    2
 10
1596.0092949002399
 20
281.32049342020366
 11
1597.7164524437046
 21
278.8890936345723
  0
LINE
  8
_1-2_極細2
  6
CONTINUOUS
 62
    2
 10
1597.7164524437046
 20
278.8890936345723
 11
1599.2731236199536
 21
276.54225785786082
  0
LINE
  8
_1-2_極細2
  6
CONTINUOUS
 62
    2
 10
1599.2731236199536
 20
276.54225785786082
 11
1600.6072612755268
 21
274.34577141612192
  0
LINE
  8
_1-2_極細2
  6
CONTINUOUS
 62
    2
 10
1600.6072612755268
 20
274.34577141612192
 11
1601.6787555209846
 21
272.36261029031232
  0
LINE
  8
_1-2_極細2
  6
CONTINUOUS
 62
    2
 10
1601.6787555209846
 20
272.36261029031232
 11
1602.4815358042536
 21
270.65090226223299
  0
LINE
  8
_1-2_極細2
  6
CONTINUOUS
 62
    2
 10
1602.4815358042536
 20
270.65090226223299
 11
1603.0382838145968
 21
269.26185216360966
  0
LINE
  8
_1-2_極細2
  6
CONTINUOUS
 62
    2
 10
1603.0382838145968
 20
269.26185216360966
 11
1603.3892017992587
 21
268.23775341795147
  0
LINE
  8
_1-2_極細2
  6
CONTINUOUS
 62
    2
 10
1603.3892017992587
 20
268.23775341795147
 11
1603.5776865379864
 21
267.61022896303177
  0
LINE
  8
_1-2_極細2
  6
CONTINUOUS
 62
    2
 10
1603.5776865379864
 20
267.61022896303177
 11
1603.636475491169
 21
267.39884604882502
  0
LINE
  8
_1-2_極細2
  6
CONTINUOUS
 62
    2
 10
1603.636475491169
 20
267.39884604882502
 11
1603.6928956393074
 21
267.18731709762926
  0
LINE
  8
_1-2_極細2
  6
CONTINUOUS
 62
    2
 10
1603.6928956393074
 20
267.18731709762926
 11
1603.8467406970483
 21
266.55764609218534
  0
LINE
  8
_1-2_極細2
  6
CONTINUOUS
 62
    2
 10
1603.8467406970483
 20
266.55764609218534
 11
1604.0545988014767
 21
265.52459505831769
  0
LINE
  8
_1-2_極細2
  6
CONTINUOUS
 62
    2
 10
1604.0545988014767
 20
265.52459505831769
 11
1604.2530062414442
 21
264.11278564551469
  0
LINE
  8
_1-2_極細2
  6
CONTINUOUS
 62
    2
 10
1604.2530062414442
 20
264.11278564551469
 11
1604.3699478544961
 21
262.35662882410622
  0
LINE
  8
_1-2_極細2
  6
CONTINUOUS
 62
    2
 10
1604.3699478544961
 20
262.35662882410622
 11
1604.3376956111777
 21
260.30005556494746
  0
LINE
  8
_1-2_極細2
  6
CONTINUOUS
 62
    2
 10
1604.3376956111777
 20
260.30005556494746
 11
1604.1045753348455
 21
257.99592906154851
  0
LINE
  8
_1-2_極細2
  6
CONTINUOUS
 62
    2
 10
1604.1045753348455
 20
257.99592906154851
 11
1603.643560469636
 21
255.50504495886037
  0
LINE
  8
_1-2_極細2
  6
CONTINUOUS
 62
    2
 10
1603.643560469636
 20
255.50504495886037
 11
1602.9563209834148
 21
252.89467684538303
  0
LINE
  8
_1-2_極細2
  6
CONTINUOUS
 62
    2
 10
1602.9563209834148
 20
252.89467684538303
 11
1602.0723318862763
 21
250.23668913698941
  0
LINE
  8
_1-2_極細2
  6
CONTINUOUS
 62
    2
 10
1602.0723318862763
 20
250.23668913698941
 11
1601.0436461309657
 21
247.60530455547166
  0
LINE
  8
_1-2_極細2
  6
CONTINUOUS
 62
    2
 10
1601.0436461309657
 20
247.60530455547166
 11
1599.9367397289195
 21
245.07466497711823
  0
LINE
  8
_1-2_極細2
  6
CONTINUOUS
 62
    2
 10
1599.9367397289195
 20
245.07466497711823
 11
1598.8232750180589
 21
242.71635211308791
  0
LINE
  8
_1-2_極細2
  6
CONTINUOUS
 62
    2
 10
1598.8232750180589
 20
242.71635211308791
 11
1597.7716244219516
 21
240.59703354129334
  0
LINE
  8
_1-2_極細2
  6
CONTINUOUS
 62
    2
 10
1597.7716244219516
 20
240.59703354129334
 11
1596.8405813930738
 21
238.77637188346409
  0
LINE
  8
_1-2_極細2
  6
CONTINUOUS
 62
    2
 10
1596.8405813930738
 20
238.77637188346409
 11
1596.0759832990823
 21
237.30528821037535
  0
LINE
  8
_1-2_極細2
  6
CONTINUOUS
 62
    2
 10
1596.0759832990823
 20
237.30528821037535
 11
1595.5101715696976
 21
236.22461677819484
  0
LINE
  8
_1-2_極細2
  6
CONTINUOUS
 62
    2
 10
1595.5101715696976
 20
236.22461677819484
 11
1595.163521624989
 21
235.56413964547491
  0
LINE
  8
_1-2_極細2
  6
CONTINUOUS
 62
    2
 10
1595.163521624989
 20
235.56413964547491
 11
1595.0468580015374
 21
235.34195715993621
  0
LINE
  8
_1-5_寸法2
  6
CONTINUOUS
 62
    7
 10
1546.4887599259964
 20
273.35709923438606
 11
1611.3843522978486
 21
300.90364387925018
  0
LINE
  8
_1-5_寸法2
  6
CONTINUOUS
 62
    7
 10
1608.6228377374916
 20
299.73145049378206
 11
1603.0818844595603
 21
306.82354727624249
  0
LINE
  8
_1-5_寸法2
  6
CONTINUOUS
 62
    7
 10
1608.6228377374916
 20
299.73145049378206
 11
1607.3702798288509
 21
308.64386311245619
  0
LINE
  8
_1-5_寸法2
  6
CONTINUOUS
 62
    7
 10
1517.9679969390288
 20
398.13216116040246
 11
1562.1522301082
 21
416.88725541425487
  0
LINE
  8
_1-5_寸法2
  6
CONTINUOUS
 62
    7
 10
1559.3907155478428
 20
415.71506202878669
 11
1564.9316688257738
 21
408.62296524632632
  0
LINE
  8
_1-5_寸法2
  6
CONTINUOUS
 62
    7
 10
1559.3907155478428
 20
415.71506202878669
 11
1560.6432734564837
 21
406.80264941011262
  0
LINE
  8
_1-5_寸法2
  6
CONTINUOUS
 62
    7
 10
1608.6228377374916
 20
299.73145049378206
 11
1559.3907155478428
 21
415.71506202878669
  0
TEXT
  8
_1-5_寸法2
 62
    7
 10
1580.4901964862638
 20
366.00779994235631
 40
18
 41
1
 50
-66.999999999999744
  1
42
  0
LINE
  8
_1-5_寸法2
  6
CONTINUOUS
 62
    7
 10
1460.7708517589699
 20
375.4829540384909
 11
1436.740887324233
 21
432.09400260274742
  0
LINE
  8
_1-5_寸法2
  6
CONTINUOUS
 62
    7
 10
1437.9130807097004
 20
429.33248804238997
 11
1445.0051774921608
 21
434.87344132032092
  0
LINE
  8
_1-5_寸法2
  6
CONTINUOUS
 62
    7
 10
1437.9130807097004
 20
429.33248804238997
 11
1446.8254933283745
 21
430.58504595103057
  0
LINE
  8
_1-5_寸法2
  6
CONTINUOUS
 62
    7
 10
1498.299457209903
 20
406.07876703484982
 11
1479.5443630097693
 21
450.26300007749819
  0
LINE
  8
_1-5_寸法2
  6
CONTINUOUS
 62
    7
 10
1480.7165563952369
 20
447.50148551714074
 11
1473.6244596127763
 21
441.96053223920967
  0
LINE
  8
_1-5_寸法2
  6
CONTINUOUS
 62
    7
 10
1480.7165563952369
 20
447.50148551714074
 11
1471.8041437765628
 21
446.24892760850003
  0
LINE
  8
_1-5_寸法2
  6
CONTINUOUS
 62
    7
 10
1437.9130807097004
 20
429.33248804238997
 11
1480.7165563952369
 21
447.50148551714074
  0
TEXT
  8
_1-5_寸法2
 62
    7
 10
1442.7457311903249
 20
431.38382646695834
 40
18
 41
1
 50
23.000000000000313
  1
15.5
  0
LINE
  8
_1-2_極細2
  6
CENTER1
 62
    2
 10
1503.3557205645579
 20
277.78712511901153
 11
1532.0881211133719
 21
277.78712511901153
  0
LINE
  8
_1-2_極細2
  6
CENTER1
 62
    2
 10
1518.5356765315023
 20
262.78465747119003
 11
1518.5356765315023
 21
292.34737047237763
  0
CIRCLE
  8
_1-2_極細2
  6
CONTINUOUS
 62
    2
 10
1518.5356765315023
 20
277.78712521328953
 40
10.350000000000001
  0
CIRCLE
  8
_1-3_細線2
  6
CONTINUOUS
 62
    4
 10
1518.5356765315023
 20
277.78712521328953
 40
10.800000000000001
  0
TEXT
  8
_0-7_枠細線
 62
    5
 10
1546.4986510791352
 20
480.0797415596212
 40
24
 41
0.6000000000000002
 50
0
  1
Ｓ＝１：２
  0
TEXT
  8
_0-7_枠細線
 62
    5
 10
1414.7721975320137
 20
480.0797415596212
 40
24
 41
0.8
 50
0
  1
Ｂ部詳細図
  0
LINE
  8
_1-5_寸法2
  6
CONTINUOUS
 62
    7
 10
1500.479575161653
 20
382.58937748564733
 11
1503.5854037028835
 21
394.18048740111607
  0
LINE
  8
_1-5_寸法2
  6
CONTINUOUS
 62
    7
 10
1500.479575161653
 20
382.58937748564733
 11
1508.9648565358916
 21
391.07465885988591
  0
LINE
  8
_1-5_寸法2
  6
CONTINUOUS
 62
    7
 10
1500.479575161653
 20
382.58937748564733
 11
1527.1770595390401
 21
428.83077686155809
  0
LINE
  8
_1-5_寸法2
  6
CONTINUOUS
 62
    7
 10
1527.1770595390401
 20
428.83077686155809
 11
1584.7770595390396
 21
428.83077686155809
  0
TEXT
  8
_1-5_寸法2
 62
    7
 10
1527.1770595390401
 20
428.83077686155809
 40
18
 41
0.7999999999999998
 50
0
  1
取外し具
  0
LINE
  8
_0-7_枠細線
  6
CONTINUOUS
 62
    5
 10
1050
 20
212.9999999999994
 11
1050
 21
87
  0
TEXT
  8
_0-7_枠細線
 62
    5
 10
940.80000000000109
 20
188.9999999999994
 40
18.000000000000004
 41
0.8
 50
0
  1
ノンスリップ
  0
LINE
  8
_0-7_枠細線
  6
CONTINUOUS
 62
    5
 10
929.91325000540758
 20
125.70332598028932
 11
1043.769833994023
 21
125.70332598028932
  0
LINE
  8
_0-7_枠細線
  6
CONTINUOUS
 62
    5
 10
925.43101800585521
 20
145.7033259782894
 11
1039.2876019944708
 21
145.7033259782894
  0
ARC
  8
_0-7_枠細線
  6
CONTINUOUS
 62
    5
 10
943.00000000409932
 20
131.70332597968931
 40
3.9999999996
 50
51.317813000006808
 51
203.57817800000188
  0
ARC
  8
_0-7_枠細線
  6
CONTINUOUS
 62
    5
 10
948.00000000359921
 20
137.94832397906495
 40
3.9999999996
 50
231.3178130000006
 51
308.68218699999613
  0
LINE
  8
_0-7_枠細線
  6
CONTINUOUS
 62
    5
 10
939.33394000446617
 20
130.10332597984936
 11
956.66606000273225
 21
130.10332597984936
  0
ARC
  8
_0-7_枠細線
  6
CONTINUOUS
 62
    5
 10
953.00000000309944
 20
131.70332597968931
 40
3.9999999996
 50
336.42182199999411
 51
128.6821869999992
  0
ARC
  8
_0-7_枠細線
  6
CONTINUOUS
 62
    5
 10
979.00000000049943
 20
139.70332597888932
 40
3.9999999996
 50
156.42182199999701
 51
308.6821869999946
  0
ARC
  8
_0-7_枠細線
  6
CONTINUOUS
 62
    5
 10
983.99999999999932
 20
133.45832797951368
 40
3.9999999996
 50
51.317813000007824
 51
128.68218699999727
  0
ARC
  8
_0-7_枠細線
  6
CONTINUOUS
 62
    5
 10
988.99999999949955
 20
139.70332597888932
 40
3.9999999996
 50
231.31781299999577
 51
23.578178000004584
  0
LINE
  8
_0-7_枠細線
  6
CONTINUOUS
 62
    5
 10
975.33394000086662
 20
141.30332597872928
 11
992.66605999913202
 21
141.30332597872928
  0
LINE
  8
_0-7_枠細線
  6
CONTINUOUS
 62
    5
 10
1011.3339399972664
 20
130.10332597984936
 11
1028.6660599955326
 21
130.10332597984936
  0
ARC
  8
_0-7_枠細線
  6
CONTINUOUS
 62
    5
 10
1014.9999999968992
 20
131.70332597968931
 40
3.9999999996
 50
51.317813000005536
 51
203.57817800000188
  0
ARC
  8
_0-7_枠細線
  6
CONTINUOUS
 62
    5
 10
1019.9999999963991
 20
137.94832397906495
 40
3.9999999996
 50
231.31781300000188
 51
308.68218699999869
  0
ARC
  8
_0-7_枠細線
  6
CONTINUOUS
 62
    5
 10
1024.9999999958993
 20
131.70332597968931
 40
3.9999999996
 50
336.4218219999961
 51
128.68218699999792
  0
ARC
  8
_0-7_枠細線
  6
CONTINUOUS
 62
    5
 10
979.00000000049943
 20
139.70332597888932
 40
7.4599999992540358
 50
151.14636799999636
 51
308.68218700000426
  0
LINE
  8
_0-7_枠細線
  6
CONTINUOUS
 62
    5
 10
924.99149400590011
 20
143.3033259785293
 11
972.46612000115158
 21
143.3033259785293
  0
LINE
  8
_0-7_枠細線
  6
CONTINUOUS
 62
    5
 10
959.53388200244558
 20
128.10332598004942
 11
1008.4661199975537
 21
128.10332598004942
  0
ARC
  8
_0-7_枠細線
  6
CONTINUOUS
 62
    5
 10
920.06447800639296
 20
128.74723197998475
 40
10.308427998969092
 50
317.5616289999993
 51
42.438371000002093
  0
ARC
  8
_0-7_枠細線
  6
CONTINUOUS
 62
    5
 10
943.00000000409932
 20
131.70332597968931
 40
7.4599999992540358
 50
51.317812999992654
 51
208.85363199999745
  0
ARC
  8
_0-7_枠細線
  6
CONTINUOUS
 62
    5
 10
935.27979200487084
 20
142.6594199785938
 40
10.308427998969092
 50
137.56162899999987
 51
222.43837100000141
  0
LINE
  8
_0-7_枠細線
  6
CONTINUOUS
 62
    5
 10
930.35277600536369
 20
128.10332598004942
 11
936.46612000475182
 21
128.10332598004942
  0
ARC
  8
_0-7_枠細線
  6
CONTINUOUS
 62
    5
 10
948.00000000359921
 20
137.94832397906495
 40
0.5399999999459634
 50
231.31781300002865
 51
308.68218699999886
  0
ARC
  8
_0-7_枠細線
  6
CONTINUOUS
 62
    5
 10
953.00000000309944
 20
131.70332597968931
 40
7.4599999992540358
 50
331.14636800000056
 51
128.68218700000699
  0
ARC
  8
_0-7_枠細線
  6
CONTINUOUS
 62
    5
 10
1033.9210619950081
 20
128.74723197998475
 40
10.308427998969092
 50
317.56162899999799
 51
42.438371000002093
  0
ARC
  8
_0-7_枠細線
  6
CONTINUOUS
 62
    5
 10
1049.1363759934866
 20
142.6594199785938
 40
10.308427998969092
 50
137.56162900000288
 51
222.43837100000013
  0
LINE
  8
_0-7_枠細線
  6
CONTINUOUS
 62
    5
 10
1031.5338819952453
 20
128.10332598004942
 11
1044.2093599939794
 21
128.10332598004942
  0
LINE
  8
_0-7_枠細線
  6
CONTINUOUS
 62
    5
 10
995.53388199884569
 20
143.3033259785293
 11
1038.8480779945153
 21
143.3033259785293
  0
ARC
  8
_0-7_枠細線
  6
CONTINUOUS
 62
    5
 10
1014.9999999968992
 20
131.70332597968931
 40
7.4599999992540358
 50
51.317812999993329
 51
208.85363200000538
  0
ARC
  8
_0-7_枠細線
  6
CONTINUOUS
 62
    5
 10
983.99999999999932
 20
133.45832797951368
 40
0.5399999999459634
 50
51.317813000032764
 51
128.68218699999548
  0
ARC
  8
_0-7_枠細線
  6
CONTINUOUS
 62
    5
 10
988.99999999949955
 20
139.70332597888932
 40
7.4599999992540358
 50
231.31781299999028
 51
28.853631999998139
  0
ARC
  8
_0-7_枠細線
  6
CONTINUOUS
 62
    5
 10
1019.9999999963991
 20
137.94832397906495
 40
0.5399999999459634
 50
231.31781300002865
 51
308.6821870000083
  0
ARC
  8
_0-7_枠細線
  6
CONTINUOUS
 62
    5
 10
1024.9999999958993
 20
131.70332597968931
 40
7.4599999992540358
 50
331.14636800000056
 51
128.68218700000631
  0
LINE
  8
_0-7_枠細線
  6
CENTER1
 62
    5
 10
948.00000000359921
 20
147.38307197812114
 11
948.00000000359921
 21
124.16529398044315
  0
LINE
  8
_0-7_枠細線
  6
CENTER1
 62
    5
 10
1019.9999999963991
 20
147.38307197812114
 11
1019.9999999963991
 21
124.16529398044315
  0
LINE
  8
_0-7_枠細線
  6
CENTER1
 62
    5
 10
983.99999999999932
 20
147.38307197812114
 11
983.99999999999932
 21
124.16529398044315
  0
LINE
  8
_0-7_枠細線
  6
CONTINUOUS
 62
    5
 10
948.00000000359921
 20
119.70332598028932
 11
948.00000000359921
 21
89.703325980289321
  0
LINE
  8
_0-7_枠細線
  6
CONTINUOUS
 62
    5
 10
948.00000000359921
 20
95.703325980289321
 11
959.591109919068
 21
98.809154521519645
  0
LINE
  8
_0-7_枠細線
  6
CONTINUOUS
 62
    5
 10
948.00000000359921
 20
95.703325980289321
 11
959.591109919068
 21
92.597497439059083
  0
LINE
  8
_0-7_枠細線
  6
CONTINUOUS
 62
    5
 10
983.99999999999932
 20
119.70332598028932
 11
983.99999999999932
 21
89.703325980289321
  0
LINE
  8
_0-7_枠細線
  6
CONTINUOUS
 62
    5
 10
983.99999999999932
 20
95.703325980289321
 11
972.40889008453053
 21
92.597497439059168
  0
LINE
  8
_0-7_枠細線
  6
CONTINUOUS
 62
    5
 10
983.99999999999932
 20
95.703325980289321
 11
972.40889008453053
 21
98.809154521519645
  0
LINE
  8
_0-7_枠細線
  6
CONTINUOUS
 62
    5
 10
948.00000000359921
 20
95.703325980289321
 11
983.99999999999932
 21
95.703325980289321
  0
TEXT
  8
_0-7_枠細線
 62
    5
 10
957.00000000179909
 20
95.703325980289321
 40
18
 41
1
 50
0
  1
18
  0
LINE
  8
_0-7_枠細線
  6
CONTINUOUS
 62
    5
 10
983.99999999999932
 20
95.703325980289321
 11
995.59110991546811
 21
98.809154521519474
  0
LINE
  8
_0-7_枠細線
  6
CONTINUOUS
 62
    5
 10
983.99999999999932
 20
95.703325980289321
 11
995.59110991546811
 21
92.597497439058998
  0
LINE
  8
_0-7_枠細線
  6
CONTINUOUS
 62
    5
 10
1019.9999999963991
 20
119.70332598028932
 11
1019.9999999963991
 21
89.703325980289321
  0
LINE
  8
_0-7_枠細線
  6
CONTINUOUS
 62
    5
 10
1019.9999999963991
 20
95.703325980289321
 11
1008.4088900809303
 21
92.597497439059168
  0
LINE
  8
_0-7_枠細線
  6
CONTINUOUS
 62
    5
 10
1019.9999999963991
 20
95.703325980289321
 11
1008.4088900809303
 21
98.809154521519645
  0
LINE
  8
_0-7_枠細線
  6
CONTINUOUS
 62
    5
 10
983.99999999999932
 20
95.703325980289321
 11
1019.9999999963991
 21
95.703325980289321
  0
TEXT
  8
_0-7_枠細線
 62
    5
 10
992.99999999819954
 20
95.703325980289321
 40
18
 41
1
 50
0
  1
18
  0
TEXT
  8
_0-7_枠細線
 62
    5
 10
955.2000000000005
 20
158.99999999999949
 40
18.000000000000004
 41
0.7999999999999997
 50
0
  1
品番－Ｄ
  0
LINE
  8
_0-7_枠細線
  6
CONTINUOUS
 62
    5
 10
917.99999999999966
 20
212.9999999999994
 11
917.99999999999966
 21
87
  0
TEXT
  8
_0-7_枠細線
 62
    5
 10
823.19999999999925
 20
188.99999999999949
 40
18.000000000000004
 41
0.8
 50
0
  1
プレーン
  0
LINE
  8
_0-7_枠細線
  6
CONTINUOUS
 62
    5
 10
797.31282300546752
 20
125.70332598028932
 11
911.16940699408281
 21
125.70332598028932
  0
LINE
  8
_0-7_枠細線
  6
CONTINUOUS
 62
    5
 10
792.83059100591549
 20
145.7033259782894
 11
906.68717499453112
 21
145.7033259782894
  0
ARC
  8
_0-7_枠細線
  6
CONTINUOUS
 62
    5
 10
901.32063499506683
 20
128.74723197998475
 40
10.308427998969092
 50
317.5616290000047
 51
42.438370999995726
  0
ARC
  8
_0-7_枠細線
  6
CONTINUOUS
 62
    5
 10
787.46405100645291
 20
128.74723197998475
 40
10.308427998969206
 50
317.5616289999997
 51
42.438371000000764
  0
LINE
  8
_0-7_枠細線
  6
CONTINUOUS
 62
    5
 10
792.39106700596005
 20
143.3033259785293
 11
906.24765099457568
 21
143.3033259785293
  0
LINE
  8
_0-7_枠細線
  6
CONTINUOUS
 62
    5
 10
797.75234900542398
 20
128.10332598004942
 11
911.60893299403892
 21
128.10332598004942
  0
ARC
  8
_0-7_枠細線
  6
CONTINUOUS
 62
    5
 10
802.67936500493249
 20
142.6594199785938
 40
10.308427998969206
 50
137.56162900000027
 51
222.43837100000314
  0
ARC
  8
_0-7_枠細線
  6
CONTINUOUS
 62
    5
 10
916.53594899354607
 20
142.6594199785938
 40
10.308427998969092
 50
137.56162899999987
 51
222.43837100000266
  0
TEXT
  8
_0-7_枠細線
 62
    5
 10
823.2000000000005
 20
158.99999999999949
 40
18.000000000000004
 41
0.7999999999999997
 50
0
  1
品番－Ｆ
  0
TEXT
  8
_0-7_枠細線
 62
    5
 10
727.19999999999993
 20
188.9999999999994
 40
18.000000000000004
 41
0.8
 50
0
  1
タ イ プ
  0
LINE
  8
_0-7_枠細線
  6
CONTINUOUS
 62
    5
 10
725.99999999999909
 20
152.99999999999949
 11
1050
 21
152.99999999999949
  0
LINE
  8
_0-7_枠細線
  6
CONTINUOUS
 62
    5
 10
725.99999999999909
 20
182.9999999999994
 11
1050
 21
182.9999999999994
  0
LINE
  8
_0-7_枠細線
  6
CONTINUOUS
 62
    5
 10
725.99999999999909
 20
212.9999999999994
 11
1050
 21
212.9999999999994
  0
LINE
  8
_0-7_枠細線
  6
CONTINUOUS
 62
    5
 10
725.99999999999909
 20
87
 11
1050
 21
87
  0
LINE
  8
_0-7_枠細線
  6
CONTINUOUS
 62
    5
 10
786
 20
212.9999999999994
 11
786
 21
87
  0
LINE
  8
_0-7_枠細線
  6
CONTINUOUS
 62
    5
 10
725.99999999999909
 20
212.9999999999994
 11
725.99999999999909
 21
87
  0
TEXT
  8
_0-7_枠細線
 62
    5
 10
727.19999999999993
 20
110.99999999999974
 40
18.000000000000004
 41
0.8
 50
0
  1
表面形状
  0
TEXT
  8
_0-7_枠細線
 62
    5
 10
735.32905360897257
 20
215.99999999999949
 40
21.000000000000004
 41
0.7999999999999997
 50
0
  1
記号表
  0
TEXT
  8
_0-7_枠細線
 62
    5
 10
727.19999999999993
 20
158.99999999999966
 40
18.000000000000004
 41
0.8
 50
0
  1
記　　号
  0
ARC
  8
_0-1_計細線
  6
CONTINUOUS
 62
    3
 10
778.39040756597331
 20
893.15414861101135
 40
32.499868667505325
 50
269.99999999999977
 51
89.999999999999545
  0
LINE
  8
_0-1_計細線
  6
CONTINUOUS
 62
    3
 10
791.31298867894873
 20
891.37272247644978
 11
778.3130412119466
 21
891.37272247644978
  0
CIRCLE
  8
_0-1_計細線
  6
CONTINUOUS
 62
    3
 10
784.02185147588295
 20
887.44849833430317
 40
1.9999919180004326
  0
CIRCLE
  8
_0-1_計細線
  6
CONTINUOUS
 62
    3
 10
790.49804530547988
 20
886.11484372362293
 40
1.9999919180004326
  0
CIRCLE
  8
_0-1_計細線
  6
CONTINUOUS
 62
    3
 10
785.35549941992429
 20
880.97229783806733
 40
1.9999919180004326
  0
LINE
  8
_0-1_計細線
  6
CONTINUOUS
 62
    3
 10
791.31298867894873
 20
891.37272247644978
 11
791.31298867894873
 21
893.12271540469965
  0
CIRCLE
  8
_0-1_計細線
  6
CONTINUOUS
 62
    3
 10
772.60423094800751
 20
887.44849833430317
 40
1.9999919180004326
  0
CIRCLE
  8
_0-1_計細線
  6
CONTINUOUS
 62
    3
 10
766.1280371184107
 20
886.11484372362293
 40
1.9999919180004326
  0
CIRCLE
  8
_0-1_計細線
  6
CONTINUOUS
 62
    3
 10
771.27058300396618
 20
880.97229783806733
 40
1.9999919180004326
  0
CIRCLE
  8
_0-1_計細線
  6
CONTINUOUS
 62
    3
 10
778.29543461642641
 20
885.09112119383462
 40
1.9999919180004326
  0
CIRCLE
  8
_0-1_計細線
  6
CONTINUOUS
 62
    3
 10
778.29543461642641
 20
879.08999877780161
 40
1.9999919180004326
  0
LINE
  8
_0-1_計細線
  6
CONTINUOUS
 62
    3
 10
765.31309374494458
 20
891.37272247644978
 11
765.31309374494458
 21
893.12271540469965
  0
LINE
  8
_0-1_計細線
  6
CONTINUOUS
 62
    3
 10
765.31309374494458
 20
891.37272247644978
 11
778.3130412119466
 21
891.37272247644978
  0
LINE
  8
_0-1_計細線
  6
CONTINUOUS
 62
    3
 10
791.31298867894873
 20
894.87270833294951
 11
778.3130412119466
 21
894.87270833294951
  0
CIRCLE
  8
_0-1_計細線
  6
CONTINUOUS
 62
    3
 10
784.02185147588295
 20
898.79693247509749
 40
1.9999919180004326
  0
CIRCLE
  8
_0-1_計細線
  6
CONTINUOUS
 62
    3
 10
790.49804530547988
 20
900.13058041913746
 40
1.9999919180004326
  0
CIRCLE
  8
_0-1_計細線
  6
CONTINUOUS
 62
    3
 10
785.35549941992429
 20
905.27312630469305
 40
1.9999919180004326
  0
LINE
  8
_0-1_計細線
  6
CONTINUOUS
 62
    3
 10
791.31298867894873
 20
894.87270833294951
 11
791.31298867894873
 21
893.12271540469965
  0
CIRCLE
  8
_0-1_計細線
  6
CONTINUOUS
 62
    3
 10
772.60423094800751
 20
898.79693247509749
 40
1.9999919180004326
  0
CIRCLE
  8
_0-1_計細線
  6
CONTINUOUS
 62
    3
 10
766.1280371184107
 20
900.13058041913746
 40
1.9999919180004326
  0
CIRCLE
  8
_0-1_計細線
  6
CONTINUOUS
 62
    3
 10
771.27058300396618
 20
905.27312630469305
 40
1.9999919180004326
  0
CIRCLE
  8
_0-1_計細線
  6
CONTINUOUS
 62
    3
 10
778.29543461642641
 20
901.15430294892576
 40
1.9999919180004326
  0
CIRCLE
  8
_0-1_計細線
  6
CONTINUOUS
 62
    3
 10
778.29543461642641
 20
907.15543203159905
 40
1.9999919180004326
  0
LINE
  8
_0-1_計細線
  6
CONTINUOUS
 62
    3
 10
765.31309374494458
 20
894.87270833294951
 11
765.31309374494458
 21
893.12271540469965
  0
LINE
  8
_0-1_計細線
  6
CONTINUOUS
 62
    3
 10
765.31309374494458
 20
894.87270833294951
 11
778.3130412119466
 21
894.87270833294951
  0
CIRCLE
  8
_0-1_計細線
  6
CONTINUOUS
 62
    3
 10
778.23567485791716
 20
893.15414861101135
 40
16.499933323502546
  0
CIRCLE
  8
_0-1_計細線
  6
CONTINUOUS
 62
    3
 10
778.23567485791716
 20
893.15414861101135
 40
19.999919180003303
  0
CIRCLE
  8
_0-1_計細線
  6
CONTINUOUS
 62
    3
 10
778.23567485791716
 20
893.15414861101135
 40
21.999911098003736
  0
CIRCLE
  8
_0-1_計細線
  6
CONTINUOUS
 62
    3
 10
778.23567485791716
 20
893.15414861101135
 40
32.249869677755441
  0
ARC
  8
_0-1_計細線
  6
CONTINUOUS
 62
    3
 10
778.23567485791716
 20
893.15414861101135
 40
32.499868667505325
 50
89.999999999999915
 51
269.99999999999977
  0
LINE
  8
_0-5_寸法線
  6
CONTINUOUS
 62
    7
 10
780.8414157465395
 20
891.37272247644978
 11
786.53491861138991
 21
880.80938847965035
  0
LINE
  8
_0-5_寸法線
  6
CONTINUOUS
 62
    7
 10
780.8414157465395
 20
891.37272247644978
 11
780.49046686561974
 21
879.37785545413635
  0
LINE
  8
_0-5_寸法線
  6
CONTINUOUS
 62
    7
 10
780.8414157465395
 20
891.37272247644978
 11
799.24019037133894
 21
813.68642155371776
  0
LINE
  8
_0-5_寸法線
  6
CONTINUOUS
 62
    7
 10
799.24019037133894
 20
813.68642155371776
 11
885.6401903713388
 21
813.68642155371776
  0
TEXT
  8
_0-5_寸法線
 62
    7
 10
799.24019037133894
 20
813.68642155371776
 40
18
 41
0.7999999999999998
 50
0
  1
ストレーナー
  0
LINE
  8
_0-5_寸法線
  6
CONTINUOUS
 62
    7
 10
770.9279580100764
 20
872.40340494260636
 11
771.27721915488371
 21
860.40848865891655
  0
LINE
  8
_0-5_寸法線
  6
CONTINUOUS
 62
    7
 10
770.9279580100764
 20
872.40340494260636
 11
765.23296889218932
 21
861.84087215225975
  0
LINE
  8
_0-5_寸法線
  6
CONTINUOUS
 62
    7
 10
770.9279580100764
 20
872.40340494260636
 11
757.01304149772477
 21
813.68642155371776
  0
LINE
  8
_0-5_寸法線
  6
CONTINUOUS
 62
    7
 10
757.01304149772477
 20
813.68642155371776
 11
713.81304149772473
 21
813.68642155371776
  0
TEXT
  8
_0-5_寸法線
 62
    7
 10
713.81304149772473
 20
813.68642155371776
 40
18
 41
0.7999999999999998
 50
0
  1
排水口
  0
LINE
  8
_0-5_寸法線
  6
CONTINUOUS
 62
    7
 10
894.64028776978353
 20
936.18747681359855
 11
897.74611631101368
 21
947.77858672906734
  0
LINE
  8
_0-5_寸法線
  6
CONTINUOUS
 62
    7
 10
894.64028776978353
 20
936.18747681359855
 11
903.12556914402194
 21
944.67275818783696
  0
LINE
  8
_0-5_寸法線
  6
CONTINUOUS
 62
    7
 10
894.64028776978353
 20
936.18747681359855
 11
910.0605242760173
 21
962.89610990712379
  0
LINE
  8
_0-5_寸法線
  6
CONTINUOUS
 62
    7
 10
910.0605242760173
 20
962.89610990712379
 11
1025.2605242760173
 21
962.89610990712379
  0
TEXT
  8
_0-5_寸法線
 62
    7
 10
910.0605242760173
 20
962.89610990712379
 40
18
 41
0.7999999999999998
 50
0
  1
排水ユニット本体
  0
LINE
  8
_0-5_寸法線
  6
CONTINUOUS
 62
    7
 10
662.75842641582176
 20
862.80533926150838
 11
662.75842641582153
 21
850.80533926150838
  0
LINE
  8
_0-5_寸法線
  6
CONTINUOUS
 62
    7
 10
662.75842641582176
 20
862.80533926150838
 11
656.75842641582153
 21
852.41303441609512
  0
LINE
  8
_0-5_寸法線
  6
CONTINUOUS
 62
    7
 10
662.75842641582176
 20
862.80533926150838
 11
649.59705208292814
 21
813.68642155371776
  0
LINE
  8
_0-5_寸法線
  6
CONTINUOUS
 62
    7
 10
649.59705208292814
 20
813.68642155371776
 11
604.58699784439204
 21
813.68642155371776
  0
TEXT
  8
_0-5_寸法線
 62
    7
 10
604.58699784439204
 20
813.68642155371776
 40
18
 41
0.7999999999999998
 50
0
  1
上フタ
  0
LINE
  8
_0-1_計細線
  6
CONTINUOUS
 62
    3
 10
492.81304121194671
 20
867.12271540470056
 11
492.81304121194671
 21
857.12271540470044
  0
LINE
  8
_0-1_計細線
  6
CONTINUOUS
 62
    3
 10
492.81304121194671
 20
882.6227154047001
 11
492.81304121194671
 21
872.62271540469999
  0
LINE
  8
_0-1_計細線
  6
CONTINUOUS
 62
    3
 10
492.81304121194671
 20
913.62271540469953
 11
492.81304121194671
 21
903.62271540469965
  0
LINE
  8
_0-1_計細線
  6
CONTINUOUS
 62
    3
 10
492.81304121194671
 20
929.12271540469908
 11
492.81304121194671
 21
919.12271540469919
  0
LINE
  8
_0-0_計極細
  6
CONTINUOUS
 62
    2
 10
539.81303933189656
 20
882.62271726474728
 11
539.81303933189656
 21
888.12271704474188
  0
LINE
  8
_0-0_計極細
  6
CONTINUOUS
 62
    2
 10
539.81303933189656
 20
867.12271788476369
 11
539.81303933189656
 21
872.62271766475794
  0
LINE
  8
_0-0_計極細
  6
CONTINUOUS
 62
    2
 10
499.81304093190511
 20
867.12271788476369
 11
499.81304093190511
 21
872.62271766475794
  0
LINE
  8
_0-0_計極細
  6
CONTINUOUS
 62
    2
 10
539.81303933189656
 20
919.12271580470974
 11
539.81303933189656
 21
913.62271602471583
  0
LINE
  8
_0-0_計極細
  6
CONTINUOUS
 62
    2
 10
499.81304093190511
 20
919.12271580470974
 11
499.81304093190511
 21
913.62271602471583
  0
LINE
  8
_0-0_計極細
  6
CONTINUOUS
 62
    2
 10
539.81303933189656
 20
903.62271642472615
 11
539.81303933189656
 21
898.12271664473155
  0
LINE
  8
_0-0_計極細
  6
CONTINUOUS
 62
    2
 10
535.76304193735632
 20
867.12271540470056
 11
535.76304193735632
 21
872.62271540469999
  0
LINE
  8
_0-0_計極細
  6
CONTINUOUS
 62
    2
 10
528.8630419372339
 20
867.12271540470056
 11
528.8630419372339
 21
872.62271540469999
  0
LINE
  8
_0-0_計極細
  6
CONTINUOUS
 62
    2
 10
535.76303961680401
 20
919.12271540469919
 11
535.76304192798216
 21
913.62271540469953
  0
LINE
  8
_0-0_計極細
  6
CONTINUOUS
 62
    2
 10
528.86303964700733
 20
919.12271540469919
 11
528.86304192798229
 21
913.62271540469953
  0
LINE
  8
_0-0_計極細
  6
CONTINUOUS
 62
    2
 10
528.8630419372339
 20
903.62271540469965
 11
528.8630419372339
 21
902.02271648873648
  0
LINE
  8
_0-0_計極細
  6
CONTINUOUS
 62
    2
 10
528.8630419372339
 20
901.02271652873628
 11
528.8630419372339
 21
898.12271540469965
  0
LINE
  8
_0-0_計極細
  6
CONTINUOUS
 62
    2
 10
535.76304193735632
 20
903.62271540469965
 11
535.76304193735632
 21
902.02271648873648
  0
LINE
  8
_0-0_計極細
  6
CONTINUOUS
 62
    2
 10
535.76304193735632
 20
901.02271652873628
 11
535.76304193735632
 21
898.12271540469965
  0
LINE
  8
_0-0_計極細
  6
CONTINUOUS
 62
    2
 10
528.8630419372339
 20
882.6227154047001
 11
528.8630419372339
 21
884.22271720073695
  0
LINE
  8
_0-0_計極細
  6
CONTINUOUS
 62
    2
 10
528.8630419372339
 20
885.22271716073681
 11
528.8630419372339
 21
888.12271540469953
  0
LINE
  8
_0-0_計極細
  6
CONTINUOUS
 62
    2
 10
535.76304193735632
 20
882.6227154047001
 11
535.76304193735632
 21
884.22271720073695
  0
LINE
  8
_0-0_計極細
  6
CONTINUOUS
 62
    2
 10
535.76304193735632
 20
885.22271716073681
 11
535.76304193735632
 21
888.12271540469953
  0
LINE
  8
_0-0_計極細
  6
CONTINUOUS
 62
    2
 10
496.31304109190432
 20
883.22271724073676
 11
505.3130407319054
 21
883.22271724073676
  0
LINE
  8
_0-0_計極細
  6
CONTINUOUS
 62
    2
 10
496.31304109190432
 20
883.22271724073676
 11
496.31304109190432
 21
884.22271720073695
  0
LINE
  8
_0-0_計極細
  6
CONTINUOUS
 62
    2
 10
505.3130407319054
 20
883.22271724073676
 11
505.3130407319054
 21
884.22271720073695
  0
LINE
  8
_0-0_計極細
  6
CONTINUOUS
 62
    2
 10
496.31304109190432
 20
903.02271644873667
 11
505.3130407319054
 21
903.02271644873667
  0
LINE
  8
_0-0_計極細
  6
CONTINUOUS
 62
    2
 10
496.31304109190432
 20
903.02271644873667
 11
496.31304109190432
 21
902.02271648873648
  0
LINE
  8
_0-0_計極細
  6
CONTINUOUS
 62
    2
 10
505.3130407319054
 20
903.02271644873667
 11
505.3130407319054
 21
902.02271648873648
  0
LINE
  8
_0-1_計細線
  6
CONTINUOUS
 62
    3
 10
537.31303945190484
 20
901.02271652873628
 11
537.31303945190484
 21
902.02271648873648
  0
LINE
  8
_0-1_計細線
  6
CONTINUOUS
 62
    3
 10
524.51303996390561
 20
901.02271652873628
 11
537.31303945190484
 21
901.02271652873628
  0
LINE
  8
_0-1_計細線
  6
CONTINUOUS
 62
    3
 10
537.31303945190484
 20
902.02271648873648
 11
495.31304113190481
 21
902.02271648873648
  0
LINE
  8
_0-1_計細線
  6
CONTINUOUS
 62
    3
 10
495.31304113190481
 20
884.22271720073695
 11
537.31303945190484
 21
884.22271720073695
  0
LINE
  8
_0-1_計細線
  6
CONTINUOUS
 62
    3
 10
537.31303945190484
 20
885.22271716073681
 11
524.51303996390561
 21
885.22271716073681
  0
LINE
  8
_0-1_計細線
  6
CONTINUOUS
 62
    3
 10
537.31303945190484
 20
884.22271720073695
 11
537.31303945190484
 21
885.22271716073681
  0
LINE
  8
_0-1_計細線
  6
CONTINUOUS
 62
    3
 10
524.51303996390561
 20
884.22271720073695
 11
524.51303996390561
 21
902.02271648873648
  0
LINE
  8
_0-1_計細線
  6
CONTINUOUS
 62
    3
 10
495.31304113190481
 20
902.02271648873648
 11
495.31304113190481
 21
884.22271720073695
  0
LINE
  8
_0-1_計細線
  6
CONTINUOUS
 62
    3
 10
526.81303985190561
 20
898.12271664473155
 11
526.81303985190561
 21
888.12271704474188
  0
TEXT
  8
_0-5_寸法線
 62
    7
 10
438.25872185928893
 20
870.59782438820071
 40
18
 41
1
 50
0
  1
Ｂ部
  0
CIRCLE
  8
_0-5_寸法線
  6
CONTINUOUS
 62
    7
 10
511.81910099753713
 20
893.12271684473671
 40
32.624478443415455
  0
LINE
  8
_0-0_計極細
  6
CONTINUOUS
 62
    2
 10
499.81304093190511
 20
903.62271642472615
 11
499.81304093190511
 21
903.02271644873667
  0
LINE
  8
_0-0_計極細
  6
CONTINUOUS
 62
    2
 10
499.81304093190511
 20
883.22271724073676
 11
499.81304093190511
 21
882.62271726474728
  0
LINE
  8
_0-1_計細線
  6
CONTINUOUS
 62
    3
 10
1291.4763929071755
 20
924.87271537294953
 11
1293.2763929071475
 21
924.87271537294953
  0
LINE
  8
_0-1_計細線
  6
CONTINUOUS
 62
    3
 10
1329.7794555738515
 20
869.77271542805011
 11
1330.7763929071757
 21
870.77271542705
  0
LINE
  8
_0-1_計細線
  6
CONTINUOUS
 62
    3
 10
1273.7763605791774
 20
854.42286775039327
 11
1285.7763120871773
 21
854.42286775039327
  0
LINE
  8
_0-1_計細線
  6
CONTINUOUS
 62
    3
 10
1285.7763120871773
 20
854.42286775039327
 11
1285.7763120871773
 21
931.82294291299104
  0
LINE
  8
_0-1_計細線
  6
CONTINUOUS
 62
    3
 10
1285.7763120871773
 20
931.82294291299104
 11
1273.7763605791774
 21
931.82294291299104
  0
LINE
  8
_0-1_計細線
  6
CONTINUOUS
 62
    3
 10
1265.7763929071757
 20
846.12290533169289
 11
1265.7763929071757
 21
893.12271540469965
  0
LINE
  8
_0-1_計細線
  6
CONTINUOUS
 62
    3
 10
1265.7763929071757
 20
940.12290533169278
 11
1265.7763929071757
 21
893.12271540469965
  0
LINE
  8
_0-1_計細線
  6
CONTINUOUS
 62
    3
 10
1265.7763929071757
 20
940.12290533169278
 11
1273.7763605791774
 21
940.12290533169278
  0
LINE
  8
_0-1_計細線
  6
CONTINUOUS
 62
    3
 10
1265.7763929071757
 20
846.12290533169289
 11
1273.7763605791774
 21
846.12290533169289
  0
LINE
  8
_0-1_計細線
  6
CONTINUOUS
 62
    3
 10
1273.7763605791774
 20
919.96633325017467
 11
1273.7763605791774
 21
893.12271540469965
  0
LINE
  8
_0-1_計細線
  6
CONTINUOUS
 62
    3
 10
1273.7763605791774
 20
866.27909089258526
 11
1273.7763605791774
 21
893.12271540469965
  0
LINE
  8
_0-1_計細線
  6
CONTINUOUS
 62
    3
 10
1273.7763605791779
 20
846.82290250299275
 11
1270.881091520024
 21
846.82290250299275
  0
LINE
  8
_0-1_計細線
  6
CONTINUOUS
 62
    3
 10
1270.7769251688881
 20
846.122905331693
 11
1273.7763605791774
 21
866.27909089258526
  0
LINE
  8
_0-1_計細線
  6
CONTINUOUS
 62
    3
 10
1273.7763605791779
 20
846.12290533169289
 11
1273.7763605791779
 21
846.82290250299275
  0
LINE
  8
_0-1_計細線
  6
CONTINUOUS
 62
    3
 10
1273.7763120871773
 20
854.42286775039327
 11
1272.0120398738759
 21
854.42286775039327
  0
LINE
  8
_0-1_計細線
  6
CONTINUOUS
 62
    3
 10
1273.7763605791779
 20
939.42252830640643
 11
1270.881091520024
 21
939.42252830640643
  0
LINE
  8
_0-1_計細線
  6
CONTINUOUS
 62
    3
 10
1270.7769251688881
 20
940.12252547770618
 11
1273.7763605791774
 21
919.96633991681392
  0
LINE
  8
_0-1_計細線
  6
CONTINUOUS
 62
    3
 10
1273.7763605791779
 20
940.1225254777064
 11
1273.7763605791779
 21
939.42252830640643
  0
LINE
  8
_0-1_計細線
  6
CONTINUOUS
 62
    3
 10
1273.7763120871773
 20
931.82256305900592
 11
1272.0120398738759
 21
931.82256305900592
  0
LINE
  8
_0-0_計極細
  6
CENTER1
 62
    2
 10
1239.1294964028784
 20
893.12271540469965
 11
1350.9496402877708
 21
893.12271540469965
  0
LINE
  8
_0-0_計極細
  6
CONTINUOUS
 62
    2
 10
1287.4230787659008
 20
880.28957393029839
 11
1287.5168317203779
 21
881.94503390722457
  0
LINE
  8
_0-0_計極細
  6
CONTINUOUS
 62
    2
 10
1287.1989930047675
 20
877.28515273788014
 11
1287.3168658617765
 21
878.73232688982569
  0
LINE
  8
_0-0_計極細
  6
CONTINUOUS
 62
    2
 10
1285.7847853862718
 20
870.69507936847276
 11
1285.9590980152038
 21
870.78069902248262
  0
LINE
  8
_0-0_計極細
  6
CONTINUOUS
 62
    2
 10
1285.9590980152038
 20
870.78069902248262
 11
1286.1320773161929
 21
871.03690465381806
  0
LINE
  8
_0-0_計極細
  6
CONTINUOUS
 62
    2
 10
1286.1320773161929
 20
871.03690465381806
 11
1286.3024232944899
 21
871.46174960367944
  0
LINE
  8
_0-0_計極細
  6
CONTINUOUS
 62
    2
 10
1286.3024232944899
 20
871.46174960367944
 11
1286.4688226220655
 21
872.05199388515973
  0
LINE
  8
_0-0_計極細
  6
CONTINUOUS
 62
    2
 10
1286.4688226220655
 20
872.05199388515973
 11
1286.6300153040165
 21
872.80315084972199
  0
LINE
  8
_0-0_計極細
  6
CONTINUOUS
 62
    2
 10
1286.6300153040165
 20
872.80315084972199
 11
1286.7847813452727
 21
873.70950052048181
  0
LINE
  8
_0-0_計極細
  6
CONTINUOUS
 62
    2
 10
1286.7847813452727
 20
873.70950052048181
 11
1286.9319340839588
 21
874.76414292532127
  0
LINE
  8
_0-0_計極細
  6
CONTINUOUS
 62
    2
 10
1286.9319340839588
 20
874.76414292532127
 11
1287.0703535246025
 21
875.95906476328935
  0
LINE
  8
_0-0_計極細
  6
CONTINUOUS
 62
    2
 10
1287.0703535246025
 20
875.95906476328935
 11
1287.1989930047675
 21
877.28515273788014
  0
LINE
  8
_0-0_計極細
  6
CONTINUOUS
 62
    2
 10
1287.3168658617765
 20
878.73232688982569
 11
1287.4230787659008
 21
880.28957393029839
  0
LINE
  8
_0-0_計極細
  6
CONTINUOUS
 62
    2
 10
1287.0703535246025
 20
910.28636604610983
 11
1287.1989930047675
 21
908.96027807151938
  0
LINE
  8
_0-0_計極細
  6
CONTINUOUS
 62
    2
 10
1287.4230787659008
 20
905.95585687910113
 11
1287.5168317203779
 21
904.30039023553525
  0
LINE
  8
_0-0_計極細
  6
CONTINUOUS
 62
    2
 10
1287.5168317203779
 20
904.30039023553525
 11
1287.5973913948346
 21
902.55931060459977
  0
LINE
  8
_0-0_計極細
  6
CONTINUOUS
 62
    2
 10
1287.5973913948346
 20
902.55931060459977
 11
1287.6641644583356
 21
900.74585793279118
  0
LINE
  8
_0-0_計極細
  6
CONTINUOUS
 62
    2
 10
1287.6641644583356
 20
900.74585793279118
 11
1287.7166309129866
 21
898.87383883098391
  0
LINE
  8
_0-0_計極細
  6
CONTINUOUS
 62
    2
 10
1287.7166309129866
 20
898.87383883098391
 11
1287.7543907603977
 21
896.95750657491317
  0
LINE
  8
_0-0_計極細
  6
CONTINUOUS
 62
    2
 10
1287.1989930047675
 20
908.96027807151938
 11
1287.3168658617765
 21
907.51309725293413
  0
LINE
  8
_0-0_計極細
  6
CONTINUOUS
 62
    2
 10
1287.3168658617765
 20
907.51309725293413
 11
1287.4230787659008
 21
905.95585687910113
  0
LINE
  8
_0-0_計極細
  6
CONTINUOUS
 62
    2
 10
1287.7771640017045
 20
895.01143443902254
 11
1287.7847773042708
 21
893.05043569678355
  0
LINE
  8
_0-0_計極細
  6
CONTINUOUS
 62
    2
 10
1287.6641644583356
 20
885.49957287660891
 11
1287.7166309129866
 21
887.37158531177636
  0
LINE
  8
_0-0_計極細
  6
CONTINUOUS
 62
    2
 10
1287.7166309129866
 20
887.37158531177636
 11
1287.7543907603977
 21
889.28792423448658
  0
LINE
  8
_0-0_計極細
  6
CONTINUOUS
 62
    2
 10
1287.7543907603977
 20
889.28792423448658
 11
1287.7771640017045
 21
891.23399637037699
  0
LINE
  8
_0-0_計極細
  6
CONTINUOUS
 62
    2
 10
1287.7771640017045
 20
891.23399637037699
 11
1287.7847773042708
 21
893.19498844597626
  0
LINE
  8
_0-0_計極細
  6
CONTINUOUS
 62
    2
 10
1287.5168317203779
 20
881.94503390722457
 11
1287.5973913948346
 21
883.68612020480032
  0
LINE
  8
_0-0_計極細
  6
CONTINUOUS
 62
    2
 10
1287.5973913948346
 20
883.68612020480032
 11
1287.6641644583356
 21
885.49957287660891
  0
LINE
  8
_0-0_計極細
  6
CONTINUOUS
 62
    2
 10
1287.7543907603977
 20
896.95750657491317
 11
1287.7771640017045
 21
895.01143443902254
  0
LINE
  8
_0-0_計極細
  6
CONTINUOUS
 62
    2
 10
1285.7847853862718
 20
915.55034477428717
 11
1285.9590980152038
 21
915.46472512027731
  0
LINE
  8
_0-0_計極細
  6
CONTINUOUS
 62
    2
 10
1285.9590980152038
 20
915.46472512027731
 11
1286.1320773161929
 21
915.20851948894176
  0
LINE
  8
_0-0_計極細
  6
CONTINUOUS
 62
    2
 10
1286.1320773161929
 20
915.20851948894176
 11
1286.3024232944899
 21
914.78368120572065
  0
LINE
  8
_0-0_計極細
  6
CONTINUOUS
 62
    2
 10
1286.3024232944899
 20
914.78368120572065
 11
1286.4688226220655
 21
914.19343692423979
  0
LINE
  8
_0-0_計極細
  6
CONTINUOUS
 62
    2
 10
1286.4688226220655
 20
914.19343692423979
 11
1286.6300153040165
 21
913.44227995967776
  0
LINE
  8
_0-0_計極細
  6
CONTINUOUS
 62
    2
 10
1286.7847813452727
 20
912.53593028891828
 11
1286.9319340839588
 21
911.48128121743866
  0
LINE
  8
_0-0_計極細
  6
CONTINUOUS
 62
    2
 10
1286.6300153040165
 20
913.44227995967776
 11
1286.7847813452727
 21
912.53593028891828
  0
LINE
  8
_0-0_計極細
  6
CONTINUOUS
 62
    2
 10
1286.9319340839588
 20
911.48128121743866
 11
1287.0703535246025
 21
910.28636604610983
  0
ARC
  8
_0-1_計細線
  6
CONTINUOUS
 62
    3
 10
1286.5763929071759
 20
927.12271548123999
 40
0.8
 50
179.99999999999983
 51
269.99999999999977
  0
LINE
  8
_0-1_計細線
  6
CONTINUOUS
 62
    3
 10
1286.5763929071759
 20
926.32271548124004
 11
1289.9763929071755
 21
926.32271548124004
  0
ARC
  8
_0-1_計細線
  6
CONTINUOUS
 62
    3
 10
1289.9763929071755
 20
924.82271548124004
 40
1.5
 50
0
 51
89.999999999999915
  0
LINE
  8
_0-1_計細線
  6
CONTINUOUS
 62
    3
 10
1291.4763929071755
 20
924.82271548124004
 11
1291.4763929071755
 21
893.12271540469976
  0
ARC
  8
_0-1_計細線
  6
CONTINUOUS
 62
    3
 10
1286.5763929071759
 20
859.12271532815919
 40
0.8
 50
89.999999999999915
 51
179.99999999999983
  0
LINE
  8
_0-1_計細線
  6
CONTINUOUS
 62
    3
 10
1286.5763929071759
 20
859.92271532815914
 11
1289.9763929071755
 21
859.92271532815914
  0
ARC
  8
_0-1_計細線
  6
CONTINUOUS
 62
    3
 10
1289.9763929071755
 20
861.42271532815914
 40
1.5
 50
269.99999999999977
 51
359.99999999999966
  0
LINE
  8
_0-1_計細線
  6
CONTINUOUS
 62
    3
 10
1291.4763929071755
 20
861.42271532815914
 11
1291.4763929071755
 21
893.12271540469942
  0
LINE
  8
_0-0_計極細
  6
CONTINUOUS
 62
    2
 10
1286.5763929071759
 20
872.55327079092615
 11
1286.5763929071759
 21
859.92271532815914
  0
LINE
  8
_0-0_計極細
  6
CONTINUOUS
 62
    2
 10
1286.5763929071759
 20
913.69216001847349
 11
1286.5763929071759
 21
926.32271548124004
  0
LINE
  8
_0-1_計細線
  6
CONTINUOUS
 62
    3
 10
1273.7763120871773
 20
854.42286775039327
 11
1273.7763120871773
 21
853.22286775039356
  0
LINE
  8
_0-1_計細線
  6
CONTINUOUS
 62
    3
 10
1273.7763120871773
 20
853.22286775039356
 11
1308.7763120871764
 21
853.22286775039356
  0
LINE
  8
_0-1_計細線
  6
CONTINUOUS
 62
    3
 10
1308.7763120871764
 20
853.22286775039356
 11
1308.7763120871764
 21
854.42286775039327
  0
LINE
  8
_0-1_計細線
  6
CONTINUOUS
 62
    3
 10
1308.7763120871764
 20
854.42286775039327
 11
1273.7763120871773
 21
854.42286775039327
  0
LINE
  8
_0-0_計極細
  6
CONTINUOUS
 62
    2
 10
1275.7763120871773
 20
853.22286775039356
 11
1275.7763120871773
 21
854.42286775039327
  0
LINE
  8
_0-0_計極細
  6
CONTINUOUS
 62
    2
 10
1287.7763120871773
 20
853.22286775039356
 11
1287.7763120871773
 21
854.42286775039327
  0
LINE
  8
_0-0_計極細
  6
CONTINUOUS
 62
    2
 10
1289.7763120871764
 20
853.22286775039356
 11
1289.7763120871764
 21
854.42286775039327
  0
LINE
  8
_0-0_計極細
  6
CONTINUOUS
 62
    2
 10
1291.7763120871764
 20
853.22286775039356
 11
1291.7763120871764
 21
854.42286775039327
  0
LINE
  8
_0-0_計極細
  6
CONTINUOUS
 62
    2
 10
1305.7763120871764
 20
853.22286775039356
 11
1305.7763120871764
 21
854.42286775039327
  0
LINE
  8
_0-0_計極細
  6
CONTINUOUS
 62
    2
 10
1285.7763120871773
 20
853.22286775039356
 11
1285.7763120871773
 21
854.42286775039327
  0
LINE
  8
_0-1_計細線
  6
CONTINUOUS
 62
    3
 10
1273.7763120871773
 20
933.02294291299074
 11
1273.7763120871773
 21
931.82294291299104
  0
LINE
  8
_0-1_計細線
  6
CONTINUOUS
 62
    3
 10
1273.7763120871773
 20
931.82294291299104
 11
1308.7763120871764
 21
931.82294291299104
  0
LINE
  8
_0-1_計細線
  6
CONTINUOUS
 62
    3
 10
1308.7763120871764
 20
931.82294291299104
 11
1308.7763120871764
 21
933.02294291299074
  0
LINE
  8
_0-1_計細線
  6
CONTINUOUS
 62
    3
 10
1308.7763120871764
 20
933.02294291299074
 11
1273.7763120871773
 21
933.02294291299074
  0
LINE
  8
_0-0_計極細
  6
CONTINUOUS
 62
    2
 10
1275.7763120871773
 20
931.82294291299104
 11
1275.7763120871773
 21
933.02294291299074
  0
LINE
  8
_0-0_計極細
  6
CONTINUOUS
 62
    2
 10
1287.7763120871773
 20
931.82294291299104
 11
1287.7763120871773
 21
933.02294291299074
  0
LINE
  8
_0-0_計極細
  6
CONTINUOUS
 62
    2
 10
1289.7763120871764
 20
931.82294291299104
 11
1289.7763120871764
 21
933.02294291299074
  0
LINE
  8
_0-0_計極細
  6
CONTINUOUS
 62
    2
 10
1291.7763120871764
 20
931.82294291299104
 11
1291.7763120871764
 21
933.02294291299074
  0
LINE
  8
_0-0_計極細
  6
CONTINUOUS
 62
    2
 10
1305.7763120871764
 20
931.82294291299104
 11
1305.7763120871764
 21
933.02294291299074
  0
LINE
  8
_0-0_計極細
  6
CONTINUOUS
 62
    2
 10
1285.7763120871773
 20
931.82294291299104
 11
1285.7763120871773
 21
933.02294291299074
  0
ARC
  8
_0-1_計細線
  6
CONTINUOUS
 62
    3
 10
1293.2763929071475
 20
921.8727153759495
 40
2.9999999969999998
 50
0
 51
89.999999999999915
  0
LINE
  8
_0-0_計極細
  6
CONTINUOUS
 62
    2
 10
1296.2763929071184
 20
916.12271538169944
 11
1306.2763929070184
 21
916.12271538169944
  0
LINE
  8
_0-1_計細線
  6
CONTINUOUS
 62
    3
 10
1296.2763929071184
 20
919.12271537869958
 11
1306.2763929070184
 21
919.12271537869958
  0
LINE
  8
_0-0_計極細
  6
CONTINUOUS
 62
    2
 10
1329.7794555738515
 20
893.12271540469965
 11
1329.7794555738515
 21
916.47271538134919
  0
LINE
  8
_0-1_計細線
  6
CONTINUOUS
 62
    3
 10
1330.7763929071757
 20
893.12271540469965
 11
1330.7763929071757
 21
915.47271538234918
  0
LINE
  8
_0-0_計極細
  6
CONTINUOUS
 62
    2
 10
1306.2763929070184
 20
915.47271538234918
 11
1330.7763929071757
 21
915.47271538234918
  0
LINE
  8
_0-1_計細線
  6
CONTINUOUS
 62
    3
 10
1306.2763929070184
 20
916.47271538134919
 11
1329.7794555738515
 21
916.47271538134919
  0
LINE
  8
_0-1_計細線
  6
CONTINUOUS
 62
    3
 10
1306.2763929070184
 20
893.12271540469965
 11
1306.2763929070184
 21
919.12271537869958
  0
LINE
  8
_0-1_計細線
  6
CONTINUOUS
 62
    3
 10
1296.2763929071184
 20
893.12271540469965
 11
1296.2763929071184
 21
921.8727153759495
  0
LINE
  8
_0-1_計細線
  6
CONTINUOUS
 62
    3
 10
1291.4763929071755
 20
861.37271543644965
 11
1293.2763929071475
 21
861.37271543644965
  0
ARC
  8
_0-1_計細線
  6
CONTINUOUS
 62
    3
 10
1293.2763929071475
 20
864.37271543344968
 40
2.9999999969999998
 50
269.99999999999977
 51
359.99999999999966
  0
LINE
  8
_0-0_計極細
  6
CONTINUOUS
 62
    2
 10
1296.2763929071184
 20
870.12271542769986
 11
1306.2763929070184
 21
870.12271542769986
  0
LINE
  8
_0-1_計細線
  6
CONTINUOUS
 62
    3
 10
1296.2763929071184
 20
867.1227154306996
 11
1306.2763929070184
 21
867.1227154306996
  0
LINE
  8
_0-0_計極細
  6
CONTINUOUS
 62
    2
 10
1329.7794555738515
 20
893.12271540469965
 11
1329.7794555738515
 21
869.77271542805011
  0
LINE
  8
_0-1_計細線
  6
CONTINUOUS
 62
    3
 10
1330.7763929071757
 20
893.12271540469965
 11
1330.7763929071757
 21
870.77271542705
  0
LINE
  8
_0-0_計極細
  6
CONTINUOUS
 62
    2
 10
1306.2763929070184
 20
870.77271542705
 11
1330.7763929071757
 21
870.77271542705
  0
LINE
  8
_0-1_計細線
  6
CONTINUOUS
 62
    3
 10
1306.2763929070184
 20
869.77271542805011
 11
1329.7794555738515
 21
869.77271542805011
  0
LINE
  8
_0-1_計細線
  6
CONTINUOUS
 62
    3
 10
1306.2763929070184
 20
893.12271540469965
 11
1306.2763929070184
 21
867.1227154306996
  0
LINE
  8
_0-1_計細線
  6
CONTINUOUS
 62
    3
 10
1296.2763929071184
 20
893.12271540469965
 11
1296.2763929071184
 21
864.37271543344968
  0
LINE
  8
_0-0_計極細
  6
CONTINUOUS
 62
    2
 10
1296.2763929071184
 20
896.12271540169945
 11
1306.2763929070184
 21
896.12271540169945
  0
LINE
  8
_0-0_計極細
  6
CONTINUOUS
 62
    2
 10
1296.2763929071184
 20
890.12271540769939
 11
1306.2763929070184
 21
890.12271540769939
  0
LINE
  8
_0-1_計細線
  6
CONTINUOUS
 62
    3
 10
1329.7794555738515
 20
916.47271538134919
 11
1330.7763929071757
 21
915.47271538234918
  0
LINE
  8
_0-5_寸法線
  6
CONTINUOUS
 62
    7
 10
1087.3130412119467
 20
846.12271540469953
 11
1183.3130412119467
 21
846.12271540469942
  0
LINE
  8
_0-5_寸法線
  6
CONTINUOUS
 62
    7
 10
1177.3130412119467
 20
846.12271540469942
 11
1174.2072126707164
 21
857.7138253201681
  0
LINE
  8
_0-5_寸法線
  6
CONTINUOUS
 62
    7
 10
1177.3130412119467
 20
846.12271540469942
 11
1180.418869753177
 21
857.7138253201681
  0
LINE
  8
_0-5_寸法線
  6
CONTINUOUS
 62
    7
 10
1087.3130412119467
 20
940.12271540469965
 11
1183.3130412119467
 21
940.12271540469931
  0
LINE
  8
_0-5_寸法線
  6
CONTINUOUS
 62
    7
 10
1177.3130412119467
 20
940.12271540469931
 11
1180.418869753177
 21
928.53160548923051
  0
LINE
  8
_0-5_寸法線
  6
CONTINUOUS
 62
    7
 10
1177.3130412119467
 20
940.12271540469931
 11
1174.2072126707164
 21
928.53160548923051
  0
LINE
  8
_0-5_寸法線
  6
CONTINUOUS
 62
    7
 10
1177.3130412119467
 20
846.12271540469942
 11
1177.3130412119467
 21
940.12271540469931
  0
TEXT
  8
_0-5_寸法線
 62
    7
 10
1177.3130412119467
 20
884.12271540469942
 40
18
 41
1
 50
90
  1
94
  0
LINE
  8
_0-5_寸法線
  6
CONTINUOUS
 62
    7
 10
1087.3130412119467
 20
846.12271540469953
 11
1141.3130412119467
 21
846.12271540469942
  0
LINE
  8
_0-5_寸法線
  6
CONTINUOUS
 62
    7
 10
1135.3130412119467
 20
846.12271540469942
 11
1132.2072126707164
 21
857.7138253201681
  0
LINE
  8
_0-5_寸法線
  6
CONTINUOUS
 62
    7
 10
1135.3130412119467
 20
846.12271540469942
 11
1138.418869753177
 21
857.7138253201681
  0
LINE
  8
_0-5_寸法線
  6
CONTINUOUS
 62
    7
 10
1087.3130412119467
 20
893.12271540469976
 11
1141.3130412119467
 21
893.12271540469965
  0
LINE
  8
_0-5_寸法線
  6
CONTINUOUS
 62
    7
 10
1135.3130412119467
 20
893.12271540469965
 11
1138.418869753177
 21
881.53160548923074
  0
LINE
  8
_0-5_寸法線
  6
CONTINUOUS
 62
    7
 10
1135.3130412119467
 20
893.12271540469965
 11
1132.2072126707164
 21
881.53160548923074
  0
LINE
  8
_0-5_寸法線
  6
CONTINUOUS
 62
    7
 10
1135.3130412119467
 20
846.12271540469942
 11
1135.3130412119467
 21
893.12271540469965
  0
TEXT
  8
_0-5_寸法線
 62
    7
 10
1135.3130412119467
 20
860.62271540469999
 40
18
 41
1
 50
90
  1
47
  0
LINE
  8
_0-5_寸法線
  6
CONTINUOUS
 62
    7
 10
1135.3130412119467
 20
893.12271540469965
 11
1132.2072126707164
 21
904.71382532016833
  0
LINE
  8
_0-5_寸法線
  6
CONTINUOUS
 62
    7
 10
1135.3130412119467
 20
893.12271540469965
 11
1138.418869753177
 21
904.71382532016833
  0
LINE
  8
_0-5_寸法線
  6
CONTINUOUS
 62
    7
 10
1087.3130412119467
 20
940.12271540469965
 11
1141.3130412119467
 21
940.12271540469931
  0
LINE
  8
_0-5_寸法線
  6
CONTINUOUS
 62
    7
 10
1135.3130412119467
 20
940.12271540469931
 11
1138.418869753177
 21
928.53160548923051
  0
LINE
  8
_0-5_寸法線
  6
CONTINUOUS
 62
    7
 10
1135.3130412119467
 20
940.12271540469931
 11
1132.2072126707164
 21
928.53160548923051
  0
LINE
  8
_0-5_寸法線
  6
CONTINUOUS
 62
    7
 10
1135.3130412119467
 20
893.12271540469965
 11
1135.3130412119467
 21
940.12271540469931
  0
TEXT
  8
_0-5_寸法線
 62
    7
 10
1135.3130412119467
 20
907.6227154047001
 40
18
 41
1
 50
90
  1
47
  0
LINE
  8
_0-5_寸法線
  6
CONTINUOUS
 62
    7
 10
1265.7763929071753
 20
952.1225254777064
 11
1265.7763929071748
 21
1036.1227154046992
  0
LINE
  8
_0-5_寸法線
  6
CONTINUOUS
 62
    7
 10
1265.7763929071748
 20
1030.1227154046992
 11
1277.3675028226437
 21
1033.2285439459297
  0
LINE
  8
_0-5_寸法線
  6
CONTINUOUS
 62
    7
 10
1265.7763929071748
 20
1030.1227154046992
 11
1277.3675028226437
 21
1027.0168868634692
  0
LINE
  8
_0-5_寸法線
  6
CONTINUOUS
 62
    7
 10
1308.7763120871764
 20
945.02256305900573
 11
1308.7763120871755
 21
1036.1227154046992
  0
LINE
  8
_0-5_寸法線
  6
CONTINUOUS
 62
    7
 10
1308.7763120871755
 20
1030.1227154046992
 11
1297.1852021717066
 21
1027.0168868634692
  0
LINE
  8
_0-5_寸法線
  6
CONTINUOUS
 62
    7
 10
1308.7763120871755
 20
1030.1227154046992
 11
1297.1852021717066
 21
1033.2285439459297
  0
LINE
  8
_0-5_寸法線
  6
CONTINUOUS
 62
    7
 10
1265.7763929071748
 20
1030.1227154046992
 11
1308.7763120871755
 21
1030.1227154046992
  0
TEXT
  8
_0-5_寸法線
 62
    7
 10
1278.2763524971756
 20
1030.1227154046992
 40
18
 41
1
 50
0
  1
43
  0
LINE
  8
_0-5_寸法線
  6
CONTINUOUS
 62
    7
 10
1265.7763929071757
 20
952.1225254777064
 11
1265.7763929071757
 21
994.12271540469965
  0
LINE
  8
_0-5_寸法線
  6
CONTINUOUS
 62
    7
 10
1265.7763929071757
 20
988.12271540469965
 11
1254.1852829917068
 21
985.01688686346938
  0
LINE
  8
_0-5_寸法線
  6
CONTINUOUS
 62
    7
 10
1265.7763929071757
 20
988.12271540469965
 11
1254.1852829917068
 21
991.2285439459298
  0
LINE
  8
_0-5_寸法線
  6
CONTINUOUS
 62
    7
 10
1285.7763120871773
 20
945.02256305900573
 11
1285.7763120871773
 21
994.12271540469965
  0
LINE
  8
_0-5_寸法線
  6
CONTINUOUS
 62
    7
 10
1240.5248123317019
 20
988.12271540469965
 11
1285.7763120871773
 21
988.12271540469965
  0
TEXT
  8
_0-5_寸法線
 62
    7
 10
1240.5248123317022
 20
988.12271540469965
 40
18
 41
1
 50
0
  1
20
  0
LINE
  8
_0-5_寸法線
  6
CONTINUOUS
 62
    7
 10
1285.7763120871773
 20
988.12271540469965
 11
1297.367422002646
 21
991.2285439459298
  0
LINE
  8
_0-5_寸法線
  6
CONTINUOUS
 62
    7
 10
1285.7763120871773
 20
988.12271540469965
 11
1297.367422002646
 21
985.01688686346938
  0
LINE
  8
_0-5_寸法線
  6
CONTINUOUS
 62
    7
 10
1308.7763120871764
 20
945.02256305900573
 11
1308.7763120871764
 21
994.12271540469965
  0
LINE
  8
_0-5_寸法線
  6
CONTINUOUS
 62
    7
 10
1308.7763120871764
 20
988.12271540469965
 11
1297.1852021717073
 21
985.01688686346938
  0
LINE
  8
_0-5_寸法線
  6
CONTINUOUS
 62
    7
 10
1308.7763120871764
 20
988.12271540469965
 11
1297.1852021717073
 21
991.2285439459298
  0
LINE
  8
_0-5_寸法線
  6
CONTINUOUS
 62
    7
 10
1285.7763120871773
 20
988.12271540469965
 11
1308.7763120871764
 21
988.12271540469965
  0
TEXT
  8
_0-5_寸法線
 62
    7
 10
1288.2763120871771
 20
988.12271540469931
 40
18
 41
1
 50
0
  1
23
  0
LINE
  8
_0-5_寸法線
  6
CONTINUOUS
 62
    7
 10
1265.7763929071757
 20
834.1225254777064
 11
1265.7763929071757
 21
792.12271540469953
  0
LINE
  8
_0-5_寸法線
  6
CONTINUOUS
 62
    7
 10
1265.7763929071757
 20
798.12271540469953
 11
1277.3675028226444
 21
801.22854394592991
  0
LINE
  8
_0-5_寸法線
  6
CONTINUOUS
 62
    7
 10
1265.7763929071757
 20
798.12271540469953
 11
1277.3675028226444
 21
795.01688686346938
  0
LINE
  8
_0-5_寸法線
  6
CONTINUOUS
 62
    7
 10
1330.7763929071757
 20
858.76965407858563
 11
1330.7763929071757
 21
792.12271540469953
  0
LINE
  8
_0-5_寸法線
  6
CONTINUOUS
 62
    7
 10
1330.7763929071757
 20
798.12271540469953
 11
1319.1852829917068
 21
795.01688686346938
  0
LINE
  8
_0-5_寸法線
  6
CONTINUOUS
 62
    7
 10
1330.7763929071757
 20
798.12271540469953
 11
1319.1852829917068
 21
801.22854394592969
  0
LINE
  8
_0-5_寸法線
  6
CONTINUOUS
 62
    7
 10
1265.7763929071757
 20
798.12271540469953
 11
1330.7763929071757
 21
798.12271540469953
  0
TEXT
  8
_0-5_寸法線
 62
    7
 10
1289.2763929071764
 20
798.12271540469953
 40
18
 41
1
 50
0
  1
65
  0
LINE
  8
_0-0_計極細
  6
CONTINUOUS
 62
    2
 10
1046.3174031891333
 20
893.12271540472568
 11
800.59188307003615
 21
916.89073595217087
  0
LINE
  8
_0-0_計極細
  6
CONTINUOUS
 62
    2
 10
1046.3174031891326
 20
893.1227154046735
 11
800.59188307003615
 21
869.35469485722831
  0
LINE
  8
_0-1_計細線
  6
CONTINUOUS
 62
    3
 10
491.31304121194671
 20
930.12271540469953
 11
491.31304121194671
 21
856.12271540469965
  0
LINE
  8
_0-1_計細線
  6
CONTINUOUS
 62
    3
 10
491.31304121194671
 20
856.12271540469965
 11
1065.3130412119472
 21
856.12271540469965
  0
LINE
  8
_0-1_計細線
  6
CONTINUOUS
 62
    3
 10
1065.3130412119472
 20
856.12271540469965
 11
1065.3130412119472
 21
930.12271540469953
  0
LINE
  8
_0-1_計細線
  6
CONTINUOUS
 62
    3
 10
1065.3130412119472
 20
930.12271540469953
 11
491.31304121194671
 21
930.12271540469953
  0
LINE
  8
_0-1_計細線
  6
CONTINUOUS
 62
    3
 10
1075.3130412119467
 20
846.12271540469953
 11
1075.3130412119467
 21
940.12271540469965
  0
LINE
  8
_0-1_計細線
  6
CONTINUOUS
 62
    3
 10
1075.3130412119467
 20
940.12271540469965
 11
481.31304121194671
 21
940.12271540469965
  0
LINE
  8
_0-1_計細線
  6
CONTINUOUS
 62
    3
 10
481.31304121194671
 20
940.12271540469965
 11
481.31304121194671
 21
846.12271540469953
  0
LINE
  8
_0-1_計細線
  6
CONTINUOUS
 62
    3
 10
481.31304121194671
 20
846.12271540469953
 11
1075.3130412119467
 21
846.12271540469953
  0
LINE
  8
_0-0_計極細
  6
CENTER1
 62
    2
 10
473.14158195412119
 20
893.12271540469965
 11
1084.1703025807542
 21
893.12271540469965
  0
LINE
  8
_0-5_寸法線
  6
CONTINUOUS
 62
    7
 10
492.81304121194671
 20
952.12271540469965
 11
492.81304121194671
 21
994.12271540469965
  0
LINE
  8
_0-5_寸法線
  6
CONTINUOUS
 62
    7
 10
492.81304121194671
 20
988.12271540469965
 11
504.4041511274155
 21
991.2285439459298
  0
LINE
  8
_0-5_寸法線
  6
CONTINUOUS
 62
    7
 10
492.81304121194671
 20
988.12271540469965
 11
504.4041511274155
 21
985.01688686346938
  0
LINE
  8
_0-5_寸法線
  6
CONTINUOUS
 62
    7
 10
1063.8130412119481
 20
952.12271540469965
 11
1063.8130412119481
 21
994.12271540469965
  0
LINE
  8
_0-5_寸法線
  6
CONTINUOUS
 62
    7
 10
1063.8130412119481
 20
988.12271540469965
 11
1052.2219312964789
 21
985.01688686346949
  0
LINE
  8
_0-5_寸法線
  6
CONTINUOUS
 62
    7
 10
1063.8130412119481
 20
988.12271540469965
 11
1052.2219312964789
 21
991.2285439459298
  0
LINE
  8
_0-5_寸法線
  6
CONTINUOUS
 62
    7
 10
492.81304121194671
 20
988.12271540469965
 11
1063.8130412119481
 21
988.12271540469965
  0
TEXT
  8
_0-5_寸法線
 62
    7
 10
764.81304121194739
 20
988.12271540469965
 40
18
 41
1
 50
0
  1
571
  0
LINE
  8
_0-0_計極細
  6
CENTER1
 62
    2
 10
532.3130396319043
 20
963.46573804244576
 11
532.3130396319043
 21
805.74271703896727
  0
LINE
  8
_0-5_寸法線
  6
CONTINUOUS
 62
    7
 10
532.30918603691634
 20
815.92351781353238
 11
543.90029595238514
 21
819.02934635476277
  0
LINE
  8
_0-5_寸法線
  6
CONTINUOUS
 62
    7
 10
532.30918603691634
 20
815.92351781353238
 11
543.90029595238514
 21
812.81768927230223
  0
LINE
  8
_0-5_寸法線
  6
CONTINUOUS
 62
    7
 10
532.30918603691634
 20
815.92351781353238
 11
586.06455210147624
 21
815.92351781353238
  0
LINE
  8
_0-5_寸法線
  6
CONTINUOUS
 62
    7
 10
586.06455210147624
 20
815.92351781353238
 11
586.06455210147624
 21
815.53993611181681
  0
LINE
  8
_0-5_寸法線
  6
CONTINUOUS
 62
    7
 10
532.30918603691634
 20
949.14665068106092
 11
543.90029595238514
 21
952.25247922229119
  0
LINE
  8
_0-5_寸法線
  6
CONTINUOUS
 62
    7
 10
532.30918603691634
 20
949.14665068106092
 11
543.90029595238514
 21
946.04082213983077
  0
LINE
  8
_0-5_寸法線
  6
CONTINUOUS
 62
    7
 10
532.30918603691634
 20
949.14665068106092
 11
586.06455210147624
 21
949.14665068106092
  0
LINE
  8
_0-5_寸法線
  6
CONTINUOUS
 62
    7
 10
586.06455210147624
 20
949.14665068106092
 11
586.06455210147624
 21
948.76306897934523
  0
LINE
  8
_0-0_計極細
  6
CONTINUOUS
 62
    2
 10
562.00114551046568
 20
898.12271540469965
 11
618.86285841403787
 21
903.62271540469965
  0
LINE
  8
_0-0_計極細
  6
CONTINUOUS
 62
    2
 10
562.00114551046568
 20
888.12271540469953
 11
618.86285841403787
 21
882.62271540469965
  0
ARC
  8
_0-0_計極細
  6
CONTINUOUS
 62
    2
 10
745.15570337808299
 20
911.12271540469942
 40
40.671428571426191
 50
153.73195538720606
 51
206.26804461279357
  0
ARC
  8
_0-0_計極細
  6
CONTINUOUS
 62
    2
 10
672.21284623523024
 20
875.1227154047001
 40
40.671428571426773
 50
333.73195538720626
 51
26.268044612788714
  0
LINE
  8
_0-1_計細線
  6
CONTINUOUS
 62
    3
 10
708.68427480665696
 20
929.12271540469908
 11
492.81304121194671
 21
929.12271540469908
  0
LINE
  8
_0-1_計細線
  6
CONTINUOUS
 62
    3
 10
492.81304121194671
 20
919.12271540469919
 11
705.27882910187327
 21
919.12271540469919
  0
LINE
  8
_0-1_計細線
  6
CONTINUOUS
 62
    3
 10
704.56118278674421
 20
913.62271540469953
 11
492.81304121194671
 21
913.62271540469953
  0
LINE
  8
_0-1_計細線
  6
CONTINUOUS
 62
    3
 10
492.81304121194671
 20
903.62271540469965
 11
705.18177309795396
 21
903.62271540469965
  0
LINE
  8
_0-1_計細線
  6
CONTINUOUS
 62
    3
 10
706.61786350555485
 20
898.12271540469965
 11
526.81303985190561
 21
898.12271540469965
  0
LINE
  8
_0-0_計極細
  6
CONTINUOUS
 62
    2
 10
704.49180367524809
 20
911.90525166482462
 11
756.03419935385728
 21
916.89073595217087
  0
LINE
  8
_0-1_計細線
  6
CONTINUOUS
 62
    3
 10
526.81303985190561
 20
888.12271540469953
 11
710.75068610775907
 21
888.12271540469953
  0
LINE
  8
_0-1_計細線
  6
CONTINUOUS
 62
    3
 10
712.18677651536018
 20
882.6227154047001
 11
492.81304121194671
 21
882.6227154047001
  0
LINE
  8
_0-0_計極細
  6
CONTINUOUS
 62
    2
 10
712.85313274645296
 20
873.5314221173353
 11
756.03419935385728
 21
869.35469485722831
  0
LINE
  8
_0-1_計細線
  6
CONTINUOUS
 62
    3
 10
492.81304121194671
 20
872.62271540469999
 11
712.80736682656971
 21
872.62271540469999
  0
LINE
  8
_0-1_計細線
  6
CONTINUOUS
 62
    3
 10
712.08972051144042
 20
867.12271540470056
 11
492.81304121194671
 21
867.12271540470056
  0
LINE
  8
_0-1_計細線
  6
CONTINUOUS
 62
    3
 10
492.81304121194671
 20
857.12271540470044
 11
708.68427480665696
 21
857.12271540470044
  0
TEXT
  8
_0-5_寸法線
 62
    7
 10
558.81093312529219
 20
948.91539121323444
 40
24
 41
1
 50
0
  1
Ａ’
  0
TEXT
  8
_0-5_寸法線
 62
    7
 10
558.74224215407639
 20
815.26851832807552
 40
24
 41
1
 50
0
  1
Ａ
  0
LINE
  8
_0-5_寸法線
  6
CONTINUOUS
 62
    7
 10
481.31304121194677
 20
952.12271540469965
 11
481.31304121194694
 21
1036.1227154046996
  0
LINE
  8
_0-5_寸法線
  6
CONTINUOUS
 62
    7
 10
481.31304121194694
 20
1030.1227154046996
 11
492.90415112741573
 21
1033.2285439459297
  0
LINE
  8
_0-5_寸法線
  6
CONTINUOUS
 62
    7
 10
481.31304121194694
 20
1030.1227154046996
 11
492.90415112741573
 21
1027.0168868634694
  0
LINE
  8
_0-5_寸法線
  6
CONTINUOUS
 62
    7
 10
1075.3130412119467
 20
952.12271540469965
 11
1075.3130412119469
 21
1036.1227154046996
  0
LINE
  8
_0-5_寸法線
  6
CONTINUOUS
 62
    7
 10
1075.3130412119469
 20
1030.1227154046996
 11
1063.721931296478
 21
1027.0168868634694
  0
LINE
  8
_0-5_寸法線
  6
CONTINUOUS
 62
    7
 10
1075.3130412119469
 20
1030.1227154046996
 11
1063.721931296478
 21
1033.2285439459297
  0
LINE
  8
_0-5_寸法線
  6
CONTINUOUS
 62
    7
 10
481.31304121194694
 20
1030.1227154046996
 11
1075.3130412119469
 21
1030.1227154046996
  0
TEXT
  8
_0-5_寸法線
 62
    7
 10
764.81304121194717
 20
1030.1227154046996
 40
18
 41
1
 50
0
  1
594
  0
LINE
  8
_0-5_寸法線
  6
CONTINUOUS
 62
    7
 10
481.31304121194671
 20
834.12271540469953
 11
481.3130412119466
 21
780.12271540469953
  0
LINE
  8
_0-5_寸法線
  6
CONTINUOUS
 62
    7
 10
481.3130412119466
 20
786.12271540469953
 11
492.90415112741539
 21
789.22854394592991
  0
LINE
  8
_0-5_寸法線
  6
CONTINUOUS
 62
    7
 10
481.3130412119466
 20
786.12271540469953
 11
492.90415112741539
 21
783.01688686346938
  0
LINE
  8
_0-5_寸法線
  6
CONTINUOUS
 62
    7
 10
778.3130412119466
 20
834.12271540469953
 11
778.3130412119466
 21
780.12271540469953
  0
LINE
  8
_0-5_寸法線
  6
CONTINUOUS
 62
    7
 10
778.3130412119466
 20
786.12271540469953
 11
766.72193129647781
 21
783.01688686346938
  0
LINE
  8
_0-5_寸法線
  6
CONTINUOUS
 62
    7
 10
778.3130412119466
 20
786.12271540469953
 11
766.72193129647781
 21
789.22854394592991
  0
LINE
  8
_0-5_寸法線
  6
CONTINUOUS
 62
    7
 10
481.3130412119466
 20
786.12271540469953
 11
778.3130412119466
 21
786.12271540469953
  0
TEXT
  8
_0-5_寸法線
 62
    7
 10
616.31304121194671
 20
786.12271540469953
 40
18
 41
1
 50
0
  1
297
  0
LINE
  8
_0-5_寸法線
  6
CONTINUOUS
 62
    7
 10
778.3130412119466
 20
786.12271540469953
 11
789.90415112741539
 21
789.22854394592969
  0
LINE
  8
_0-5_寸法線
  6
CONTINUOUS
 62
    7
 10
778.3130412119466
 20
786.12271540469953
 11
789.90415112741539
 21
783.01688686346938
  0
LINE
  8
_0-5_寸法線
  6
CONTINUOUS
 62
    7
 10
1075.3130412119467
 20
834.12271540469953
 11
1075.3130412119467
 21
780.12271540469953
  0
LINE
  8
_0-5_寸法線
  6
CONTINUOUS
 62
    7
 10
1075.3130412119467
 20
786.12271540469953
 11
1063.7219312964778
 21
783.01688686346938
  0
LINE
  8
_0-5_寸法線
  6
CONTINUOUS
 62
    7
 10
1075.3130412119467
 20
786.12271540469953
 11
1063.7219312964778
 21
789.22854394592991
  0
LINE
  8
_0-5_寸法線
  6
CONTINUOUS
 62
    7
 10
778.3130412119466
 20
786.12271540469953
 11
1075.3130412119467
 21
786.12271540469953
  0
TEXT
  8
_0-5_寸法線
 62
    7
 10
913.3130412119466
 20
786.12271540469953
 40
18
 41
1
 50
0
  1
297
  0
LINE
  8
_0-5_寸法線
  6
CONTINUOUS
 62
    7
 10
511.71257134278653
 20
886.93937806221402
 11
505.71257134278642
 21
876.54707321680075
  0
LINE
  8
_0-5_寸法線
  6
CONTINUOUS
 62
    7
 10
511.71257134278653
 20
886.93937806221402
 11
501.32026649737321
 21
880.93937806221402
  0
LINE
  8
_0-5_寸法線
  6
CONTINUOUS
 62
    7
 10
511.71257134278653
 20
886.93937806221402
 11
461.39199223618743
 21
836.61879895561538
  0
LINE
  8
_0-5_寸法線
  6
CONTINUOUS
 62
    7
 10
461.39199223618743
 20
836.61879895561538
 11
403.79199223618741
 21
836.61879895561538
  0
TEXT
  8
_0-5_寸法線
 62
    7
 10
403.79199223618741
 20
836.61879895561538
 40
18
 41
0.7999999999999998
 50
0
  1
取外し具
  0
LINE
  8
_0-0_計極細
  6
CENTER1
 62
    2
 10
778.3130412119466
 20
953.57006092254062
 11
778.3130412119466
 21
603.07223672758914
  0
ENDSEC
  0
EOF
