  0
SECTION
  2
HEADER
  9
$ACADVER
  1
AC1009
  9
$INSBASE
 10
0
 20
0
 30
0
  9
$EXTMIN
 10
0
 20
0
  9
$EXTMAX
 10
1782
 20
1260
  9
$LIMMIN
 10
0
 20
0
  9
$LIMMAX
 10
1782
 20
1260
  9
$LTSCALE
 40
6
  0
ENDSEC
  0
SECTION
  2
TABLES
  0
TABLE
  2
LTYPE
 70
     9
  0
LTYPE
  2
CONTINUOUS
 70
    64
  3
実線
 72
    65
 73
     0
 40
0.0
  0
LTYPE
  2
DASHED1
 70
    64
  3
--  --  --  --  --  --  --  --  
 72
    65
 73
     2
 40
2.5
 49
1.25
 49
-1.25
  0
LTYPE
  2
DASHED2
 70
    64
  3
----    ----    ----    ----    
 72
    65
 73
     2
 40
5.0
 49
2.5
 49
-2.5
  0
LTYPE
  2
DASHED3
 70
    64
  3
------  ------  ------  ------  
 72
    65
 73
     2
 40
5.0
 49
3.75
 49
-1.25
  0
LTYPE
  2
CENTER1
 70
    64
  3
----- - ----- - ----- - ----- - 
 72
    65
 73
     4
 40
10.0
 49
6.25
 49
-1.25
 49
1.25
 49
-1.25
  0
LTYPE
  2
CENTER2
 70
    64
  3
----------  --  ----------  --  
 72
    65
 73
     4
 40
20.0
 49
12.5
 49
-2.5
 49
2.5
 49
-2.5
  0
LTYPE
  2
PHANTOM1
 70
    64
  3
--- - - --- - - --- - - --- - - 
 72
    65
 73
     6
 40
10.0
 49
3.25
 49
-1.25
 49
1.25
 49
-1.25
 49
1.25
 49
-1.25
  0
LTYPE
  2
PHANTOM2
 70
    64
  3
--------  -  -  --------  -  -  
 72
    65
 73
     6
 40
20.0
 49
10.0
 49
-2.5
 49
1.25
 49
-2.5
 49
1.25
 49
-2.5
  0
LTYPE
  2
DOT
 70
    64
  3
-   -   -   -   -   -   -   -   
 72
    65
 73
     2
 40
2.5
 49
0.625
 49
-1.875
  0
LTYPE
  2
DUMMY
 70
    64
  3
ダミー
 72
    65
 73
     0
 40
0.0
  0
LTYPE
  2
RAND1
 70
    64
  3
ランダム線1
 72
    65
 73
     4
 40
10.0
 49
1.0
 49
-2.0
 49
3.0
 49
-4.0
  0
LTYPE
  2
RAND2
 70
    64
  3
ランダム線2
 72
    65
 73
     4
 40
14.0
 49
2.0
 49
-3.0
 49
4.0
 49
-5.0
  0
LTYPE
  2
RAND3
 70
    64
  3
ランダム線3
 72
    65
 73
     4
 40
18.0
 49
3.0
 49
-4.0
 49
5.0
 49
-6.0
  0
LTYPE
  2
RAND4
 70
    64
  3
ランダム線4
 72
    65
 73
     4
 40
22.0
 49
4.0
 49
-5.0
 49
6.0
 49
-7.0
  0
LTYPE
  2
RAND5
 70
    64
  3
ランダム線5
 72
    65
 73
     4
 40
26.0
 49
5.0
 49
-6.0
 49
7.0
 49
-8.0
  0
LTYPE
  2
LONG1
 70
    64
  3
----------  --  ----------  --  
 72
    65
 73
     4
 40
40.0
 49
32.5
 49
-2.5
 49
2.5
 49
-2.5
  0
LTYPE
  2
LONG2
 70
    64
  3
--------  -  -  --------  -  -  
 72
    65
 73
     6
 40
40.0
 49
30.0
 49
-2.5
 49
1.25
 49
-2.5
 49
1.25
 49
-2.5
  0
LTYPE
  2
LONG3
 70
    64
  3
+++++++++++++++..+++++++++++++++
 72
    65
 73
     2
 40
40.0
 49
37.5
 49
-2.5
  0
LTYPE
  2
LONG4
 70
    64
  3
+++++++++++++++..+++++++++++++++
 72
    65
 73
     2
 40
80.0
 49
75.0
 49
-5.0
  0
LTYPE
  2
LONG5
 70
    64
  3
----------  --  ----------  --  
 72
    65
 73
     4
 40
60.0
 49
37.5
 49
-7.5
 49
7.5
 49
-7.5
  0
LTYPE
  2
dashed
 70
   64
  3
-------   -------------   ------
 72
   65
 73
    2
 40
7.5
 49
6
 49
-1.5
  0
LTYPE
  2
dashed_spaced
 70
   64
  3
----        --------        ----
 72
   65
 73
    2
 40
12
 49
6
 49
-6
  0
LTYPE
  2
long_dashed_dotted
 70
   64
  3
------------- --- --------------
 72
   65
 73
    4
 40
15.25
 49
12
 49
-1.5
 49
0.25
 49
-1.5
  0
LTYPE
  2
long_dashed_double-dotted
 70
   64
  3
----------- --- --- ------------
 72
   65
 73
    6
 40
17
 49
12
 49
-1.5
 49
0.25
 49
-1.5
 49
0.25
 49
-1.5
  0
LTYPE
  2
long_dashed_triplicate-dotted
 70
   64
  3
--------- --- --- --- ----------
 72
   65
 73
    8
 40
18.75
 49
12
 49
-1.5
 49
0.25
 49
-1.5
 49
0.25
 49
-1.5
 49
0.25
 49
-1.5
  0
LTYPE
  2
dotted
 70
   64
  3
   -       -       -       -    
 72
   65
 73
    2
 40
1.75
 49
0.25
 49
-1.5
  0
LTYPE
  2
chain
 70
   64
  3
-------------- -- --------------
 72
   65
 73
    4
 40
18.5
 49
12
 49
-1.5
 49
3.5
 49
-1.5
  0
LTYPE
  2
chain_double_dash
 70
   64
  3
------------ -- -- -------------
 72
   65
 73
    6
 40
23.5
 49
12
 49
-1.5
 49
3.5
 49
-1.5
 49
3.5
 49
-1.5
  0
LTYPE
  2
dashed_dotted
 70
   64
  3
-----------     -     ----------
 72
   65
 73
    4
 40
9.25
 49
6
 49
-1.5
 49
0.25
 49
-1.5
  0
LTYPE
  2
double-dashed_dotted
 70
   64
  3
------   -----------   -   -----
 72
   65
 73
    6
 40
16.75
 49
6
 49
-1.5
 49
6
 49
-1.5
 49
0.25
 49
-1.5
  0
LTYPE
  2
dashed_double-dotted
 70
   64
  3
---------    -    -    ---------
 72
   65
 73
    6
 40
11
 49
6
 49
-1.5
 49
0.25
 49
-1.5
 49
0.25
 49
-1.5
  0
LTYPE
  2
double-dashed_double-dotted
 70
   64
  3
-----   ---------   -   -   ----
 72
   65
 73
    8
 40
18.5
 49
6
 49
-1.5
 49
6
 49
-1.5
 49
0.25
 49
-1.5
 49
0.25
 49
-1.5
  0
LTYPE
  2
dashed_triplicate-dotted
 70
   64
  3
-------    -    -    -    ------
 72
   65
 73
    8
 40
12.75
 49
6
 49
-1.5
 49
0.25
 49
-1.5
 49
0.25
 49
-1.5
 49
0.25
 49
-1.5
  0
LTYPE
  2
double-dashed_triplicate-dotted
 70
   64
  3
-----  ---------  -  -  -  -----
 72
   65
 73
   10
 40
20.25
 49
6
 49
-1.5
 49
6
 49
-1.5
 49
0.25
 49
-1.5
 49
0.25
 49
-1.5
 49
0.25
 49
-1.5
  0
LTYPE
  2
undefined
 70
   64
  3
--------------------------------
 72
   65
 73
    0
 40
0
  0
ENDTAB
  0
TABLE
  2
STYLE
  5
3
100
AcDbSymbolTable
 70
     1
  0
STYLE
  5
10
100
AcDbSymbolTableRecord
100
AcDbTextStyleTableRecord
  2
STANDARD
 70
     0
 40
0.0
 41
1.0
 50
0.0
 71
     0
 42
0.2
  3
txt
  4
bigfont.shx
  0
STYLE
  5
26
100
AcDbSymbolTableRecord
100
AcDbTextStyleTableRecord
  2
TATEGAKI
 70
    68
 40
0.0
 41
1.0
 50
0.0
 71
     0
 42
1.0
  3
txt
  4
bigfont.shx
  0
ENDTAB
  0
TABLE
  2
LAYER
 70
    9
  0
LAYER
  2
_0-0_計極細
 70
   64
 62
    7
  6
CONTINUOUS
  0
LAYER
  2
_0-1_計細線
 70
   64
 62
    7
  6
CONTINUOUS
  0
LAYER
  2
_0-5_寸法線
 70
   64
 62
    7
  6
CONTINUOUS
  0
LAYER
  2
_0-7_枠細線
 70
   64
 62
    7
  6
CONTINUOUS
  0
LAYER
  2
_0-8_枠中線
 70
   64
 62
    7
  6
CONTINUOUS
  0
LAYER
  2
_1-2_極細2
 70
   64
 62
    7
  6
CONTINUOUS
  0
LAYER
  2
_1-3_細線2
 70
   64
 62
    7
  6
CONTINUOUS
  0
LAYER
  2
_1-5_寸法2
 70
   64
 62
    7
  6
CONTINUOUS
  0
LAYER
  2
ADD_LINE
 70
   64
 62
    7
  6
CONTINUOUS
  0
ENDTAB
  0
ENDSEC
  0
SECTION
  2
BLOCKS
  0
ENDSEC
  0
SECTION
  2
ENTITIES
  0
LINE
  8
_0-8_枠中線
  6
CONTINUOUS
 62
    5
 10
72
 20
72
 11
72
 21
1152
  0
LINE
  8
_0-8_枠中線
  6
CONTINUOUS
 62
    5
 10
72
 20
1152
 11
1710
 21
1152
  0
LINE
  8
_0-8_枠中線
  6
CONTINUOUS
 62
    5
 10
1710
 20
1152
 11
1710
 21
72
  0
LINE
  8
_0-8_枠中線
  6
CONTINUOUS
 62
    5
 10
1710
 20
72
 11
72
 21
72
  0
LINE
  8
_0-7_枠細線
  6
CONTINUOUS
 62
    5
 10
1422
 20
216
 11
1422
 21
120
  0
TEXT
  8
_0-7_枠細線
 62
    5
 10
1125
 20
117
 40
21
 41
1
 50
0
  1
備考
  7
TATEGAKI
  0
TEXT
  8
_0-7_枠細線
 62
    5
 10
1125
 20
165
 40
21
 41
1
 50
0
  1
品番
  7
TATEGAKI
  0
TEXT
  8
_0-7_枠細線
 62
    5
 10
1125
 20
213
 40
21
 41
1
 50
0
  1
品名
  7
TATEGAKI
  0
LINE
  8
_0-7_枠細線
  6
CONTINUOUS
 62
    5
 10
1422
 20
168
 11
1110
 21
168
  0
LINE
  8
_0-7_枠細線
  6
CONTINUOUS
 62
    5
 10
1140
 20
216
 11
1140
 21
72
  0
LINE
  8
_0-8_枠中線
  6
CONTINUOUS
 62
    5
 10
1710
 20
216
 11
1110
 21
216
  0
LINE
  8
_0-8_枠中線
  6
CONTINUOUS
 62
    5
 10
1110
 20
216
 11
1110
 21
72
  0
LINE
  8
_0-7_枠細線
  6
CONTINUOUS
 62
    5
 10
1494
 20
216
 11
1494
 21
72
  0
TEXT
  8
_0-7_枠細線
 62
    5
 10
1431
 20
192
 40
18
 41
1
 50
0
  1
縮　尺
  0
LINE
  8
_0-7_枠細線
  6
CONTINUOUS
 62
    5
 10
1422
 20
186
 11
1494
 21
186
  0
LINE
  8
_0-7_枠細線
  6
CONTINUOUS
 62
    5
 10
1494
 20
120
 11
1110
 21
120
  0
LINE
  8
_0-7_枠細線
  6
CONTINUOUS
 62
    5
 10
1710
 20
108
 11
1494
 21
108
  0
LINE
  8
_0-7_枠細線
  6
CONTINUOUS
 62
    5
 10
1494
 20
144
 11
1710
 21
144
  0
LINE
  8
_0-7_枠細線
  6
CONTINUOUS
 62
    5
 10
1710
 20
168
 11
1494
 21
168
  0
TEXT
  8
_0-7_枠細線
 62
    5
 10
1506
 20
177
 40
30
 41
0.8
 50
0
  1
株式会社シマブン
  0
TEXT
  8
_0-7_枠細線
 62
    5
 10
1503
 20
72
 40
18
 41
1
 50
0
  1
年月日
  0
TEXT
  8
_0-7_枠細線
 62
    5
 10
1503
 20
90
 40
18
 41
1
 50
0
  1
作　成
  0
TEXT
  8
_0-7_枠細線
 62
    5
 10
1507.5
 20
147
 40
18
 41
1
 50
0
  1
承 認
  0
LINE
  8
_0-7_枠細線
  6
CONTINUOUS
 62
    5
 10
1566
 20
168
 11
1566
 21
72
  0
TEXT
  8
_0-7_枠細線
 62
    5
 10
1579.5
 20
147
 40
18
 41
1
 50
0
  1
検 図
  0
LINE
  8
_0-7_枠細線
  6
CONTINUOUS
 62
    5
 10
1638
 20
168
 11
1638
 21
108
  0
TEXT
  8
_0-7_枠細線
 62
    5
 10
1651.5
 20
147
 40
18
 41
1
 50
0
  1
設 計
  0
LINE
  8
_0-7_枠細線
  6
CONTINUOUS
 62
    5
 10
1710
 20
1131
 11
1068
 21
1131
  0
TEXT
  8
_0-7_枠細線
 62
    5
 10
1074
 20
1133.9999999999995
 40
15
 41
1
 50
0
  1
記号
  0
TEXT
  8
_0-7_枠細線
 62
    5
 10
1196.25
 20
1134
 40
15
 41
1
 50
0
  1
訂　 正　 記　 事
  0
TEXT
  8
_0-7_枠細線
 62
    5
 10
1417.5
 20
1134
 40
15
 41
1
 50
0
  1
訂 正 年 月 日
  0
TEXT
  8
_0-7_枠細線
 62
    5
 10
1567.5
 20
1134
 40
15
 41
1
 50
0
  1
備　　　　　考
  0
LINE
  8
_0-7_枠細線
  6
CONTINUOUS
 62
    5
 10
1710
 20
1110
 11
1068
 21
1110
  0
TEXT
  8
_0-7_枠細線
 62
    5
 10
1650
 20
114
 40
24
 41
1
 50
0
  1
藤戸
  0
TEXT
  8
_0-7_枠細線
 62
    5
 10
1432.7999999999997
 20
141
 40
24
 41
0.6999999999999998
 50
0
  1
１：６
  0
LINE
  8
_0-1_計細線
  6
CONTINUOUS
 62
    3
 10
1723.4465993058161
 20
796.64196472428898
 11
1723.446594369296
 21
796.6433281967345
  0
LINE
  8
_0-7_枠細線
  6
CONTINUOUS
 62
    5
 10
1068
 20
1110
 11
1068
 21
1151.9999999999993
  0
LINE
  8
_0-7_枠細線
  6
CONTINUOUS
 62
    5
 10
1110
 20
1110
 11
1110
 21
1151.9999999999993
  0
LINE
  8
_0-7_枠細線
  6
CONTINUOUS
 62
    5
 10
1410
 20
1110
 11
1410
 21
1152
  0
LINE
  8
_0-7_枠細線
  6
CONTINUOUS
 62
    5
 10
1530
 20
1110
 11
1530
 21
1151.9999999999993
  0
TEXT
  8
_0-7_枠細線
 62
    5
 10
1506
 20
114
 40
24
 41
1
 50
0
  1
大野
  0
TEXT
  8
_0-7_枠細線
 62
    5
 10
1578
 20
114
 40
24
 41
1
 50
0
  1
深川
  0
TEXT
  8
_0-7_枠細線
 62
    5
 10
1572
 20
81
 40
18
 41
0.6666666666666666
 50
0
  1
２０１５年０４月０１日
  0
LINE
  8
_1-3_細線2
  6
CONTINUOUS
 62
    4
 10
376.32888421547221
 20
337.02027097951634
 11
376.32888421547221
 21
331.62027097960072
  0
LINE
  8
_1-3_細線2
  6
CONTINUOUS
 62
    4
 10
185.82888440597225
 20
337.02027097951623
 11
203.39762627135198
 21
337.02027097951623
  0
LINE
  8
_1-3_細線2
  6
CONTINUOUS
 62
    4
 10
203.39762627135198
 20
337.02027097951634
 11
211.02888438077292
 21
322.61935007656939
  0
LINE
  8
_1-3_細線2
  6
CONTINUOUS
 62
    4
 10
185.82888440597225
 20
337.02027097951634
 11
185.82888440597225
 21
331.62027097960072
  0
ARC
  8
_1-3_細線2
  6
CONTINUOUS
 62
    4
 10
211.1125363806886
 20
346.32027097945343
 40
4.4999999954999996
 50
7.188977151592951
 51
89.999999999999929
  0
LINE
  8
_1-3_細線2
  6
CONTINUOUS
 62
    4
 10
211.1125363806886
 20
350.82027097940841
 11
184.32888440747223
 21
350.82027097940841
  0
LINE
  8
_1-3_細線2
  6
CONTINUOUS
 62
    4
 10
281.0788843107224
 20
350.82027097940841
 11
211.1125363806886
 21
350.82027097940841
  0
LINE
  8
_1-3_細線2
  6
CONTINUOUS
 62
    4
 10
215.57716095457027
 20
346.88341161356743
 11
221.07888437072228
 21
303.11234569560054
  0
LINE
  8
_1-3_細線2
  6
CONTINUOUS
 62
    4
 10
221.07888437072228
 20
303.11234569560054
 11
221.07888437072228
 21
278.22027098013496
  0
LINE
  8
_1-3_細線2
  6
CONTINUOUS
 62
    4
 10
194.82888439697234
 20
322.62027097969076
 11
203.07888438872209
 21
322.62027097969076
  0
LINE
  8
_1-3_細線2
  6
CONTINUOUS
 62
    4
 10
203.07888438872209
 20
322.62027097969076
 11
203.07888438872209
 21
292.62027097999066
  0
LINE
  8
_1-3_細線2
  6
CONTINUOUS
 62
    4
 10
211.02888438077292
 20
292.62027097999066
 11
203.07888438872209
 21
292.62027097999066
  0
LINE
  8
_1-3_細線2
  6
CONTINUOUS
 62
    4
 10
211.02888438077292
 20
322.61935007656939
 11
211.02888438077292
 21
292.62027097999066
  0
LINE
  8
_1-3_細線2
  6
CONTINUOUS
 62
    4
 10
211.02888438077292
 20
292.62027097999066
 11
211.02888438077292
 21
227.21108298064519
  0
ARC
  8
_1-3_細線2
  6
CONTINUOUS
 62
    4
 10
194.82888439697234
 20
331.62027097960072
 40
8.9999999909999993
 50
179.99999999999983
 51
269.99999999999977
  0
LINE
  8
_1-3_細線2
  6
CONTINUOUS
 62
    4
 10
211.02888438077292
 20
337.32027097954347
 11
211.02888438077292
 21
322.62027097969076
  0
LINE
  8
_1-3_細線2
  6
CONTINUOUS
 62
    4
 10
214.02888437777295
 20
292.62027097999066
 11
211.02888438077292
 21
292.62027097999066
  0
LINE
  8
_1-3_細線2
  6
CONTINUOUS
 62
    4
 10
377.07888421472217
 20
343.32027097948344
 11
377.07888421472217
 21
340.02027097951623
  0
ARC
  8
_1-3_細線2
  6
CONTINUOUS
 62
    4
 10
367.3288842244724
 20
331.62027097960072
 40
8.9999999909999993
 50
269.99999999999977
 51
359.99999999999966
  0
LINE
  8
_1-3_細線2
  6
CONTINUOUS
 62
    4
 10
350.07888424172228
 20
322.62027097969076
 11
350.07888424172228
 21
292.62027097999066
  0
LINE
  8
_1-3_細線2
  6
CONTINUOUS
 62
    4
 10
359.07888423272254
 20
322.62027097969076
 11
359.07888423272254
 21
292.62027097999066
  0
LINE
  8
_1-3_細線2
  6
CONTINUOUS
 62
    4
 10
377.82888421397223
 20
343.32027097948344
 11
377.82888421397223
 21
350.82027097940841
  0
LINE
  8
_1-3_細線2
  6
CONTINUOUS
 62
    4
 10
267.73662832406461
 20
295.15742697996552
 11
270.98147232082056
 21
295.62962297996069
  0
LINE
  8
_1-3_細線2
  6
CONTINUOUS
 62
    4
 10
274.30313631749812
 20
295.96949897995728
 11
277.67634031412422
 21
296.1744629799548
  0
LINE
  8
_1-3_細線2
  6
CONTINUOUS
 62
    4
 10
270.98147232082056
 20
295.62962297996069
 11
274.30313631749812
 21
295.96949897995728
  0
LINE
  8
_1-3_細線2
  6
CONTINUOUS
 62
    4
 10
277.67634031412422
 20
296.1744629799548
 11
281.07541231072554
 21
296.24295897995398
  0
LINE
  8
_1-3_細線2
  6
CONTINUOUS
 62
    4
 10
261.57541233022533
 20
293.83141897997893
 11
264.593300327208
 21
294.55649897997091
  0
LINE
  8
_1-3_細線2
  6
CONTINUOUS
 62
    4
 10
258.70593233309563
 20
292.98769497998705
 11
261.57541233022533
 21
293.83141897997893
  0
LINE
  8
_1-3_細線2
  6
CONTINUOUS
 62
    4
 10
251.19968034060093
 20
289.81313898001895
 11
253.49824833830439
 21
290.97088298000722
  0
LINE
  8
_1-3_細線2
  6
CONTINUOUS
 62
    4
 10
245.72941234607191
 20
285.85008698005845
 11
247.30042434450127
 21
287.2429589800438
  0
LINE
  8
_1-3_細線2
  6
CONTINUOUS
 62
    4
 10
249.12848434267283
 20
288.56733498003109
 11
251.19968034060093
 21
289.81313898001895
  0
LINE
  8
_1-3_細線2
  6
CONTINUOUS
 62
    4
 10
247.30042434450127
 20
287.2429589800438
 11
249.12848434267283
 21
288.56733498003109
  0
LINE
  8
_1-3_細線2
  6
CONTINUOUS
 62
    4
 10
253.49824833830439
 20
290.97088298000722
 11
256.00669633579423
 21
292.03175897999631
  0
LINE
  8
_1-3_細線2
  6
CONTINUOUS
 62
    4
 10
256.00669633579423
 20
292.03175897999631
 11
258.70593233309563
 21
292.98769497998705
  0
LINE
  8
_1-3_細線2
  6
CONTINUOUS
 62
    4
 10
281.0788843107224
 20
296.2202709799551
 11
221.07888437072228
 21
296.2202709799551
  0
LINE
  8
_1-3_細線2
  6
CONTINUOUS
 62
    4
 10
264.593300327208
 20
294.55649897997091
 11
267.73662832406461
 21
295.15742697996552
  0
LINE
  8
_1-3_細線2
  6
CONTINUOUS
 62
    4
 10
290.07888430172233
 20
322.62027097969076
 11
290.07888430172233
 21
292.62027097999066
  0
ARC
  8
_1-3_細線2
  6
CONTINUOUS
 62
    4
 10
211.1125363806886
 20
346.32027097945343
 40
2.9999999970000006
 50
7.1641169999940004
 51
89.999999999999915
  0
ARC
  8
_1-3_細線2
  6
CONTINUOUS
 62
    4
 10
205.02888438677286
 20
337.32027097954347
 40
5.9999999940000013
 50
0
 51
89.999999999999915
  0
LINE
  8
_1-3_細線2
  6
CONTINUOUS
 62
    4
 10
185.07888440672215
 20
343.32027097948344
 11
185.07888440672215
 21
340.02027097951623
  0
LINE
  8
_1-3_細線2
  6
CONTINUOUS
 62
    4
 10
210.38705638141479
 20
340.02027097951623
 11
185.07888440672215
 21
340.02027097951623
  0
LINE
  8
_1-3_細線2
  6
CONTINUOUS
 62
    4
 10
205.02888438677286
 20
343.32027097948344
 11
184.32888440747223
 21
343.32027097948344
  0
LINE
  8
_1-3_細線2
  6
CONTINUOUS
 62
    4
 10
211.1125363806886
 20
349.32027097942341
 11
184.32888440747223
 21
349.32027097942341
  0
LINE
  8
_1-3_細線2
  6
CONTINUOUS
 62
    4
 10
217.7218803740779
 20
329.8202709796185
 11
216.2100803755913
 21
329.8202709796185
  0
LINE
  8
_1-3_細線2
  6
CONTINUOUS
 62
    4
 10
211.02888438077292
 20
328.32027097963351
 11
214.02888437777295
 21
328.32027097963351
  0
LINE
  8
_1-3_細線2
  6
CONTINUOUS
 62
    4
 10
211.02888438077292
 20
322.62027097969076
 11
214.02888437777295
 21
322.62027097969076
  0
LINE
  8
_1-3_細線2
  6
CONTINUOUS
 62
    4
 10
214.08911637771254
 20
346.69440697944913
 11
216.2100803755913
 21
329.8202709796185
  0
LINE
  8
_1-3_細線2
  6
CONTINUOUS
 62
    4
 10
184.32888440747223
 20
343.32027097948344
 11
184.32888440747223
 21
350.82027097940841
  0
LINE
  8
_1-3_細線2
  6
CONTINUOUS
 62
    4
 10
281.0788843107224
 20
322.62027097969076
 11
367.3288842244724
 21
322.62027097969076
  0
LINE
  8
_1-3_細線2
  6
CONTINUOUS
 62
    4
 10
281.0788843107224
 20
292.62027097999066
 11
359.07888423272254
 21
292.62027097999066
  0
LINE
  8
_1-3_細線2
  6
CONTINUOUS
 62
    4
 10
281.0788843107224
 20
350.82027097940841
 11
377.82888421397223
 21
350.82027097940841
  0
LINE
  8
_1-3_細線2
  6
CONTINUOUS
 62
    4
 10
281.0788843107224
 20
343.32027097948344
 11
377.82888421397223
 21
343.32027097948344
  0
LINE
  8
_1-3_細線2
  6
CONTINUOUS
 62
    4
 10
281.0788843107224
 20
340.02027097951623
 11
377.07888421472217
 21
340.02027097951623
  0
LINE
  8
_1-3_細線2
  6
CONTINUOUS
 62
    4
 10
351.10516424069596
 20
227.18736298064437
 11
348.10400424369749
 21
224.186206980675
  0
LINE
  8
_1-3_細線2
  6
CONTINUOUS
 62
    4
 10
243.40430834839546
 20
282.90170298008775
 11
244.42740034737378
 21
284.39932298007284
  0
LINE
  8
_1-3_細線2
  6
CONTINUOUS
 62
    4
 10
242.66791234913327
 20
281.36862698010327
 11
243.40430834839546
 21
282.90170298008775
  0
LINE
  8
_1-3_細線2
  6
CONTINUOUS
 62
    4
 10
231.57888436022239
 20
281.91059498009736
 11
231.57888436022239
 21
278.22027098013496
  0
LINE
  8
_1-3_細線2
  6
CONTINUOUS
 62
    4
 10
242.07541234972538
 20
278.24295898013384
 11
242.22382034957784
 21
279.81176298011883
  0
LINE
  8
_1-3_細線2
  6
CONTINUOUS
 62
    4
 10
242.22382034957784
 20
279.81176298011883
 11
242.66791234913327
 21
281.36862698010327
  0
LINE
  8
_1-3_細線2
  6
CONTINUOUS
 62
    4
 10
281.0788843107224
 20
278.22027098013496
 11
221.07888437072228
 21
278.22027098013496
  0
LINE
  8
_1-3_細線2
  6
CONTINUOUS
 62
    4
 10
281.0788843107224
 20
269.220270980225
 11
221.07888437072228
 21
269.220270980225
  0
LINE
  8
_1-3_細線2
  6
CONTINUOUS
 62
    4
 10
221.07888437072228
 20
269.220270980225
 11
221.07888437072228
 21
224.22027098067494
  0
LINE
  8
_1-3_細線2
  6
CONTINUOUS
 62
    4
 10
211.05260438074851
 20
227.18736298064437
 11
214.05376437774697
 21
224.186206980675
  0
LINE
  8
_1-3_細線2
  6
CONTINUOUS
 62
    4
 10
281.0788843107224
 20
224.22027098067494
 11
214.02888437777295
 21
224.22027098067494
  0
LINE
  8
_1-3_細線2
  6
CONTINUOUS
 62
    4
 10
281.0788843107224
 20
227.22027098064493
 11
351.12888424067154
 21
227.22027098064493
  0
LINE
  8
_1-3_細線2
  6
CONTINUOUS
 62
    4
 10
281.0788843107224
 20
224.22027098067494
 11
348.12888424367151
 21
224.22027098067494
  0
LINE
  8
_1-3_細線2
  6
CONTINUOUS
 62
    4
 10
214.02888437777295
 20
328.32027097963351
 11
214.02888437777295
 21
224.22027098067494
  0
LINE
  8
_1-3_細線2
  6
CONTINUOUS
 62
    4
 10
348.12888424367151
 20
292.62027097999066
 11
348.12888424367151
 21
224.22027098067494
  0
LINE
  8
_1-3_細線2
  6
CONTINUOUS
 62
    4
 10
351.12888424067154
 20
292.62027097999066
 11
351.12888424067154
 21
227.21108298064519
  0
ARC
  8
_1-3_細線2
  6
CONTINUOUS
 62
    4
 10
216.57888437522223
 20
281.91059498009736
 40
14.999999984999999
 50
0
 51
72.549879000004722
  0
LINE
  8
_1-3_細線2
  6
CONTINUOUS
 62
    4
 10
244.42740034737378
 20
284.39932298007284
 11
245.72941234607191
 21
285.85008698005845
  0
LINE
  8
_1-2_極細2
  6
CONTINUOUS
 62
    2
 10
448.72910414307165
 20
370.22277497921505
 11
411.68899618011233
 21
333.18266697958438
  0
LINE
  8
_1-2_極細2
  6
CONTINUOUS
 62
    2
 10
445.9006761458993
 20
373.05120297918563
 11
408.86056818294009
 21
336.0110949795569
  0
LINE
  8
_1-2_極細2
  6
CONTINUOUS
 62
    2
 10
161.38021243042061
 20
373.70677897918017
 11
124.34010446746126
 21
336.66667097954951
  0
LINE
  8
_1-2_極細2
  6
CONTINUOUS
 62
    2
 10
164.20864042759283
 20
370.87835097920765
 11
127.16853246463185
 21
333.83824697957834
  0
LINE
  8
_1-2_極細2
  6
CONTINUOUS
 62
    2
 10
354.5788843107224
 20
337.02027097951623
 11
281.0788843107224
 21
337.02027097951623
  0
LINE
  8
_1-2_極細2
  6
CONTINUOUS
 62
    2
 10
354.5788843107224
 20
340.02027097951623
 11
281.0788843107224
 21
340.02027097951623
  0
LINE
  8
_1-2_極細2
  6
CONTINUOUS
 62
    2
 10
377.0788843107224
 20
340.02027097951623
 11
354.5788843107224
 21
340.02027097951623
  0
LINE
  8
_1-2_極細2
  6
CONTINUOUS
 62
    2
 10
377.0788843107224
 20
337.02027097951623
 11
354.5788843107224
 21
337.02027097951623
  0
LINE
  8
_1-2_極細2
  6
CONTINUOUS
 62
    2
 10
354.5788843107224
 20
337.02027097951623
 11
354.5788843107224
 21
340.02027097951623
  0
LINE
  8
_1-2_極細2
  6
CONTINUOUS
 62
    2
 10
383.0788843107224
 20
357.12027097951704
 11
281.0788843107224
 21
357.12027097951704
  0
ARC
  8
_1-2_極細2
  6
CONTINUOUS
 62
    2
 10
383.0788843107224
 20
352.62027097951704
 40
4.5
 50
89.999999999999915
 51
179.99999999999983
  0
LINE
  8
_1-2_極細2
  6
CONTINUOUS
 62
    2
 10
378.5788843107224
 20
341.52027097951623
 11
378.5788843107224
 21
352.62027097951704
  0
ARC
  8
_1-2_極細2
  6
CONTINUOUS
 62
    2
 10
377.0788843107224
 20
341.52027097951623
 40
4.5
 50
269.99999999999977
 51
359.99999999999966
  0
LINE
  8
_1-2_極細2
  6
CONTINUOUS
 62
    2
 10
381.5788843107224
 20
352.62027097951704
 11
381.5788843107224
 21
341.52027097951623
  0
ARC
  8
_1-2_極細2
  6
CONTINUOUS
 62
    2
 10
383.0788843107224
 20
352.62027097951704
 40
1.5
 50
89.999999999999915
 51
179.99999999999983
  0
ARC
  8
_1-2_極細2
  6
CONTINUOUS
 62
    2
 10
377.0788843107224
 20
341.52027097951623
 40
1.5
 50
269.99999999999977
 51
359.99999999999966
  0
LINE
  8
_1-2_極細2
  6
CONTINUOUS
 62
    2
 10
429.96974416200231
 20
357.12027097951704
 11
383.0788843107224
 21
357.12027097951704
  0
LINE
  8
_1-2_極細2
  6
CONTINUOUS
 62
    2
 10
426.96974416497227
 20
354.12027097951704
 11
383.0788843107224
 21
354.12027097951704
  0
LINE
  8
_1-2_極細2
  6
CONTINUOUS
 62
    2
 10
185.0788843107224
 20
340.02027097951623
 11
207.5788843107224
 21
340.02027097951623
  0
LINE
  8
_1-2_極細2
  6
CONTINUOUS
 62
    2
 10
185.0788843107224
 20
337.02027097951623
 11
207.5788843107224
 21
337.02027097951623
  0
LINE
  8
_1-2_極細2
  6
CONTINUOUS
 62
    2
 10
207.5788843107224
 20
337.02027097951623
 11
207.5788843107224
 21
340.02027097951623
  0
ARC
  8
_1-2_極細2
  6
CONTINUOUS
 62
    2
 10
179.0788843107224
 20
352.62027097951704
 40
4.5
 50
0
 51
89.999999999999915
  0
LINE
  8
_1-2_極細2
  6
CONTINUOUS
 62
    2
 10
183.5788843107224
 20
341.52027097951623
 11
183.5788843107224
 21
352.62027097951704
  0
ARC
  8
_1-2_極細2
  6
CONTINUOUS
 62
    2
 10
185.0788843107224
 20
341.52027097951623
 40
4.5
 50
179.99999999999983
 51
269.99999999999977
  0
LINE
  8
_1-2_極細2
  6
CONTINUOUS
 62
    2
 10
180.5788843107224
 20
352.62027097951704
 11
180.5788843107224
 21
341.52027097951623
  0
ARC
  8
_1-2_極細2
  6
CONTINUOUS
 62
    2
 10
179.0788843107224
 20
352.62027097951704
 40
1.5
 50
0
 51
89.999999999999915
  0
ARC
  8
_1-2_極細2
  6
CONTINUOUS
 62
    2
 10
185.0788843107224
 20
341.52027097951623
 40
1.5
 50
179.99999999999983
 51
269.99999999999977
  0
LINE
  8
_1-2_極細2
  6
CONTINUOUS
 62
    2
 10
150.45055895577269
 20
357.12027097951704
 11
179.0788843107224
 21
357.12027097951704
  0
LINE
  8
_1-2_極細2
  6
CONTINUOUS
 62
    2
 10
147.45055863476944
 20
354.12027097951704
 11
179.0788843107224
 21
354.12027097951704
  0
LINE
  8
_1-2_極細2
  6
CONTINUOUS
 62
    2
 10
425.75275708200945
 20
354.12027097951727
 11
428.75275708200911
 21
357.12027097951704
  0
LINE
  8
_1-2_極細2
  6
CONTINUOUS
 62
    2
 10
423.2071726697377
 20
354.12027097951716
 11
426.20717266973759
 21
357.12027097951704
  0
LINE
  8
_1-2_極細2
  6
CONTINUOUS
 62
    2
 10
420.66158825746624
 20
354.12027097951727
 11
423.66158825746606
 21
357.12027097951704
  0
LINE
  8
_1-2_極細2
  6
CONTINUOUS
 62
    2
 10
418.11600384519454
 20
354.12027097951716
 11
421.11600384519454
 21
357.12027097951704
  0
LINE
  8
_1-2_極細2
  6
CONTINUOUS
 62
    2
 10
415.57041943292319
 20
354.12027097951727
 11
418.57041943292302
 21
357.12027097951716
  0
LINE
  8
_1-2_極細2
  6
CONTINUOUS
 62
    2
 10
413.02483502065149
 20
354.12027097951716
 11
416.02483502065149
 21
357.12027097951704
  0
LINE
  8
_1-2_極細2
  6
CONTINUOUS
 62
    2
 10
410.47925060837997
 20
354.12027097951727
 11
413.47925060837997
 21
357.12027097951716
  0
LINE
  8
_1-2_極細2
  6
CONTINUOUS
 62
    2
 10
407.93366619610845
 20
354.12027097951716
 11
410.93366619610845
 21
357.12027097951704
  0
LINE
  8
_1-2_極細2
  6
CONTINUOUS
 62
    2
 10
405.38808178383692
 20
354.12027097951727
 11
408.38808178383692
 21
357.12027097951716
  0
LINE
  8
_1-2_極細2
  6
CONTINUOUS
 62
    2
 10
402.8424973715654
 20
354.12027097951716
 11
405.84249737156523
 21
357.12027097951704
  0
LINE
  8
_1-2_極細2
  6
CONTINUOUS
 62
    2
 10
400.29691295929388
 20
354.12027097951727
 11
403.29691295929365
 21
357.12027097951716
  0
LINE
  8
_1-2_極細2
  6
CONTINUOUS
 62
    2
 10
397.75132854702218
 20
354.12027097951727
 11
400.75132854702218
 21
357.12027097951716
  0
LINE
  8
_1-2_極細2
  6
CONTINUOUS
 62
    2
 10
378.26483042840152
 20
337.17935727316797
 11
381.41979801707066
 21
340.33432486183733
  0
LINE
  8
_1-2_極細2
  6
CONTINUOUS
 62
    2
 10
395.20574413475083
 20
354.12027097951727
 11
398.2057441347506
 21
357.12027097951716
  0
LINE
  8
_1-2_極細2
  6
CONTINUOUS
 62
    2
 10
375.56015972247832
 20
337.02027097951634
 11
381.57888431072251
 21
343.03899556776048
  0
LINE
  8
_1-2_極細2
  6
CONTINUOUS
 62
    2
 10
392.66015972247914
 20
354.12027097951716
 11
395.66015972247914
 21
357.12027097951704
  0
LINE
  8
_1-2_極細2
  6
CONTINUOUS
 62
    2
 10
373.01457531020662
 20
337.02027097951623
 11
376.01457531020662
 21
340.02027097951623
  0
LINE
  8
_1-2_極細2
  6
CONTINUOUS
 62
    2
 10
378.5788843107224
 20
342.58457998003212
 11
381.5788843107224
 21
345.58457998003212
  0
LINE
  8
_1-2_極細2
  6
CONTINUOUS
 62
    2
 10
390.11457531020778
 20
354.12027097951727
 11
393.11457531020744
 21
357.12027097951716
  0
LINE
  8
_1-2_極細2
  6
CONTINUOUS
 62
    2
 10
370.4689908979351
 20
337.02027097951634
 11
373.4689908979351
 21
340.02027097951634
  0
LINE
  8
_1-2_極細2
  6
CONTINUOUS
 62
    2
 10
378.57888431072251
 20
345.13016439230375
 11
381.5788843107224
 21
348.13016439230364
  0
LINE
  8
_1-2_極細2
  6
CONTINUOUS
 62
    2
 10
387.56899089793609
 20
354.12027097951716
 11
390.56899089793592
 21
357.12027097951704
  0
LINE
  8
_1-2_極細2
  6
CONTINUOUS
 62
    2
 10
367.92340648566358
 20
337.02027097951623
 11
370.92340648566358
 21
340.02027097951623
  0
LINE
  8
_1-2_極細2
  6
CONTINUOUS
 62
    2
 10
378.5788843107224
 20
347.67574880457516
 11
381.57888431072251
 21
350.67574880457516
  0
LINE
  8
_1-2_極細2
  6
CONTINUOUS
 62
    2
 10
385.02340648566451
 20
354.12027097951727
 11
388.0234064856644
 21
357.12027097951716
  0
LINE
  8
_1-2_極細2
  6
CONTINUOUS
 62
    2
 10
365.37782207339205
 20
337.02027097951634
 11
368.37782207339205
 21
340.02027097951645
  0
LINE
  8
_1-2_極細2
  6
CONTINUOUS
 62
    2
 10
378.57888431072251
 20
350.2213332168468
 11
381.88211924005986
 21
353.52456814618392
  0
LINE
  8
_1-2_極細2
  6
CONTINUOUS
 62
    2
 10
382.17458714405552
 20
353.81703605017981
 11
385.47782207339287
 21
357.12027097951716
  0
LINE
  8
_1-2_極細2
  6
CONTINUOUS
 62
    2
 10
362.83223766112053
 20
337.02027097951623
 11
365.83223766112053
 21
340.02027097951634
  0
LINE
  8
_1-2_極細2
  6
CONTINUOUS
 62
    2
 10
378.58135567628847
 20
352.76938899468428
 11
382.92976629555523
 21
357.11779961395098
  0
LINE
  8
_1-2_極細2
  6
CONTINUOUS
 62
    2
 10
360.28665324884901
 20
337.02027097951634
 11
363.28665324884901
 21
340.02027097951634
  0
LINE
  8
_1-2_極細2
  6
CONTINUOUS
 62
    2
 10
357.74106883657731
 20
337.02027097951623
 11
360.74106883657748
 21
340.02027097951623
  0
LINE
  8
_1-2_極細2
  6
CONTINUOUS
 62
    2
 10
355.19548442430596
 20
337.02027097951634
 11
358.19548442430596
 21
340.02027097951634
  0
LINE
  8
_1-2_極細2
  6
CONTINUOUS
 62
    2
 10
354.5788843107224
 20
338.94925527820442
 11
355.64990001203427
 21
340.02027097951623
  0
LINE
  8
_1-2_極細2
  6
CONTINUOUS
 62
    2
 10
352.64990001203375
 20
337.02027097951623
 11
354.5788843107224
 21
338.94925527820487
  0
LINE
  8
_1-2_極細2
  6
CONTINUOUS
 62
    2
 10
350.10431559976223
 20
337.02027097951634
 11
353.10431559976223
 21
340.02027097951634
  0
LINE
  8
_1-2_極細2
  6
CONTINUOUS
 62
    2
 10
347.55873118749071
 20
337.02027097951623
 11
350.55873118749071
 21
340.02027097951623
  0
LINE
  8
_1-2_極細2
  6
CONTINUOUS
 62
    2
 10
345.01314677521918
 20
337.02027097951634
 11
348.01314677521918
 21
340.02027097951645
  0
LINE
  8
_1-2_極細2
  6
CONTINUOUS
 62
    2
 10
342.46756236294766
 20
337.02027097951634
 11
345.46756236294766
 21
340.02027097951634
  0
LINE
  8
_1-2_極細2
  6
CONTINUOUS
 62
    2
 10
339.92197795067614
 20
337.02027097951634
 11
342.92197795067614
 21
340.02027097951634
  0
LINE
  8
_1-2_極細2
  6
CONTINUOUS
 62
    2
 10
337.37639353840444
 20
337.02027097951623
 11
340.37639353840461
 21
340.02027097951634
  0
LINE
  8
_1-2_極細2
  6
CONTINUOUS
 62
    2
 10
334.83080912613309
 20
337.02027097951634
 11
337.83080912613309
 21
340.02027097951634
  0
LINE
  8
_1-2_極細2
  6
CONTINUOUS
 62
    2
 10
332.2852247138614
 20
337.02027097951623
 11
335.2852247138614
 21
340.02027097951623
  0
LINE
  8
_1-2_極細2
  6
CONTINUOUS
 62
    2
 10
329.73964030158982
 20
337.02027097951645
 11
332.73964030159004
 21
340.02027097951645
  0
LINE
  8
_1-2_極細2
  6
CONTINUOUS
 62
    2
 10
327.19405588931835
 20
337.02027097951634
 11
330.19405588931835
 21
340.02027097951634
  0
LINE
  8
_1-2_極細2
  6
CONTINUOUS
 62
    2
 10
324.64847147704677
 20
337.02027097951634
 11
327.64847147704677
 21
340.02027097951645
  0
LINE
  8
_1-2_極細2
  6
CONTINUOUS
 62
    2
 10
322.10288706477513
 20
337.02027097951634
 11
325.1028870647753
 21
340.02027097951634
  0
LINE
  8
_1-2_極細2
  6
CONTINUOUS
 62
    2
 10
319.55730265250372
 20
337.02027097951634
 11
322.55730265250372
 21
340.02027097951634
  0
LINE
  8
_1-2_極細2
  6
CONTINUOUS
 62
    2
 10
317.01171824023209
 20
337.02027097951623
 11
320.01171824023209
 21
340.02027097951634
  0
LINE
  8
_1-2_極細2
  6
CONTINUOUS
 62
    2
 10
314.46613382796056
 20
337.02027097951623
 11
317.46613382796068
 21
340.02027097951634
  0
LINE
  8
_1-2_極細2
  6
CONTINUOUS
 62
    2
 10
311.92054941568904
 20
337.02027097951634
 11
314.92054941568904
 21
340.02027097951634
  0
LINE
  8
_1-2_極細2
  6
CONTINUOUS
 62
    2
 10
309.37496500341751
 20
337.02027097951623
 11
312.37496500341751
 21
340.02027097951634
  0
LINE
  8
_1-2_極細2
  6
CONTINUOUS
 62
    2
 10
306.82938059114599
 20
337.02027097951634
 11
309.82938059114599
 21
340.02027097951634
  0
LINE
  8
_1-2_極細2
  6
CONTINUOUS
 62
    2
 10
304.28379617887447
 20
337.02027097951623
 11
307.28379617887447
 21
340.02027097951623
  0
LINE
  8
_1-2_極細2
  6
CONTINUOUS
 62
    2
 10
301.73821176660294
 20
337.02027097951634
 11
304.73821176660294
 21
340.02027097951634
  0
LINE
  8
_1-2_極細2
  6
CONTINUOUS
 62
    2
 10
299.19262735433125
 20
337.02027097951623
 11
302.19262735433125
 21
340.02027097951623
  0
LINE
  8
_1-2_極細2
  6
CONTINUOUS
 62
    2
 10
296.64704294205967
 20
337.02027097951623
 11
299.64704294205967
 21
340.02027097951634
  0
LINE
  8
_1-2_極細2
  6
CONTINUOUS
 62
    2
 10
294.1014585297882
 20
337.02027097951623
 11
297.1014585297882
 21
340.02027097951634
  0
LINE
  8
_1-2_極細2
  6
CONTINUOUS
 62
    2
 10
291.55587411751662
 20
337.02027097951634
 11
294.55587411751662
 21
340.02027097951634
  0
LINE
  8
_1-2_極細2
  6
CONTINUOUS
 62
    2
 10
289.01028970524499
 20
337.02027097951623
 11
292.01028970524499
 21
340.02027097951623
  0
LINE
  8
_1-2_極細2
  6
CONTINUOUS
 62
    2
 10
286.46470529297346
 20
337.02027097951634
 11
289.46470529297358
 21
340.02027097951634
  0
LINE
  8
_1-2_極細2
  6
CONTINUOUS
 62
    2
 10
283.91912088070194
 20
337.02027097951623
 11
286.91912088070194
 21
340.02027097951623
  0
LINE
  8
_1-2_極細2
  6
CONTINUOUS
 62
    2
 10
281.37353646843042
 20
337.02027097951623
 11
284.37353646843042
 21
340.02027097951634
  0
LINE
  8
_1-2_極細2
  6
CONTINUOUS
 62
    2
 10
281.07888431072251
 20
339.27120323407985
 11
281.82795205615889
 21
340.02027097951634
  0
LINE
  8
_1-2_極細2
  6
CONTINUOUS
 62
    2
 10
207.55158851255419
 20
337.02027097951634
 11
207.57888431072249
 21
337.04756677768466
  0
LINE
  8
_1-2_極細2
  6
CONTINUOUS
 62
    2
 10
205.0060041002825
 20
337.02027097951634
 11
207.57888431072249
 21
339.59315118995619
  0
LINE
  8
_1-2_極細2
  6
CONTINUOUS
 62
    2
 10
202.46041968801089
 20
337.02027097951623
 11
205.46041968801089
 21
340.02027097951634
  0
LINE
  8
_1-2_極細2
  6
CONTINUOUS
 62
    2
 10
199.91483527573945
 20
337.02027097951623
 11
202.91483527573945
 21
340.02027097951634
  0
LINE
  8
_1-2_極細2
  6
CONTINUOUS
 62
    2
 10
197.36925086346784
 20
337.02027097951623
 11
200.36925086346784
 21
340.02027097951623
  0
LINE
  8
_1-2_極細2
  6
CONTINUOUS
 62
    2
 10
194.8236664511964
 20
337.02027097951634
 11
197.8236664511964
 21
340.02027097951634
  0
LINE
  8
_1-2_極細2
  6
CONTINUOUS
 62
    2
 10
192.27808203892479
 20
337.02027097951634
 11
195.27808203892479
 21
340.02027097951634
  0
LINE
  8
_1-2_極細2
  6
CONTINUOUS
 62
    2
 10
189.73249762665327
 20
337.02027097951634
 11
192.73249762665336
 21
340.02027097951634
  0
LINE
  8
_1-2_極細2
  6
CONTINUOUS
 62
    2
 10
187.18691321438175
 20
337.02027097951634
 11
190.18691321438175
 21
340.02027097951634
  0
LINE
  8
_1-2_極細2
  6
CONTINUOUS
 62
    2
 10
184.66079314474393
 20
337.03973532215014
 11
187.64132880211022
 21
340.02027097951634
  0
LINE
  8
_1-2_極細2
  6
CONTINUOUS
 62
    2
 10
182.74704189059429
 20
337.67156848027184
 11
185.09574438983861
 21
340.02027097951634
  0
LINE
  8
_1-2_極細2
  6
CONTINUOUS
 62
    2
 10
181.42438973267019
 20
338.89450073461944
 11
183.63692764136175
 21
341.10703864331094
  0
LINE
  8
_1-2_極細2
  6
CONTINUOUS
 62
    2
 10
180.65903564354738
 20
340.6747310577681
 11
183.5788843107224
 21
343.59457972494329
  0
LINE
  8
_1-2_極細2
  6
CONTINUOUS
 62
    2
 10
180.5788843107224
 20
343.1401641372147
 11
183.5788843107224
 21
346.1401641372147
  0
LINE
  8
_1-2_極細2
  6
CONTINUOUS
 62
    2
 10
180.5788843107224
 20
345.68574854948633
 11
183.57888431072249
 21
348.68574854948633
  0
LINE
  8
_1-2_極細2
  6
CONTINUOUS
 62
    2
 10
180.5788843107224
 20
348.23133296175786
 11
183.57888431072249
 21
351.23133296175786
  0
LINE
  8
_1-2_極細2
  6
CONTINUOUS
 62
    2
 10
180.57888431072249
 20
350.77691737402938
 11
183.45805011015085
 21
353.65608317345789
  0
LINE
  8
_1-2_極細2
  6
CONTINUOUS
 62
    2
 10
180.4605664849573
 20
353.20418396053572
 11
182.6346488668141
 21
355.37826634239264
  0
LINE
  8
_1-2_極細2
  6
CONTINUOUS
 62
    2
 10
178.83106909166725
 20
354.12027097951727
 11
181.2645984899147
 21
356.5538003777649
  0
LINE
  8
_1-2_極細2
  6
CONTINUOUS
 62
    2
 10
176.28548467939547
 20
354.12027097951727
 11
179.28094584977995
 21
357.11573214990165
  0
LINE
  8
_1-2_極細2
  6
CONTINUOUS
 62
    2
 10
173.73990026712403
 20
354.12027097951727
 11
176.73990026712403
 21
357.12027097951716
  0
LINE
  8
_1-2_極細2
  6
CONTINUOUS
 62
    2
 10
171.19431585485242
 20
354.12027097951727
 11
174.19431585485242
 21
357.12027097951716
  0
LINE
  8
_1-2_極細2
  6
CONTINUOUS
 62
    2
 10
168.64873144258098
 20
354.12027097951727
 11
171.64873144258098
 21
357.12027097951716
  0
LINE
  8
_1-2_極細2
  6
CONTINUOUS
 62
    2
 10
166.10314703030937
 20
354.12027097951716
 11
169.10314703030937
 21
357.12027097951716
  0
LINE
  8
_1-2_極細2
  6
CONTINUOUS
 62
    2
 10
163.55756261803793
 20
354.12027097951727
 11
166.55756261803785
 21
357.12027097951727
  0
LINE
  8
_1-2_極細2
  6
CONTINUOUS
 62
    2
 10
161.01197820576633
 20
354.12027097951716
 11
164.01197820576624
 21
357.12027097951716
  0
LINE
  8
_1-2_極細2
  6
CONTINUOUS
 62
    2
 10
158.4663937934948
 20
354.12027097951716
 11
161.46639379349472
 21
357.12027097951716
  0
LINE
  8
_1-2_極細2
  6
CONTINUOUS
 62
    2
 10
155.92080938122319
 20
354.12027097951716
 11
158.92080938122319
 21
357.12027097951716
  0
LINE
  8
_1-2_極細2
  6
CONTINUOUS
 62
    2
 10
153.37522496895167
 20
354.12027097951716
 11
156.37522496895167
 21
357.12027097951716
  0
LINE
  8
_1-2_極細2
  6
CONTINUOUS
 62
    2
 10
150.82964055667998
 20
354.12027097951716
 11
153.82964055667998
 21
357.12027097951704
  0
LINE
  8
_1-2_極細2
  6
CONTINUOUS
 62
    2
 10
148.28405614440845
 20
354.12027097951727
 11
151.28405614440845
 21
357.12027097951716
  0
LINE
  8
_1-2_極細2
  6
CONTINUOUS
 62
    2
 10
203.07888438872209
 20
294.89676451077435
 11
205.35537791950566
 21
292.62027097999066
  0
LINE
  8
_1-2_極細2
  6
CONTINUOUS
 62
    2
 10
203.07888438872209
 20
297.44234892304576
 11
207.90096233177718
 21
292.62027097999066
  0
LINE
  8
_1-2_極細2
  6
CONTINUOUS
 62
    2
 10
203.07888438872209
 20
299.98793333531739
 11
210.44654674404887
 21
292.62027097999066
  0
LINE
  8
_1-2_極細2
  6
CONTINUOUS
 62
    2
 10
203.07888438872209
 20
302.53351774758903
 11
211.02888438077292
 21
294.5835177555382
  0
LINE
  8
_1-2_極細2
  6
CONTINUOUS
 62
    2
 10
203.07888438872209
 20
305.07910215986055
 11
211.02888438077292
 21
297.12910216780961
  0
LINE
  8
_1-2_極細2
  6
CONTINUOUS
 62
    2
 10
203.07888438872209
 20
307.62468657213208
 11
211.02888438077292
 21
299.67468658008124
  0
LINE
  8
_1-2_極細2
  6
CONTINUOUS
 62
    2
 10
203.07888438872209
 20
310.17027098440371
 11
211.02888438077292
 21
302.22027099235288
  0
LINE
  8
_1-2_極細2
  6
CONTINUOUS
 62
    2
 10
186.02017447993904
 20
329.77456530545851
 11
192.98317872283013
 21
322.81156106256742
  0
LINE
  8
_1-2_極細2
  6
CONTINUOUS
 62
    2
 10
203.07888438872209
 20
312.71585539667535
 11
211.02888438077292
 21
304.76585540462452
  0
LINE
  8
_1-2_極細2
  6
CONTINUOUS
 62
    2
 10
185.82888440597225
 20
332.51143979169706
 11
195.72005321003093
 21
322.62027098763815
  0
LINE
  8
_1-2_極細2
  6
CONTINUOUS
 62
    2
 10
203.07888438872209
 20
315.26143980894688
 11
211.02888438077292
 21
307.31143981689604
  0
LINE
  8
_1-2_極細2
  6
CONTINUOUS
 62
    2
 10
185.82888440597225
 20
335.05702420396869
 11
198.26563762505174
 21
322.62027098488898
  0
LINE
  8
_1-2_極細2
  6
CONTINUOUS
 62
    2
 10
203.07888438872209
 20
317.80702422121851
 11
211.02888438077292
 21
309.85702422916768
  0
LINE
  8
_1-2_極細2
  6
CONTINUOUS
 62
    2
 10
186.41122204269612
 20
337.02027097951623
 11
200.81122204007247
 21
322.6202709821398
  0
LINE
  8
_1-2_極細2
  6
CONTINUOUS
 62
    2
 10
203.07888438872209
 20
320.35260863349004
 11
211.02888438077292
 21
312.4026086414392
  0
LINE
  8
_1-2_極細2
  6
CONTINUOUS
 62
    2
 10
188.95680645496765
 20
337.02027097951623
 11
211.02888438077292
 21
314.94819305371084
  0
LINE
  8
_1-2_極細2
  6
CONTINUOUS
 62
    2
 10
191.50239086723917
 20
337.02027097951623
 11
211.02888438077292
 21
317.49377746598236
  0
LINE
  8
_1-2_極細2
  6
CONTINUOUS
 62
    2
 10
194.04797527951069
 20
337.02027097951623
 11
211.02888438077292
 21
320.03936187825389
  0
LINE
  8
_1-2_極細2
  6
CONTINUOUS
 62
    2
 10
196.59355969178239
 20
337.02027097951623
 11
211.02888438077292
 21
322.58494629052552
  0
LINE
  8
_1-2_極細2
  6
CONTINUOUS
 62
    2
 10
199.13914410405391
 20
337.02027097951623
 11
208.19809825410675
 21
327.96131682946339
  0
LINE
  8
_1-2_極細2
  6
CONTINUOUS
 62
    2
 10
201.68472851632544
 20
337.02027097951623
 11
205.32852966821781
 21
333.37646982762385
  0
LINE
  8
_1-2_極細2
  6
CONTINUOUS
 62
    2
 10
209.32148175314018
 20
292.62027097999066
 11
211.02888438077292
 21
294.32767360762341
  0
LINE
  8
_1-2_極細2
  6
CONTINUOUS
 62
    2
 10
206.77589734086857
 20
292.62027097999066
 11
211.02888438077292
 21
296.87325801989505
  0
LINE
  8
_1-2_極細2
  6
CONTINUOUS
 62
    2
 10
204.23031292859704
 20
292.62027097999066
 11
211.02888438077292
 21
299.41884243216646
  0
LINE
  8
_1-2_極細2
  6
CONTINUOUS
 62
    2
 10
203.07888438872209
 20
294.01442685238726
 11
211.02888438077292
 21
301.96442684443809
  0
LINE
  8
_1-2_極細2
  6
CONTINUOUS
 62
    2
 10
203.07888438872209
 20
296.5600112646589
 11
211.02888438077292
 21
304.51001125670962
  0
LINE
  8
_1-2_極細2
  6
CONTINUOUS
 62
    2
 10
203.07888438872209
 20
299.10559567693053
 11
211.02888438077292
 21
307.05559566898114
  0
LINE
  8
_1-2_極細2
  6
CONTINUOUS
 62
    2
 10
203.07888438872209
 20
301.65118008920206
 11
211.02888438077292
 21
309.60118008125278
  0
LINE
  8
_1-2_極細2
  6
CONTINUOUS
 62
    2
 10
203.07888438872209
 20
304.19676450147358
 11
211.02888438077292
 21
312.1467644935243
  0
LINE
  8
_1-2_極細2
  6
CONTINUOUS
 62
    2
 10
203.07888438872209
 20
306.74234891374522
 11
211.02888438077292
 21
314.69234890579582
  0
LINE
  8
_1-2_極細2
  6
CONTINUOUS
 62
    2
 10
203.07888438872209
 20
309.28793332601674
 11
211.02888438077292
 21
317.23793331806746
  0
LINE
  8
_1-2_極細2
  6
CONTINUOUS
 62
    2
 10
203.07888438872209
 20
311.83351773828826
 11
211.02888438077292
 21
319.78351773033899
  0
LINE
  8
_1-2_極細2
  6
CONTINUOUS
 62
    2
 10
203.07888438872209
 20
314.3791021505599
 11
211.02888438077292
 21
322.32910214261051
  0
LINE
  8
_1-2_極細2
  6
CONTINUOUS
 62
    2
 10
203.07888438872209
 20
316.92468656283143
 11
210.2477063238982
 21
324.0935084980074
  0
LINE
  8
_1-2_極細2
  6
CONTINUOUS
 62
    2
 10
203.07888438872209
 20
319.47027097510295
 11
209.36599545551525
 21
325.75738204189611
  0
LINE
  8
_1-2_極細2
  6
CONTINUOUS
 62
    2
 10
203.07888438872209
 20
322.01585538737459
 11
208.48428458713238
 21
327.42125558578471
  0
LINE
  8
_1-2_極細2
  6
CONTINUOUS
 62
    2
 10
201.13771557086318
 20
322.62027098178714
 11
207.60257371874943
 21
329.08512912967331
  0
LINE
  8
_1-2_極細2
  6
CONTINUOUS
 62
    2
 10
198.59213116134077
 20
322.62027098453632
 11
206.72086285036647
 21
330.74900267356202
  0
LINE
  8
_1-2_極細2
  6
CONTINUOUS
 62
    2
 10
196.04654675181854
 20
322.62027098728561
 11
205.8391519819836
 21
332.41287621745062
  0
LINE
  8
_1-2_極細2
  6
CONTINUOUS
 62
    2
 10
193.58704930539952
 20
322.70635795313819
 11
204.95744111360065
 21
334.07674976133922
  0
LINE
  8
_1-2_極細2
  6
CONTINUOUS
 62
    2
 10
191.5672048961182
 20
323.23209795612843
 11
204.0757302452177
 21
335.74062330522793
  0
LINE
  8
_1-2_極細2
  6
CONTINUOUS
 62
    2
 10
189.88758743591575
 20
324.09806490819756
 11
202.80979350723439
 21
337.02027097951623
  0
LINE
  8
_1-2_極細2
  6
CONTINUOUS
 62
    2
 10
188.4826102315223
 20
325.2386721160758
 11
200.26420909496295
 21
337.02027097951623
  0
LINE
  8
_1-2_極細2
  6
CONTINUOUS
 62
    2
 10
187.33479236970345
 20
326.63643866652831
 11
197.71862468269134
 21
337.02027097951623
  0
LINE
  8
_1-2_極細2
  6
CONTINUOUS
 62
    2
 10
186.46061902523189
 20
328.30784973432844
 11
195.17304027041982
 21
337.02027097951623
  0
LINE
  8
_1-2_極細2
  6
CONTINUOUS
 62
    2
 10
185.92380229587155
 20
330.31661741723974
 11
192.62745585814821
 21
337.02027097951623
  0
LINE
  8
_1-2_極細2
  6
CONTINUOUS
 62
    2
 10
185.82888440597225
 20
332.76728393961184
 11
190.08187144587669
 21
337.02027097951623
  0
LINE
  8
_1-2_極細2
  6
CONTINUOUS
 62
    2
 10
185.82888440597225
 20
335.31286835188337
 11
187.53628703360499
 21
337.02027097951623
  0
LINE
  8
_1-2_極細2
  6
CONTINUOUS
 62
    2
 10
209.65942025722467
 20
340.02027097951634
 11
210.1255271267473
 21
340.48637784903894
  0
LINE
  8
_1-2_極細2
  6
CONTINUOUS
 62
    2
 10
208.8108921198006
 20
340.02027097951634
 11
209.77789428708886
 21
340.98727314680468
  0
LINE
  8
_1-2_極細2
  6
CONTINUOUS
 62
    2
 10
207.96236398237687
 20
340.02027097951634
 11
209.38665846688383
 21
341.4445654640233
  0
LINE
  8
_1-2_極細2
  6
CONTINUOUS
 62
    2
 10
207.11383584495314
 20
340.02027097951634
 11
208.95284080079176
 21
341.85927593535484
  0
LINE
  8
_1-2_極細2
  6
CONTINUOUS
 62
    2
 10
206.26530770752942
 20
340.02027097951634
 11
208.47614926410432
 21
342.23111253609125
  0
LINE
  8
_1-2_極細2
  6
CONTINUOUS
 62
    2
 10
205.41677957010526
 20
340.02027097951634
 11
207.95493227036326
 21
342.55842367977425
  0
LINE
  8
_1-2_極細2
  6
CONTINUOUS
 62
    2
 10
204.56825143268154
 20
340.02027097951634
 11
207.38590200737843
 21
342.83792155421315
  0
LINE
  8
_1-2_極細2
  6
CONTINUOUS
 62
    2
 10
203.71972329525781
 20
340.02027097951634
 11
206.76350921110765
 21
343.06405689536609
  0
LINE
  8
_1-2_極細2
  6
CONTINUOUS
 62
    2
 10
202.87119515783408
 20
340.02027097951634
 11
206.07864779893177
 21
343.22772362061414
  0
LINE
  8
_1-2_極細2
  6
CONTINUOUS
 62
    2
 10
202.0226670204101
 20
340.02027097951634
 11
205.31580290190044
 21
343.31340686100623
  0
LINE
  8
_1-2_極細2
  6
CONTINUOUS
 62
    2
 10
201.17413888298637
 20
340.02027097951634
 11
204.47413887717272
 21
343.32027097370269
  0
LINE
  8
_1-2_極細2
  6
CONTINUOUS
 62
    2
 10
200.32561074556264
 20
340.02027097951634
 11
203.62561073999242
 21
343.32027097394621
  0
LINE
  8
_1-2_極細2
  6
CONTINUOUS
 62
    2
 10
199.47708260813891
 20
340.02027097951634
 11
202.77708260281221
 21
343.32027097418961
  0
LINE
  8
_1-2_極細2
  6
CONTINUOUS
 62
    2
 10
198.62855447071485
 20
340.02027097951634
 11
201.92855446563175
 21
343.32027097443324
  0
LINE
  8
_1-2_極細2
  6
CONTINUOUS
 62
    2
 10
197.78002633329112
 20
340.02027097951634
 11
201.08002632845154
 21
343.32027097467665
  0
LINE
  8
_1-2_極細2
  6
CONTINUOUS
 62
    2
 10
196.93149819586739
 20
340.02027097951634
 11
200.23149819127133
 21
343.32027097492005
  0
LINE
  8
_1-2_極細2
  6
CONTINUOUS
 62
    2
 10
196.08297005844366
 20
340.02027097951634
 11
199.38297005409069
 21
343.32027097516357
  0
LINE
  8
_1-2_極細2
  6
CONTINUOUS
 62
    2
 10
195.2344419210196
 20
340.02027097951634
 11
198.53444191691057
 21
343.32027097540708
  0
LINE
  8
_1-2_極細2
  6
CONTINUOUS
 62
    2
 10
194.38591378359587
 20
340.02027097951634
 11
197.68591377973036
 21
343.3202709756506
  0
LINE
  8
_1-2_極細2
  6
CONTINUOUS
 62
    2
 10
193.53738564617214
 20
340.02027097951634
 11
196.8373856425498
 21
343.32027097589412
  0
LINE
  8
_1-2_極細2
  6
CONTINUOUS
 62
    2
 10
192.68885750874841
 20
340.02027097951634
 11
195.98885750536959
 21
343.32027097613764
  0
LINE
  8
_1-2_極細2
  6
CONTINUOUS
 62
    2
 10
191.84032937132426
 20
340.02027097951634
 11
195.14032936818938
 21
343.32027097638115
  0
LINE
  8
_1-2_極細2
  6
CONTINUOUS
 62
    2
 10
190.99180123390053
 20
340.02027097951634
 11
194.29180123100875
 21
343.32027097662456
  0
LINE
  8
_1-2_極細2
  6
CONTINUOUS
 62
    2
 10
190.1432730964768
 20
340.02027097951634
 11
193.44327309382854
 21
343.32027097686807
  0
LINE
  8
_1-2_極細2
  6
CONTINUOUS
 62
    2
 10
189.29474495905308
 20
340.02027097951634
 11
192.59474495664833
 21
343.32027097711159
  0
LINE
  8
_1-2_極細2
  6
CONTINUOUS
 62
    2
 10
188.44621682162909
 20
340.02027097951634
 11
191.74621681946786
 21
343.32027097735499
  0
LINE
  8
_1-2_極細2
  6
CONTINUOUS
 62
    2
 10
187.59768868420537
 20
340.02027097951634
 11
190.89768868228765
 21
343.32027097759851
  0
LINE
  8
_1-2_極細2
  6
CONTINUOUS
 62
    2
 10
186.74916054678164
 20
340.02027097951634
 11
190.04916054510744
 21
343.32027097784203
  0
LINE
  8
_1-2_極細2
  6
CONTINUOUS
 62
    2
 10
185.90063240935791
 20
340.02027097951634
 11
189.20063240792689
 21
343.32027097808555
  0
LINE
  8
_1-2_極細2
  6
CONTINUOUS
 62
    2
 10
185.07888440672215
 20
340.04705111430462
 11
188.35210427074668
 21
343.32027097832895
  0
LINE
  8
_1-2_極細2
  6
CONTINUOUS
 62
    2
 10
185.07888440672215
 20
340.89557925172835
 11
187.50357613356638
 21
343.32027097857258
  0
LINE
  8
_1-2_極細2
  6
CONTINUOUS
 62
    2
 10
185.07888440672215
 20
341.74410738915219
 11
186.65504799638592
 21
343.32027097881598
  0
LINE
  8
_1-2_極細2
  6
CONTINUOUS
 62
    2
 10
185.07888440672215
 20
342.59263552657603
 11
185.80651985920571
 21
343.32027097905939
  0
LINE
  8
_1-2_極細2
  6
CONTINUOUS
 62
    2
 10
210.35914501423548
 20
340.07496180998578
 11
207.78357521721495
 21
342.65053160700609
  0
LINE
  8
_1-2_極細2
  6
CONTINUOUS
 62
    2
 10
209.56530770728085
 20
340.02027097951634
 11
206.43157255454031
 21
343.15400613225688
  0
LINE
  8
_1-2_極細2
  6
CONTINUOUS
 62
    2
 10
208.71677956985712
 20
340.02027097951634
 11
205.43021694099895
 21
343.30683360837452
  0
LINE
  8
_1-2_極細2
  6
CONTINUOUS
 62
    2
 10
207.8682514324334
 20
340.02027097951634
 11
204.56825143827399
 21
343.32027097367563
  0
LINE
  8
_1-2_極細2
  6
CONTINUOUS
 62
    2
 10
207.01972329500967
 20
340.02027097951634
 11
203.71972330060674
 21
343.32027097391915
  0
LINE
  8
_1-2_極細2
  6
CONTINUOUS
 62
    2
 10
206.17119515758594
 20
340.02027097951634
 11
202.8711951629395
 21
343.32027097416267
  0
LINE
  8
_1-2_極細2
  6
CONTINUOUS
 62
    2
 10
205.32266702016221
 20
340.02027097951634
 11
202.02266702527226
 21
343.32027097440607
  0
LINE
  8
_1-2_極細2
  6
CONTINUOUS
 62
    2
 10
204.47413888273849
 20
340.02027097951634
 11
201.17413888760501
 21
343.32027097464959
  0
LINE
  8
_1-2_極細2
  6
CONTINUOUS
 62
    2
 10
203.62561074531476
 20
340.02027097951634
 11
200.32561074993777
 21
343.32027097489322
  0
LINE
  8
_1-2_極細2
  6
CONTINUOUS
 62
    2
 10
202.77708260789061
 20
340.02027097951634
 11
199.47708261227052
 21
343.32027097513662
  0
LINE
  8
_1-2_極細2
  6
CONTINUOUS
 62
    2
 10
201.92855447046688
 20
340.02027097951634
 11
198.62855447460328
 21
343.32027097538003
  0
LINE
  8
_1-2_極細2
  6
CONTINUOUS
 62
    2
 10
201.08002633304315
 20
340.02027097951634
 11
197.78002633693603
 21
343.32027097562366
  0
LINE
  8
_1-2_極細2
  6
CONTINUOUS
 62
    2
 10
200.23149819561942
 20
340.02027097951634
 11
196.93149819926879
 21
343.32027097586706
  0
LINE
  8
_1-2_極細2
  6
CONTINUOUS
 62
    2
 10
199.3829700581957
 20
340.02027097951634
 11
196.08297006160154
 21
343.32027097611058
  0
LINE
  8
_1-2_極細2
  6
CONTINUOUS
 62
    2
 10
198.53444192077197
 20
340.02027097951634
 11
195.2344419239343
 21
343.3202709763541
  0
LINE
  8
_1-2_極細2
  6
CONTINUOUS
 62
    2
 10
197.68591378334824
 20
340.02027097951634
 11
194.38591378626705
 21
343.32027097659761
  0
LINE
  8
_1-2_極細2
  6
CONTINUOUS
 62
    2
 10
196.83738564592451
 20
340.02027097951634
 11
193.53738564859981
 21
343.32027097684113
  0
LINE
  8
_1-2_極細2
  6
CONTINUOUS
 62
    2
 10
195.98885750850053
 20
340.02027097951634
 11
192.68885751093256
 21
343.32027097708453
  0
LINE
  8
_1-2_極細2
  6
CONTINUOUS
 62
    2
 10
195.1403293710768
 20
340.02027097951634
 11
191.84032937326532
 21
343.32027097732816
  0
LINE
  8
_1-2_極細2
  6
CONTINUOUS
 62
    2
 10
194.29180123365308
 20
340.02027097951634
 11
190.99180123559773
 21
343.32027097757145
  0
LINE
  8
_1-2_極細2
  6
CONTINUOUS
 62
    2
 10
193.44327309622935
 20
340.02027097951634
 11
190.14327309793083
 21
343.32027097781497
  0
LINE
  8
_1-2_極細2
  6
CONTINUOUS
 62
    2
 10
192.59474495880562
 20
340.02027097951634
 11
189.29474496026316
 21
343.32027097805849
  0
LINE
  8
_1-2_極細2
  6
CONTINUOUS
 62
    2
 10
191.74621682138189
 20
340.02027097951634
 11
188.44621682259591
 21
343.32027097830201
  0
LINE
  8
_1-2_極細2
  6
CONTINUOUS
 62
    2
 10
190.89768868395817
 20
340.02027097951634
 11
187.59768868492867
 21
343.32027097854552
  0
LINE
  8
_1-2_極細2
  6
CONTINUOUS
 62
    2
 10
190.04916054653444
 20
340.02027097951634
 11
186.74916054726151
 21
343.32027097878904
  0
LINE
  8
_1-2_極細2
  6
CONTINUOUS
 62
    2
 10
189.20063240911037
 20
340.02027097951634
 11
185.90063240959427
 21
343.32027097903244
  0
LINE
  8
_1-2_極細2
  6
CONTINUOUS
 62
    2
 10
188.35210427168664
 20
340.02027097951634
 11
185.07888440672215
 21
343.29349084448086
  0
LINE
  8
_1-2_極細2
  6
CONTINUOUS
 62
    2
 10
187.50357613426291
 20
340.02027097951634
 11
185.07888440672215
 21
342.44496270705702
  0
LINE
  8
_1-2_極細2
  6
CONTINUOUS
 62
    2
 10
186.65504799683919
 20
340.02027097951634
 11
185.07888440672215
 21
341.59643456963329
  0
LINE
  8
_1-2_極細2
  6
CONTINUOUS
 62
    2
 10
185.80651985941546
 20
340.02027097951634
 11
185.07888440672215
 21
340.74790643220945
  0
LINE
  8
_1-2_極細2
  6
CONTINUOUS
 62
    2
 10
376.64351623332226
 20
340.02027097951634
 11
377.07888421472256
 21
340.45563896091664
  0
LINE
  8
_1-2_極細2
  6
CONTINUOUS
 62
    2
 10
375.79498809589853
 20
340.02027097951634
 11
377.07888421472256
 21
341.30416709834037
  0
LINE
  8
_1-2_極細2
  6
CONTINUOUS
 62
    2
 10
374.9464599584748
 20
340.02027097951634
 11
377.07888421472256
 21
342.15269523576421
  0
LINE
  8
_1-2_極細2
  6
CONTINUOUS
 62
    2
 10
374.09793182105108
 20
340.02027097951634
 11
377.07888421472256
 21
343.00122337318794
  0
LINE
  8
_1-2_極細2
  6
CONTINUOUS
 62
    2
 10
373.24940368362718
 20
340.02027097951634
 11
376.54940368359433
 21
343.32027097948344
  0
LINE
  8
_1-2_極細2
  6
CONTINUOUS
 62
    2
 10
372.40087554620345
 20
340.02027097951634
 11
375.70087554617061
 21
343.32027097948344
  0
LINE
  8
_1-2_極細2
  6
CONTINUOUS
 62
    2
 10
371.55234740877972
 20
340.02027097951634
 11
374.85234740874648
 21
343.32027097948344
  0
LINE
  8
_1-2_極細2
  6
CONTINUOUS
 62
    2
 10
370.703819271356
 20
340.02027097951634
 11
374.00381927132275
 21
343.32027097948344
  0
LINE
  8
_1-2_極細2
  6
CONTINUOUS
 62
    2
 10
369.85529113393176
 20
340.02027097951634
 11
373.15529113389903
 21
343.32027097948344
  0
LINE
  8
_1-2_極細2
  6
CONTINUOUS
 62
    2
 10
369.00676299650803
 20
340.02027097951634
 11
372.30676299647502
 21
343.32027097948344
  0
LINE
  8
_1-2_極細2
  6
CONTINUOUS
 62
    2
 10
368.1582348590843
 20
340.02027097951634
 11
371.45823485905129
 21
343.32027097948344
  0
LINE
  8
_1-2_極細2
  6
CONTINUOUS
 62
    2
 10
367.30970672166058
 20
340.02027097951634
 11
370.60970672162756
 21
343.32027097948344
  0
LINE
  8
_1-2_極細2
  6
CONTINUOUS
 62
    2
 10
366.46117858423645
 20
340.02027097951634
 11
369.76117858420383
 21
343.32027097948344
  0
LINE
  8
_1-2_極細2
  6
CONTINUOUS
 62
    2
 10
365.61265044681272
 20
340.02027097951634
 11
368.91265044678011
 21
343.32027097948344
  0
LINE
  8
_1-2_極細2
  6
CONTINUOUS
 62
    2
 10
364.76412230938899
 20
340.02027097951634
 11
368.06412230935621
 21
343.32027097948344
  0
LINE
  8
_1-2_極細2
  6
CONTINUOUS
 62
    2
 10
363.91559417196527
 20
340.02027097951634
 11
367.21559417193248
 21
343.32027097948344
  0
LINE
  8
_1-2_極細2
  6
CONTINUOUS
 62
    2
 10
363.06706603454126
 20
340.02027097951634
 11
366.36706603450875
 21
343.32027097948344
  0
LINE
  8
_1-2_極細2
  6
CONTINUOUS
 62
    2
 10
362.21853789711753
 20
340.02027097951634
 11
365.51853789708503
 21
343.32027097948344
  0
LINE
  8
_1-2_極細2
  6
CONTINUOUS
 62
    2
 10
361.3700097596938
 20
340.02027097951634
 11
364.67000975966079
 21
343.32027097948344
  0
LINE
  8
_1-2_極細2
  6
CONTINUOUS
 62
    2
 10
360.52148162227007
 20
340.02027097951634
 11
363.82148162223706
 21
343.32027097948344
  0
LINE
  8
_1-2_極細2
  6
CONTINUOUS
 62
    2
 10
359.67295348484595
 20
340.02027097951634
 11
362.97295348481333
 21
343.32027097948344
  0
LINE
  8
_1-2_極細2
  6
CONTINUOUS
 62
    2
 10
358.82442534742222
 20
340.02027097951634
 11
362.1244253473896
 21
343.32027097948344
  0
LINE
  8
_1-2_極細2
  6
CONTINUOUS
 62
    2
 10
357.97589720999849
 20
340.02027097951634
 11
361.27589720996548
 21
343.32027097948344
  0
LINE
  8
_1-2_極細2
  6
CONTINUOUS
 62
    2
 10
357.12736907257477
 20
340.02027097951634
 11
360.42736907254175
 21
343.32027097948344
  0
LINE
  8
_1-2_極細2
  6
CONTINUOUS
 62
    2
 10
356.27884093515092
 20
340.02027097951634
 11
359.57884093511802
 21
343.32027097948344
  0
LINE
  8
_1-2_極細2
  6
CONTINUOUS
 62
    2
 10
355.4303127977272
 20
340.02027097951634
 11
358.7303127976943
 21
343.32027097948344
  0
LINE
  8
_1-2_極細2
  6
CONTINUOUS
 62
    2
 10
354.58178466030347
 20
340.02027097951634
 11
357.88178466027028
 21
343.32027097948344
  0
LINE
  8
_1-2_極細2
  6
CONTINUOUS
 62
    2
 10
353.73325652287974
 20
340.02027097951634
 11
357.03325652284656
 21
343.32027097948344
  0
LINE
  8
_1-2_極細2
  6
CONTINUOUS
 62
    2
 10
352.88472838545545
 20
340.02027097951634
 11
356.18472838542283
 21
343.32027097948344
  0
LINE
  8
_1-2_極細2
  6
CONTINUOUS
 62
    2
 10
352.03620024803172
 20
340.02027097951634
 11
355.3362002479991
 21
343.32027097948344
  0
LINE
  8
_1-2_極細2
  6
CONTINUOUS
 62
    2
 10
351.18767211060799
 20
340.02027097951634
 11
354.48767211057498
 21
343.32027097948344
  0
LINE
  8
_1-2_極細2
  6
CONTINUOUS
 62
    2
 10
350.33914397318426
 20
340.02027097951634
 11
353.63914397315125
 21
343.32027097948344
  0
LINE
  8
_1-2_極細2
  6
CONTINUOUS
 62
    2
 10
349.49061583576025
 20
340.02027097951634
 11
352.79061583572752
 21
343.32027097948344
  0
LINE
  8
_1-2_極細2
  6
CONTINUOUS
 62
    2
 10
348.64208769833652
 20
340.02027097951634
 11
351.94208769830379
 21
343.32027097948344
  0
LINE
  8
_1-2_極細2
  6
CONTINUOUS
 62
    2
 10
347.7935595609128
 20
340.02027097951634
 11
351.09355956087995
 21
343.32027097948344
  0
LINE
  8
_1-2_極細2
  6
CONTINUOUS
 62
    2
 10
346.94503142348907
 20
340.02027097951634
 11
350.24503142345623
 21
343.32027097948344
  0
LINE
  8
_1-2_極細2
  6
CONTINUOUS
 62
    2
 10
346.09650328606494
 20
340.02027097951634
 11
349.3965032860325
 21
343.32027097948344
  0
LINE
  8
_1-2_極細2
  6
CONTINUOUS
 62
    2
 10
345.24797514864122
 20
340.02027097951634
 11
348.54797514860877
 21
343.32027097948344
  0
LINE
  8
_1-2_極細2
  6
CONTINUOUS
 62
    2
 10
344.39944701121749
 20
340.02027097951634
 11
347.69944701118447
 21
343.32027097948344
  0
LINE
  8
_1-2_極細2
  6
CONTINUOUS
 62
    2
 10
343.55091887379376
 20
340.02027097951634
 11
346.85091887376075
 21
343.32027097948344
  0
LINE
  8
_1-2_極細2
  6
CONTINUOUS
 62
    2
 10
342.70239073636975
 20
340.02027097951634
 11
346.00239073633702
 21
343.32027097948344
  0
LINE
  8
_1-2_極細2
  6
CONTINUOUS
 62
    2
 10
341.85386259894602
 20
340.02027097951634
 11
345.15386259891329
 21
343.32027097948344
  0
LINE
  8
_1-2_極細2
  6
CONTINUOUS
 62
    2
 10
341.0053344615223
 20
340.02027097951634
 11
344.30533446148928
 21
343.32027097948344
  0
LINE
  8
_1-2_極細2
  6
CONTINUOUS
 62
    2
 10
340.15680632409857
 20
340.02027097951634
 11
343.45680632406555
 21
343.32027097948344
  0
LINE
  8
_1-2_極細2
  6
CONTINUOUS
 62
    2
 10
339.30827818667467
 20
340.02027097951634
 11
342.60827818664183
 21
343.32027097948344
  0
LINE
  8
_1-2_極細2
  6
CONTINUOUS
 62
    2
 10
338.45975004925094
 20
340.02027097951634
 11
341.7597500492181
 21
343.32027097948344
  0
LINE
  8
_1-2_極細2
  6
CONTINUOUS
 62
    2
 10
337.61122191182722
 20
340.02027097951634
 11
340.91122191179397
 21
343.32027097948344
  0
LINE
  8
_1-2_極細2
  6
CONTINUOUS
 62
    2
 10
336.76269377440349
 20
340.02027097951634
 11
340.06269377437025
 21
343.32027097948344
  0
LINE
  8
_1-2_極細2
  6
CONTINUOUS
 62
    2
 10
335.91416563697925
 20
340.02027097951634
 11
339.21416563694652
 21
343.32027097948344
  0
LINE
  8
_1-2_極細2
  6
CONTINUOUS
 62
    2
 10
335.06563749955552
 20
340.02027097951634
 11
338.36563749952279
 21
343.32027097948344
  0
LINE
  8
_1-2_極細2
  6
CONTINUOUS
 62
    2
 10
334.21710936213179
 20
340.02027097951634
 11
337.51710936209878
 21
343.32027097948344
  0
LINE
  8
_1-2_極細2
  6
CONTINUOUS
 62
    2
 10
333.36858122470807
 20
340.02027097951634
 11
336.66858122467505
 21
343.32027097948344
  0
LINE
  8
_1-2_極細2
  6
CONTINUOUS
 62
    2
 10
332.52005308728394
 20
340.02027097951634
 11
335.82005308725132
 21
343.32027097948344
  0
LINE
  8
_1-2_極細2
  6
CONTINUOUS
 62
    2
 10
331.67152494986021
 20
340.02027097951634
 11
334.9715249498276
 21
343.32027097948344
  0
LINE
  8
_1-2_極細2
  6
CONTINUOUS
 62
    2
 10
330.82299681243649
 20
340.02027097951634
 11
334.1229968124037
 21
343.32027097948344
  0
LINE
  8
_1-2_極細2
  6
CONTINUOUS
 62
    2
 10
329.97446867501276
 20
340.02027097951634
 11
333.27446867497997
 21
343.32027097948344
  0
LINE
  8
_1-2_極細2
  6
CONTINUOUS
 62
    2
 10
329.12594053758875
 20
340.02027097951634
 11
332.42594053755624
 21
343.32027097948344
  0
LINE
  8
_1-2_極細2
  6
CONTINUOUS
 62
    2
 10
328.27741240016502
 20
340.02027097951634
 11
331.57741240013252
 21
343.32027097948344
  0
LINE
  8
_1-2_極細2
  6
CONTINUOUS
 62
    2
 10
327.42888426274129
 20
340.02027097951634
 11
330.72888426270828
 21
343.32027097948344
  0
LINE
  8
_1-2_極細2
  6
CONTINUOUS
 62
    2
 10
326.58035612531756
 20
340.02027097951634
 11
329.88035612528455
 21
343.32027097948344
  0
LINE
  8
_1-2_極細2
  6
CONTINUOUS
 62
    2
 10
325.73182798789344
 20
340.02027097951634
 11
329.03182798786082
 21
343.32027097948344
  0
LINE
  8
_1-2_極細2
  6
CONTINUOUS
 62
    2
 10
324.88329985046971
 20
340.02027097951634
 11
328.18329985043709
 21
343.32027097948344
  0
LINE
  8
_1-2_極細2
  6
CONTINUOUS
 62
    2
 10
324.03477171304598
 20
340.02027097951634
 11
327.33477171301297
 21
343.32027097948344
  0
LINE
  8
_1-2_極細2
  6
CONTINUOUS
 62
    2
 10
323.18624357562226
 20
340.02027097951634
 11
326.48624357558924
 21
343.32027097948344
  0
LINE
  8
_1-2_極細2
  6
CONTINUOUS
 62
    2
 10
322.33771543819842
 20
340.02027097951634
 11
325.63771543816551
 21
343.32027097948344
  0
LINE
  8
_1-2_極細2
  6
CONTINUOUS
 62
    2
 10
321.48918730077469
 20
340.02027097951634
 11
324.78918730074179
 21
343.32027097948344
  0
LINE
  8
_1-2_極細2
  6
CONTINUOUS
 62
    2
 10
320.64065916335096
 20
340.02027097951634
 11
323.94065916331778
 21
343.32027097948344
  0
LINE
  8
_1-2_極細2
  6
CONTINUOUS
 62
    2
 10
319.79213102592723
 20
340.02027097951634
 11
323.09213102589405
 21
343.32027097948344
  0
LINE
  8
_1-2_極細2
  6
CONTINUOUS
 62
    2
 10
318.94360288850294
 20
340.02027097951634
 11
322.24360288847032
 21
343.32027097948344
  0
LINE
  8
_1-2_極細2
  6
CONTINUOUS
 62
    2
 10
318.09507475107921
 20
340.02027097951634
 11
321.39507475104659
 21
343.32027097948344
  0
LINE
  8
_1-2_極細2
  6
CONTINUOUS
 62
    2
 10
317.24654661365548
 20
340.02027097951634
 11
320.54654661362247
 21
343.32027097948344
  0
LINE
  8
_1-2_極細2
  6
CONTINUOUS
 62
    2
 10
316.39801847623175
 20
340.02027097951634
 11
319.69801847619874
 21
343.32027097948344
  0
LINE
  8
_1-2_極細2
  6
CONTINUOUS
 62
    2
 10
315.54949033880774
 20
340.02027097951634
 11
318.84949033877501
 21
343.32027097948344
  0
LINE
  8
_1-2_極細2
  6
CONTINUOUS
 62
    2
 10
314.70096220138402
 20
340.02027097951634
 11
318.00096220135129
 21
343.32027097948344
  0
LINE
  8
_1-2_極細2
  6
CONTINUOUS
 62
    2
 10
313.85243406396029
 20
340.02027097951634
 11
317.15243406392744
 21
343.32027097948344
  0
LINE
  8
_1-2_極細2
  6
CONTINUOUS
 62
    2
 10
313.00390592653656
 20
340.02027097951634
 11
316.30390592650372
 21
343.32027097948344
  0
LINE
  8
_1-2_極細2
  6
CONTINUOUS
 62
    2
 10
312.15537778911244
 20
340.02027097951634
 11
315.45537778907999
 21
343.32027097948344
  0
LINE
  8
_1-2_極細2
  6
CONTINUOUS
 62
    2
 10
311.30684965168871
 20
340.02027097951634
 11
314.60684965165626
 21
343.32027097948344
  0
LINE
  8
_1-2_極細2
  6
CONTINUOUS
 62
    2
 10
310.45832151426498
 20
340.02027097951634
 11
313.75832151423197
 21
343.32027097948344
  0
LINE
  8
_1-2_極細2
  6
CONTINUOUS
 62
    2
 10
309.60979337684125
 20
340.02027097951634
 11
312.90979337680824
 21
343.32027097948344
  0
LINE
  8
_1-2_極細2
  6
CONTINUOUS
 62
    2
 10
308.76126523941724
 20
340.02027097951634
 11
312.06126523938451
 21
343.32027097948344
  0
LINE
  8
_1-2_極細2
  6
CONTINUOUS
 62
    2
 10
307.91273710199351
 20
340.02027097951634
 11
311.21273710196078
 21
343.32027097948344
  0
LINE
  8
_1-2_極細2
  6
CONTINUOUS
 62
    2
 10
307.06420896456979
 20
340.02027097951634
 11
310.36420896453677
 21
343.32027097948344
  0
LINE
  8
_1-2_極細2
  6
CONTINUOUS
 62
    2
 10
306.21568082714606
 20
340.02027097951634
 11
309.51568082711304
 21
343.32027097948344
  0
LINE
  8
_1-2_極細2
  6
CONTINUOUS
 62
    2
 10
305.36715268972216
 20
340.02027097951634
 11
308.66715268968932
 21
343.32027097948344
  0
LINE
  8
_1-2_極細2
  6
CONTINUOUS
 62
    2
 10
304.51862455229843
 20
340.02027097951634
 11
307.81862455226559
 21
343.32027097948344
  0
LINE
  8
_1-2_極細2
  6
CONTINUOUS
 62
    2
 10
303.67009641487471
 20
340.02027097951634
 11
306.97009641484146
 21
343.32027097948344
  0
LINE
  8
_1-2_極細2
  6
CONTINUOUS
 62
    2
 10
302.82156827745098
 20
340.02027097951634
 11
306.12156827741774
 21
343.32027097948344
  0
LINE
  8
_1-2_極細2
  6
CONTINUOUS
 62
    2
 10
301.97304014002674
 20
340.02027097951634
 11
305.27304013999401
 21
343.32027097948344
  0
LINE
  8
_1-2_極細2
  6
CONTINUOUS
 62
    2
 10
301.12451200260301
 20
340.02027097951634
 11
304.42451200257028
 21
343.32027097948344
  0
LINE
  8
_1-2_極細2
  6
CONTINUOUS
 62
    2
 10
300.27598386517928
 20
340.02027097951634
 11
303.57598386514627
 21
343.32027097948344
  0
LINE
  8
_1-2_極細2
  6
CONTINUOUS
 62
    2
 10
299.42745572775556
 20
340.02027097951634
 11
302.72745572772254
 21
343.32027097948344
  0
LINE
  8
_1-2_極細2
  6
CONTINUOUS
 62
    2
 10
298.57892759033143
 20
340.02027097951634
 11
301.87892759029882
 21
343.32027097948344
  0
LINE
  8
_1-2_極細2
  6
CONTINUOUS
 62
    2
 10
297.7303994529077
 20
340.02027097951634
 11
301.03039945287509
 21
343.32027097948344
  0
LINE
  8
_1-2_極細2
  6
CONTINUOUS
 62
    2
 10
296.88187131548398
 20
340.02027097951634
 11
300.18187131545119
 21
343.32027097948344
  0
LINE
  8
_1-2_極細2
  6
CONTINUOUS
 62
    2
 10
296.03334317806025
 20
340.02027097951634
 11
299.33334317802746
 21
343.32027097948344
  0
LINE
  8
_1-2_極細2
  6
CONTINUOUS
 62
    2
 10
295.18481504063624
 20
340.02027097951634
 11
298.48481504060373
 21
343.32027097948344
  0
LINE
  8
_1-2_極細2
  6
CONTINUOUS
 62
    2
 10
294.33628690321251
 20
340.02027097951634
 11
297.63628690318001
 21
343.32027097948344
  0
LINE
  8
_1-2_極細2
  6
CONTINUOUS
 62
    2
 10
293.48775876578878
 20
340.02027097951634
 11
296.78775876575577
 21
343.32027097948344
  0
LINE
  8
_1-2_極細2
  6
CONTINUOUS
 62
    2
 10
292.63923062836506
 20
340.02027097951634
 11
295.93923062833204
 21
343.32027097948344
  0
LINE
  8
_1-2_極細2
  6
CONTINUOUS
 62
    2
 10
291.79070249094093
 20
340.02027097951634
 11
295.09070249090831
 21
343.32027097948344
  0
LINE
  8
_1-2_極細2
  6
CONTINUOUS
 62
    2
 10
290.9421743535172
 20
340.02027097951634
 11
294.24217435348459
 21
343.32027097948344
  0
LINE
  8
_1-2_極細2
  6
CONTINUOUS
 62
    2
 10
290.09364621609348
 20
340.02027097951634
 11
293.39364621606046
 21
343.32027097948344
  0
LINE
  8
_1-2_極細2
  6
CONTINUOUS
 62
    2
 10
289.24511807866975
 20
340.02027097951634
 11
292.54511807863673
 21
343.32027097948344
  0
LINE
  8
_1-2_極細2
  6
CONTINUOUS
 62
    2
 10
288.39658994124591
 20
340.02027097951634
 11
291.69658994121301
 21
343.32027097948344
  0
LINE
  8
_1-2_極細2
  6
CONTINUOUS
 62
    2
 10
287.54806180382218
 20
340.02027097951634
 11
290.84806180378928
 21
343.32027097948344
  0
LINE
  8
_1-2_極細2
  6
CONTINUOUS
 62
    2
 10
286.69953366639845
 20
340.02027097951634
 11
289.99953366636527
 21
343.32027097948344
  0
LINE
  8
_1-2_極細2
  6
CONTINUOUS
 62
    2
 10
285.85100552897472
 20
340.02027097951634
 11
289.15100552894154
 21
343.32027097948344
  0
LINE
  8
_1-2_極細2
  6
CONTINUOUS
 62
    2
 10
285.00247739155043
 20
340.02027097951634
 11
288.30247739151781
 21
343.32027097948344
  0
LINE
  8
_1-2_極細2
  6
CONTINUOUS
 62
    2
 10
284.1539492541267
 20
340.02027097951634
 11
287.45394925409408
 21
343.32027097948344
  0
LINE
  8
_1-2_極細2
  6
CONTINUOUS
 62
    2
 10
283.30542111670297
 20
340.02027097951634
 11
286.60542111666996
 21
343.32027097948344
  0
LINE
  8
_1-2_極細2
  6
CONTINUOUS
 62
    2
 10
282.45689297927925
 20
340.02027097951634
 11
285.75689297924623
 21
343.32027097948344
  0
LINE
  8
_1-2_極細2
  6
CONTINUOUS
 62
    2
 10
281.60836484185523
 20
340.02027097951634
 11
284.9083648418225
 21
343.32027097948344
  0
LINE
  8
_1-2_極細2
  6
CONTINUOUS
 62
    2
 10
281.0788843107224
 20
340.33931858580706
 11
284.05983670439878
 21
343.32027097948344
  0
LINE
  8
_1-2_極細2
  6
CONTINUOUS
 62
    2
 10
281.0788843107224
 20
341.18784672323079
 11
283.21130856697494
 21
343.32027097948344
  0
LINE
  8
_1-2_極細2
  6
CONTINUOUS
 62
    2
 10
281.0788843107224
 20
342.03637486065463
 11
282.36278042955121
 21
343.32027097948344
  0
LINE
  8
_1-2_極細2
  6
CONTINUOUS
 62
    2
 10
281.0788843107224
 20
342.88490299807836
 11
281.51425229212748
 21
343.32027097948344
  0
LINE
  8
_1-2_極細2
  6
CONTINUOUS
 62
    2
 10
377.07888421472256
 20
342.88490299808313
 11
376.64351623332226
 21
343.32027097948344
  0
LINE
  8
_1-2_極細2
  6
CONTINUOUS
 62
    2
 10
377.07888421472256
 20
342.03637486065941
 11
375.79498809589853
 21
343.32027097948344
  0
LINE
  8
_1-2_極細2
  6
CONTINUOUS
 62
    2
 10
377.07888421472256
 20
341.18784672323557
 11
374.9464599584748
 21
343.32027097948344
  0
LINE
  8
_1-2_極細2
  6
CONTINUOUS
 62
    2
 10
377.07888421472256
 20
340.33931858581184
 11
374.09793182105091
 21
343.32027097948344
  0
LINE
  8
_1-2_極細2
  6
CONTINUOUS
 62
    2
 10
376.54940368359433
 20
340.02027097951634
 11
373.24940368362718
 21
343.32027097948344
  0
LINE
  8
_1-2_極細2
  6
CONTINUOUS
 62
    2
 10
375.70087554617061
 20
340.02027097951634
 11
372.40087554620345
 21
343.32027097948344
  0
LINE
  8
_1-2_極細2
  6
CONTINUOUS
 62
    2
 10
374.85234740874688
 20
340.02027097951634
 11
371.55234740877972
 21
343.32027097948344
  0
LINE
  8
_1-2_極細2
  6
CONTINUOUS
 62
    2
 10
374.00381927132275
 20
340.02027097951634
 11
370.703819271356
 21
343.32027097948344
  0
LINE
  8
_1-2_極細2
  6
CONTINUOUS
 62
    2
 10
373.15529113389903
 20
340.02027097951634
 11
369.85529113393227
 21
343.32027097948344
  0
LINE
  8
_1-2_極細2
  6
CONTINUOUS
 62
    2
 10
372.3067629964753
 20
340.02027097951634
 11
369.00676299650854
 21
343.32027097948344
  0
LINE
  8
_1-2_極細2
  6
CONTINUOUS
 62
    2
 10
371.45823485905157
 20
340.02027097951634
 11
368.15823485908481
 21
343.32027097948344
  0
LINE
  8
_1-2_極細2
  6
CONTINUOUS
 62
    2
 10
370.60970672162784
 20
340.02027097951634
 11
367.30970672166058
 21
343.32027097948344
  0
LINE
  8
_1-2_極細2
  6
CONTINUOUS
 62
    2
 10
369.76117858420412
 20
340.02027097951634
 11
366.46117858423685
 21
343.32027097948344
  0
LINE
  8
_1-2_極細2
  6
CONTINUOUS
 62
    2
 10
368.91265044678039
 20
340.02027097951634
 11
365.61265044681312
 21
343.32027097948344
  0
LINE
  8
_1-2_極細2
  6
CONTINUOUS
 62
    2
 10
368.06412230935666
 20
340.02027097951634
 11
364.76412230938939
 21
343.32027097948344
  0
LINE
  8
_1-2_極細2
  6
CONTINUOUS
 62
    2
 10
367.21559417193265
 20
340.02027097951634
 11
363.91559417196567
 21
343.32027097948344
  0
LINE
  8
_1-2_極細2
  6
CONTINUOUS
 62
    2
 10
366.36706603450892
 20
340.02027097951634
 11
363.06706603454194
 21
343.32027097948344
  0
LINE
  8
_1-2_極細2
  6
CONTINUOUS
 62
    2
 10
365.5185378970852
 20
340.02027097951634
 11
362.21853789711821
 21
343.32027097948344
  0
LINE
  8
_1-2_極細2
  6
CONTINUOUS
 62
    2
 10
364.67000975966147
 20
340.02027097951634
 11
361.37000975969448
 21
343.32027097948344
  0
LINE
  8
_1-2_極細2
  6
CONTINUOUS
 62
    2
 10
363.82148162223774
 20
340.02027097951634
 11
360.52148162227036
 21
343.32027097948344
  0
LINE
  8
_1-2_極細2
  6
CONTINUOUS
 62
    2
 10
362.97295348481401
 20
340.02027097951634
 11
359.67295348484663
 21
343.32027097948344
  0
LINE
  8
_1-2_極細2
  6
CONTINUOUS
 62
    2
 10
362.12442534739029
 20
340.02027097951634
 11
358.8244253474229
 21
343.32027097948344
  0
LINE
  8
_1-2_極細2
  6
CONTINUOUS
 62
    2
 10
361.27589720996656
 20
340.02027097951634
 11
357.97589720999918
 21
343.32027097948344
  0
LINE
  8
_1-2_極細2
  6
CONTINUOUS
 62
    2
 10
360.42736907254266
 20
340.02027097951634
 11
357.12736907257545
 21
343.32027097948344
  0
LINE
  8
_1-2_極細2
  6
CONTINUOUS
 62
    2
 10
359.57884093511893
 20
340.02027097951634
 11
356.27884093515172
 21
343.32027097948344
  0
LINE
  8
_1-2_極細2
  6
CONTINUOUS
 62
    2
 10
358.73031279769521
 20
340.02027097951634
 11
355.43031279772799
 21
343.32027097948344
  0
LINE
  8
_1-2_極細2
  6
CONTINUOUS
 62
    2
 10
357.88178466027148
 20
340.02027097951634
 11
354.58178466030427
 21
343.32027097948344
  0
LINE
  8
_1-2_極細2
  6
CONTINUOUS
 62
    2
 10
357.03325652284775
 20
340.02027097951634
 11
353.73325652288025
 21
343.32027097948344
  0
LINE
  8
_1-2_極細2
  6
CONTINUOUS
 62
    2
 10
356.18472838542402
 20
340.02027097951634
 11
352.88472838545653
 21
343.32027097948344
  0
LINE
  8
_1-2_極細2
  6
CONTINUOUS
 62
    2
 10
355.3362002480003
 20
340.02027097951634
 11
352.0362002480328
 21
343.32027097948344
  0
LINE
  8
_1-2_極細2
  6
CONTINUOUS
 62
    2
 10
354.48767211057657
 20
340.02027097951634
 11
351.18767211060907
 21
343.32027097948344
  0
LINE
  8
_1-2_極細2
  6
CONTINUOUS
 62
    2
 10
353.63914397315233
 20
340.02027097951634
 11
350.33914397318534
 21
343.32027097948344
  0
LINE
  8
_1-2_極細2
  6
CONTINUOUS
 62
    2
 10
352.7906158357286
 20
340.02027097951634
 11
349.49061583576162
 21
343.32027097948344
  0
LINE
  8
_1-2_極細2
  6
CONTINUOUS
 62
    2
 10
351.94208769830487
 20
340.02027097951634
 11
348.64208769833789
 21
343.32027097948344
  0
LINE
  8
_1-2_極細2
  6
CONTINUOUS
 62
    2
 10
351.09355956088115
 20
340.02027097951634
 11
347.79355956091416
 21
343.32027097948344
  0
LINE
  8
_1-2_極細2
  6
CONTINUOUS
 62
    2
 10
350.24503142345742
 20
340.02027097951634
 11
346.94503142349004
 21
343.32027097948344
  0
LINE
  8
_1-2_極細2
  6
CONTINUOUS
 62
    2
 10
349.39650328603369
 20
340.02027097951634
 11
346.09650328606631
 21
343.32027097948344
  0
LINE
  8
_1-2_極細2
  6
CONTINUOUS
 62
    2
 10
348.54797514860996
 20
340.02027097951634
 11
345.24797514864258
 21
343.32027097948344
  0
LINE
  8
_1-2_極細2
  6
CONTINUOUS
 62
    2
 10
347.69944701118624
 20
340.02027097951634
 11
344.39944701121885
 21
343.32027097948344
  0
LINE
  8
_1-2_極細2
  6
CONTINUOUS
 62
    2
 10
346.85091887376211
 20
340.02027097951634
 11
343.55091887379513
 21
343.32027097948344
  0
LINE
  8
_1-2_極細2
  6
CONTINUOUS
 62
    2
 10
346.00239073633838
 20
340.02027097951634
 11
342.7023907363714
 21
343.32027097948344
  0
LINE
  8
_1-2_極細2
  6
CONTINUOUS
 62
    2
 10
345.15386259891466
 20
340.02027097951634
 11
341.85386259894767
 21
343.32027097948344
  0
LINE
  8
_1-2_極細2
  6
CONTINUOUS
 62
    2
 10
344.30533446149093
 20
340.02027097951634
 11
341.00533446152394
 21
343.32027097948344
  0
LINE
  8
_1-2_極細2
  6
CONTINUOUS
 62
    2
 10
343.4568063240672
 20
340.02027097951634
 11
340.1568063241001
 21
343.32027097948344
  0
LINE
  8
_1-2_極細2
  6
CONTINUOUS
 62
    2
 10
342.60827818664347
 20
340.02027097951634
 11
339.30827818667638
 21
343.32027097948344
  0
LINE
  8
_1-2_極細2
  6
CONTINUOUS
 62
    2
 10
341.75975004921975
 20
340.02027097951634
 11
338.45975004925265
 21
343.32027097948344
  0
LINE
  8
_1-2_極細2
  6
CONTINUOUS
 62
    2
 10
340.91122191179602
 20
340.02027097951634
 11
337.61122191182892
 21
343.32027097948344
  0
LINE
  8
_1-2_極細2
  6
CONTINUOUS
 62
    2
 10
340.06269377437201
 20
340.02027097951634
 11
336.76269377440519
 21
343.32027097948344
  0
LINE
  8
_1-2_極細2
  6
CONTINUOUS
 62
    2
 10
339.21416563694828
 20
340.02027097951634
 11
335.91416563698147
 21
343.32027097948344
  0
LINE
  8
_1-2_極細2
  6
CONTINUOUS
 62
    2
 10
338.36563749952455
 20
340.02027097951634
 11
335.06563749955774
 21
343.32027097948344
  0
LINE
  8
_1-2_極細2
  6
CONTINUOUS
 62
    2
 10
337.51710936210083
 20
340.02027097951634
 11
334.21710936213401
 21
343.32027097948344
  0
LINE
  8
_1-2_極細2
  6
CONTINUOUS
 62
    2
 10
336.6685812246771
 20
340.02027097951634
 11
333.36858122470971
 21
343.32027097948344
  0
LINE
  8
_1-2_極細2
  6
CONTINUOUS
 62
    2
 10
335.82005308725337
 20
340.02027097951634
 11
332.52005308728599
 21
343.32027097948344
  0
LINE
  8
_1-2_極細2
  6
CONTINUOUS
 62
    2
 10
334.97152494982964
 20
340.02027097951634
 11
331.67152494986226
 21
343.32027097948344
  0
LINE
  8
_1-2_極細2
  6
CONTINUOUS
 62
    2
 10
334.12299681240592
 20
340.02027097951634
 11
330.82299681243853
 21
343.32027097948344
  0
LINE
  8
_1-2_極細2
  6
CONTINUOUS
 62
    2
 10
333.27446867498179
 20
340.02027097951634
 11
329.9744686750148
 21
343.32027097948344
  0
LINE
  8
_1-2_極細2
  6
CONTINUOUS
 62
    2
 10
332.42594053755806
 20
340.02027097951634
 11
329.12594053759108
 21
343.32027097948344
  0
LINE
  8
_1-2_極細2
  6
CONTINUOUS
 62
    2
 10
331.57741240013434
 20
340.02027097951634
 11
328.27741240016735
 21
343.32027097948344
  0
LINE
  8
_1-2_極細2
  6
CONTINUOUS
 62
    2
 10
330.72888426271061
 20
340.02027097951634
 11
327.42888426274362
 21
343.32027097948344
  0
LINE
  8
_1-2_極細2
  6
CONTINUOUS
 62
    2
 10
329.88035612528688
 20
340.02027097951634
 11
326.58035612531961
 21
343.32027097948344
  0
LINE
  8
_1-2_極細2
  6
CONTINUOUS
 62
    2
 10
329.03182798786315
 20
340.02027097951634
 11
325.73182798789588
 21
343.32027097948344
  0
LINE
  8
_1-2_極細2
  6
CONTINUOUS
 62
    2
 10
328.18329985043943
 20
340.02027097951634
 11
324.88329985047216
 21
343.32027097948344
  0
LINE
  8
_1-2_極細2
  6
CONTINUOUS
 62
    2
 10
327.3347717130157
 20
340.02027097951634
 11
324.03477171304843
 21
343.32027097948344
  0
LINE
  8
_1-2_極細2
  6
CONTINUOUS
 62
    2
 10
326.48624357559186
 20
340.02027097951634
 11
323.1862435756247
 21
343.32027097948344
  0
LINE
  8
_1-2_極細2
  6
CONTINUOUS
 62
    2
 10
325.63771543816813
 20
340.02027097951634
 11
322.33771543820097
 21
343.32027097948344
  0
LINE
  8
_1-2_極細2
  6
CONTINUOUS
 62
    2
 10
324.7891873007444
 20
340.02027097951634
 11
321.48918730077725
 21
343.32027097948344
  0
LINE
  8
_1-2_極細2
  6
CONTINUOUS
 62
    2
 10
323.94065916332067
 20
340.02027097951634
 11
320.64065916335352
 21
343.32027097948344
  0
LINE
  8
_1-2_極細2
  6
CONTINUOUS
 62
    2
 10
323.09213102589695
 20
340.02027097951634
 11
319.79213102592939
 21
343.32027097948344
  0
LINE
  8
_1-2_極細2
  6
CONTINUOUS
 62
    2
 10
322.24360288847322
 20
340.02027097951634
 11
318.94360288850567
 21
343.32027097948344
  0
LINE
  8
_1-2_極細2
  6
CONTINUOUS
 62
    2
 10
321.39507475104949
 20
340.02027097951634
 11
318.09507475108194
 21
343.32027097948344
  0
LINE
  8
_1-2_極細2
  6
CONTINUOUS
 62
    2
 10
320.54654661362576
 20
340.02027097951634
 11
317.24654661365821
 21
343.32027097948344
  0
LINE
  8
_1-2_極細2
  6
CONTINUOUS
 62
    2
 10
319.69801847620147
 20
340.02027097951634
 11
316.39801847623448
 21
343.32027097948344
  0
LINE
  8
_1-2_極細2
  6
CONTINUOUS
 62
    2
 10
318.84949033877774
 20
340.02027097951634
 11
315.54949033881076
 21
343.32027097948344
  0
LINE
  8
_1-2_極細2
  6
CONTINUOUS
 62
    2
 10
318.00096220135401
 20
340.02027097951634
 11
314.70096220138703
 21
343.32027097948344
  0
LINE
  8
_1-2_極細2
  6
CONTINUOUS
 62
    2
 10
317.15243406393029
 20
340.02027097951634
 11
313.8524340639633
 21
343.32027097948344
  0
LINE
  8
_1-2_極細2
  6
CONTINUOUS
 62
    2
 10
316.30390592650656
 20
340.02027097951634
 11
313.00390592653929
 21
343.32027097948344
  0
LINE
  8
_1-2_極細2
  6
CONTINUOUS
 62
    2
 10
315.45537778908283
 20
340.02027097951634
 11
312.15537778911556
 21
343.32027097948344
  0
LINE
  8
_1-2_極細2
  6
CONTINUOUS
 62
    2
 10
314.6068496516591
 20
340.02027097951634
 11
311.30684965169183
 21
343.32027097948344
  0
LINE
  8
_1-2_極細2
  6
CONTINUOUS
 62
    2
 10
313.75832151423538
 20
340.02027097951634
 11
310.45832151426811
 21
343.32027097948344
  0
LINE
  8
_1-2_極細2
  6
CONTINUOUS
 62
    2
 10
312.90979337681136
 20
340.02027097951634
 11
309.60979337684438
 21
343.32027097948344
  0
LINE
  8
_1-2_極細2
  6
CONTINUOUS
 62
    2
 10
312.06126523938764
 20
340.02027097951634
 11
308.76126523942065
 21
343.32027097948344
  0
LINE
  8
_1-2_極細2
  6
CONTINUOUS
 62
    2
 10
311.21273710196391
 20
340.02027097951634
 11
307.91273710199692
 21
343.32027097948344
  0
LINE
  8
_1-2_極細2
  6
CONTINUOUS
 62
    2
 10
310.36420896454018
 20
340.02027097951634
 11
307.0642089645732
 21
343.32027097948344
  0
LINE
  8
_1-2_極細2
  6
CONTINUOUS
 62
    2
 10
309.51568082711646
 20
340.02027097951634
 11
306.2156808271493
 21
343.32027097948344
  0
LINE
  8
_1-2_極細2
  6
CONTINUOUS
 62
    2
 10
308.66715268969273
 20
340.02027097951634
 11
305.36715268972557
 21
343.32027097948344
  0
LINE
  8
_1-2_極細2
  6
CONTINUOUS
 62
    2
 10
307.818624552269
 20
340.02027097951634
 11
304.51862455230184
 21
343.32027097948344
  0
LINE
  8
_1-2_極細2
  6
CONTINUOUS
 62
    2
 10
306.97009641484527
 20
340.02027097951634
 11
303.67009641487812
 21
343.32027097948344
  0
LINE
  8
_1-2_極細2
  6
CONTINUOUS
 62
    2
 10
306.12156827742115
 20
340.02027097951634
 11
302.82156827745439
 21
343.32027097948344
  0
LINE
  8
_1-2_極細2
  6
CONTINUOUS
 62
    2
 10
305.27304013999742
 20
340.02027097951634
 11
301.97304014003066
 21
343.32027097948344
  0
LINE
  8
_1-2_極細2
  6
CONTINUOUS
 62
    2
 10
304.42451200257369
 20
340.02027097951634
 11
301.12451200260693
 21
343.32027097948344
  0
LINE
  8
_1-2_極細2
  6
CONTINUOUS
 62
    2
 10
303.57598386514996
 20
340.02027097951634
 11
300.27598386518321
 21
343.32027097948344
  0
LINE
  8
_1-2_極細2
  6
CONTINUOUS
 62
    2
 10
302.72745572772624
 20
340.02027097951634
 11
299.42745572775897
 21
343.32027097948344
  0
LINE
  8
_1-2_極細2
  6
CONTINUOUS
 62
    2
 10
301.87892759030251
 20
340.02027097951634
 11
298.57892759033524
 21
343.32027097948344
  0
LINE
  8
_1-2_極細2
  6
CONTINUOUS
 62
    2
 10
301.03039945287878
 20
340.02027097951634
 11
297.73039945291151
 21
343.32027097948344
  0
LINE
  8
_1-2_極細2
  6
CONTINUOUS
 62
    2
 10
300.18187131545506
 20
340.02027097951634
 11
296.88187131548779
 21
343.32027097948344
  0
LINE
  8
_1-2_極細2
  6
CONTINUOUS
 62
    2
 10
299.33334317803104
 20
340.02027097951634
 11
296.03334317806406
 21
343.32027097948344
  0
LINE
  8
_1-2_極細2
  6
CONTINUOUS
 62
    2
 10
298.48481504060732
 20
340.02027097951634
 11
295.18481504064033
 21
343.32027097948344
  0
LINE
  8
_1-2_極細2
  6
CONTINUOUS
 62
    2
 10
297.63628690318359
 20
340.02027097951634
 11
294.3362869032166
 21
343.32027097948344
  0
LINE
  8
_1-2_極細2
  6
CONTINUOUS
 62
    2
 10
296.78775876575986
 20
340.02027097951634
 11
293.48775876579288
 21
343.32027097948344
  0
LINE
  8
_1-2_極細2
  6
CONTINUOUS
 62
    2
 10
295.93923062833613
 20
340.02027097951634
 11
292.63923062836875
 21
343.32027097948344
  0
LINE
  8
_1-2_極細2
  6
CONTINUOUS
 62
    2
 10
295.09070249091241
 20
340.02027097951634
 11
291.79070249094502
 21
343.32027097948344
  0
LINE
  8
_1-2_極細2
  6
CONTINUOUS
 62
    2
 10
294.24217435348868
 20
340.02027097951634
 11
290.9421743535213
 21
343.32027097948344
  0
LINE
  8
_1-2_極細2
  6
CONTINUOUS
 62
    2
 10
293.39364621606495
 20
340.02027097951634
 11
290.09364621609757
 21
343.32027097948344
  0
LINE
  8
_1-2_極細2
  6
CONTINUOUS
 62
    2
 10
292.54511807864105
 20
340.02027097951634
 11
289.24511807867384
 21
343.32027097948344
  0
LINE
  8
_1-2_極細2
  6
CONTINUOUS
 62
    2
 10
291.69658994121733
 20
340.02027097951634
 11
288.39658994125011
 21
343.32027097948344
  0
LINE
  8
_1-2_極細2
  6
CONTINUOUS
 62
    2
 10
290.8480618037936
 20
340.02027097951634
 11
287.54806180382639
 21
343.32027097948344
  0
LINE
  8
_1-2_極細2
  6
CONTINUOUS
 62
    2
 10
289.99953366636987
 20
340.02027097951634
 11
286.69953366640266
 21
343.32027097948344
  0
LINE
  8
_1-2_極細2
  6
CONTINUOUS
 62
    2
 10
289.15100552894614
 20
340.02027097951634
 11
285.85100552897865
 21
343.32027097948344
  0
LINE
  8
_1-2_極細2
  6
CONTINUOUS
 62
    2
 10
288.30247739152242
 20
340.02027097951634
 11
285.00247739155492
 21
343.32027097948344
  0
LINE
  8
_1-2_極細2
  6
CONTINUOUS
 62
    2
 10
287.45394925409869
 20
340.02027097951634
 11
284.15394925413119
 21
343.32027097948344
  0
LINE
  8
_1-2_極細2
  6
CONTINUOUS
 62
    2
 10
286.60542111667496
 20
340.02027097951634
 11
283.30542111670746
 21
343.32027097948344
  0
LINE
  8
_1-2_極細2
  6
CONTINUOUS
 62
    2
 10
285.75689297925072
 20
340.02027097951634
 11
282.45689297928374
 21
343.32027097948344
  0
LINE
  8
_1-2_極細2
  6
CONTINUOUS
 62
    2
 10
284.90836484182699
 20
340.02027097951634
 11
281.60836484186001
 21
343.32027097948344
  0
LINE
  8
_1-2_極細2
  6
CONTINUOUS
 62
    2
 10
284.05983670440327
 20
340.02027097951634
 11
281.0788843107224
 21
343.00122337319749
  0
LINE
  8
_1-2_極細2
  6
CONTINUOUS
 62
    2
 10
283.21130856697954
 20
340.02027097951634
 11
281.0788843107224
 21
342.15269523577376
  0
LINE
  8
_1-2_極細2
  6
CONTINUOUS
 62
    2
 10
282.36278042955581
 20
340.02027097951634
 11
281.0788843107224
 21
341.30416709834992
  0
LINE
  8
_1-2_極細2
  6
CONTINUOUS
 62
    2
 10
281.51425229213208
 20
340.02027097951634
 11
281.0788843107224
 21
340.45563896092619
  0
LINE
  8
_1-2_極細2
  6
CONTINUOUS
 62
    2
 10
278.79349466606186
 20
269.220270980225
 11
281.0788843107224
 21
271.50566062488542
  0
LINE
  8
_1-2_極細2
  6
CONTINUOUS
 62
    2
 10
274.55085397894254
 20
269.220270980225
 11
281.0788843107224
 21
275.74830131200474
  0
LINE
  8
_1-2_極細2
  6
CONTINUOUS
 62
    2
 10
270.30821329182345
 20
269.220270980225
 11
279.30821329173341
 21
278.22027098013496
  0
LINE
  8
_1-2_極細2
  6
CONTINUOUS
 62
    2
 10
221.06557260515382
 20
224.22027098067494
 11
221.07888437072253
 21
224.23358274624383
  0
LINE
  8
_1-2_極細2
  6
CONTINUOUS
 62
    2
 10
266.0655726047039
 20
269.220270980225
 11
275.06557260461386
 21
278.22027098013496
  0
LINE
  8
_1-2_極細2
  6
CONTINUOUS
 62
    2
 10
216.8229319180345
 20
224.22027098067494
 11
221.07888437072253
 21
228.47622343336315
  0
LINE
  8
_1-2_極細2
  6
CONTINUOUS
 62
    2
 10
261.82293191758458
 20
269.220270980225
 11
270.82293191749454
 21
278.22027098013496
  0
LINE
  8
_1-2_極細2
  6
CONTINUOUS
 62
    2
 10
214.02888437777295
 20
225.66886412753271
 11
221.07888437072253
 21
232.71886412048246
  0
LINE
  8
_1-2_極細2
  6
CONTINUOUS
 62
    2
 10
257.58029123046526
 20
269.220270980225
 11
266.58029123037522
 21
278.22027098013496
  0
LINE
  8
_1-2_極細2
  6
CONTINUOUS
 62
    2
 10
214.02888437777295
 20
229.91150481465203
 11
221.07888437072253
 21
236.96150480760178
  0
LINE
  8
_1-2_極細2
  6
CONTINUOUS
 62
    2
 10
253.33765054334592
 20
269.220270980225
 11
262.3376505432559
 21
278.22027098013496
  0
LINE
  8
_1-2_極細2
  6
CONTINUOUS
 62
    2
 10
214.02888437777295
 20
234.15414550177135
 11
221.07888437072253
 21
241.2041454947211
  0
LINE
  8
_1-2_極細2
  6
CONTINUOUS
 62
    2
 10
249.09500985622685
 20
269.220270980225
 11
258.09500985613681
 21
278.22027098013496
  0
LINE
  8
_1-2_極細2
  6
CONTINUOUS
 62
    2
 10
214.02888437777295
 20
238.39678618889067
 11
221.07888437072253
 21
245.44678618184042
  0
LINE
  8
_1-2_極細2
  6
CONTINUOUS
 62
    2
 10
244.85236916910728
 20
269.220270980225
 11
253.85236916901724
 21
278.22027098013496
  0
LINE
  8
_1-2_極細2
  6
CONTINUOUS
 62
    2
 10
214.02888437777295
 20
242.63942687600999
 11
221.07888437072253
 21
249.6894268689598
  0
LINE
  8
_1-2_極細2
  6
CONTINUOUS
 62
    2
 10
240.60972848198796
 20
269.220270980225
 11
249.60972848189792
 21
278.22027098013496
  0
LINE
  8
_1-2_極細2
  6
CONTINUOUS
 62
    2
 10
214.02888437777295
 20
246.88206756312931
 11
221.07888437072253
 21
253.93206755607912
  0
LINE
  8
_1-2_極細2
  6
CONTINUOUS
 62
    2
 10
236.36708779486864
 20
269.220270980225
 11
245.3670877947786
 21
278.22027098013496
  0
LINE
  8
_1-2_極細2
  6
CONTINUOUS
 62
    2
 10
214.02888437777295
 20
251.12470825024863
 11
221.07888437072253
 21
258.17470824319844
  0
LINE
  8
_1-2_極細2
  6
CONTINUOUS
 62
    2
 10
232.12444710774932
 20
269.220270980225
 11
241.12444710765928
 21
278.22027098013496
  0
LINE
  8
_1-2_極細2
  6
CONTINUOUS
 62
    2
 10
214.02888437777295
 20
255.36734893736795
 11
221.07888437072253
 21
262.41734893031776
  0
LINE
  8
_1-2_極細2
  6
CONTINUOUS
 62
    2
 10
227.88180642063008
 20
269.220270980225
 11
236.88180642054004
 21
278.22027098013496
  0
LINE
  8
_1-2_極細2
  6
CONTINUOUS
 62
    2
 10
214.02888437777295
 20
259.6099896244873
 11
221.07888437072253
 21
266.65998961743708
  0
LINE
  8
_1-2_極細2
  6
CONTINUOUS
 62
    2
 10
223.63916573351068
 20
269.220270980225
 11
232.63916573342064
 21
278.22027098013496
  0
LINE
  8
_1-2_極細2
  6
CONTINUOUS
 62
    2
 10
214.02888437777295
 20
263.85263031160662
 11
228.39652504630141
 21
278.22027098013496
  0
LINE
  8
_1-2_極細2
  6
CONTINUOUS
 62
    2
 10
214.02888437777295
 20
268.09527099872594
 11
224.153884359182
 21
278.22027098013496
  0
LINE
  8
_1-2_極細2
  6
CONTINUOUS
 62
    2
 10
214.02888437777295
 20
272.33791168584526
 11
221.07888437072253
 21
279.38791167879504
  0
LINE
  8
_1-2_極細2
  6
CONTINUOUS
 62
    2
 10
214.02888437777295
 20
276.58055237296458
 11
221.07888437072253
 21
283.63055236591435
  0
LINE
  8
_1-2_極細2
  6
CONTINUOUS
 62
    2
 10
214.02888437777295
 20
280.8231930600839
 11
221.07888437072253
 21
287.87319305303367
  0
LINE
  8
_1-2_極細2
  6
CONTINUOUS
 62
    2
 10
214.02888437777295
 20
285.06583374720321
 11
221.07888437072253
 21
292.11583374015299
  0
LINE
  8
_1-2_極細2
  6
CONTINUOUS
 62
    2
 10
214.02888437777295
 20
289.30847443432253
 11
221.07888437072253
 21
296.35847442727231
  0
LINE
  8
_1-2_極細2
  6
CONTINUOUS
 62
    2
 10
214.02888437777295
 20
293.55111512144185
 11
221.07888437072253
 21
300.60111511439163
  0
LINE
  8
_1-2_極細2
  6
CONTINUOUS
 62
    2
 10
214.02888437777295
 20
297.79375580856117
 11
220.88555779734631
 21
304.65042922813473
  0
LINE
  8
_1-2_極細2
  6
CONTINUOUS
 62
    2
 10
214.02888437777295
 20
302.03639649568049
 11
220.411831102956
 21
308.41934322086365
  0
LINE
  8
_1-2_極細2
  6
CONTINUOUS
 62
    2
 10
214.02888437777295
 20
306.27903718279981
 11
219.93810440856561
 21
312.18825721359258
  0
LINE
  8
_1-2_極細2
  6
CONTINUOUS
 62
    2
 10
214.02888437777295
 20
310.52167786991913
 11
219.46437771417521
 21
315.9571712063215
  0
LINE
  8
_1-2_極細2
  6
CONTINUOUS
 62
    2
 10
214.02888437777295
 20
314.76431855703845
 11
218.99065101978482
 21
319.72608519905043
  0
LINE
  8
_1-2_極細2
  6
CONTINUOUS
 62
    2
 10
214.02888437777295
 20
319.00695924415777
 11
218.51692432539443
 21
323.49499919177936
  0
LINE
  8
_1-2_極細2
  6
CONTINUOUS
 62
    2
 10
214.02888437777295
 20
323.24959993127709
 11
218.04319763100395
 21
327.26391318450828
  0
LINE
  8
_1-2_極細2
  6
CONTINUOUS
 62
    2
 10
214.02888437777295
 20
327.49224061839641
 11
216.35691473899504
 21
329.8202709796185
  0
LINE
  8
_1-2_極細2
  6
CONTINUOUS
 62
    2
 10
211.02888438077292
 20
328.7348813085157
 11
215.75274886610026
 21
333.45874579384304
  0
LINE
  8
_1-2_極細2
  6
CONTINUOUS
 62
    2
 10
211.02888438077292
 20
332.97752199563502
 11
215.27902205474351
 21
337.22765966960583
  0
LINE
  8
_1-2_極細2
  6
CONTINUOUS
 62
    2
 10
211.02888438077292
 20
337.22016268275434
 11
214.80529524338709
 21
340.99657354536851
  0
LINE
  8
_1-2_極細2
  6
CONTINUOUS
 62
    2
 10
210.09735894007142
 20
340.53127792917212
 11
214.33156843203034
 21
344.76548742113118
  0
LINE
  8
_1-2_極細2
  6
CONTINUOUS
 62
    2
 10
207.90787460405664
 20
342.58443428027658
 11
213.48275285711196
 21
348.15931253333201
  0
LINE
  8
_1-2_極細2
  6
CONTINUOUS
 62
    2
 10
204.40107061614407
 20
343.32027097948344
 11
210.40107061319287
 21
349.32027097653236
  0
LINE
  8
_1-2_極細2
  6
CONTINUOUS
 62
    2
 10
200.15842992902475
 20
343.32027097948344
 11
206.15842992654413
 21
349.32027097700291
  0
LINE
  8
_1-2_極細2
  6
CONTINUOUS
 62
    2
 10
195.91578924190543
 20
343.32027097948344
 11
201.91578923989522
 21
349.32027097747323
  0
LINE
  8
_1-2_極細2
  6
CONTINUOUS
 62
    2
 10
191.67314855478611
 20
343.32027097948344
 11
197.67314855324656
 21
349.32027097794378
  0
LINE
  8
_1-2_極細2
  6
CONTINUOUS
 62
    2
 10
187.43050786766679
 20
343.32027097948344
 11
193.43050786659757
 21
349.3202709784141
  0
LINE
  8
_1-2_極細2
  6
CONTINUOUS
 62
    2
 10
184.32888440747223
 20
344.4612882064082
 11
189.18786717994857
 21
349.32027097888476
  0
LINE
  8
_1-2_極細2
  6
CONTINUOUS
 62
    2
 10
184.32888440747223
 20
348.70392889352752
 11
184.94522649329991
 21
349.32027097935509
  0
LINE
  8
_1-2_極細2
  6
CONTINUOUS
 62
    2
 10
281.0788843107224
 20
276.57903721249772
 11
279.43765054308483
 21
278.22027098013496
  0
LINE
  8
_1-2_極細2
  6
CONTINUOUS
 62
    2
 10
214.53846306469057
 20
343.11945845852983
 11
208.3376505464592
 21
349.32027097676121
  0
LINE
  8
_1-2_極細2
  6
CONTINUOUS
 62
    2
 10
281.0788843107224
 20
272.33639652537863
 11
275.19500985596608
 21
278.22027098013496
  0
LINE
  8
_1-2_極細2
  6
CONTINUOUS
 62
    2
 10
215.14839889083868
 20
338.26688194526241
 11
204.09500985886956
 21
349.32027097723164
  0
LINE
  8
_1-2_極細2
  6
CONTINUOUS
 62
    2
 10
279.95236916875655
 20
269.220270980225
 11
270.95236916884659
 21
278.22027098013496
  0
LINE
  8
_1-2_極細2
  6
CONTINUOUS
 62
    2
 10
215.75833471698678
 20
333.4143054319951
 11
210.96253356051895
 21
338.21010658846262
  0
LINE
  8
_1-2_極細2
  6
CONTINUOUS
 62
    2
 10
205.91871999569202
 20
343.25392015328976
 11
199.85236917127983
 21
349.32027097770208
  0
LINE
  8
_1-2_極細2
  6
CONTINUOUS
 62
    2
 10
275.70972848163723
 20
269.220270980225
 11
266.70972848172727
 21
278.22027098013496
  0
LINE
  8
_1-2_極細2
  6
CONTINUOUS
 62
    2
 10
218.09741236868302
 20
326.83258709317965
 11
211.02888438077292
 21
333.90111508108976
  0
LINE
  8
_1-2_極細2
  6
CONTINUOUS
 62
    2
 10
201.60972848237924
 20
343.32027097948344
 11
195.60972848369028
 21
349.32027097817263
  0
LINE
  8
_1-2_極細2
  6
CONTINUOUS
 62
    2
 10
271.46708779451791
 20
269.220270980225
 11
262.46708779460795
 21
278.22027098013496
  0
LINE
  8
_1-2_極細2
  6
CONTINUOUS
 62
    2
 10
218.70734800093302
 20
321.98001077381014
 11
214.02888437777295
 21
326.65847439697029
  0
LINE
  8
_1-2_極細2
  6
CONTINUOUS
 62
    2
 10
212.36708779510985
 20
328.32027097963351
 11
211.02888438077292
 21
329.65847439397044
  0
LINE
  8
_1-2_極細2
  6
CONTINUOUS
 62
    2
 10
197.36708779525992
 20
343.32027097948344
 11
191.36708779610029
 21
349.32027097864307
  0
LINE
  8
_1-2_極細2
  6
CONTINUOUS
 62
    2
 10
267.22444710739859
 20
269.220270980225
 11
258.22444710748863
 21
278.22027098013496
  0
LINE
  8
_1-2_極細2
  6
CONTINUOUS
 62
    2
 10
219.31728363318354
 20
317.1274344544405
 11
214.02888437777295
 21
322.41583370985097
  0
LINE
  8
_1-2_極細2
  6
CONTINUOUS
 62
    2
 10
193.1244471081406
 20
343.32027097948344
 11
187.12444710851057
 21
349.3202709791135
  0
LINE
  8
_1-2_極細2
  6
CONTINUOUS
 62
    2
 10
262.98180642027944
 20
269.220270980225
 11
253.98180642036948
 21
278.22027098013496
  0
LINE
  8
_1-2_極細2
  6
CONTINUOUS
 62
    2
 10
219.92721926543362
 20
312.27485813507099
 11
214.02888437777295
 21
318.17319302273177
  0
LINE
  8
_1-2_極細2
  6
CONTINUOUS
 62
    2
 10
188.88180642102128
 20
343.32027097948344
 11
184.32888440747223
 21
347.87319299303272
  0
LINE
  8
_1-2_極細2
  6
CONTINUOUS
 62
    2
 10
258.73916573316023
 20
269.220270980225
 11
249.73916573325025
 21
278.22027098013496
  0
LINE
  8
_1-2_極細2
  6
CONTINUOUS
 62
    2
 10
220.53715489768405
 20
307.42228181570135
 11
214.02888437777295
 21
313.93055233561245
  0
LINE
  8
_1-2_極細2
  6
CONTINUOUS
 62
    2
 10
184.63916573390196
 20
343.32027097948344
 11
184.32888440747223
 21
343.6305523059134
  0
LINE
  8
_1-2_極細2
  6
CONTINUOUS
 62
    2
 10
254.49652504604089
 20
269.220270980225
 11
245.49652504613093
 21
278.22027098013496
  0
LINE
  8
_1-2_極細2
  6
CONTINUOUS
 62
    2
 10
221.07888437072253
 20
302.63791165554346
 11
214.02888437777295
 21
309.68791164849313
  0
LINE
  8
_1-2_極細2
  6
CONTINUOUS
 62
    2
 10
250.25388435892182
 20
269.220270980225
 11
241.25388435901186
 21
278.22027098013496
  0
LINE
  8
_1-2_極細2
  6
CONTINUOUS
 62
    2
 10
221.07888437072253
 20
298.39527096842426
 11
214.02888437777295
 21
305.44527096137381
  0
LINE
  8
_1-2_極細2
  6
CONTINUOUS
 62
    2
 10
246.01124367180225
 20
269.220270980225
 11
237.01124367189229
 21
278.22027098013496
  0
LINE
  8
_1-2_極細2
  6
CONTINUOUS
 62
    2
 10
221.07888437072253
 20
294.15263028130494
 11
214.02888437777295
 21
301.20263027425449
  0
LINE
  8
_1-2_極細2
  6
CONTINUOUS
 62
    2
 10
241.76860298468293
 20
269.220270980225
 11
232.76860298477305
 21
278.22027098013496
  0
LINE
  8
_1-2_極細2
  6
CONTINUOUS
 62
    2
 10
221.07888437072253
 20
289.90998959418562
 11
214.02888437777295
 21
296.9599895871354
  0
LINE
  8
_1-2_極細2
  6
CONTINUOUS
 62
    2
 10
237.52596229756361
 20
269.220270980225
 11
228.52596229765365
 21
278.22027098013496
  0
LINE
  8
_1-2_極細2
  6
CONTINUOUS
 62
    2
 10
221.07888437072253
 20
285.6673489070663
 11
214.02888437777295
 21
292.71734890001608
  0
LINE
  8
_1-2_極細2
  6
CONTINUOUS
 62
    2
 10
233.28332161044472
 20
269.220270980225
 11
224.28332161053476
 21
278.22027098013496
  0
LINE
  8
_1-2_極細2
  6
CONTINUOUS
 62
    2
 10
221.07888437072253
 20
281.42470821994698
 11
214.02888437777295
 21
288.47470821289676
  0
LINE
  8
_1-2_極細2
  6
CONTINUOUS
 62
    2
 10
229.0406809233254
 20
269.220270980225
 11
214.02888437777295
 21
284.23206752577744
  0
LINE
  8
_1-2_極細2
  6
CONTINUOUS
 62
    2
 10
224.79804023620608
 20
269.220270980225
 11
214.02888437777295
 21
279.98942683865812
  0
LINE
  8
_1-2_極細2
  6
CONTINUOUS
 62
    2
 10
221.07888437072253
 20
268.69678615858902
 11
214.02888437777295
 21
275.74678615153903
  0
LINE
  8
_1-2_極細2
  6
CONTINUOUS
 62
    2
 10
221.07888437072253
 20
264.4541454714697
 11
214.02888437777295
 21
271.50414546441948
  0
LINE
  8
_1-2_極細2
  6
CONTINUOUS
 62
    2
 10
221.07888437072253
 20
260.21150478435061
 11
214.02888437777295
 21
267.26150477730039
  0
LINE
  8
_1-2_極細2
  6
CONTINUOUS
 62
    2
 10
221.07888437072253
 20
255.96886409723126
 11
214.02888437777295
 21
263.01886409018107
  0
LINE
  8
_1-2_極細2
  6
CONTINUOUS
 62
    2
 10
221.07888437072253
 20
251.72622341011194
 11
214.02888437777295
 21
258.77622340306175
  0
LINE
  8
_1-2_極細2
  6
CONTINUOUS
 62
    2
 10
221.07888437072253
 20
247.48358272299262
 11
214.02888437777295
 21
254.53358271594243
  0
LINE
  8
_1-2_極細2
  6
CONTINUOUS
 62
    2
 10
221.07888437072253
 20
243.2409420358733
 11
214.02888437777295
 21
250.29094202882311
  0
LINE
  8
_1-2_極細2
  6
CONTINUOUS
 62
    2
 10
221.07888437072253
 20
238.99830134875424
 11
214.02888437777295
 21
246.04830134170379
  0
LINE
  8
_1-2_極細2
  6
CONTINUOUS
 62
    2
 10
221.07888437072253
 20
234.75566066163466
 11
214.02888437777295
 21
241.80566065458441
  0
LINE
  8
_1-2_極細2
  6
CONTINUOUS
 62
    2
 10
221.07888437072253
 20
230.5130199745156
 11
214.02888437777295
 21
237.5630199674651
  0
LINE
  8
_1-2_極細2
  6
CONTINUOUS
 62
    2
 10
221.07888437072253
 20
226.27037928739628
 11
214.02888437777295
 21
233.32037928034578
  0
LINE
  8
_1-2_極細2
  6
CONTINUOUS
 62
    2
 10
218.88635199032439
 20
224.22027098067494
 11
214.02888437777295
 21
229.07773859322671
  0
LINE
  8
_1-2_極細2
  6
CONTINUOUS
 62
    2
 10
214.64371130320541
 20
224.22027098067494
 11
214.02888437777295
 21
224.83509790610739
  0
LINE
  8
_1-2_極細2
  6
CONTINUOUS
 62
    2
 10
216.18452692219779
 20
330.02357109930722
 11
217.52752220293604
 21
331.36656638004558
  0
LINE
  8
_1-2_極細2
  6
CONTINUOUS
 62
    2
 10
215.71079990276002
 20
333.79248476698876
 11
217.05379550854599
 21
335.13548037277462
  0
LINE
  8
_1-2_極細2
  6
CONTINUOUS
 62
    2
 10
215.23707288332224
 20
337.56139843467031
 11
216.58006881415551
 21
338.90439436550355
  0
LINE
  8
_1-2_極細2
  6
CONTINUOUS
 62
    2
 10
214.76334586388447
 20
341.33031210235185
 11
216.1063421197652
 21
342.67330835823259
  0
LINE
  8
_1-2_極細2
  6
CONTINUOUS
 62
    2
 10
214.28961884444669
 20
345.09922577003329
 11
215.63261542537472
 21
346.44222235096152
  0
LINE
  8
_1-2_極細2
  6
CONTINUOUS
 62
    2
 10
213.31017514006788
 20
348.3624227527738
 11
214.37131051315595
 21
349.42355812586186
  0
LINE
  8
_1-2_極細2
  6
CONTINUOUS
 62
    2
 10
210.02538267959807
 20
349.32027097942341
 11
211.50797442058567
 21
350.8028627204111
  0
LINE
  8
_1-2_極細2
  6
CONTINUOUS
 62
    2
 10
205.78274199247875
 20
349.32027097942341
 11
207.28274198864591
 21
350.82027097559057
  0
LINE
  8
_1-2_極細2
  6
CONTINUOUS
 62
    2
 10
201.54010130535943
 20
349.32027097942341
 11
203.04010130223216
 21
350.82027097629623
  0
LINE
  8
_1-2_極細2
  6
CONTINUOUS
 62
    2
 10
197.29746061824011
 20
349.32027097942341
 11
198.79746061581858
 21
350.82027097700188
  0
LINE
  8
_1-2_極細2
  6
CONTINUOUS
 62
    2
 10
193.05481993112079
 20
349.32027097942341
 11
194.55481992940483
 21
350.82027097770754
  0
LINE
  8
_1-2_極細2
  6
CONTINUOUS
 62
    2
 10
188.81217924400147
 20
349.32027097942341
 11
190.31217924299125
 21
350.82027097841319
  0
LINE
  8
_1-2_極細2
  6
CONTINUOUS
 62
    2
 10
184.56953855688215
 20
349.32027097942341
 11
186.0695385565775
 21
350.82027097911896
  0
LINE
  8
_1-5_寸法2
  6
CONTINUOUS
 62
    7
 10
234.29051868979758
 20
290.64880906157941
 11
228.2905187404975
 21
280.25650418689457
  0
LINE
  8
_1-5_寸法2
  6
CONTINUOUS
 62
    7
 10
234.29051868979758
 20
290.64880906157941
 11
223.89821387365598
 21
284.64880901087952
  0
LINE
  8
_1-5_寸法2
  6
CONTINUOUS
 62
    7
 10
234.29051868979758
 20
290.64880906157941
 11
197.03300043808332
 21
253.39129044633614
  0
LINE
  8
_1-5_寸法2
  6
CONTINUOUS
 62
    7
 10
197.03300043808332
 20
253.39129044633614
 11
110.63300043808346
 21
253.39129044633614
  0
TEXT
  8
_1-5_寸法2
 62
    7
 10
110.63300043808329
 20
253.39129044633614
 40
18
 41
0.7999999999999998
 50
0
  1
ストレーナー
  0
LINE
  8
_1-5_寸法2
  6
CONTINUOUS
 62
    7
 10
338.29206592900755
 20
243.65722217440225
 11
347.21515711801976
 21
235.63360431008616
  0
LINE
  8
_1-5_寸法2
  6
CONTINUOUS
 62
    7
 10
338.29206592900755
 20
243.65722217440225
 11
342.00788064681922
 21
232.24701967913973
  0
LINE
  8
_1-5_寸法2
  6
CONTINUOUS
 62
    7
 10
338.29206592900755
 20
243.65722217440225
 11
389.95438106241039
 21
164.22027098067494
  0
LINE
  8
_1-5_寸法2
  6
CONTINUOUS
 62
    7
 10
389.95438106241039
 20
164.22027098067494
 11
433.15438106241049
 21
164.22027098067494
  0
TEXT
  8
_1-5_寸法2
 62
    7
 10
389.95438106241039
 20
164.22027098067494
 40
18
 41
0.7999999999999998
 50
0
  1
排水口
  0
LINE
  8
_1-5_寸法2
  6
CONTINUOUS
 62
    7
 10
371.24439162286785
 20
330.93891640131983
 11
382.46850190815979
 21
326.69399610717977
  0
LINE
  8
_1-5_寸法2
  6
CONTINUOUS
 62
    7
 10
371.24439162286785
 20
330.93891640131983
 11
378.8422961177389
 21
321.65065244690834
  0
LINE
  8
_1-5_寸法2
  6
CONTINUOUS
 62
    7
 10
371.24439162286785
 20
330.93891640131983
 11
423.66485359807734
 21
293.24817082543359
  0
LINE
  8
_1-5_寸法2
  6
CONTINUOUS
 62
    7
 10
423.66485359807734
 20
293.24817082543359
 11
510.06485359807732
 21
293.24817082543359
  0
TEXT
  8
_1-5_寸法2
 62
    7
 10
423.66485359807734
 20
293.24817082543359
 40
18
 41
0.7999999999999998
 50
0
  1
ロックナット
  0
LINE
  8
_1-5_寸法2
  6
CONTINUOUS
 62
    7
 10
370.23249900969216
 20
342.0945351301242
 11
372.94385407292316
 21
353.78421235924782
  0
LINE
  8
_1-5_寸法2
  6
CONTINUOUS
 62
    7
 10
370.23249900969216
 20
342.0945351301242
 11
378.42543998769168
 21
350.86241504097023
  0
LINE
  8
_1-5_寸法2
  6
CONTINUOUS
 62
    7
 10
370.23249900969216
 20
342.0945351301242
 11
411.12888424067154
 21
418.82027097932848
  0
LINE
  8
_1-5_寸法2
  6
CONTINUOUS
 62
    7
 10
411.12888424067154
 20
418.82027097932848
 11
468.72888424067162
 21
418.82027097932848
  0
TEXT
  8
_1-5_寸法2
 62
    7
 10
411.12888424067154
 20
418.82027097932848
 40
18
 41
0.7999999999999998
 50
0
  1
パッキン
  0
LINE
  8
_1-5_寸法2
  6
CONTINUOUS
 62
    7
 10
211.02888438077292
 20
215.21108298064519
 11
211.02888438077241
 21
158.22027098067494
  0
LINE
  8
_1-5_寸法2
  6
CONTINUOUS
 62
    7
 10
211.0288843807725
 20
164.22027098067494
 11
222.61999429624137
 21
167.32609952190518
  0
LINE
  8
_1-5_寸法2
  6
CONTINUOUS
 62
    7
 10
211.0288843807725
 20
164.22027098067494
 11
222.61999429624137
 21
161.1144424394447
  0
LINE
  8
_1-5_寸法2
  6
CONTINUOUS
 62
    7
 10
351.12888424067154
 20
215.21108298064519
 11
351.12888424067137
 21
158.22027098067494
  0
LINE
  8
_1-5_寸法2
  6
CONTINUOUS
 62
    7
 10
351.12888424067137
 20
164.22027098067494
 11
339.53777432520246
 21
161.1144424394447
  0
LINE
  8
_1-5_寸法2
  6
CONTINUOUS
 62
    7
 10
351.12888424067137
 20
164.22027098067494
 11
339.53777432520258
 21
167.32609952190526
  0
LINE
  8
_1-5_寸法2
  6
CONTINUOUS
 62
    7
 10
211.0288843807725
 20
164.22027098067494
 11
351.12888424067137
 21
164.22027098067494
  0
TEXT
  8
_1-5_寸法2
 62
    7
 10
263.07888431072183
 20
164.22027098067494
 40
18
 41
1
 50
0
  1
46.7
  0
LINE
  8
_1-2_極細2
  6
CENTER1
 62
    2
 10
281.0788843107224
 20
373.82845097917811
 11
281.0788843107224
 21
209.84651898081822
  0
LINE
  8
_1-5_寸法2
  6
CONTINUOUS
 62
    7
 10
360.12888424367151
 20
224.22027098067485
 11
417.12888424067154
 21
224.22027098067468
  0
LINE
  8
_1-5_寸法2
  6
CONTINUOUS
 62
    7
 10
411.12888424067154
 20
224.22027098067468
 11
408.02305569944139
 21
235.81138089614356
  0
LINE
  8
_1-5_寸法2
  6
CONTINUOUS
 62
    7
 10
411.12888424067154
 20
224.22027098067468
 11
414.23471278190186
 21
235.81138089614356
  0
LINE
  8
_1-5_寸法2
  6
CONTINUOUS
 62
    7
 10
371.07888423272254
 20
292.62027097999061
 11
417.12888424067154
 21
292.62027097999044
  0
LINE
  8
_1-5_寸法2
  6
CONTINUOUS
 62
    7
 10
411.12888424067154
 20
292.62027097999044
 11
414.23471278190186
 21
281.02916106452165
  0
LINE
  8
_1-5_寸法2
  6
CONTINUOUS
 62
    7
 10
411.12888424067154
 20
292.62027097999044
 11
408.02305569944139
 21
281.02916106452159
  0
LINE
  8
_1-5_寸法2
  6
CONTINUOUS
 62
    7
 10
411.12888424067154
 20
224.22027098067468
 11
411.12888424067154
 21
292.62027097999044
  0
TEXT
  8
_1-5_寸法2
 62
    7
 10
411.12888424067154
 20
249.42027098033259
 40
18
 41
1
 50
90
  1
23
  0
LINE
  8
_1-5_寸法2
  6
CONTINUOUS
 62
    7
 10
207.5788843107224
 20
369.12027097951716
 11
207.57888431072257
 21
407.22027140192671
  0
LINE
  8
_1-5_寸法2
  6
CONTINUOUS
 62
    7
 10
207.57888431072249
 20
401.22027140192671
 11
219.16999422619136
 21
404.32609994315703
  0
LINE
  8
_1-5_寸法2
  6
CONTINUOUS
 62
    7
 10
207.57888431072249
 20
401.22027140192671
 11
219.16999422619136
 21
398.1144428606965
  0
LINE
  8
_1-5_寸法2
  6
CONTINUOUS
 62
    7
 10
354.5788843107224
 20
369.12027097951716
 11
354.57888431072251
 21
407.22027140192671
  0
LINE
  8
_1-5_寸法2
  6
CONTINUOUS
 62
    7
 10
354.57888431072251
 20
401.22027140192671
 11
342.98777439525361
 21
398.11444286069656
  0
LINE
  8
_1-5_寸法2
  6
CONTINUOUS
 62
    7
 10
354.57888431072251
 20
401.22027140192671
 11
342.98777439525372
 21
404.32609994315703
  0
LINE
  8
_1-5_寸法2
  6
CONTINUOUS
 62
    7
 10
207.57888431072249
 20
401.22027140192671
 11
354.57888431072251
 21
401.22027140192671
  0
TEXT
  8
_1-5_寸法2
 62
    7
 10
238.32888431072249
 20
401.22027140192671
 40
18
 41
1
 50
0
  1
φ49___±0.5
  0
LINE
  8
_1-5_寸法2
  6
CONTINUOUS
 62
    7
 10
183.5788843107224
 20
369.12027097951704
 11
183.57888431072249
 21
449.22027140192671
  0
LINE
  8
_1-5_寸法2
  6
CONTINUOUS
 62
    7
 10
183.57888431072249
 20
443.22027140192671
 11
195.16999422619136
 21
446.32609994315703
  0
LINE
  8
_1-5_寸法2
  6
CONTINUOUS
 62
    7
 10
183.57888431072249
 20
443.22027140192671
 11
195.16999422619136
 21
440.1144428606965
  0
LINE
  8
_1-5_寸法2
  6
CONTINUOUS
 62
    7
 10
378.5788843107224
 20
369.12027097951704
 11
378.57888431072251
 21
449.22027140192671
  0
LINE
  8
_1-5_寸法2
  6
CONTINUOUS
 62
    7
 10
378.57888431072251
 20
443.22027140192671
 11
366.98777439525361
 21
440.11444286069656
  0
LINE
  8
_1-5_寸法2
  6
CONTINUOUS
 62
    7
 10
378.57888431072251
 20
443.22027140192671
 11
366.98777439525372
 21
446.32609994315703
  0
LINE
  8
_1-5_寸法2
  6
CONTINUOUS
 62
    7
 10
183.57888431072249
 20
443.22027140192671
 11
378.57888431072251
 21
443.22027140192671
  0
TEXT
  8
_1-5_寸法2
 62
    7
 10
238.32888431072249
 20
443.22027140192671
 40
18
 41
1
 50
0
  1
φ65___±0.3
  0
TEXT
  8
_0-7_枠細線
 62
    5
 10
222.88354316546361
 20
474.72508380526858
 40
24
 41
0.8
 50
0
  1
排水部詳細図
  0
TEXT
  8
_0-7_枠細線
 62
    5
 10
354.6099967125852
 20
474.72508380526858
 40
24
 41
0.6000000000000002
 50
0
  1
Ｓ＝１：２
  0
LINE
  8
_1-5_寸法2
  6
CONTINUOUS
 62
    7
 10
843
 20
321.72027097951707
 11
843
 21
371.22027140192677
  0
LINE
  8
_1-5_寸法2
  6
CONTINUOUS
 62
    7
 10
843
 20
359.22027140192677
 11
831.40889008453121
 21
356.11444286069656
  0
LINE
  8
_1-5_寸法2
  6
CONTINUOUS
 62
    7
 10
843
 20
359.22027140192677
 11
831.40889008453121
 21
362.32609994315703
  0
LINE
  8
_1-5_寸法2
  6
CONTINUOUS
 62
    7
 10
859.5
 20
321.72027097951707
 11
859.5
 21
371.22027140192677
  0
LINE
  8
_1-5_寸法2
  6
CONTINUOUS
 62
    7
 10
814.63542350392618
 20
359.22027140192677
 11
859.5
 21
359.22027140192677
  0
TEXT
  8
_1-5_寸法2
 62
    7
 10
814.63542350392618
 20
359.22027140192677
 40
18
 41
1
 50
0
  1
5.5
  0
LINE
  8
_1-5_寸法2
  6
CONTINUOUS
 62
    7
 10
859.5
 20
359.22027140192677
 11
871.09110991546879
 21
362.32609994315692
  0
LINE
  8
_1-5_寸法2
  6
CONTINUOUS
 62
    7
 10
859.5
 20
359.22027140192677
 11
871.09110991546879
 21
356.11444286069644
  0
LINE
  8
_1-5_寸法2
  6
CONTINUOUS
 62
    7
 10
889.5
 20
321.72027097951707
 11
889.5
 21
371.22027140192677
  0
LINE
  8
_1-5_寸法2
  6
CONTINUOUS
 62
    7
 10
889.5
 20
359.22027140192677
 11
877.90889008453121
 21
356.11444286069656
  0
LINE
  8
_1-5_寸法2
  6
CONTINUOUS
 62
    7
 10
889.5
 20
359.22027140192677
 11
877.90889008453121
 21
362.32609994315703
  0
LINE
  8
_1-5_寸法2
  6
CONTINUOUS
 62
    7
 10
859.5
 20
359.22027140192677
 11
889.5
 21
359.22027140192677
  0
TEXT
  8
_1-5_寸法2
 62
    7
 10
865.5
 20
359.22027140192677
 40
18
 41
1
 50
0
  1
10
  0
LINE
  8
_1-5_寸法2
  6
CONTINUOUS
 62
    7
 10
813.00000000000239
 20
319.62027140192663
 11
813.00000000000273
 21
407.22027140192671
  0
LINE
  8
_1-5_寸法2
  6
CONTINUOUS
 62
    7
 10
813.00000000000273
 20
401.22027140192671
 11
824.59110991547152
 21
404.32609994315703
  0
LINE
  8
_1-5_寸法2
  6
CONTINUOUS
 62
    7
 10
813.00000000000273
 20
401.22027140192671
 11
824.59110991547152
 21
398.1144428606965
  0
LINE
  8
_1-5_寸法2
  6
CONTINUOUS
 62
    7
 10
1029.0000003061477
 20
319.62027140192663
 11
1029.0000003061482
 21
407.22027140192671
  0
LINE
  8
_1-5_寸法2
  6
CONTINUOUS
 62
    7
 10
1029.0000003061482
 20
401.22027140192671
 11
1017.4088903906794
 21
398.11444286069656
  0
LINE
  8
_1-5_寸法2
  6
CONTINUOUS
 62
    7
 10
1029.0000003061482
 20
401.22027140192671
 11
1017.4088903906794
 21
404.32609994315703
  0
LINE
  8
_1-5_寸法2
  6
CONTINUOUS
 62
    7
 10
813.00000000000273
 20
401.22027140192671
 11
1029.0000003061482
 21
401.22027140192671
  0
TEXT
  8
_1-5_寸法2
 62
    7
 10
912.00000015307546
 20
401.22027140192671
 40
18
 41
1
 50
0
  1
72
  0
LINE
  8
_1-2_極細2
  6
CONTINUOUS
 62
    2
 10
1032.0000003061477
 20
257.22027097951718
 11
1032.0000003061477
 21
315.12027097951716
  0
LINE
  8
_1-2_極細2
  6
CONTINUOUS
 62
    2
 10
1034.1000003061458
 20
255.12027097951682
 11
1034.1000003061458
 21
313.02027097951668
  0
LINE
  8
_1-2_極細2
  6
CONTINUOUS
 62
    2
 10
1059.9000003061474
 20
291.12027097951682
 11
1059.9000003061474
 21
313.02027097951668
  0
LINE
  8
_1-2_極細2
  6
CONTINUOUS
 62
    2
 10
1062.0000003061473
 20
291.12027097951682
 11
1062.0000003061482
 21
315.12027097951716
  0
LINE
  8
_1-2_極細2
  6
CONTINUOUS
 62
    2
 10
1059.9000003061474
 20
291.12027097951682
 11
1062.0000003061473
 21
291.12027097951682
  0
LINE
  8
_1-2_極細2
  6
CONTINUOUS
 62
    2
 10
1032.0000003061477
 20
315.12027097951716
 11
1062.0000003061482
 21
315.12027097951716
  0
LINE
  8
_1-2_極細2
  6
CONTINUOUS
 62
    2
 10
1034.1000003061458
 20
313.02027097951668
 11
1059.9000003061474
 21
313.02027097951668
  0
LINE
  8
_1-5_寸法2
  6
CONTINUOUS
 62
    7
 10
1032.0000003061477
 20
327.12027097951716
 11
1032.0000003061477
 21
413.22027140192671
  0
LINE
  8
_1-5_寸法2
  6
CONTINUOUS
 62
    7
 10
1032.0000003061477
 20
401.22027140192671
 11
1043.5911102216169
 21
404.32609994315703
  0
LINE
  8
_1-5_寸法2
  6
CONTINUOUS
 62
    7
 10
1032.0000003061477
 20
401.22027140192671
 11
1043.5911102216169
 21
398.1144428606965
  0
LINE
  8
_1-5_寸法2
  6
CONTINUOUS
 62
    7
 10
1062.0000003061482
 20
327.12027097951716
 11
1062.0000003061482
 21
413.22027140192671
  0
LINE
  8
_1-5_寸法2
  6
CONTINUOUS
 62
    7
 10
1062.0000003061482
 20
401.22027140192671
 11
1050.4088903906793
 21
398.11444286069656
  0
LINE
  8
_1-5_寸法2
  6
CONTINUOUS
 62
    7
 10
1062.0000003061482
 20
401.22027140192671
 11
1050.4088903906793
 21
404.32609994315703
  0
LINE
  8
_1-5_寸法2
  6
CONTINUOUS
 62
    7
 10
1032.0000003061477
 20
401.22027140192671
 11
1062.0000003061482
 21
401.22027140192671
  0
TEXT
  8
_1-5_寸法2
 62
    7
 10
1038.0000003061477
 20
401.22027140192671
 40
18
 41
1
 50
0
  1
10
  0
LINE
  8
_1-2_極細2
  6
CONTINUOUS
 62
    2
 10
807.90000000000146
 20
255.12027097951682
 11
807.90000000000146
 21
313.02027097951668
  0
LINE
  8
_1-2_極細2
  6
CONTINUOUS
 62
    2
 10
810.00000000000023
 20
257.22027097951718
 11
810.00000000000023
 21
315.12027097951716
  0
LINE
  8
_1-2_極細2
  6
CONTINUOUS
 62
    2
 10
780.00000000000023
 20
291.12027097951727
 11
780.00000000000023
 21
315.12027097951716
  0
LINE
  8
_1-2_極細2
  6
CONTINUOUS
 62
    2
 10
782.10000000000036
 20
291.12027097951682
 11
782.099999999999
 21
313.02027097951714
  0
LINE
  8
_1-2_極細2
  6
CONTINUOUS
 62
    2
 10
780.00000000000023
 20
291.12027097951727
 11
782.10000000000036
 21
291.12027097951727
  0
LINE
  8
_1-2_極細2
  6
CONTINUOUS
 62
    2
 10
782.10000000000036
 20
313.02027097951668
 11
807.90000000000146
 21
313.02027097951668
  0
LINE
  8
_1-2_極細2
  6
CONTINUOUS
 62
    2
 10
780.00000000000023
 20
315.12027097951716
 11
810.00000000000023
 21
315.12027097951716
  0
LINE
  8
_1-5_寸法2
  6
CONTINUOUS
 62
    7
 10
795.90000000000146
 20
255.12027097951682
 11
708.00000000000023
 21
255.12027097951707
  0
LINE
  8
_1-5_寸法2
  6
CONTINUOUS
 62
    7
 10
720.00000000000023
 20
255.12027097951704
 11
716.89417145876996
 21
266.71138089498584
  0
LINE
  8
_1-5_寸法2
  6
CONTINUOUS
 62
    7
 10
720.00000000000023
 20
255.12027097951704
 11
723.10582854123049
 21
266.71138089498584
  0
LINE
  8
_1-5_寸法2
  6
CONTINUOUS
 62
    7
 10
768.00000000000023
 20
291.12027097951733
 11
708.00000000000023
 21
291.12027097951756
  0
LINE
  8
_1-5_寸法2
  6
CONTINUOUS
 62
    7
 10
720.00000000000023
 20
291.1202709795175
 11
723.10582854123027
 21
279.52916106404859
  0
LINE
  8
_1-5_寸法2
  6
CONTINUOUS
 62
    7
 10
720.00000000000023
 20
291.1202709795175
 11
716.89417145876996
 21
279.52916106404871
  0
LINE
  8
_1-5_寸法2
  6
CONTINUOUS
 62
    7
 10
720.00000000000023
 20
255.12027097951704
 11
720.00000000000023
 21
291.1202709795175
  0
TEXT
  8
_1-5_寸法2
 62
    7
 10
720.00000000000023
 20
264.1202709795175
 40
18
 41
1
 50
90
  1
12
  0
LINE
  8
_1-5_寸法2
  6
CONTINUOUS
 62
    7
 10
720.00000000000023
 20
291.1202709795175
 11
716.89417145876996
 21
302.71138089498635
  0
LINE
  8
_1-5_寸法2
  6
CONTINUOUS
 62
    7
 10
720.00000000000023
 20
291.1202709795175
 11
723.10582854123049
 21
302.71138089498629
  0
LINE
  8
_1-5_寸法2
  6
CONTINUOUS
 62
    7
 10
768.00000000000023
 20
315.12027097951716
 11
708.00000000000023
 21
315.12027097951727
  0
LINE
  8
_1-5_寸法2
  6
CONTINUOUS
 62
    7
 10
720.00000000000023
 20
315.12027097951727
 11
723.10582854123027
 21
303.52916106404842
  0
LINE
  8
_1-5_寸法2
  6
CONTINUOUS
 62
    7
 10
720.00000000000023
 20
315.12027097951727
 11
716.89417145876996
 21
303.52916106404848
  0
LINE
  8
_1-5_寸法2
  6
CONTINUOUS
 62
    7
 10
720.00000000000023
 20
291.1202709795175
 11
720.00000000000023
 21
315.12027097951727
  0
TEXT
  8
_1-5_寸法2
 62
    7
 10
720.00000000000023
 20
298.6202709795175
 40
18
 41
1
 50
90
  1
8
  0
LINE
  8
_1-5_寸法2
  6
CONTINUOUS
 62
    7
 10
780.00000000000023
 20
327.12027097951716
 11
780.00000000000023
 21
413.22027140192671
  0
LINE
  8
_1-5_寸法2
  6
CONTINUOUS
 62
    7
 10
780.00000000000023
 20
401.22027140192671
 11
791.59110991546891
 21
404.32609994315703
  0
LINE
  8
_1-5_寸法2
  6
CONTINUOUS
 62
    7
 10
780.00000000000023
 20
401.22027140192671
 11
791.59110991546891
 21
398.1144428606965
  0
LINE
  8
_1-5_寸法2
  6
CONTINUOUS
 62
    7
 10
810.00000000000023
 20
327.12027097951716
 11
810.00000000000023
 21
413.22027140192671
  0
LINE
  8
_1-5_寸法2
  6
CONTINUOUS
 62
    7
 10
810.00000000000023
 20
401.22027140192671
 11
798.40889008453132
 21
398.11444286069656
  0
LINE
  8
_1-5_寸法2
  6
CONTINUOUS
 62
    7
 10
810.00000000000023
 20
401.22027140192671
 11
798.40889008453132
 21
404.32609994315703
  0
LINE
  8
_1-5_寸法2
  6
CONTINUOUS
 62
    7
 10
780.00000000000023
 20
401.22027140192671
 11
810.00000000000023
 21
401.22027140192671
  0
TEXT
  8
_1-5_寸法2
 62
    7
 10
786.00000000000023
 20
401.22027140192671
 40
18
 41
1
 50
0
  1
10
  0
LINE
  8
_1-2_極細2
  6
CONTINUOUS
 62
    2
 10
810.00000000000023
 20
257.22027097951718
 11
1032.0000003061477
 21
257.22027097951718
  0
LINE
  8
_1-5_寸法2
  6
CONTINUOUS
 62
    7
 10
780.00000000000023
 20
327.12027097951716
 11
780.00000000000068
 21
455.22027140192671
  0
LINE
  8
_1-5_寸法2
  6
CONTINUOUS
 62
    7
 10
780.00000000000068
 20
443.22027140192671
 11
791.59110991546947
 21
446.32609994315703
  0
LINE
  8
_1-5_寸法2
  6
CONTINUOUS
 62
    7
 10
780.00000000000068
 20
443.22027140192671
 11
791.59110991546947
 21
440.1144428606965
  0
LINE
  8
_1-5_寸法2
  6
CONTINUOUS
 62
    7
 10
1062.0000003061482
 20
327.12027097951716
 11
1062.0000003061482
 21
455.22027140192671
  0
LINE
  8
_1-5_寸法2
  6
CONTINUOUS
 62
    7
 10
1062.0000003061482
 20
443.22027140192671
 11
1050.4088903906793
 21
440.11444286069656
  0
LINE
  8
_1-5_寸法2
  6
CONTINUOUS
 62
    7
 10
1062.0000003061482
 20
443.22027140192671
 11
1050.4088903906793
 21
446.32609994315703
  0
LINE
  8
_1-5_寸法2
  6
CONTINUOUS
 62
    7
 10
780.00000000000068
 20
443.22027140192671
 11
1062.0000003061482
 21
443.22027140192671
  0
TEXT
  8
_1-5_寸法2
 62
    7
 10
912.00000015307455
 20
443.22027140192671
 40
18
 41
1
 50
0
  1
94
  0
LINE
  8
_1-2_極細2
  6
CONTINUOUS
 62
    2
 10
1034.1000003061458
 20
255.12027097951682
 11
807.90000000000146
 21
255.12027097951682
  0
LINE
  8
_1-3_細線2
  6
CONTINUOUS
 62
    4
 10
932.39999999999918
 20
304.92027097951689
 11
909.60000000000082
 21
304.92027097951689
  0
LINE
  8
_1-3_細線2
  6
CONTINUOUS
 62
    4
 10
909.60000000000082
 20
304.92027097951689
 11
909.60000000000082
 21
260.52027097951725
  0
LINE
  8
_1-3_細線2
  6
CONTINUOUS
 62
    4
 10
863.09999999999945
 20
304.92027097951689
 11
885.89999999999986
 21
304.92027097951689
  0
LINE
  8
_1-3_細線2
  6
CONTINUOUS
 62
    4
 10
885.89999999999986
 20
304.92027097951689
 11
885.89999999999986
 21
260.52027097951725
  0
ARC
  8
_1-3_細線2
  6
CONTINUOUS
 62
    4
 10
932.39999999999986
 20
304.92027097951711
 40
3.5999999999999996
 50
0
 51
89.999999999999915
  0
LINE
  8
_1-3_細線2
  6
CONTINUOUS
 62
    4
 10
906
 20
304.92027097951711
 11
906
 21
260.52027097951725
  0
LINE
  8
_1-3_細線2
  6
CONTINUOUS
 62
    4
 10
932.39999999999986
 20
308.52027097951725
 11
909.59999999999991
 21
308.52027097951725
  0
ARC
  8
_1-3_細線2
  6
CONTINUOUS
 62
    4
 10
909.59999999999991
 20
304.92027097951711
 40
3.5999999999999996
 50
89.999999999999915
 51
179.99999999999983
  0
LINE
  8
_1-3_細線2
  6
CONTINUOUS
 62
    4
 10
889.5
 20
304.92027097951711
 11
889.5
 21
260.52027097951725
  0
ARC
  8
_1-3_細線2
  6
CONTINUOUS
 62
    4
 10
885.89999999999986
 20
304.92027097951711
 40
3.5999999999999996
 50
0
 51
89.999999999999915
  0
LINE
  8
_1-3_細線2
  6
CONTINUOUS
 62
    4
 10
863.09999999999911
 20
308.52027097951725
 11
885.89999999999986
 21
308.52027097951725
  0
ARC
  8
_1-3_細線2
  6
CONTINUOUS
 62
    4
 10
863.09999999999911
 20
304.92027097951711
 40
3.5999999999999996
 50
89.999999999999915
 51
179.99999999999983
  0
LINE
  8
_1-3_細線2
  6
CONTINUOUS
 62
    4
 10
885.89999999999986
 20
260.52027097951725
 11
889.5
 21
260.52027097951725
  0
LINE
  8
_1-3_細線2
  6
CONTINUOUS
 62
    4
 10
906
 20
260.52027097951725
 11
909.60000000000082
 21
260.52027097951725
  0
LINE
  8
_1-3_細線2
  6
CONTINUOUS
 62
    4
 10
936
 20
290.52027055710766
 11
932.39999999999918
 21
290.52027055710744
  0
LINE
  8
_1-3_細線2
  6
CONTINUOUS
 62
    4
 10
859.49999999999932
 20
290.52027055710766
 11
863.10000000000014
 21
290.52027055710744
  0
LINE
  8
_1-3_細線2
  6
CONTINUOUS
 62
    4
 10
932.39999999999918
 20
304.92027097951689
 11
932.39999999999918
 21
290.52027055710766
  0
LINE
  8
_1-3_細線2
  6
CONTINUOUS
 62
    4
 10
863.09999999999945
 20
304.92027097951689
 11
863.10000000000014
 21
290.52027055710766
  0
LINE
  8
_1-3_細線2
  6
CONTINUOUS
 62
    4
 10
936
 20
304.92027097951711
 11
936
 21
290.52027055710766
  0
LINE
  8
_1-3_細線2
  6
CONTINUOUS
 62
    4
 10
859.49999999999932
 20
304.92027097951711
 11
859.49999999999932
 21
290.52027055710766
  0
LINE
  8
_1-3_細線2
  6
CONTINUOUS
 62
    4
 10
843.00000000000171
 20
265.17027055710776
 11
885.90000000000123
 21
265.17027055710776
  0
LINE
  8
_1-3_細線2
  6
CONTINUOUS
 62
    4
 10
843.00000000000171
 20
285.8702705571078
 11
885.90000000000123
 21
285.8702705571078
  0
LINE
  8
_1-3_細線2
  6
CONTINUOUS
 62
    4
 10
889.50000000000102
 20
285.8702705571078
 11
906
 21
285.8702705571078
  0
LINE
  8
_1-3_細線2
  6
CONTINUOUS
 62
    4
 10
889.50000000000102
 20
265.17027055710776
 11
906
 21
265.17027055710776
  0
LINE
  8
_1-3_細線2
  6
CONTINUOUS
 62
    4
 10
952.50000030614785
 20
265.17027055710776
 11
909.60000030614867
 21
265.17027055710776
  0
LINE
  8
_1-3_細線2
  6
CONTINUOUS
 62
    4
 10
952.50000030614785
 20
285.8702705571078
 11
909.60000030614867
 21
285.8702705571078
  0
LINE
  8
_1-3_細線2
  6
CONTINUOUS
 62
    4
 10
1002.6000003061479
 20
283.27527097951713
 11
1002.6000003061479
 21
271.36527097951705
  0
LINE
  8
_1-3_細線2
  6
CONTINUOUS
 62
    4
 10
1002.6000003061479
 20
304.92027097951689
 11
1002.6000003061479
 21
260.52027097951725
  0
LINE
  8
_1-3_細線2
  6
CONTINUOUS
 62
    4
 10
978.90000030614635
 20
304.92027097951689
 11
956.10000030614663
 21
304.92027097951689
  0
LINE
  8
_1-3_細線2
  6
CONTINUOUS
 62
    4
 10
1025.4000003061469
 20
304.92027097951689
 11
1002.6000003061479
 21
304.92027097951689
  0
LINE
  8
_1-3_細線2
  6
CONTINUOUS
 62
    4
 10
956.10000030614663
 20
304.92027097951689
 11
956.10000030614663
 21
260.52027097951725
  0
ARC
  8
_1-3_細線2
  6
CONTINUOUS
 62
    4
 10
1025.4000003061481
 20
304.92027097951711
 40
3.5999999999999996
 50
0
 51
89.999999999999915
  0
LINE
  8
_1-3_細線2
  6
CONTINUOUS
 62
    4
 10
999.00000030614706
 20
304.92027097951711
 11
999.00000030614706
 21
260.52027097951725
  0
LINE
  8
_1-3_細線2
  6
CONTINUOUS
 62
    4
 10
1025.4000003061481
 20
308.52027097951725
 11
1002.600000306147
 21
308.52027097951725
  0
ARC
  8
_1-3_細線2
  6
CONTINUOUS
 62
    4
 10
1002.600000306147
 20
304.92027097951711
 40
3.5999999999999996
 50
89.999999999999915
 51
179.99999999999983
  0
ARC
  8
_1-3_細線2
  6
CONTINUOUS
 62
    4
 10
978.90000030614738
 20
304.92027097951711
 40
3.5999999999999996
 50
0
 51
89.999999999999915
  0
LINE
  8
_1-3_細線2
  6
CONTINUOUS
 62
    4
 10
952.50000030614785
 20
304.92027097951711
 11
952.50000030614785
 21
260.52027097951725
  0
LINE
  8
_1-3_細線2
  6
CONTINUOUS
 62
    4
 10
978.90000030614738
 20
308.52027097951725
 11
956.10000030614799
 21
308.52027097951725
  0
ARC
  8
_1-3_細線2
  6
CONTINUOUS
 62
    4
 10
956.10000030614799
 20
304.92027097951711
 40
3.5999999999999996
 50
89.999999999999915
 51
179.99999999999983
  0
LINE
  8
_1-3_細線2
  6
CONTINUOUS
 62
    4
 10
952.50000030614785
 20
260.52027097951725
 11
956.10000030614663
 21
260.52027097951725
  0
LINE
  8
_1-3_細線2
  6
CONTINUOUS
 62
    4
 10
999.00000030614706
 20
260.52027097951725
 11
1002.6000003061479
 21
260.52027097951725
  0
LINE
  8
_1-3_細線2
  6
CONTINUOUS
 62
    4
 10
1029.0000003061477
 20
290.52027055710766
 11
1025.4000003061469
 21
290.52027055710766
  0
LINE
  8
_1-3_細線2
  6
CONTINUOUS
 62
    4
 10
982.50000030614717
 20
290.52027055710766
 11
978.90000030614635
 21
290.52027055710766
  0
LINE
  8
_1-3_細線2
  6
CONTINUOUS
 62
    4
 10
978.90000030614635
 20
304.92027097951689
 11
978.90000030614635
 21
290.52027055710766
  0
LINE
  8
_1-3_細線2
  6
CONTINUOUS
 62
    4
 10
1025.4000003061469
 20
304.92027097951689
 11
1025.4000003061469
 21
290.52027055710766
  0
LINE
  8
_1-3_細線2
  6
CONTINUOUS
 62
    4
 10
1029.0000003061477
 20
304.92027097951711
 11
1029.0000003061477
 21
290.52027055710766
  0
LINE
  8
_1-3_細線2
  6
CONTINUOUS
 62
    4
 10
982.50000030614717
 20
304.92027097951711
 11
982.50000030614717
 21
290.52027055710766
  0
LINE
  8
_1-3_細線2
  6
CONTINUOUS
 62
    4
 10
999.00000061229662
 20
265.17027055710776
 11
956.10000061229744
 21
265.17027055710776
  0
LINE
  8
_1-3_細線2
  6
CONTINUOUS
 62
    4
 10
999.00000061229662
 20
285.8702705571078
 11
956.10000061229744
 21
285.8702705571078
  0
LINE
  8
_1-3_細線2
  6
CONTINUOUS
 62
    4
 10
839.40000000000293
 20
304.92027097951689
 11
839.40000000000293
 21
260.52027097951725
  0
LINE
  8
_1-3_細線2
  6
CONTINUOUS
 62
    4
 10
816.60000000000321
 20
304.92027097951689
 11
839.40000000000293
 21
304.92027097951689
  0
LINE
  8
_1-3_細線2
  6
CONTINUOUS
 62
    4
 10
843.00000000000171
 20
304.92027097951711
 11
843.00000000000171
 21
260.52027097951725
  0
ARC
  8
_1-3_細線2
  6
CONTINUOUS
 62
    4
 10
839.40000000000191
 20
304.92027097951711
 40
3.5999999999999996
 50
0
 51
89.999999999999915
  0
LINE
  8
_1-3_細線2
  6
CONTINUOUS
 62
    4
 10
816.60000000000241
 20
308.52027097951725
 11
839.40000000000191
 21
308.52027097951725
  0
ARC
  8
_1-3_細線2
  6
CONTINUOUS
 62
    4
 10
816.60000000000241
 20
304.92027097951711
 40
3.5999999999999996
 50
89.999999999999915
 51
179.99999999999983
  0
LINE
  8
_1-3_細線2
  6
CONTINUOUS
 62
    4
 10
839.40000000000293
 20
260.52027097951725
 11
843.00000000000171
 21
260.52027097951725
  0
LINE
  8
_1-3_細線2
  6
CONTINUOUS
 62
    4
 10
813.00000000000239
 20
290.52027055710766
 11
816.60000000000321
 21
290.52027055710744
  0
LINE
  8
_1-3_細線2
  6
CONTINUOUS
 62
    4
 10
816.60000000000321
 20
304.92027097951689
 11
816.60000000000321
 21
290.52027055710766
  0
LINE
  8
_1-3_細線2
  6
CONTINUOUS
 62
    4
 10
813.00000000000239
 20
304.92027097951711
 11
813.00000000000239
 21
290.52027055710766
  0
LINE
  8
_1-2_極細2
  6
CONTINUOUS
 62
    2
 10
991.50000000000023
 20
262.02027097951725
 11
991.5
 21
260.52027097951702
  0
LINE
  8
_1-2_極細2
  6
CONTINUOUS
 62
    2
 10
991.5
 20
258.72027097951718
 11
991.5
 21
257.22027097951718
  0
LINE
  8
_1-2_極細2
  6
CONTINUOUS
 62
    2
 10
987.75000000000023
 20
260.52027097951725
 11
987.75000000000023
 21
258.72027097951718
  0
LINE
  8
_1-2_極細2
  6
CONTINUOUS
 62
    2
 10
989.25000000000023
 20
260.52027097951725
 11
989.25000000000023
 21
258.72027097951718
  0
LINE
  8
_1-2_極細2
  6
CONTINUOUS
 62
    2
 10
987.75000000000023
 20
259.2000000000001
 11
989.25000000000023
 21
259.2000000000001
  0
LINE
  8
_1-2_極細2
  6
CONTINUOUS
 62
    2
 10
987.75000000000023
 20
259.80000000000013
 11
989.25000000000023
 21
259.80000000000013
  0
LINE
  8
_1-2_極細2
  6
CONTINUOUS
 62
    2
 10
987.75000000000023
 20
260.40000000000009
 11
989.25000000000023
 21
260.40000000000009
  0
LINE
  8
_1-2_極細2
  6
CONTINUOUS
 62
    2
 10
970.50000000000023
 20
262.02027097951725
 11
970.50000000000068
 21
260.52027097951725
  0
LINE
  8
_1-2_極細2
  6
CONTINUOUS
 62
    2
 10
970.50000000000068
 20
258.72027097951718
 11
970.5
 21
257.22027097951718
  0
LINE
  8
_1-2_極細2
  6
CONTINUOUS
 62
    2
 10
972.75000000000023
 20
260.52027097951725
 11
972.75000000000023
 21
258.72027097951718
  0
LINE
  8
_1-2_極細2
  6
CONTINUOUS
 62
    2
 10
974.25000000000023
 20
260.52027097951725
 11
974.25000000000023
 21
258.72027097951718
  0
LINE
  8
_1-2_極細2
  6
CONTINUOUS
 62
    2
 10
972.75000000000023
 20
259.2000000000001
 11
974.25000000000023
 21
259.2000000000001
  0
LINE
  8
_1-2_極細2
  6
CONTINUOUS
 62
    2
 10
972.75000000000023
 20
259.80000000000013
 11
974.25000000000023
 21
259.80000000000013
  0
LINE
  8
_1-2_極細2
  6
CONTINUOUS
 62
    2
 10
972.75000000000023
 20
260.40000000000009
 11
974.25000000000023
 21
260.40000000000009
  0
LINE
  8
_1-2_極細2
  6
CONTINUOUS
 62
    2
 10
970.50000000000068
 20
262.02027097951725
 11
991.5
 21
262.02027097951725
  0
LINE
  8
_1-2_極細2
  6
CONTINUOUS
 62
    2
 10
970.50000000000068
 20
261.00000000000006
 11
991.5
 21
261.00000000000006
  0
LINE
  8
_1-2_極細2
  6
CONTINUOUS
 62
    2
 10
970.50000000000068
 20
261.60000000000002
 11
991.5
 21
261.60000000000002
  0
LINE
  8
_1-2_極細2
  6
CONTINUOUS
 62
    2
 10
970.50000000000023
 20
257.40000000000009
 11
991.5
 21
257.40000000000009
  0
LINE
  8
_1-2_極細2
  6
CONTINUOUS
 62
    2
 10
970.50000000000023
 20
258.00000000000011
 11
991.5
 21
258.00000000000011
  0
LINE
  8
_1-2_極細2
  6
CONTINUOUS
 62
    2
 10
970.50000000000023
 20
258.60000000000014
 11
991.5
 21
258.60000000000014
  0
LINE
  8
_1-2_極細2
  6
CONTINUOUS
 62
    2
 10
970.50000000000023
 20
257.22027097951718
 11
991.5
 21
257.22027097951718
  0
LINE
  8
_1-2_極細2
  6
CONTINUOUS
 62
    2
 10
867.75000000000068
 20
260.52027097951725
 11
867.75000000000068
 21
258.72027097951718
  0
LINE
  8
_1-2_極細2
  6
CONTINUOUS
 62
    2
 10
869.25000000000068
 20
260.52027097951725
 11
869.25000000000068
 21
258.72027097951718
  0
LINE
  8
_1-2_極細2
  6
CONTINUOUS
 62
    2
 10
867.75000000000068
 20
259.2000000000001
 11
869.25000000000034
 21
259.2000000000001
  0
LINE
  8
_1-2_極細2
  6
CONTINUOUS
 62
    2
 10
867.75000000000068
 20
259.80000000000013
 11
869.25000000000034
 21
259.80000000000013
  0
LINE
  8
_1-2_極細2
  6
CONTINUOUS
 62
    2
 10
867.75000000000068
 20
260.40000000000009
 11
869.25000000000034
 21
260.40000000000009
  0
LINE
  8
_1-2_極細2
  6
CONTINUOUS
 62
    2
 10
871.50000000000023
 20
258.72027097951718
 11
871.50000000000023
 21
257.22027097951718
  0
LINE
  8
_1-2_極細2
  6
CONTINUOUS
 62
    2
 10
871.50000000000068
 20
262.02027097951725
 11
871.50000000000023
 21
260.52027097951702
  0
LINE
  8
_1-2_極細2
  6
CONTINUOUS
 62
    2
 10
850.50000000000091
 20
258.72027097951718
 11
850.50000000000023
 21
257.22027097951718
  0
LINE
  8
_1-2_極細2
  6
CONTINUOUS
 62
    2
 10
850.50000000000068
 20
262.02027097951725
 11
850.50000000000091
 21
260.52027097951725
  0
LINE
  8
_1-2_極細2
  6
CONTINUOUS
 62
    2
 10
852.75000000000068
 20
260.52027097951725
 11
852.75000000000068
 21
258.72027097951718
  0
LINE
  8
_1-2_極細2
  6
CONTINUOUS
 62
    2
 10
854.25000000000068
 20
260.52027097951725
 11
854.25000000000068
 21
258.72027097951718
  0
LINE
  8
_1-2_極細2
  6
CONTINUOUS
 62
    2
 10
852.75000000000045
 20
259.2000000000001
 11
854.25000000000091
 21
259.2000000000001
  0
LINE
  8
_1-2_極細2
  6
CONTINUOUS
 62
    2
 10
852.75000000000045
 20
259.80000000000013
 11
854.25000000000091
 21
259.80000000000013
  0
LINE
  8
_1-2_極細2
  6
CONTINUOUS
 62
    2
 10
852.75000000000045
 20
260.40000000000009
 11
854.25000000000091
 21
260.40000000000009
  0
LINE
  8
_1-2_極細2
  6
CONTINUOUS
 62
    2
 10
850.50000000000068
 20
257.22027097951718
 11
871.50000000000023
 21
257.22027097951718
  0
LINE
  8
_1-2_極細2
  6
CONTINUOUS
 62
    2
 10
850.50000000000068
 20
257.40000000000009
 11
871.50000000000023
 21
257.40000000000009
  0
LINE
  8
_1-2_極細2
  6
CONTINUOUS
 62
    2
 10
850.50000000000068
 20
258.00000000000011
 11
871.50000000000023
 21
258.00000000000011
  0
LINE
  8
_1-2_極細2
  6
CONTINUOUS
 62
    2
 10
850.50000000000068
 20
258.60000000000014
 11
871.50000000000023
 21
258.60000000000014
  0
LINE
  8
_1-2_極細2
  6
CONTINUOUS
 62
    2
 10
850.50000000000091
 20
261.00000000000006
 11
871.50000000000034
 21
261.00000000000006
  0
LINE
  8
_1-2_極細2
  6
CONTINUOUS
 62
    2
 10
850.50000000000091
 20
261.60000000000002
 11
871.50000000000034
 21
261.60000000000002
  0
LINE
  8
_1-2_極細2
  6
CONTINUOUS
 62
    2
 10
850.50000000000091
 20
262.02027097951725
 11
871.50000000000023
 21
262.02027097951725
  0
LINE
  8
_1-2_極細2
  6
CONTINUOUS
 62
    2
 10
1004.4000000000002
 20
301.62027097951704
 11
1002.6000000000004
 21
301.62027097951704
  0
LINE
  8
_1-2_極細2
  6
CONTINUOUS
 62
    2
 10
1004.4000000000002
 20
301.62027097951704
 11
1004.4000000000002
 21
258.72027097951718
  0
LINE
  8
_1-2_極細2
  6
CONTINUOUS
 62
    2
 10
837.60000000000014
 20
301.62027097951704
 11
839.40000000000009
 21
301.62027097951704
  0
LINE
  8
_1-2_極細2
  6
CONTINUOUS
 62
    2
 10
839.40000000000009
 20
260.52027097951725
 11
1002.6000000000004
 21
260.52027097951725
  0
LINE
  8
_1-2_極細2
  6
CONTINUOUS
 62
    2
 10
837.60000000000014
 20
301.62027097951704
 11
837.60000000000014
 21
258.72027097951718
  0
LINE
  8
_1-2_極細2
  6
CONTINUOUS
 62
    2
 10
837.60000000000014
 20
258.72027097951718
 11
1004.4000000000002
 21
258.72027097951718
  0
LINE
  8
_1-2_極細2
  6
CONTINUOUS
 62
    2
 10
1007.390244000002
 20
275.52027055710766
 11
1016.4037920000022
 21
275.52027055710766
  0
LINE
  8
_1-3_細線2
  6
CONTINUOUS
 62
    4
 10
1007.390244000002
 20
265.02027055710903
 11
1016.4038280000004
 21
265.02027055710903
  0
ARC
  8
_1-3_細線2
  6
CONTINUOUS
 62
    4
 10
1016.4038280000004
 20
265.62027055710848
 40
0.6000000000000002
 50
269.99999999999977
 51
359.99999999999966
  0
ARC
  8
_1-2_極細2
  6
CONTINUOUS
 62
    2
 10
993.72988800000167
 20
270.26983255710945
 40
23.273868
 50
346.96432999999968
 51
13.038021999994573
  0
ARC
  8
_1-3_細線2
  6
CONTINUOUS
 62
    4
 10
1016.4038280000004
 20
285.42027055710935
 40
0.6000000000000002
 50
0
 51
89.999999999999915
  0
ARC
  8
_1-2_極細2
  6
CONTINUOUS
 62
    2
 10
993.72988800000167
 20
280.77070255710794
 40
23.273868
 50
346.9619780000009
 51
13.035669999999625
  0
LINE
  8
_1-3_細線2
  6
CONTINUOUS
 62
    4
 10
1007.390244000002
 20
286.0202705571088
 11
1016.4038280000004
 21
286.0202705571088
  0
LINE
  8
_1-3_細線2
  6
CONTINUOUS
 62
    4
 10
1017.0038280000016
 20
265.62027055710848
 11
1017.0038280000016
 21
285.42027055710935
  0
ARC
  8
_1-3_細線2
  6
CONTINUOUS
 62
    4
 10
1006.7902440000008
 20
261.12027055710848
 40
0.6000000000000002
 50
269.99999999999977
 51
359.99999999999966
  0
LINE
  8
_1-3_細線2
  6
CONTINUOUS
 62
    4
 10
1004.4000000000002
 20
260.52027055710835
 11
1006.7902440000008
 21
260.52027055710835
  0
ARC
  8
_1-3_細線2
  6
CONTINUOUS
 62
    4
 10
1006.7902440000008
 20
289.92027055710776
 40
0.6000000000000002
 50
0
 51
89.999999999999915
  0
LINE
  8
_1-3_細線2
  6
CONTINUOUS
 62
    4
 10
1004.4000000000002
 20
290.5202705571088
 11
1006.7902440000008
 21
290.5202705571088
  0
LINE
  8
_1-3_細線2
  6
CONTINUOUS
 62
    4
 10
1007.390244000002
 20
289.92027055710776
 11
1007.390244000002
 21
261.12027055710848
  0
ARC
  8
_1-3_細線2
  6
CONTINUOUS
 62
    4
 10
835.20975599999952
 20
261.1202701346989
 40
0.6000000000000002
 50
179.99999999999983
 51
269.99999999999977
  0
LINE
  8
_1-3_細線2
  6
CONTINUOUS
 62
    4
 10
837.60000000000014
 20
260.52027013469876
 11
835.20975599999952
 21
260.52027013469876
  0
ARC
  8
_1-3_細線2
  6
CONTINUOUS
 62
    4
 10
835.20975599999952
 20
289.92027013469817
 40
0.6000000000000002
 50
89.999999999999915
 51
179.99999999999983
  0
LINE
  8
_1-3_細線2
  6
CONTINUOUS
 62
    4
 10
837.60000000000014
 20
290.52027013469922
 11
835.20975599999952
 21
290.52027013469922
  0
LINE
  8
_1-3_細線2
  6
CONTINUOUS
 62
    4
 10
834.60975599999836
 20
274.02027013469876
 11
834.60975599999836
 21
261.1202701346989
  0
LINE
  8
_1-3_細線2
  6
CONTINUOUS
 62
    4
 10
834.60975599999836
 20
289.92027013469817
 11
834.60975599999836
 21
274.02027013469876
  0
LINE
  8
_1-2_極細2
  6
CONTINUOUS
 62
    2
 10
834.60975599999836
 20
275.52027013469808
 11
825.59620799999811
 21
275.52027013469808
  0
LINE
  8
_1-3_細線2
  6
CONTINUOUS
 62
    4
 10
834.60975599999836
 20
265.02027013469944
 11
825.59617199999991
 21
265.02027013469944
  0
ARC
  8
_1-3_細線2
  6
CONTINUOUS
 62
    4
 10
825.59617199999991
 20
265.6202701346989
 40
0.6000000000000002
 50
179.99999999999983
 51
269.99999999999977
  0
ARC
  8
_1-2_極細2
  6
CONTINUOUS
 62
    2
 10
848.27011199999868
 20
270.26983213469987
 40
23.273868
 50
166.96197800000505
 51
193.03566999999961
  0
ARC
  8
_1-3_細線2
  6
CONTINUOUS
 62
    4
 10
825.59617199999991
 20
285.42027013469976
 40
0.6000000000000002
 50
89.999999999999915
 51
179.99999999999983
  0
ARC
  8
_1-2_極細2
  6
CONTINUOUS
 62
    2
 10
848.27011199999868
 20
280.77070213469835
 40
23.273868
 50
166.96433000000002
 51
193.03802199999842
  0
LINE
  8
_1-3_細線2
  6
CONTINUOUS
 62
    4
 10
834.60975599999836
 20
286.02027013469922
 11
825.59617199999991
 21
286.02027013469922
  0
LINE
  8
_1-3_細線2
  6
CONTINUOUS
 62
    4
 10
824.99617199999875
 20
265.6202701346989
 11
824.99617199999875
 21
285.42027013469976
  0
LINE
  8
_1-2_極細2
  6
CENTER1
 62
    2
 10
820.91074376027348
 20
275.52027055710766
 11
1022.0586254549157
 21
275.52027055710766
  0
TEXT
  8
_0-7_枠細線
 62
    5
 10
850.61791099972891
 20
474.72508380526858
 40
24
 41
0.8
 50
0
  1
Ａ－Ａ’断面図
  0
TEXT
  8
_0-7_枠細線
 62
    5
 10
1001.5443645468506
 20
474.72508380526858
 40
24
 41
0.6000000000000002
 50
0
  1
Ｓ＝１：２
  0
LINE
  8
_1-2_極細2
  6
CENTER1
 62
    2
 10
921
 20
333.46861461447963
 11
921
 21
233.75638439865222
  0
LINE
  8
_0-1_計細線
  6
CONTINUOUS
 62
    3
 10
810.06304118019625
 20
653.75787947158085
 11
810.06304118019625
 21
651.95787947160875
  0
LINE
  8
_0-1_計細線
  6
CONTINUOUS
 62
    3
 10
772.31304143616171
 20
671.45787947158249
 11
770.3130414361616
 21
669.45787947158249
  0
LINE
  8
_0-1_計細線
  6
CONTINUOUS
 62
    3
 10
770.3130414361616
 20
659.45787947158249
 11
770.3130414361616
 21
669.45787947158249
  0
LINE
  8
_0-1_計細線
  6
CONTINUOUS
 62
    3
 10
786.31304113000022
 20
669.45787947158249
 11
784.31304113000033
 21
671.45787947158249
  0
LINE
  8
_0-1_計細線
  6
CONTINUOUS
 62
    3
 10
786.31304113000022
 20
659.45787947158249
 11
786.31304113000022
 21
669.45787947158249
  0
LINE
  8
_0-1_計細線
  6
CONTINUOUS
 62
    3
 10
772.31304143616171
 20
655.45787947158237
 11
770.3130414361616
 21
653.45787947158249
  0
LINE
  8
_0-1_計細線
  6
CONTINUOUS
 62
    3
 10
772.31304143616171
 20
657.45787947158249
 11
772.31304143616171
 21
655.45787947158237
  0
LINE
  8
_0-1_計細線
  6
CONTINUOUS
 62
    3
 10
770.3130414361616
 20
659.45787947158249
 11
772.31304143616171
 21
657.45787947158249
  0
LINE
  8
_0-1_計細線
  6
CONTINUOUS
 62
    3
 10
784.31304113000033
 20
655.45787947158237
 11
786.31304113000022
 21
653.45787947158249
  0
LINE
  8
_0-1_計細線
  6
CONTINUOUS
 62
    3
 10
784.31304113000033
 20
657.45787947158249
 11
784.31304113000033
 21
655.45787947158237
  0
LINE
  8
_0-1_計細線
  6
CONTINUOUS
 62
    3
 10
786.31304113000022
 20
659.45787947158249
 11
784.31304113000033
 21
657.45787947158249
  0
LINE
  8
_0-1_計細線
  6
CONTINUOUS
 62
    3
 10
770.3130414361616
 20
653.45787947158249
 11
770.3130414361616
 21
639.45787947158249
  0
ARC
  8
_0-1_計細線
  6
CONTINUOUS
 62
    3
 10
773.3130414361616
 20
639.45787947158249
 40
3
 50
179.99999999999983
 51
269.99999999999977
  0
LINE
  8
_0-1_計細線
  6
CONTINUOUS
 62
    3
 10
773.3130414361616
 20
636.45787947158249
 11
783.31304113000022
 21
636.45787947158249
  0
LINE
  8
_0-1_計細線
  6
CONTINUOUS
 62
    3
 10
786.31304113000022
 20
653.45787947158249
 11
786.31304113000022
 21
639.45787947158249
  0
ARC
  8
_0-1_計細線
  6
CONTINUOUS
 62
    3
 10
783.31304113000022
 20
639.45787947158249
 40
3
 50
269.99999999999977
 51
359.99999999999966
  0
LINE
  8
_0-1_計細線
  6
CONTINUOUS
 62
    3
 10
810.01304128848642
 20
653.75787947158085
 11
786.01304113000151
 21
653.75787947158085
  0
LINE
  8
_0-1_計細線
  6
CONTINUOUS
 62
    3
 10
746.61304121194644
 20
653.75787947158085
 11
770.61304143616053
 21
653.75787947158085
  0
ARC
  8
_0-1_計細線
  6
CONTINUOUS
 62
    3
 10
746.61304121194644
 20
655.25787947158085
 40
1.5
 50
179.99999999999983
 51
269.99999999999977
  0
ARC
  8
_0-1_計細線
  6
CONTINUOUS
 62
    3
 10
810.01304128848642
 20
655.25787947158085
 40
1.5
 50
269.99999999999977
 51
359.99999999999966
  0
LINE
  8
_0-1_計細線
  6
CONTINUOUS
 62
    3
 10
754.96304123529717
 20
615.4548168049057
 11
755.96304123429718
 21
614.45787947158146
  0
LINE
  8
_0-1_計細線
  6
CONTINUOUS
 62
    3
 10
770.3130414361616
 20
659.45787947158112
 11
224.31304112999985
 21
659.45787947158112
  0
LINE
  8
_0-1_計細線
  6
CONTINUOUS
 62
    3
 10
208.31304143616123
 20
659.45787947158112
 11
191.61304121194644
 21
659.45787947158112
  0
LINE
  8
_0-1_計細線
  6
CONTINUOUS
 62
    3
 10
1332.3130414361622
 20
659.45787947158112
 11
786.31304113000022
 21
659.45787947158112
  0
LINE
  8
_0-1_計細線
  6
CONTINUOUS
 62
    3
 10
1365.0130412119461
 20
659.45787947158112
 11
1348.3130411299994
 21
659.45787947158112
  0
LINE
  8
_0-1_計細線
  6
CONTINUOUS
 62
    3
 10
181.33042114171349
 20
674.45079970527138
 11
201.31296039195058
 21
671.46003179101297
  0
LINE
  8
_0-1_計細線
  6
CONTINUOUS
 62
    3
 10
182.01303838324702
 20
671.45791179957985
 11
182.01303838324702
 21
674.34863345146039
  0
LINE
  8
_0-1_計細線
  6
CONTINUOUS
 62
    3
 10
181.31304121194626
 20
671.45787947158249
 11
182.01303838324702
 21
671.45787947158249
  0
LINE
  8
_0-1_計細線
  6
CONTINUOUS
 62
    3
 10
191.61304121194644
 20
659.45787947158112
 11
191.61304121194644
 21
672.91180960018755
  0
LINE
  8
_0-1_計細線
  6
CONTINUOUS
 62
    3
 10
181.31304121194626
 20
679.45787947158101
 11
181.31304121194626
 21
671.45787947158112
  0
LINE
  8
_0-1_計細線
  6
CONTINUOUS
 62
    3
 10
1375.3130412119458
 20
671.45787947158112
 11
1375.3130412119458
 21
679.45787947158101
  0
LINE
  8
_0-1_計細線
  6
CONTINUOUS
 62
    3
 10
1375.3130412119458
 20
679.45787947158101
 11
181.31304121194626
 21
679.45787947158101
  0
LINE
  8
_0-1_計細線
  6
CONTINUOUS
 62
    3
 10
201.31296039195058
 20
671.45787947158112
 11
1355.3131220319419
 21
671.45787947158112
  0
LINE
  8
_0-1_計細線
  6
CONTINUOUS
 62
    3
 10
1365.0130412119461
 20
672.91180911584104
 11
1365.0130412119461
 21
659.45787947158112
  0
LINE
  8
_0-1_計細線
  6
CONTINUOUS
 62
    3
 10
1375.2956679488179
 20
674.45079970527138
 11
1355.3131220319419
 21
671.46003179101297
  0
LINE
  8
_0-1_計細線
  6
CONTINUOUS
 62
    3
 10
1374.6130440406459
 20
671.45791179957985
 11
1374.6130440406459
 21
674.34863345146039
  0
LINE
  8
_0-1_計細線
  6
CONTINUOUS
 62
    3
 10
1375.3130412119458
 20
671.45791179957985
 11
1374.6130440406459
 21
671.45791179957985
  0
LINE
  8
_0-1_計細線
  6
CONTINUOUS
 62
    3
 10
745.11304121194644
 20
657.52631612685764
 11
745.11304121194644
 21
655.25787947158085
  0
LINE
  8
_0-1_計細線
  6
CONTINUOUS
 62
    3
 10
758.00273561636823
 20
659.45779865158408
 11
758.00273561636823
 21
657.47874664896551
  0
LINE
  8
_0-1_計細線
  6
CONTINUOUS
 62
    3
 10
758.00273561636823
 20
657.47964834547463
 11
224.26722603301499
 21
659.41206437459664
  0
LINE
  8
_0-1_計細線
  6
CONTINUOUS
 62
    3
 10
798.62334680752508
 20
659.45779865158408
 11
798.62334680752508
 21
657.47874664896551
  0
LINE
  8
_0-1_計細線
  6
CONTINUOUS
 62
    3
 10
798.62334680752508
 20
657.47964834547463
 11
1332.3588563908779
 21
659.41206437459664
  0
LINE
  8
_0-1_計細線
  6
CONTINUOUS
 62
    3
 10
811.51304121194698
 20
657.52631612685764
 11
811.51304121194698
 21
655.25787947158085
  0
LINE
  8
_0-0_計極細
  6
CONTINUOUS
 62
    2
 10
785.51304112999605
 20
658.65787947158083
 11
798.62334680752508
 21
658.65787947158083
  0
LINE
  8
_0-0_計極細
  6
CONTINUOUS
 62
    2
 10
758.00273561636823
 20
658.65787947158083
 11
771.11304143616053
 21
658.65787947158083
  0
LINE
  8
_0-1_計細線
  6
CONTINUOUS
 62
    3
 10
1334.3130414361608
 20
671.45787947158249
 11
1332.3130414361608
 21
669.45787947158249
  0
LINE
  8
_0-1_計細線
  6
CONTINUOUS
 62
    3
 10
1332.3130414361608
 20
659.45787947158249
 11
1332.3130414361608
 21
669.45787947158249
  0
LINE
  8
_0-1_計細線
  6
CONTINUOUS
 62
    3
 10
1348.3130411299994
 20
669.45787947158249
 11
1346.3130411299994
 21
671.45787947158249
  0
LINE
  8
_0-1_計細線
  6
CONTINUOUS
 62
    3
 10
1348.3130411299994
 20
659.45787947158249
 11
1348.3130411299994
 21
669.45787947158249
  0
LINE
  8
_0-1_計細線
  6
CONTINUOUS
 62
    3
 10
1334.3130414361608
 20
655.45787947158237
 11
1332.3130414361608
 21
653.45787947158249
  0
LINE
  8
_0-1_計細線
  6
CONTINUOUS
 62
    3
 10
1334.3130414361608
 20
657.45787947158249
 11
1334.3130414361608
 21
655.45787947158237
  0
LINE
  8
_0-1_計細線
  6
CONTINUOUS
 62
    3
 10
1332.3130414361608
 20
659.45787947158249
 11
1334.3130414361608
 21
657.45787947158249
  0
LINE
  8
_0-1_計細線
  6
CONTINUOUS
 62
    3
 10
1346.3130411299994
 20
655.45787947158237
 11
1348.3130411299994
 21
653.45787947158249
  0
LINE
  8
_0-1_計細線
  6
CONTINUOUS
 62
    3
 10
1346.3130411299994
 20
657.45787947158249
 11
1346.3130411299994
 21
655.45787947158237
  0
LINE
  8
_0-1_計細線
  6
CONTINUOUS
 62
    3
 10
1348.3130411299994
 20
659.45787947158249
 11
1346.3130411299994
 21
657.45787947158249
  0
LINE
  8
_0-1_計細線
  6
CONTINUOUS
 62
    3
 10
1332.3130414361608
 20
653.45787947158249
 11
1332.3130414361608
 21
639.45787947158249
  0
ARC
  8
_0-1_計細線
  6
CONTINUOUS
 62
    3
 10
1335.3130414361608
 20
639.45787947158249
 40
3
 50
179.99999999999983
 51
269.99999999999977
  0
LINE
  8
_0-1_計細線
  6
CONTINUOUS
 62
    3
 10
1335.3130414361608
 20
636.45787947158249
 11
1345.3130411299994
 21
636.45787947158249
  0
LINE
  8
_0-1_計細線
  6
CONTINUOUS
 62
    3
 10
1348.3130411299994
 20
653.45787947158249
 11
1348.3130411299994
 21
639.45787947158249
  0
ARC
  8
_0-1_計細線
  6
CONTINUOUS
 62
    3
 10
1345.3130411299994
 20
639.45787947158249
 40
3
 50
269.99999999999977
 51
359.99999999999966
  0
LINE
  8
_0-0_計極細
  6
CENTER1
 62
    2
 10
1340.3130412119458
 20
683.09925333697026
 11
1340.3130412119458
 21
627.82913550072715
  0
LINE
  8
_0-1_計細線
  6
CONTINUOUS
 62
    3
 10
210.3130414361612
 20
671.45787947158249
 11
208.31304143616123
 21
669.45787947158249
  0
LINE
  8
_0-1_計細線
  6
CONTINUOUS
 62
    3
 10
208.31304143616123
 20
659.45787947158249
 11
208.31304143616123
 21
669.45787947158249
  0
LINE
  8
_0-1_計細線
  6
CONTINUOUS
 62
    3
 10
224.31304112999985
 20
669.45787947158249
 11
222.31304112999987
 21
671.45787947158249
  0
LINE
  8
_0-1_計細線
  6
CONTINUOUS
 62
    3
 10
224.31304112999985
 20
659.45787947158249
 11
224.31304112999985
 21
669.45787947158249
  0
LINE
  8
_0-1_計細線
  6
CONTINUOUS
 62
    3
 10
210.3130414361612
 20
655.45787947158237
 11
208.31304143616123
 21
653.45787947158249
  0
LINE
  8
_0-1_計細線
  6
CONTINUOUS
 62
    3
 10
210.3130414361612
 20
657.45787947158249
 11
210.3130414361612
 21
655.45787947158237
  0
LINE
  8
_0-1_計細線
  6
CONTINUOUS
 62
    3
 10
208.31304143616123
 20
659.45787947158249
 11
210.3130414361612
 21
657.45787947158249
  0
LINE
  8
_0-1_計細線
  6
CONTINUOUS
 62
    3
 10
222.31304112999987
 20
655.45787947158237
 11
224.31304112999985
 21
653.45787947158249
  0
LINE
  8
_0-1_計細線
  6
CONTINUOUS
 62
    3
 10
222.31304112999987
 20
657.45787947158249
 11
222.31304112999987
 21
655.45787947158237
  0
LINE
  8
_0-1_計細線
  6
CONTINUOUS
 62
    3
 10
224.31304112999985
 20
659.45787947158249
 11
222.31304112999987
 21
657.45787947158249
  0
LINE
  8
_0-1_計細線
  6
CONTINUOUS
 62
    3
 10
208.31304143616123
 20
653.45787947158249
 11
208.31304143616123
 21
639.45787947158249
  0
ARC
  8
_0-1_計細線
  6
CONTINUOUS
 62
    3
 10
211.31304143616123
 20
639.45787947158249
 40
3
 50
179.99999999999983
 51
269.99999999999977
  0
LINE
  8
_0-1_計細線
  6
CONTINUOUS
 62
    3
 10
211.31304143616123
 20
636.45787947158249
 11
221.31304112999985
 21
636.45787947158249
  0
LINE
  8
_0-1_計細線
  6
CONTINUOUS
 62
    3
 10
224.31304112999985
 20
653.45787947158249
 11
224.31304112999985
 21
639.45787947158249
  0
ARC
  8
_0-1_計細線
  6
CONTINUOUS
 62
    3
 10
221.31304112999985
 20
639.45787947158249
 40
3
 50
269.99999999999977
 51
359.99999999999966
  0
LINE
  8
_0-0_計極細
  6
CENTER1
 62
    2
 10
216.31304121194623
 20
683.09925333697026
 11
216.31304121194623
 21
627.82913550072715
  0
LINE
  8
_0-0_計極細
  6
CONTINUOUS
 62
    2
 10
778.3130412119466
 20
615.4548168049057
 11
801.66304118859614
 21
615.4548168049057
  0
LINE
  8
_0-1_計細線
  6
CONTINUOUS
 62
    3
 10
778.3130412119466
 20
614.45787947158146
 11
800.66304118959624
 21
614.45787947158146
  0
LINE
  8
_0-0_計極細
  6
CONTINUOUS
 62
    2
 10
800.66304118959624
 20
638.95787947173892
 11
800.66304118959624
 21
614.45787947158146
  0
LINE
  8
_0-1_計細線
  6
CONTINUOUS
 62
    3
 10
801.66304118859614
 20
638.95787947173892
 11
801.66304118859614
 21
615.4548168049057
  0
LINE
  8
_0-0_計極細
  6
CONTINUOUS
 62
    2
 10
778.3130412119466
 20
615.4548168049057
 11
754.96304123529717
 21
615.4548168049057
  0
LINE
  8
_0-1_計細線
  6
CONTINUOUS
 62
    3
 10
778.3130412119466
 20
614.45787947158146
 11
755.96304123429718
 21
614.45787947158146
  0
LINE
  8
_0-0_計極細
  6
CONTINUOUS
 62
    2
 10
755.96304123429718
 20
638.95787947173892
 11
755.96304123429718
 21
614.45787947158146
  0
LINE
  8
_0-1_計細線
  6
CONTINUOUS
 62
    3
 10
754.96304123529717
 20
638.95787947173892
 11
754.96304123529717
 21
615.4548168049057
  0
LINE
  8
_0-1_計細線
  6
CONTINUOUS
 62
    3
 10
801.66304118859614
 20
615.4548168049057
 11
800.66304118959624
 21
614.45787947158146
  0
ARC
  8
_0-1_計細線
  6
CONTINUOUS
 62
    3
 10
807.06304118319622
 20
651.95787947160875
 40
2.9999999969999998
 50
269.99999999999977
 51
359.99999999999966
  0
LINE
  8
_0-0_計極細
  6
CONTINUOUS
 62
    2
 10
801.31304118894604
 20
648.95787947163876
 11
801.31304118894604
 21
638.95787947173892
  0
LINE
  8
_0-1_計細線
  6
CONTINUOUS
 62
    3
 10
804.31304118594642
 20
648.95787947163876
 11
804.31304118594642
 21
638.95787947173892
  0
LINE
  8
_0-1_計細線
  6
CONTINUOUS
 62
    3
 10
786.31304112999749
 20
648.95787947163876
 11
807.06304118319622
 21
648.95787947163876
  0
LINE
  8
_0-1_計細線
  6
CONTINUOUS
 62
    3
 10
786.31304112999749
 20
638.95787947173892
 11
804.31304118594642
 21
638.95787947173892
  0
LINE
  8
_0-1_計細線
  6
CONTINUOUS
 62
    3
 10
746.56304124369626
 20
653.75787947158085
 11
746.56304124369626
 21
651.95787947160875
  0
ARC
  8
_0-1_計細線
  6
CONTINUOUS
 62
    3
 10
749.56304124069629
 20
651.95787947160875
 40
2.9999999969999998
 50
179.99999999999983
 51
269.99999999999977
  0
LINE
  8
_0-0_計極細
  6
CONTINUOUS
 62
    2
 10
755.31304123494647
 20
648.95787947163876
 11
755.31304123494647
 21
638.95787947173892
  0
LINE
  8
_0-1_計細線
  6
CONTINUOUS
 62
    3
 10
752.31304123794598
 20
648.95787947163876
 11
752.31304123794598
 21
638.95787947173892
  0
LINE
  8
_0-1_計細線
  6
CONTINUOUS
 62
    3
 10
770.31304129389491
 20
648.95787947163876
 11
749.56304124069629
 21
648.95787947163876
  0
LINE
  8
_0-1_計細線
  6
CONTINUOUS
 62
    3
 10
770.31304129389491
 20
638.95787947173892
 11
752.31304123794598
 21
638.95787947173892
  0
LINE
  8
_0-5_寸法線
  6
CONTINUOUS
 62
    7
 10
181.31304121194626
 20
691.45787947158101
 11
181.31304121194626
 21
733.45787947158101
  0
LINE
  8
_0-5_寸法線
  6
CONTINUOUS
 62
    7
 10
181.31304121194626
 20
727.45787947158101
 11
192.90415112741505
 21
730.56370801281139
  0
LINE
  8
_0-5_寸法線
  6
CONTINUOUS
 62
    7
 10
181.31304121194626
 20
727.45787947158101
 11
192.90415112741505
 21
724.35205093035086
  0
LINE
  8
_0-5_寸法線
  6
CONTINUOUS
 62
    7
 10
216.31304121194631
 20
691.45787947158101
 11
216.31304121194623
 21
733.45787947158101
  0
LINE
  8
_0-5_寸法線
  6
CONTINUOUS
 62
    7
 10
216.31304121194623
 20
727.45787947158101
 11
204.72193129647744
 21
724.35205093035097
  0
LINE
  8
_0-5_寸法線
  6
CONTINUOUS
 62
    7
 10
216.31304121194623
 20
727.45787947158101
 11
204.72193129647744
 21
730.56370801281139
  0
LINE
  8
_0-5_寸法線
  6
CONTINUOUS
 62
    7
 10
181.31304121194626
 20
727.45787947158101
 11
216.31304121194623
 21
727.45787947158101
  0
TEXT
  8
_0-5_寸法線
 62
    7
 10
189.8130412119462
 20
727.45787947158101
 40
18
 41
1
 50
0
  1
35
  0
LINE
  8
_0-5_寸法線
  6
CONTINUOUS
 62
    7
 10
216.31304121194623
 20
727.45787947158101
 11
227.9041511274151
 21
730.56370801281128
  0
LINE
  8
_0-5_寸法線
  6
CONTINUOUS
 62
    7
 10
216.31304121194623
 20
727.45787947158101
 11
227.90415112741502
 21
724.35205093035086
  0
LINE
  8
_0-5_寸法線
  6
CONTINUOUS
 62
    7
 10
778.3130412119466
 20
691.45787947158101
 11
778.3130412119466
 21
733.45787947158101
  0
LINE
  8
_0-5_寸法線
  6
CONTINUOUS
 62
    7
 10
778.3130412119466
 20
727.45787947158101
 11
766.72193129647792
 21
724.35205093035097
  0
LINE
  8
_0-5_寸法線
  6
CONTINUOUS
 62
    7
 10
778.3130412119466
 20
727.45787947158101
 11
766.72193129647792
 21
730.56370801281139
  0
LINE
  8
_0-5_寸法線
  6
CONTINUOUS
 62
    7
 10
216.31304121194623
 20
727.45787947158101
 11
778.3130412119466
 21
727.45787947158101
  0
TEXT
  8
_0-5_寸法線
 62
    7
 10
483.8130412119462
 20
727.45787947158101
 40
18
 41
1
 50
0
  1
562
  0
LINE
  8
_0-5_寸法線
  6
CONTINUOUS
 62
    7
 10
778.3130412119466
 20
727.45787947158101
 11
789.90415112741539
 21
730.56370801281128
  0
LINE
  8
_0-5_寸法線
  6
CONTINUOUS
 62
    7
 10
778.3130412119466
 20
727.45787947158101
 11
789.90415112741539
 21
724.35205093035086
  0
LINE
  8
_0-5_寸法線
  6
CONTINUOUS
 62
    7
 10
1340.3130412119458
 20
691.45787947158101
 11
1340.3130412119458
 21
733.45787947158101
  0
LINE
  8
_0-5_寸法線
  6
CONTINUOUS
 62
    7
 10
1340.3130412119458
 20
727.45787947158101
 11
1328.7219312964769
 21
724.35205093035097
  0
LINE
  8
_0-5_寸法線
  6
CONTINUOUS
 62
    7
 10
1340.3130412119458
 20
727.45787947158101
 11
1328.7219312964769
 21
730.56370801281139
  0
LINE
  8
_0-5_寸法線
  6
CONTINUOUS
 62
    7
 10
778.3130412119466
 20
727.45787947158101
 11
1340.3130412119458
 21
727.45787947158101
  0
TEXT
  8
_0-5_寸法線
 62
    7
 10
1045.8130412119463
 20
727.45787947158101
 40
18
 41
1
 50
0
  1
562
  0
LINE
  8
_0-5_寸法線
  6
CONTINUOUS
 62
    7
 10
1340.3130412119458
 20
727.45787947158101
 11
1351.9041511274147
 21
730.56370801281128
  0
LINE
  8
_0-5_寸法線
  6
CONTINUOUS
 62
    7
 10
1340.3130412119458
 20
727.45787947158101
 11
1351.9041511274147
 21
724.35205093035086
  0
LINE
  8
_0-5_寸法線
  6
CONTINUOUS
 62
    7
 10
1375.3130412119458
 20
691.45787947158101
 11
1375.3130412119458
 21
733.45787947158101
  0
LINE
  8
_0-5_寸法線
  6
CONTINUOUS
 62
    7
 10
1375.3130412119458
 20
727.45787947158101
 11
1363.7219312964767
 21
724.35205093035097
  0
LINE
  8
_0-5_寸法線
  6
CONTINUOUS
 62
    7
 10
1375.3130412119458
 20
727.45787947158101
 11
1363.7219312964767
 21
730.56370801281139
  0
LINE
  8
_0-5_寸法線
  6
CONTINUOUS
 62
    7
 10
1340.3130412119458
 20
727.45787947158101
 11
1375.3130412119458
 21
727.45787947158101
  0
TEXT
  8
_0-5_寸法線
 62
    7
 10
1348.813041211946
 20
727.45787947158101
 40
18
 41
1
 50
0
  1
35
  0
LINE
  8
_0-5_寸法線
  6
CONTINUOUS
 62
    7
 10
1377.0130412119461
 20
659.45787947158101
 11
1483.3130412119458
 21
659.45787947157987
  0
LINE
  8
_0-5_寸法線
  6
CONTINUOUS
 62
    7
 10
1477.3130412119458
 20
659.45787947157999
 11
1480.4188697531761
 21
647.86676955611119
  0
LINE
  8
_0-5_寸法線
  6
CONTINUOUS
 62
    7
 10
1477.3130412119458
 20
659.45787947157999
 11
1474.2072126707153
 21
647.86676955611119
  0
LINE
  8
_0-5_寸法線
  6
CONTINUOUS
 62
    7
 10
1387.3130412119458
 20
679.45787947158101
 11
1483.3130412119458
 21
679.45787947157987
  0
LINE
  8
_0-5_寸法線
  6
CONTINUOUS
 62
    7
 10
1477.3130412119458
 20
679.45787947157999
 11
1474.2072126707153
 21
691.04898938704878
  0
LINE
  8
_0-5_寸法線
  6
CONTINUOUS
 62
    7
 10
1477.3130412119458
 20
679.45787947157999
 11
1480.4188697531761
 21
691.04898938704878
  0
LINE
  8
_0-5_寸法線
  6
CONTINUOUS
 62
    7
 10
1477.3130412119458
 20
629.45787947157999
 11
1477.3130412119458
 21
709.45787947157999
  0
TEXT
  8
_0-5_寸法線
 62
    7
 10
1477.3130412119458
 20
683.18934792796199
 40
18
 41
1
 50
90
  1
20
  0
LINE
  8
_0-5_寸法線
  6
CONTINUOUS
 62
    7
 10
223.64947733072219
 20
637.62273636860857
 11
232.79456032179084
 21
629.85308662833927
  0
LINE
  8
_0-5_寸法線
  6
CONTINUOUS
 62
    7
 10
223.64947733072219
 20
637.62273636860857
 11
227.68452665056998
 21
626.3214808194939
  0
LINE
  8
_0-5_寸法線
  6
CONTINUOUS
 62
    7
 10
223.64947733072219
 20
637.62273636860857
 11
251.27140287769862
 21
597.65537385734592
  0
LINE
  8
_0-5_寸法線
  6
CONTINUOUS
 62
    7
 10
251.27140287769862
 20
597.65537385734592
 11
308.87140287769859
 21
597.65537385734592
  0
TEXT
  8
_0-5_寸法線
 62
    7
 10
251.27140287769862
 20
597.65537385734592
 40
18
 41
0.7999999999999998
 50
0
  1
アンカー
  0
LINE
  8
_0-5_寸法線
  6
CONTINUOUS
 62
    7
 10
1387.3130412119458
 20
671.45787947158237
 11
1441.3130412119458
 21
671.45787947158169
  0
LINE
  8
_0-5_寸法線
  6
CONTINUOUS
 62
    7
 10
1435.3130412119458
 20
671.4578794715818
 11
1438.4188697531761
 21
659.86676955611301
  0
LINE
  8
_0-5_寸法線
  6
CONTINUOUS
 62
    7
 10
1435.3130412119458
 20
671.4578794715818
 11
1432.2072126707153
 21
659.86676955611301
  0
LINE
  8
_0-5_寸法線
  6
CONTINUOUS
 62
    7
 10
1387.3130412119458
 20
679.45787947158101
 11
1441.3130412119458
 21
679.45787947158033
  0
LINE
  8
_0-5_寸法線
  6
CONTINUOUS
 62
    7
 10
1435.3130412119458
 20
679.45787947158033
 11
1432.2072126707153
 21
691.04898938704923
  0
LINE
  8
_0-5_寸法線
  6
CONTINUOUS
 62
    7
 10
1435.3130412119458
 20
679.45787947158033
 11
1438.4188697531761
 21
691.04898938704923
  0
LINE
  8
_0-5_寸法線
  6
CONTINUOUS
 62
    7
 10
1435.3130412119458
 20
653.4578794715818
 11
1435.3130412119458
 21
697.45787947158033
  0
TEXT
  8
_0-5_寸法線
 62
    7
 10
1435.3130412119458
 20
684.85846298926515
 40
18
 41
1
 50
90
  1
8
  0
LINE
  8
_0-5_寸法線
  6
CONTINUOUS
 62
    7
 10
759.58422314947347
 20
624.35561656854668
 11
756.4392087292415
 21
612.77507753547343
  0
LINE
  8
_0-5_寸法線
  6
CONTINUOUS
 62
    7
 10
759.58422314947347
 20
624.35561656854668
 11
751.07029124974747
 21
615.89908278650387
  0
LINE
  8
_0-5_寸法線
  6
CONTINUOUS
 62
    7
 10
759.58422314947347
 20
624.35561656854668
 11
733.57454922815032
 21
579.65537385734592
  0
LINE
  8
_0-5_寸法線
  6
CONTINUOUS
 62
    7
 10
733.57454922815032
 20
579.65537385734592
 11
690.37454922815016
 21
579.65537385734592
  0
TEXT
  8
_0-5_寸法線
 62
    7
 10
690.37454922815027
 20
579.65537385734592
 40
18
 41
0.7999999999999998
 50
0
  1
排水口
  0
LINE
  8
_0-5_寸法線
  6
CONTINUOUS
 62
    7
 10
816.31304118594642
 20
638.95787947173881
 11
870.31304118594642
 21
638.95787947173812
  0
LINE
  8
_0-5_寸法線
  6
CONTINUOUS
 62
    7
 10
864.31304118594642
 20
638.95787947173824
 11
861.20721264471626
 21
650.54898938720703
  0
LINE
  8
_0-5_寸法線
  6
CONTINUOUS
 62
    7
 10
864.31304118594642
 20
638.95787947173824
 11
867.4188697271768
 21
650.54898938720703
  0
LINE
  8
_0-5_寸法線
  6
CONTINUOUS
 62
    7
 10
816.31304118594642
 20
679.45787947158101
 11
870.31304118594642
 21
679.45787947158033
  0
LINE
  8
_0-5_寸法線
  6
CONTINUOUS
 62
    7
 10
864.31304118594642
 20
679.45787947158033
 11
867.4188697271768
 21
667.86676955611165
  0
LINE
  8
_0-5_寸法線
  6
CONTINUOUS
 62
    7
 10
864.31304118594642
 20
679.45787947158033
 11
861.20721264471626
 21
667.86676955611165
  0
LINE
  8
_0-5_寸法線
  6
CONTINUOUS
 62
    7
 10
864.31304118594642
 20
638.95787947173824
 11
864.31304118594642
 21
679.45787947158033
  0
TEXT
  8
_0-5_寸法線
 62
    7
 10
864.31304118594642
 20
640.38558052521932
 40
18
 41
1
 50
90
  1
42
  0
LINE
  8
_0-5_寸法線
  6
CONTINUOUS
 62
    7
 10
754.96304123529706
 20
603.4548168049057
 11
754.96304123529671
 21
549.4548168049057
  0
LINE
  8
_0-5_寸法線
  6
CONTINUOUS
 62
    7
 10
754.96304123529671
 20
555.4548168049057
 11
766.55415115076551
 21
558.56064534613608
  0
LINE
  8
_0-5_寸法線
  6
CONTINUOUS
 62
    7
 10
754.96304123529671
 20
555.4548168049057
 11
766.55415115076551
 21
552.34898826367555
  0
LINE
  8
_0-5_寸法線
  6
CONTINUOUS
 62
    7
 10
801.66304118859614
 20
603.4548168049057
 11
801.6630411885958
 21
549.4548168049057
  0
LINE
  8
_0-5_寸法線
  6
CONTINUOUS
 62
    7
 10
801.6630411885958
 20
555.4548168049057
 11
790.07193127312701
 21
552.34898826367566
  0
LINE
  8
_0-5_寸法線
  6
CONTINUOUS
 62
    7
 10
801.6630411885958
 20
555.4548168049057
 11
790.07193127312701
 21
558.56064534613608
  0
LINE
  8
_0-5_寸法線
  6
CONTINUOUS
 62
    7
 10
754.96304123529671
 20
555.4548168049057
 11
801.6630411885958
 21
555.4548168049057
  0
TEXT
  8
_0-5_寸法線
 62
    7
 10
760.31304121194626
 20
555.4548168049057
 40
18
 41
1
 50
0
  1
46.7
  0
TEXT
  8
_0-7_枠細線
 62
    5
 10
1158.5999999999999
 20
132
 40
24
 41
0.6
 50
0
  1
ＧＳＧ－１０Ｌ１２００Ｎ
  0
TEXT
  8
_0-7_枠細線
 62
    5
 10
1158.5999999999999
 20
180
 40
24
 41
0.6
 50
0
  1
玄関排水ユニット盗難防止金具付
  0
TEXT
  8
_0-7_枠細線
 62
    5
 10
1158.5999999999997
 20
84
 40
24.000000000000007
 41
0.5999999999999997
 50
0
  1
表面形状については記号表参照のこと
  0
LINE
  8
_1-2_極細2
  6
CENTER1
 62
    2
 10
1480.8053580885121
 20
387.78844837092817
 11
1495.6810354412919
 21
352.74354868615058
  0
CIRCLE
  8
_1-2_極細2
  6
DASHED2
 62
    2
 10
1489.2057499145449
 20
367.99836541372281
 40
9
  0
LINE
  8
_1-2_極細2
  6
CENTER1
 62
    2
 10
1505.7666576047395
 20
375.02805366178211
 11
1474.8722167025094
 21
361.91414153790959
  0
LINE
  8
_1-2_極細2
  6
CONTINUOUS
 62
    2
 10
1500.479575161653
 20
382.58937748564779
 11
1508.9648565358916
 21
391.07465885988643
  0
LINE
  8
_1-2_極細2
  6
DASHED2
 62
    2
 10
1535.9979920943597
 20
310.62027097951761
 11
1501.241015928354
 21
310.62027097951761
  0
LINE
  8
_1-2_極細2
  6
DASHED2
 62
    2
 10
1501.3989095768848
 20
391.09900084759568
 11
1535.6269564325439
 21
310.46277568516155
  0
LINE
  8
_1-2_極細2
  6
CONTINUOUS
 62
    2
 10
1366.879976236964
 20
313.02027097951725
 11
1392.679975957964
 21
313.02027097951816
  0
LINE
  8
_1-2_極細2
  6
CONTINUOUS
 62
    2
 10
1364.7799762579643
 20
315.12027097951716
 11
1394.7799759579634
 21
315.12027097951716
  0
LINE
  8
_1-2_極細2
  6
CONTINUOUS
 62
    2
 10
1364.7799762579643
 20
291.1202712195178
 11
1364.7799762579643
 21
315.12027097951761
  0
LINE
  8
_1-2_極細2
  6
CONTINUOUS
 62
    2
 10
1366.879976236964
 20
291.1202712195178
 11
1366.879976236964
 21
313.02027097951816
  0
LINE
  8
_1-2_極細2
  6
CONTINUOUS
 62
    2
 10
1364.7799762579643
 20
291.1202712195178
 11
1366.879976236964
 21
291.1202712195178
  0
LINE
  8
_1-2_極細2
  6
CONTINUOUS
 62
    2
 10
1500.479575161653
 20
382.58937748564779
 11
1503.5854037028835
 21
394.18048740111641
  0
LINE
  8
_1-2_極細2
  6
CONTINUOUS
 62
    2
 10
1540.241015928354
 20
260.220271579518
 11
1540.241015928354
 21
262.32027157951836
  0
LINE
  8
_1-2_極細2
  6
CONTINUOUS
 62
    2
 10
1501.241015928354
 20
280.1412220347687
 11
1501.241015928354
 21
262.32027097951789
  0
LINE
  8
_1-2_極細2
  6
CONTINUOUS
 62
    2
 10
1450.7939213040622
 20
280.32027157951836
 11
1450.7939213040622
 21
264.12027157951809
  0
LINE
  8
_1-2_極細2
  6
CONTINUOUS
 62
    2
 10
1434.7660306118646
 20
280.32027157951836
 11
1434.7660306118646
 21
264.12027157951832
  0
LINE
  8
_1-2_極細2
  6
CONTINUOUS
 62
    2
 10
1420.241015928354
 20
262.32027157951836
 11
1420.241015928354
 21
260.220271579518
  0
LINE
  8
_1-2_極細2
  6
CONTINUOUS
 62
    2
 10
1420.241015928354
 20
262.32027157951836
 11
1540.2410145183539
 21
262.32027157951836
  0
LINE
  8
_1-2_極細2
  6
CONTINUOUS
 62
    2
 10
1420.241015928354
 20
260.220271579518
 11
1540.2410145183539
 21
260.220271579518
  0
LINE
  8
_1-2_極細2
  6
CONTINUOUS
 62
    2
 10
1421.7799759579634
 20
262.32027157951836
 11
1463.7799759579634
 21
262.32027157951836
  0
LINE
  8
_1-2_極細2
  6
CONTINUOUS
 62
    2
 10
1392.679975957964
 20
313.02027097951816
 11
1392.679975957964
 21
255.12027157951806
  0
LINE
  8
_1-2_極細2
  6
CONTINUOUS
 62
    2
 10
1394.7799759579634
 20
315.12027097951761
 11
1394.7799759579634
 21
257.220271579518
  0
LINE
  8
_1-2_極細2
  6
DASHED2
 62
    2
 10
1501.241015928354
 20
310.62027097951761
 11
1501.241015928354
 21
280.1412220347687
  0
LINE
  8
_1-5_寸法2
  6
CONTINUOUS
 62
    7
 10
1468.3826403544476
 20
332.37075741922138
 11
1457.6077006499763
 21
327.0886485255138
  0
ARC
  8
_1-5_寸法2
  6
CONTINUOUS
 62
    7
 10
1517.741015928354
 20
275.82027097951789
 40
75.061353277580906
 50
131.11509464913786
 51
160.1952802838328
  0
LINE
  8
_1-5_寸法2
  6
CONTINUOUS
 62
    7
 10
1447.1193268440902
 20
301.25221519830404
 11
1448.1244459889217
 21
313.21004675359416
  0
LINE
  8
_1-5_寸法2
  6
CONTINUOUS
 62
    7
 10
1447.1193268440902
 20
301.25221519830404
 11
1453.968701334989
 21
311.10544152694467
  0
LINE
  8
_1-5_寸法2
  6
CONTINUOUS
 62
    7
 10
1468.3826403544476
 20
332.37075741922138
 11
1461.6923232929835
 21
322.40884707947873
  0
LINE
  8
_1-3_細線2
  6
CONTINUOUS
 62
    4
 10
1540.6277929986568
 20
287.16467203617287
 11
1531.4846845920088
 21
308.70448560695979
  0
LINE
  8
_1-3_細線2
  6
CONTINUOUS
 62
    4
 10
1466.6318186863086
 20
361.67538123670431
 11
1505.3142004067458
 21
270.54540074491263
  0
LINE
  8
_1-3_細線2
  6
CONTINUOUS
 62
    4
 10
1459.3549759579637
 20
280.32027157951836
 11
1426.2049759579631
 21
280.32027157951836
  0
LINE
  8
_1-3_細線2
  6
CONTINUOUS
 62
    4
 10
1463.7799759579634
 20
264.12027157951832
 11
1421.7799759579634
 21
264.12027157951832
  0
LINE
  8
_1-3_細線2
  6
CONTINUOUS
 62
    4
 10
1451.7799759579634
 20
280.32027157951836
 11
1451.7799759579634
 21
284.220271579518
  0
LINE
  8
_1-3_細線2
  6
CONTINUOUS
 62
    4
 10
1448.7799759579634
 20
287.220271579518
 11
1451.7799759579634
 21
284.220271579518
  0
LINE
  8
_1-3_細線2
  6
CONTINUOUS
 62
    4
 10
1433.7799759579634
 20
280.32027157951836
 11
1433.7799759579634
 21
284.220271579518
  0
LINE
  8
_1-3_細線2
  6
CONTINUOUS
 62
    4
 10
1433.7799759579634
 20
284.220271579518
 11
1436.7799759579634
 21
287.220271579518
  0
LINE
  8
_1-3_細線2
  6
CONTINUOUS
 62
    4
 10
1436.7799759579634
 20
287.220271579518
 11
1448.7799759579634
 21
287.220271579518
  0
LINE
  8
_1-3_細線2
  6
CONTINUOUS
 62
    4
 10
1451.7799759579634
 20
260.220271579518
 11
1451.7799759579634
 21
257.220271579518
  0
LINE
  8
_1-3_細線2
  6
CONTINUOUS
 62
    4
 10
1421.7799759579634
 20
264.12027157951832
 11
1421.7799759579634
 21
262.32027157951836
  0
LINE
  8
_1-3_細線2
  6
CONTINUOUS
 62
    4
 10
1433.7799759579634
 20
260.220271579518
 11
1433.7799759579634
 21
257.220271579518
  0
LINE
  8
_1-3_細線2
  6
CONTINUOUS
 62
    4
 10
1426.2049759579631
 20
280.32027157951836
 11
1426.2049759579631
 21
264.12027157951832
  0
LINE
  8
_1-3_細線2
  6
DASHED2
 62
    4
 10
1451.7799759579634
 20
280.32027157951836
 11
1451.7799759579634
 21
260.220271579518
  0
LINE
  8
_1-3_細線2
  6
DASHED2
 62
    4
 10
1433.7799759579634
 20
280.32027157951836
 11
1433.7799759579634
 21
260.220271579518
  0
ARC
  8
_1-3_細線2
  6
CONTINUOUS
 62
    4
 10
1517.741015928354
 20
275.82027097951789
 40
13.5
 50
202.99999999999858
 51
292.99999999999983
  0
LINE
  8
_1-3_細線2
  6
CONTINUOUS
 62
    4
 10
1463.7799759579634
 20
264.12027157951832
 11
1463.7799759579634
 21
262.32027157951836
  0
LINE
  8
_1-3_細線2
  6
CONTINUOUS
 62
    4
 10
1459.3549759579637
 20
280.32027157951836
 11
1459.3549759579637
 21
264.12027157951809
  0
LINE
  8
_1-3_細線2
  6
CONTINUOUS
 62
    4
 10
1523.0158861629593
 20
263.39345545790968
 11
1532.6811871242094
 21
267.49613230704711
  0
ARC
  8
_1-3_細線2
  6
CONTINUOUS
 62
    4
 10
1526.8202201968702
 20
281.3037051088337
 40
15
 50
292.99999999999989
 51
22.999999999998316
  0
LINE
  8
_1-3_細線2
  6
CONTINUOUS
 62
    4
 10
1538.3884709929021
 20
311.63496907062938
 11
1504.1604241372415
 21
392.27119423306351
  0
LINE
  8
_1-3_細線2
  6
CONTINUOUS
 62
    4
 10
1531.4846845920088
 20
308.70448560695979
 11
1538.3884709929021
 21
311.63496907062938
  0
LINE
  8
_1-3_細線2
  6
CONTINUOUS
 62
    4
 10
1504.1604241372415
 20
392.27119423306351
 11
1473.7837639733102
 21
379.37706699291732
  0
CIRCLE
  8
_1-3_細線2
  6
CONTINUOUS
 62
    4
 10
1489.2057499145449
 20
367.99836541372281
 40
5.25
  0
ARC
  8
_1-3_細線2
  6
CONTINUOUS
 62
    4
 10
1479.0586342079155
 20
366.95025147130957
 40
13.5
 50
113.00000000000109
 51
202.99999999999881
  0
CIRCLE
  8
_1-3_細線2
  6
CONTINUOUS
 62
    4
 10
1489.2057499145449
 20
367.99836541372281
 40
13.5
  0
LINE
  8
_1-5_寸法2
  6
CONTINUOUS
 62
    7
 10
1431.2585875070463
 20
279.05921287616377
 11
1422.7733061328076
 21
287.54449425040235
  0
LINE
  8
_1-5_寸法2
  6
CONTINUOUS
 62
    7
 10
1431.2585875070463
 20
279.05921287616377
 11
1428.1527589658158
 21
290.65032279163256
  0
LINE
  8
_1-5_寸法2
  6
CONTINUOUS
 62
    7
 10
1431.2585875070463
 20
279.05921287616377
 11
1396.8946994847365
 21
338.57921287641204
  0
LINE
  8
_1-5_寸法2
  6
CONTINUOUS
 62
    7
 10
1396.8946994847365
 20
338.57921287641204
 11
1296.0946994847368
 21
338.57921287641204
  0
TEXT
  8
_1-5_寸法2
 62
    7
 10
1296.0946994847366
 20
338.57921287641204
 40
18
 41
0.7999999999999998
 50
0
  1
フランジナット
  0
LINE
  8
_1-2_極細2
  6
CONTINUOUS
 62
    2
 10
1586.9079882565441
 20
310.62027097951761
 11
1535.9979920943597
 21
310.62027097951761
  0
LINE
  8
_1-2_極細2
  6
CONTINUOUS
 62
    2
 10
1394.7799759579634
 20
257.220271579518
 11
1603.9610160142254
 21
257.220271579518
  0
LINE
  8
_1-2_極細2
  6
CONTINUOUS
 62
    2
 10
1392.679975957964
 20
255.12027157951806
 11
1603.5422600215622
 21
255.12027157951806
  0
LINE
  8
_1-2_極細2
  6
CONTINUOUS
 62
    2
 10
1501.241015928354
 20
262.32027097951789
 11
1604.3693776720118
 21
262.32027097951789
  0
LINE
  8
_1-2_極細2
  6
CONTINUOUS
 62
    2
 10
1594.0544132198754
 20
325.43973493771466
 11
1593.9459719451872
 21
325.24823867551743
  0
LINE
  8
_1-2_極細2
  6
CONTINUOUS
 62
    2
 10
1593.9459719451872
 20
325.24823867551743
 11
1593.6237610199512
 21
324.67896920515898
  0
LINE
  8
_1-2_極細2
  6
CONTINUOUS
 62
    2
 10
1593.6237610199512
 20
324.67896920515898
 11
1593.0979060563293
 21
323.74741845291339
  0
LINE
  8
_1-2_極細2
  6
CONTINUOUS
 62
    2
 10
1593.0979060563293
 20
323.74741845291339
 11
1592.3875759832415
 21
322.47886579106341
  0
LINE
  8
_1-2_極細2
  6
CONTINUOUS
 62
    2
 10
1592.3875759832415
 20
322.47886579106341
 11
1591.5233609964578
 21
320.90760978169203
  0
LINE
  8
_1-2_極細2
  6
CONTINUOUS
 62
    2
 10
1591.5233609964578
 20
320.90760978169203
 11
1590.5487933523716
 21
319.07596870323971
  0
LINE
  8
_1-2_極細2
  6
CONTINUOUS
 62
    2
 10
1590.5487933523716
 20
319.07596870323971
 11
1589.5198536318069
 21
317.03310739750498
  0
LINE
  8
_1-2_極細2
  6
CONTINUOUS
 62
    2
 10
1589.5198536318069
 20
317.03310739750498
 11
1588.5017121894323
 21
314.83374315857839
  0
LINE
  8
_1-2_極細2
  6
CONTINUOUS
 62
    2
 10
1588.5017121894323
 20
314.83374315857839
 11
1587.5626318072875
 21
312.53677038234639
  0
LINE
  8
_1-2_極細2
  6
CONTINUOUS
 62
    2
 10
1587.5626318072875
 20
312.53677038234639
 11
1586.7657380313415
 21
310.20382683774972
  0
LINE
  8
_1-2_極細2
  6
CONTINUOUS
 62
    2
 10
1586.7657380313415
 20
310.20382683774972
 11
1586.1600489555369
 21
307.89780899932305
  0
LINE
  8
_1-2_極細2
  6
CONTINUOUS
 62
    2
 10
1586.1600489555369
 20
307.89780899932305
 11
1585.7725620046992
 21
305.68133480884478
  0
LINE
  8
_1-2_極細2
  6
CONTINUOUS
 62
    2
 10
1585.7725620046992
 20
305.68133480884478
 11
1585.6031987610984
 21
303.61515279093885
  0
LINE
  8
_1-2_極細2
  6
CONTINUOUS
 62
    2
 10
1585.6031987610984
 20
303.61515279093885
 11
1585.623981130422
 21
301.7565074007199
  0
LINE
  8
_1-2_極細2
  6
CONTINUOUS
 62
    2
 10
1585.623981130422
 20
301.7565074007199
 11
1585.7830280750929
 21
300.15748981617969
  0
LINE
  8
_1-2_極細2
  6
CONTINUOUS
 62
    2
 10
1585.7830280750929
 20
300.15748981617969
 11
1586.0129855436865
 21
298.86342671319437
  0
LINE
  8
_1-2_極細2
  6
CONTINUOUS
 62
    2
 10
1586.0129855436865
 20
298.86342671319437
 11
1586.242548986769
 21
297.91138110597842
  0
LINE
  8
_1-2_極細2
  6
CONTINUOUS
 62
    2
 10
1586.242548986769
 20
297.91138110597842
 11
1586.4090260273676
 21
297.32885330236229
  0
LINE
  8
_1-2_極細2
  6
CONTINUOUS
 62
    2
 10
1586.4090260273676
 20
297.32885330236229
 11
1586.4695853537717
 21
297.13277197475134
  0
LINE
  8
_1-2_極細2
  6
CONTINUOUS
 62
    2
 10
1586.4695853537717
 20
297.13277197475134
 11
1586.5324574774534
 21
296.93662766030104
  0
LINE
  8
_1-2_極細2
  6
CONTINUOUS
 62
    2
 10
1586.5324574774534
 20
296.93662766030104
 11
1586.7327492527945
 21
296.35316766591552
  0
LINE
  8
_1-2_極細2
  6
CONTINUOUS
 62
    2
 10
1586.7327492527945
 20
296.35316766591552
 11
1587.1019186645665
 21
295.39718417353981
  0
LINE
  8
_1-2_極細2
  6
CONTINUOUS
 62
    2
 10
1587.1019186645665
 20
295.39718417353981
 11
1587.681384667186
 21
294.0929187763378
  0
LINE
  8
_1-2_極細2
  6
CONTINUOUS
 62
    2
 10
1587.681384667186
 20
294.0929187763378
 11
1588.50888766093
 21
292.47347715984836
  0
LINE
  8
_1-2_極細2
  6
CONTINUOUS
 62
    2
 10
1588.50888766093
 20
292.47347715984836
 11
1589.6044302457669
 21
290.58006565844119
  0
LINE
  8
_1-2_極細2
  6
CONTINUOUS
 62
    2
 10
1589.6044302457669
 20
290.58006565844119
 11
1590.9593358589048
 21
288.46108628950435
  0
LINE
  8
_1-2_極細2
  6
CONTINUOUS
 62
    2
 10
1590.9593358589048
 20
288.46108628950435
 11
1592.5312440804535
 21
286.17111594001005
  0
LINE
  8
_1-2_極細2
  6
CONTINUOUS
 62
    2
 10
1592.5312440804535
 20
286.17111594001005
 11
1594.2464565866674
 21
283.76977768461404
  0
LINE
  8
_1-2_極細2
  6
CONTINUOUS
 62
    2
 10
1594.2464565866674
 20
283.76977768461404
 11
1596.0092949002399
 21
281.32049342020412
  0
LINE
  8
_1-2_極細2
  6
CONTINUOUS
 62
    2
 10
1596.0092949002399
 20
281.32049342020412
 11
1597.7164524437046
 21
278.88909363457276
  0
LINE
  8
_1-2_極細2
  6
CONTINUOUS
 62
    2
 10
1597.7164524437046
 20
278.88909363457276
 11
1599.2731236199536
 21
276.54225785786127
  0
LINE
  8
_1-2_極細2
  6
CONTINUOUS
 62
    2
 10
1599.2731236199536
 20
276.54225785786127
 11
1600.6072612755268
 21
274.34577141612237
  0
LINE
  8
_1-2_極細2
  6
CONTINUOUS
 62
    2
 10
1600.6072612755268
 20
274.34577141612237
 11
1601.6787555209846
 21
272.36261029031277
  0
LINE
  8
_1-2_極細2
  6
CONTINUOUS
 62
    2
 10
1601.6787555209846
 20
272.36261029031277
 11
1602.4815358042536
 21
270.65090226223344
  0
LINE
  8
_1-2_極細2
  6
CONTINUOUS
 62
    2
 10
1602.4815358042536
 20
270.65090226223344
 11
1603.0382838145968
 21
269.26185216361011
  0
LINE
  8
_1-2_極細2
  6
CONTINUOUS
 62
    2
 10
1603.0382838145968
 20
269.26185216361011
 11
1603.3892017992587
 21
268.23775341795192
  0
LINE
  8
_1-2_極細2
  6
CONTINUOUS
 62
    2
 10
1603.3892017992587
 20
268.23775341795192
 11
1603.5776865379864
 21
267.61022896303223
  0
LINE
  8
_1-2_極細2
  6
CONTINUOUS
 62
    2
 10
1603.5776865379864
 20
267.61022896303223
 11
1603.636475491169
 21
267.39884604882548
  0
LINE
  8
_1-2_極細2
  6
CONTINUOUS
 62
    2
 10
1603.636475491169
 20
267.39884604882548
 11
1603.6928956393074
 21
267.18731709762972
  0
LINE
  8
_1-2_極細2
  6
CONTINUOUS
 62
    2
 10
1603.6928956393074
 20
267.18731709762972
 11
1603.8467406970483
 21
266.55764609218579
  0
LINE
  8
_1-2_極細2
  6
CONTINUOUS
 62
    2
 10
1603.8467406970483
 20
266.55764609218579
 11
1604.0545988014767
 21
265.52459505831814
  0
LINE
  8
_1-2_極細2
  6
CONTINUOUS
 62
    2
 10
1604.0545988014767
 20
265.52459505831814
 11
1604.2530062414442
 21
264.11278564551515
  0
LINE
  8
_1-2_極細2
  6
CONTINUOUS
 62
    2
 10
1604.2530062414442
 20
264.11278564551515
 11
1604.3699478544961
 21
262.35662882410668
  0
LINE
  8
_1-2_極細2
  6
CONTINUOUS
 62
    2
 10
1604.3699478544961
 20
262.35662882410668
 11
1604.3376956111777
 21
260.30005556494791
  0
LINE
  8
_1-2_極細2
  6
CONTINUOUS
 62
    2
 10
1604.3376956111777
 20
260.30005556494791
 11
1604.1045753348455
 21
257.99592906154896
  0
LINE
  8
_1-2_極細2
  6
CONTINUOUS
 62
    2
 10
1604.1045753348455
 20
257.99592906154896
 11
1603.643560469636
 21
255.50504495886079
  0
LINE
  8
_1-2_極細2
  6
CONTINUOUS
 62
    2
 10
1603.643560469636
 20
255.50504495886079
 11
1602.9563209834148
 21
252.89467684538351
  0
LINE
  8
_1-2_極細2
  6
CONTINUOUS
 62
    2
 10
1602.9563209834148
 20
252.89467684538351
 11
1602.0723318862763
 21
250.23668913698984
  0
LINE
  8
_1-2_極細2
  6
CONTINUOUS
 62
    2
 10
1602.0723318862763
 20
250.23668913698984
 11
1601.0436461309657
 21
247.60530455547212
  0
LINE
  8
_1-2_極細2
  6
CONTINUOUS
 62
    2
 10
1601.0436461309657
 20
247.60530455547212
 11
1599.9367397289195
 21
245.07466497711866
  0
LINE
  8
_1-2_極細2
  6
CONTINUOUS
 62
    2
 10
1599.9367397289195
 20
245.07466497711866
 11
1598.8232750180589
 21
242.71635211308842
  0
LINE
  8
_1-2_極細2
  6
CONTINUOUS
 62
    2
 10
1598.8232750180589
 20
242.71635211308842
 11
1597.7716244219516
 21
240.59703354129385
  0
LINE
  8
_1-2_極細2
  6
CONTINUOUS
 62
    2
 10
1597.7716244219516
 20
240.59703354129385
 11
1596.8405813930738
 21
238.77637188346452
  0
LINE
  8
_1-2_極細2
  6
CONTINUOUS
 62
    2
 10
1596.8405813930738
 20
238.77637188346452
 11
1596.0759832990823
 21
237.30528821037578
  0
LINE
  8
_1-2_極細2
  6
CONTINUOUS
 62
    2
 10
1596.0759832990823
 20
237.30528821037578
 11
1595.5101715696976
 21
236.22461677819535
  0
LINE
  8
_1-2_極細2
  6
CONTINUOUS
 62
    2
 10
1595.5101715696976
 20
236.22461677819535
 11
1595.163521624989
 21
235.56413964547534
  0
LINE
  8
_1-2_極細2
  6
CONTINUOUS
 62
    2
 10
1595.163521624989
 20
235.56413964547534
 11
1595.0468580015374
 21
235.34195715993664
  0
LINE
  8
_1-5_寸法2
  6
CONTINUOUS
 62
    7
 10
1546.4887599259964
 20
273.35709923438657
 11
1611.3843522978486
 21
300.90364387925064
  0
LINE
  8
_1-5_寸法2
  6
CONTINUOUS
 62
    7
 10
1608.6228377374916
 20
299.73145049378252
 11
1603.0818844595603
 21
306.82354727624295
  0
LINE
  8
_1-5_寸法2
  6
CONTINUOUS
 62
    7
 10
1608.6228377374916
 20
299.73145049378252
 11
1607.3702798288509
 21
308.64386311245664
  0
LINE
  8
_1-5_寸法2
  6
CONTINUOUS
 62
    7
 10
1517.9679969390288
 20
398.13216116040292
 11
1562.1522301082
 21
416.88725541425526
  0
LINE
  8
_1-5_寸法2
  6
CONTINUOUS
 62
    7
 10
1559.3907155478428
 20
415.7150620287872
 11
1564.9316688257738
 21
408.62296524632677
  0
LINE
  8
_1-5_寸法2
  6
CONTINUOUS
 62
    7
 10
1559.3907155478428
 20
415.7150620287872
 11
1560.6432734564837
 21
406.80264941011302
  0
LINE
  8
_1-5_寸法2
  6
CONTINUOUS
 62
    7
 10
1608.6228377374916
 20
299.73145049378252
 11
1559.3907155478428
 21
415.7150620287872
  0
TEXT
  8
_1-5_寸法2
 62
    7
 10
1580.4901964862638
 20
366.00779994235683
 40
18
 41
1
 50
-66.999999999999744
  1
42
  0
LINE
  8
_1-5_寸法2
  6
CONTINUOUS
 62
    7
 10
1460.7708517589699
 20
375.48295403849136
 11
1436.740887324233
 21
432.09400260274788
  0
LINE
  8
_1-5_寸法2
  6
CONTINUOUS
 62
    7
 10
1437.9130807097004
 20
429.33248804239042
 11
1445.0051774921608
 21
434.87344132032143
  0
LINE
  8
_1-5_寸法2
  6
CONTINUOUS
 62
    7
 10
1437.9130807097004
 20
429.33248804239042
 11
1446.8254933283745
 21
430.58504595103102
  0
LINE
  8
_1-5_寸法2
  6
CONTINUOUS
 62
    7
 10
1498.299457209903
 20
406.07876703485033
 11
1479.5443630097693
 21
450.26300007749865
  0
LINE
  8
_1-5_寸法2
  6
CONTINUOUS
 62
    7
 10
1480.7165563952369
 20
447.50148551714119
 11
1473.6244596127763
 21
441.96053223921012
  0
LINE
  8
_1-5_寸法2
  6
CONTINUOUS
 62
    7
 10
1480.7165563952369
 20
447.50148551714119
 11
1471.8041437765628
 21
446.24892760850054
  0
LINE
  8
_1-5_寸法2
  6
CONTINUOUS
 62
    7
 10
1437.9130807097004
 20
429.33248804239042
 11
1480.7165563952369
 21
447.50148551714119
  0
TEXT
  8
_1-5_寸法2
 62
    7
 10
1442.7457311903249
 20
431.38382646695879
 40
18
 41
1
 50
23.000000000000313
  1
15.5
  0
LINE
  8
_1-5_寸法2
  6
CONTINUOUS
 62
    7
 10
1500.479575161653
 20
382.58937748564779
 11
1503.5854037028835
 21
394.18048740111658
  0
LINE
  8
_1-5_寸法2
  6
CONTINUOUS
 62
    7
 10
1500.479575161653
 20
382.58937748564779
 11
1508.9648565358916
 21
391.07465885988631
  0
LINE
  8
_1-5_寸法2
  6
CONTINUOUS
 62
    7
 10
1500.479575161653
 20
382.58937748564779
 11
1527.1770595390401
 21
428.83077686155849
  0
LINE
  8
_1-5_寸法2
  6
CONTINUOUS
 62
    7
 10
1527.1770595390401
 20
428.83077686155849
 11
1642.3770595390401
 21
428.83077686155849
  0
TEXT
  8
_1-5_寸法2
 62
    7
 10
1527.1770595390401
 20
428.83077686155849
 40
18
 41
0.7999999999999998
 50
0
  1
ボルトカバー金具
  0
LINE
  8
_1-5_寸法2
  6
CONTINUOUS
 62
    7
 10
1441.8051147252434
 20
287.220271579518
 11
1434.7556900876239
 21
296.93137925467647
  0
LINE
  8
_1-5_寸法2
  6
CONTINUOUS
 62
    7
 10
1441.8051147252434
 20
287.220271579518
 11
1440.5556877445802
 21
299.15504984390105
  0
LINE
  8
_1-5_寸法2
  6
CONTINUOUS
 62
    7
 10
1441.8051147252434
 20
287.220271579518
 11
1408.9425847335442
 21
372.93557396159179
  0
LINE
  8
_1-5_寸法2
  6
CONTINUOUS
 62
    7
 10
1408.9425847335442
 20
372.93557396159179
 11
1308.1425847335445
 21
372.93557396159179
  0
TEXT
  8
_1-5_寸法2
 62
    7
 10
1308.1425847335445
 20
372.93557396159179
 40
18
 41
0.7999999999999998
 50
0
  1
スタッドボルト
  0
LINE
  8
_1-2_極細2
  6
CENTER1
 62
    2
 10
1503.3557205645579
 20
277.78712511901199
 11
1532.0881211133719
 21
277.78712511901199
  0
LINE
  8
_1-2_極細2
  6
CENTER1
 62
    2
 10
1518.5356765315023
 20
262.78465747119049
 11
1518.5356765315023
 21
292.34737047237809
  0
CIRCLE
  8
_1-2_極細2
  6
CONTINUOUS
 62
    2
 10
1518.5356765315023
 20
277.78712521328998
 40
10.350000000000001
  0
CIRCLE
  8
_1-3_細線2
  6
CONTINUOUS
 62
    4
 10
1518.5356765315023
 20
277.78712521328998
 40
10.800000000000001
  0
TEXT
  8
_0-7_枠細線
 62
    5
 10
1546.4986510791352
 20
480.07974155962165
 40
24
 41
0.6000000000000002
 50
0
  1
Ｓ＝１：２
  0
TEXT
  8
_0-7_枠細線
 62
    5
 10
1414.7721975320137
 20
480.07974155962165
 40
24
 41
0.8
 50
0
  1
Ｂ部詳細図
  0
LINE
  8
_0-7_枠細線
  6
CONTINUOUS
 62
    5
 10
1050
 20
212.9999999999994
 11
1050
 21
87
  0
TEXT
  8
_0-7_枠細線
 62
    5
 10
940.80000000000109
 20
188.9999999999994
 40
18.000000000000004
 41
0.8
 50
0
  1
ノンスリップ
  0
LINE
  8
_0-7_枠細線
  6
CONTINUOUS
 62
    5
 10
929.91325000540758
 20
125.70332598028932
 11
1043.769833994023
 21
125.70332598028932
  0
LINE
  8
_0-7_枠細線
  6
CONTINUOUS
 62
    5
 10
925.43101800585521
 20
145.7033259782894
 11
1039.2876019944708
 21
145.7033259782894
  0
ARC
  8
_0-7_枠細線
  6
CONTINUOUS
 62
    5
 10
943.00000000409932
 20
131.70332597968931
 40
3.9999999996
 50
51.317813000006808
 51
203.57817800000188
  0
ARC
  8
_0-7_枠細線
  6
CONTINUOUS
 62
    5
 10
948.00000000359921
 20
137.94832397906495
 40
3.9999999996
 50
231.3178130000006
 51
308.68218699999613
  0
LINE
  8
_0-7_枠細線
  6
CONTINUOUS
 62
    5
 10
939.33394000446617
 20
130.10332597984936
 11
956.66606000273225
 21
130.10332597984936
  0
ARC
  8
_0-7_枠細線
  6
CONTINUOUS
 62
    5
 10
953.00000000309944
 20
131.70332597968931
 40
3.9999999996
 50
336.42182199999411
 51
128.6821869999992
  0
ARC
  8
_0-7_枠細線
  6
CONTINUOUS
 62
    5
 10
979.00000000049943
 20
139.70332597888932
 40
3.9999999996
 50
156.42182199999701
 51
308.6821869999946
  0
ARC
  8
_0-7_枠細線
  6
CONTINUOUS
 62
    5
 10
983.99999999999932
 20
133.45832797951368
 40
3.9999999996
 50
51.317813000007824
 51
128.68218699999727
  0
ARC
  8
_0-7_枠細線
  6
CONTINUOUS
 62
    5
 10
988.99999999949955
 20
139.70332597888932
 40
3.9999999996
 50
231.31781299999577
 51
23.578178000004584
  0
LINE
  8
_0-7_枠細線
  6
CONTINUOUS
 62
    5
 10
975.33394000086662
 20
141.30332597872928
 11
992.66605999913202
 21
141.30332597872928
  0
LINE
  8
_0-7_枠細線
  6
CONTINUOUS
 62
    5
 10
1011.3339399972664
 20
130.10332597984936
 11
1028.6660599955326
 21
130.10332597984936
  0
ARC
  8
_0-7_枠細線
  6
CONTINUOUS
 62
    5
 10
1014.9999999968992
 20
131.70332597968931
 40
3.9999999996
 50
51.317813000005536
 51
203.57817800000188
  0
ARC
  8
_0-7_枠細線
  6
CONTINUOUS
 62
    5
 10
1019.9999999963991
 20
137.94832397906495
 40
3.9999999996
 50
231.31781300000188
 51
308.68218699999869
  0
ARC
  8
_0-7_枠細線
  6
CONTINUOUS
 62
    5
 10
1024.9999999958993
 20
131.70332597968931
 40
3.9999999996
 50
336.4218219999961
 51
128.68218699999792
  0
ARC
  8
_0-7_枠細線
  6
CONTINUOUS
 62
    5
 10
979.00000000049943
 20
139.70332597888932
 40
7.4599999992540358
 50
151.14636799999636
 51
308.68218700000426
  0
LINE
  8
_0-7_枠細線
  6
CONTINUOUS
 62
    5
 10
924.99149400590011
 20
143.3033259785293
 11
972.46612000115158
 21
143.3033259785293
  0
LINE
  8
_0-7_枠細線
  6
CONTINUOUS
 62
    5
 10
959.53388200244558
 20
128.10332598004942
 11
1008.4661199975537
 21
128.10332598004942
  0
ARC
  8
_0-7_枠細線
  6
CONTINUOUS
 62
    5
 10
920.06447800639296
 20
128.74723197998475
 40
10.308427998969092
 50
317.5616289999993
 51
42.438371000002093
  0
ARC
  8
_0-7_枠細線
  6
CONTINUOUS
 62
    5
 10
943.00000000409932
 20
131.70332597968931
 40
7.4599999992540358
 50
51.317812999992654
 51
208.85363199999745
  0
ARC
  8
_0-7_枠細線
  6
CONTINUOUS
 62
    5
 10
935.27979200487084
 20
142.6594199785938
 40
10.308427998969092
 50
137.56162899999987
 51
222.43837100000141
  0
LINE
  8
_0-7_枠細線
  6
CONTINUOUS
 62
    5
 10
930.35277600536369
 20
128.10332598004942
 11
936.46612000475182
 21
128.10332598004942
  0
ARC
  8
_0-7_枠細線
  6
CONTINUOUS
 62
    5
 10
948.00000000359921
 20
137.94832397906495
 40
0.5399999999459634
 50
231.31781300002865
 51
308.68218699999886
  0
ARC
  8
_0-7_枠細線
  6
CONTINUOUS
 62
    5
 10
953.00000000309944
 20
131.70332597968931
 40
7.4599999992540358
 50
331.14636800000056
 51
128.68218700000699
  0
ARC
  8
_0-7_枠細線
  6
CONTINUOUS
 62
    5
 10
1033.9210619950081
 20
128.74723197998475
 40
10.308427998969092
 50
317.56162899999799
 51
42.438371000002093
  0
ARC
  8
_0-7_枠細線
  6
CONTINUOUS
 62
    5
 10
1049.1363759934866
 20
142.6594199785938
 40
10.308427998969092
 50
137.56162900000288
 51
222.43837100000013
  0
LINE
  8
_0-7_枠細線
  6
CONTINUOUS
 62
    5
 10
1031.5338819952453
 20
128.10332598004942
 11
1044.2093599939794
 21
128.10332598004942
  0
LINE
  8
_0-7_枠細線
  6
CONTINUOUS
 62
    5
 10
995.53388199884569
 20
143.3033259785293
 11
1038.8480779945153
 21
143.3033259785293
  0
ARC
  8
_0-7_枠細線
  6
CONTINUOUS
 62
    5
 10
1014.9999999968992
 20
131.70332597968931
 40
7.4599999992540358
 50
51.317812999993329
 51
208.85363200000538
  0
ARC
  8
_0-7_枠細線
  6
CONTINUOUS
 62
    5
 10
983.99999999999932
 20
133.45832797951368
 40
0.5399999999459634
 50
51.317813000032764
 51
128.68218699999548
  0
ARC
  8
_0-7_枠細線
  6
CONTINUOUS
 62
    5
 10
988.99999999949955
 20
139.70332597888932
 40
7.4599999992540358
 50
231.31781299999028
 51
28.853631999998139
  0
ARC
  8
_0-7_枠細線
  6
CONTINUOUS
 62
    5
 10
1019.9999999963991
 20
137.94832397906495
 40
0.5399999999459634
 50
231.31781300002865
 51
308.6821870000083
  0
ARC
  8
_0-7_枠細線
  6
CONTINUOUS
 62
    5
 10
1024.9999999958993
 20
131.70332597968931
 40
7.4599999992540358
 50
331.14636800000056
 51
128.68218700000631
  0
LINE
  8
_0-7_枠細線
  6
CENTER1
 62
    5
 10
948.00000000359921
 20
147.38307197812114
 11
948.00000000359921
 21
124.16529398044315
  0
LINE
  8
_0-7_枠細線
  6
CENTER1
 62
    5
 10
1019.9999999963991
 20
147.38307197812114
 11
1019.9999999963991
 21
124.16529398044315
  0
LINE
  8
_0-7_枠細線
  6
CENTER1
 62
    5
 10
983.99999999999932
 20
147.38307197812114
 11
983.99999999999932
 21
124.16529398044315
  0
LINE
  8
_0-7_枠細線
  6
CONTINUOUS
 62
    5
 10
948.00000000359921
 20
119.70332598028932
 11
948.00000000359921
 21
89.703325980289321
  0
LINE
  8
_0-7_枠細線
  6
CONTINUOUS
 62
    5
 10
948.00000000359921
 20
95.703325980289321
 11
959.591109919068
 21
98.809154521519645
  0
LINE
  8
_0-7_枠細線
  6
CONTINUOUS
 62
    5
 10
948.00000000359921
 20
95.703325980289321
 11
959.591109919068
 21
92.597497439059083
  0
LINE
  8
_0-7_枠細線
  6
CONTINUOUS
 62
    5
 10
983.99999999999932
 20
119.70332598028932
 11
983.99999999999932
 21
89.703325980289321
  0
LINE
  8
_0-7_枠細線
  6
CONTINUOUS
 62
    5
 10
983.99999999999932
 20
95.703325980289321
 11
972.40889008453053
 21
92.597497439059168
  0
LINE
  8
_0-7_枠細線
  6
CONTINUOUS
 62
    5
 10
983.99999999999932
 20
95.703325980289321
 11
972.40889008453053
 21
98.809154521519645
  0
LINE
  8
_0-7_枠細線
  6
CONTINUOUS
 62
    5
 10
948.00000000359921
 20
95.703325980289321
 11
983.99999999999932
 21
95.703325980289321
  0
TEXT
  8
_0-7_枠細線
 62
    5
 10
957.00000000179909
 20
95.703325980289321
 40
18
 41
1
 50
0
  1
18
  0
LINE
  8
_0-7_枠細線
  6
CONTINUOUS
 62
    5
 10
983.99999999999932
 20
95.703325980289321
 11
995.59110991546811
 21
98.809154521519474
  0
LINE
  8
_0-7_枠細線
  6
CONTINUOUS
 62
    5
 10
983.99999999999932
 20
95.703325980289321
 11
995.59110991546811
 21
92.597497439058998
  0
LINE
  8
_0-7_枠細線
  6
CONTINUOUS
 62
    5
 10
1019.9999999963991
 20
119.70332598028932
 11
1019.9999999963991
 21
89.703325980289321
  0
LINE
  8
_0-7_枠細線
  6
CONTINUOUS
 62
    5
 10
1019.9999999963991
 20
95.703325980289321
 11
1008.4088900809303
 21
92.597497439059168
  0
LINE
  8
_0-7_枠細線
  6
CONTINUOUS
 62
    5
 10
1019.9999999963991
 20
95.703325980289321
 11
1008.4088900809303
 21
98.809154521519645
  0
LINE
  8
_0-7_枠細線
  6
CONTINUOUS
 62
    5
 10
983.99999999999932
 20
95.703325980289321
 11
1019.9999999963991
 21
95.703325980289321
  0
TEXT
  8
_0-7_枠細線
 62
    5
 10
992.99999999819954
 20
95.703325980289321
 40
18
 41
1
 50
0
  1
18
  0
TEXT
  8
_0-7_枠細線
 62
    5
 10
955.2000000000005
 20
158.99999999999949
 40
18.000000000000004
 41
0.7999999999999997
 50
0
  1
品番－Ｄ
  0
LINE
  8
_0-7_枠細線
  6
CONTINUOUS
 62
    5
 10
917.99999999999966
 20
212.9999999999994
 11
917.99999999999966
 21
87
  0
TEXT
  8
_0-7_枠細線
 62
    5
 10
823.19999999999925
 20
188.99999999999949
 40
18.000000000000004
 41
0.8
 50
0
  1
プレーン
  0
LINE
  8
_0-7_枠細線
  6
CONTINUOUS
 62
    5
 10
797.31282300546752
 20
125.70332598028932
 11
911.16940699408281
 21
125.70332598028932
  0
LINE
  8
_0-7_枠細線
  6
CONTINUOUS
 62
    5
 10
792.83059100591549
 20
145.7033259782894
 11
906.68717499453112
 21
145.7033259782894
  0
ARC
  8
_0-7_枠細線
  6
CONTINUOUS
 62
    5
 10
901.32063499506683
 20
128.74723197998475
 40
10.308427998969092
 50
317.5616290000047
 51
42.438370999995726
  0
ARC
  8
_0-7_枠細線
  6
CONTINUOUS
 62
    5
 10
787.46405100645291
 20
128.74723197998475
 40
10.308427998969206
 50
317.5616289999997
 51
42.438371000000764
  0
LINE
  8
_0-7_枠細線
  6
CONTINUOUS
 62
    5
 10
792.39106700596005
 20
143.3033259785293
 11
906.24765099457568
 21
143.3033259785293
  0
LINE
  8
_0-7_枠細線
  6
CONTINUOUS
 62
    5
 10
797.75234900542398
 20
128.10332598004942
 11
911.60893299403892
 21
128.10332598004942
  0
ARC
  8
_0-7_枠細線
  6
CONTINUOUS
 62
    5
 10
802.67936500493249
 20
142.6594199785938
 40
10.308427998969206
 50
137.56162900000027
 51
222.43837100000314
  0
ARC
  8
_0-7_枠細線
  6
CONTINUOUS
 62
    5
 10
916.53594899354607
 20
142.6594199785938
 40
10.308427998969092
 50
137.56162899999987
 51
222.43837100000266
  0
TEXT
  8
_0-7_枠細線
 62
    5
 10
823.2000000000005
 20
158.99999999999949
 40
18.000000000000004
 41
0.7999999999999997
 50
0
  1
品番－Ｆ
  0
TEXT
  8
_0-7_枠細線
 62
    5
 10
727.19999999999993
 20
188.9999999999994
 40
18.000000000000004
 41
0.8
 50
0
  1
タ イ プ
  0
LINE
  8
_0-7_枠細線
  6
CONTINUOUS
 62
    5
 10
725.99999999999909
 20
152.99999999999949
 11
1050
 21
152.99999999999949
  0
LINE
  8
_0-7_枠細線
  6
CONTINUOUS
 62
    5
 10
725.99999999999909
 20
182.9999999999994
 11
1050
 21
182.9999999999994
  0
LINE
  8
_0-7_枠細線
  6
CONTINUOUS
 62
    5
 10
725.99999999999909
 20
212.9999999999994
 11
1050
 21
212.9999999999994
  0
LINE
  8
_0-7_枠細線
  6
CONTINUOUS
 62
    5
 10
725.99999999999909
 20
87
 11
1050
 21
87
  0
LINE
  8
_0-7_枠細線
  6
CONTINUOUS
 62
    5
 10
786
 20
212.9999999999994
 11
786
 21
87
  0
LINE
  8
_0-7_枠細線
  6
CONTINUOUS
 62
    5
 10
725.99999999999909
 20
212.9999999999994
 11
725.99999999999909
 21
87
  0
TEXT
  8
_0-7_枠細線
 62
    5
 10
727.19999999999993
 20
110.99999999999974
 40
18.000000000000004
 41
0.8
 50
0
  1
表面形状
  0
TEXT
  8
_0-7_枠細線
 62
    5
 10
735.32905360897257
 20
215.99999999999949
 40
21.000000000000004
 41
0.7999999999999997
 50
0
  1
記号表
  0
TEXT
  8
_0-7_枠細線
 62
    5
 10
727.19999999999993
 20
158.99999999999966
 40
18.000000000000004
 41
0.8
 50
0
  1
記　　号
  0
ARC
  8
_0-1_計細線
  6
CONTINUOUS
 62
    3
 10
778.39040756597331
 20
893.70245148307413
 40
32.499868667505325
 50
269.99999999999977
 51
89.999999999999545
  0
LINE
  8
_0-1_計細線
  6
CONTINUOUS
 62
    3
 10
791.31298867894873
 20
891.92102534851256
 11
778.3130412119466
 21
891.92102534851256
  0
CIRCLE
  8
_0-1_計細線
  6
CONTINUOUS
 62
    3
 10
784.02185147588295
 20
887.99680120636594
 40
1.9999919180004326
  0
CIRCLE
  8
_0-1_計細線
  6
CONTINUOUS
 62
    3
 10
790.49804530547988
 20
886.6631465956857
 40
1.9999919180004326
  0
CIRCLE
  8
_0-1_計細線
  6
CONTINUOUS
 62
    3
 10
785.35549941992429
 20
881.52060071013011
 40
1.9999919180004326
  0
LINE
  8
_0-1_計細線
  6
CONTINUOUS
 62
    3
 10
791.31298867894873
 20
891.92102534851256
 11
791.31298867894873
 21
893.67101827676242
  0
CIRCLE
  8
_0-1_計細線
  6
CONTINUOUS
 62
    3
 10
772.60423094800751
 20
887.99680120636594
 40
1.9999919180004326
  0
CIRCLE
  8
_0-1_計細線
  6
CONTINUOUS
 62
    3
 10
766.1280371184107
 20
886.6631465956857
 40
1.9999919180004326
  0
CIRCLE
  8
_0-1_計細線
  6
CONTINUOUS
 62
    3
 10
771.27058300396618
 20
881.52060071013011
 40
1.9999919180004326
  0
CIRCLE
  8
_0-1_計細線
  6
CONTINUOUS
 62
    3
 10
778.29543461642641
 20
885.6394240658974
 40
1.9999919180004326
  0
CIRCLE
  8
_0-1_計細線
  6
CONTINUOUS
 62
    3
 10
778.29543461642641
 20
879.63830164986439
 40
1.9999919180004326
  0
LINE
  8
_0-1_計細線
  6
CONTINUOUS
 62
    3
 10
765.31309374494458
 20
891.92102534851256
 11
765.31309374494458
 21
893.67101827676242
  0
LINE
  8
_0-1_計細線
  6
CONTINUOUS
 62
    3
 10
765.31309374494458
 20
891.92102534851256
 11
778.3130412119466
 21
891.92102534851256
  0
LINE
  8
_0-1_計細線
  6
CONTINUOUS
 62
    3
 10
791.31298867894873
 20
895.42101120501229
 11
778.3130412119466
 21
895.42101120501229
  0
CIRCLE
  8
_0-1_計細線
  6
CONTINUOUS
 62
    3
 10
784.02185147588295
 20
899.34523534716027
 40
1.9999919180004326
  0
CIRCLE
  8
_0-1_計細線
  6
CONTINUOUS
 62
    3
 10
790.49804530547988
 20
900.67888329120024
 40
1.9999919180004326
  0
CIRCLE
  8
_0-1_計細線
  6
CONTINUOUS
 62
    3
 10
785.35549941992429
 20
905.82142917675583
 40
1.9999919180004326
  0
LINE
  8
_0-1_計細線
  6
CONTINUOUS
 62
    3
 10
791.31298867894873
 20
895.42101120501229
 11
791.31298867894873
 21
893.67101827676242
  0
CIRCLE
  8
_0-1_計細線
  6
CONTINUOUS
 62
    3
 10
772.60423094800751
 20
899.34523534716027
 40
1.9999919180004326
  0
CIRCLE
  8
_0-1_計細線
  6
CONTINUOUS
 62
    3
 10
766.1280371184107
 20
900.67888329120024
 40
1.9999919180004326
  0
CIRCLE
  8
_0-1_計細線
  6
CONTINUOUS
 62
    3
 10
771.27058300396618
 20
905.82142917675583
 40
1.9999919180004326
  0
CIRCLE
  8
_0-1_計細線
  6
CONTINUOUS
 62
    3
 10
778.29543461642641
 20
901.70260582098854
 40
1.9999919180004326
  0
CIRCLE
  8
_0-1_計細線
  6
CONTINUOUS
 62
    3
 10
778.29543461642641
 20
907.70373490366183
 40
1.9999919180004326
  0
LINE
  8
_0-1_計細線
  6
CONTINUOUS
 62
    3
 10
765.31309374494458
 20
895.42101120501229
 11
765.31309374494458
 21
893.67101827676242
  0
LINE
  8
_0-1_計細線
  6
CONTINUOUS
 62
    3
 10
765.31309374494458
 20
895.42101120501229
 11
778.3130412119466
 21
895.42101120501229
  0
CIRCLE
  8
_0-1_計細線
  6
CONTINUOUS
 62
    3
 10
778.23567485791716
 20
893.70245148307413
 40
16.499933323502546
  0
CIRCLE
  8
_0-1_計細線
  6
CONTINUOUS
 62
    3
 10
778.23567485791716
 20
893.70245148307413
 40
19.999919180003303
  0
CIRCLE
  8
_0-1_計細線
  6
CONTINUOUS
 62
    3
 10
778.23567485791716
 20
893.70245148307413
 40
21.999911098003736
  0
CIRCLE
  8
_0-1_計細線
  6
CONTINUOUS
 62
    3
 10
778.23567485791716
 20
893.70245148307413
 40
32.249869677755441
  0
ARC
  8
_0-1_計細線
  6
CONTINUOUS
 62
    3
 10
778.23567485791716
 20
893.70245148307413
 40
32.499868667505325
 50
89.999999999999915
 51
269.99999999999977
  0
LINE
  8
_0-1_計細線
  6
CONTINUOUS
 62
    3
 10
1591.4763929071746
 20
925.42101824501231
 11
1593.2763929071466
 21
925.42101824501231
  0
LINE
  8
_0-1_計細線
  6
CONTINUOUS
 62
    3
 10
1629.7794555738503
 20
870.32101830011288
 11
1630.7763929071746
 21
871.32101829911278
  0
LINE
  8
_0-1_計細線
  6
CONTINUOUS
 62
    3
 10
192.8130412119462
 20
867.67101827676333
 11
192.8130412119462
 21
857.67101827676322
  0
LINE
  8
_0-1_計細線
  6
CONTINUOUS
 62
    3
 10
192.8130412119462
 20
883.17101827676288
 11
192.8130412119462
 21
873.17101827676277
  0
LINE
  8
_0-1_計細線
  6
CONTINUOUS
 62
    3
 10
192.8130412119462
 20
914.17101827676231
 11
192.8130412119462
 21
904.17101827676242
  0
LINE
  8
_0-1_計細線
  6
CONTINUOUS
 62
    3
 10
192.8130412119462
 20
929.67101827676186
 11
192.8130412119462
 21
919.67101827676197
  0
LINE
  8
_0-1_計細線
  6
CONTINUOUS
 62
    3
 10
191.3130412119462
 20
930.67101827676231
 11
191.3130412119462
 21
856.67101827676242
  0
LINE
  8
_0-1_計細線
  6
CONTINUOUS
 62
    3
 10
191.3130412119462
 20
856.67101827676242
 11
1365.3130412119463
 21
856.67101827676242
  0
LINE
  8
_0-1_計細線
  6
CONTINUOUS
 62
    3
 10
1365.3130412119463
 20
856.67101827676242
 11
1365.3130412119463
 21
930.67101827676231
  0
LINE
  8
_0-1_計細線
  6
CONTINUOUS
 62
    3
 10
1365.3130412119463
 20
930.67101827676231
 11
191.3130412119462
 21
930.67101827676231
  0
LINE
  8
_0-1_計細線
  6
CONTINUOUS
 62
    3
 10
1375.3130412119458
 20
846.67101827676231
 11
1375.3130412119458
 21
940.67101827676242
  0
LINE
  8
_0-1_計細線
  6
CONTINUOUS
 62
    3
 10
1375.3130412119458
 20
940.67101827676242
 11
181.31304121194626
 21
940.67101827676242
  0
LINE
  8
_0-1_計細線
  6
CONTINUOUS
 62
    3
 10
181.31304121194626
 20
940.67101827676242
 11
181.31304121194626
 21
846.67101827676231
  0
LINE
  8
_0-1_計細線
  6
CONTINUOUS
 62
    3
 10
181.31304121194626
 20
846.67101827676231
 11
1375.3130412119458
 21
846.67101827676231
  0
LINE
  8
_0-1_計細線
  6
CONTINUOUS
 62
    3
 10
1573.7763605791765
 20
854.97117062245604
 11
1585.7763120871764
 21
854.97117062245604
  0
LINE
  8
_0-1_計細線
  6
CONTINUOUS
 62
    3
 10
1585.7763120871764
 20
854.97117062245604
 11
1585.7763120871764
 21
932.37124578505382
  0
LINE
  8
_0-1_計細線
  6
CONTINUOUS
 62
    3
 10
1585.7763120871764
 20
932.37124578505382
 11
1573.7763605791765
 21
932.37124578505382
  0
LINE
  8
_0-1_計細線
  6
CONTINUOUS
 62
    3
 10
1565.7763929071748
 20
846.67120820375567
 11
1565.7763929071748
 21
893.67101827676242
  0
LINE
  8
_0-1_計細線
  6
CONTINUOUS
 62
    3
 10
1565.7763929071748
 20
940.67120820375555
 11
1565.7763929071748
 21
893.67101827676242
  0
LINE
  8
_0-1_計細線
  6
CONTINUOUS
 62
    3
 10
1565.7763929071748
 20
940.67120820375555
 11
1573.7763605791765
 21
940.67120820375555
  0
LINE
  8
_0-1_計細線
  6
CONTINUOUS
 62
    3
 10
1565.7763929071748
 20
846.67120820375567
 11
1573.7763605791765
 21
846.67120820375567
  0
LINE
  8
_0-1_計細線
  6
CONTINUOUS
 62
    3
 10
1573.7763605791765
 20
920.51463612223745
 11
1573.7763605791765
 21
893.67101827676242
  0
LINE
  8
_0-1_計細線
  6
CONTINUOUS
 62
    3
 10
1573.7763605791765
 20
866.82739376464804
 11
1573.7763605791765
 21
893.67101827676242
  0
LINE
  8
_0-1_計細線
  6
CONTINUOUS
 62
    3
 10
1573.7763605791768
 20
847.37120537505552
 11
1570.8810915200231
 21
847.37120537505552
  0
LINE
  8
_0-1_計細線
  6
CONTINUOUS
 62
    3
 10
1570.7769251688869
 20
846.67120820375578
 11
1573.7763605791765
 21
866.82739376464804
  0
LINE
  8
_0-1_計細線
  6
CONTINUOUS
 62
    3
 10
1573.7763605791768
 20
846.67120820375567
 11
1573.7763605791768
 21
847.37120537505552
  0
LINE
  8
_0-1_計細線
  6
CONTINUOUS
 62
    3
 10
1573.7763120871764
 20
854.97117062245604
 11
1572.0120398738748
 21
854.97117062245604
  0
LINE
  8
_0-1_計細線
  6
CONTINUOUS
 62
    3
 10
1573.7763605791768
 20
939.97083117846921
 11
1570.8810915200231
 21
939.97083117846921
  0
LINE
  8
_0-1_計細線
  6
CONTINUOUS
 62
    3
 10
1570.7769251688869
 20
940.67082834976895
 11
1573.7763605791765
 21
920.5146427888767
  0
LINE
  8
_0-1_計細線
  6
CONTINUOUS
 62
    3
 10
1573.7763605791768
 20
940.67082834976918
 11
1573.7763605791768
 21
939.97083117846921
  0
LINE
  8
_0-1_計細線
  6
CONTINUOUS
 62
    3
 10
1573.7763120871764
 20
932.37086593106869
 11
1572.0120398738748
 21
932.37086593106869
  0
LINE
  8
_0-0_計極細
  6
CONTINUOUS
 62
    2
 10
325.11115490304223
 20
888.67101827676231
 11
451.39387813880853
 21
883.17101827676242
  0
LINE
  8
_0-0_計極細
  6
CONTINUOUS
 62
    2
 10
325.11115490304223
 20
898.67101827676242
 11
451.39387813880853
 21
904.17101827676242
  0
LINE
  8
_0-0_計極細
  6
CENTER1
 62
    2
 10
1539.1294964028775
 20
893.67101827676242
 11
1650.9496402877699
 21
893.67101827676242
  0
LINE
  8
_0-0_計極細
  6
CONTINUOUS
 62
    2
 10
1587.4230787658998
 20
880.83787680236117
 11
1587.5168317203768
 21
882.49333677928735
  0
LINE
  8
_0-0_計極細
  6
CONTINUOUS
 62
    2
 10
1587.1989930047666
 20
877.83345560994292
 11
1587.3168658617756
 21
879.28062976188846
  0
LINE
  8
_0-0_計極細
  6
CONTINUOUS
 62
    2
 10
1585.7847853862709
 20
871.24338224053554
 11
1585.9590980152029
 21
871.3290018945454
  0
LINE
  8
_0-0_計極細
  6
CONTINUOUS
 62
    2
 10
1585.9590980152029
 20
871.3290018945454
 11
1586.1320773161917
 21
871.58520752588083
  0
LINE
  8
_0-0_計極細
  6
CONTINUOUS
 62
    2
 10
1586.1320773161917
 20
871.58520752588083
 11
1586.302423294489
 21
872.01005247574221
  0
LINE
  8
_0-0_計極細
  6
CONTINUOUS
 62
    2
 10
1586.302423294489
 20
872.01005247574221
 11
1586.4688226220644
 21
872.60029675722251
  0
LINE
  8
_0-0_計極細
  6
CONTINUOUS
 62
    2
 10
1586.4688226220644
 20
872.60029675722251
 11
1586.6300153040156
 21
873.35145372178476
  0
LINE
  8
_0-0_計極細
  6
CONTINUOUS
 62
    2
 10
1586.6300153040156
 20
873.35145372178476
 11
1586.7847813452718
 21
874.25780339254459
  0
LINE
  8
_0-0_計極細
  6
CONTINUOUS
 62
    2
 10
1586.7847813452718
 20
874.25780339254459
 11
1586.9319340839579
 21
875.31244579738404
  0
LINE
  8
_0-0_計極細
  6
CONTINUOUS
 62
    2
 10
1586.9319340839579
 20
875.31244579738404
 11
1587.0703535246016
 21
876.50736763535213
  0
LINE
  8
_0-0_計極細
  6
CONTINUOUS
 62
    2
 10
1587.0703535246016
 20
876.50736763535213
 11
1587.1989930047666
 21
877.83345560994292
  0
LINE
  8
_0-0_計極細
  6
CONTINUOUS
 62
    2
 10
1587.3168658617756
 20
879.28062976188846
 11
1587.4230787658998
 21
880.83787680236117
  0
LINE
  8
_0-0_計極細
  6
CONTINUOUS
 62
    2
 10
1587.0703535246016
 20
910.83466891817261
 11
1587.1989930047666
 21
909.50858094358216
  0
LINE
  8
_0-0_計極細
  6
CONTINUOUS
 62
    2
 10
1587.4230787658998
 20
906.50415975116391
 11
1587.5168317203768
 21
904.84869310759802
  0
LINE
  8
_0-0_計極細
  6
CONTINUOUS
 62
    2
 10
1587.5168317203768
 20
904.84869310759802
 11
1587.5973913948337
 21
903.10761347666255
  0
LINE
  8
_0-0_計極細
  6
CONTINUOUS
 62
    2
 10
1587.5973913948337
 20
903.10761347666255
 11
1587.6641644583347
 21
901.29416080485396
  0
LINE
  8
_0-0_計極細
  6
CONTINUOUS
 62
    2
 10
1587.6641644583347
 20
901.29416080485396
 11
1587.7166309129857
 21
899.42214170304669
  0
LINE
  8
_0-0_計極細
  6
CONTINUOUS
 62
    2
 10
1587.7166309129857
 20
899.42214170304669
 11
1587.7543907603967
 21
897.50580944697595
  0
LINE
  8
_0-0_計極細
  6
CONTINUOUS
 62
    2
 10
1587.1989930047666
 20
909.50858094358216
 11
1587.3168658617756
 21
908.06140012499691
  0
LINE
  8
_0-0_計極細
  6
CONTINUOUS
 62
    2
 10
1587.3168658617756
 20
908.06140012499691
 11
1587.4230787658998
 21
906.50415975116391
  0
LINE
  8
_0-0_計極細
  6
CONTINUOUS
 62
    2
 10
1587.7771640017036
 20
895.55973731108531
 11
1587.7847773042699
 21
893.59873856884633
  0
LINE
  8
_0-0_計極細
  6
CONTINUOUS
 62
    2
 10
1587.6641644583347
 20
886.04787574867169
 11
1587.7166309129857
 21
887.91988818383913
  0
LINE
  8
_0-0_計極細
  6
CONTINUOUS
 62
    2
 10
1587.7166309129857
 20
887.91988818383913
 11
1587.7543907603967
 21
889.83622710654936
  0
LINE
  8
_0-0_計極細
  6
CONTINUOUS
 62
    2
 10
1587.7543907603967
 20
889.83622710654936
 11
1587.7771640017036
 21
891.78229924243976
  0
LINE
  8
_0-0_計極細
  6
CONTINUOUS
 62
    2
 10
1587.7771640017036
 20
891.78229924243976
 11
1587.7847773042699
 21
893.74329131803904
  0
LINE
  8
_0-0_計極細
  6
CONTINUOUS
 62
    2
 10
1587.5168317203768
 20
882.49333677928735
 11
1587.5973913948337
 21
884.2344230768631
  0
LINE
  8
_0-0_計極細
  6
CONTINUOUS
 62
    2
 10
1587.5973913948337
 20
884.2344230768631
 11
1587.6641644583347
 21
886.04787574867169
  0
LINE
  8
_0-0_計極細
  6
CONTINUOUS
 62
    2
 10
1587.7543907603967
 20
897.50580944697595
 11
1587.7771640017036
 21
895.55973731108531
  0
LINE
  8
_0-0_計極細
  6
CONTINUOUS
 62
    2
 10
1585.7847853862709
 20
916.09864764634995
 11
1585.9590980152029
 21
916.01302799234008
  0
LINE
  8
_0-0_計極細
  6
CONTINUOUS
 62
    2
 10
1585.9590980152029
 20
916.01302799234008
 11
1586.1320773161917
 21
915.75682236100454
  0
LINE
  8
_0-0_計極細
  6
CONTINUOUS
 62
    2
 10
1586.1320773161917
 20
915.75682236100454
 11
1586.302423294489
 21
915.33198407778343
  0
LINE
  8
_0-0_計極細
  6
CONTINUOUS
 62
    2
 10
1586.302423294489
 20
915.33198407778343
 11
1586.4688226220644
 21
914.74173979630257
  0
LINE
  8
_0-0_計極細
  6
CONTINUOUS
 62
    2
 10
1586.4688226220644
 20
914.74173979630257
 11
1586.6300153040156
 21
913.99058283174054
  0
LINE
  8
_0-0_計極細
  6
CONTINUOUS
 62
    2
 10
1586.7847813452718
 20
913.08423316098106
 11
1586.9319340839579
 21
912.02958408950144
  0
LINE
  8
_0-0_計極細
  6
CONTINUOUS
 62
    2
 10
1586.6300153040156
 20
913.99058283174054
 11
1586.7847813452718
 21
913.08423316098106
  0
LINE
  8
_0-0_計極細
  6
CONTINUOUS
 62
    2
 10
1586.9319340839579
 20
912.02958408950144
 11
1587.0703535246016
 21
910.83466891817261
  0
ARC
  8
_0-1_計細線
  6
CONTINUOUS
 62
    3
 10
1586.576392907175
 20
927.67101835330277
 40
0.8
 50
179.99999999999983
 51
269.99999999999977
  0
LINE
  8
_0-1_計細線
  6
CONTINUOUS
 62
    3
 10
1586.576392907175
 20
926.87101835330282
 11
1589.9763929071746
 21
926.87101835330282
  0
ARC
  8
_0-1_計細線
  6
CONTINUOUS
 62
    3
 10
1589.9763929071746
 20
925.37101835330282
 40
1.5
 50
0
 51
89.999999999999915
  0
LINE
  8
_0-1_計細線
  6
CONTINUOUS
 62
    3
 10
1591.4763929071746
 20
925.37101835330282
 11
1591.4763929071746
 21
893.67101827676254
  0
ARC
  8
_0-1_計細線
  6
CONTINUOUS
 62
    3
 10
1586.576392907175
 20
859.67101820022197
 40
0.8
 50
89.999999999999915
 51
179.99999999999983
  0
LINE
  8
_0-1_計細線
  6
CONTINUOUS
 62
    3
 10
1586.576392907175
 20
860.47101820022192
 11
1589.9763929071746
 21
860.47101820022192
  0
ARC
  8
_0-1_計細線
  6
CONTINUOUS
 62
    3
 10
1589.9763929071746
 20
861.97101820022192
 40
1.5
 50
269.99999999999977
 51
359.99999999999966
  0
LINE
  8
_0-1_計細線
  6
CONTINUOUS
 62
    3
 10
1591.4763929071746
 20
861.97101820022192
 11
1591.4763929071746
 21
893.6710182767622
  0
LINE
  8
_0-0_計極細
  6
CONTINUOUS
 62
    2
 10
1586.576392907175
 20
873.10157366298893
 11
1586.576392907175
 21
860.47101820022192
  0
LINE
  8
_0-0_計極細
  6
CONTINUOUS
 62
    2
 10
1586.576392907175
 20
914.24046289053626
 11
1586.576392907175
 21
926.87101835330282
  0
LINE
  8
_0-1_計細線
  6
CONTINUOUS
 62
    3
 10
1573.7763120871764
 20
854.97117062245604
 11
1573.7763120871764
 21
853.77117062245634
  0
LINE
  8
_0-1_計細線
  6
CONTINUOUS
 62
    3
 10
1573.7763120871764
 20
853.77117062245634
 11
1608.7763120871755
 21
853.77117062245634
  0
LINE
  8
_0-1_計細線
  6
CONTINUOUS
 62
    3
 10
1608.7763120871755
 20
853.77117062245634
 11
1608.7763120871755
 21
854.97117062245604
  0
LINE
  8
_0-1_計細線
  6
CONTINUOUS
 62
    3
 10
1608.7763120871755
 20
854.97117062245604
 11
1573.7763120871764
 21
854.97117062245604
  0
LINE
  8
_0-0_計極細
  6
CONTINUOUS
 62
    2
 10
1575.7763120871762
 20
853.77117062245634
 11
1575.7763120871762
 21
854.97117062245604
  0
LINE
  8
_0-0_計極細
  6
CONTINUOUS
 62
    2
 10
1587.7763120871762
 20
853.77117062245634
 11
1587.7763120871762
 21
854.97117062245604
  0
LINE
  8
_0-0_計極細
  6
CONTINUOUS
 62
    2
 10
1589.7763120871755
 20
853.77117062245634
 11
1589.7763120871755
 21
854.97117062245604
  0
LINE
  8
_0-0_計極細
  6
CONTINUOUS
 62
    2
 10
1591.7763120871753
 20
853.77117062245634
 11
1591.7763120871753
 21
854.97117062245604
  0
LINE
  8
_0-0_計極細
  6
CONTINUOUS
 62
    2
 10
1605.7763120871755
 20
853.77117062245634
 11
1605.7763120871755
 21
854.97117062245604
  0
LINE
  8
_0-0_計極細
  6
CONTINUOUS
 62
    2
 10
1585.7763120871764
 20
853.77117062245634
 11
1585.7763120871764
 21
854.97117062245604
  0
LINE
  8
_0-1_計細線
  6
CONTINUOUS
 62
    3
 10
1573.7763120871764
 20
933.57124578505352
 11
1573.7763120871764
 21
932.37124578505382
  0
LINE
  8
_0-1_計細線
  6
CONTINUOUS
 62
    3
 10
1573.7763120871764
 20
932.37124578505382
 11
1608.7763120871755
 21
932.37124578505382
  0
LINE
  8
_0-1_計細線
  6
CONTINUOUS
 62
    3
 10
1608.7763120871755
 20
932.37124578505382
 11
1608.7763120871755
 21
933.57124578505352
  0
LINE
  8
_0-1_計細線
  6
CONTINUOUS
 62
    3
 10
1608.7763120871755
 20
933.57124578505352
 11
1573.7763120871764
 21
933.57124578505352
  0
LINE
  8
_0-0_計極細
  6
CONTINUOUS
 62
    2
 10
1575.7763120871762
 20
932.37124578505382
 11
1575.7763120871762
 21
933.57124578505352
  0
LINE
  8
_0-0_計極細
  6
CONTINUOUS
 62
    2
 10
1587.7763120871762
 20
932.37124578505382
 11
1587.7763120871762
 21
933.57124578505352
  0
LINE
  8
_0-0_計極細
  6
CONTINUOUS
 62
    2
 10
1589.7763120871755
 20
932.37124578505382
 11
1589.7763120871755
 21
933.57124578505352
  0
LINE
  8
_0-0_計極細
  6
CONTINUOUS
 62
    2
 10
1591.7763120871753
 20
932.37124578505382
 11
1591.7763120871753
 21
933.57124578505352
  0
LINE
  8
_0-0_計極細
  6
CONTINUOUS
 62
    2
 10
1605.7763120871755
 20
932.37124578505382
 11
1605.7763120871755
 21
933.57124578505352
  0
LINE
  8
_0-0_計極細
  6
CONTINUOUS
 62
    2
 10
1585.7763120871764
 20
932.37124578505382
 11
1585.7763120871764
 21
933.57124578505352
  0
LINE
  8
_0-0_計極細
  6
CENTER1
 62
    2
 10
173.14158195412074
 20
893.67101827676242
 11
1384.1703025807533
 21
893.67101827676242
  0
ARC
  8
_0-1_計細線
  6
CONTINUOUS
 62
    3
 10
1593.2763929071466
 20
922.42101824801227
 40
2.9999999969999998
 50
0
 51
89.999999999999915
  0
LINE
  8
_0-0_計極細
  6
CONTINUOUS
 62
    2
 10
1596.2763929071173
 20
916.67101825376221
 11
1606.2763929070175
 21
916.67101825376221
  0
LINE
  8
_0-1_計細線
  6
CONTINUOUS
 62
    3
 10
1596.2763929071173
 20
919.67101825076236
 11
1606.2763929070175
 21
919.67101825076236
  0
LINE
  8
_0-0_計極細
  6
CONTINUOUS
 62
    2
 10
1629.7794555738503
 20
893.67101827676242
 11
1629.7794555738503
 21
917.02101825341197
  0
LINE
  8
_0-1_計細線
  6
CONTINUOUS
 62
    3
 10
1630.7763929071746
 20
893.67101827676242
 11
1630.7763929071746
 21
916.02101825441196
  0
LINE
  8
_0-0_計極細
  6
CONTINUOUS
 62
    2
 10
1606.2763929070175
 20
916.02101825441196
 11
1630.7763929071746
 21
916.02101825441196
  0
LINE
  8
_0-1_計細線
  6
CONTINUOUS
 62
    3
 10
1606.2763929070175
 20
917.02101825341197
 11
1629.7794555738503
 21
917.02101825341197
  0
LINE
  8
_0-1_計細線
  6
CONTINUOUS
 62
    3
 10
1606.2763929070175
 20
893.67101827676242
 11
1606.2763929070175
 21
919.67101825076236
  0
LINE
  8
_0-1_計細線
  6
CONTINUOUS
 62
    3
 10
1596.2763929071173
 20
893.67101827676242
 11
1596.2763929071173
 21
922.42101824801227
  0
LINE
  8
_0-1_計細線
  6
CONTINUOUS
 62
    3
 10
1591.4763929071746
 20
861.92101830851243
 11
1593.2763929071466
 21
861.92101830851243
  0
ARC
  8
_0-1_計細線
  6
CONTINUOUS
 62
    3
 10
1593.2763929071466
 20
864.92101830551246
 40
2.9999999969999998
 50
269.99999999999977
 51
359.99999999999966
  0
LINE
  8
_0-0_計極細
  6
CONTINUOUS
 62
    2
 10
1596.2763929071173
 20
870.67101829976264
 11
1606.2763929070175
 21
870.67101829976264
  0
LINE
  8
_0-1_計細線
  6
CONTINUOUS
 62
    3
 10
1596.2763929071173
 20
867.67101830276238
 11
1606.2763929070175
 21
867.67101830276238
  0
LINE
  8
_0-0_計極細
  6
CONTINUOUS
 62
    2
 10
1629.7794555738503
 20
893.67101827676242
 11
1629.7794555738503
 21
870.32101830011288
  0
LINE
  8
_0-1_計細線
  6
CONTINUOUS
 62
    3
 10
1630.7763929071746
 20
893.67101827676242
 11
1630.7763929071746
 21
871.32101829911278
  0
LINE
  8
_0-0_計極細
  6
CONTINUOUS
 62
    2
 10
1606.2763929070175
 20
871.32101829911278
 11
1630.7763929071746
 21
871.32101829911278
  0
LINE
  8
_0-1_計細線
  6
CONTINUOUS
 62
    3
 10
1606.2763929070175
 20
870.32101830011288
 11
1629.7794555738503
 21
870.32101830011288
  0
LINE
  8
_0-1_計細線
  6
CONTINUOUS
 62
    3
 10
1606.2763929070175
 20
893.67101827676242
 11
1606.2763929070175
 21
867.67101830276238
  0
LINE
  8
_0-1_計細線
  6
CONTINUOUS
 62
    3
 10
1596.2763929071173
 20
893.67101827676242
 11
1596.2763929071173
 21
864.92101830551246
  0
LINE
  8
_0-0_計極細
  6
CONTINUOUS
 62
    2
 10
1596.2763929071173
 20
896.67101827376223
 11
1606.2763929070175
 21
896.67101827376223
  0
LINE
  8
_0-0_計極細
  6
CONTINUOUS
 62
    2
 10
1596.2763929071173
 20
890.67101827976217
 11
1606.2763929070175
 21
890.67101827976217
  0
LINE
  8
_0-1_計細線
  6
CONTINUOUS
 62
    3
 10
1629.7794555738503
 20
917.02101825341197
 11
1630.7763929071746
 21
916.02101825441196
  0
LINE
  8
_0-0_計極細
  6
CONTINUOUS
 62
    2
 10
239.81303933189605
 20
883.17102013681006
 11
239.81303933189605
 21
888.67101991680465
  0
LINE
  8
_0-0_計極細
  6
CONTINUOUS
 62
    2
 10
239.81303933189605
 20
867.67102075682647
 11
239.81303933189605
 21
873.17102053682072
  0
LINE
  8
_0-0_計極細
  6
CONTINUOUS
 62
    2
 10
199.8130409319046
 20
867.67102075682647
 11
199.8130409319046
 21
873.17102053682072
  0
LINE
  8
_0-0_計極細
  6
CONTINUOUS
 62
    2
 10
239.81303933189605
 20
919.67101867677252
 11
239.81303933189605
 21
914.17101889677861
  0
LINE
  8
_0-0_計極細
  6
CONTINUOUS
 62
    2
 10
199.8130409319046
 20
919.67101867677252
 11
199.8130409319046
 21
914.17101889677861
  0
LINE
  8
_0-0_計極細
  6
CONTINUOUS
 62
    2
 10
239.81303933189605
 20
904.17101929678893
 11
239.81303933189605
 21
898.67101951679433
  0
LINE
  8
_0-0_計極細
  6
CONTINUOUS
 62
    2
 10
235.76304193735581
 20
867.67101827676333
 11
235.76304193735581
 21
873.17101827676277
  0
LINE
  8
_0-0_計極細
  6
CONTINUOUS
 62
    2
 10
228.86304193723342
 20
867.67101827676333
 11
228.86304193723342
 21
873.17101827676277
  0
LINE
  8
_0-0_計極細
  6
CONTINUOUS
 62
    2
 10
235.76303961680352
 20
919.67101827676197
 11
235.76304192798167
 21
914.17101827676231
  0
LINE
  8
_0-0_計極細
  6
CONTINUOUS
 62
    2
 10
228.86303964700687
 20
919.67101827676197
 11
228.86304192798181
 21
914.17101827676231
  0
LINE
  8
_0-0_計極細
  6
CONTINUOUS
 62
    2
 10
228.86304193723342
 20
904.17101827676242
 11
228.86304193723342
 21
902.57101936079926
  0
LINE
  8
_0-0_計極細
  6
CONTINUOUS
 62
    2
 10
228.86304193723342
 20
901.57101940079906
 11
228.86304193723342
 21
898.67101827676242
  0
LINE
  8
_0-0_計極細
  6
CONTINUOUS
 62
    2
 10
235.76304193735581
 20
904.17101827676242
 11
235.76304193735581
 21
902.57101936079926
  0
LINE
  8
_0-0_計極細
  6
CONTINUOUS
 62
    2
 10
235.76304193735581
 20
901.57101940079906
 11
235.76304193735581
 21
898.67101827676242
  0
LINE
  8
_0-0_計極細
  6
CONTINUOUS
 62
    2
 10
228.86304193723342
 20
883.17101827676288
 11
228.86304193723342
 21
884.77102007279973
  0
LINE
  8
_0-0_計極細
  6
CONTINUOUS
 62
    2
 10
228.86304193723342
 20
885.77102003279958
 11
228.86304193723342
 21
888.67101827676231
  0
LINE
  8
_0-0_計極細
  6
CONTINUOUS
 62
    2
 10
235.76304193735581
 20
883.17101827676288
 11
235.76304193735581
 21
884.77102007279973
  0
LINE
  8
_0-0_計極細
  6
CONTINUOUS
 62
    2
 10
235.76304193735581
 20
885.77102003279958
 11
235.76304193735581
 21
888.67101827676231
  0
LINE
  8
_0-0_計極細
  6
CONTINUOUS
 62
    2
 10
196.31304109190387
 20
883.77102011279953
 11
205.31304073190495
 21
883.77102011279953
  0
LINE
  8
_0-0_計極細
  6
CONTINUOUS
 62
    2
 10
196.31304109190387
 20
883.77102011279953
 11
196.31304109190387
 21
884.77102007279973
  0
LINE
  8
_0-0_計極細
  6
CONTINUOUS
 62
    2
 10
205.31304073190495
 20
883.77102011279953
 11
205.31304073190495
 21
884.77102007279973
  0
LINE
  8
_0-0_計極細
  6
CONTINUOUS
 62
    2
 10
196.31304109190387
 20
903.57101932079945
 11
205.31304073190495
 21
903.57101932079945
  0
LINE
  8
_0-0_計極細
  6
CONTINUOUS
 62
    2
 10
196.31304109190387
 20
903.57101932079945
 11
196.31304109190387
 21
902.57101936079926
  0
LINE
  8
_0-0_計極細
  6
CONTINUOUS
 62
    2
 10
205.31304073190495
 20
903.57101932079945
 11
205.31304073190495
 21
902.57101936079926
  0
LINE
  8
_0-1_計細線
  6
CONTINUOUS
 62
    3
 10
237.31303945190439
 20
901.57101940079906
 11
237.31303945190439
 21
902.57101936079926
  0
LINE
  8
_0-1_計細線
  6
CONTINUOUS
 62
    3
 10
224.51303996390516
 20
901.57101940079906
 11
237.31303945190439
 21
901.57101940079906
  0
LINE
  8
_0-1_計細線
  6
CONTINUOUS
 62
    3
 10
237.31303945190439
 20
902.57101936079926
 11
195.31304113190436
 21
902.57101936079926
  0
LINE
  8
_0-1_計細線
  6
CONTINUOUS
 62
    3
 10
195.31304113190436
 20
884.77102007279973
 11
237.31303945190439
 21
884.77102007279973
  0
LINE
  8
_0-1_計細線
  6
CONTINUOUS
 62
    3
 10
237.31303945190439
 20
885.77102003279958
 11
224.51303996390516
 21
885.77102003279958
  0
LINE
  8
_0-1_計細線
  6
CONTINUOUS
 62
    3
 10
237.31303945190439
 20
884.77102007279973
 11
237.31303945190439
 21
885.77102003279958
  0
LINE
  8
_0-1_計細線
  6
CONTINUOUS
 62
    3
 10
224.51303996390516
 20
884.77102007279973
 11
224.51303996390516
 21
902.57101936079926
  0
LINE
  8
_0-1_計細線
  6
CONTINUOUS
 62
    3
 10
195.31304113190436
 20
902.57101936079926
 11
195.31304113190436
 21
884.77102007279973
  0
LINE
  8
_0-1_計細線
  6
CONTINUOUS
 62
    3
 10
226.8130398519051
 20
898.67101951679433
 11
226.8130398519051
 21
888.67101991680465
  0
LINE
  8
_0-0_計極細
  6
CENTER1
 62
    2
 10
505.31303963190516
 20
964.01404091450854
 11
505.31303963190516
 21
806.29101991103005
  0
LINE
  8
_0-0_計極細
  6
CONTINUOUS
 62
    2
 10
508.76303964127942
 20
867.67101827676333
 11
508.76303964127942
 21
873.17101827676277
  0
LINE
  8
_0-0_計極細
  6
CONTINUOUS
 62
    2
 10
501.863039641157
 20
867.67101827676333
 11
501.863039641157
 21
873.17101827676277
  0
LINE
  8
_0-0_計極細
  6
CONTINUOUS
 62
    2
 10
508.76303964127942
 20
883.17101827676288
 11
508.76303964127942
 21
888.67101827676231
  0
LINE
  8
_0-0_計極細
  6
CONTINUOUS
 62
    2
 10
501.863039641157
 20
883.17101827676288
 11
501.863039641157
 21
888.67101827676231
  0
LINE
  8
_0-0_計極細
  6
CONTINUOUS
 62
    2
 10
508.76303964127942
 20
904.17101827676242
 11
508.76303964127942
 21
898.67101827676242
  0
LINE
  8
_0-0_計極細
  6
CONTINUOUS
 62
    2
 10
501.863039641157
 20
904.17101827676242
 11
501.863039641157
 21
898.67101827676242
  0
LINE
  8
_0-0_計極細
  6
CONTINUOUS
 62
    2
 10
508.76303732072688
 20
919.67101827676197
 11
508.76303963190526
 21
914.17101827676231
  0
LINE
  8
_0-0_計極細
  6
CONTINUOUS
 62
    2
 10
501.8630373509302
 20
919.67101827676197
 11
501.86303963190517
 21
914.17101827676231
  0
LINE
  8
_0-0_計極細
  6
CONTINUOUS
 62
    2
 10
512.81303933189747
 20
883.17101869677299
 11
512.81303933189747
 21
888.67101847676759
  0
LINE
  8
_0-0_計極細
  6
CONTINUOUS
 62
    2
 10
497.8130399319129
 20
883.17101869677299
 11
497.8130399319129
 21
888.67101847676759
  0
LINE
  8
_0-0_計極細
  6
CONTINUOUS
 62
    2
 10
512.81303933189747
 20
867.6710193167894
 11
512.81303933189747
 21
873.17101909678354
  0
LINE
  8
_0-0_計極細
  6
CONTINUOUS
 62
    2
 10
497.8130399319129
 20
867.6710193167894
 11
497.8130399319129
 21
873.17101909678354
  0
LINE
  8
_0-0_計極細
  6
CONTINUOUS
 62
    2
 10
512.81303933189747
 20
919.67101723673545
 11
512.81303933189747
 21
914.17101745674154
  0
LINE
  8
_0-0_計極細
  6
CONTINUOUS
 62
    2
 10
497.8130399319129
 20
919.67101723673545
 11
497.8130399319129
 21
914.17101745674154
  0
LINE
  8
_0-0_計極細
  6
CONTINUOUS
 62
    2
 10
512.81303933189747
 20
904.17101785675186
 11
512.81303933189747
 21
898.67101807675726
  0
LINE
  8
_0-0_計極細
  6
CONTINUOUS
 62
    2
 10
497.8130399319129
 20
904.17101785675186
 11
497.8130399319129
 21
898.67101807675726
  0
LINE
  8
_0-5_寸法線
  6
CONTINUOUS
 62
    7
 10
505.30918603691725
 20
816.47182068559516
 11
516.90029595238605
 21
819.57764922682554
  0
LINE
  8
_0-5_寸法線
  6
CONTINUOUS
 62
    7
 10
505.30918603691725
 20
816.47182068559516
 11
516.90029595238605
 21
813.36599214436501
  0
LINE
  8
_0-5_寸法線
  6
CONTINUOUS
 62
    7
 10
505.30918603691725
 20
816.47182068559516
 11
559.06455210147715
 21
816.47182068559516
  0
LINE
  8
_0-5_寸法線
  6
CONTINUOUS
 62
    7
 10
559.06455210147715
 20
816.47182068559516
 11
559.06455210147715
 21
816.08823898387959
  0
LINE
  8
_0-5_寸法線
  6
CONTINUOUS
 62
    7
 10
505.30918603691725
 20
949.6949535531237
 11
516.90029595238605
 21
952.80078209435396
  0
LINE
  8
_0-5_寸法線
  6
CONTINUOUS
 62
    7
 10
505.30918603691725
 20
949.6949535531237
 11
516.90029595238605
 21
946.58912501189354
  0
LINE
  8
_0-5_寸法線
  6
CONTINUOUS
 62
    7
 10
505.30918603691725
 20
949.6949535531237
 11
559.06455210147715
 21
949.6949535531237
  0
LINE
  8
_0-5_寸法線
  6
CONTINUOUS
 62
    7
 10
559.06455210147715
 20
949.6949535531237
 11
559.06455210147715
 21
949.31137185140801
  0
LINE
  8
_0-5_寸法線
  6
CONTINUOUS
 62
    7
 10
1387.3130412119458
 20
846.67101827676231
 11
1483.3130412119458
 21
846.6710182767622
  0
LINE
  8
_0-5_寸法線
  6
CONTINUOUS
 62
    7
 10
1477.3130412119458
 20
846.6710182767622
 11
1474.2072126707153
 21
858.26212819223088
  0
LINE
  8
_0-5_寸法線
  6
CONTINUOUS
 62
    7
 10
1477.3130412119458
 20
846.6710182767622
 11
1480.4188697531761
 21
858.26212819223088
  0
LINE
  8
_0-5_寸法線
  6
CONTINUOUS
 62
    7
 10
1387.3130412119458
 20
940.67101827676242
 11
1483.3130412119458
 21
940.67101827676208
  0
LINE
  8
_0-5_寸法線
  6
CONTINUOUS
 62
    7
 10
1477.3130412119458
 20
940.67101827676208
 11
1480.4188697531761
 21
929.07990836129329
  0
LINE
  8
_0-5_寸法線
  6
CONTINUOUS
 62
    7
 10
1477.3130412119458
 20
940.67101827676208
 11
1474.2072126707153
 21
929.07990836129329
  0
LINE
  8
_0-5_寸法線
  6
CONTINUOUS
 62
    7
 10
1477.3130412119458
 20
846.6710182767622
 11
1477.3130412119458
 21
940.67101827676208
  0
TEXT
  8
_0-5_寸法線
 62
    7
 10
1477.3130412119458
 20
884.6710182767622
 40
18
 41
1
 50
90
  1
94
  0
LINE
  8
_0-5_寸法線
  6
CONTINUOUS
 62
    7
 10
1387.3130412119458
 20
846.67101827676231
 11
1441.3130412119458
 21
846.6710182767622
  0
LINE
  8
_0-5_寸法線
  6
CONTINUOUS
 62
    7
 10
1435.3130412119458
 20
846.6710182767622
 11
1432.2072126707153
 21
858.26212819223088
  0
LINE
  8
_0-5_寸法線
  6
CONTINUOUS
 62
    7
 10
1435.3130412119458
 20
846.6710182767622
 11
1438.4188697531761
 21
858.26212819223088
  0
LINE
  8
_0-5_寸法線
  6
CONTINUOUS
 62
    7
 10
1387.3130412119458
 20
893.67101827676254
 11
1441.3130412119458
 21
893.67101827676242
  0
LINE
  8
_0-5_寸法線
  6
CONTINUOUS
 62
    7
 10
1435.3130412119458
 20
893.67101827676242
 11
1438.4188697531761
 21
882.07990836129352
  0
LINE
  8
_0-5_寸法線
  6
CONTINUOUS
 62
    7
 10
1435.3130412119458
 20
893.67101827676242
 11
1432.2072126707153
 21
882.07990836129352
  0
LINE
  8
_0-5_寸法線
  6
CONTINUOUS
 62
    7
 10
1435.3130412119458
 20
846.6710182767622
 11
1435.3130412119458
 21
893.67101827676242
  0
TEXT
  8
_0-5_寸法線
 62
    7
 10
1435.3130412119458
 20
861.17101827676277
 40
18
 41
1
 50
90
  1
47
  0
LINE
  8
_0-5_寸法線
  6
CONTINUOUS
 62
    7
 10
1435.3130412119458
 20
893.67101827676242
 11
1432.2072126707153
 21
905.2621281922311
  0
LINE
  8
_0-5_寸法線
  6
CONTINUOUS
 62
    7
 10
1435.3130412119458
 20
893.67101827676242
 11
1438.4188697531761
 21
905.2621281922311
  0
LINE
  8
_0-5_寸法線
  6
CONTINUOUS
 62
    7
 10
1387.3130412119458
 20
940.67101827676242
 11
1441.3130412119458
 21
940.67101827676208
  0
LINE
  8
_0-5_寸法線
  6
CONTINUOUS
 62
    7
 10
1435.3130412119458
 20
940.67101827676208
 11
1438.4188697531761
 21
929.07990836129329
  0
LINE
  8
_0-5_寸法線
  6
CONTINUOUS
 62
    7
 10
1435.3130412119458
 20
940.67101827676208
 11
1432.2072126707153
 21
929.07990836129329
  0
LINE
  8
_0-5_寸法線
  6
CONTINUOUS
 62
    7
 10
1435.3130412119458
 20
893.67101827676242
 11
1435.3130412119458
 21
940.67101827676208
  0
TEXT
  8
_0-5_寸法線
 62
    7
 10
1435.3130412119458
 20
908.17101827676288
 40
18
 41
1
 50
90
  1
47
  0
LINE
  8
_0-5_寸法線
  6
CONTINUOUS
 62
    7
 10
780.8414157465395
 20
891.92102534851256
 11
786.53491861138991
 21
881.35769135171313
  0
LINE
  8
_0-5_寸法線
  6
CONTINUOUS
 62
    7
 10
780.8414157465395
 20
891.92102534851256
 11
780.49046686561974
 21
879.92615832619913
  0
LINE
  8
_0-5_寸法線
  6
CONTINUOUS
 62
    7
 10
780.8414157465395
 20
891.92102534851256
 11
799.24019037133894
 21
814.23472442578054
  0
LINE
  8
_0-5_寸法線
  6
CONTINUOUS
 62
    7
 10
799.24019037133894
 20
814.23472442578054
 11
885.6401903713388
 21
814.23472442578054
  0
TEXT
  8
_0-5_寸法線
 62
    7
 10
799.24019037133894
 20
814.23472442578054
 40
18
 41
0.7999999999999998
 50
0
  1
ストレーナー
  0
LINE
  8
_0-5_寸法線
  6
CONTINUOUS
 62
    7
 10
770.9279580100764
 20
872.95170781466913
 11
771.27721915488371
 21
860.95679153097933
  0
LINE
  8
_0-5_寸法線
  6
CONTINUOUS
 62
    7
 10
770.9279580100764
 20
872.95170781466913
 11
765.23296889218932
 21
862.38917502432253
  0
LINE
  8
_0-5_寸法線
  6
CONTINUOUS
 62
    7
 10
770.9279580100764
 20
872.95170781466913
 11
757.01304149772477
 21
814.23472442578054
  0
LINE
  8
_0-5_寸法線
  6
CONTINUOUS
 62
    7
 10
757.01304149772477
 20
814.23472442578054
 11
713.81304149772473
 21
814.23472442578054
  0
TEXT
  8
_0-5_寸法線
 62
    7
 10
713.81304149772473
 20
814.23472442578054
 40
18
 41
0.7999999999999998
 50
0
  1
排水口
  0
LINE
  8
_0-5_寸法線
  6
CONTINUOUS
 62
    7
 10
1565.7763929071743
 20
952.67082834976918
 11
1565.7763929071737
 21
1036.671018276762
  0
LINE
  8
_0-5_寸法線
  6
CONTINUOUS
 62
    7
 10
1565.7763929071737
 20
1030.671018276762
 11
1577.3675028226428
 21
1033.7768468179925
  0
LINE
  8
_0-5_寸法線
  6
CONTINUOUS
 62
    7
 10
1565.7763929071737
 20
1030.671018276762
 11
1577.3675028226428
 21
1027.5651897355319
  0
LINE
  8
_0-5_寸法線
  6
CONTINUOUS
 62
    7
 10
1608.7763120871755
 20
945.57086593106851
 11
1608.7763120871746
 21
1036.671018276762
  0
LINE
  8
_0-5_寸法線
  6
CONTINUOUS
 62
    7
 10
1608.7763120871746
 20
1030.671018276762
 11
1597.1852021717057
 21
1027.5651897355319
  0
LINE
  8
_0-5_寸法線
  6
CONTINUOUS
 62
    7
 10
1608.7763120871746
 20
1030.671018276762
 11
1597.1852021717057
 21
1033.7768468179925
  0
LINE
  8
_0-5_寸法線
  6
CONTINUOUS
 62
    7
 10
1565.7763929071737
 20
1030.671018276762
 11
1608.7763120871746
 21
1030.671018276762
  0
TEXT
  8
_0-5_寸法線
 62
    7
 10
1578.2763524971747
 20
1030.671018276762
 40
18
 41
1
 50
0
  1
43
  0
LINE
  8
_0-5_寸法線
  6
CONTINUOUS
 62
    7
 10
1565.7763929071748
 20
952.67082834976918
 11
1565.7763929071748
 21
994.67101827676242
  0
LINE
  8
_0-5_寸法線
  6
CONTINUOUS
 62
    7
 10
1565.7763929071748
 20
988.67101827676242
 11
1554.1852829917059
 21
985.56518973553216
  0
LINE
  8
_0-5_寸法線
  6
CONTINUOUS
 62
    7
 10
1565.7763929071748
 20
988.67101827676242
 11
1554.1852829917059
 21
991.77684681799258
  0
LINE
  8
_0-5_寸法線
  6
CONTINUOUS
 62
    7
 10
1585.7763120871764
 20
945.57086593106851
 11
1585.7763120871764
 21
994.67101827676242
  0
LINE
  8
_0-5_寸法線
  6
CONTINUOUS
 62
    7
 10
1540.524812331701
 20
988.67101827676242
 11
1585.7763120871764
 21
988.67101827676242
  0
TEXT
  8
_0-5_寸法線
 62
    7
 10
1540.5248123317012
 20
988.67101827676242
 40
18
 41
1
 50
0
  1
20
  0
LINE
  8
_0-5_寸法線
  6
CONTINUOUS
 62
    7
 10
1585.7763120871764
 20
988.67101827676242
 11
1597.3674220026451
 21
991.77684681799258
  0
LINE
  8
_0-5_寸法線
  6
CONTINUOUS
 62
    7
 10
1585.7763120871764
 20
988.67101827676242
 11
1597.3674220026451
 21
985.56518973553216
  0
LINE
  8
_0-5_寸法線
  6
CONTINUOUS
 62
    7
 10
1608.7763120871755
 20
945.57086593106851
 11
1608.7763120871755
 21
994.67101827676242
  0
LINE
  8
_0-5_寸法線
  6
CONTINUOUS
 62
    7
 10
1608.7763120871755
 20
988.67101827676242
 11
1597.1852021717064
 21
985.56518973553216
  0
LINE
  8
_0-5_寸法線
  6
CONTINUOUS
 62
    7
 10
1608.7763120871755
 20
988.67101827676242
 11
1597.1852021717064
 21
991.77684681799258
  0
LINE
  8
_0-5_寸法線
  6
CONTINUOUS
 62
    7
 10
1585.7763120871764
 20
988.67101827676242
 11
1608.7763120871755
 21
988.67101827676242
  0
TEXT
  8
_0-5_寸法線
 62
    7
 10
1588.2763120871759
 20
988.67101827676208
 40
18
 41
1
 50
0
  1
23
  0
LINE
  8
_0-5_寸法線
  6
CONTINUOUS
 62
    7
 10
192.81304121194628
 20
952.67101827676242
 11
192.8130412119462
 21
994.67101827676242
  0
LINE
  8
_0-5_寸法線
  6
CONTINUOUS
 62
    7
 10
192.8130412119462
 20
988.67101827676242
 11
204.40415112741508
 21
991.77684681799258
  0
LINE
  8
_0-5_寸法線
  6
CONTINUOUS
 62
    7
 10
192.8130412119462
 20
988.67101827676242
 11
204.40415112741508
 21
985.56518973553216
  0
LINE
  8
_0-5_寸法線
  6
CONTINUOUS
 62
    7
 10
1363.8130412119472
 20
952.67101827676242
 11
1363.8130412119472
 21
994.67101827676242
  0
LINE
  8
_0-5_寸法線
  6
CONTINUOUS
 62
    7
 10
1363.8130412119472
 20
988.67101827676242
 11
1352.2219312964783
 21
985.56518973553227
  0
LINE
  8
_0-5_寸法線
  6
CONTINUOUS
 62
    7
 10
1363.8130412119472
 20
988.67101827676242
 11
1352.2219312964783
 21
991.77684681799258
  0
LINE
  8
_0-5_寸法線
  6
CONTINUOUS
 62
    7
 10
192.8130412119462
 20
988.67101827676242
 11
1363.8130412119472
 21
988.67101827676242
  0
TEXT
  8
_0-5_寸法線
 62
    7
 10
760.31304121194671
 20
988.67101827676242
 40
18
 41
1
 50
0
  1
1171
  0
LINE
  8
_0-0_計極細
  6
CONTINUOUS
 62
    2
 10
1355.313042011961
 20
893.17101829676267
 11
1355.313042011961
 21
894.17101825676218
  0
LINE
  8
_0-1_計細線
  6
CONTINUOUS
 62
    3
 10
1364.3130416519566
 20
903.17101789675849
 11
1365.3130416119575
 21
903.17101789675849
  0
ARC
  8
_0-1_計細線
  6
CONTINUOUS
 62
    3
 10
1364.3130416519566
 20
894.17101825676218
 40
0.9999999599995135
 50
269.99999999999977
 51
359.99999999999966
  0
LINE
  8
_0-1_計細線
  6
CONTINUOUS
 62
    3
 10
1353.313042091962
 20
893.17101829676267
 11
1353.313042091962
 21
894.17101825676218
  0
LINE
  8
_0-1_計細線
  6
CONTINUOUS
 62
    3
 10
1353.313042091962
 20
894.17101825676218
 11
1364.3130416519566
 21
894.17101825676218
  0
LINE
  8
_0-1_計細線
  6
CONTINUOUS
 62
    3
 10
1364.3130416519566
 20
893.17101829676267
 11
1353.313042091962
 21
893.17101829676267
  0
LINE
  8
_0-1_計細線
  6
CONTINUOUS
 62
    3
 10
1364.3130416519566
 20
894.17101825676218
 11
1364.3130416519566
 21
903.17101789675849
  0
LINE
  8
_0-1_計細線
  6
CONTINUOUS
 62
    3
 10
1365.3130416119575
 20
903.17101789675849
 11
1365.3130416119575
 21
894.17101825676218
  0
TEXT
  8
_0-5_寸法線
 62
    7
 10
138.25872185928841
 20
871.14612726026348
 40
18
 41
1
 50
0
  1
Ｂ部
  0
CIRCLE
  8
_0-5_寸法線
  6
CONTINUOUS
 62
    7
 10
211.81910099753662
 20
893.67101971679949
 40
32.624478443415455
  0
LINE
  8
_0-5_寸法線
  6
CONTINUOUS
 62
    7
 10
1355.313042011961
 20
893.17101829676267
 11
1352.2072134707305
 21
881.57990838129376
  0
LINE
  8
_0-5_寸法線
  6
CONTINUOUS
 62
    7
 10
1355.313042011961
 20
893.17101829676267
 11
1346.8277606377223
 21
884.68573692252414
  0
LINE
  8
_0-5_寸法線
  6
CONTINUOUS
 62
    7
 10
1355.313042011961
 20
893.17101829676267
 11
1309.7391514967176
 21
814.23472442578054
  0
LINE
  8
_0-5_寸法線
  6
CONTINUOUS
 62
    7
 10
1309.7391514967176
 20
814.23472442578054
 11
1208.9086909660969
 21
814.23472442578054
  0
TEXT
  8
_0-5_寸法線
 62
    7
 10
1208.9086909660969
 20
814.23472442578054
 40
18
 41
0.7999999999999998
 50
0
  1
抜け防止Ｌ金具
  0
LINE
  8
_0-5_寸法線
  6
CONTINUOUS
 62
    7
 10
662.75842641582176
 20
863.35364213357116
 11
662.75842641582153
 21
851.35364213357116
  0
LINE
  8
_0-5_寸法線
  6
CONTINUOUS
 62
    7
 10
662.75842641582176
 20
863.35364213357116
 11
656.75842641582153
 21
852.96133728815789
  0
LINE
  8
_0-5_寸法線
  6
CONTINUOUS
 62
    7
 10
662.75842641582176
 20
863.35364213357116
 11
649.59705208292814
 21
814.23472442578054
  0
LINE
  8
_0-5_寸法線
  6
CONTINUOUS
 62
    7
 10
649.59705208292814
 20
814.23472442578054
 11
604.58699784439204
 21
814.23472442578054
  0
TEXT
  8
_0-5_寸法線
 62
    7
 10
604.58699784439204
 20
814.23472442578054
 40
18
 41
0.7999999999999998
 50
0
  1
上フタ
  0
LINE
  8
_0-5_寸法線
  6
CONTINUOUS
 62
    7
 10
211.71257103662424
 20
887.4876809342768
 11
217.71257103662415
 21
877.09537608886353
  0
LINE
  8
_0-5_寸法線
  6
CONTINUOUS
 62
    7
 10
211.71257103662424
 20
887.4876809342768
 11
211.71257103662415
 21
875.4876809342768
  0
LINE
  8
_0-5_寸法線
  6
CONTINUOUS
 62
    7
 10
211.71257103662424
 20
887.4876809342768
 11
231.34064157626764
 21
814.23472442578054
  0
LINE
  8
_0-5_寸法線
  6
CONTINUOUS
 62
    7
 10
231.34064157626764
 20
814.23472442578054
 11
346.54064157626766
 21
814.23472442578054
  0
TEXT
  8
_0-5_寸法線
 62
    7
 10
231.34064157626764
 20
814.23472442578054
 40
18
 41
0.7999999999999998
 50
0
  1
ボルトカバー金具
  0
LINE
  8
_0-5_寸法線
  6
CONTINUOUS
 62
    7
 10
1565.7763929071748
 20
834.67082834976918
 11
1565.7763929071748
 21
792.67101827676231
  0
LINE
  8
_0-5_寸法線
  6
CONTINUOUS
 62
    7
 10
1565.7763929071748
 20
798.67101827676231
 11
1577.3675028226435
 21
801.77684681799269
  0
LINE
  8
_0-5_寸法線
  6
CONTINUOUS
 62
    7
 10
1565.7763929071748
 20
798.67101827676231
 11
1577.3675028226435
 21
795.56518973553216
  0
LINE
  8
_0-5_寸法線
  6
CONTINUOUS
 62
    7
 10
1630.7763929071746
 20
859.31795695064841
 11
1630.7763929071746
 21
792.67101827676231
  0
LINE
  8
_0-5_寸法線
  6
CONTINUOUS
 62
    7
 10
1630.7763929071746
 20
798.67101827676231
 11
1619.1852829917057
 21
795.56518973553216
  0
LINE
  8
_0-5_寸法線
  6
CONTINUOUS
 62
    7
 10
1630.7763929071746
 20
798.67101827676231
 11
1619.1852829917057
 21
801.77684681799246
  0
LINE
  8
_0-5_寸法線
  6
CONTINUOUS
 62
    7
 10
1565.7763929071748
 20
798.67101827676231
 11
1630.7763929071746
 21
798.67101827676231
  0
TEXT
  8
_0-5_寸法線
 62
    7
 10
1589.2763929071755
 20
798.67101827676231
 40
18
 41
1
 50
0
  1
65
  0
LINE
  8
_0-0_計極細
  6
CONTINUOUS
 62
    2
 10
199.8130409319046
 20
904.17101929678893
 11
199.8130409319046
 21
903.57101932079945
  0
LINE
  8
_0-0_計極細
  6
CONTINUOUS
 62
    2
 10
199.8130409319046
 20
883.77102011279953
 11
199.8130409319046
 21
883.17102013681006
  0
LINE
  8
_0-0_計極細
  6
CONTINUOUS
 62
    2
 10
1346.3174031891324
 20
893.67101827678846
 11
800.59188307003615
 21
917.43903882423365
  0
LINE
  8
_0-0_計極細
  6
CONTINUOUS
 62
    2
 10
1346.3174031891319
 20
893.67101827673628
 11
800.59188307003615
 21
869.90299772929109
  0
ARC
  8
_0-0_計極細
  6
CONTINUOUS
 62
    2
 10
745.15570337808299
 20
911.6710182767622
 40
40.671428571426191
 50
153.73195538720606
 51
206.26804461279357
  0
ARC
  8
_0-0_計極細
  6
CONTINUOUS
 62
    2
 10
672.21284623523024
 20
875.67101827676288
 40
40.671428571426773
 50
333.73195538720626
 51
26.268044612788714
  0
LINE
  8
_0-1_計細線
  6
CONTINUOUS
 62
    3
 10
708.68427480665696
 20
929.67101827676186
 11
192.8130412119462
 21
929.67101827676186
  0
LINE
  8
_0-1_計細線
  6
CONTINUOUS
 62
    3
 10
192.8130412119462
 20
919.67101827676197
 11
705.27882910187316
 21
919.67101827676197
  0
LINE
  8
_0-1_計細線
  6
CONTINUOUS
 62
    3
 10
704.56118278674421
 20
914.17101827676231
 11
192.8130412119462
 21
914.17101827676231
  0
LINE
  8
_0-0_計極細
  6
CONTINUOUS
 62
    2
 10
704.63771469043309
 20
915.20056424587756
 11
756.03419935385728
 21
917.43903882423365
  0
LINE
  8
_0-1_計細線
  6
CONTINUOUS
 62
    3
 10
192.8130412119462
 20
904.17101827676242
 11
705.18177309795419
 21
904.17101827676242
  0
LINE
  8
_0-1_計細線
  6
CONTINUOUS
 62
    3
 10
706.61786350555553
 20
898.67101827676242
 11
226.8130398519051
 21
898.67101827676242
  0
LINE
  8
_0-1_計細線
  6
CONTINUOUS
 62
    3
 10
226.8130398519051
 20
888.67101827676231
 11
710.75068610775952
 21
888.67101827676231
  0
LINE
  8
_0-1_計細線
  6
CONTINUOUS
 62
    3
 10
712.18677651536018
 20
883.17101827676288
 11
192.8130412119462
 21
883.17101827676288
  0
LINE
  8
_0-1_計細線
  6
CONTINUOUS
 62
    3
 10
192.8130412119462
 20
873.17101827676277
 11
712.80736682656971
 21
873.17101827676277
  0
LINE
  8
_0-1_計細線
  6
CONTINUOUS
 62
    3
 10
712.08972051144019
 20
867.67101827676333
 11
192.8130412119462
 21
867.67101827676333
  0
LINE
  8
_0-1_計細線
  6
CONTINUOUS
 62
    3
 10
192.8130412119462
 20
857.67101827676322
 11
708.68427480665684
 21
857.67101827676322
  0
LINE
  8
_0-0_計極細
  6
CONTINUOUS
 62
    2
 10
712.69871825247992
 20
871.79039087342369
 11
756.03419935385728
 21
869.90299772929109
  0
TEXT
  8
_0-5_寸法線
 62
    7
 10
531.8109331252931
 20
948.54308679393353
 40
24
 41
1
 50
0
  1
Ａ’
  0
TEXT
  8
_0-5_寸法線
 62
    7
 10
532.07770294123566
 20
815.11282738909529
 40
24
 41
1
 50
0
  1
Ａ
  0
LINE
  8
_0-5_寸法線
  6
CONTINUOUS
 62
    7
 10
181.31304121194626
 20
952.67101827676242
 11
181.31304121194651
 21
1036.6710182767624
  0
LINE
  8
_0-5_寸法線
  6
CONTINUOUS
 62
    7
 10
181.31304121194643
 20
1030.6710182767624
 11
192.9041511274153
 21
1033.7768468179925
  0
LINE
  8
_0-5_寸法線
  6
CONTINUOUS
 62
    7
 10
181.31304121194643
 20
1030.6710182767624
 11
192.9041511274153
 21
1027.5651897355322
  0
LINE
  8
_0-5_寸法線
  6
CONTINUOUS
 62
    7
 10
1375.3130412119458
 20
952.67101827676242
 11
1375.3130412119458
 21
1036.6710182767624
  0
LINE
  8
_0-5_寸法線
  6
CONTINUOUS
 62
    7
 10
1375.3130412119458
 20
1030.6710182767624
 11
1363.7219312964771
 21
1027.5651897355322
  0
LINE
  8
_0-5_寸法線
  6
CONTINUOUS
 62
    7
 10
1375.3130412119458
 20
1030.6710182767624
 11
1363.7219312964771
 21
1033.7768468179925
  0
LINE
  8
_0-5_寸法線
  6
CONTINUOUS
 62
    7
 10
181.31304121194643
 20
1030.6710182767624
 11
1375.3130412119458
 21
1030.6710182767624
  0
TEXT
  8
_0-5_寸法線
 62
    7
 10
760.31304121194637
 20
1030.6710182767624
 40
18
 41
1
 50
0
  1
1194
  0
LINE
  8
_0-0_計極細
  6
CENTER1
 62
    2
 10
778.3130412119466
 20
964.14360313315888
 11
778.3130412119466
 21
647.15984914418345
  0
LINE
  8
_0-5_寸法線
  6
CONTINUOUS
 62
    7
 10
181.31304121194626
 20
834.67101827676231
 11
181.31304121194617
 21
780.67101827676231
  0
LINE
  8
_0-5_寸法線
  6
CONTINUOUS
 62
    7
 10
181.31304121194617
 20
786.67101827676231
 11
192.90415112741496
 21
789.77684681799269
  0
LINE
  8
_0-5_寸法線
  6
CONTINUOUS
 62
    7
 10
181.31304121194617
 20
786.67101827676231
 11
192.90415112741496
 21
783.56518973553216
  0
LINE
  8
_0-5_寸法線
  6
CONTINUOUS
 62
    7
 10
778.3130412119466
 20
834.67101827676231
 11
778.3130412119466
 21
780.67101827676231
  0
LINE
  8
_0-5_寸法線
  6
CONTINUOUS
 62
    7
 10
778.3130412119466
 20
786.67101827676231
 11
766.72193129647781
 21
783.56518973553216
  0
LINE
  8
_0-5_寸法線
  6
CONTINUOUS
 62
    7
 10
778.3130412119466
 20
786.67101827676231
 11
766.72193129647781
 21
789.77684681799269
  0
LINE
  8
_0-5_寸法線
  6
CONTINUOUS
 62
    7
 10
181.31304121194617
 20
786.67101827676231
 11
778.3130412119466
 21
786.67101827676231
  0
TEXT
  8
_0-5_寸法線
 62
    7
 10
466.31304121194626
 20
786.67101827676231
 40
18
 41
1
 50
0
  1
597
  0
LINE
  8
_0-5_寸法線
  6
CONTINUOUS
 62
    7
 10
778.3130412119466
 20
786.67101827676231
 11
789.90415112741539
 21
789.77684681799246
  0
LINE
  8
_0-5_寸法線
  6
CONTINUOUS
 62
    7
 10
778.3130412119466
 20
786.67101827676231
 11
789.90415112741539
 21
783.56518973553216
  0
LINE
  8
_0-5_寸法線
  6
CONTINUOUS
 62
    7
 10
1375.3130412119458
 20
834.67101827676231
 11
1375.3130412119458
 21
780.67101827676231
  0
LINE
  8
_0-5_寸法線
  6
CONTINUOUS
 62
    7
 10
1375.3130412119458
 20
786.67101827676231
 11
1363.7219312964767
 21
783.56518973553216
  0
LINE
  8
_0-5_寸法線
  6
CONTINUOUS
 62
    7
 10
1375.3130412119458
 20
786.67101827676231
 11
1363.7219312964767
 21
789.77684681799269
  0
LINE
  8
_0-5_寸法線
  6
CONTINUOUS
 62
    7
 10
778.3130412119466
 20
786.67101827676231
 11
1375.3130412119458
 21
786.67101827676231
  0
TEXT
  8
_0-5_寸法線
 62
    7
 10
1063.3130412119463
 20
786.67101827676231
 40
18
 41
1
 50
0
  1
597
  0
LINE
  8
_0-5_寸法線
  6
CONTINUOUS
 62
    7
 10
615.37135826586666
 20
936.73577968566133
 11
618.47718680709681
 21
948.32688960113012
  0
LINE
  8
_0-5_寸法線
  6
CONTINUOUS
 62
    7
 10
615.37135826586666
 20
936.73577968566133
 11
623.85663964010519
 21
945.22106105989974
  0
LINE
  8
_0-5_寸法線
  6
CONTINUOUS
 62
    7
 10
615.37135826586666
 20
936.73577968566133
 11
630.79159477210044
 21
963.44441277918656
  0
LINE
  8
_0-5_寸法線
  6
CONTINUOUS
 62
    7
 10
630.79159477210044
 20
963.44441277918656
 11
745.99159477210071
 21
963.44441277918656
  0
TEXT
  8
_0-5_寸法線
 62
    7
 10
630.79159477210055
 20
963.44441277918656
 40
18
 41
0.7999999999999998
 50
0
  1
排水ユニット本体
  0
ENDSEC
  0
EOF
