  0
SECTION
  2
HEADER
  9
$ACADVER
  1
AC1009
  9
$INSBASE
 10
0
 20
0
 30
0
  9
$EXTMIN
 10
0
 20
0
  9
$EXTMAX
 10
2376
 20
1680
  9
$LIMMIN
 10
0
 20
0
  9
$LIMMAX
 10
2376
 20
1680
  9
$LTSCALE
 40
8
  0
ENDSEC
  0
SECTION
  2
TABLES
  0
TABLE
  2
LTYPE
 70
     9
  0
LTYPE
  2
CONTINUOUS
 70
    64
  3
実線
 72
    65
 73
     0
 40
0.0
  0
LTYPE
  2
DASHED1
 70
    64
  3
--  --  --  --  --  --  --  --  
 72
    65
 73
     2
 40
2.5
 49
1.25
 49
-1.25
  0
LTYPE
  2
DASHED2
 70
    64
  3
----    ----    ----    ----    
 72
    65
 73
     2
 40
5.0
 49
2.5
 49
-2.5
  0
LTYPE
  2
DASHED3
 70
    64
  3
------  ------  ------  ------  
 72
    65
 73
     2
 40
5.0
 49
3.75
 49
-1.25
  0
LTYPE
  2
CENTER1
 70
    64
  3
----- - ----- - ----- - ----- - 
 72
    65
 73
     4
 40
10.0
 49
6.25
 49
-1.25
 49
1.25
 49
-1.25
  0
LTYPE
  2
CENTER2
 70
    64
  3
----------  --  ----------  --  
 72
    65
 73
     4
 40
20.0
 49
12.5
 49
-2.5
 49
2.5
 49
-2.5
  0
LTYPE
  2
PHANTOM1
 70
    64
  3
--- - - --- - - --- - - --- - - 
 72
    65
 73
     6
 40
10.0
 49
3.25
 49
-1.25
 49
1.25
 49
-1.25
 49
1.25
 49
-1.25
  0
LTYPE
  2
PHANTOM2
 70
    64
  3
--------  -  -  --------  -  -  
 72
    65
 73
     6
 40
20.0
 49
10.0
 49
-2.5
 49
1.25
 49
-2.5
 49
1.25
 49
-2.5
  0
LTYPE
  2
DOT
 70
    64
  3
-   -   -   -   -   -   -   -   
 72
    65
 73
     2
 40
2.5
 49
0.625
 49
-1.875
  0
LTYPE
  2
DUMMY
 70
    64
  3
ダミー
 72
    65
 73
     0
 40
0.0
  0
LTYPE
  2
RAND1
 70
    64
  3
ランダム線1
 72
    65
 73
     4
 40
10.0
 49
1.0
 49
-2.0
 49
3.0
 49
-4.0
  0
LTYPE
  2
RAND2
 70
    64
  3
ランダム線2
 72
    65
 73
     4
 40
14.0
 49
2.0
 49
-3.0
 49
4.0
 49
-5.0
  0
LTYPE
  2
RAND3
 70
    64
  3
ランダム線3
 72
    65
 73
     4
 40
18.0
 49
3.0
 49
-4.0
 49
5.0
 49
-6.0
  0
LTYPE
  2
RAND4
 70
    64
  3
ランダム線4
 72
    65
 73
     4
 40
22.0
 49
4.0
 49
-5.0
 49
6.0
 49
-7.0
  0
LTYPE
  2
RAND5
 70
    64
  3
ランダム線5
 72
    65
 73
     4
 40
26.0
 49
5.0
 49
-6.0
 49
7.0
 49
-8.0
  0
LTYPE
  2
LONG1
 70
    64
  3
----------  --  ----------  --  
 72
    65
 73
     4
 40
40.0
 49
32.5
 49
-2.5
 49
2.5
 49
-2.5
  0
LTYPE
  2
LONG2
 70
    64
  3
--------  -  -  --------  -  -  
 72
    65
 73
     6
 40
40.0
 49
30.0
 49
-2.5
 49
1.25
 49
-2.5
 49
1.25
 49
-2.5
  0
LTYPE
  2
LONG3
 70
    64
  3
+++++++++++++++..+++++++++++++++
 72
    65
 73
     2
 40
40.0
 49
37.5
 49
-2.5
  0
LTYPE
  2
LONG4
 70
    64
  3
+++++++++++++++..+++++++++++++++
 72
    65
 73
     2
 40
80.0
 49
75.0
 49
-5.0
  0
LTYPE
  2
LONG5
 70
    64
  3
----------  --  ----------  --  
 72
    65
 73
     4
 40
60.0
 49
37.5
 49
-7.5
 49
7.5
 49
-7.5
  0
LTYPE
  2
dashed
 70
   64
  3
-------   -------------   ------
 72
   65
 73
    2
 40
7.5
 49
6
 49
-1.5
  0
LTYPE
  2
dashed_spaced
 70
   64
  3
----        --------        ----
 72
   65
 73
    2
 40
12
 49
6
 49
-6
  0
LTYPE
  2
long_dashed_dotted
 70
   64
  3
------------- --- --------------
 72
   65
 73
    4
 40
15.25
 49
12
 49
-1.5
 49
0.25
 49
-1.5
  0
LTYPE
  2
long_dashed_double-dotted
 70
   64
  3
----------- --- --- ------------
 72
   65
 73
    6
 40
17
 49
12
 49
-1.5
 49
0.25
 49
-1.5
 49
0.25
 49
-1.5
  0
LTYPE
  2
long_dashed_triplicate-dotted
 70
   64
  3
--------- --- --- --- ----------
 72
   65
 73
    8
 40
18.75
 49
12
 49
-1.5
 49
0.25
 49
-1.5
 49
0.25
 49
-1.5
 49
0.25
 49
-1.5
  0
LTYPE
  2
dotted
 70
   64
  3
   -       -       -       -    
 72
   65
 73
    2
 40
1.75
 49
0.25
 49
-1.5
  0
LTYPE
  2
chain
 70
   64
  3
-------------- -- --------------
 72
   65
 73
    4
 40
18.5
 49
12
 49
-1.5
 49
3.5
 49
-1.5
  0
LTYPE
  2
chain_double_dash
 70
   64
  3
------------ -- -- -------------
 72
   65
 73
    6
 40
23.5
 49
12
 49
-1.5
 49
3.5
 49
-1.5
 49
3.5
 49
-1.5
  0
LTYPE
  2
dashed_dotted
 70
   64
  3
-----------     -     ----------
 72
   65
 73
    4
 40
9.25
 49
6
 49
-1.5
 49
0.25
 49
-1.5
  0
LTYPE
  2
double-dashed_dotted
 70
   64
  3
------   -----------   -   -----
 72
   65
 73
    6
 40
16.75
 49
6
 49
-1.5
 49
6
 49
-1.5
 49
0.25
 49
-1.5
  0
LTYPE
  2
dashed_double-dotted
 70
   64
  3
---------    -    -    ---------
 72
   65
 73
    6
 40
11
 49
6
 49
-1.5
 49
0.25
 49
-1.5
 49
0.25
 49
-1.5
  0
LTYPE
  2
double-dashed_double-dotted
 70
   64
  3
-----   ---------   -   -   ----
 72
   65
 73
    8
 40
18.5
 49
6
 49
-1.5
 49
6
 49
-1.5
 49
0.25
 49
-1.5
 49
0.25
 49
-1.5
  0
LTYPE
  2
dashed_triplicate-dotted
 70
   64
  3
-------    -    -    -    ------
 72
   65
 73
    8
 40
12.75
 49
6
 49
-1.5
 49
0.25
 49
-1.5
 49
0.25
 49
-1.5
 49
0.25
 49
-1.5
  0
LTYPE
  2
double-dashed_triplicate-dotted
 70
   64
  3
-----  ---------  -  -  -  -----
 72
   65
 73
   10
 40
20.25
 49
6
 49
-1.5
 49
6
 49
-1.5
 49
0.25
 49
-1.5
 49
0.25
 49
-1.5
 49
0.25
 49
-1.5
  0
LTYPE
  2
undefined
 70
   64
  3
--------------------------------
 72
   65
 73
    0
 40
0
  0
ENDTAB
  0
TABLE
  2
STYLE
  5
3
100
AcDbSymbolTable
 70
     1
  0
STYLE
  5
10
100
AcDbSymbolTableRecord
100
AcDbTextStyleTableRecord
  2
STANDARD
 70
     0
 40
0.0
 41
1.0
 50
0.0
 71
     0
 42
0.2
  3
txt
  4
bigfont.shx
  0
STYLE
  5
26
100
AcDbSymbolTableRecord
100
AcDbTextStyleTableRecord
  2
TATEGAKI
 70
    68
 40
0.0
 41
1.0
 50
0.0
 71
     0
 42
1.0
  3
txt
  4
bigfont.shx
  0
ENDTAB
  0
TABLE
  2
LAYER
 70
    9
  0
LAYER
  2
_0-0_計極細
 70
   64
 62
    7
  6
CONTINUOUS
  0
LAYER
  2
_0-1_計細線
 70
   64
 62
    7
  6
CONTINUOUS
  0
LAYER
  2
_0-5_寸法線
 70
   64
 62
    7
  6
CONTINUOUS
  0
LAYER
  2
_0-7_枠細線
 70
   64
 62
    7
  6
CONTINUOUS
  0
LAYER
  2
_0-8_枠中線
 70
   64
 62
    7
  6
CONTINUOUS
  0
LAYER
  2
_1-2_極細2
 70
   64
 62
    7
  6
CONTINUOUS
  0
LAYER
  2
_1-3_細線2
 70
   64
 62
    7
  6
CONTINUOUS
  0
LAYER
  2
_1-5_寸法2
 70
   64
 62
    7
  6
CONTINUOUS
  0
LAYER
  2
ADD_LINE
 70
   64
 62
    7
  6
CONTINUOUS
  0
ENDTAB
  0
ENDSEC
  0
SECTION
  2
BLOCKS
  0
ENDSEC
  0
SECTION
  2
ENTITIES
  0
LINE
  8
_0-8_枠中線
  6
CONTINUOUS
 62
    5
 10
96
 20
96
 11
96
 21
1536
  0
LINE
  8
_0-8_枠中線
  6
CONTINUOUS
 62
    5
 10
96
 20
1536
 11
2280
 21
1536
  0
LINE
  8
_0-8_枠中線
  6
CONTINUOUS
 62
    5
 10
2280
 20
1536
 11
2280
 21
96
  0
LINE
  8
_0-8_枠中線
  6
CONTINUOUS
 62
    5
 10
2280
 20
96
 11
96
 21
96
  0
LINE
  8
_0-7_枠細線
  6
CONTINUOUS
 62
    5
 10
1896
 20
288
 11
1896
 21
160
  0
TEXT
  8
_0-7_枠細線
 62
    5
 10
1500
 20
156
 40
28
 41
1
 50
0
  1
備考
  7
TATEGAKI
  0
TEXT
  8
_0-7_枠細線
 62
    5
 10
1500
 20
220
 40
28
 41
1
 50
0
  1
品番
  7
TATEGAKI
  0
TEXT
  8
_0-7_枠細線
 62
    5
 10
1500
 20
284
 40
28
 41
1
 50
0
  1
品名
  7
TATEGAKI
  0
LINE
  8
_0-7_枠細線
  6
CONTINUOUS
 62
    5
 10
1896
 20
224
 11
1480
 21
224
  0
LINE
  8
_0-7_枠細線
  6
CONTINUOUS
 62
    5
 10
1520
 20
288
 11
1520
 21
96
  0
LINE
  8
_0-8_枠中線
  6
CONTINUOUS
 62
    5
 10
2280
 20
288
 11
1480
 21
288
  0
LINE
  8
_0-8_枠中線
  6
CONTINUOUS
 62
    5
 10
1480
 20
288
 11
1480
 21
96
  0
LINE
  8
_0-7_枠細線
  6
CONTINUOUS
 62
    5
 10
1992
 20
288
 11
1992
 21
96
  0
TEXT
  8
_0-7_枠細線
 62
    5
 10
1908
 20
256
 40
24
 41
1
 50
0
  1
縮　尺
  0
LINE
  8
_0-7_枠細線
  6
CONTINUOUS
 62
    5
 10
1896
 20
248
 11
1992
 21
248
  0
LINE
  8
_0-7_枠細線
  6
CONTINUOUS
 62
    5
 10
1992
 20
160
 11
1480
 21
160
  0
LINE
  8
_0-7_枠細線
  6
CONTINUOUS
 62
    5
 10
2280
 20
144
 11
1992
 21
144
  0
LINE
  8
_0-7_枠細線
  6
CONTINUOUS
 62
    5
 10
1992
 20
192
 11
2280
 21
192
  0
LINE
  8
_0-7_枠細線
  6
CONTINUOUS
 62
    5
 10
2280
 20
224
 11
1992
 21
224
  0
TEXT
  8
_0-7_枠細線
 62
    5
 10
2008
 20
236
 40
40
 41
0.8
 50
0
  1
株式会社シマブン
  0
TEXT
  8
_0-7_枠細線
 62
    5
 10
2004
 20
96
 40
24
 41
1
 50
0
  1
年月日
  0
TEXT
  8
_0-7_枠細線
 62
    5
 10
2004
 20
120
 40
24
 41
1
 50
0
  1
作　成
  0
TEXT
  8
_0-7_枠細線
 62
    5
 10
2010
 20
196
 40
24
 41
1
 50
0
  1
承 認
  0
LINE
  8
_0-7_枠細線
  6
CONTINUOUS
 62
    5
 10
2088
 20
224
 11
2088
 21
96
  0
TEXT
  8
_0-7_枠細線
 62
    5
 10
2106
 20
196
 40
24
 41
1
 50
0
  1
検 図
  0
LINE
  8
_0-7_枠細線
  6
CONTINUOUS
 62
    5
 10
2184
 20
224
 11
2184
 21
144
  0
TEXT
  8
_0-7_枠細線
 62
    5
 10
2202
 20
196
 40
24
 41
1
 50
0
  1
設 計
  0
LINE
  8
_0-7_枠細線
  6
CONTINUOUS
 62
    5
 10
2280
 20
1508
 11
1424
 21
1508
  0
TEXT
  8
_0-7_枠細線
 62
    5
 10
1432
 20
1511.9999999999993
 40
20
 41
1
 50
0
  1
記号
  0
TEXT
  8
_0-7_枠細線
 62
    5
 10
1595
 20
1512
 40
20
 41
1
 50
0
  1
訂　 正　 記　 事
  0
TEXT
  8
_0-7_枠細線
 62
    5
 10
1890
 20
1512
 40
20
 41
1
 50
0
  1
訂 正 年 月 日
  0
TEXT
  8
_0-7_枠細線
 62
    5
 10
2090
 20
1512
 40
20
 41
1
 50
0
  1
備　　　　　考
  0
LINE
  8
_0-7_枠細線
  6
CONTINUOUS
 62
    5
 10
2280
 20
1480
 11
1424
 21
1480
  0
TEXT
  8
_0-7_枠細線
 62
    5
 10
2200
 20
152
 40
32
 41
1
 50
0
  1
藤戸
  0
LINE
  8
_0-1_計細線
  6
CONTINUOUS
 62
    3
 10
1723.4465993058161
 20
796.64196472428898
 11
1723.4465943692962
 21
796.6433281967345
  0
LINE
  8
_0-7_枠細線
  6
CONTINUOUS
 62
    5
 10
1424
 20
1480
 11
1424
 21
1535.9999999999991
  0
LINE
  8
_0-7_枠細線
  6
CONTINUOUS
 62
    5
 10
1480
 20
1480
 11
1480
 21
1535.9999999999991
  0
LINE
  8
_0-7_枠細線
  6
CONTINUOUS
 62
    5
 10
1880
 20
1480
 11
1880
 21
1536
  0
LINE
  8
_0-7_枠細線
  6
CONTINUOUS
 62
    5
 10
2040
 20
1480
 11
2040
 21
1535.9999999999991
  0
TEXT
  8
_0-7_枠細線
 62
    5
 10
2008
 20
152
 40
32
 41
1
 50
0
  1
大野
  0
TEXT
  8
_0-7_枠細線
 62
    5
 10
2104
 20
152
 40
32
 41
1
 50
0
  1
深川
  0
TEXT
  8
_0-7_枠細線
 62
    5
 10
2096
 20
108
 40
24
 41
0.6666666666666666
 50
0
  1
２０１５年０４月０１日
  0
LINE
  8
_1-3_細線2
  6
CONTINUOUS
 62
    4
 10
501.77184562062962
 20
449.36036130602179
 11
501.77184562062962
 21
442.16036130613429
  0
LINE
  8
_1-3_細線2
  6
CONTINUOUS
 62
    4
 10
247.77184587462966
 20
449.36036130602162
 11
271.19683502846931
 21
449.36036130602162
  0
LINE
  8
_1-3_細線2
  6
CONTINUOUS
 62
    4
 10
271.19683502846931
 20
449.36036130602179
 11
281.37184584103056
 21
430.15913343542582
  0
LINE
  8
_1-3_細線2
  6
CONTINUOUS
 62
    4
 10
247.77184587462966
 20
449.36036130602179
 11
247.77184587462966
 21
442.16036130613429
  0
ARC
  8
_1-3_細線2
  6
CONTINUOUS
 62
    4
 10
281.48338184091813
 20
461.76036130593786
 40
5.9999999939999995
 50
7.1889771515933107
 51
89.999999999999915
  0
LINE
  8
_1-3_細線2
  6
CONTINUOUS
 62
    4
 10
281.48338184091813
 20
467.76036130587784
 11
245.77184587662964
 21
467.76036130587784
  0
LINE
  8
_1-3_細線2
  6
CONTINUOUS
 62
    4
 10
374.77184574762987
 20
467.76036130587784
 11
281.48338184091813
 21
467.76036130587784
  0
LINE
  8
_1-3_細線2
  6
CONTINUOUS
 62
    4
 10
287.4362146060937
 20
462.51121548475658
 11
294.7718458276297
 21
404.14979426080072
  0
LINE
  8
_1-3_細線2
  6
CONTINUOUS
 62
    4
 10
294.7718458276297
 20
404.14979426080072
 11
294.7718458276297
 21
370.96036130684661
  0
LINE
  8
_1-3_細線2
  6
CONTINUOUS
 62
    4
 10
259.77184586262979
 20
430.16036130625434
 11
270.77184585162945
 21
430.16036130625434
  0
LINE
  8
_1-3_細線2
  6
CONTINUOUS
 62
    4
 10
270.77184585162945
 20
430.16036130625434
 11
270.77184585162945
 21
390.16036130665418
  0
LINE
  8
_1-3_細線2
  6
CONTINUOUS
 62
    4
 10
281.37184584103056
 20
390.16036130665418
 11
270.77184585162945
 21
390.16036130665418
  0
LINE
  8
_1-3_細線2
  6
CONTINUOUS
 62
    4
 10
281.37184584103056
 20
430.15913343542582
 11
281.37184584103056
 21
390.16036130665418
  0
LINE
  8
_1-3_細線2
  6
CONTINUOUS
 62
    4
 10
281.37184584103056
 20
390.16036130665418
 11
281.37184584103056
 21
302.94811064086025
  0
ARC
  8
_1-3_細線2
  6
CONTINUOUS
 62
    4
 10
259.77184586262979
 20
442.16036130613429
 40
11.999999987999999
 50
179.99999999999983
 51
269.99999999999977
  0
LINE
  8
_1-3_細線2
  6
CONTINUOUS
 62
    4
 10
281.37184584103056
 20
449.76036130605792
 11
281.37184584103056
 21
430.16036130625434
  0
LINE
  8
_1-3_細線2
  6
CONTINUOUS
 62
    4
 10
285.37184583703061
 20
390.16036130665418
 11
281.37184584103056
 21
390.16036130665418
  0
LINE
  8
_1-3_細線2
  6
CONTINUOUS
 62
    4
 10
502.77184561962952
 20
457.76036130597788
 11
502.77184561962952
 21
453.36036130602162
  0
ARC
  8
_1-3_細線2
  6
CONTINUOUS
 62
    4
 10
489.77184563262983
 20
442.16036130613429
 40
11.999999987999999
 50
269.99999999999977
 51
359.99999999999966
  0
LINE
  8
_1-3_細線2
  6
CONTINUOUS
 62
    4
 10
466.7718456556297
 20
430.16036130625434
 11
466.7718456556297
 21
390.16036130665418
  0
LINE
  8
_1-3_細線2
  6
CONTINUOUS
 62
    4
 10
478.77184564363006
 20
430.16036130625434
 11
478.77184564363006
 21
390.16036130665418
  0
LINE
  8
_1-3_細線2
  6
CONTINUOUS
 62
    4
 10
503.77184561862964
 20
457.76036130597788
 11
503.77184561862964
 21
467.76036130587784
  0
LINE
  8
_1-3_細線2
  6
CONTINUOUS
 62
    4
 10
356.98217109875281
 20
393.54323597328732
 11
361.30862976109404
 21
394.17283063994756
  0
LINE
  8
_1-3_細線2
  6
CONTINUOUS
 62
    4
 10
365.73751508999749
 20
394.62599863994302
 11
370.23512041883225
 21
394.89928397327304
  0
LINE
  8
_1-3_細線2
  6
CONTINUOUS
 62
    4
 10
361.30862976109404
 20
394.17283063994756
 11
365.73751508999749
 21
394.62599863994302
  0
LINE
  8
_1-3_細線2
  6
CONTINUOUS
 62
    4
 10
370.23512041883225
 20
394.89928397327304
 11
374.76721641430072
 21
394.99061197327194
  0
LINE
  8
_1-3_細線2
  6
CONTINUOUS
 62
    4
 10
348.76721644030044
 20
391.77522530663856
 11
352.791067102944
 21
392.7419986399612
  0
LINE
  8
_1-3_細線2
  6
CONTINUOUS
 62
    4
 10
344.94124311079418
 20
390.65025997331605
 11
348.76721644030044
 21
391.77522530663856
  0
LINE
  8
_1-3_細線2
  6
CONTINUOUS
 62
    4
 10
334.93290712080125
 20
386.41751864002526
 11
337.99766445107252
 21
387.96117730667629
  0
LINE
  8
_1-3_細線2
  6
CONTINUOUS
 62
    4
 10
327.63921646142921
 20
381.13344930674458
 11
329.73389912600169
 21
382.99061197339171
  0
LINE
  8
_1-3_細線2
  6
CONTINUOUS
 62
    4
 10
332.17131245689711
 20
384.75644664004142
 11
334.93290712080125
 21
386.41751864002526
  0
LINE
  8
_1-3_細線2
  6
CONTINUOUS
 62
    4
 10
329.73389912600169
 20
382.99061197339171
 11
332.17131245689711
 21
384.75644664004142
  0
LINE
  8
_1-3_細線2
  6
CONTINUOUS
 62
    4
 10
337.99766445107252
 20
387.96117730667629
 11
341.34226178105894
 21
389.37567863999504
  0
LINE
  8
_1-3_細線2
  6
CONTINUOUS
 62
    4
 10
341.34226178105894
 20
389.37567863999504
 11
344.94124311079418
 21
390.65025997331605
  0
LINE
  8
_1-3_細線2
  6
CONTINUOUS
 62
    4
 10
374.77184574762987
 20
394.96036130660679
 11
294.7718458276297
 21
394.96036130660679
  0
LINE
  8
_1-3_細線2
  6
CONTINUOUS
 62
    4
 10
352.791067102944
 20
392.7419986399612
 11
356.98217109875281
 21
393.54323597328732
  0
LINE
  8
_1-3_細線2
  6
CONTINUOUS
 62
    4
 10
386.77184573562977
 20
430.16036130625434
 11
386.77184573562977
 21
390.16036130665418
  0
ARC
  8
_1-3_細線2
  6
CONTINUOUS
 62
    4
 10
281.48338184091813
 20
461.76036130593786
 40
3.9999999960000006
 50
7.1641169999942695
 51
89.999999999999915
  0
ARC
  8
_1-3_細線2
  6
CONTINUOUS
 62
    4
 10
273.37184584903048
 20
449.76036130605792
 40
7.9999999920000011
 50
0
 51
89.999999999999915
  0
LINE
  8
_1-3_細線2
  6
CONTINUOUS
 62
    4
 10
246.77184587562954
 20
457.76036130597788
 11
246.77184587562954
 21
453.36036130602162
  0
LINE
  8
_1-3_細線2
  6
CONTINUOUS
 62
    4
 10
280.51607517521973
 20
453.36036130602162
 11
246.77184587562954
 21
453.36036130602162
  0
LINE
  8
_1-3_細線2
  6
CONTINUOUS
 62
    4
 10
273.37184584903048
 20
457.76036130597788
 11
245.77184587662964
 21
457.76036130597788
  0
LINE
  8
_1-3_細線2
  6
CONTINUOUS
 62
    4
 10
281.48338184091813
 20
465.76036130589785
 11
245.77184587662964
 21
465.76036130589785
  0
LINE
  8
_1-3_細線2
  6
CONTINUOUS
 62
    4
 10
290.29584049877053
 20
439.76036130615796
 11
288.28010716745507
 21
439.76036130615796
  0
LINE
  8
_1-3_細線2
  6
CONTINUOUS
 62
    4
 10
281.37184584103056
 20
437.76036130617797
 11
285.37184583703061
 21
437.76036130617797
  0
LINE
  8
_1-3_細線2
  6
CONTINUOUS
 62
    4
 10
281.37184584103056
 20
430.16036130625434
 11
285.37184583703061
 21
430.16036130625434
  0
LINE
  8
_1-3_細線2
  6
CONTINUOUS
 62
    4
 10
285.45215517028339
 20
462.25920930593213
 11
288.28010716745507
 21
439.76036130615796
  0
LINE
  8
_1-3_細線2
  6
CONTINUOUS
 62
    4
 10
245.77184587662964
 20
457.76036130597788
 11
245.77184587662964
 21
467.76036130587784
  0
LINE
  8
_1-3_細線2
  6
CONTINUOUS
 62
    4
 10
374.77184574762987
 20
430.16036130625434
 11
489.77184563262983
 21
430.16036130625434
  0
LINE
  8
_1-3_細線2
  6
CONTINUOUS
 62
    4
 10
374.77184574762987
 20
390.16036130665418
 11
478.77184564363006
 21
390.16036130665418
  0
LINE
  8
_1-3_細線2
  6
CONTINUOUS
 62
    4
 10
374.77184574762987
 20
467.76036130587784
 11
503.77184561862964
 21
467.76036130587784
  0
LINE
  8
_1-3_細線2
  6
CONTINUOUS
 62
    4
 10
374.77184574762987
 20
457.76036130597788
 11
503.77184561862964
 21
457.76036130597788
  0
LINE
  8
_1-3_細線2
  6
CONTINUOUS
 62
    4
 10
374.77184574762987
 20
453.36036130602162
 11
502.77184561962952
 21
453.36036130602162
  0
LINE
  8
_1-3_細線2
  6
CONTINUOUS
 62
    4
 10
468.14021898759461
 20
302.91648397419249
 11
464.13867232492998
 21
298.91494264089999
  0
LINE
  8
_1-3_細線2
  6
CONTINUOUS
 62
    4
 10
324.53907779786061
 20
377.20227064011698
 11
325.90320046316504
 21
379.19909730676375
  0
LINE
  8
_1-3_細線2
  6
CONTINUOUS
 62
    4
 10
323.55721646551103
 20
375.15816930680433
 11
324.53907779786061
 21
377.20227064011698
  0
LINE
  8
_1-3_細線2
  6
CONTINUOUS
 62
    4
 10
308.77184581362985
 20
375.88079330679648
 11
308.77184581362985
 21
370.96036130684661
  0
LINE
  8
_1-3_細線2
  6
CONTINUOUS
 62
    4
 10
322.76721646630051
 20
370.99061197351176
 11
322.96509379943711
 21
373.08235064015844
  0
LINE
  8
_1-3_細線2
  6
CONTINUOUS
 62
    4
 10
322.96509379943711
 20
373.08235064015844
 11
323.55721646551103
 21
375.15816930680433
  0
LINE
  8
_1-3_細線2
  6
CONTINUOUS
 62
    4
 10
374.77184574762987
 20
370.96036130684661
 11
294.7718458276297
 21
370.96036130684661
  0
LINE
  8
_1-3_細線2
  6
CONTINUOUS
 62
    4
 10
374.77184574762987
 20
358.96036130696666
 11
294.7718458276297
 21
358.96036130696666
  0
LINE
  8
_1-3_細線2
  6
CONTINUOUS
 62
    4
 10
294.7718458276297
 20
358.96036130696666
 11
294.7718458276297
 21
298.96036130756659
  0
LINE
  8
_1-3_細線2
  6
CONTINUOUS
 62
    4
 10
281.40347250766467
 20
302.91648397419249
 11
285.4050191703293
 21
298.91494264089999
  0
LINE
  8
_1-3_細線2
  6
CONTINUOUS
 62
    4
 10
374.77184574762987
 20
298.96036130756659
 11
285.37184583703061
 21
298.96036130756659
  0
LINE
  8
_1-3_細線2
  6
CONTINUOUS
 62
    4
 10
374.77184574762987
 20
302.96036130752657
 11
468.17184565422872
 21
302.96036130752657
  0
LINE
  8
_1-3_細線2
  6
CONTINUOUS
 62
    4
 10
374.77184574762987
 20
298.96036130756659
 11
464.17184565822868
 21
298.96036130756659
  0
LINE
  8
_1-3_細線2
  6
CONTINUOUS
 62
    4
 10
285.37184583703061
 20
437.76036130617797
 11
285.37184583703061
 21
298.96036130756659
  0
LINE
  8
_1-3_細線2
  6
CONTINUOUS
 62
    4
 10
464.17184565822868
 20
390.16036130665418
 11
464.17184565822868
 21
298.96036130756659
  0
LINE
  8
_1-3_細線2
  6
CONTINUOUS
 62
    4
 10
468.17184565422872
 20
390.16036130665418
 11
468.17184565422872
 21
302.94811064086025
  0
ARC
  8
_1-3_細線2
  6
CONTINUOUS
 62
    4
 10
288.77184583362964
 20
375.88079330679648
 40
19.999999979999998
 50
0
 51
72.54987900000468
  0
LINE
  8
_1-3_細線2
  6
CONTINUOUS
 62
    4
 10
325.90320046316504
 20
379.19909730676375
 11
327.63921646142921
 21
381.13344930674458
  0
LINE
  8
_1-2_極細2
  6
CONTINUOUS
 62
    2
 10
598.3054721907622
 20
493.63036663895338
 11
548.91866157348306
 21
444.24355597277918
  0
LINE
  8
_1-2_極細2
  6
CONTINUOUS
 62
    2
 10
594.53423486119902
 20
497.40160397224747
 11
545.14742424392011
 21
448.01479330607583
  0
LINE
  8
_1-2_極細2
  6
CONTINUOUS
 62
    2
 10
215.17361657389415
 20
498.27570530557352
 11
165.78680595661501
 21
448.88889463939933
  0
LINE
  8
_1-2_極細2
  6
CONTINUOUS
 62
    2
 10
218.9448539034571
 20
494.50446797227687
 11
169.5580432861758
 21
445.11766263943775
  0
LINE
  8
_1-2_極細2
  6
CONTINUOUS
 62
    2
 10
472.77184574762987
 20
449.36036130602162
 11
374.77184574762987
 21
449.36036130602162
  0
LINE
  8
_1-2_極細2
  6
CONTINUOUS
 62
    2
 10
472.77184574762987
 20
453.36036130602162
 11
374.77184574762987
 21
453.36036130602162
  0
LINE
  8
_1-2_極細2
  6
CONTINUOUS
 62
    2
 10
502.77184574762987
 20
453.36036130602162
 11
472.77184574762987
 21
453.36036130602162
  0
LINE
  8
_1-2_極細2
  6
CONTINUOUS
 62
    2
 10
502.77184574762987
 20
449.36036130602162
 11
472.77184574762987
 21
449.36036130602162
  0
LINE
  8
_1-2_極細2
  6
CONTINUOUS
 62
    2
 10
472.77184574762987
 20
449.36036130602162
 11
472.77184574762987
 21
453.36036130602162
  0
LINE
  8
_1-2_極細2
  6
CONTINUOUS
 62
    2
 10
510.77184574762987
 20
476.16036130602271
 11
374.77184574762987
 21
476.16036130602271
  0
ARC
  8
_1-2_極細2
  6
CONTINUOUS
 62
    2
 10
510.77184574762987
 20
470.16036130602271
 40
6
 50
89.999999999999915
 51
179.99999999999983
  0
LINE
  8
_1-2_極細2
  6
CONTINUOUS
 62
    2
 10
504.77184574762987
 20
455.36036130602162
 11
504.77184574762987
 21
470.16036130602271
  0
ARC
  8
_1-2_極細2
  6
CONTINUOUS
 62
    2
 10
502.77184574762987
 20
455.36036130602162
 40
6
 50
269.99999999999977
 51
359.99999999999966
  0
LINE
  8
_1-2_極細2
  6
CONTINUOUS
 62
    2
 10
508.77184574762987
 20
470.16036130602271
 11
508.77184574762987
 21
455.36036130602162
  0
ARC
  8
_1-2_極細2
  6
CONTINUOUS
 62
    2
 10
510.77184574762987
 20
470.16036130602271
 40
2
 50
89.999999999999915
 51
179.99999999999983
  0
ARC
  8
_1-2_極細2
  6
CONTINUOUS
 62
    2
 10
502.77184574762987
 20
455.36036130602162
 40
2
 50
269.99999999999977
 51
359.99999999999966
  0
LINE
  8
_1-2_極細2
  6
CONTINUOUS
 62
    2
 10
573.29299221600309
 20
476.16036130602271
 11
510.77184574762987
 21
476.16036130602271
  0
LINE
  8
_1-2_極細2
  6
CONTINUOUS
 62
    2
 10
569.29299221996303
 20
472.16036130602271
 11
510.77184574762987
 21
472.16036130602271
  0
LINE
  8
_1-2_極細2
  6
CONTINUOUS
 62
    2
 10
246.77184574762987
 20
453.36036130602162
 11
276.77184574762987
 21
453.36036130602162
  0
LINE
  8
_1-2_極細2
  6
CONTINUOUS
 62
    2
 10
246.77184574762987
 20
449.36036130602162
 11
276.77184574762987
 21
449.36036130602162
  0
LINE
  8
_1-2_極細2
  6
CONTINUOUS
 62
    2
 10
276.77184574762987
 20
449.36036130602162
 11
276.77184574762987
 21
453.36036130602162
  0
ARC
  8
_1-2_極細2
  6
CONTINUOUS
 62
    2
 10
238.77184574762987
 20
470.16036130602271
 40
6
 50
0
 51
89.999999999999915
  0
LINE
  8
_1-2_極細2
  6
CONTINUOUS
 62
    2
 10
244.77184574762987
 20
455.36036130602162
 11
244.77184574762987
 21
470.16036130602271
  0
ARC
  8
_1-2_極細2
  6
CONTINUOUS
 62
    2
 10
246.77184574762987
 20
455.36036130602162
 40
6
 50
179.99999999999983
 51
269.99999999999977
  0
LINE
  8
_1-2_極細2
  6
CONTINUOUS
 62
    2
 10
240.77184574762987
 20
470.16036130602271
 11
240.77184574762987
 21
455.36036130602162
  0
ARC
  8
_1-2_極細2
  6
CONTINUOUS
 62
    2
 10
238.77184574762987
 20
470.16036130602271
 40
2
 50
0
 51
89.999999999999915
  0
ARC
  8
_1-2_極細2
  6
CONTINUOUS
 62
    2
 10
246.77184574762987
 20
455.36036130602162
 40
2
 50
179.99999999999983
 51
269.99999999999977
  0
LINE
  8
_1-2_極細2
  6
CONTINUOUS
 62
    2
 10
200.60074527436359
 20
476.16036130602271
 11
238.77184574762987
 21
476.16036130602271
  0
LINE
  8
_1-2_極細2
  6
CONTINUOUS
 62
    2
 10
196.60074484635925
 20
472.16036130602271
 11
238.77184574762987
 21
472.16036130602271
  0
LINE
  8
_1-2_極細2
  6
CONTINUOUS
 62
    2
 10
567.6703427760126
 20
472.16036130602299
 11
571.67034277601215
 21
476.16036130602271
  0
LINE
  8
_1-2_極細2
  6
CONTINUOUS
 62
    2
 10
564.2762302263169
 20
472.16036130602288
 11
568.27623022631678
 21
476.16036130602271
  0
LINE
  8
_1-2_極細2
  6
CONTINUOUS
 62
    2
 10
560.88211767662165
 20
472.16036130602299
 11
564.88211767662142
 21
476.16036130602271
  0
LINE
  8
_1-2_極細2
  6
CONTINUOUS
 62
    2
 10
557.48800512692605
 20
472.16036130602288
 11
561.48800512692605
 21
476.16036130602271
  0
LINE
  8
_1-2_極細2
  6
CONTINUOUS
 62
    2
 10
554.09389257723092
 20
472.16036130602299
 11
558.09389257723069
 21
476.16036130602288
  0
LINE
  8
_1-2_極細2
  6
CONTINUOUS
 62
    2
 10
550.69978002753533
 20
472.16036130602288
 11
554.69978002753533
 21
476.16036130602271
  0
LINE
  8
_1-2_極細2
  6
CONTINUOUS
 62
    2
 10
547.30566747783996
 20
472.16036130602299
 11
551.30566747783996
 21
476.16036130602288
  0
LINE
  8
_1-2_極細2
  6
CONTINUOUS
 62
    2
 10
543.9115549281446
 20
472.16036130602288
 11
547.9115549281446
 21
476.16036130602271
  0
LINE
  8
_1-2_極細2
  6
CONTINUOUS
 62
    2
 10
540.51744237844923
 20
472.16036130602299
 11
544.51744237844923
 21
476.16036130602288
  0
LINE
  8
_1-2_極細2
  6
CONTINUOUS
 62
    2
 10
537.12332982875387
 20
472.16036130602288
 11
541.12332982875364
 21
476.16036130602271
  0
LINE
  8
_1-2_極細2
  6
CONTINUOUS
 62
    2
 10
533.7292172790585
 20
472.16036130602299
 11
537.72921727905816
 21
476.16036130602288
  0
LINE
  8
_1-2_極細2
  6
CONTINUOUS
 62
    2
 10
530.33510472936291
 20
472.16036130602299
 11
534.33510472936291
 21
476.16036130602288
  0
LINE
  8
_1-2_極細2
  6
CONTINUOUS
 62
    2
 10
504.3531072378687
 20
449.57247636422392
 11
508.55973068942751
 21
453.77909981578307
  0
LINE
  8
_1-2_極細2
  6
CONTINUOUS
 62
    2
 10
526.94099217966777
 20
472.16036130602299
 11
530.94099217966743
 21
476.16036130602288
  0
LINE
  8
_1-2_極細2
  6
CONTINUOUS
 62
    2
 10
500.74687962997109
 20
449.36036130602179
 11
508.77184574762998
 21
457.38532742368062
  0
LINE
  8
_1-2_極細2
  6
CONTINUOUS
 62
    2
 10
523.54687962997218
 20
472.16036130602288
 11
527.54687962997218
 21
476.16036130602271
  0
LINE
  8
_1-2_極細2
  6
CONTINUOUS
 62
    2
 10
497.3527670802755
 20
449.36036130602162
 11
501.3527670802755
 21
453.36036130602162
  0
LINE
  8
_1-2_極細2
  6
CONTINUOUS
 62
    2
 10
504.77184574762987
 20
456.77943997337616
 11
508.77184574762987
 21
460.77943997337616
  0
LINE
  8
_1-2_極細2
  6
CONTINUOUS
 62
    2
 10
520.15276708027704
 20
472.16036130602299
 11
524.15276708027659
 21
476.16036130602288
  0
LINE
  8
_1-2_極細2
  6
CONTINUOUS
 62
    2
 10
493.95865453058013
 20
449.36036130602179
 11
497.95865453058013
 21
453.36036130602179
  0
LINE
  8
_1-2_極細2
  6
CONTINUOUS
 62
    2
 10
504.77184574762998
 20
460.17355252307163
 11
508.77184574762987
 21
464.17355252307152
  0
LINE
  8
_1-2_極細2
  6
CONTINUOUS
 62
    2
 10
516.75865453058145
 20
472.16036130602288
 11
520.75865453058123
 21
476.16036130602271
  0
LINE
  8
_1-2_極細2
  6
CONTINUOUS
 62
    2
 10
490.56454198088477
 20
449.36036130602162
 11
494.56454198088477
 21
453.36036130602162
  0
LINE
  8
_1-2_極細2
  6
CONTINUOUS
 62
    2
 10
504.77184574762987
 20
463.56766507276689
 11
508.77184574762998
 21
467.56766507276689
  0
LINE
  8
_1-2_極細2
  6
CONTINUOUS
 62
    2
 10
513.36454198088597
 20
472.16036130602299
 11
517.36454198088586
 21
476.16036130602288
  0
LINE
  8
_1-2_極細2
  6
CONTINUOUS
 62
    2
 10
487.1704294311894
 20
449.36036130602179
 11
491.1704294311894
 21
453.3603613060219
  0
LINE
  8
_1-2_極細2
  6
CONTINUOUS
 62
    2
 10
504.77184574762998
 20
466.96177762246236
 11
509.17615898674649
 21
471.36609086157853
  0
LINE
  8
_1-2_極細2
  6
CONTINUOUS
 62
    2
 10
509.56611619207399
 20
471.75604806690637
 11
513.9704294311905
 21
476.16036130602288
  0
LINE
  8
_1-2_極細2
  6
CONTINUOUS
 62
    2
 10
483.77631688149404
 20
449.36036130602162
 11
487.77631688149404
 21
453.36036130602179
  0
LINE
  8
_1-2_極細2
  6
CONTINUOUS
 62
    2
 10
504.77514090171792
 20
470.35918532624567
 11
510.57302172740697
 21
476.1570661519346
  0
LINE
  8
_1-2_極細2
  6
CONTINUOUS
 62
    2
 10
480.38220433179868
 20
449.36036130602179
 11
484.38220433179868
 21
453.36036130602179
  0
LINE
  8
_1-2_極細2
  6
CONTINUOUS
 62
    2
 10
476.98809178210308
 20
449.36036130602162
 11
480.98809178210331
 21
453.36036130602162
  0
LINE
  8
_1-2_極細2
  6
CONTINUOUS
 62
    2
 10
473.59397923240795
 20
449.36036130602179
 11
477.59397923240795
 21
453.36036130602179
  0
LINE
  8
_1-2_極細2
  6
CONTINUOUS
 62
    2
 10
472.77184574762987
 20
451.93234037093919
 11
474.19986668271235
 21
453.36036130602162
  0
LINE
  8
_1-2_極細2
  6
CONTINUOUS
 62
    2
 10
470.19986668271167
 20
449.36036130602162
 11
472.77184574762987
 21
451.93234037093981
  0
LINE
  8
_1-2_極細2
  6
CONTINUOUS
 62
    2
 10
466.80575413301631
 20
449.36036130602179
 11
470.80575413301631
 21
453.36036130602179
  0
LINE
  8
_1-2_極細2
  6
CONTINUOUS
 62
    2
 10
463.41164158332094
 20
449.36036130602162
 11
467.41164158332094
 21
453.36036130602162
  0
LINE
  8
_1-2_極細2
  6
CONTINUOUS
 62
    2
 10
460.01752903362558
 20
449.36036130602179
 11
464.01752903362558
 21
453.3603613060219
  0
LINE
  8
_1-2_極細2
  6
CONTINUOUS
 62
    2
 10
456.62341648393021
 20
449.36036130602179
 11
460.62341648393021
 21
453.36036130602179
  0
LINE
  8
_1-2_極細2
  6
CONTINUOUS
 62
    2
 10
453.22930393423485
 20
449.36036130602179
 11
457.22930393423485
 21
453.36036130602179
  0
LINE
  8
_1-2_極細2
  6
CONTINUOUS
 62
    2
 10
449.83519138453926
 20
449.36036130602162
 11
453.83519138453948
 21
453.36036130602179
  0
LINE
  8
_1-2_極細2
  6
CONTINUOUS
 62
    2
 10
446.44107883484412
 20
449.36036130602179
 11
450.44107883484412
 21
453.36036130602179
  0
LINE
  8
_1-2_極細2
  6
CONTINUOUS
 62
    2
 10
443.04696628514853
 20
449.36036130602162
 11
447.04696628514853
 21
453.36036130602162
  0
LINE
  8
_1-2_極細2
  6
CONTINUOUS
 62
    2
 10
439.65285373545305
 20
449.3603613060219
 11
443.65285373545339
 21
453.3603613060219
  0
LINE
  8
_1-2_極細2
  6
CONTINUOUS
 62
    2
 10
436.2587411857578
 20
449.36036130602179
 11
440.2587411857578
 21
453.36036130602179
  0
LINE
  8
_1-2_極細2
  6
CONTINUOUS
 62
    2
 10
432.86462863606232
 20
449.36036130602179
 11
436.86462863606232
 21
453.3603613060219
  0
LINE
  8
_1-2_極細2
  6
CONTINUOUS
 62
    2
 10
429.47051608636684
 20
449.36036130602179
 11
433.47051608636707
 21
453.36036130602179
  0
LINE
  8
_1-2_極細2
  6
CONTINUOUS
 62
    2
 10
426.07640353667159
 20
449.36036130602179
 11
430.07640353667159
 21
453.36036130602179
  0
LINE
  8
_1-2_極細2
  6
CONTINUOUS
 62
    2
 10
422.68229098697611
 20
449.36036130602162
 11
426.68229098697611
 21
453.36036130602179
  0
LINE
  8
_1-2_極細2
  6
CONTINUOUS
 62
    2
 10
419.28817843728075
 20
449.36036130602162
 11
423.28817843728086
 21
453.36036130602179
  0
LINE
  8
_1-2_極細2
  6
CONTINUOUS
 62
    2
 10
415.89406588758538
 20
449.36036130602179
 11
419.89406588758538
 21
453.36036130602179
  0
LINE
  8
_1-2_極細2
  6
CONTINUOUS
 62
    2
 10
412.49995333789002
 20
449.36036130602162
 11
416.49995333789002
 21
453.36036130602179
  0
LINE
  8
_1-2_極細2
  6
CONTINUOUS
 62
    2
 10
409.10584078819466
 20
449.36036130602179
 11
413.10584078819466
 21
453.36036130602179
  0
LINE
  8
_1-2_極細2
  6
CONTINUOUS
 62
    2
 10
405.71172823849929
 20
449.36036130602162
 11
409.71172823849929
 21
453.36036130602162
  0
LINE
  8
_1-2_極細2
  6
CONTINUOUS
 62
    2
 10
402.31761568880393
 20
449.36036130602179
 11
406.31761568880393
 21
453.36036130602179
  0
LINE
  8
_1-2_極細2
  6
CONTINUOUS
 62
    2
 10
398.92350313910833
 20
449.36036130602162
 11
402.92350313910833
 21
453.36036130602162
  0
LINE
  8
_1-2_極細2
  6
CONTINUOUS
 62
    2
 10
395.52939058941286
 20
449.36036130602162
 11
399.52939058941286
 21
453.36036130602179
  0
LINE
  8
_1-2_極細2
  6
CONTINUOUS
 62
    2
 10
392.1352780397176
 20
449.36036130602162
 11
396.1352780397176
 21
453.36036130602179
  0
LINE
  8
_1-2_極細2
  6
CONTINUOUS
 62
    2
 10
388.74116549002213
 20
449.36036130602179
 11
392.74116549002213
 21
453.36036130602179
  0
LINE
  8
_1-2_極細2
  6
CONTINUOUS
 62
    2
 10
385.34705294032665
 20
449.36036130602162
 11
389.34705294032665
 21
453.36036130602162
  0
LINE
  8
_1-2_極細2
  6
CONTINUOUS
 62
    2
 10
381.95294039063128
 20
449.36036130602179
 11
385.9529403906314
 21
453.36036130602179
  0
LINE
  8
_1-2_極細2
  6
CONTINUOUS
 62
    2
 10
378.55882784093592
 20
449.36036130602162
 11
382.55882784093592
 21
453.36036130602162
  0
LINE
  8
_1-2_極細2
  6
CONTINUOUS
 62
    2
 10
375.16471529124055
 20
449.36036130602162
 11
379.16471529124055
 21
453.36036130602179
  0
LINE
  8
_1-2_極細2
  6
CONTINUOUS
 62
    2
 10
374.77184574762998
 20
452.36160431210646
 11
375.77060274154519
 21
453.36036130602179
  0
LINE
  8
_1-2_極細2
  6
CONTINUOUS
 62
    2
 10
276.73545135007225
 20
449.36036130602179
 11
276.77184574762998
 21
449.39675570357952
  0
LINE
  8
_1-2_極細2
  6
CONTINUOUS
 62
    2
 10
273.34133880037666
 20
449.36036130602179
 11
276.77184574762998
 21
452.79086825327488
  0
LINE
  8
_1-2_極細2
  6
CONTINUOUS
 62
    2
 10
269.94722625068118
 20
449.36036130602162
 11
273.94722625068118
 21
453.36036130602179
  0
LINE
  8
_1-2_極細2
  6
CONTINUOUS
 62
    2
 10
266.55311370098593
 20
449.36036130602162
 11
270.55311370098593
 21
453.36036130602179
  0
LINE
  8
_1-2_極細2
  6
CONTINUOUS
 62
    2
 10
263.15900115129045
 20
449.36036130602162
 11
267.15900115129045
 21
453.36036130602162
  0
LINE
  8
_1-2_極細2
  6
CONTINUOUS
 62
    2
 10
259.7648886015952
 20
449.36036130602179
 11
263.7648886015952
 21
453.36036130602179
  0
LINE
  8
_1-2_極細2
  6
CONTINUOUS
 62
    2
 10
256.37077605189972
 20
449.36036130602179
 11
260.37077605189972
 21
453.36036130602179
  0
LINE
  8
_1-2_極細2
  6
CONTINUOUS
 62
    2
 10
252.97666350220436
 20
449.36036130602179
 11
256.97666350220447
 21
453.36036130602179
  0
LINE
  8
_1-2_極細2
  6
CONTINUOUS
 62
    2
 10
249.582550952509
 20
449.36036130602179
 11
253.582550952509
 21
453.36036130602179
  0
LINE
  8
_1-2_極細2
  6
CONTINUOUS
 62
    2
 10
246.21439085965858
 20
449.38631376286685
 11
250.18843840281363
 21
453.36036130602179
  0
LINE
  8
_1-2_極細2
  6
CONTINUOUS
 62
    2
 10
243.66272252079239
 20
450.22875797369579
 11
246.79432585311815
 21
453.36036130602179
  0
LINE
  8
_1-2_極細2
  6
CONTINUOUS
 62
    2
 10
241.89918631022692
 20
451.85933431282592
 11
244.849236855149
 21
454.80938485774789
  0
LINE
  8
_1-2_極細2
  6
CONTINUOUS
 62
    2
 10
240.87871419139651
 20
454.23297474369076
 11
244.77184574762987
 21
458.12610629992434
  0
LINE
  8
_1-2_極細2
  6
CONTINUOUS
 62
    2
 10
240.77184574762987
 20
457.5202188496196
 11
244.77184574762987
 21
461.5202188496196
  0
LINE
  8
_1-2_極細2
  6
CONTINUOUS
 62
    2
 10
240.77184574762987
 20
460.91433139931507
 11
244.77184574762998
 21
464.91433139931507
  0
LINE
  8
_1-2_極細2
  6
CONTINUOUS
 62
    2
 10
240.77184574762987
 20
464.30844394901044
 11
244.77184574762998
 21
468.30844394901044
  0
LINE
  8
_1-2_極細2
  6
CONTINUOUS
 62
    2
 10
240.77184574762998
 20
467.7025564987058
 11
244.61073348020113
 21
471.54144423127718
  0
LINE
  8
_1-2_極細2
  6
CONTINUOUS
 62
    2
 10
240.61408864660973
 20
470.93891194738092
 11
243.51286515575214
 21
473.83768845652349
  0
LINE
  8
_1-2_極細2
  6
CONTINUOUS
 62
    2
 10
238.44142545555633
 20
472.16036130602299
 11
241.68613131988627
 21
475.40506717035316
  0
LINE
  8
_1-2_極細2
  6
CONTINUOUS
 62
    2
 10
235.04731290586062
 20
472.16036130602299
 11
239.04126113303994
 21
476.15430953320219
  0
LINE
  8
_1-2_極細2
  6
CONTINUOUS
 62
    2
 10
231.65320035616537
 20
472.16036130602299
 11
235.65320035616537
 21
476.16036130602288
  0
LINE
  8
_1-2_極細2
  6
CONTINUOUS
 62
    2
 10
228.25908780646989
 20
472.16036130602299
 11
232.25908780646989
 21
476.16036130602288
  0
LINE
  8
_1-2_極細2
  6
CONTINUOUS
 62
    2
 10
224.86497525677464
 20
472.16036130602299
 11
228.86497525677464
 21
476.16036130602288
  0
LINE
  8
_1-2_極細2
  6
CONTINUOUS
 62
    2
 10
221.47086270707916
 20
472.16036130602288
 11
225.47086270707916
 21
476.16036130602288
  0
LINE
  8
_1-2_極細2
  6
CONTINUOUS
 62
    2
 10
218.07675015738391
 20
472.16036130602299
 11
222.0767501573838
 21
476.16036130602299
  0
LINE
  8
_1-2_極細2
  6
CONTINUOUS
 62
    2
 10
214.68263760768843
 20
472.16036130602288
 11
218.68263760768832
 21
476.16036130602288
  0
LINE
  8
_1-2_極細2
  6
CONTINUOUS
 62
    2
 10
211.28852505799307
 20
472.16036130602288
 11
215.28852505799296
 21
476.16036130602288
  0
LINE
  8
_1-2_極細2
  6
CONTINUOUS
 62
    2
 10
207.89441250829759
 20
472.16036130602288
 11
211.89441250829759
 21
476.16036130602288
  0
LINE
  8
_1-2_極細2
  6
CONTINUOUS
 62
    2
 10
204.50029995860223
 20
472.16036130602288
 11
208.50029995860223
 21
476.16036130602288
  0
LINE
  8
_1-2_極細2
  6
CONTINUOUS
 62
    2
 10
201.10618740890664
 20
472.16036130602288
 11
205.10618740890664
 21
476.16036130602271
  0
LINE
  8
_1-2_極細2
  6
CONTINUOUS
 62
    2
 10
197.71207485921127
 20
472.16036130602299
 11
201.71207485921127
 21
476.16036130602288
  0
LINE
  8
_1-2_極細2
  6
CONTINUOUS
 62
    2
 10
270.77184585162945
 20
393.19568601436578
 11
273.80717055934088
 21
390.16036130665418
  0
LINE
  8
_1-2_極細2
  6
CONTINUOUS
 62
    2
 10
270.77184585162945
 20
396.58979856406097
 11
277.20128310903624
 21
390.16036130665418
  0
LINE
  8
_1-2_極細2
  6
CONTINUOUS
 62
    2
 10
270.77184585162945
 20
399.98391111375651
 11
280.59539565873183
 21
390.16036130665418
  0
LINE
  8
_1-2_極細2
  6
CONTINUOUS
 62
    2
 10
270.77184585162945
 20
403.37802366345204
 11
281.37184584103056
 21
392.77802367405093
  0
LINE
  8
_1-2_極細2
  6
CONTINUOUS
 62
    2
 10
270.77184585162945
 20
406.77213621314741
 11
281.37184584103056
 21
396.17213622374612
  0
LINE
  8
_1-2_極細2
  6
CONTINUOUS
 62
    2
 10
270.77184585162945
 20
410.16624876284277
 11
281.37184584103056
 21
399.56624877344166
  0
LINE
  8
_1-2_極細2
  6
CONTINUOUS
 62
    2
 10
270.77184585162945
 20
413.56036131253825
 11
281.37184584103056
 21
402.96036132313714
  0
LINE
  8
_1-2_極細2
  6
CONTINUOUS
 62
    2
 10
248.02689930658539
 20
439.69942040727801
 11
257.31090496377351
 21
430.41541475008989
  0
LINE
  8
_1-2_極細2
  6
CONTINUOUS
 62
    2
 10
270.77184585162945
 20
416.95447386223378
 11
281.37184584103056
 21
406.35447387283267
  0
LINE
  8
_1-2_極細2
  6
CONTINUOUS
 62
    2
 10
247.77184587462966
 20
443.34858638892939
 11
260.9600709467079
 21
430.16036131685087
  0
LINE
  8
_1-2_極細2
  6
CONTINUOUS
 62
    2
 10
270.77184585162945
 20
420.34858641192915
 11
281.37184584103056
 21
409.74858642252804
  0
LINE
  8
_1-2_極細2
  6
CONTINUOUS
 62
    2
 10
247.77184587462966
 20
446.74269893862493
 11
264.35418350006898
 21
430.16036131318526
  0
LINE
  8
_1-2_極細2
  6
CONTINUOUS
 62
    2
 10
270.77184585162945
 20
423.74269896162468
 11
281.37184584103056
 21
413.14269897222357
  0
LINE
  8
_1-2_極細2
  6
CONTINUOUS
 62
    2
 10
248.54829605692817
 20
449.36036130602162
 11
267.74829605342995
 21
430.16036130951971
  0
LINE
  8
_1-2_極細2
  6
CONTINUOUS
 62
    2
 10
270.77184585162945
 20
427.13681151132005
 11
281.37184584103056
 21
416.53681152191893
  0
LINE
  8
_1-2_極細2
  6
CONTINUOUS
 62
    2
 10
251.94240860662353
 20
449.36036130602162
 11
281.37184584103056
 21
419.93092407161441
  0
LINE
  8
_1-2_極細2
  6
CONTINUOUS
 62
    2
 10
255.3365211563189
 20
449.36036130602162
 11
281.37184584103056
 21
423.32503662130978
  0
LINE
  8
_1-2_極細2
  6
CONTINUOUS
 62
    2
 10
258.73063370601426
 20
449.36036130602162
 11
281.37184584103056
 21
426.71914917100514
  0
LINE
  8
_1-2_極細2
  6
CONTINUOUS
 62
    2
 10
262.12474625570985
 20
449.36036130602162
 11
281.37184584103056
 21
430.11326172070068
  0
LINE
  8
_1-2_極細2
  6
CONTINUOUS
 62
    2
 10
265.51885880540522
 20
449.36036130602162
 11
277.597464338809
 21
437.28175577261783
  0
LINE
  8
_1-2_極細2
  6
CONTINUOUS
 62
    2
 10
268.91297135510058
 20
449.36036130602162
 11
273.77137289095708
 21
444.50195977016512
  0
LINE
  8
_1-2_極細2
  6
CONTINUOUS
 62
    2
 10
279.0953090041869
 20
390.16036130665418
 11
281.37184584103056
 21
392.43689814349784
  0
LINE
  8
_1-2_極細2
  6
CONTINUOUS
 62
    2
 10
275.70119645449142
 20
390.16036130665418
 11
281.37184584103056
 21
395.83101069319338
  0
LINE
  8
_1-2_極細2
  6
CONTINUOUS
 62
    2
 10
272.30708390479606
 20
390.16036130665418
 11
281.37184584103056
 21
399.22512324288857
  0
LINE
  8
_1-2_極細2
  6
CONTINUOUS
 62
    2
 10
270.77184585162945
 20
392.01923580318299
 11
281.37184584103056
 21
402.61923579258411
  0
LINE
  8
_1-2_極細2
  6
CONTINUOUS
 62
    2
 10
270.77184585162945
 20
395.41334835287853
 11
281.37184584103056
 21
406.01334834227947
  0
LINE
  8
_1-2_極細2
  6
CONTINUOUS
 62
    2
 10
270.77184585162945
 20
398.80746090257401
 11
281.37184584103056
 21
409.40746089197484
  0
LINE
  8
_1-2_極細2
  6
CONTINUOUS
 62
    2
 10
270.77184585162945
 20
402.20157345226937
 11
281.37184584103056
 21
412.80157344167037
  0
LINE
  8
_1-2_極細2
  6
CONTINUOUS
 62
    2
 10
270.77184585162945
 20
405.59568600196474
 11
281.37184584103056
 21
416.19568599136574
  0
LINE
  8
_1-2_極細2
  6
CONTINUOUS
 62
    2
 10
270.77184585162945
 20
408.98979855166027
 11
281.37184584103056
 21
419.5897985410611
  0
LINE
  8
_1-2_極細2
  6
CONTINUOUS
 62
    2
 10
270.77184585162945
 20
412.38391110135564
 11
281.37184584103056
 21
422.98391109075658
  0
LINE
  8
_1-2_極細2
  6
CONTINUOUS
 62
    2
 10
270.77184585162945
 20
415.778023651051
 11
281.37184584103056
 21
426.37802364045194
  0
LINE
  8
_1-2_極細2
  6
CONTINUOUS
 62
    2
 10
270.77184585162945
 20
419.17213620074654
 11
281.37184584103056
 21
429.77213619014731
  0
LINE
  8
_1-2_極細2
  6
CONTINUOUS
 62
    2
 10
270.77184585162945
 20
422.5662487504419
 11
280.33027509853093
 21
432.12467799734316
  0
LINE
  8
_1-2_極細2
  6
CONTINUOUS
 62
    2
 10
270.77184585162945
 20
425.96036130013727
 11
279.15466060735366
 21
434.34317605586148
  0
LINE
  8
_1-2_極細2
  6
CONTINUOUS
 62
    2
 10
270.77184585162945
 20
429.35447384983274
 11
277.97904611617651
 21
436.56167411437957
  0
LINE
  8
_1-2_極細2
  6
CONTINUOUS
 62
    2
 10
268.18362076115091
 20
430.16036130904951
 11
276.80343162499923
 21
438.78017217289772
  0
LINE
  8
_1-2_極細2
  6
CONTINUOUS
 62
    2
 10
264.78950821512103
 20
430.16036131271505
 11
275.62781713382196
 21
440.99867023141599
  0
LINE
  8
_1-2_極細2
  6
CONTINUOUS
 62
    2
 10
261.39539566909139
 20
430.16036131638077
 11
274.45220264264481
 21
443.21716828993414
  0
LINE
  8
_1-2_極細2
  6
CONTINUOUS
 62
    2
 10
258.11606574053269
 20
430.27514393751756
 11
273.27658815146754
 21
445.43566634845229
  0
LINE
  8
_1-2_極細2
  6
CONTINUOUS
 62
    2
 10
255.42293986149093
 20
430.97613060817122
 11
272.10097366029026
 21
447.65416440697055
  0
LINE
  8
_1-2_極細2
  6
CONTINUOUS
 62
    2
 10
253.18344991455433
 20
432.13075321093004
 11
270.41305800964585
 21
449.36036130602162
  0
LINE
  8
_1-2_極細2
  6
CONTINUOUS
 62
    2
 10
251.31014697536307
 20
433.65156282143437
 11
267.0189454599506
 21
449.36036130602162
  0
LINE
  8
_1-2_極細2
  6
CONTINUOUS
 62
    2
 10
249.7797231596046
 20
435.51525155537104
 11
263.62483291025512
 21
449.36036130602162
  0
LINE
  8
_1-2_極細2
  6
CONTINUOUS
 62
    2
 10
248.61415870030919
 20
437.74379964577122
 11
260.23072036055976
 21
449.36036130602162
  0
LINE
  8
_1-2_極細2
  6
CONTINUOUS
 62
    2
 10
247.89840306116207
 20
440.42215655631964
 11
256.83660781086428
 21
449.36036130602162
  0
LINE
  8
_1-2_極細2
  6
CONTINUOUS
 62
    2
 10
247.77184587462966
 20
443.68971191948242
 11
253.44249526116892
 21
449.36036130602162
  0
LINE
  8
_1-2_極細2
  6
CONTINUOUS
 62
    2
 10
247.77184587462966
 20
447.08382446917778
 11
250.04838271147332
 21
449.36036130602162
  0
LINE
  8
_1-2_極細2
  6
CONTINUOUS
 62
    2
 10
279.54589367629956
 20
453.36036130602179
 11
280.16736950232973
 21
453.98183713205191
  0
LINE
  8
_1-2_極細2
  6
CONTINUOUS
 62
    2
 10
278.4145228264008
 20
453.36036130602179
 11
279.70385904945181
 21
454.64969752907291
  0
LINE
  8
_1-2_極細2
  6
CONTINUOUS
 62
    2
 10
277.2831519765025
 20
453.36036130602179
 11
279.18221128917844
 21
455.25942061869773
  0
LINE
  8
_1-2_極細2
  6
CONTINUOUS
 62
    2
 10
276.15178112660419
 20
453.36036130602179
 11
278.60378773438902
 21
455.81236791380644
  0
LINE
  8
_1-2_極細2
  6
CONTINUOUS
 62
    2
 10
275.02041027670589
 20
453.36036130602179
 11
277.96819901880576
 21
456.30815004812166
  0
LINE
  8
_1-2_極細2
  6
CONTINUOUS
 62
    2
 10
273.88903942680702
 20
453.36036130602179
 11
277.27324302715101
 21
456.74456490636567
  0
LINE
  8
_1-2_極細2
  6
CONTINUOUS
 62
    2
 10
272.75766857690871
 20
453.36036130602179
 11
276.51453600983791
 21
457.11722873895087
  0
LINE
  8
_1-2_極細2
  6
CONTINUOUS
 62
    2
 10
271.62629772701041
 20
453.36036130602179
 11
275.68467894814353
 21
457.41874252715479
  0
LINE
  8
_1-2_極細2
  6
CONTINUOUS
 62
    2
 10
270.49492687711211
 20
453.36036130602179
 11
274.77153039857569
 21
457.63696482748549
  0
LINE
  8
_1-2_極細2
  6
CONTINUOUS
 62
    2
 10
269.36355602721346
 20
453.36036130602179
 11
273.75440386920059
 21
457.75120914800829
  0
LINE
  8
_1-2_極細2
  6
CONTINUOUS
 62
    2
 10
268.23218517731516
 20
453.36036130602179
 11
272.63218516956363
 21
457.76036129827025
  0
LINE
  8
_1-2_極細2
  6
CONTINUOUS
 62
    2
 10
267.10081432741686
 20
453.36036130602179
 11
271.5008143199899
 21
457.76036129859494
  0
LINE
  8
_1-2_極細2
  6
CONTINUOUS
 62
    2
 10
265.96944347751855
 20
453.36036130602179
 11
270.36944347041629
 21
457.76036129891946
  0
LINE
  8
_1-2_極細2
  6
CONTINUOUS
 62
    2
 10
264.83807262761979
 20
453.36036130602179
 11
269.23807262084233
 21
457.76036129924432
  0
LINE
  8
_1-2_極細2
  6
CONTINUOUS
 62
    2
 10
263.70670177772149
 20
453.36036130602179
 11
268.10670177126872
 21
457.76036129956884
  0
LINE
  8
_1-2_極細2
  6
CONTINUOUS
 62
    2
 10
262.57533092782319
 20
453.36036130602179
 11
266.9753309216951
 21
457.76036129989336
  0
LINE
  8
_1-2_極細2
  6
CONTINUOUS
 62
    2
 10
261.44396007792488
 20
453.36036130602179
 11
265.84396007212092
 21
457.76036130021805
  0
LINE
  8
_1-2_極細2
  6
CONTINUOUS
 62
    2
 10
260.31258922802613
 20
453.36036130602179
 11
264.71258922254742
 21
457.76036130054274
  0
LINE
  8
_1-2_極細2
  6
CONTINUOUS
 62
    2
 10
259.18121837812782
 20
453.36036130602179
 11
263.58121837297381
 21
457.76036130086743
  0
LINE
  8
_1-2_極細2
  6
CONTINUOUS
 62
    2
 10
258.04984752822952
 20
453.36036130602179
 11
262.44984752339974
 21
457.76036130119212
  0
LINE
  8
_1-2_極細2
  6
CONTINUOUS
 62
    2
 10
256.91847667833122
 20
453.36036130602179
 11
261.31847667382613
 21
457.76036130151681
  0
LINE
  8
_1-2_極細2
  6
CONTINUOUS
 62
    2
 10
255.78710582843235
 20
453.36036130602179
 11
260.18710582425251
 21
457.7603613018415
  0
LINE
  8
_1-2_極細2
  6
CONTINUOUS
 62
    2
 10
254.65573497853404
 20
453.36036130602179
 11
259.05573497467833
 21
457.76036130216607
  0
LINE
  8
_1-2_極細2
  6
CONTINUOUS
 62
    2
 10
253.52436412863574
 20
453.36036130602179
 11
257.92436412510472
 21
457.76036130249076
  0
LINE
  8
_1-2_極細2
  6
CONTINUOUS
 62
    2
 10
252.39299327873744
 20
453.36036130602179
 11
256.7929932755311
 21
457.76036130281545
  0
LINE
  8
_1-2_極細2
  6
CONTINUOUS
 62
    2
 10
251.26162242883879
 20
453.36036130602179
 11
255.66162242595715
 21
457.76036130313997
  0
LINE
  8
_1-2_極細2
  6
CONTINUOUS
 62
    2
 10
250.13025157894049
 20
453.36036130602179
 11
254.53025157638353
 21
457.76036130346466
  0
LINE
  8
_1-2_極細2
  6
CONTINUOUS
 62
    2
 10
248.99888072904218
 20
453.36036130602179
 11
253.39888072680992
 21
457.76036130378935
  0
LINE
  8
_1-2_極細2
  6
CONTINUOUS
 62
    2
 10
247.86750987914388
 20
453.36036130602179
 11
252.26750987723585
 21
457.76036130411404
  0
LINE
  8
_1-2_極細2
  6
CONTINUOUS
 62
    2
 10
246.77184587562954
 20
453.39606815240614
 11
251.13613902766224
 21
457.76036130443856
  0
LINE
  8
_1-2_極細2
  6
CONTINUOUS
 62
    2
 10
246.77184587562954
 20
454.52743900230445
 11
250.00476817808851
 21
457.76036130476342
  0
LINE
  8
_1-2_極細2
  6
CONTINUOUS
 62
    2
 10
246.77184587562954
 20
455.65880985220292
 11
248.87339732851456
 21
457.76036130508794
  0
LINE
  8
_1-2_極細2
  6
CONTINUOUS
 62
    2
 10
246.77184587562954
 20
456.79018070210134
 11
247.74202647894094
 21
457.76036130541252
  0
LINE
  8
_1-2_極細2
  6
CONTINUOUS
 62
    2
 10
280.47886001898064
 20
453.43328241331437
 11
277.04476695628659
 21
456.86737547600808
  0
LINE
  8
_1-2_極細2
  6
CONTINUOUS
 62
    2
 10
279.42041027637447
 20
453.36036130602179
 11
275.24209673938708
 21
457.53867484300918
  0
LINE
  8
_1-2_極細2
  6
CONTINUOUS
 62
    2
 10
278.28903942647617
 20
453.36036130602179
 11
273.90695592133193
 21
457.74244481116602
  0
LINE
  8
_1-2_極細2
  6
CONTINUOUS
 62
    2
 10
277.15766857657786
 20
453.36036130602179
 11
272.75766858436532
 21
457.76036129823416
  0
LINE
  8
_1-2_極細2
  6
CONTINUOUS
 62
    2
 10
276.02629772667956
 20
453.36036130602179
 11
271.62629773414233
 21
457.76036129855885
  0
LINE
  8
_1-2_極細2
  6
CONTINUOUS
 62
    2
 10
274.89492687678126
 20
453.36036130602179
 11
270.49492688391933
 21
457.76036129888354
  0
LINE
  8
_1-2_極細2
  6
CONTINUOUS
 62
    2
 10
273.76355602688295
 20
453.36036130602179
 11
269.36355603369634
 21
457.76036129920806
  0
LINE
  8
_1-2_極細2
  6
CONTINUOUS
 62
    2
 10
272.63218517698465
 20
453.36036130602179
 11
268.23218518347335
 21
457.76036129953275
  0
LINE
  8
_1-2_極細2
  6
CONTINUOUS
 62
    2
 10
271.50081432708635
 20
453.36036130602179
 11
267.10081433325036
 21
457.76036129985761
  0
LINE
  8
_1-2_極細2
  6
CONTINUOUS
 62
    2
 10
270.36944347718747
 20
453.36036130602179
 11
265.96944348302736
 21
457.76036130018213
  0
LINE
  8
_1-2_極細2
  6
CONTINUOUS
 62
    2
 10
269.23807262728917
 20
453.36036130602179
 11
264.83807263280437
 21
457.7603613005067
  0
LINE
  8
_1-2_極細2
  6
CONTINUOUS
 62
    2
 10
268.10670177739087
 20
453.36036130602179
 11
263.70670178258138
 21
457.76036130083151
  0
LINE
  8
_1-2_極細2
  6
CONTINUOUS
 62
    2
 10
266.97533092749256
 20
453.36036130602179
 11
262.57533093235838
 21
457.76036130115608
  0
LINE
  8
_1-2_極細2
  6
CONTINUOUS
 62
    2
 10
265.84396007759426
 20
453.36036130602179
 11
261.44396008213539
 21
457.76036130148077
  0
LINE
  8
_1-2_極細2
  6
CONTINUOUS
 62
    2
 10
264.71258922769596
 20
453.36036130602179
 11
260.3125892319124
 21
457.76036130180546
  0
LINE
  8
_1-2_極細2
  6
CONTINUOUS
 62
    2
 10
263.58121837779765
 20
453.36036130602179
 11
259.1812183816894
 21
457.76036130213015
  0
LINE
  8
_1-2_極細2
  6
CONTINUOUS
 62
    2
 10
262.44984752789935
 20
453.36036130602179
 11
258.04984753146641
 21
457.76036130245484
  0
LINE
  8
_1-2_極細2
  6
CONTINUOUS
 62
    2
 10
261.31847667800071
 20
453.36036130602179
 11
256.91847668124342
 21
457.76036130277936
  0
LINE
  8
_1-2_極細2
  6
CONTINUOUS
 62
    2
 10
260.1871058281024
 20
453.36036130602179
 11
255.78710583102043
 21
457.76036130310422
  0
LINE
  8
_1-2_極細2
  6
CONTINUOUS
 62
    2
 10
259.0557349782041
 20
453.36036130602179
 11
254.65573498079698
 21
457.76036130342857
  0
LINE
  8
_1-2_極細2
  6
CONTINUOUS
 62
    2
 10
257.9243641283058
 20
453.36036130602179
 11
253.52436413057444
 21
457.76036130375326
  0
LINE
  8
_1-2_極細2
  6
CONTINUOUS
 62
    2
 10
256.79299327840749
 20
453.36036130602179
 11
252.39299328035088
 21
457.76036130407795
  0
LINE
  8
_1-2_極細2
  6
CONTINUOUS
 62
    2
 10
255.66162242850919
 20
453.36036130602179
 11
251.26162243012789
 21
457.76036130440264
  0
LINE
  8
_1-2_極細2
  6
CONTINUOUS
 62
    2
 10
254.53025157861089
 20
453.36036130602179
 11
250.13025157990489
 21
457.76036130472733
  0
LINE
  8
_1-2_極細2
  6
CONTINUOUS
 62
    2
 10
253.39888072871258
 20
453.36036130602179
 11
248.99888072968201
 21
457.76036130505202
  0
LINE
  8
_1-2_極細2
  6
CONTINUOUS
 62
    2
 10
252.26750987881383
 20
453.36036130602179
 11
247.86750987945902
 21
457.76036130537659
  0
LINE
  8
_1-2_極細2
  6
CONTINUOUS
 62
    2
 10
251.13613902891552
 20
453.36036130602179
 11
246.77184587562954
 21
457.72465445930777
  0
LINE
  8
_1-2_極細2
  6
CONTINUOUS
 62
    2
 10
250.00476817901722
 20
453.36036130602179
 11
246.77184587562954
 21
456.59328360940935
  0
LINE
  8
_1-2_極細2
  6
CONTINUOUS
 62
    2
 10
248.87339732911892
 20
453.36036130602179
 11
246.77184587562954
 21
455.46191275951105
  0
LINE
  8
_1-2_極細2
  6
CONTINUOUS
 62
    2
 10
247.74202647922061
 20
453.36036130602179
 11
246.77184587562954
 21
454.33054190961258
  0
LINE
  8
_1-2_極細2
  6
CONTINUOUS
 62
    2
 10
502.19135497776301
 20
453.36036130602179
 11
502.77184561963008
 21
453.94085194788886
  0
LINE
  8
_1-2_極細2
  6
CONTINUOUS
 62
    2
 10
501.05998412786471
 20
453.36036130602179
 11
502.77184561963008
 21
455.07222279778716
  0
LINE
  8
_1-2_極細2
  6
CONTINUOUS
 62
    2
 10
499.92861327796641
 20
453.36036130602179
 11
502.77184561963008
 21
456.20359364768558
  0
LINE
  8
_1-2_極細2
  6
CONTINUOUS
 62
    2
 10
498.7972424280681
 20
453.36036130602179
 11
502.77184561963008
 21
457.33496449758388
  0
LINE
  8
_1-2_極細2
  6
CONTINUOUS
 62
    2
 10
497.66587157816957
 20
453.36036130602179
 11
502.06587157812578
 21
457.76036130597788
  0
LINE
  8
_1-2_極細2
  6
CONTINUOUS
 62
    2
 10
496.53450072827127
 20
453.36036130602179
 11
500.93450072822748
 21
457.76036130597788
  0
LINE
  8
_1-2_極細2
  6
CONTINUOUS
 62
    2
 10
495.40312987837297
 20
453.36036130602179
 11
499.8031298783286
 21
457.76036130597788
  0
LINE
  8
_1-2_極細2
  6
CONTINUOUS
 62
    2
 10
494.27175902847466
 20
453.36036130602179
 11
498.6717590284303
 21
457.76036130597788
  0
LINE
  8
_1-2_極細2
  6
CONTINUOUS
 62
    2
 10
493.14038817857568
 20
453.36036130602179
 11
497.540388178532
 21
457.76036130597788
  0
LINE
  8
_1-2_極細2
  6
CONTINUOUS
 62
    2
 10
492.00901732867737
 20
453.36036130602179
 11
496.40901732863335
 21
457.76036130597788
  0
LINE
  8
_1-2_極細2
  6
CONTINUOUS
 62
    2
 10
490.87764647877907
 20
453.36036130602179
 11
495.27764647873505
 21
457.76036130597788
  0
LINE
  8
_1-2_極細2
  6
CONTINUOUS
 62
    2
 10
489.74627562888077
 20
453.36036130602179
 11
494.14627562883675
 21
457.76036130597788
  0
LINE
  8
_1-2_極細2
  6
CONTINUOUS
 62
    2
 10
488.6149047789819
 20
453.36036130602179
 11
493.01490477893844
 21
457.76036130597788
  0
LINE
  8
_1-2_極細2
  6
CONTINUOUS
 62
    2
 10
487.48353392908359
 20
453.36036130602179
 11
491.88353392904014
 21
457.76036130597788
  0
LINE
  8
_1-2_極細2
  6
CONTINUOUS
 62
    2
 10
486.35216307918529
 20
453.36036130602179
 11
490.75216307914161
 21
457.76036130597788
  0
LINE
  8
_1-2_極細2
  6
CONTINUOUS
 62
    2
 10
485.22079222928699
 20
453.36036130602179
 11
489.62079222924331
 21
457.76036130597788
  0
LINE
  8
_1-2_極細2
  6
CONTINUOUS
 62
    2
 10
484.08942137938834
 20
453.36036130602179
 11
488.489421379345
 21
457.76036130597788
  0
LINE
  8
_1-2_極細2
  6
CONTINUOUS
 62
    2
 10
482.95805052949004
 20
453.36036130602179
 11
487.3580505294467
 21
457.76036130597788
  0
LINE
  8
_1-2_極細2
  6
CONTINUOUS
 62
    2
 10
481.82667967959173
 20
453.36036130602179
 11
486.22667967954771
 21
457.76036130597788
  0
LINE
  8
_1-2_極細2
  6
CONTINUOUS
 62
    2
 10
480.69530882969343
 20
453.36036130602179
 11
485.09530882964941
 21
457.76036130597788
  0
LINE
  8
_1-2_極細2
  6
CONTINUOUS
 62
    2
 10
479.56393797979456
 20
453.36036130602179
 11
483.96393797975111
 21
457.76036130597788
  0
LINE
  8
_1-2_極細2
  6
CONTINUOUS
 62
    2
 10
478.43256712989626
 20
453.36036130602179
 11
482.83256712985281
 21
457.76036130597788
  0
LINE
  8
_1-2_極細2
  6
CONTINUOUS
 62
    2
 10
477.30119627999795
 20
453.36036130602179
 11
481.70119627995393
 21
457.76036130597788
  0
LINE
  8
_1-2_極細2
  6
CONTINUOUS
 62
    2
 10
476.16982543009965
 20
453.36036130602179
 11
480.56982543005563
 21
457.76036130597788
  0
LINE
  8
_1-2_極細2
  6
CONTINUOUS
 62
    2
 10
475.03845458020123
 20
453.36036130602179
 11
479.43845458015733
 21
457.76036130597788
  0
LINE
  8
_1-2_極細2
  6
CONTINUOUS
 62
    2
 10
473.90708373030293
 20
453.36036130602179
 11
478.30708373025902
 21
457.76036130597788
  0
LINE
  8
_1-2_極細2
  6
CONTINUOUS
 62
    2
 10
472.77571288040463
 20
453.36036130602179
 11
477.17571288036038
 21
457.76036130597788
  0
LINE
  8
_1-2_極細2
  6
CONTINUOUS
 62
    2
 10
471.64434203050632
 20
453.36036130602179
 11
476.04434203046208
 21
457.76036130597788
  0
LINE
  8
_1-2_極細2
  6
CONTINUOUS
 62
    2
 10
470.51297118060722
 20
453.36036130602179
 11
474.91297118056377
 21
457.76036130597788
  0
LINE
  8
_1-2_極細2
  6
CONTINUOUS
 62
    2
 10
469.38160033070892
 20
453.36036130602179
 11
473.78160033066547
 21
457.76036130597788
  0
LINE
  8
_1-2_極細2
  6
CONTINUOUS
 62
    2
 10
468.25022948081062
 20
453.36036130602179
 11
472.6502294807666
 21
457.76036130597788
  0
LINE
  8
_1-2_極細2
  6
CONTINUOUS
 62
    2
 10
467.11885863091231
 20
453.36036130602179
 11
471.51885863086829
 21
457.76036130597788
  0
LINE
  8
_1-2_極細2
  6
CONTINUOUS
 62
    2
 10
465.98748778101367
 20
453.36036130602179
 11
470.38748778096999
 21
457.76036130597788
  0
LINE
  8
_1-2_極細2
  6
CONTINUOUS
 62
    2
 10
464.85611693111537
 20
453.36036130602179
 11
469.25611693107169
 21
457.76036130597788
  0
LINE
  8
_1-2_極細2
  6
CONTINUOUS
 62
    2
 10
463.72474608121706
 20
453.36036130602179
 11
468.12474608117327
 21
457.76036130597788
  0
LINE
  8
_1-2_極細2
  6
CONTINUOUS
 62
    2
 10
462.59337523131876
 20
453.36036130602179
 11
466.99337523127497
 21
457.76036130597788
  0
LINE
  8
_1-2_極細2
  6
CONTINUOUS
 62
    2
 10
461.46200438141989
 20
453.36036130602179
 11
465.86200438137666
 21
457.76036130597788
  0
LINE
  8
_1-2_極細2
  6
CONTINUOUS
 62
    2
 10
460.33063353152158
 20
453.36036130602179
 11
464.73063353147836
 21
457.76036130597788
  0
LINE
  8
_1-2_極細2
  6
CONTINUOUS
 62
    2
 10
459.19926268162328
 20
453.36036130602179
 11
463.59926268157926
 21
457.76036130597788
  0
LINE
  8
_1-2_極細2
  6
CONTINUOUS
 62
    2
 10
458.06789183172498
 20
453.36036130602179
 11
462.46789183168096
 21
457.76036130597788
  0
LINE
  8
_1-2_極細2
  6
CONTINUOUS
 62
    2
 10
456.93652098182633
 20
453.36036130602179
 11
461.33652098178266
 21
457.76036130597788
  0
LINE
  8
_1-2_極細2
  6
CONTINUOUS
 62
    2
 10
455.80515013192803
 20
453.36036130602179
 11
460.20515013188435
 21
457.76036130597788
  0
LINE
  8
_1-2_極細2
  6
CONTINUOUS
 62
    2
 10
454.67377928202973
 20
453.36036130602179
 11
459.07377928198571
 21
457.76036130597788
  0
LINE
  8
_1-2_極細2
  6
CONTINUOUS
 62
    2
 10
453.54240843213142
 20
453.36036130602179
 11
457.9424084320874
 21
457.76036130597788
  0
LINE
  8
_1-2_極細2
  6
CONTINUOUS
 62
    2
 10
452.41103758223289
 20
453.36036130602179
 11
456.8110375821891
 21
457.76036130597788
  0
LINE
  8
_1-2_極細2
  6
CONTINUOUS
 62
    2
 10
451.27966673233459
 20
453.36036130602179
 11
455.6796667322908
 21
457.76036130597788
  0
LINE
  8
_1-2_極細2
  6
CONTINUOUS
 62
    2
 10
450.14829588243629
 20
453.36036130602179
 11
454.54829588239193
 21
457.76036130597788
  0
LINE
  8
_1-2_極細2
  6
CONTINUOUS
 62
    2
 10
449.01692503253798
 20
453.36036130602179
 11
453.41692503249362
 21
457.76036130597788
  0
LINE
  8
_1-2_極細2
  6
CONTINUOUS
 62
    2
 10
447.885554182639
 20
453.36036130602179
 11
452.28555418259532
 21
457.76036130597788
  0
LINE
  8
_1-2_極細2
  6
CONTINUOUS
 62
    2
 10
446.75418333274069
 20
453.36036130602179
 11
451.15418333269702
 21
457.76036130597788
  0
LINE
  8
_1-2_極細2
  6
CONTINUOUS
 62
    2
 10
445.62281248284239
 20
453.36036130602179
 11
450.02281248279837
 21
457.76036130597788
  0
LINE
  8
_1-2_極細2
  6
CONTINUOUS
 62
    2
 10
444.49144163294409
 20
453.36036130602179
 11
448.89144163290007
 21
457.76036130597788
  0
LINE
  8
_1-2_極細2
  6
CONTINUOUS
 62
    2
 10
443.36007078304522
 20
453.36036130602179
 11
447.76007078300177
 21
457.76036130597788
  0
LINE
  8
_1-2_極細2
  6
CONTINUOUS
 62
    2
 10
442.22869993314691
 20
453.36036130602179
 11
446.62869993310346
 21
457.76036130597788
  0
LINE
  8
_1-2_極細2
  6
CONTINUOUS
 62
    2
 10
441.09732908324861
 20
453.36036130602179
 11
445.49732908320493
 21
457.76036130597788
  0
LINE
  8
_1-2_極細2
  6
CONTINUOUS
 62
    2
 10
439.96595823335031
 20
453.36036130602179
 11
444.36595823330663
 21
457.76036130597788
  0
LINE
  8
_1-2_極細2
  6
CONTINUOUS
 62
    2
 10
438.83458738345166
 20
453.36036130602179
 11
443.23458738340832
 21
457.76036130597788
  0
LINE
  8
_1-2_極細2
  6
CONTINUOUS
 62
    2
 10
437.70321653355336
 20
453.36036130602179
 11
442.10321653351002
 21
457.76036130597788
  0
LINE
  8
_1-2_極細2
  6
CONTINUOUS
 62
    2
 10
436.57184568365506
 20
453.36036130602179
 11
440.97184568361104
 21
457.76036130597788
  0
LINE
  8
_1-2_極細2
  6
CONTINUOUS
 62
    2
 10
435.44047483375675
 20
453.36036130602179
 11
439.84047483371273
 21
457.76036130597788
  0
LINE
  8
_1-2_極細2
  6
CONTINUOUS
 62
    2
 10
434.30910398385788
 20
453.36036130602179
 11
438.70910398381443
 21
457.76036130597788
  0
LINE
  8
_1-2_極細2
  6
CONTINUOUS
 62
    2
 10
433.17773313395958
 20
453.36036130602179
 11
437.57773313391613
 21
457.76036130597788
  0
LINE
  8
_1-2_極細2
  6
CONTINUOUS
 62
    2
 10
432.04636228406127
 20
453.36036130602179
 11
436.44636228401725
 21
457.76036130597788
  0
LINE
  8
_1-2_極細2
  6
CONTINUOUS
 62
    2
 10
430.91499143416297
 20
453.36036130602179
 11
435.31499143411895
 21
457.76036130597788
  0
LINE
  8
_1-2_極細2
  6
CONTINUOUS
 62
    2
 10
429.78362058426455
 20
453.36036130602179
 11
434.18362058422065
 21
457.76036130597788
  0
LINE
  8
_1-2_極細2
  6
CONTINUOUS
 62
    2
 10
428.65224973436625
 20
453.36036130602179
 11
433.05224973432234
 21
457.76036130597788
  0
LINE
  8
_1-2_極細2
  6
CONTINUOUS
 62
    2
 10
427.52087888446795
 20
453.36036130602179
 11
431.9208788844237
 21
457.76036130597788
  0
LINE
  8
_1-2_極細2
  6
CONTINUOUS
 62
    2
 10
426.38950803456964
 20
453.36036130602179
 11
430.7895080345254
 21
457.76036130597788
  0
LINE
  8
_1-2_極細2
  6
CONTINUOUS
 62
    2
 10
425.25813718467055
 20
453.36036130602179
 11
429.65813718462709
 21
457.76036130597788
  0
LINE
  8
_1-2_極細2
  6
CONTINUOUS
 62
    2
 10
424.12676633477224
 20
453.36036130602179
 11
428.52676633472879
 21
457.76036130597788
  0
LINE
  8
_1-2_極細2
  6
CONTINUOUS
 62
    2
 10
422.99539548487394
 20
453.36036130602179
 11
427.39539548482992
 21
457.76036130597788
  0
LINE
  8
_1-2_極細2
  6
CONTINUOUS
 62
    2
 10
421.86402463497564
 20
453.36036130602179
 11
426.26402463493162
 21
457.76036130597788
  0
LINE
  8
_1-2_極細2
  6
CONTINUOUS
 62
    2
 10
420.73265378507699
 20
453.36036130602179
 11
425.13265378503331
 21
457.76036130597788
  0
LINE
  8
_1-2_極細2
  6
CONTINUOUS
 62
    2
 10
419.60128293517869
 20
453.36036130602179
 11
424.00128293513501
 21
457.76036130597788
  0
LINE
  8
_1-2_極細2
  6
CONTINUOUS
 62
    2
 10
418.46991208528038
 20
453.36036130602179
 11
422.86991208523659
 21
457.76036130597788
  0
LINE
  8
_1-2_極細2
  6
CONTINUOUS
 62
    2
 10
417.33854123538208
 20
453.36036130602179
 11
421.73854123533829
 21
457.76036130597788
  0
LINE
  8
_1-2_極細2
  6
CONTINUOUS
 62
    2
 10
416.20717038548321
 20
453.36036130602179
 11
420.60717038543999
 21
457.76036130597788
  0
LINE
  8
_1-2_極細2
  6
CONTINUOUS
 62
    2
 10
415.07579953558491
 20
453.36036130602179
 11
419.47579953554168
 21
457.76036130597788
  0
LINE
  8
_1-2_極細2
  6
CONTINUOUS
 62
    2
 10
413.9444286856866
 20
453.36036130602179
 11
418.34442868564258
 21
457.76036130597788
  0
LINE
  8
_1-2_極細2
  6
CONTINUOUS
 62
    2
 10
412.8130578357883
 20
453.36036130602179
 11
417.21305783574428
 21
457.76036130597788
  0
LINE
  8
_1-2_極細2
  6
CONTINUOUS
 62
    2
 10
411.68168698588966
 20
453.36036130602179
 11
416.08168698584598
 21
457.76036130597788
  0
LINE
  8
_1-2_極細2
  6
CONTINUOUS
 62
    2
 10
410.55031613599135
 20
453.36036130602179
 11
414.95031613594767
 21
457.76036130597788
  0
LINE
  8
_1-2_極細2
  6
CONTINUOUS
 62
    2
 10
409.41894528609305
 20
453.36036130602179
 11
413.81894528604903
 21
457.76036130597788
  0
LINE
  8
_1-2_極細2
  6
CONTINUOUS
 62
    2
 10
408.28757443619475
 20
453.36036130602179
 11
412.68757443615073
 21
457.76036130597788
  0
LINE
  8
_1-2_極細2
  6
CONTINUOUS
 62
    2
 10
407.15620358629621
 20
453.36036130602179
 11
411.55620358625242
 21
457.76036130597788
  0
LINE
  8
_1-2_極細2
  6
CONTINUOUS
 62
    2
 10
406.02483273639791
 20
453.36036130602179
 11
410.42483273635412
 21
457.76036130597788
  0
LINE
  8
_1-2_極細2
  6
CONTINUOUS
 62
    2
 10
404.89346188649961
 20
453.36036130602179
 11
409.29346188645525
 21
457.76036130597788
  0
LINE
  8
_1-2_極細2
  6
CONTINUOUS
 62
    2
 10
403.7620910366013
 20
453.36036130602179
 11
408.16209103655694
 21
457.76036130597788
  0
LINE
  8
_1-2_極細2
  6
CONTINUOUS
 62
    2
 10
402.63072018670232
 20
453.36036130602179
 11
407.03072018665864
 21
457.76036130597788
  0
LINE
  8
_1-2_極細2
  6
CONTINUOUS
 62
    2
 10
401.49934933680402
 20
453.36036130602179
 11
405.89934933676034
 21
457.76036130597788
  0
LINE
  8
_1-2_極細2
  6
CONTINUOUS
 62
    2
 10
400.36797848690571
 20
453.36036130602179
 11
404.76797848686169
 21
457.76036130597788
  0
LINE
  8
_1-2_極細2
  6
CONTINUOUS
 62
    2
 10
399.23660763700741
 20
453.36036130602179
 11
403.63660763696339
 21
457.76036130597788
  0
LINE
  8
_1-2_極細2
  6
CONTINUOUS
 62
    2
 10
398.10523678710854
 20
453.36036130602179
 11
402.50523678706509
 21
457.76036130597788
  0
LINE
  8
_1-2_極細2
  6
CONTINUOUS
 62
    2
 10
396.97386593721023
 20
453.36036130602179
 11
401.37386593716678
 21
457.76036130597788
  0
LINE
  8
_1-2_極細2
  6
CONTINUOUS
 62
    2
 10
395.84249508731193
 20
453.36036130602179
 11
400.24249508726825
 21
457.76036130597788
  0
LINE
  8
_1-2_極細2
  6
CONTINUOUS
 62
    2
 10
394.71112423741363
 20
453.36036130602179
 11
399.11112423736995
 21
457.76036130597788
  0
LINE
  8
_1-2_極細2
  6
CONTINUOUS
 62
    2
 10
393.57975338751498
 20
453.36036130602179
 11
397.97975338747165
 21
457.76036130597788
  0
LINE
  8
_1-2_極細2
  6
CONTINUOUS
 62
    2
 10
392.44838253761668
 20
453.36036130602179
 11
396.84838253757334
 21
457.76036130597788
  0
LINE
  8
_1-2_極細2
  6
CONTINUOUS
 62
    2
 10
391.31701168771838
 20
453.36036130602179
 11
395.71701168767436
 21
457.76036130597788
  0
LINE
  8
_1-2_極細2
  6
CONTINUOUS
 62
    2
 10
390.18564083782007
 20
453.36036130602179
 11
394.58564083777605
 21
457.76036130597788
  0
LINE
  8
_1-2_極細2
  6
CONTINUOUS
 62
    2
 10
389.0542699879212
 20
453.36036130602179
 11
393.45426998787775
 21
457.76036130597788
  0
LINE
  8
_1-2_極細2
  6
CONTINUOUS
 62
    2
 10
387.9228991380229
 20
453.36036130602179
 11
392.32289913797945
 21
457.76036130597788
  0
LINE
  8
_1-2_極細2
  6
CONTINUOUS
 62
    2
 10
386.7915282881246
 20
453.36036130602179
 11
391.19152828808058
 21
457.76036130597788
  0
LINE
  8
_1-2_極細2
  6
CONTINUOUS
 62
    2
 10
385.66015743822629
 20
453.36036130602179
 11
390.06015743818227
 21
457.76036130597788
  0
LINE
  8
_1-2_極細2
  6
CONTINUOUS
 62
    2
 10
384.52878658832788
 20
453.36036130602179
 11
388.92878658828397
 21
457.76036130597788
  0
LINE
  8
_1-2_極細2
  6
CONTINUOUS
 62
    2
 10
383.39741573842957
 20
453.36036130602179
 11
387.79741573838567
 21
457.76036130597788
  0
LINE
  8
_1-2_極細2
  6
CONTINUOUS
 62
    2
 10
382.26604488853127
 20
453.36036130602179
 11
386.66604488848702
 21
457.76036130597788
  0
LINE
  8
_1-2_極細2
  6
CONTINUOUS
 62
    2
 10
381.13467403863297
 20
453.36036130602179
 11
385.53467403858872
 21
457.76036130597788
  0
LINE
  8
_1-2_極細2
  6
CONTINUOUS
 62
    2
 10
380.00330318873387
 20
453.36036130602179
 11
384.40330318869042
 21
457.76036130597788
  0
LINE
  8
_1-2_極細2
  6
CONTINUOUS
 62
    2
 10
378.87193233883556
 20
453.36036130602179
 11
383.27193233879211
 21
457.76036130597788
  0
LINE
  8
_1-2_極細2
  6
CONTINUOUS
 62
    2
 10
377.74056148893726
 20
453.36036130602179
 11
382.14056148889324
 21
457.76036130597788
  0
LINE
  8
_1-2_極細2
  6
CONTINUOUS
 62
    2
 10
376.60919063903896
 20
453.36036130602179
 11
381.00919063899494
 21
457.76036130597788
  0
LINE
  8
_1-2_極細2
  6
CONTINUOUS
 62
    2
 10
375.47781978914031
 20
453.36036130602179
 11
379.87781978909663
 21
457.76036130597788
  0
LINE
  8
_1-2_極細2
  6
CONTINUOUS
 62
    2
 10
374.77184574762987
 20
453.78575811440942
 11
378.74644893919833
 21
457.76036130597788
  0
LINE
  8
_1-2_極細2
  6
CONTINUOUS
 62
    2
 10
374.77184574762987
 20
454.91712896430772
 11
377.61507808929991
 21
457.76036130597788
  0
LINE
  8
_1-2_極細2
  6
CONTINUOUS
 62
    2
 10
374.77184574762987
 20
456.04849981420614
 11
376.48370723940161
 21
457.76036130597788
  0
LINE
  8
_1-2_極細2
  6
CONTINUOUS
 62
    2
 10
374.77184574762987
 20
457.17987066410444
 11
375.35233638950331
 21
457.76036130597788
  0
LINE
  8
_1-2_極細2
  6
CONTINUOUS
 62
    2
 10
502.77184561963008
 20
457.17987066411081
 11
502.19135497776301
 21
457.76036130597788
  0
LINE
  8
_1-2_極細2
  6
CONTINUOUS
 62
    2
 10
502.77184561963008
 20
456.04849981421251
 11
501.05998412786471
 21
457.76036130597788
  0
LINE
  8
_1-2_極細2
  6
CONTINUOUS
 62
    2
 10
502.77184561963008
 20
454.91712896431409
 11
499.92861327796641
 21
457.76036130597788
  0
LINE
  8
_1-2_極細2
  6
CONTINUOUS
 62
    2
 10
502.77184561963008
 20
453.78575811441578
 11
498.79724242806788
 21
457.76036130597788
  0
LINE
  8
_1-2_極細2
  6
CONTINUOUS
 62
    2
 10
502.06587157812578
 20
453.36036130602179
 11
497.66587157816957
 21
457.76036130597788
  0
LINE
  8
_1-2_極細2
  6
CONTINUOUS
 62
    2
 10
500.93450072822748
 20
453.36036130602179
 11
496.53450072827127
 21
457.76036130597788
  0
LINE
  8
_1-2_極細2
  6
CONTINUOUS
 62
    2
 10
499.80312987832917
 20
453.36036130602179
 11
495.40312987837297
 21
457.76036130597788
  0
LINE
  8
_1-2_極細2
  6
CONTINUOUS
 62
    2
 10
498.6717590284303
 20
453.36036130602179
 11
494.27175902847466
 21
457.76036130597788
  0
LINE
  8
_1-2_極細2
  6
CONTINUOUS
 62
    2
 10
497.540388178532
 20
453.36036130602179
 11
493.14038817857636
 21
457.76036130597788
  0
LINE
  8
_1-2_極細2
  6
CONTINUOUS
 62
    2
 10
496.40901732863369
 20
453.36036130602179
 11
492.00901732867806
 21
457.76036130597788
  0
LINE
  8
_1-2_極細2
  6
CONTINUOUS
 62
    2
 10
495.27764647873539
 20
453.36036130602179
 11
490.87764647877975
 21
457.76036130597788
  0
LINE
  8
_1-2_極細2
  6
CONTINUOUS
 62
    2
 10
494.14627562883709
 20
453.36036130602179
 11
489.74627562888077
 21
457.76036130597788
  0
LINE
  8
_1-2_極細2
  6
CONTINUOUS
 62
    2
 10
493.01490477893879
 20
453.36036130602179
 11
488.61490477898246
 21
457.76036130597788
  0
LINE
  8
_1-2_極細2
  6
CONTINUOUS
 62
    2
 10
491.88353392904048
 20
453.36036130602179
 11
487.48353392908416
 21
457.76036130597788
  0
LINE
  8
_1-2_極細2
  6
CONTINUOUS
 62
    2
 10
490.75216307914218
 20
453.36036130602179
 11
486.35216307918586
 21
457.76036130597788
  0
LINE
  8
_1-2_極細2
  6
CONTINUOUS
 62
    2
 10
489.62079222924353
 20
453.36036130602179
 11
485.22079222928755
 21
457.76036130597788
  0
LINE
  8
_1-2_極細2
  6
CONTINUOUS
 62
    2
 10
488.48942137934523
 20
453.36036130602179
 11
484.08942137938925
 21
457.76036130597788
  0
LINE
  8
_1-2_極細2
  6
CONTINUOUS
 62
    2
 10
487.35805052944693
 20
453.36036130602179
 11
482.95805052949095
 21
457.76036130597788
  0
LINE
  8
_1-2_極細2
  6
CONTINUOUS
 62
    2
 10
486.22667967954862
 20
453.36036130602179
 11
481.82667967959264
 21
457.76036130597788
  0
LINE
  8
_1-2_極細2
  6
CONTINUOUS
 62
    2
 10
485.09530882965032
 20
453.36036130602179
 11
480.69530882969377
 21
457.76036130597788
  0
LINE
  8
_1-2_極細2
  6
CONTINUOUS
 62
    2
 10
483.96393797975202
 20
453.36036130602179
 11
479.56393797979547
 21
457.76036130597788
  0
LINE
  8
_1-2_極細2
  6
CONTINUOUS
 62
    2
 10
482.83256712985371
 20
453.36036130602179
 11
478.43256712989717
 21
457.76036130597788
  0
LINE
  8
_1-2_極細2
  6
CONTINUOUS
 62
    2
 10
481.70119627995541
 20
453.36036130602179
 11
477.30119627999886
 21
457.76036130597788
  0
LINE
  8
_1-2_極細2
  6
CONTINUOUS
 62
    2
 10
480.56982543005688
 20
453.36036130602179
 11
476.16982543010056
 21
457.76036130597788
  0
LINE
  8
_1-2_極細2
  6
CONTINUOUS
 62
    2
 10
479.43845458015858
 20
453.36036130602179
 11
475.03845458020226
 21
457.76036130597788
  0
LINE
  8
_1-2_極細2
  6
CONTINUOUS
 62
    2
 10
478.30708373026027
 20
453.36036130602179
 11
473.90708373030395
 21
457.76036130597788
  0
LINE
  8
_1-2_極細2
  6
CONTINUOUS
 62
    2
 10
477.17571288036197
 20
453.36036130602179
 11
472.77571288040565
 21
457.76036130597788
  0
LINE
  8
_1-2_極細2
  6
CONTINUOUS
 62
    2
 10
476.04434203046367
 20
453.36036130602179
 11
471.644342030507
 21
457.76036130597788
  0
LINE
  8
_1-2_極細2
  6
CONTINUOUS
 62
    2
 10
474.91297118056536
 20
453.36036130602179
 11
470.5129711806087
 21
457.76036130597788
  0
LINE
  8
_1-2_極細2
  6
CONTINUOUS
 62
    2
 10
473.78160033066706
 20
453.36036130602179
 11
469.3816003307104
 21
457.76036130597788
  0
LINE
  8
_1-2_極細2
  6
CONTINUOUS
 62
    2
 10
472.65022948076876
 20
453.36036130602179
 11
468.2502294808121
 21
457.76036130597788
  0
LINE
  8
_1-2_極細2
  6
CONTINUOUS
 62
    2
 10
471.51885863086977
 20
453.36036130602179
 11
467.11885863091379
 21
457.76036130597788
  0
LINE
  8
_1-2_極細2
  6
CONTINUOUS
 62
    2
 10
470.38748778097147
 20
453.36036130602179
 11
465.98748778101549
 21
457.76036130597788
  0
LINE
  8
_1-2_極細2
  6
CONTINUOUS
 62
    2
 10
469.25611693107317
 20
453.36036130602179
 11
464.85611693111719
 21
457.76036130597788
  0
LINE
  8
_1-2_極細2
  6
CONTINUOUS
 62
    2
 10
468.12474608117486
 20
453.36036130602179
 11
463.72474608121888
 21
457.76036130597788
  0
LINE
  8
_1-2_極細2
  6
CONTINUOUS
 62
    2
 10
466.99337523127656
 20
453.36036130602179
 11
462.59337523132001
 21
457.76036130597788
  0
LINE
  8
_1-2_極細2
  6
CONTINUOUS
 62
    2
 10
465.86200438137826
 20
453.36036130602179
 11
461.46200438142171
 21
457.76036130597788
  0
LINE
  8
_1-2_極細2
  6
CONTINUOUS
 62
    2
 10
464.73063353147995
 20
453.36036130602179
 11
460.3306335315234
 21
457.76036130597788
  0
LINE
  8
_1-2_極細2
  6
CONTINUOUS
 62
    2
 10
463.59926268158165
 20
453.36036130602179
 11
459.1992626816251
 21
457.76036130597788
  0
LINE
  8
_1-2_極細2
  6
CONTINUOUS
 62
    2
 10
462.46789183168278
 20
453.36036130602179
 11
458.0678918317268
 21
457.76036130597788
  0
LINE
  8
_1-2_極細2
  6
CONTINUOUS
 62
    2
 10
461.33652098178447
 20
453.36036130602179
 11
456.93652098182849
 21
457.76036130597788
  0
LINE
  8
_1-2_極細2
  6
CONTINUOUS
 62
    2
 10
460.20515013188617
 20
453.36036130602179
 11
455.80515013193019
 21
457.76036130597788
  0
LINE
  8
_1-2_極細2
  6
CONTINUOUS
 62
    2
 10
459.07377928198787
 20
453.36036130602179
 11
454.67377928203189
 21
457.76036130597788
  0
LINE
  8
_1-2_極細2
  6
CONTINUOUS
 62
    2
 10
457.94240843208956
 20
453.36036130602179
 11
453.54240843213347
 21
457.76036130597788
  0
LINE
  8
_1-2_極細2
  6
CONTINUOUS
 62
    2
 10
456.81103758219126
 20
453.36036130602179
 11
452.41103758223517
 21
457.76036130597788
  0
LINE
  8
_1-2_極細2
  6
CONTINUOUS
 62
    2
 10
455.67966673229296
 20
453.36036130602179
 11
451.27966673233686
 21
457.76036130597788
  0
LINE
  8
_1-2_極細2
  6
CONTINUOUS
 62
    2
 10
454.54829588239465
 20
453.36036130602179
 11
450.14829588243856
 21
457.76036130597788
  0
LINE
  8
_1-2_極細2
  6
CONTINUOUS
 62
    2
 10
453.41692503249601
 20
453.36036130602179
 11
449.01692503254026
 21
457.76036130597788
  0
LINE
  8
_1-2_極細2
  6
CONTINUOUS
 62
    2
 10
452.28555418259771
 20
453.36036130602179
 11
447.88555418264195
 21
457.76036130597788
  0
LINE
  8
_1-2_極細2
  6
CONTINUOUS
 62
    2
 10
451.1541833326994
 20
453.36036130602179
 11
446.75418333274365
 21
457.76036130597788
  0
LINE
  8
_1-2_極細2
  6
CONTINUOUS
 62
    2
 10
450.0228124828011
 20
453.36036130602179
 11
445.62281248284535
 21
457.76036130597788
  0
LINE
  8
_1-2_極細2
  6
CONTINUOUS
 62
    2
 10
448.8914416329028
 20
453.36036130602179
 11
444.49144163294625
 21
457.76036130597788
  0
LINE
  8
_1-2_極細2
  6
CONTINUOUS
 62
    2
 10
447.76007078300449
 20
453.36036130602179
 11
443.36007078304795
 21
457.76036130597788
  0
LINE
  8
_1-2_極細2
  6
CONTINUOUS
 62
    2
 10
446.62869993310619
 20
453.36036130602179
 11
442.22869993314964
 21
457.76036130597788
  0
LINE
  8
_1-2_極細2
  6
CONTINUOUS
 62
    2
 10
445.49732908320789
 20
453.36036130602179
 11
441.09732908325134
 21
457.76036130597788
  0
LINE
  8
_1-2_極細2
  6
CONTINUOUS
 62
    2
 10
444.36595823330902
 20
453.36036130602179
 11
439.96595823335304
 21
457.76036130597788
  0
LINE
  8
_1-2_極細2
  6
CONTINUOUS
 62
    2
 10
443.23458738341071
 20
453.36036130602179
 11
438.83458738345473
 21
457.76036130597788
  0
LINE
  8
_1-2_極細2
  6
CONTINUOUS
 62
    2
 10
442.10321653351241
 20
453.36036130602179
 11
437.70321653355643
 21
457.76036130597788
  0
LINE
  8
_1-2_極細2
  6
CONTINUOUS
 62
    2
 10
440.97184568361411
 20
453.36036130602179
 11
436.57184568365813
 21
457.76036130597788
  0
LINE
  8
_1-2_極細2
  6
CONTINUOUS
 62
    2
 10
439.8404748337158
 20
453.36036130602179
 11
435.44047483375948
 21
457.76036130597788
  0
LINE
  8
_1-2_極細2
  6
CONTINUOUS
 62
    2
 10
438.7091039838175
 20
453.36036130602179
 11
434.30910398386118
 21
457.76036130597788
  0
LINE
  8
_1-2_極細2
  6
CONTINUOUS
 62
    2
 10
437.5777331339192
 20
453.36036130602179
 11
433.17773313396287
 21
457.76036130597788
  0
LINE
  8
_1-2_極細2
  6
CONTINUOUS
 62
    2
 10
436.44636228402089
 20
453.36036130602179
 11
432.04636228406457
 21
457.76036130597788
  0
LINE
  8
_1-2_極細2
  6
CONTINUOUS
 62
    2
 10
435.31499143412248
 20
453.36036130602179
 11
430.91499143416627
 21
457.76036130597788
  0
LINE
  8
_1-2_極細2
  6
CONTINUOUS
 62
    2
 10
434.18362058422417
 20
453.36036130602179
 11
429.78362058426796
 21
457.76036130597788
  0
LINE
  8
_1-2_極細2
  6
CONTINUOUS
 62
    2
 10
433.05224973432587
 20
453.36036130602179
 11
428.65224973436966
 21
457.76036130597788
  0
LINE
  8
_1-2_極細2
  6
CONTINUOUS
 62
    2
 10
431.92087888442757
 20
453.36036130602179
 11
427.52087888447136
 21
457.76036130597788
  0
LINE
  8
_1-2_極細2
  6
CONTINUOUS
 62
    2
 10
430.78950803452926
 20
453.36036130602179
 11
426.38950803457249
 21
457.76036130597788
  0
LINE
  8
_1-2_極細2
  6
CONTINUOUS
 62
    2
 10
429.65813718463096
 20
453.36036130602179
 11
425.25813718467418
 21
457.76036130597788
  0
LINE
  8
_1-2_極細2
  6
CONTINUOUS
 62
    2
 10
428.52676633473266
 20
453.36036130602179
 11
424.12676633477588
 21
457.76036130597788
  0
LINE
  8
_1-2_極細2
  6
CONTINUOUS
 62
    2
 10
427.39539548483435
 20
453.36036130602179
 11
422.99539548487758
 21
457.76036130597788
  0
LINE
  8
_1-2_極細2
  6
CONTINUOUS
 62
    2
 10
426.26402463493525
 20
453.36036130602179
 11
421.86402463497927
 21
457.76036130597788
  0
LINE
  8
_1-2_極細2
  6
CONTINUOUS
 62
    2
 10
425.13265378503695
 20
453.36036130602179
 11
420.73265378508097
 21
457.76036130597788
  0
LINE
  8
_1-2_極細2
  6
CONTINUOUS
 62
    2
 10
424.00128293513865
 20
453.36036130602179
 11
419.60128293518267
 21
457.76036130597788
  0
LINE
  8
_1-2_極細2
  6
CONTINUOUS
 62
    2
 10
422.86991208524034
 20
453.36036130602179
 11
418.46991208528436
 21
457.76036130597788
  0
LINE
  8
_1-2_極細2
  6
CONTINUOUS
 62
    2
 10
421.73854123534204
 20
453.36036130602179
 11
417.33854123538572
 21
457.76036130597788
  0
LINE
  8
_1-2_極細2
  6
CONTINUOUS
 62
    2
 10
420.60717038544374
 20
453.36036130602179
 11
416.20717038548742
 21
457.76036130597788
  0
LINE
  8
_1-2_極細2
  6
CONTINUOUS
 62
    2
 10
419.47579953554543
 20
453.36036130602179
 11
415.07579953558911
 21
457.76036130597788
  0
LINE
  8
_1-2_極細2
  6
CONTINUOUS
 62
    2
 10
418.34442868564713
 20
453.36036130602179
 11
413.94442868569081
 21
457.76036130597788
  0
LINE
  8
_1-2_極細2
  6
CONTINUOUS
 62
    2
 10
417.21305783574849
 20
453.36036130602179
 11
412.81305783579251
 21
457.76036130597788
  0
LINE
  8
_1-2_極細2
  6
CONTINUOUS
 62
    2
 10
416.08168698585018
 20
453.36036130602179
 11
411.6816869858942
 21
457.76036130597788
  0
LINE
  8
_1-2_極細2
  6
CONTINUOUS
 62
    2
 10
414.95031613595188
 20
453.36036130602179
 11
410.5503161359959
 21
457.76036130597788
  0
LINE
  8
_1-2_極細2
  6
CONTINUOUS
 62
    2
 10
413.81894528605358
 20
453.36036130602179
 11
409.4189452860976
 21
457.76036130597788
  0
LINE
  8
_1-2_極細2
  6
CONTINUOUS
 62
    2
 10
412.68757443615527
 20
453.36036130602179
 11
408.28757443619907
 21
457.76036130597788
  0
LINE
  8
_1-2_極細2
  6
CONTINUOUS
 62
    2
 10
411.55620358625697
 20
453.36036130602179
 11
407.15620358630076
 21
457.76036130597788
  0
LINE
  8
_1-2_極細2
  6
CONTINUOUS
 62
    2
 10
410.42483273635867
 20
453.36036130602179
 11
406.02483273640246
 21
457.76036130597788
  0
LINE
  8
_1-2_極細2
  6
CONTINUOUS
 62
    2
 10
409.29346188646036
 20
453.36036130602179
 11
404.89346188650416
 21
457.76036130597788
  0
LINE
  8
_1-2_極細2
  6
CONTINUOUS
 62
    2
 10
408.16209103656149
 20
453.36036130602179
 11
403.76209103660585
 21
457.76036130597788
  0
LINE
  8
_1-2_極細2
  6
CONTINUOUS
 62
    2
 10
407.03072018666319
 20
453.36036130602179
 11
402.63072018670755
 21
457.76036130597788
  0
LINE
  8
_1-2_極細2
  6
CONTINUOUS
 62
    2
 10
405.89934933676489
 20
453.36036130602179
 11
401.49934933680925
 21
457.76036130597788
  0
LINE
  8
_1-2_極細2
  6
CONTINUOUS
 62
    2
 10
404.76797848686658
 20
453.36036130602179
 11
400.36797848691094
 21
457.76036130597788
  0
LINE
  8
_1-2_極細2
  6
CONTINUOUS
 62
    2
 10
403.63660763696828
 20
453.36036130602179
 11
399.23660763701196
 21
457.76036130597788
  0
LINE
  8
_1-2_極細2
  6
CONTINUOUS
 62
    2
 10
402.50523678706998
 20
453.36036130602179
 11
398.10523678711365
 21
457.76036130597788
  0
LINE
  8
_1-2_極細2
  6
CONTINUOUS
 62
    2
 10
401.37386593717167
 20
453.36036130602179
 11
396.97386593721535
 21
457.76036130597788
  0
LINE
  8
_1-2_極細2
  6
CONTINUOUS
 62
    2
 10
400.24249508727337
 20
453.36036130602179
 11
395.84249508731705
 21
457.76036130597788
  0
LINE
  8
_1-2_極細2
  6
CONTINUOUS
 62
    2
 10
399.11112423737472
 20
453.36036130602179
 11
394.71112423741874
 21
457.76036130597788
  0
LINE
  8
_1-2_極細2
  6
CONTINUOUS
 62
    2
 10
397.97975338747642
 20
453.36036130602179
 11
393.57975338752044
 21
457.76036130597788
  0
LINE
  8
_1-2_極細2
  6
CONTINUOUS
 62
    2
 10
396.84838253757812
 20
453.36036130602179
 11
392.44838253762214
 21
457.76036130597788
  0
LINE
  8
_1-2_極細2
  6
CONTINUOUS
 62
    2
 10
395.71701168767981
 20
453.36036130602179
 11
391.31701168772383
 21
457.76036130597788
  0
LINE
  8
_1-2_極細2
  6
CONTINUOUS
 62
    2
 10
394.58564083778151
 20
453.36036130602179
 11
390.18564083782496
 21
457.76036130597788
  0
LINE
  8
_1-2_極細2
  6
CONTINUOUS
 62
    2
 10
393.45426998788321
 20
453.36036130602179
 11
389.05426998792666
 21
457.76036130597788
  0
LINE
  8
_1-2_極細2
  6
CONTINUOUS
 62
    2
 10
392.3228991379849
 20
453.36036130602179
 11
387.92289913802836
 21
457.76036130597788
  0
LINE
  8
_1-2_極細2
  6
CONTINUOUS
 62
    2
 10
391.1915282880866
 20
453.36036130602179
 11
386.79152828813005
 21
457.76036130597788
  0
LINE
  8
_1-2_極細2
  6
CONTINUOUS
 62
    2
 10
390.06015743818807
 20
453.36036130602179
 11
385.66015743823175
 21
457.76036130597788
  0
LINE
  8
_1-2_極細2
  6
CONTINUOUS
 62
    2
 10
388.92878658828977
 20
453.36036130602179
 11
384.52878658833345
 21
457.76036130597788
  0
LINE
  8
_1-2_極細2
  6
CONTINUOUS
 62
    2
 10
387.79741573839146
 20
453.36036130602179
 11
383.39741573843514
 21
457.76036130597788
  0
LINE
  8
_1-2_極細2
  6
CONTINUOUS
 62
    2
 10
386.66604488849316
 20
453.36036130602179
 11
382.26604488853684
 21
457.76036130597788
  0
LINE
  8
_1-2_極細2
  6
CONTINUOUS
 62
    2
 10
385.53467403859486
 20
453.36036130602179
 11
381.1346740386382
 21
457.76036130597788
  0
LINE
  8
_1-2_極細2
  6
CONTINUOUS
 62
    2
 10
384.40330318869655
 20
453.36036130602179
 11
380.00330318873989
 21
457.76036130597788
  0
LINE
  8
_1-2_極細2
  6
CONTINUOUS
 62
    2
 10
383.27193233879825
 20
453.36036130602179
 11
378.87193233884159
 21
457.76036130597788
  0
LINE
  8
_1-2_極細2
  6
CONTINUOUS
 62
    2
 10
382.14056148889995
 20
453.36036130602179
 11
377.74056148894329
 21
457.76036130597788
  0
LINE
  8
_1-2_極細2
  6
CONTINUOUS
 62
    2
 10
381.00919063900096
 20
453.36036130602179
 11
376.60919063904498
 21
457.76036130597788
  0
LINE
  8
_1-2_極細2
  6
CONTINUOUS
 62
    2
 10
379.87781978910266
 20
453.36036130602179
 11
375.47781978914668
 21
457.76036130597788
  0
LINE
  8
_1-2_極細2
  6
CONTINUOUS
 62
    2
 10
378.74644893920436
 20
453.36036130602179
 11
374.77184574762987
 21
457.33496449759662
  0
LINE
  8
_1-2_極細2
  6
CONTINUOUS
 62
    2
 10
377.61507808930605
 20
453.36036130602179
 11
374.77184574762987
 21
456.20359364769831
  0
LINE
  8
_1-2_極細2
  6
CONTINUOUS
 62
    2
 10
376.48370723940775
 20
453.36036130602179
 11
374.77184574762987
 21
455.0722227977999
  0
LINE
  8
_1-2_極細2
  6
CONTINUOUS
 62
    2
 10
375.35233638950945
 20
453.36036130602179
 11
374.77184574762987
 21
453.94085194790159
  0
LINE
  8
_1-2_極細2
  6
CONTINUOUS
 62
    2
 10
371.72465955474911
 20
358.96036130696666
 11
374.77184574762987
 21
362.00754749984719
  0
LINE
  8
_1-2_極細2
  6
CONTINUOUS
 62
    2
 10
366.06780530525668
 20
358.96036130696666
 11
374.77184574762987
 21
367.66440174933962
  0
LINE
  8
_1-2_極細2
  6
CONTINUOUS
 62
    2
 10
360.4109510557646
 20
358.96036130696666
 11
372.41095105564455
 21
370.96036130684661
  0
LINE
  8
_1-2_極細2
  6
CONTINUOUS
 62
    2
 10
294.75409680687176
 20
298.96036130756659
 11
294.77184582763005
 21
298.9781103283251
  0
LINE
  8
_1-2_極細2
  6
CONTINUOUS
 62
    2
 10
354.75409680627183
 20
358.96036130696666
 11
366.75409680615178
 21
370.96036130684661
  0
LINE
  8
_1-2_極細2
  6
CONTINUOUS
 62
    2
 10
289.09724255737933
 20
298.96036130756659
 11
294.77184582763005
 21
304.63496457781753
  0
LINE
  8
_1-2_極細2
  6
CONTINUOUS
 62
    2
 10
349.09724255677941
 20
358.96036130696666
 11
361.09724255665935
 21
370.96036130684661
  0
LINE
  8
_1-2_極細2
  6
CONTINUOUS
 62
    2
 10
285.37184583703061
 20
300.89181883671029
 11
294.77184582763005
 21
310.29181882730995
  0
LINE
  8
_1-2_極細2
  6
CONTINUOUS
 62
    2
 10
343.44038830728698
 20
358.96036130696666
 11
355.44038830716693
 21
370.96036130684661
  0
LINE
  8
_1-2_極細2
  6
CONTINUOUS
 62
    2
 10
285.37184583703061
 20
306.54867308620271
 11
294.77184582763005
 21
315.94867307680238
  0
LINE
  8
_1-2_極細2
  6
CONTINUOUS
 62
    2
 10
337.78353405779455
 20
358.96036130696666
 11
349.7835340576745
 21
370.96036130684661
  0
LINE
  8
_1-2_極細2
  6
CONTINUOUS
 62
    2
 10
285.37184583703061
 20
312.20552733569514
 11
294.77184582763005
 21
321.6055273262948
  0
LINE
  8
_1-2_極細2
  6
CONTINUOUS
 62
    2
 10
332.12667980830247
 20
358.96036130696666
 11
344.12667980818242
 21
370.96036130684661
  0
LINE
  8
_1-2_極細2
  6
CONTINUOUS
 62
    2
 10
285.37184583703061
 20
317.86238158518756
 11
294.77184582763005
 21
327.26238157578723
  0
LINE
  8
_1-2_極細2
  6
CONTINUOUS
 62
    2
 10
326.4698255588097
 20
358.96036130696666
 11
338.46982555868965
 21
370.96036130684661
  0
LINE
  8
_1-2_極細2
  6
CONTINUOUS
 62
    2
 10
285.37184583703061
 20
323.51923583467999
 11
294.77184582763005
 21
332.91923582527971
  0
LINE
  8
_1-2_極細2
  6
CONTINUOUS
 62
    2
 10
320.81297130931728
 20
358.96036130696666
 11
332.81297130919722
 21
370.96036130684661
  0
LINE
  8
_1-2_極細2
  6
CONTINUOUS
 62
    2
 10
285.37184583703061
 20
329.17609008417242
 11
294.77184582763005
 21
338.57609007477214
  0
LINE
  8
_1-2_極細2
  6
CONTINUOUS
 62
    2
 10
315.15611705982485
 20
358.96036130696666
 11
327.1561170597048
 21
370.96036130684661
  0
LINE
  8
_1-2_極細2
  6
CONTINUOUS
 62
    2
 10
285.37184583703061
 20
334.83294433366484
 11
294.77184582763005
 21
344.23294432426457
  0
LINE
  8
_1-2_極細2
  6
CONTINUOUS
 62
    2
 10
309.49926281033243
 20
358.96036130696666
 11
321.49926281021237
 21
370.96036130684661
  0
LINE
  8
_1-2_極細2
  6
CONTINUOUS
 62
    2
 10
285.37184583703061
 20
340.48979858315727
 11
294.77184582763005
 21
349.88979857375699
  0
LINE
  8
_1-2_極細2
  6
CONTINUOUS
 62
    2
 10
303.84240856084011
 20
358.96036130696666
 11
315.84240856072006
 21
370.96036130684661
  0
LINE
  8
_1-2_極細2
  6
CONTINUOUS
 62
    2
 10
285.37184583703061
 20
346.14665283264969
 11
294.77184582763005
 21
355.54665282324942
  0
LINE
  8
_1-2_極細2
  6
CONTINUOUS
 62
    2
 10
298.18555431134757
 20
358.96036130696666
 11
310.18555431122752
 21
370.96036130684661
  0
LINE
  8
_1-2_極細2
  6
CONTINUOUS
 62
    2
 10
285.37184583703061
 20
351.80350708214212
 11
304.52870006173521
 21
370.96036130684661
  0
LINE
  8
_1-2_極細2
  6
CONTINUOUS
 62
    2
 10
285.37184583703061
 20
357.46036133163454
 11
298.87184581224267
 21
370.96036130684661
  0
LINE
  8
_1-2_極細2
  6
CONTINUOUS
 62
    2
 10
285.37184583703061
 20
363.11721558112697
 11
294.77184582763005
 21
372.51721557172669
  0
LINE
  8
_1-2_極細2
  6
CONTINUOUS
 62
    2
 10
285.37184583703061
 20
368.7740698306194
 11
294.77184582763005
 21
378.17406982121912
  0
LINE
  8
_1-2_極細2
  6
CONTINUOUS
 62
    2
 10
285.37184583703061
 20
374.43092408011182
 11
294.77184582763005
 21
383.83092407071155
  0
LINE
  8
_1-2_極細2
  6
CONTINUOUS
 62
    2
 10
285.37184583703061
 20
380.08777832960425
 11
294.77184582763005
 21
389.48777832020397
  0
LINE
  8
_1-2_極細2
  6
CONTINUOUS
 62
    2
 10
285.37184583703061
 20
385.74463257909667
 11
294.77184582763005
 21
395.1446325696964
  0
LINE
  8
_1-2_極細2
  6
CONTINUOUS
 62
    2
 10
285.37184583703061
 20
391.4014868285891
 11
294.77184582763005
 21
400.80148681918882
  0
LINE
  8
_1-2_極細2
  6
CONTINUOUS
 62
    2
 10
285.37184583703061
 20
397.05834107808153
 11
294.51407706312841
 21
406.20057230417962
  0
LINE
  8
_1-2_極細2
  6
CONTINUOUS
 62
    2
 10
285.37184583703061
 20
402.71519532757395
 11
293.882441470608
 21
411.22579096115152
  0
LINE
  8
_1-2_極細2
  6
CONTINUOUS
 62
    2
 10
285.37184583703061
 20
408.37204957706638
 11
293.25080587808748
 21
416.25100961812342
  0
LINE
  8
_1-2_極細2
  6
CONTINUOUS
 62
    2
 10
285.37184583703061
 20
414.0289038265588
 11
292.61917028556695
 21
421.27622827509532
  0
LINE
  8
_1-2_極細2
  6
CONTINUOUS
 62
    2
 10
285.37184583703061
 20
419.68575807605123
 11
291.98753469304643
 21
426.30144693206722
  0
LINE
  8
_1-2_極細2
  6
CONTINUOUS
 62
    2
 10
285.37184583703061
 20
425.34261232554366
 11
291.3558991005259
 21
431.32666558903912
  0
LINE
  8
_1-2_極細2
  6
CONTINUOUS
 62
    2
 10
285.37184583703061
 20
430.99946657503608
 11
290.72426350800527
 21
436.35188424601102
  0
LINE
  8
_1-2_極細2
  6
CONTINUOUS
 62
    2
 10
285.37184583703061
 20
436.65632082452851
 11
288.47588631866006
 21
439.76036130615796
  0
LINE
  8
_1-2_極細2
  6
CONTINUOUS
 62
    2
 10
281.37184584103056
 20
438.31317507802089
 11
287.67033182146702
 21
444.61166105845734
  0
LINE
  8
_1-2_極細2
  6
CONTINUOUS
 62
    2
 10
281.37184584103056
 20
443.97002932751332
 11
287.03869607299134
 21
449.63687955947444
  0
LINE
  8
_1-2_極細2
  6
CONTINUOUS
 62
    2
 10
281.37184584103056
 20
449.62688357700574
 11
286.40706032451612
 21
454.6620980604913
  0
LINE
  8
_1-2_極細2
  6
CONTINUOUS
 62
    2
 10
280.12981192009522
 20
454.04170390556283
 11
285.77542457604045
 21
459.68731656150823
  0
LINE
  8
_1-2_極細2
  6
CONTINUOUS
 62
    2
 10
277.21049947207553
 20
456.77924570703544
 11
284.64367047614928
 21
464.21241671110931
  0
LINE
  8
_1-2_極細2
  6
CONTINUOUS
 62
    2
 10
272.53476082152542
 20
457.76036130597788
 11
280.5347608175905
 21
465.76036130204312
  0
LINE
  8
_1-2_極細2
  6
CONTINUOUS
 62
    2
 10
266.877906572033
 20
457.76036130597788
 11
274.87790656872551
 21
465.7603613026705
  0
LINE
  8
_1-2_極細2
  6
CONTINUOUS
 62
    2
 10
261.22105232254057
 20
457.76036130597788
 11
269.22105231986029
 21
465.7603613032976
  0
LINE
  8
_1-2_極細2
  6
CONTINUOUS
 62
    2
 10
255.56419807304815
 20
457.76036130597788
 11
263.56419807099542
 21
465.76036130392504
  0
LINE
  8
_1-2_極細2
  6
CONTINUOUS
 62
    2
 10
249.90734382355572
 20
457.76036130597788
 11
257.90734382213009
 21
465.76036130455213
  0
LINE
  8
_1-2_極細2
  6
CONTINUOUS
 62
    2
 10
245.77184587662964
 20
459.28171760854423
 11
252.25048957326476
 21
465.76036130517969
  0
LINE
  8
_1-2_極細2
  6
CONTINUOUS
 62
    2
 10
245.77184587662964
 20
464.93857185803665
 11
246.59363532439988
 21
465.76036130580678
  0
LINE
  8
_1-2_極細2
  6
CONTINUOUS
 62
    2
 10
374.77184574762987
 20
368.77204961666359
 11
372.5835340574464
 21
370.96036130684661
  0
LINE
  8
_1-2_極細2
  6
CONTINUOUS
 62
    2
 10
286.0512840862541
 20
457.49261127803976
 11
277.7835340619456
 21
465.76036130234826
  0
LINE
  8
_1-2_極細2
  6
CONTINUOUS
 62
    2
 10
374.77184574762987
 20
363.11519536717151
 11
366.92667980795477
 21
370.96036130684661
  0
LINE
  8
_1-2_極細2
  6
CONTINUOUS
 62
    2
 10
286.86453185445157
 20
451.02250926034986
 11
272.12667981182608
 21
465.76036130297553
  0
LINE
  8
_1-2_極細2
  6
CONTINUOUS
 62
    2
 10
373.26982555834206
 20
358.96036130696666
 11
361.26982555846212
 21
370.96036130684661
  0
LINE
  8
_1-2_極細2
  6
CONTINUOUS
 62
    2
 10
287.67777962264904
 20
444.55240724266014
 11
281.28337808069193
 21
450.94680878461679
  0
LINE
  8
_1-2_極細2
  6
CONTINUOUS
 62
    2
 10
274.55829332758935
 20
457.67189353771965
 11
266.46982556170644
 21
465.76036130360274
  0
LINE
  8
_1-2_極細2
  6
CONTINUOUS
 62
    2
 10
367.61297130884964
 20
358.96036130696666
 11
355.61297130896969
 21
370.96036130684661
  0
LINE
  8
_1-2_極細2
  6
CONTINUOUS
 62
    2
 10
290.7965498249107
 20
435.77678279090617
 11
281.37184584103056
 21
445.2014867747863
  0
LINE
  8
_1-2_極細2
  6
CONTINUOUS
 62
    2
 10
268.81297130983899
 20
457.76036130597788
 11
260.81297131158703
 21
465.76036130423017
  0
LINE
  8
_1-2_極細2
  6
CONTINUOUS
 62
    2
 10
361.95611705935721
 20
358.96036130696666
 11
349.95611705947726
 21
370.96036130684661
  0
LINE
  8
_1-2_極細2
  6
CONTINUOUS
 62
    2
 10
291.60979733457737
 20
429.30668103174685
 11
285.37184583703061
 21
435.54463252929372
  0
LINE
  8
_1-2_極細2
  6
CONTINUOUS
 62
    2
 10
283.15611706014647
 20
437.76036130617797
 11
281.37184584103056
 21
439.54463252529388
  0
LINE
  8
_1-2_極細2
  6
CONTINUOUS
 62
    2
 10
263.15611706034656
 20
457.76036130597788
 11
255.15611706146706
 21
465.76036130485738
  0
LINE
  8
_1-2_極細2
  6
CONTINUOUS
 62
    2
 10
356.29926280986479
 20
358.96036130696666
 11
344.29926280998484
 21
370.96036130684661
  0
LINE
  8
_1-2_極細2
  6
CONTINUOUS
 62
    2
 10
292.42304484424471
 20
422.8365792725873
 11
285.37184583703061
 21
429.8877782798013
  0
LINE
  8
_1-2_極細2
  6
CONTINUOUS
 62
    2
 10
257.49926281085413
 20
457.76036130597788
 11
249.49926281134742
 21
465.76036130548465
  0
LINE
  8
_1-2_極細2
  6
CONTINUOUS
 62
    2
 10
350.64240856037259
 20
358.96036130696666
 11
338.64240856049264
 21
370.96036130684661
  0
LINE
  8
_1-2_極細2
  6
CONTINUOUS
 62
    2
 10
293.23629235391149
 20
416.36647751342798
 11
285.37184583703061
 21
424.23092403030898
  0
LINE
  8
_1-2_極細2
  6
CONTINUOUS
 62
    2
 10
251.84240856136171
 20
457.76036130597788
 11
245.77184587662964
 21
463.83092399071029
  0
LINE
  8
_1-2_極細2
  6
CONTINUOUS
 62
    2
 10
344.98555431088027
 20
358.96036130696666
 11
332.98555431100033
 21
370.96036130684661
  0
LINE
  8
_1-2_極細2
  6
CONTINUOUS
 62
    2
 10
294.04953986357873
 20
409.89637575426843
 11
285.37184583703061
 21
418.57406978081656
  0
LINE
  8
_1-2_極細2
  6
CONTINUOUS
 62
    2
 10
246.18555431186928
 20
457.76036130597788
 11
245.77184587662964
 21
458.17406974121786
  0
LINE
  8
_1-2_極細2
  6
CONTINUOUS
 62
    2
 10
339.32870006138785
 20
358.96036130696666
 11
327.3287000615079
 21
370.96036130684661
  0
LINE
  8
_1-2_極細2
  6
CONTINUOUS
 62
    2
 10
294.77184582763005
 20
403.51721554072458
 11
285.37184583703061
 21
412.91721553132413
  0
LINE
  8
_1-2_極細2
  6
CONTINUOUS
 62
    2
 10
333.67184581189576
 20
358.96036130696666
 11
321.67184581201582
 21
370.96036130684661
  0
LINE
  8
_1-2_極細2
  6
CONTINUOUS
 62
    2
 10
294.77184582763005
 20
397.86036129123232
 11
285.37184583703061
 21
407.26036128183171
  0
LINE
  8
_1-2_極細2
  6
CONTINUOUS
 62
    2
 10
328.014991562403
 20
358.96036130696666
 11
316.01499156252305
 21
370.96036130684661
  0
LINE
  8
_1-2_極細2
  6
CONTINUOUS
 62
    2
 10
294.77184582763005
 20
392.2035070417399
 11
285.37184583703061
 21
401.60350703233928
  0
LINE
  8
_1-2_極細2
  6
CONTINUOUS
 62
    2
 10
322.35813731291057
 20
358.96036130696666
 11
310.35813731303074
 21
370.96036130684661
  0
LINE
  8
_1-2_極細2
  6
CONTINUOUS
 62
    2
 10
294.77184582763005
 20
386.54665279224747
 11
285.37184583703061
 21
395.9466527828472
  0
LINE
  8
_1-2_極細2
  6
CONTINUOUS
 62
    2
 10
316.70128306341815
 20
358.96036130696666
 11
304.7012830635382
 21
370.96036130684661
  0
LINE
  8
_1-2_極細2
  6
CONTINUOUS
 62
    2
 10
294.77184582763005
 20
380.88979854275505
 11
285.37184583703061
 21
390.28979853335477
  0
LINE
  8
_1-2_極細2
  6
CONTINUOUS
 62
    2
 10
311.04442881392629
 20
358.96036130696666
 11
299.04442881404634
 21
370.96036130684661
  0
LINE
  8
_1-2_極細2
  6
CONTINUOUS
 62
    2
 10
294.77184582763005
 20
375.23294429326262
 11
285.37184583703061
 21
384.63294428386234
  0
LINE
  8
_1-2_極細2
  6
CONTINUOUS
 62
    2
 10
305.38757456443386
 20
358.96036130696666
 11
285.37184583703061
 21
378.97609003436992
  0
LINE
  8
_1-2_極細2
  6
CONTINUOUS
 62
    2
 10
299.73072031494144
 20
358.96036130696666
 11
285.37184583703061
 21
373.31923578487749
  0
LINE
  8
_1-2_極細2
  6
CONTINUOUS
 62
    2
 10
294.77184582763005
 20
358.26238154478534
 11
285.37184583703061
 21
367.66238153538535
  0
LINE
  8
_1-2_極細2
  6
CONTINUOUS
 62
    2
 10
294.77184582763005
 20
352.60552729529292
 11
285.37184583703061
 21
362.00552728589264
  0
LINE
  8
_1-2_極細2
  6
CONTINUOUS
 62
    2
 10
294.77184582763005
 20
346.94867304580077
 11
285.37184583703061
 21
356.3486730364005
  0
LINE
  8
_1-2_極細2
  6
CONTINUOUS
 62
    2
 10
294.77184582763005
 20
341.29181879630835
 11
285.37184583703061
 21
350.69181878690807
  0
LINE
  8
_1-2_極細2
  6
CONTINUOUS
 62
    2
 10
294.77184582763005
 20
335.63496454681592
 11
285.37184583703061
 21
345.03496453741565
  0
LINE
  8
_1-2_極細2
  6
CONTINUOUS
 62
    2
 10
294.77184582763005
 20
329.9781102973235
 11
285.37184583703061
 21
339.37811028792322
  0
LINE
  8
_1-2_極細2
  6
CONTINUOUS
 62
    2
 10
294.77184582763005
 20
324.32125604783107
 11
285.37184583703061
 21
333.72125603843079
  0
LINE
  8
_1-2_極細2
  6
CONTINUOUS
 62
    2
 10
294.77184582763005
 20
318.66440179833899
 11
285.37184583703061
 21
328.06440178893837
  0
LINE
  8
_1-2_極細2
  6
CONTINUOUS
 62
    2
 10
294.77184582763005
 20
313.00754754884622
 11
285.37184583703061
 21
322.40754753944589
  0
LINE
  8
_1-2_極細2
  6
CONTINUOUS
 62
    2
 10
294.77184582763005
 20
307.35069329935413
 11
285.37184583703061
 21
316.75069328995346
  0
LINE
  8
_1-2_極細2
  6
CONTINUOUS
 62
    2
 10
294.77184582763005
 20
301.69383904986171
 11
285.37184583703061
 21
311.09383904046103
  0
LINE
  8
_1-2_極細2
  6
CONTINUOUS
 62
    2
 10
291.84846932043251
 20
298.96036130756659
 11
285.37184583703061
 21
305.43698479096895
  0
LINE
  8
_1-2_極細2
  6
CONTINUOUS
 62
    2
 10
286.19161507094054
 20
298.96036130756659
 11
285.37184583703061
 21
299.78013054147652
  0
LINE
  8
_1-2_極細2
  6
CONTINUOUS
 62
    2
 10
288.24603589626372
 20
440.03142813240959
 11
290.03669627058139
 21
441.82208850672743
  0
LINE
  8
_1-2_極細2
  6
CONTINUOUS
 62
    2
 10
287.61439987034669
 20
445.05664635598498
 11
289.40506067806132
 21
446.8473071636995
  0
LINE
  8
_1-2_極細2
  6
CONTINUOUS
 62
    2
 10
286.98276384442966
 20
450.08186457956037
 11
288.77342508554068
 21
451.8725258206714
  0
LINE
  8
_1-2_極細2
  6
CONTINUOUS
 62
    2
 10
286.35112781851262
 20
455.10708280313577
 11
288.14178949302027
 21
456.89774447764341
  0
LINE
  8
_1-2_極細2
  6
CONTINUOUS
 62
    2
 10
285.71949179259559
 20
460.13230102671105
 11
287.51015390049963
 21
461.92296313461532
  0
LINE
  8
_1-2_極細2
  6
CONTINUOUS
 62
    2
 10
284.41356685342384
 20
464.48323033703173
 11
285.82841401754126
 21
465.89807750114915
  0
LINE
  8
_1-2_極細2
  6
CONTINUOUS
 62
    2
 10
280.03384357279742
 20
465.76036130589785
 11
282.01063256078089
 21
467.73715029388143
  0
LINE
  8
_1-2_極細2
  6
CONTINUOUS
 62
    2
 10
274.376989323305
 20
465.76036130589785
 11
276.37698931819455
 21
467.76036130078739
  0
LINE
  8
_1-2_極細2
  6
CONTINUOUS
 62
    2
 10
268.72013507381257
 20
465.76036130589785
 11
270.72013506964288
 21
467.76036130172827
  0
LINE
  8
_1-2_極細2
  6
CONTINUOUS
 62
    2
 10
263.06328082432015
 20
465.76036130589785
 11
265.06328082109144
 21
467.76036130266914
  0
LINE
  8
_1-2_極細2
  6
CONTINUOUS
 62
    2
 10
257.40642657482772
 20
465.76036130589785
 11
259.40642657253977
 21
467.76036130361001
  0
LINE
  8
_1-2_極細2
  6
CONTINUOUS
 62
    2
 10
251.74957232533529
 20
465.76036130589785
 11
253.74957232398833
 21
467.76036130455088
  0
LINE
  8
_1-2_極細2
  6
CONTINUOUS
 62
    2
 10
246.09271807584287
 20
465.76036130589785
 11
248.09271807543666
 21
467.76036130549193
  0
LINE
  8
_1-5_寸法2
  6
CONTINUOUS
 62
    7
 10
312.38735825306344
 20
387.53174541543922
 11
304.38735832066334
 21
373.67533891585941
  0
LINE
  8
_1-5_寸法2
  6
CONTINUOUS
 62
    7
 10
312.38735825306344
 20
387.53174541543922
 11
298.5309518315413
 21
379.53174534783938
  0
LINE
  8
_1-5_寸法2
  6
CONTINUOUS
 62
    7
 10
312.38735825306344
 20
387.53174541543922
 11
262.71066725077776
 21
337.85505392844817
  0
LINE
  8
_1-5_寸法2
  6
CONTINUOUS
 62
    7
 10
262.71066725077776
 20
337.85505392844817
 11
147.51066725077794
 21
337.85505392844817
  0
TEXT
  8
_1-5_寸法2
 62
    7
 10
147.51066725077794
 20
337.85505392844817
 40
24
 41
0.7999999999999998
 50
0
  1
ストレーナー
  0
LINE
  8
_1-5_寸法2
  6
CONTINUOUS
 62
    7
 10
451.05608790534336
 20
324.87629623253633
 11
462.95354282402639
 21
314.17813908011499
  0
LINE
  8
_1-5_寸法2
  6
CONTINUOUS
 62
    7
 10
451.05608790534336
 20
324.87629623253633
 11
456.01050752909225
 21
309.66269290551963
  0
LINE
  8
_1-5_寸法2
  6
CONTINUOUS
 62
    7
 10
451.05608790534336
 20
324.87629623253633
 11
519.93917474988052
 21
218.96036130756659
  0
LINE
  8
_1-5_寸法2
  6
CONTINUOUS
 62
    7
 10
519.93917474988052
 20
218.96036130756659
 11
577.53917474988054
 21
218.96036130756659
  0
TEXT
  8
_1-5_寸法2
 62
    7
 10
519.93917474988052
 20
218.96036130756659
 40
24
 41
0.7999999999999998
 50
0
  1
排水口
  0
LINE
  8
_1-5_寸法2
  6
CONTINUOUS
 62
    7
 10
494.99252216382376
 20
441.25188853509309
 11
509.95800254421306
 21
435.59199480957295
  0
LINE
  8
_1-5_寸法2
  6
CONTINUOUS
 62
    7
 10
494.99252216382376
 20
441.25188853509309
 11
505.12306149031849
 21
428.86753659587788
  0
LINE
  8
_1-5_寸法2
  6
CONTINUOUS
 62
    7
 10
494.99252216382376
 20
441.25188853509309
 11
564.88647146410312
 21
390.99756110057808
  0
LINE
  8
_1-5_寸法2
  6
CONTINUOUS
 62
    7
 10
564.88647146410312
 20
390.99756110057808
 11
680.08647146410306
 21
390.99756110057808
  0
TEXT
  8
_1-5_寸法2
 62
    7
 10
564.88647146410312
 20
390.99756110057808
 40
24
 41
0.7999999999999998
 50
0
  1
ロックナット
  0
LINE
  8
_1-5_寸法2
  6
CONTINUOUS
 62
    7
 10
493.64333201292288
 20
456.1260468401656
 11
497.25847209723099
 21
471.71228314566378
  0
LINE
  8
_1-5_寸法2
  6
CONTINUOUS
 62
    7
 10
493.64333201292288
 20
456.1260468401656
 11
504.56725331692223
 21
467.81655338796031
  0
LINE
  8
_1-5_寸法2
  6
CONTINUOUS
 62
    7
 10
493.64333201292288
 20
456.1260468401656
 11
548.17184565422872
 21
558.42702797243794
  0
LINE
  8
_1-5_寸法2
  6
CONTINUOUS
 62
    7
 10
548.17184565422872
 20
558.42702797243794
 11
624.97184565422856
 21
558.42702797243794
  0
TEXT
  8
_1-5_寸法2
 62
    7
 10
548.17184565422872
 20
558.42702797243794
 40
24
 41
0.7999999999999998
 50
0
  1
パッキン
  0
LINE
  8
_1-5_寸法2
  6
CONTINUOUS
 62
    7
 10
281.37184584103056
 20
286.94811064086025
 11
281.37184584102988
 21
210.96036130756659
  0
LINE
  8
_1-5_寸法2
  6
CONTINUOUS
 62
    7
 10
281.37184584102999
 20
218.96036130756659
 11
296.82665906165516
 21
223.1014660292069
  0
LINE
  8
_1-5_寸法2
  6
CONTINUOUS
 62
    7
 10
281.37184584102999
 20
218.96036130756659
 11
296.82665906165516
 21
214.81925658592627
  0
LINE
  8
_1-5_寸法2
  6
CONTINUOUS
 62
    7
 10
468.17184565422872
 20
286.94811064086025
 11
468.17184565422849
 21
210.96036130756659
  0
LINE
  8
_1-5_寸法2
  6
CONTINUOUS
 62
    7
 10
468.17184565422849
 20
218.96036130756659
 11
452.71703243360344
 21
214.81925658592627
  0
LINE
  8
_1-5_寸法2
  6
CONTINUOUS
 62
    7
 10
468.17184565422849
 20
218.96036130756659
 11
452.71703243360344
 21
223.10146602920702
  0
LINE
  8
_1-5_寸法2
  6
CONTINUOUS
 62
    7
 10
281.37184584102999
 20
218.96036130756659
 11
468.17184565422849
 21
218.96036130756659
  0
TEXT
  8
_1-5_寸法2
 62
    7
 10
350.77184574762907
 20
218.96036130756659
 40
24
 41
1
 50
0
  1
46.7
  0
LINE
  8
_1-2_極細2
  6
CENTER1
 62
    2
 10
374.77184574762987
 20
498.43793463890415
 11
374.77184574762987
 21
279.79535864109096
  0
LINE
  8
_1-5_寸法2
  6
CONTINUOUS
 62
    7
 10
480.17184565822868
 20
298.96036130756647
 11
556.17184565422872
 21
298.96036130756625
  0
LINE
  8
_1-5_寸法2
  6
CONTINUOUS
 62
    7
 10
548.17184565422872
 20
298.96036130756625
 11
544.0307409325884
 21
314.41517452819141
  0
LINE
  8
_1-5_寸法2
  6
CONTINUOUS
 62
    7
 10
548.17184565422872
 20
298.96036130756625
 11
552.31295037586904
 21
314.41517452819141
  0
LINE
  8
_1-5_寸法2
  6
CONTINUOUS
 62
    7
 10
494.77184564363006
 20
390.16036130665412
 11
556.17184565422872
 21
390.16036130665384
  0
LINE
  8
_1-5_寸法2
  6
CONTINUOUS
 62
    7
 10
548.17184565422872
 20
390.1603613066539
 11
552.31295037586904
 21
374.70554808602878
  0
LINE
  8
_1-5_寸法2
  6
CONTINUOUS
 62
    7
 10
548.17184565422872
 20
390.1603613066539
 11
544.0307409325884
 21
374.70554808602878
  0
LINE
  8
_1-5_寸法2
  6
CONTINUOUS
 62
    7
 10
548.17184565422872
 20
298.96036130756625
 11
548.17184565422872
 21
390.1603613066539
  0
TEXT
  8
_1-5_寸法2
 62
    7
 10
548.17184565422872
 20
332.5603613071101
 40
24
 41
1
 50
90
  1
23
  0
LINE
  8
_1-5_寸法2
  6
CONTINUOUS
 62
    7
 10
276.77184574762987
 20
492.16036130602288
 11
276.77184574762998
 21
542.96036186923561
  0
LINE
  8
_1-5_寸法2
  6
CONTINUOUS
 62
    7
 10
276.77184574762998
 20
534.96036186923561
 11
292.22665896825515
 21
539.10146659087593
  0
LINE
  8
_1-5_寸法2
  6
CONTINUOUS
 62
    7
 10
276.77184574762998
 20
534.96036186923561
 11
292.22665896825515
 21
530.81925714759529
  0
LINE
  8
_1-5_寸法2
  6
CONTINUOUS
 62
    7
 10
472.77184574762987
 20
492.16036130602288
 11
472.77184574762998
 21
542.96036186923561
  0
LINE
  8
_1-5_寸法2
  6
CONTINUOUS
 62
    7
 10
472.77184574762998
 20
534.96036186923561
 11
457.31703252700481
 21
530.81925714759529
  0
LINE
  8
_1-5_寸法2
  6
CONTINUOUS
 62
    7
 10
472.77184574762998
 20
534.96036186923561
 11
457.31703252700493
 21
539.10146659087604
  0
LINE
  8
_1-5_寸法2
  6
CONTINUOUS
 62
    7
 10
276.77184574762998
 20
534.96036186923561
 11
472.77184574762998
 21
534.96036186923561
  0
TEXT
  8
_1-5_寸法2
 62
    7
 10
317.77184574762998
 20
534.96036186923561
 40
24
 41
1
 50
0
  1
φ49___±0.5
  0
LINE
  8
_1-5_寸法2
  6
CONTINUOUS
 62
    7
 10
244.77184574762987
 20
492.16036130602271
 11
244.77184574762998
 21
598.96036186923561
  0
LINE
  8
_1-5_寸法2
  6
CONTINUOUS
 62
    7
 10
244.77184574762998
 20
590.96036186923561
 11
260.22665896825515
 21
595.10146659087593
  0
LINE
  8
_1-5_寸法2
  6
CONTINUOUS
 62
    7
 10
244.77184574762998
 20
590.96036186923561
 11
260.22665896825515
 21
586.81925714759529
  0
LINE
  8
_1-5_寸法2
  6
CONTINUOUS
 62
    7
 10
504.77184574762987
 20
492.16036130602271
 11
504.77184574762998
 21
598.96036186923561
  0
LINE
  8
_1-5_寸法2
  6
CONTINUOUS
 62
    7
 10
504.77184574762998
 20
590.96036186923561
 11
489.31703252700481
 21
586.81925714759529
  0
LINE
  8
_1-5_寸法2
  6
CONTINUOUS
 62
    7
 10
504.77184574762998
 20
590.96036186923561
 11
489.31703252700493
 21
595.10146659087604
  0
LINE
  8
_1-5_寸法2
  6
CONTINUOUS
 62
    7
 10
244.77184574762998
 20
590.96036186923561
 11
504.77184574762998
 21
590.96036186923561
  0
TEXT
  8
_1-5_寸法2
 62
    7
 10
317.77184574762998
 20
590.96036186923561
 40
24
 41
1
 50
0
  1
φ65___±0.3
  0
TEXT
  8
_0-7_枠細線
 62
    5
 10
297.17805755395148
 20
632.96677840702478
 40
32
 41
0.8
 50
0
  1
排水部詳細図
  0
TEXT
  8
_0-7_枠細線
 62
    5
 10
472.8133289501136
 20
632.96677840702478
 40
32
 41
0.6000000000000002
 50
0
  1
Ｓ＝１：２
  0
LINE
  8
_1-5_寸法2
  6
CONTINUOUS
 62
    7
 10
1124
 20
428.96036130602272
 11
1124
 21
494.96036186923567
  0
LINE
  8
_1-5_寸法2
  6
CONTINUOUS
 62
    7
 10
1124
 20
478.96036186923567
 11
1108.5451867793749
 21
474.81925714759541
  0
LINE
  8
_1-5_寸法2
  6
CONTINUOUS
 62
    7
 10
1124
 20
478.96036186923567
 11
1108.5451867793749
 21
483.10146659087604
  0
LINE
  8
_1-5_寸法2
  6
CONTINUOUS
 62
    7
 10
1146
 20
428.96036130602272
 11
1146
 21
494.96036186923567
  0
LINE
  8
_1-5_寸法2
  6
CONTINUOUS
 62
    7
 10
1086.1805646719015
 20
478.96036186923567
 11
1146
 21
478.96036186923567
  0
TEXT
  8
_1-5_寸法2
 62
    7
 10
1086.1805646719015
 20
478.96036186923567
 40
24
 41
1
 50
0
  1
5.5
  0
LINE
  8
_1-5_寸法2
  6
CONTINUOUS
 62
    7
 10
1146
 20
478.96036186923567
 11
1161.4548132206251
 21
483.10146659087587
  0
LINE
  8
_1-5_寸法2
  6
CONTINUOUS
 62
    7
 10
1146
 20
478.96036186923567
 11
1161.4548132206251
 21
474.81925714759524
  0
LINE
  8
_1-5_寸法2
  6
CONTINUOUS
 62
    7
 10
1186
 20
428.96036130602272
 11
1186
 21
494.96036186923567
  0
LINE
  8
_1-5_寸法2
  6
CONTINUOUS
 62
    7
 10
1186
 20
478.96036186923567
 11
1170.5451867793749
 21
474.81925714759541
  0
LINE
  8
_1-5_寸法2
  6
CONTINUOUS
 62
    7
 10
1186
 20
478.96036186923567
 11
1170.5451867793749
 21
483.10146659087604
  0
LINE
  8
_1-5_寸法2
  6
CONTINUOUS
 62
    7
 10
1146
 20
478.96036186923567
 11
1186
 21
478.96036186923567
  0
TEXT
  8
_1-5_寸法2
 62
    7
 10
1154
 20
478.96036186923567
 40
24
 41
1
 50
0
  1
10
  0
LINE
  8
_1-5_寸法2
  6
CONTINUOUS
 62
    7
 10
1084.0000000000032
 20
426.16036186923549
 11
1084.0000000000036
 21
542.96036186923561
  0
LINE
  8
_1-5_寸法2
  6
CONTINUOUS
 62
    7
 10
1084.0000000000036
 20
534.96036186923561
 11
1099.4548132206287
 21
539.10146659087593
  0
LINE
  8
_1-5_寸法2
  6
CONTINUOUS
 62
    7
 10
1084.0000000000036
 20
534.96036186923561
 11
1099.4548132206287
 21
530.81925714759529
  0
LINE
  8
_1-5_寸法2
  6
CONTINUOUS
 62
    7
 10
1372.0000004081971
 20
426.16036186923549
 11
1372.0000004081976
 21
542.96036186923561
  0
LINE
  8
_1-5_寸法2
  6
CONTINUOUS
 62
    7
 10
1372.0000004081976
 20
534.96036186923561
 11
1356.5451871875725
 21
530.81925714759529
  0
LINE
  8
_1-5_寸法2
  6
CONTINUOUS
 62
    7
 10
1372.0000004081976
 20
534.96036186923561
 11
1356.5451871875725
 21
539.10146659087604
  0
LINE
  8
_1-5_寸法2
  6
CONTINUOUS
 62
    7
 10
1084.0000000000036
 20
534.96036186923561
 11
1372.0000004081976
 21
534.96036186923561
  0
TEXT
  8
_1-5_寸法2
 62
    7
 10
1216.0000002041006
 20
534.96036186923561
 40
24
 41
1
 50
0
  1
72
  0
LINE
  8
_1-2_極細2
  6
CONTINUOUS
 62
    2
 10
1376.0000004081971
 20
342.96036130602289
 11
1376.0000004081971
 21
420.16036130602288
  0
LINE
  8
_1-2_極細2
  6
CONTINUOUS
 62
    2
 10
1378.8000004081946
 20
340.16036130602242
 11
1378.8000004081946
 21
417.36036130602224
  0
LINE
  8
_1-2_極細2
  6
CONTINUOUS
 62
    2
 10
1413.2000004081965
 20
388.16036130602242
 11
1413.2000004081965
 21
417.36036130602224
  0
LINE
  8
_1-2_極細2
  6
CONTINUOUS
 62
    2
 10
1416.0000004081962
 20
388.16036130602242
 11
1416.0000004081976
 21
420.16036130602288
  0
LINE
  8
_1-2_極細2
  6
CONTINUOUS
 62
    2
 10
1413.2000004081965
 20
388.16036130602242
 11
1416.0000004081962
 21
388.16036130602242
  0
LINE
  8
_1-2_極細2
  6
CONTINUOUS
 62
    2
 10
1376.0000004081971
 20
420.16036130602288
 11
1416.0000004081976
 21
420.16036130602288
  0
LINE
  8
_1-2_極細2
  6
CONTINUOUS
 62
    2
 10
1378.8000004081946
 20
417.36036130602224
 11
1413.2000004081965
 21
417.36036130602224
  0
LINE
  8
_1-5_寸法2
  6
CONTINUOUS
 62
    7
 10
1376.0000004081971
 20
436.16036130602288
 11
1376.0000004081971
 21
550.96036186923561
  0
LINE
  8
_1-5_寸法2
  6
CONTINUOUS
 62
    7
 10
1376.0000004081971
 20
534.96036186923561
 11
1391.4548136288222
 21
539.10146659087593
  0
LINE
  8
_1-5_寸法2
  6
CONTINUOUS
 62
    7
 10
1376.0000004081971
 20
534.96036186923561
 11
1391.4548136288222
 21
530.81925714759529
  0
LINE
  8
_1-5_寸法2
  6
CONTINUOUS
 62
    7
 10
1416.0000004081976
 20
436.16036130602288
 11
1416.0000004081976
 21
550.96036186923561
  0
LINE
  8
_1-5_寸法2
  6
CONTINUOUS
 62
    7
 10
1416.0000004081976
 20
534.96036186923561
 11
1400.5451871875725
 21
530.81925714759529
  0
LINE
  8
_1-5_寸法2
  6
CONTINUOUS
 62
    7
 10
1416.0000004081976
 20
534.96036186923561
 11
1400.5451871875725
 21
539.10146659087604
  0
LINE
  8
_1-5_寸法2
  6
CONTINUOUS
 62
    7
 10
1376.0000004081971
 20
534.96036186923561
 11
1416.0000004081976
 21
534.96036186923561
  0
TEXT
  8
_1-5_寸法2
 62
    7
 10
1384.0000004081969
 20
534.96036186923561
 40
24
 41
1
 50
0
  1
10
  0
LINE
  8
_1-2_極細2
  6
CONTINUOUS
 62
    2
 10
1077.2000000000019
 20
340.16036130602242
 11
1077.2000000000019
 21
417.36036130602224
  0
LINE
  8
_1-2_極細2
  6
CONTINUOUS
 62
    2
 10
1080.0000000000002
 20
342.96036130602289
 11
1080.0000000000002
 21
420.16036130602288
  0
LINE
  8
_1-2_極細2
  6
CONTINUOUS
 62
    2
 10
1040.0000000000002
 20
388.16036130602299
 11
1040.0000000000002
 21
420.16036130602288
  0
LINE
  8
_1-2_極細2
  6
CONTINUOUS
 62
    2
 10
1042.8000000000004
 20
388.16036130602242
 11
1042.7999999999986
 21
417.36036130602281
  0
LINE
  8
_1-2_極細2
  6
CONTINUOUS
 62
    2
 10
1040.0000000000002
 20
388.16036130602299
 11
1042.8000000000004
 21
388.16036130602299
  0
LINE
  8
_1-2_極細2
  6
CONTINUOUS
 62
    2
 10
1042.8000000000004
 20
417.36036130602224
 11
1077.2000000000019
 21
417.36036130602224
  0
LINE
  8
_1-2_極細2
  6
CONTINUOUS
 62
    2
 10
1040.0000000000002
 20
420.16036130602288
 11
1080.0000000000002
 21
420.16036130602288
  0
LINE
  8
_1-5_寸法2
  6
CONTINUOUS
 62
    7
 10
1061.2000000000019
 20
340.16036130602248
 11
944.00000000000023
 21
340.16036130602276
  0
LINE
  8
_1-5_寸法2
  6
CONTINUOUS
 62
    7
 10
960.00000000000023
 20
340.16036130602271
 11
955.85889527835991
 21
355.61517452664782
  0
LINE
  8
_1-5_寸法2
  6
CONTINUOUS
 62
    7
 10
960.00000000000023
 20
340.16036130602271
 11
964.14110472164054
 21
355.61517452664782
  0
LINE
  8
_1-5_寸法2
  6
CONTINUOUS
 62
    7
 10
1024.0000000000002
 20
388.16036130602305
 11
944.00000000000023
 21
388.16036130602339
  0
LINE
  8
_1-5_寸法2
  6
CONTINUOUS
 62
    7
 10
960.00000000000023
 20
388.16036130602333
 11
964.14110472164043
 21
372.70554808539822
  0
LINE
  8
_1-5_寸法2
  6
CONTINUOUS
 62
    7
 10
960.00000000000023
 20
388.16036130602333
 11
955.8588952783598
 21
372.70554808539828
  0
LINE
  8
_1-5_寸法2
  6
CONTINUOUS
 62
    7
 10
960.00000000000023
 20
340.16036130602271
 11
960.00000000000023
 21
388.16036130602333
  0
TEXT
  8
_1-5_寸法2
 62
    7
 10
960.00000000000023
 20
352.16036130602333
 40
24
 41
1
 50
90
  1
12
  0
LINE
  8
_1-5_寸法2
  6
CONTINUOUS
 62
    7
 10
960.00000000000023
 20
388.16036130602333
 11
955.85889527835991
 21
403.61517452664845
  0
LINE
  8
_1-5_寸法2
  6
CONTINUOUS
 62
    7
 10
960.00000000000023
 20
388.16036130602333
 11
964.14110472164054
 21
403.61517452664845
  0
LINE
  8
_1-5_寸法2
  6
CONTINUOUS
 62
    7
 10
1024.0000000000002
 20
420.16036130602288
 11
944.00000000000023
 21
420.16036130602299
  0
LINE
  8
_1-5_寸法2
  6
CONTINUOUS
 62
    7
 10
960.00000000000023
 20
420.16036130602299
 11
964.14110472164043
 21
404.70554808539788
  0
LINE
  8
_1-5_寸法2
  6
CONTINUOUS
 62
    7
 10
960.00000000000023
 20
420.16036130602299
 11
955.8588952783598
 21
404.70554808539794
  0
LINE
  8
_1-5_寸法2
  6
CONTINUOUS
 62
    7
 10
960.00000000000023
 20
388.16036130602333
 11
960.00000000000023
 21
420.16036130602299
  0
TEXT
  8
_1-5_寸法2
 62
    7
 10
960.00000000000023
 20
398.16036130602333
 40
24
 41
1
 50
90
  1
8
  0
LINE
  8
_1-5_寸法2
  6
CONTINUOUS
 62
    7
 10
1040.0000000000002
 20
436.16036130602288
 11
1040.0000000000002
 21
550.96036186923561
  0
LINE
  8
_1-5_寸法2
  6
CONTINUOUS
 62
    7
 10
1040.0000000000002
 20
534.96036186923561
 11
1055.4548132206253
 21
539.10146659087593
  0
LINE
  8
_1-5_寸法2
  6
CONTINUOUS
 62
    7
 10
1040.0000000000002
 20
534.96036186923561
 11
1055.4548132206253
 21
530.81925714759529
  0
LINE
  8
_1-5_寸法2
  6
CONTINUOUS
 62
    7
 10
1080.0000000000002
 20
436.16036130602288
 11
1080.0000000000002
 21
550.96036186923561
  0
LINE
  8
_1-5_寸法2
  6
CONTINUOUS
 62
    7
 10
1080.0000000000002
 20
534.96036186923561
 11
1064.5451867793752
 21
530.81925714759529
  0
LINE
  8
_1-5_寸法2
  6
CONTINUOUS
 62
    7
 10
1080.0000000000002
 20
534.96036186923561
 11
1064.5451867793752
 21
539.10146659087604
  0
LINE
  8
_1-5_寸法2
  6
CONTINUOUS
 62
    7
 10
1040.0000000000002
 20
534.96036186923561
 11
1080.0000000000002
 21
534.96036186923561
  0
TEXT
  8
_1-5_寸法2
 62
    7
 10
1048.0000000000002
 20
534.96036186923561
 40
24
 41
1
 50
0
  1
10
  0
LINE
  8
_1-2_極細2
  6
CONTINUOUS
 62
    2
 10
1080.0000000000002
 20
342.96036130602289
 11
1376.0000004081971
 21
342.96036130602289
  0
LINE
  8
_1-5_寸法2
  6
CONTINUOUS
 62
    7
 10
1040.0000000000002
 20
436.16036130602288
 11
1040.0000000000009
 21
606.96036186923561
  0
LINE
  8
_1-5_寸法2
  6
CONTINUOUS
 62
    7
 10
1040.0000000000009
 20
590.96036186923561
 11
1055.454813220626
 21
595.10146659087593
  0
LINE
  8
_1-5_寸法2
  6
CONTINUOUS
 62
    7
 10
1040.0000000000009
 20
590.96036186923561
 11
1055.454813220626
 21
586.81925714759529
  0
LINE
  8
_1-5_寸法2
  6
CONTINUOUS
 62
    7
 10
1416.0000004081976
 20
436.16036130602288
 11
1416.0000004081976
 21
606.96036186923561
  0
LINE
  8
_1-5_寸法2
  6
CONTINUOUS
 62
    7
 10
1416.0000004081976
 20
590.96036186923561
 11
1400.5451871875725
 21
586.81925714759529
  0
LINE
  8
_1-5_寸法2
  6
CONTINUOUS
 62
    7
 10
1416.0000004081976
 20
590.96036186923561
 11
1400.5451871875725
 21
595.10146659087604
  0
LINE
  8
_1-5_寸法2
  6
CONTINUOUS
 62
    7
 10
1040.0000000000009
 20
590.96036186923561
 11
1416.0000004081976
 21
590.96036186923561
  0
TEXT
  8
_1-5_寸法2
 62
    7
 10
1216.0000002040995
 20
590.96036186923561
 40
24
 41
1
 50
0
  1
94
  0
LINE
  8
_1-2_極細2
  6
CONTINUOUS
 62
    2
 10
1378.8000004081946
 20
340.16036130602242
 11
1077.2000000000019
 21
340.16036130602242
  0
LINE
  8
_1-3_細線2
  6
CONTINUOUS
 62
    4
 10
1243.1999999999989
 20
406.56036130602251
 11
1212.8000000000011
 21
406.56036130602251
  0
LINE
  8
_1-3_細線2
  6
CONTINUOUS
 62
    4
 10
1212.8000000000011
 20
406.56036130602251
 11
1212.8000000000011
 21
347.36036130602298
  0
LINE
  8
_1-3_細線2
  6
CONTINUOUS
 62
    4
 10
1150.7999999999993
 20
406.56036130602251
 11
1181.1999999999998
 21
406.56036130602251
  0
LINE
  8
_1-3_細線2
  6
CONTINUOUS
 62
    4
 10
1181.1999999999998
 20
406.56036130602251
 11
1181.1999999999998
 21
347.36036130602298
  0
ARC
  8
_1-3_細線2
  6
CONTINUOUS
 62
    4
 10
1243.1999999999998
 20
406.5603613060228
 40
4.7999999999999998
 50
0
 51
89.999999999999915
  0
LINE
  8
_1-3_細線2
  6
CONTINUOUS
 62
    4
 10
1208
 20
406.5603613060228
 11
1208
 21
347.36036130602298
  0
LINE
  8
_1-3_細線2
  6
CONTINUOUS
 62
    4
 10
1243.1999999999998
 20
411.36036130602298
 11
1212.8
 21
411.36036130602298
  0
ARC
  8
_1-3_細線2
  6
CONTINUOUS
 62
    4
 10
1212.8
 20
406.5603613060228
 40
4.7999999999999998
 50
89.999999999999915
 51
179.99999999999983
  0
LINE
  8
_1-3_細線2
  6
CONTINUOUS
 62
    4
 10
1186
 20
406.5603613060228
 11
1186
 21
347.36036130602298
  0
ARC
  8
_1-3_細線2
  6
CONTINUOUS
 62
    4
 10
1181.1999999999998
 20
406.5603613060228
 40
4.7999999999999998
 50
0
 51
89.999999999999915
  0
LINE
  8
_1-3_細線2
  6
CONTINUOUS
 62
    4
 10
1150.7999999999988
 20
411.36036130602298
 11
1181.1999999999998
 21
411.36036130602298
  0
ARC
  8
_1-3_細線2
  6
CONTINUOUS
 62
    4
 10
1150.7999999999988
 20
406.5603613060228
 40
4.7999999999999998
 50
89.999999999999915
 51
179.99999999999983
  0
LINE
  8
_1-3_細線2
  6
CONTINUOUS
 62
    4
 10
1181.1999999999998
 20
347.36036130602298
 11
1186
 21
347.36036130602298
  0
LINE
  8
_1-3_細線2
  6
CONTINUOUS
 62
    4
 10
1208
 20
347.36036130602298
 11
1212.8000000000011
 21
347.36036130602298
  0
LINE
  8
_1-3_細線2
  6
CONTINUOUS
 62
    4
 10
1248
 20
387.3603607428102
 11
1243.1999999999989
 21
387.36036074280992
  0
LINE
  8
_1-3_細線2
  6
CONTINUOUS
 62
    4
 10
1145.9999999999991
 20
387.3603607428102
 11
1150.8000000000002
 21
387.36036074280992
  0
LINE
  8
_1-3_細線2
  6
CONTINUOUS
 62
    4
 10
1243.1999999999989
 20
406.56036130602251
 11
1243.1999999999989
 21
387.3603607428102
  0
LINE
  8
_1-3_細線2
  6
CONTINUOUS
 62
    4
 10
1150.7999999999993
 20
406.56036130602251
 11
1150.8000000000002
 21
387.3603607428102
  0
LINE
  8
_1-3_細線2
  6
CONTINUOUS
 62
    4
 10
1248
 20
406.5603613060228
 11
1248
 21
387.3603607428102
  0
LINE
  8
_1-3_細線2
  6
CONTINUOUS
 62
    4
 10
1145.9999999999991
 20
406.5603613060228
 11
1145.9999999999991
 21
387.3603607428102
  0
LINE
  8
_1-3_細線2
  6
CONTINUOUS
 62
    4
 10
1124.0000000000023
 20
353.5603607428103
 11
1181.2000000000016
 21
353.5603607428103
  0
LINE
  8
_1-3_細線2
  6
CONTINUOUS
 62
    4
 10
1124.0000000000023
 20
381.16036074281038
 11
1181.2000000000016
 21
381.16036074281038
  0
LINE
  8
_1-3_細線2
  6
CONTINUOUS
 62
    4
 10
1186.0000000000014
 20
381.16036074281038
 11
1208
 21
381.16036074281038
  0
LINE
  8
_1-3_細線2
  6
CONTINUOUS
 62
    4
 10
1186.0000000000014
 20
353.5603607428103
 11
1208
 21
353.5603607428103
  0
LINE
  8
_1-3_細線2
  6
CONTINUOUS
 62
    4
 10
1270.0000004081971
 20
353.5603607428103
 11
1212.8000004081982
 21
353.5603607428103
  0
LINE
  8
_1-3_細線2
  6
CONTINUOUS
 62
    4
 10
1270.0000004081971
 20
381.16036074281038
 11
1212.8000004081982
 21
381.16036074281038
  0
LINE
  8
_1-3_細線2
  6
CONTINUOUS
 62
    4
 10
1336.8000004081971
 20
377.70036130602284
 11
1336.8000004081971
 21
361.82036130602273
  0
LINE
  8
_1-3_細線2
  6
CONTINUOUS
 62
    4
 10
1336.8000004081971
 20
406.56036130602251
 11
1336.8000004081971
 21
347.36036130602298
  0
LINE
  8
_1-3_細線2
  6
CONTINUOUS
 62
    4
 10
1305.2000004081951
 20
406.56036130602251
 11
1274.8000004081955
 21
406.56036130602251
  0
LINE
  8
_1-3_細線2
  6
CONTINUOUS
 62
    4
 10
1367.200000408196
 20
406.56036130602251
 11
1336.8000004081971
 21
406.56036130602251
  0
LINE
  8
_1-3_細線2
  6
CONTINUOUS
 62
    4
 10
1274.8000004081955
 20
406.56036130602251
 11
1274.8000004081955
 21
347.36036130602298
  0
ARC
  8
_1-3_細線2
  6
CONTINUOUS
 62
    4
 10
1367.2000004081974
 20
406.5603613060228
 40
4.7999999999999998
 50
0
 51
89.999999999999915
  0
LINE
  8
_1-3_細線2
  6
CONTINUOUS
 62
    4
 10
1332.000000408196
 20
406.5603613060228
 11
1332.000000408196
 21
347.36036130602298
  0
LINE
  8
_1-3_細線2
  6
CONTINUOUS
 62
    4
 10
1367.2000004081974
 20
411.36036130602298
 11
1336.800000408196
 21
411.36036130602298
  0
ARC
  8
_1-3_細線2
  6
CONTINUOUS
 62
    4
 10
1336.800000408196
 20
406.5603613060228
 40
4.7999999999999998
 50
89.999999999999915
 51
179.99999999999983
  0
ARC
  8
_1-3_細線2
  6
CONTINUOUS
 62
    4
 10
1305.2000004081965
 20
406.5603613060228
 40
4.7999999999999998
 50
0
 51
89.999999999999915
  0
LINE
  8
_1-3_細線2
  6
CONTINUOUS
 62
    4
 10
1270.0000004081971
 20
406.5603613060228
 11
1270.0000004081971
 21
347.36036130602298
  0
LINE
  8
_1-3_細線2
  6
CONTINUOUS
 62
    4
 10
1305.2000004081965
 20
411.36036130602298
 11
1274.8000004081973
 21
411.36036130602298
  0
ARC
  8
_1-3_細線2
  6
CONTINUOUS
 62
    4
 10
1274.8000004081973
 20
406.5603613060228
 40
4.7999999999999998
 50
89.999999999999915
 51
179.99999999999983
  0
LINE
  8
_1-3_細線2
  6
CONTINUOUS
 62
    4
 10
1270.0000004081971
 20
347.36036130602298
 11
1274.8000004081955
 21
347.36036130602298
  0
LINE
  8
_1-3_細線2
  6
CONTINUOUS
 62
    4
 10
1332.000000408196
 20
347.36036130602298
 11
1336.8000004081971
 21
347.36036130602298
  0
LINE
  8
_1-3_細線2
  6
CONTINUOUS
 62
    4
 10
1372.0000004081971
 20
387.3603607428102
 11
1367.200000408196
 21
387.3603607428102
  0
LINE
  8
_1-3_細線2
  6
CONTINUOUS
 62
    4
 10
1310.0000004081962
 20
387.3603607428102
 11
1305.2000004081951
 21
387.3603607428102
  0
LINE
  8
_1-3_細線2
  6
CONTINUOUS
 62
    4
 10
1305.2000004081951
 20
406.56036130602251
 11
1305.2000004081951
 21
387.3603607428102
  0
LINE
  8
_1-3_細線2
  6
CONTINUOUS
 62
    4
 10
1367.200000408196
 20
406.56036130602251
 11
1367.200000408196
 21
387.3603607428102
  0
LINE
  8
_1-3_細線2
  6
CONTINUOUS
 62
    4
 10
1372.0000004081971
 20
406.5603613060228
 11
1372.0000004081971
 21
387.3603607428102
  0
LINE
  8
_1-3_細線2
  6
CONTINUOUS
 62
    4
 10
1310.0000004081962
 20
406.5603613060228
 11
1310.0000004081962
 21
387.3603607428102
  0
LINE
  8
_1-3_細線2
  6
CONTINUOUS
 62
    4
 10
1332.0000008163954
 20
353.5603607428103
 11
1274.8000008163965
 21
353.5603607428103
  0
LINE
  8
_1-3_細線2
  6
CONTINUOUS
 62
    4
 10
1332.0000008163954
 20
381.16036074281038
 11
1274.8000008163965
 21
381.16036074281038
  0
LINE
  8
_1-3_細線2
  6
CONTINUOUS
 62
    4
 10
1119.2000000000039
 20
406.56036130602251
 11
1119.2000000000039
 21
347.36036130602298
  0
LINE
  8
_1-3_細線2
  6
CONTINUOUS
 62
    4
 10
1088.8000000000043
 20
406.56036130602251
 11
1119.2000000000039
 21
406.56036130602251
  0
LINE
  8
_1-3_細線2
  6
CONTINUOUS
 62
    4
 10
1124.0000000000023
 20
406.5603613060228
 11
1124.0000000000023
 21
347.36036130602298
  0
ARC
  8
_1-3_細線2
  6
CONTINUOUS
 62
    4
 10
1119.2000000000025
 20
406.5603613060228
 40
4.7999999999999998
 50
0
 51
89.999999999999915
  0
LINE
  8
_1-3_細線2
  6
CONTINUOUS
 62
    4
 10
1088.8000000000031
 20
411.36036130602298
 11
1119.2000000000025
 21
411.36036130602298
  0
ARC
  8
_1-3_細線2
  6
CONTINUOUS
 62
    4
 10
1088.8000000000031
 20
406.5603613060228
 40
4.7999999999999998
 50
89.999999999999915
 51
179.99999999999983
  0
LINE
  8
_1-3_細線2
  6
CONTINUOUS
 62
    4
 10
1119.2000000000039
 20
347.36036130602298
 11
1124.0000000000023
 21
347.36036130602298
  0
LINE
  8
_1-3_細線2
  6
CONTINUOUS
 62
    4
 10
1084.0000000000032
 20
387.3603607428102
 11
1088.8000000000043
 21
387.36036074280992
  0
LINE
  8
_1-3_細線2
  6
CONTINUOUS
 62
    4
 10
1088.8000000000043
 20
406.56036130602251
 11
1088.8000000000043
 21
387.3603607428102
  0
LINE
  8
_1-3_細線2
  6
CONTINUOUS
 62
    4
 10
1084.0000000000032
 20
406.5603613060228
 11
1084.0000000000032
 21
387.3603607428102
  0
LINE
  8
_1-2_極細2
  6
CONTINUOUS
 62
    2
 10
1322.0000000000002
 20
349.36036130602298
 11
1322
 21
347.3603613060227
  0
LINE
  8
_1-2_極細2
  6
CONTINUOUS
 62
    2
 10
1322
 20
344.96036130602289
 11
1322
 21
342.96036130602289
  0
LINE
  8
_1-2_極細2
  6
CONTINUOUS
 62
    2
 10
1317.0000000000002
 20
347.36036130602298
 11
1317.0000000000002
 21
344.96036130602289
  0
LINE
  8
_1-2_極細2
  6
CONTINUOUS
 62
    2
 10
1319.0000000000002
 20
347.36036130602298
 11
1319.0000000000002
 21
344.96036130602289
  0
LINE
  8
_1-2_極細2
  6
CONTINUOUS
 62
    2
 10
1317.0000000000002
 20
345.60000000000002
 11
1319.0000000000002
 21
345.60000000000002
  0
LINE
  8
_1-2_極細2
  6
CONTINUOUS
 62
    2
 10
1317.0000000000002
 20
346.40000000000003
 11
1319.0000000000002
 21
346.40000000000003
  0
LINE
  8
_1-2_極細2
  6
CONTINUOUS
 62
    2
 10
1317.0000000000002
 20
347.20000000000005
 11
1319.0000000000002
 21
347.20000000000005
  0
LINE
  8
_1-2_極細2
  6
CONTINUOUS
 62
    2
 10
1294.0000000000002
 20
349.36036130602298
 11
1294.0000000000009
 21
347.36036130602298
  0
LINE
  8
_1-2_極細2
  6
CONTINUOUS
 62
    2
 10
1294.0000000000009
 20
344.96036130602289
 11
1294
 21
342.96036130602289
  0
LINE
  8
_1-2_極細2
  6
CONTINUOUS
 62
    2
 10
1297.0000000000002
 20
347.36036130602298
 11
1297.0000000000002
 21
344.96036130602289
  0
LINE
  8
_1-2_極細2
  6
CONTINUOUS
 62
    2
 10
1299.0000000000002
 20
347.36036130602298
 11
1299.0000000000002
 21
344.96036130602289
  0
LINE
  8
_1-2_極細2
  6
CONTINUOUS
 62
    2
 10
1297.0000000000002
 20
345.60000000000002
 11
1299.0000000000002
 21
345.60000000000002
  0
LINE
  8
_1-2_極細2
  6
CONTINUOUS
 62
    2
 10
1297.0000000000002
 20
346.40000000000003
 11
1299.0000000000002
 21
346.40000000000003
  0
LINE
  8
_1-2_極細2
  6
CONTINUOUS
 62
    2
 10
1297.0000000000002
 20
347.20000000000005
 11
1299.0000000000002
 21
347.20000000000005
  0
LINE
  8
_1-2_極細2
  6
CONTINUOUS
 62
    2
 10
1294.0000000000009
 20
349.36036130602298
 11
1322
 21
349.36036130602298
  0
LINE
  8
_1-2_極細2
  6
CONTINUOUS
 62
    2
 10
1294.0000000000009
 20
348.00000000000006
 11
1322
 21
348.00000000000006
  0
LINE
  8
_1-2_極細2
  6
CONTINUOUS
 62
    2
 10
1294.0000000000009
 20
348.80000000000007
 11
1322
 21
348.80000000000007
  0
LINE
  8
_1-2_極細2
  6
CONTINUOUS
 62
    2
 10
1294.0000000000002
 20
343.20000000000005
 11
1322
 21
343.20000000000005
  0
LINE
  8
_1-2_極細2
  6
CONTINUOUS
 62
    2
 10
1294.0000000000002
 20
344.00000000000006
 11
1322
 21
344.00000000000006
  0
LINE
  8
_1-2_極細2
  6
CONTINUOUS
 62
    2
 10
1294.0000000000002
 20
344.80000000000007
 11
1322
 21
344.80000000000007
  0
LINE
  8
_1-2_極細2
  6
CONTINUOUS
 62
    2
 10
1294.0000000000002
 20
342.96036130602289
 11
1322
 21
342.96036130602289
  0
LINE
  8
_1-2_極細2
  6
CONTINUOUS
 62
    2
 10
1157.0000000000009
 20
347.36036130602298
 11
1157.0000000000009
 21
344.96036130602289
  0
LINE
  8
_1-2_極細2
  6
CONTINUOUS
 62
    2
 10
1159.0000000000009
 20
347.36036130602298
 11
1159.0000000000009
 21
344.96036130602289
  0
LINE
  8
_1-2_極細2
  6
CONTINUOUS
 62
    2
 10
1157.0000000000009
 20
345.60000000000002
 11
1159.0000000000005
 21
345.60000000000002
  0
LINE
  8
_1-2_極細2
  6
CONTINUOUS
 62
    2
 10
1157.0000000000009
 20
346.40000000000003
 11
1159.0000000000005
 21
346.40000000000003
  0
LINE
  8
_1-2_極細2
  6
CONTINUOUS
 62
    2
 10
1157.0000000000009
 20
347.20000000000005
 11
1159.0000000000005
 21
347.20000000000005
  0
LINE
  8
_1-2_極細2
  6
CONTINUOUS
 62
    2
 10
1162.0000000000002
 20
344.96036130602289
 11
1162.0000000000002
 21
342.96036130602289
  0
LINE
  8
_1-2_極細2
  6
CONTINUOUS
 62
    2
 10
1162.0000000000009
 20
349.36036130602298
 11
1162.0000000000002
 21
347.3603613060227
  0
LINE
  8
_1-2_極細2
  6
CONTINUOUS
 62
    2
 10
1134.0000000000011
 20
344.96036130602289
 11
1134.0000000000002
 21
342.96036130602289
  0
LINE
  8
_1-2_極細2
  6
CONTINUOUS
 62
    2
 10
1134.0000000000009
 20
349.36036130602298
 11
1134.0000000000011
 21
347.36036130602298
  0
LINE
  8
_1-2_極細2
  6
CONTINUOUS
 62
    2
 10
1137.0000000000009
 20
347.36036130602298
 11
1137.0000000000009
 21
344.96036130602289
  0
LINE
  8
_1-2_極細2
  6
CONTINUOUS
 62
    2
 10
1139.0000000000009
 20
347.36036130602298
 11
1139.0000000000009
 21
344.96036130602289
  0
LINE
  8
_1-2_極細2
  6
CONTINUOUS
 62
    2
 10
1137.0000000000007
 20
345.60000000000002
 11
1139.0000000000011
 21
345.60000000000002
  0
LINE
  8
_1-2_極細2
  6
CONTINUOUS
 62
    2
 10
1137.0000000000007
 20
346.40000000000003
 11
1139.0000000000011
 21
346.40000000000003
  0
LINE
  8
_1-2_極細2
  6
CONTINUOUS
 62
    2
 10
1137.0000000000007
 20
347.20000000000005
 11
1139.0000000000011
 21
347.20000000000005
  0
LINE
  8
_1-2_極細2
  6
CONTINUOUS
 62
    2
 10
1134.0000000000009
 20
342.96036130602289
 11
1162.0000000000002
 21
342.96036130602289
  0
LINE
  8
_1-2_極細2
  6
CONTINUOUS
 62
    2
 10
1134.0000000000009
 20
343.20000000000005
 11
1162.0000000000002
 21
343.20000000000005
  0
LINE
  8
_1-2_極細2
  6
CONTINUOUS
 62
    2
 10
1134.0000000000009
 20
344.00000000000006
 11
1162.0000000000002
 21
344.00000000000006
  0
LINE
  8
_1-2_極細2
  6
CONTINUOUS
 62
    2
 10
1134.0000000000009
 20
344.80000000000007
 11
1162.0000000000002
 21
344.80000000000007
  0
LINE
  8
_1-2_極細2
  6
CONTINUOUS
 62
    2
 10
1134.0000000000011
 20
348.00000000000006
 11
1162.0000000000005
 21
348.00000000000006
  0
LINE
  8
_1-2_極細2
  6
CONTINUOUS
 62
    2
 10
1134.0000000000011
 20
348.80000000000007
 11
1162.0000000000005
 21
348.80000000000007
  0
LINE
  8
_1-2_極細2
  6
CONTINUOUS
 62
    2
 10
1134.0000000000011
 20
349.36036130602298
 11
1162.0000000000002
 21
349.36036130602298
  0
LINE
  8
_1-2_極細2
  6
CONTINUOUS
 62
    2
 10
1339.2000000000003
 20
402.16036130602271
 11
1336.8000000000004
 21
402.16036130602271
  0
LINE
  8
_1-2_極細2
  6
CONTINUOUS
 62
    2
 10
1339.2000000000003
 20
402.16036130602271
 11
1339.2000000000003
 21
344.96036130602289
  0
LINE
  8
_1-2_極細2
  6
CONTINUOUS
 62
    2
 10
1116.8000000000002
 20
402.16036130602271
 11
1119.2
 21
402.16036130602271
  0
LINE
  8
_1-2_極細2
  6
CONTINUOUS
 62
    2
 10
1119.2
 20
347.36036130602298
 11
1336.8000000000004
 21
347.36036130602298
  0
LINE
  8
_1-2_極細2
  6
CONTINUOUS
 62
    2
 10
1116.8000000000002
 20
402.16036130602271
 11
1116.8000000000002
 21
344.96036130602289
  0
LINE
  8
_1-2_極細2
  6
CONTINUOUS
 62
    2
 10
1116.8000000000002
 20
344.96036130602289
 11
1339.2000000000003
 21
344.96036130602289
  0
LINE
  8
_1-2_極細2
  6
CONTINUOUS
 62
    2
 10
1343.1869920000026
 20
367.3603607428102
 11
1355.205056000003
 21
367.3603607428102
  0
LINE
  8
_1-3_細線2
  6
CONTINUOUS
 62
    4
 10
1343.1869920000026
 20
353.36036074281202
 11
1355.2051040000006
 21
353.36036074281202
  0
ARC
  8
_1-3_細線2
  6
CONTINUOUS
 62
    4
 10
1355.2051040000006
 20
354.16036074281129
 40
0.8000000000000002
 50
269.99999999999977
 51
359.99999999999966
  0
ARC
  8
_1-2_極細2
  6
CONTINUOUS
 62
    2
 10
1324.9731840000022
 20
360.35977674281258
 40
31.031824
 50
346.96432999999968
 51
13.038021999994573
  0
ARC
  8
_1-3_細線2
  6
CONTINUOUS
 62
    4
 10
1355.2051040000006
 20
380.56036074281246
 40
0.8000000000000002
 50
0
 51
89.999999999999915
  0
ARC
  8
_1-2_極細2
  6
CONTINUOUS
 62
    2
 10
1324.9731840000022
 20
374.36093674281057
 40
31.031824
 50
346.9619780000009
 51
13.035669999999625
  0
LINE
  8
_1-3_細線2
  6
CONTINUOUS
 62
    4
 10
1343.1869920000026
 20
381.36036074281174
 11
1355.2051040000006
 21
381.36036074281174
  0
LINE
  8
_1-3_細線2
  6
CONTINUOUS
 62
    4
 10
1356.0051040000021
 20
354.16036074281129
 11
1356.0051040000021
 21
380.56036074281246
  0
ARC
  8
_1-3_細線2
  6
CONTINUOUS
 62
    4
 10
1342.3869920000011
 20
348.16036074281129
 40
0.8000000000000002
 50
269.99999999999977
 51
359.99999999999966
  0
LINE
  8
_1-3_細線2
  6
CONTINUOUS
 62
    4
 10
1339.2000000000003
 20
347.36036074281111
 11
1342.3869920000011
 21
347.36036074281111
  0
ARC
  8
_1-3_細線2
  6
CONTINUOUS
 62
    4
 10
1342.3869920000011
 20
386.5603607428103
 40
0.8000000000000002
 50
0
 51
89.999999999999915
  0
LINE
  8
_1-3_細線2
  6
CONTINUOUS
 62
    4
 10
1339.2000000000003
 20
387.36036074281174
 11
1342.3869920000011
 21
387.36036074281174
  0
LINE
  8
_1-3_細線2
  6
CONTINUOUS
 62
    4
 10
1343.1869920000026
 20
386.5603607428103
 11
1343.1869920000026
 21
348.16036074281129
  0
ARC
  8
_1-3_細線2
  6
CONTINUOUS
 62
    4
 10
1113.6130079999994
 20
348.16036017959851
 40
0.8000000000000002
 50
179.99999999999983
 51
269.99999999999977
  0
LINE
  8
_1-3_細線2
  6
CONTINUOUS
 62
    4
 10
1116.8000000000002
 20
347.36036017959833
 11
1113.6130079999994
 21
347.36036017959833
  0
ARC
  8
_1-3_細線2
  6
CONTINUOUS
 62
    4
 10
1113.6130079999994
 20
386.56036017959752
 40
0.8000000000000002
 50
89.999999999999915
 51
179.99999999999983
  0
LINE
  8
_1-3_細線2
  6
CONTINUOUS
 62
    4
 10
1116.8000000000002
 20
387.36036017959896
 11
1113.6130079999994
 21
387.36036017959896
  0
LINE
  8
_1-3_細線2
  6
CONTINUOUS
 62
    4
 10
1112.8130079999978
 20
365.36036017959833
 11
1112.8130079999978
 21
348.16036017959851
  0
LINE
  8
_1-3_細線2
  6
CONTINUOUS
 62
    4
 10
1112.8130079999978
 20
386.56036017959752
 11
1112.8130079999978
 21
365.36036017959833
  0
LINE
  8
_1-2_極細2
  6
CONTINUOUS
 62
    2
 10
1112.8130079999978
 20
367.36036017959742
 11
1100.7949439999975
 21
367.36036017959742
  0
LINE
  8
_1-3_細線2
  6
CONTINUOUS
 62
    4
 10
1112.8130079999978
 20
353.36036017959924
 11
1100.7948959999999
 21
353.36036017959924
  0
ARC
  8
_1-3_細線2
  6
CONTINUOUS
 62
    4
 10
1100.7948959999999
 20
354.16036017959851
 40
0.8000000000000002
 50
179.99999999999983
 51
269.99999999999977
  0
ARC
  8
_1-2_極細2
  6
CONTINUOUS
 62
    2
 10
1131.0268159999982
 20
360.35977617959981
 40
31.031824
 50
166.96197800000505
 51
193.03566999999961
  0
ARC
  8
_1-3_細線2
  6
CONTINUOUS
 62
    4
 10
1100.7948959999999
 20
380.56036017959968
 40
0.8000000000000002
 50
89.999999999999915
 51
179.99999999999983
  0
ARC
  8
_1-2_極細2
  6
CONTINUOUS
 62
    2
 10
1131.0268159999982
 20
374.36093617959779
 40
31.031824
 50
166.96433000000002
 51
193.03802199999836
  0
LINE
  8
_1-3_細線2
  6
CONTINUOUS
 62
    4
 10
1112.8130079999978
 20
381.36036017959896
 11
1100.7948959999999
 21
381.36036017959896
  0
LINE
  8
_1-3_細線2
  6
CONTINUOUS
 62
    4
 10
1099.9948959999983
 20
354.16036017959851
 11
1099.9948959999983
 21
380.56036017959968
  0
LINE
  8
_1-2_極細2
  6
CENTER1
 62
    2
 10
1094.5476583470313
 20
367.3603607428102
 11
1362.7448339398877
 21
367.3603607428102
  0
TEXT
  8
_0-7_枠細線
 62
    5
 10
1134.1572146663052
 20
632.96677840702478
 40
32
 41
0.8
 50
0
  1
Ａ－Ａ’断面図
  0
TEXT
  8
_0-7_枠細線
 62
    5
 10
1335.3924860624675
 20
632.96677840702478
 40
32
 41
0.6000000000000002
 50
0
  1
Ｓ＝１：２
  0
LINE
  8
_1-2_極細2
  6
CENTER1
 62
    2
 10
1228
 20
444.62481948597281
 11
1228
 21
311.67517919820295
  0
LINE
  8
_0-1_計細線
  6
CONTINUOUS
 62
    3
 10
1107.1516669303367
 20
870.90574412532578
 11
1107.1516669303367
 21
869.10574412535379
  0
LINE
  8
_0-1_計細線
  6
CONTINUOUS
 62
    3
 10
1069.4016671863021
 20
888.60574412532742
 11
1067.4016671863021
 21
886.60574412532742
  0
LINE
  8
_0-1_計細線
  6
CONTINUOUS
 62
    3
 10
1067.4016671863021
 20
876.60574412532742
 11
1067.4016671863021
 21
886.60574412532742
  0
LINE
  8
_0-1_計細線
  6
CONTINUOUS
 62
    3
 10
1083.4016668801407
 20
886.60574412532742
 11
1081.4016668801407
 21
888.60574412532742
  0
LINE
  8
_0-1_計細線
  6
CONTINUOUS
 62
    3
 10
1083.4016668801407
 20
876.60574412532742
 11
1083.4016668801407
 21
886.60574412532742
  0
LINE
  8
_0-1_計細線
  6
CONTINUOUS
 62
    3
 10
1069.4016671863021
 20
872.60574412532742
 11
1067.4016671863021
 21
870.60574412532742
  0
LINE
  8
_0-1_計細線
  6
CONTINUOUS
 62
    3
 10
1069.4016671863021
 20
874.60574412532742
 11
1069.4016671863021
 21
872.60574412532742
  0
LINE
  8
_0-1_計細線
  6
CONTINUOUS
 62
    3
 10
1067.4016671863021
 20
876.60574412532742
 11
1069.4016671863021
 21
874.60574412532742
  0
LINE
  8
_0-1_計細線
  6
CONTINUOUS
 62
    3
 10
1081.4016668801407
 20
872.60574412532742
 11
1083.4016668801407
 21
870.60574412532742
  0
LINE
  8
_0-1_計細線
  6
CONTINUOUS
 62
    3
 10
1081.4016668801407
 20
874.60574412532742
 11
1081.4016668801407
 21
872.60574412532742
  0
LINE
  8
_0-1_計細線
  6
CONTINUOUS
 62
    3
 10
1083.4016668801407
 20
876.60574412532742
 11
1081.4016668801407
 21
874.60574412532742
  0
LINE
  8
_0-1_計細線
  6
CONTINUOUS
 62
    3
 10
1067.4016671863021
 20
870.60574412532742
 11
1067.4016671863021
 21
856.60574412532742
  0
ARC
  8
_0-1_計細線
  6
CONTINUOUS
 62
    3
 10
1070.4016671863021
 20
856.60574412532742
 40
3
 50
179.99999999999983
 51
269.99999999999977
  0
LINE
  8
_0-1_計細線
  6
CONTINUOUS
 62
    3
 10
1070.4016671863021
 20
853.60574412532742
 11
1080.4016668801407
 21
853.60574412532742
  0
LINE
  8
_0-1_計細線
  6
CONTINUOUS
 62
    3
 10
1083.4016668801407
 20
870.60574412532742
 11
1083.4016668801407
 21
856.60574412532742
  0
ARC
  8
_0-1_計細線
  6
CONTINUOUS
 62
    3
 10
1080.4016668801407
 20
856.60574412532742
 40
3
 50
269.99999999999977
 51
359.99999999999966
  0
LINE
  8
_0-1_計細線
  6
CONTINUOUS
 62
    3
 10
1107.1016670386268
 20
870.90574412532578
 11
1083.1016668801419
 21
870.90574412532578
  0
LINE
  8
_0-1_計細線
  6
CONTINUOUS
 62
    3
 10
1043.7016669620868
 20
870.90574412532578
 11
1067.7016671863009
 21
870.90574412532578
  0
ARC
  8
_0-1_計細線
  6
CONTINUOUS
 62
    3
 10
1043.7016669620868
 20
872.40574412532578
 40
1.5
 50
179.99999999999983
 51
269.99999999999977
  0
ARC
  8
_0-1_計細線
  6
CONTINUOUS
 62
    3
 10
1107.1016670386268
 20
872.40574412532578
 40
1.5
 50
269.99999999999977
 51
359.99999999999966
  0
ARC
  8
_0-1_計細線
  6
CONTINUOUS
 62
    3
 10
1104.1516669333366
 20
869.10574412535379
 40
2.9999999969999998
 50
269.99999999999977
 51
359.99999999999966
  0
LINE
  8
_0-0_計極細
  6
CONTINUOUS
 62
    2
 10
1098.4016669390865
 20
866.10574412538381
 11
1098.4016669390865
 21
856.10574412548385
  0
LINE
  8
_0-1_計細線
  6
CONTINUOUS
 62
    3
 10
1101.4016669360869
 20
866.10574412538381
 11
1101.4016669360869
 21
856.10574412548385
  0
LINE
  8
_0-1_計細線
  6
CONTINUOUS
 62
    3
 10
1083.401666880138
 20
866.10574412538381
 11
1104.1516669333366
 21
866.10574412538381
  0
LINE
  8
_0-1_計細線
  6
CONTINUOUS
 62
    3
 10
1083.401666880138
 20
856.10574412548385
 11
1101.4016669360869
 21
856.10574412548385
  0
LINE
  8
_0-1_計細線
  6
CONTINUOUS
 62
    3
 10
1043.6516669938367
 20
870.90574412532578
 11
1043.6516669938367
 21
869.10574412535379
  0
ARC
  8
_0-1_計細線
  6
CONTINUOUS
 62
    3
 10
1046.6516669908367
 20
869.10574412535379
 40
2.9999999969999998
 50
179.99999999999983
 51
269.99999999999977
  0
LINE
  8
_0-0_計極細
  6
CONTINUOUS
 62
    2
 10
1052.4016669850869
 20
866.10574412538381
 11
1052.4016669850869
 21
856.10574412548385
  0
LINE
  8
_0-1_計細線
  6
CONTINUOUS
 62
    3
 10
1049.4016669880864
 20
866.10574412538381
 11
1049.4016669880864
 21
856.10574412548385
  0
LINE
  8
_0-1_計細線
  6
CONTINUOUS
 62
    3
 10
1067.4016670440353
 20
866.10574412538381
 11
1046.6516669908367
 21
866.10574412538381
  0
LINE
  8
_0-1_計細線
  6
CONTINUOUS
 62
    3
 10
1067.4016670440353
 20
856.10574412548385
 11
1049.4016669880864
 21
856.10574412548385
  0
LINE
  8
_0-0_計極細
  6
CONTINUOUS
 62
    2
 10
1075.4016669620871
 20
832.60268145865075
 11
1098.7516669387367
 21
832.60268145865075
  0
LINE
  8
_0-1_計細線
  6
CONTINUOUS
 62
    3
 10
1075.4016669620871
 20
831.60574412532651
 11
1097.7516669397367
 21
831.60574412532651
  0
LINE
  8
_0-0_計極細
  6
CONTINUOUS
 62
    2
 10
1097.7516669397367
 20
856.10574412548385
 11
1097.7516669397367
 21
831.60574412532651
  0
LINE
  8
_0-1_計細線
  6
CONTINUOUS
 62
    3
 10
1098.7516669387367
 20
856.10574412548385
 11
1098.7516669387367
 21
832.60268145865075
  0
LINE
  8
_0-0_計極細
  6
CONTINUOUS
 62
    2
 10
1075.4016669620871
 20
832.60268145865075
 11
1052.0516669854376
 21
832.60268145865075
  0
LINE
  8
_0-1_計細線
  6
CONTINUOUS
 62
    3
 10
1075.4016669620871
 20
831.60574412532651
 11
1053.0516669844376
 21
831.60574412532651
  0
LINE
  8
_0-0_計極細
  6
CONTINUOUS
 62
    2
 10
1053.0516669844376
 20
856.10574412548385
 11
1053.0516669844376
 21
831.60574412532651
  0
LINE
  8
_0-1_計細線
  6
CONTINUOUS
 62
    3
 10
1052.0516669854376
 20
856.10574412548385
 11
1052.0516669854376
 21
832.60268145865075
  0
LINE
  8
_0-1_計細線
  6
CONTINUOUS
 62
    3
 10
1098.7516669387367
 20
832.60268145865075
 11
1097.7516669397367
 21
831.60574412532651
  0
LINE
  8
_0-1_計細線
  6
CONTINUOUS
 62
    3
 10
1052.0516669854376
 20
832.60268145865075
 11
1053.0516669844376
 21
831.60574412532651
  0
LINE
  8
_0-0_計極細
  6
CONTINUOUS
 62
    2
 10
1055.0913613665091
 20
875.80574412532587
 11
1068.2016671863009
 21
875.80574412532587
  0
LINE
  8
_0-1_計細線
  6
CONTINUOUS
 62
    3
 10
1042.2016669620868
 20
874.67418078060257
 11
1042.2016669620868
 21
872.40574412532578
  0
LINE
  8
_0-1_計細線
  6
CONTINUOUS
 62
    3
 10
1055.0913613665091
 20
876.60566330532902
 11
1055.0913613665091
 21
874.62661130271044
  0
LINE
  8
_0-1_計細線
  6
CONTINUOUS
 62
    3
 10
1095.7119725576656
 20
876.60566330532902
 11
1095.7119725576656
 21
874.62661130271044
  0
LINE
  8
_0-1_計細線
  6
CONTINUOUS
 62
    3
 10
1108.6016669620874
 20
874.67418078060257
 11
1108.6016669620874
 21
872.40574412532578
  0
LINE
  8
_0-0_計極細
  6
CONTINUOUS
 62
    2
 10
1082.6016668801365
 20
875.80574412532587
 11
1095.7119725576656
 21
875.80574412532587
  0
LINE
  8
_0-5_寸法線
  6
CONTINUOUS
 62
    7
 10
1056.6728488996139
 20
841.50348122229161
 11
1052.4794963393047
 21
826.06276251152724
  0
LINE
  8
_0-5_寸法線
  6
CONTINUOUS
 62
    7
 10
1056.6728488996139
 20
841.50348122229161
 11
1045.3209396999794
 21
830.22810284623461
  0
LINE
  8
_0-5_寸法線
  6
CONTINUOUS
 62
    7
 10
1056.6728488996139
 20
841.50348122229161
 11
1030.6631749782907
 21
796.80323851109097
  0
LINE
  8
_0-5_寸法線
  6
CONTINUOUS
 62
    7
 10
1030.6631749782907
 20
796.80323851109097
 11
973.06317497829059
 21
796.80323851109097
  0
TEXT
  8
_0-5_寸法線
 62
    7
 10
973.0631749782907
 20
796.80323851109097
 40
24
 41
0.7999999999999998
 50
0
  1
排水口
  0
LINE
  8
_0-1_計細線
  6
CONTINUOUS
 62
    3
 10
205.40166718630212
 20
876.60574412532605
 11
188.7016669620873
 21
876.60574412532605
  0
LINE
  8
_0-1_計細線
  6
CONTINUOUS
 62
    3
 10
207.40166718630212
 20
888.60574412532742
 11
205.40166718630212
 21
886.60574412532742
  0
LINE
  8
_0-1_計細線
  6
CONTINUOUS
 62
    3
 10
205.40166718630212
 20
876.60574412532742
 11
205.40166718630212
 21
886.60574412532742
  0
LINE
  8
_0-1_計細線
  6
CONTINUOUS
 62
    3
 10
221.40166688014074
 20
886.60574412532742
 11
219.40166688014074
 21
888.60574412532742
  0
LINE
  8
_0-1_計細線
  6
CONTINUOUS
 62
    3
 10
221.40166688014074
 20
876.60574412532742
 11
221.40166688014074
 21
886.60574412532742
  0
LINE
  8
_0-1_計細線
  6
CONTINUOUS
 62
    3
 10
207.40166718630212
 20
872.60574412532742
 11
205.40166718630212
 21
870.60574412532742
  0
LINE
  8
_0-1_計細線
  6
CONTINUOUS
 62
    3
 10
207.40166718630212
 20
874.60574412532742
 11
207.40166718630212
 21
872.60574412532742
  0
LINE
  8
_0-1_計細線
  6
CONTINUOUS
 62
    3
 10
205.40166718630212
 20
876.60574412532742
 11
207.40166718630212
 21
874.60574412532742
  0
LINE
  8
_0-1_計細線
  6
CONTINUOUS
 62
    3
 10
219.40166688014074
 20
872.60574412532742
 11
221.40166688014074
 21
870.60574412532742
  0
LINE
  8
_0-1_計細線
  6
CONTINUOUS
 62
    3
 10
219.40166688014074
 20
874.60574412532742
 11
219.40166688014074
 21
872.60574412532742
  0
LINE
  8
_0-1_計細線
  6
CONTINUOUS
 62
    3
 10
221.40166688014074
 20
876.60574412532742
 11
219.40166688014074
 21
874.60574412532742
  0
LINE
  8
_0-1_計細線
  6
CONTINUOUS
 62
    3
 10
205.40166718630212
 20
870.60574412532742
 11
205.40166718630212
 21
856.60574412532742
  0
ARC
  8
_0-1_計細線
  6
CONTINUOUS
 62
    3
 10
208.40166718630212
 20
856.60574412532742
 40
3
 50
179.99999999999983
 51
269.99999999999977
  0
LINE
  8
_0-1_計細線
  6
CONTINUOUS
 62
    3
 10
208.40166718630212
 20
853.60574412532742
 11
218.40166688014074
 21
853.60574412532742
  0
LINE
  8
_0-1_計細線
  6
CONTINUOUS
 62
    3
 10
221.40166688014074
 20
870.60574412532742
 11
221.40166688014074
 21
856.60574412532742
  0
ARC
  8
_0-1_計細線
  6
CONTINUOUS
 62
    3
 10
218.40166688014074
 20
856.60574412532742
 40
3
 50
269.99999999999977
 51
359.99999999999966
  0
LINE
  8
_0-0_計極細
  6
CENTER1
 62
    2
 10
213.40166696208712
 20
900.2471179907152
 11
213.40166696208712
 21
844.97700015447208
  0
LINE
  8
_0-1_計細線
  6
CONTINUOUS
 62
    3
 10
178.41904689185435
 20
891.59866435901631
 11
198.40158614209145
 21
888.6078964447579
  0
LINE
  8
_0-1_計細線
  6
CONTINUOUS
 62
    3
 10
179.10166413338789
 20
888.60577645332478
 11
179.10166413338789
 21
891.49649810520532
  0
LINE
  8
_0-1_計細線
  6
CONTINUOUS
 62
    3
 10
178.40166696208712
 20
888.60574412532742
 11
179.10166413338789
 21
888.60574412532742
  0
LINE
  8
_0-1_計細線
  6
CONTINUOUS
 62
    3
 10
188.7016669620873
 20
876.60574412532605
 11
188.7016669620873
 21
890.0596742539326
  0
LINE
  8
_0-5_寸法線
  6
CONTINUOUS
 62
    7
 10
220.73810308086308
 20
854.7706010223535
 11
232.93154706895461
 21
844.41106803532773
  0
LINE
  8
_0-5_寸法線
  6
CONTINUOUS
 62
    7
 10
220.73810308086308
 20
854.7706010223535
 11
226.11816884066013
 21
839.70226029020057
  0
LINE
  8
_0-5_寸法線
  6
CONTINUOUS
 62
    7
 10
220.73810308086308
 20
854.7706010223535
 11
248.36002862783903
 21
814.80323851109097
  0
LINE
  8
_0-5_寸法線
  6
CONTINUOUS
 62
    7
 10
248.36002862783903
 20
814.80323851109097
 11
325.16002862783898
 21
814.80323851109097
  0
TEXT
  8
_0-5_寸法線
 62
    7
 10
248.36002862783903
 20
814.80323851109097
 40
24
 41
0.7999999999999998
 50
0
  1
アンカー
  0
LINE
  8
_0-1_計細線
  6
CONTINUOUS
 62
    3
 10
1962.1016669620874
 20
876.60574412532605
 11
1945.4016668801407
 21
876.60574412532605
  0
LINE
  8
_0-1_計細線
  6
CONTINUOUS
 62
    3
 10
1931.4016671863021
 20
888.60574412532742
 11
1929.4016671863021
 21
886.60574412532742
  0
LINE
  8
_0-1_計細線
  6
CONTINUOUS
 62
    3
 10
1929.4016671863021
 20
876.60574412532742
 11
1929.4016671863021
 21
886.60574412532742
  0
LINE
  8
_0-1_計細線
  6
CONTINUOUS
 62
    3
 10
1945.4016668801407
 20
886.60574412532742
 11
1943.4016668801407
 21
888.60574412532742
  0
LINE
  8
_0-1_計細線
  6
CONTINUOUS
 62
    3
 10
1945.4016668801407
 20
876.60574412532742
 11
1945.4016668801407
 21
886.60574412532742
  0
LINE
  8
_0-1_計細線
  6
CONTINUOUS
 62
    3
 10
1931.4016671863021
 20
872.60574412532742
 11
1929.4016671863021
 21
870.60574412532742
  0
LINE
  8
_0-1_計細線
  6
CONTINUOUS
 62
    3
 10
1931.4016671863021
 20
874.60574412532742
 11
1931.4016671863021
 21
872.60574412532742
  0
LINE
  8
_0-1_計細線
  6
CONTINUOUS
 62
    3
 10
1929.4016671863021
 20
876.60574412532742
 11
1931.4016671863021
 21
874.60574412532742
  0
LINE
  8
_0-1_計細線
  6
CONTINUOUS
 62
    3
 10
1943.4016668801407
 20
872.60574412532742
 11
1945.4016668801407
 21
870.60574412532742
  0
LINE
  8
_0-1_計細線
  6
CONTINUOUS
 62
    3
 10
1943.4016668801407
 20
874.60574412532742
 11
1943.4016668801407
 21
872.60574412532742
  0
LINE
  8
_0-1_計細線
  6
CONTINUOUS
 62
    3
 10
1945.4016668801407
 20
876.60574412532742
 11
1943.4016668801407
 21
874.60574412532742
  0
LINE
  8
_0-1_計細線
  6
CONTINUOUS
 62
    3
 10
1929.4016671863021
 20
870.60574412532742
 11
1929.4016671863021
 21
856.60574412532742
  0
ARC
  8
_0-1_計細線
  6
CONTINUOUS
 62
    3
 10
1932.4016671863021
 20
856.60574412532742
 40
3
 50
179.99999999999983
 51
269.99999999999977
  0
LINE
  8
_0-1_計細線
  6
CONTINUOUS
 62
    3
 10
1932.4016671863021
 20
853.60574412532742
 11
1942.4016668801407
 21
853.60574412532742
  0
LINE
  8
_0-1_計細線
  6
CONTINUOUS
 62
    3
 10
1945.4016668801407
 20
870.60574412532742
 11
1945.4016668801407
 21
856.60574412532742
  0
ARC
  8
_0-1_計細線
  6
CONTINUOUS
 62
    3
 10
1942.4016668801407
 20
856.60574412532742
 40
3
 50
269.99999999999977
 51
359.99999999999966
  0
LINE
  8
_0-0_計極細
  6
CENTER1
 62
    2
 10
1937.4016669620871
 20
900.2471179907152
 11
1937.4016669620871
 21
844.97700015447208
  0
LINE
  8
_0-1_計細線
  6
CONTINUOUS
 62
    3
 10
1962.1016669620874
 20
890.05967376958597
 11
1962.1016669620874
 21
876.60574412532605
  0
LINE
  8
_0-1_計細線
  6
CONTINUOUS
 62
    3
 10
1972.3842936989593
 20
891.59866435901631
 11
1952.4017477820832
 21
888.6078964447579
  0
LINE
  8
_0-1_計細線
  6
CONTINUOUS
 62
    3
 10
1971.7016697907873
 20
888.60577645332478
 11
1971.7016697907873
 21
891.49649810520532
  0
LINE
  8
_0-1_計細線
  6
CONTINUOUS
 62
    3
 10
1972.4016669620871
 20
888.60577645332478
 11
1971.7016697907873
 21
888.60577645332478
  0
LINE
  8
_0-1_計細線
  6
CONTINUOUS
 62
    3
 10
178.40166696208712
 20
896.60574412532605
 11
178.40166696208712
 21
888.60574412532605
  0
LINE
  8
_0-1_計細線
  6
CONTINUOUS
 62
    3
 10
1972.4016669620871
 20
888.60574412532605
 11
1972.4016669620871
 21
896.60574412532605
  0
LINE
  8
_0-1_計細線
  6
CONTINUOUS
 62
    3
 10
1972.4016669620871
 20
896.60574412532605
 11
178.40166696208712
 21
896.60574412532605
  0
LINE
  8
_0-1_計細線
  6
CONTINUOUS
 62
    3
 10
198.40158614209145
 20
888.60574412532605
 11
1952.4017477820832
 21
888.60574412532605
  0
LINE
  8
_0-5_寸法線
  6
CONTINUOUS
 62
    7
 10
1052.0516669854374
 20
816.60268145865075
 11
1052.0516669854367
 21
743.60574412532651
  0
LINE
  8
_0-5_寸法線
  6
CONTINUOUS
 62
    7
 10
1052.0516669854367
 20
751.60574412532651
 11
1067.5064802060617
 21
755.74684884696683
  0
LINE
  8
_0-5_寸法線
  6
CONTINUOUS
 62
    7
 10
1052.0516669854367
 20
751.60574412532651
 11
1067.5064802060617
 21
747.46463940368619
  0
LINE
  8
_0-5_寸法線
  6
CONTINUOUS
 62
    7
 10
1098.7516669387364
 20
816.60268145865075
 11
1098.7516669387358
 21
743.60574412532651
  0
LINE
  8
_0-5_寸法線
  6
CONTINUOUS
 62
    7
 10
1098.7516669387358
 20
751.60574412532651
 11
1083.2968537181107
 21
747.46463940368619
  0
LINE
  8
_0-5_寸法線
  6
CONTINUOUS
 62
    7
 10
1098.7516669387358
 20
751.60574412532651
 11
1083.2968537181107
 21
755.74684884696694
  0
LINE
  8
_0-5_寸法線
  6
CONTINUOUS
 62
    7
 10
1052.0516669854367
 20
751.60574412532651
 11
1098.7516669387358
 21
751.60574412532651
  0
TEXT
  8
_0-5_寸法線
 62
    7
 10
1051.4016669620862
 20
751.60574412532651
 40
24
 41
1
 50
0
  1
46.7
  0
LINE
  8
_0-5_寸法線
  6
CONTINUOUS
 62
    7
 10
1978.1016669620874
 20
876.60574412532605
 11
2116.4016669620869
 21
876.6057441253256
  0
LINE
  8
_0-5_寸法線
  6
CONTINUOUS
 62
    7
 10
2108.4016669620869
 20
876.6057441253256
 11
2112.5427716837271
 21
861.15093090470054
  0
LINE
  8
_0-5_寸法線
  6
CONTINUOUS
 62
    7
 10
2108.4016669620869
 20
876.6057441253256
 11
2104.2605622404467
 21
861.15093090470054
  0
LINE
  8
_0-5_寸法線
  6
CONTINUOUS
 62
    7
 10
1988.4016669620871
 20
896.60574412532605
 11
2116.4016669620869
 21
896.6057441253256
  0
LINE
  8
_0-5_寸法線
  6
CONTINUOUS
 62
    7
 10
2108.4016669620869
 20
896.6057441253256
 11
2104.2605622404467
 21
912.06055734595066
  0
LINE
  8
_0-5_寸法線
  6
CONTINUOUS
 62
    7
 10
2108.4016669620869
 20
896.6057441253256
 11
2112.5427716837271
 21
912.06055734595066
  0
LINE
  8
_0-5_寸法線
  6
CONTINUOUS
 62
    7
 10
2108.4016669620869
 20
836.6057441253256
 11
2108.4016669620869
 21
936.6057441253256
  0
TEXT
  8
_0-5_寸法線
 62
    7
 10
2108.4016669620869
 20
901.58103540050161
 40
24
 41
1
 50
90
  1
20
  0
LINE
  8
_0-5_寸法線
  6
CONTINUOUS
 62
    7
 10
1988.4016669620871
 20
888.60574412532731
 11
2060.4016669620869
 21
888.60574412532708
  0
LINE
  8
_0-5_寸法線
  6
CONTINUOUS
 62
    7
 10
2052.4016669620869
 20
888.60574412532708
 11
2056.5427716837271
 21
873.15093090470191
  0
LINE
  8
_0-5_寸法線
  6
CONTINUOUS
 62
    7
 10
2052.4016669620869
 20
888.60574412532708
 11
2048.2605622404467
 21
873.15093090470202
  0
LINE
  8
_0-5_寸法線
  6
CONTINUOUS
 62
    7
 10
1988.4016669620871
 20
896.60574412532594
 11
2060.4016669620869
 21
896.60574412532571
  0
LINE
  8
_0-5_寸法線
  6
CONTINUOUS
 62
    7
 10
2052.4016669620869
 20
896.60574412532571
 11
2048.2605622404467
 21
912.06055734595077
  0
LINE
  8
_0-5_寸法線
  6
CONTINUOUS
 62
    7
 10
2052.4016669620869
 20
896.60574412532571
 11
2056.5427716837271
 21
912.06055734595077
  0
LINE
  8
_0-5_寸法線
  6
CONTINUOUS
 62
    7
 10
2052.4016669620869
 20
864.60574412532708
 11
2052.4016669620869
 21
920.60574412532571
  0
TEXT
  8
_0-5_寸法線
 62
    7
 10
2052.4016669620869
 20
903.80652214890529
 40
24
 41
1
 50
90
  1
8
  0
LINE
  8
_0-5_寸法線
  6
CONTINUOUS
 62
    7
 10
1117.4016669360869
 20
856.10574412548374
 11
1169.4016669360869
 21
856.10574412548362
  0
LINE
  8
_0-5_寸法線
  6
CONTINUOUS
 62
    7
 10
1161.4016669360869
 20
856.10574412548362
 11
1165.5427716577271
 21
840.65093090485857
  0
LINE
  8
_0-5_寸法線
  6
CONTINUOUS
 62
    7
 10
1161.4016669360869
 20
856.10574412548362
 11
1157.2605622144465
 21
840.65093090485857
  0
LINE
  8
_0-5_寸法線
  6
CONTINUOUS
 62
    7
 10
1117.4016669360869
 20
896.60574412532594
 11
1169.4016669360869
 21
896.60574412532583
  0
LINE
  8
_0-5_寸法線
  6
CONTINUOUS
 62
    7
 10
1161.4016669360869
 20
896.60574412532583
 11
1157.2605622144467
 21
912.06055734595088
  0
LINE
  8
_0-5_寸法線
  6
CONTINUOUS
 62
    7
 10
1161.4016669360869
 20
896.60574412532583
 11
1165.5427716577274
 21
912.06055734595088
  0
LINE
  8
_0-5_寸法線
  6
CONTINUOUS
 62
    7
 10
1161.4016669360869
 20
816.10574412548362
 11
1161.4016669360869
 21
936.60574412532583
  0
TEXT
  8
_0-5_寸法線
 62
    7
 10
1161.4016669360872
 20
816.9349915285469
 40
24
 41
1
 50
90
  1
42
  0
LINE
  8
_0-1_計細線
  6
CONTINUOUS
 62
    3
 10
638.40166718630212
 20
888.60574412532742
 11
636.40166718630212
 21
886.60574412532742
  0
LINE
  8
_0-1_計細線
  6
CONTINUOUS
 62
    3
 10
636.40166718630212
 20
876.60574412532742
 11
636.40166718630212
 21
886.60574412532742
  0
LINE
  8
_0-1_計細線
  6
CONTINUOUS
 62
    3
 10
652.40166688014074
 20
886.60574412532742
 11
650.40166688014074
 21
888.60574412532742
  0
LINE
  8
_0-1_計細線
  6
CONTINUOUS
 62
    3
 10
652.40166688014074
 20
876.60574412532742
 11
652.40166688014074
 21
886.60574412532742
  0
LINE
  8
_0-1_計細線
  6
CONTINUOUS
 62
    3
 10
638.40166718630212
 20
872.60574412532742
 11
636.40166718630212
 21
870.60574412532742
  0
LINE
  8
_0-1_計細線
  6
CONTINUOUS
 62
    3
 10
638.40166718630212
 20
874.60574412532742
 11
638.40166718630212
 21
872.60574412532742
  0
LINE
  8
_0-1_計細線
  6
CONTINUOUS
 62
    3
 10
636.40166718630212
 20
876.60574412532742
 11
638.40166718630212
 21
874.60574412532742
  0
LINE
  8
_0-1_計細線
  6
CONTINUOUS
 62
    3
 10
650.40166688014074
 20
872.60574412532742
 11
652.40166688014074
 21
870.60574412532742
  0
LINE
  8
_0-1_計細線
  6
CONTINUOUS
 62
    3
 10
650.40166688014074
 20
874.60574412532742
 11
650.40166688014074
 21
872.60574412532742
  0
LINE
  8
_0-1_計細線
  6
CONTINUOUS
 62
    3
 10
652.40166688014074
 20
876.60574412532742
 11
650.40166688014074
 21
874.60574412532742
  0
LINE
  8
_0-1_計細線
  6
CONTINUOUS
 62
    3
 10
636.40166718630212
 20
870.60574412532742
 11
636.40166718630212
 21
856.60574412532742
  0
ARC
  8
_0-1_計細線
  6
CONTINUOUS
 62
    3
 10
639.40166718630212
 20
856.60574412532742
 40
3
 50
179.99999999999983
 51
269.99999999999977
  0
LINE
  8
_0-1_計細線
  6
CONTINUOUS
 62
    3
 10
639.40166718630212
 20
853.60574412532742
 11
649.40166688014074
 21
853.60574412532742
  0
LINE
  8
_0-1_計細線
  6
CONTINUOUS
 62
    3
 10
652.40166688014074
 20
870.60574412532742
 11
652.40166688014074
 21
856.60574412532742
  0
ARC
  8
_0-1_計細線
  6
CONTINUOUS
 62
    3
 10
649.40166688014074
 20
856.60574412532742
 40
3
 50
269.99999999999977
 51
359.99999999999966
  0
LINE
  8
_0-0_計極細
  6
CENTER1
 62
    2
 10
644.40166696208712
 20
900.2471179907152
 11
644.40166696208712
 21
844.97700015447208
  0
LINE
  8
_0-1_計細線
  6
CONTINUOUS
 62
    3
 10
1500.4016671863021
 20
888.60574412532742
 11
1498.4016671863021
 21
886.60574412532742
  0
LINE
  8
_0-1_計細線
  6
CONTINUOUS
 62
    3
 10
1498.4016671863021
 20
876.60574412532742
 11
1498.4016671863021
 21
886.60574412532742
  0
LINE
  8
_0-1_計細線
  6
CONTINUOUS
 62
    3
 10
1514.4016668801407
 20
886.60574412532742
 11
1512.4016668801407
 21
888.60574412532742
  0
LINE
  8
_0-1_計細線
  6
CONTINUOUS
 62
    3
 10
1514.4016668801407
 20
876.60574412532742
 11
1514.4016668801407
 21
886.60574412532742
  0
LINE
  8
_0-1_計細線
  6
CONTINUOUS
 62
    3
 10
1500.4016671863021
 20
872.60574412532742
 11
1498.4016671863021
 21
870.60574412532742
  0
LINE
  8
_0-1_計細線
  6
CONTINUOUS
 62
    3
 10
1500.4016671863021
 20
874.60574412532742
 11
1500.4016671863021
 21
872.60574412532742
  0
LINE
  8
_0-1_計細線
  6
CONTINUOUS
 62
    3
 10
1498.4016671863021
 20
876.60574412532742
 11
1500.4016671863021
 21
874.60574412532742
  0
LINE
  8
_0-1_計細線
  6
CONTINUOUS
 62
    3
 10
1512.4016668801407
 20
872.60574412532742
 11
1514.4016668801407
 21
870.60574412532742
  0
LINE
  8
_0-1_計細線
  6
CONTINUOUS
 62
    3
 10
1512.4016668801407
 20
874.60574412532742
 11
1512.4016668801407
 21
872.60574412532742
  0
LINE
  8
_0-1_計細線
  6
CONTINUOUS
 62
    3
 10
1514.4016668801407
 20
876.60574412532742
 11
1512.4016668801407
 21
874.60574412532742
  0
LINE
  8
_0-1_計細線
  6
CONTINUOUS
 62
    3
 10
1498.4016671863021
 20
870.60574412532742
 11
1498.4016671863021
 21
856.60574412532742
  0
ARC
  8
_0-1_計細線
  6
CONTINUOUS
 62
    3
 10
1501.4016671863021
 20
856.60574412532742
 40
3
 50
179.99999999999983
 51
269.99999999999977
  0
LINE
  8
_0-1_計細線
  6
CONTINUOUS
 62
    3
 10
1501.4016671863021
 20
853.60574412532742
 11
1511.4016668801407
 21
853.60574412532742
  0
LINE
  8
_0-1_計細線
  6
CONTINUOUS
 62
    3
 10
1514.4016668801407
 20
870.60574412532742
 11
1514.4016668801407
 21
856.60574412532742
  0
ARC
  8
_0-1_計細線
  6
CONTINUOUS
 62
    3
 10
1511.4016668801407
 20
856.60574412532742
 40
3
 50
269.99999999999977
 51
359.99999999999966
  0
LINE
  8
_0-0_計極細
  6
CENTER1
 62
    2
 10
1506.4016669620871
 20
900.2471179907152
 11
1506.4016669620871
 21
844.97700015447208
  0
LINE
  8
_0-5_寸法線
  6
CONTINUOUS
 62
    7
 10
178.40166696208712
 20
912.60574412532605
 11
178.40166696208735
 21
984.60574412532617
  0
LINE
  8
_0-5_寸法線
  6
CONTINUOUS
 62
    7
 10
178.40166696208735
 20
976.60574412532617
 11
193.8564801827124
 21
980.74684884696649
  0
LINE
  8
_0-5_寸法線
  6
CONTINUOUS
 62
    7
 10
178.40166696208735
 20
976.60574412532617
 11
193.8564801827124
 21
972.46463940368585
  0
LINE
  8
_0-5_寸法線
  6
CONTINUOUS
 62
    7
 10
213.40166696208712
 20
912.60574412532605
 11
213.40166696208735
 21
984.60574412532617
  0
LINE
  8
_0-5_寸法線
  6
CONTINUOUS
 62
    7
 10
213.40166696208735
 20
976.60574412532617
 11
197.94685374146229
 21
972.46463940368585
  0
LINE
  8
_0-5_寸法線
  6
CONTINUOUS
 62
    7
 10
213.40166696208735
 20
976.60574412532617
 11
197.94685374146229
 21
980.7468488469666
  0
LINE
  8
_0-5_寸法線
  6
CONTINUOUS
 62
    7
 10
178.40166696208735
 20
976.60574412532617
 11
213.40166696208735
 21
976.60574412532617
  0
TEXT
  8
_0-5_寸法線
 62
    7
 10
183.90166696208735
 20
976.60574412532617
 40
24
 41
1
 50
0
  1
35
  0
LINE
  8
_0-5_寸法線
  6
CONTINUOUS
 62
    7
 10
213.40166696208735
 20
976.60574412532617
 11
228.8564801827124
 21
980.74684884696637
  0
LINE
  8
_0-5_寸法線
  6
CONTINUOUS
 62
    7
 10
213.40166696208735
 20
976.60574412532617
 11
228.8564801827124
 21
972.46463940368574
  0
LINE
  8
_0-5_寸法線
  6
CONTINUOUS
 62
    7
 10
644.40166696208712
 20
912.60574412532605
 11
644.40166696208712
 21
984.60574412532617
  0
LINE
  8
_0-5_寸法線
  6
CONTINUOUS
 62
    7
 10
644.40166696208712
 20
976.60574412532617
 11
628.94685374146206
 21
972.46463940368585
  0
LINE
  8
_0-5_寸法線
  6
CONTINUOUS
 62
    7
 10
644.40166696208712
 20
976.60574412532617
 11
628.94685374146206
 21
980.7468488469666
  0
LINE
  8
_0-5_寸法線
  6
CONTINUOUS
 62
    7
 10
213.40166696208735
 20
976.60574412532617
 11
644.40166696208712
 21
976.60574412532617
  0
TEXT
  8
_0-5_寸法線
 62
    7
 10
410.90166696208723
 20
976.60574412532617
 40
24
 41
1
 50
0
  1
431
  0
LINE
  8
_0-5_寸法線
  6
CONTINUOUS
 62
    7
 10
644.40166696208712
 20
976.60574412532617
 11
659.85648018271229
 21
980.74684884696637
  0
LINE
  8
_0-5_寸法線
  6
CONTINUOUS
 62
    7
 10
644.40166696208712
 20
976.60574412532617
 11
659.85648018271218
 21
972.46463940368574
  0
LINE
  8
_0-5_寸法線
  6
CONTINUOUS
 62
    7
 10
1075.4016669620871
 20
912.60574412532605
 11
1075.4016669620871
 21
984.60574412532617
  0
LINE
  8
_0-5_寸法線
  6
CONTINUOUS
 62
    7
 10
1075.4016669620871
 20
976.60574412532617
 11
1059.9468537414621
 21
972.46463940368585
  0
LINE
  8
_0-5_寸法線
  6
CONTINUOUS
 62
    7
 10
1075.4016669620871
 20
976.60574412532617
 11
1059.9468537414621
 21
980.7468488469666
  0
LINE
  8
_0-5_寸法線
  6
CONTINUOUS
 62
    7
 10
644.40166696208712
 20
976.60574412532617
 11
1075.4016669620871
 21
976.60574412532617
  0
TEXT
  8
_0-5_寸法線
 62
    7
 10
841.90166696208712
 20
976.60574412532617
 40
24
 41
1
 50
0
  1
431
  0
LINE
  8
_0-5_寸法線
  6
CONTINUOUS
 62
    7
 10
1075.4016669620871
 20
976.60574412532617
 11
1090.8564801827122
 21
980.74684884696637
  0
LINE
  8
_0-5_寸法線
  6
CONTINUOUS
 62
    7
 10
1075.4016669620871
 20
976.60574412532617
 11
1090.8564801827122
 21
972.46463940368574
  0
LINE
  8
_0-5_寸法線
  6
CONTINUOUS
 62
    7
 10
1506.4016669620871
 20
912.60574412532605
 11
1506.4016669620871
 21
984.60574412532617
  0
LINE
  8
_0-5_寸法線
  6
CONTINUOUS
 62
    7
 10
1506.4016669620871
 20
976.60574412532617
 11
1490.9468537414621
 21
972.46463940368585
  0
LINE
  8
_0-5_寸法線
  6
CONTINUOUS
 62
    7
 10
1506.4016669620871
 20
976.60574412532617
 11
1490.9468537414621
 21
980.7468488469666
  0
LINE
  8
_0-5_寸法線
  6
CONTINUOUS
 62
    7
 10
1075.4016669620871
 20
976.60574412532617
 11
1506.4016669620871
 21
976.60574412532617
  0
TEXT
  8
_0-5_寸法線
 62
    7
 10
1272.9016669620871
 20
976.60574412532617
 40
24
 41
1
 50
0
  1
431
  0
LINE
  8
_0-5_寸法線
  6
CONTINUOUS
 62
    7
 10
1506.4016669620871
 20
976.60574412532617
 11
1521.8564801827122
 21
980.74684884696637
  0
LINE
  8
_0-5_寸法線
  6
CONTINUOUS
 62
    7
 10
1506.4016669620871
 20
976.60574412532617
 11
1521.8564801827122
 21
972.46463940368574
  0
LINE
  8
_0-5_寸法線
  6
CONTINUOUS
 62
    7
 10
1937.4016669620871
 20
912.60574412532605
 11
1937.4016669620871
 21
984.60574412532617
  0
LINE
  8
_0-5_寸法線
  6
CONTINUOUS
 62
    7
 10
1937.4016669620871
 20
976.60574412532617
 11
1921.9468537414621
 21
972.46463940368585
  0
LINE
  8
_0-5_寸法線
  6
CONTINUOUS
 62
    7
 10
1937.4016669620871
 20
976.60574412532617
 11
1921.9468537414621
 21
980.7468488469666
  0
LINE
  8
_0-5_寸法線
  6
CONTINUOUS
 62
    7
 10
1506.4016669620871
 20
976.60574412532617
 11
1937.4016669620871
 21
976.60574412532617
  0
TEXT
  8
_0-5_寸法線
 62
    7
 10
1703.9016669620871
 20
976.60574412532617
 40
24
 41
1
 50
0
  1
431
  0
LINE
  8
_0-5_寸法線
  6
CONTINUOUS
 62
    7
 10
1937.4016669620871
 20
976.60574412532617
 11
1952.8564801827122
 21
980.74684884696637
  0
LINE
  8
_0-5_寸法線
  6
CONTINUOUS
 62
    7
 10
1937.4016669620871
 20
976.60574412532617
 11
1952.8564801827122
 21
972.46463940368574
  0
LINE
  8
_0-5_寸法線
  6
CONTINUOUS
 62
    7
 10
1972.4016669620871
 20
912.60574412532605
 11
1972.4016669620871
 21
984.60574412532617
  0
LINE
  8
_0-5_寸法線
  6
CONTINUOUS
 62
    7
 10
1972.4016669620871
 20
976.60574412532617
 11
1956.9468537414621
 21
972.46463940368585
  0
LINE
  8
_0-5_寸法線
  6
CONTINUOUS
 62
    7
 10
1972.4016669620871
 20
976.60574412532617
 11
1956.9468537414621
 21
980.7468488469666
  0
LINE
  8
_0-5_寸法線
  6
CONTINUOUS
 62
    7
 10
1937.4016669620871
 20
976.60574412532617
 11
1972.4016669620871
 21
976.60574412532617
  0
TEXT
  8
_0-5_寸法線
 62
    7
 10
1942.9016669620871
 20
976.60574412532617
 40
24
 41
1
 50
0
  1
35
  0
LINE
  8
_0-1_計細線
  6
CONTINUOUS
 62
    3
 10
1067.4016671863021
 20
876.60574412532605
 11
652.40166688014074
 21
876.60574412532605
  0
LINE
  8
_0-1_計細線
  6
CONTINUOUS
 62
    3
 10
636.40166718630348
 20
876.60574412532605
 11
221.40166688014074
 21
876.60574412532605
  0
LINE
  8
_0-1_計細線
  6
CONTINUOUS
 62
    3
 10
1055.0913613665091
 20
874.62751299921956
 11
651.37528691675675
 21
875.56323830360395
  0
LINE
  8
_0-1_計細線
  6
CONTINUOUS
 62
    3
 10
637.42804714968543
 20
875.59556494602009
 11
221.35585178315637
 21
876.55992902834157
  0
LINE
  8
_0-1_計細線
  6
CONTINUOUS
 62
    3
 10
1929.4016671863035
 20
876.60574412532605
 11
1514.4016668801394
 21
876.60574412532605
  0
LINE
  8
_0-1_計細線
  6
CONTINUOUS
 62
    3
 10
1498.4016671863021
 20
876.60574412532605
 11
1083.4016668801407
 21
876.60574412532605
  0
LINE
  8
_0-1_計細線
  6
CONTINUOUS
 62
    3
 10
1095.7119725576656
 20
874.62751299921956
 11
1499.4441357179237
 21
875.56327559370573
  0
LINE
  8
_0-1_計細線
  6
CONTINUOUS
 62
    3
 10
1513.3591235957133
 20
875.59552748331703
 11
1929.4474821410197
 21
876.55992902834157
  0
TEXT
  8
_0-7_枠細線
 62
    5
 10
1910.4000000000001
 20
188
 40
32
 41
0.6999999999999998
 50
0
  1
１：８
  0
TEXT
  8
_0-7_枠細線
 62
    5
 10
1544.7999999999997
 20
176
 40
32
 41
0.6
 50
0
  1
ＧＳＧ－１０Ｌ１８００Ｎ
  0
TEXT
  8
_0-7_枠細線
 62
    5
 10
1544.7999999999997
 20
240
 40
32
 41
0.6
 50
0
  1
玄関排水ユニット盗難防止金具付
  0
TEXT
  8
_0-7_枠細線
 62
    5
 10
1544.7999999999995
 20
112
 40
32.000000000000007
 41
0.5999999999999997
 50
0
  1
表面形状については記号表参照のこと
  0
LINE
  8
_1-2_極細2
  6
CENTER1
 62
    2
 10
1974.4071441180165
 20
517.05126449457032
 11
1994.2413805883896
 21
470.32473158153346
  0
CIRCLE
  8
_1-2_極細2
  6
DASHED2
 62
    2
 10
1985.6076665527269
 20
490.66448721829647
 40
12
  0
LINE
  8
_1-2_極細2
  6
CENTER1
 62
    2
 10
2007.6888768063197
 20
500.03740488237554
 11
1966.4962889366795
 21
482.55218871721218
  0
LINE
  8
_1-2_極細2
  6
CONTINUOUS
 62
    2
 10
2000.639433548871
 20
510.11916998086309
 11
2011.9531420478559
 21
521.43287847984789
  0
LINE
  8
_1-2_極細2
  6
DASHED2
 62
    2
 10
2047.99732279248
 20
414.16036130602288
 11
2001.6546879044724
 21
414.16036130602288
  0
LINE
  8
_1-2_極細2
  6
DASHED2
 62
    2
 10
2001.8652127691801
 20
521.46533446346029
 11
2047.5026085767256
 21
413.95036758021479
  0
LINE
  8
_1-2_極細2
  6
CONTINUOUS
 62
    2
 10
1822.5066349826188
 20
417.36036130602236
 11
1856.9066346106188
 21
417.36036130602361
  0
LINE
  8
_1-2_極細2
  6
CONTINUOUS
 62
    2
 10
1819.7066350106193
 20
420.16036130602225
 11
1859.706634610618
 21
420.16036130602225
  0
LINE
  8
_1-2_極細2
  6
CONTINUOUS
 62
    2
 10
1819.7066350106193
 20
388.16036162602313
 11
1819.7066350106193
 21
420.16036130602288
  0
LINE
  8
_1-2_極細2
  6
CONTINUOUS
 62
    2
 10
1822.5066349826188
 20
388.16036162602313
 11
1822.5066349826188
 21
417.36036130602361
  0
LINE
  8
_1-2_極細2
  6
CONTINUOUS
 62
    2
 10
1819.7066350106193
 20
388.16036162602313
 11
1822.5066349826188
 21
388.16036162602313
  0
LINE
  8
_1-2_極細2
  6
CONTINUOUS
 62
    2
 10
2000.639433548871
 20
510.11916998086309
 11
2004.7805382705117
 21
525.57398320148798
  0
LINE
  8
_1-2_極細2
  6
CONTINUOUS
 62
    2
 10
2053.6546879044722
 20
346.96036210602341
 11
2053.6546879044722
 21
349.76036210602388
  0
LINE
  8
_1-2_極細2
  6
CONTINUOUS
 62
    2
 10
2001.6546879044724
 20
373.52162937969126
 11
2001.6546879044724
 21
349.76036130602324
  0
LINE
  8
_1-2_極細2
  6
CONTINUOUS
 62
    2
 10
1934.3918950720831
 20
373.76036210602388
 11
1934.3918950720831
 21
352.16036210602351
  0
LINE
  8
_1-2_極細2
  6
CONTINUOUS
 62
    2
 10
1913.021374149153
 20
373.76036210602388
 11
1913.021374149153
 21
352.16036210602414
  0
LINE
  8
_1-2_極細2
  6
CONTINUOUS
 62
    2
 10
1893.6546879044722
 20
349.76036210602388
 11
1893.6546879044722
 21
346.96036210602341
  0
LINE
  8
_1-2_極細2
  6
CONTINUOUS
 62
    2
 10
1893.6546879044722
 20
349.76036210602388
 11
2053.6546860244721
 21
349.76036210602388
  0
LINE
  8
_1-2_極細2
  6
CONTINUOUS
 62
    2
 10
1893.6546879044722
 20
346.96036210602341
 11
2053.6546860244721
 21
346.96036210602341
  0
LINE
  8
_1-2_極細2
  6
CONTINUOUS
 62
    2
 10
1895.706634610618
 20
349.76036210602388
 11
1951.706634610618
 21
349.76036210602388
  0
LINE
  8
_1-2_極細2
  6
CONTINUOUS
 62
    2
 10
1856.9066346106188
 20
417.36036130602361
 11
1856.9066346106188
 21
340.16036210602351
  0
LINE
  8
_1-2_極細2
  6
CONTINUOUS
 62
    2
 10
1859.706634610618
 20
420.16036130602288
 11
1859.706634610618
 21
342.96036210602341
  0
LINE
  8
_1-2_極細2
  6
DASHED2
 62
    2
 10
2001.6546879044724
 20
414.16036130602288
 11
2001.6546879044724
 21
373.52162937969126
  0
LINE
  8
_1-5_寸法2
  6
CONTINUOUS
 62
    7
 10
1957.843520472597
 20
443.16100989229454
 11
1943.4769341999686
 21
436.11819803401778
  0
ARC
  8
_1-5_寸法2
  6
CONTINUOUS
 62
    7
 10
2023.6546879044724
 20
367.76036130602324
 40
100.08180437010788
 50
131.11509464913772
 51
160.1952802838328
  0
LINE
  8
_1-5_寸法2
  6
CONTINUOUS
 62
    7
 10
1929.4924357921204
 20
401.66962026440478
 11
1930.8325946518958
 21
417.61339567145853
  0
LINE
  8
_1-5_寸法2
  6
CONTINUOUS
 62
    7
 10
1929.4924357921204
 20
401.66962026440478
 11
1938.6249351133188
 21
414.80725536925894
  0
LINE
  8
_1-5_寸法2
  6
CONTINUOUS
 62
    7
 10
1957.843520472597
 20
443.16100989229454
 11
1948.9230977239781
 21
429.8784627726377
  0
LINE
  8
_1-3_細線2
  6
CONTINUOUS
 62
    4
 10
2054.1703906648759
 20
382.88622938156323
 11
2041.9795794560121
 21
411.60598080927912
  0
LINE
  8
_1-3_細線2
  6
CONTINUOUS
 62
    4
 10
1955.509091581745
 20
482.23384164893844
 11
2007.0856005423282
 21
360.72720099321623
  0
LINE
  8
_1-3_細線2
  6
CONTINUOUS
 62
    4
 10
1945.8066346106184
 20
373.76036210602388
 11
1901.6066346106177
 21
373.76036210602388
  0
LINE
  8
_1-3_細線2
  6
CONTINUOUS
 62
    4
 10
1951.706634610618
 20
352.16036210602414
 11
1895.706634610618
 21
352.16036210602414
  0
LINE
  8
_1-3_細線2
  6
CONTINUOUS
 62
    4
 10
1935.706634610618
 20
373.76036210602388
 11
1935.706634610618
 21
378.96036210602335
  0
LINE
  8
_1-3_細線2
  6
CONTINUOUS
 62
    4
 10
1931.706634610618
 20
382.96036210602335
 11
1935.706634610618
 21
378.96036210602335
  0
LINE
  8
_1-3_細線2
  6
CONTINUOUS
 62
    4
 10
1911.706634610618
 20
373.76036210602388
 11
1911.706634610618
 21
378.96036210602335
  0
LINE
  8
_1-3_細線2
  6
CONTINUOUS
 62
    4
 10
1911.706634610618
 20
378.96036210602335
 11
1915.706634610618
 21
382.96036210602335
  0
LINE
  8
_1-3_細線2
  6
CONTINUOUS
 62
    4
 10
1915.706634610618
 20
382.96036210602335
 11
1931.706634610618
 21
382.96036210602335
  0
LINE
  8
_1-3_細線2
  6
CONTINUOUS
 62
    4
 10
1935.706634610618
 20
346.96036210602341
 11
1935.706634610618
 21
342.96036210602341
  0
LINE
  8
_1-3_細線2
  6
CONTINUOUS
 62
    4
 10
1895.706634610618
 20
352.16036210602414
 11
1895.706634610618
 21
349.76036210602388
  0
LINE
  8
_1-3_細線2
  6
CONTINUOUS
 62
    4
 10
1911.706634610618
 20
346.96036210602341
 11
1911.706634610618
 21
342.96036210602341
  0
LINE
  8
_1-3_細線2
  6
CONTINUOUS
 62
    4
 10
1901.6066346106177
 20
373.76036210602388
 11
1901.6066346106177
 21
352.16036210602414
  0
LINE
  8
_1-3_細線2
  6
DASHED2
 62
    4
 10
1935.706634610618
 20
373.76036210602388
 11
1935.706634610618
 21
346.96036210602341
  0
LINE
  8
_1-3_細線2
  6
DASHED2
 62
    4
 10
1911.706634610618
 20
373.76036210602388
 11
1911.706634610618
 21
346.96036210602341
  0
ARC
  8
_1-3_細線2
  6
CONTINUOUS
 62
    4
 10
2023.6546879044724
 20
367.76036130602324
 40
18
 50
202.99999999999778
 51
293.00000000000023
  0
LINE
  8
_1-3_細線2
  6
CONTINUOUS
 62
    4
 10
1951.706634610618
 20
352.16036210602414
 11
1951.706634610618
 21
349.76036210602388
  0
LINE
  8
_1-3_細線2
  6
CONTINUOUS
 62
    4
 10
1945.8066346106184
 20
373.76036210602388
 11
1945.8066346106184
 21
352.16036210602351
  0
LINE
  8
_1-3_細線2
  6
CONTINUOUS
 62
    4
 10
2030.6878482172795
 20
351.19127394387897
 11
2043.5749161656129
 21
356.66150974272887
  0
ARC
  8
_1-3_細線2
  6
CONTINUOUS
 62
    4
 10
2035.7602935958273
 20
375.07160681177766
 40
20
 50
292.99999999999989
 51
22.999999999998519
  0
LINE
  8
_1-3_細線2
  6
CONTINUOUS
 62
    4
 10
2051.1846279905362
 20
415.5132920941719
 11
2005.5472321829891
 21
523.02825897741741
  0
LINE
  8
_1-3_細線2
  6
CONTINUOUS
 62
    4
 10
2041.9795794560121
 20
411.60598080927912
 11
2051.1846279905362
 21
415.5132920941719
  0
LINE
  8
_1-3_細線2
  6
CONTINUOUS
 62
    4
 10
2005.5472321829891
 20
523.02825897741741
 11
1965.0450186310804
 21
505.83608932388915
  0
CIRCLE
  8
_1-3_細線2
  6
CONTINUOUS
 62
    4
 10
1985.6076665527269
 20
490.66448721829647
 40
7
  0
ARC
  8
_1-3_細線2
  6
CONTINUOUS
 62
    4
 10
1972.0781789438877
 20
489.26700196174545
 40
18
 50
113.00000000000048
 51
202.99999999999875
  0
CIRCLE
  8
_1-3_細線2
  6
CONTINUOUS
 62
    4
 10
1985.6076665527269
 20
490.66448721829647
 40
18
  0
LINE
  8
_1-5_寸法2
  6
CONTINUOUS
 62
    7
 10
1908.3447833427285
 20
372.07895050155105
 11
1897.0310748437437
 21
383.39265900053584
  0
LINE
  8
_1-5_寸法2
  6
CONTINUOUS
 62
    7
 10
1908.3447833427285
 20
372.07895050155105
 11
1904.2036786210881
 21
387.53376372217616
  0
LINE
  8
_1-5_寸法2
  6
CONTINUOUS
 62
    7
 10
1908.3447833427285
 20
372.07895050155105
 11
1862.5262659796488
 21
451.43895050188212
  0
LINE
  8
_1-5_寸法2
  6
CONTINUOUS
 62
    7
 10
1862.5262659796488
 20
451.43895050188212
 11
1728.1262659796489
 21
451.43895050188212
  0
TEXT
  8
_1-5_寸法2
 62
    7
 10
1728.1262659796489
 20
451.43895050188212
 40
24
 41
0.7999999999999998
 50
0
  1
フランジナット
  0
LINE
  8
_1-2_極細2
  6
CONTINUOUS
 62
    2
 10
2115.8773176753925
 20
414.16036130602288
 11
2047.99732279248
 21
414.16036130602288
  0
LINE
  8
_1-2_極細2
  6
CONTINUOUS
 62
    2
 10
1859.706634610618
 20
342.96036210602341
 11
2138.6146880189676
 21
342.96036210602341
  0
LINE
  8
_1-2_極細2
  6
CONTINUOUS
 62
    2
 10
1856.9066346106188
 20
340.16036210602351
 11
2138.0563466954168
 21
340.16036210602351
  0
LINE
  8
_1-2_極細2
  6
CONTINUOUS
 62
    2
 10
2001.6546879044724
 20
349.76036130602324
 11
2139.1591702293495
 21
349.76036130602324
  0
LINE
  8
_1-2_極細2
  6
CONTINUOUS
 62
    2
 10
2125.4058842931677
 20
433.91964658361894
 11
2125.2612959269168
 21
433.66431823402263
  0
LINE
  8
_1-2_極細2
  6
CONTINUOUS
 62
    2
 10
2125.2612959269168
 20
433.66431823402263
 11
2124.8316813599354
 21
432.90529227354466
  0
LINE
  8
_1-2_極細2
  6
CONTINUOUS
 62
    2
 10
2124.8316813599354
 20
432.90529227354466
 11
2124.1305414084395
 21
431.66322460388392
  0
LINE
  8
_1-2_極細2
  6
CONTINUOUS
 62
    2
 10
2124.1305414084395
 20
431.66322460388392
 11
2123.1834346443225
 21
429.97182105475088
  0
LINE
  8
_1-2_極細2
  6
CONTINUOUS
 62
    2
 10
2123.1834346443225
 20
429.97182105475088
 11
2122.0311479952775
 21
427.87681304225543
  0
LINE
  8
_1-2_極細2
  6
CONTINUOUS
 62
    2
 10
2122.0311479952775
 20
427.87681304225543
 11
2120.7317244698293
 21
425.4346249376523
  0
LINE
  8
_1-2_極細2
  6
CONTINUOUS
 62
    2
 10
2120.7317244698293
 20
425.4346249376523
 11
2119.3598048424096
 21
422.71080986333936
  0
LINE
  8
_1-2_極細2
  6
CONTINUOUS
 62
    2
 10
2119.3598048424096
 20
422.71080986333936
 11
2118.0022829192435
 21
419.77832421143722
  0
LINE
  8
_1-2_極細2
  6
CONTINUOUS
 62
    2
 10
2118.0022829192435
 20
419.77832421143722
 11
2116.7501757430505
 21
416.71569384312789
  0
LINE
  8
_1-2_極細2
  6
CONTINUOUS
 62
    2
 10
2116.7501757430505
 20
416.71569384312789
 11
2115.6876507084557
 21
413.60510245033231
  0
LINE
  8
_1-2_極細2
  6
CONTINUOUS
 62
    2
 10
2115.6876507084557
 20
413.60510245033231
 11
2114.8800652740497
 21
410.53041199909677
  0
LINE
  8
_1-2_極細2
  6
CONTINUOUS
 62
    2
 10
2114.8800652740497
 20
410.53041199909677
 11
2114.3634160062661
 21
407.57511307845937
  0
LINE
  8
_1-2_極細2
  6
CONTINUOUS
 62
    2
 10
2114.3634160062661
 20
407.57511307845937
 11
2114.1375983481316
 21
404.82020372125118
  0
LINE
  8
_1-2_極細2
  6
CONTINUOUS
 62
    2
 10
2114.1375983481316
 20
404.82020372125118
 11
2114.1653081738964
 21
402.3420098676259
  0
LINE
  8
_1-2_極細2
  6
CONTINUOUS
 62
    2
 10
2114.1653081738964
 20
402.3420098676259
 11
2114.377370766791
 21
400.20998642157258
  0
LINE
  8
_1-2_極細2
  6
CONTINUOUS
 62
    2
 10
2114.377370766791
 20
400.20998642157258
 11
2114.6839807249157
 21
398.48456895092522
  0
LINE
  8
_1-2_極細2
  6
CONTINUOUS
 62
    2
 10
2114.6839807249157
 20
398.48456895092522
 11
2114.9900653156924
 21
397.21517480797058
  0
LINE
  8
_1-2_極細2
  6
CONTINUOUS
 62
    2
 10
2114.9900653156924
 20
397.21517480797058
 11
2115.2120347031573
 21
396.43847106981605
  0
LINE
  8
_1-2_極細2
  6
CONTINUOUS
 62
    2
 10
2115.2120347031573
 20
396.43847106981605
 11
2115.292780471696
 21
396.17702929966811
  0
LINE
  8
_1-2_極細2
  6
CONTINUOUS
 62
    2
 10
2115.292780471696
 20
396.17702929966811
 11
2115.3766099699383
 21
395.91550354706743
  0
LINE
  8
_1-2_極細2
  6
CONTINUOUS
 62
    2
 10
2115.3766099699383
 20
395.91550354706743
 11
2115.6436656703931
 21
395.13755688788672
  0
LINE
  8
_1-2_極細2
  6
CONTINUOUS
 62
    2
 10
2115.6436656703931
 20
395.13755688788672
 11
2116.1358915527558
 21
393.86291223138579
  0
LINE
  8
_1-2_極細2
  6
CONTINUOUS
 62
    2
 10
2116.1358915527558
 20
393.86291223138579
 11
2116.9085128895817
 21
392.12389170178312
  0
LINE
  8
_1-2_極細2
  6
CONTINUOUS
 62
    2
 10
2116.9085128895817
 20
392.12389170178312
 11
2118.0118502145738
 21
389.96463621313052
  0
LINE
  8
_1-2_極細2
  6
CONTINUOUS
 62
    2
 10
2118.0118502145738
 20
389.96463621313052
 11
2119.472573661023
 21
387.44008754458764
  0
LINE
  8
_1-2_極細2
  6
CONTINUOUS
 62
    2
 10
2119.472573661023
 20
387.44008754458764
 11
2121.2791144785401
 21
384.61478171933851
  0
LINE
  8
_1-2_極細2
  6
CONTINUOUS
 62
    2
 10
2121.2791144785401
 20
384.61478171933851
 11
2123.3749921072717
 21
381.56148792001306
  0
LINE
  8
_1-2_極細2
  6
CONTINUOUS
 62
    2
 10
2123.3749921072717
 20
381.56148792001306
 11
2125.6619421155569
 21
378.35970357948474
  0
LINE
  8
_1-2_極細2
  6
CONTINUOUS
 62
    2
 10
2125.6619421155569
 20
378.35970357948474
 11
2128.0123932003203
 21
375.09399122693821
  0
LINE
  8
_1-2_極細2
  6
CONTINUOUS
 62
    2
 10
2128.0123932003203
 20
375.09399122693821
 11
2130.2886032582733
 21
371.85212484609667
  0
LINE
  8
_1-2_極細2
  6
CONTINUOUS
 62
    2
 10
2130.2886032582733
 20
371.85212484609667
 11
2132.3641648266052
 21
368.72301047714802
  0
LINE
  8
_1-2_極細2
  6
CONTINUOUS
 62
    2
 10
2132.3641648266052
 20
368.72301047714802
 11
2134.1430150340361
 21
365.79436188816254
  0
LINE
  8
_1-2_極細2
  6
CONTINUOUS
 62
    2
 10
2134.1430150340361
 20
365.79436188816254
 11
2135.57167402798
 21
363.15014705374972
  0
LINE
  8
_1-2_極細2
  6
CONTINUOUS
 62
    2
 10
2135.57167402798
 20
363.15014705374972
 11
2136.6420477390052
 21
360.86786968297758
  0
LINE
  8
_1-2_極細2
  6
CONTINUOUS
 62
    2
 10
2136.6420477390052
 20
360.86786968297758
 11
2137.3843784194628
 21
359.0158028848129
  0
LINE
  8
_1-2_極細2
  6
CONTINUOUS
 62
    2
 10
2137.3843784194628
 20
359.0158028848129
 11
2137.8522690656787
 21
357.65033789060197
  0
LINE
  8
_1-2_極細2
  6
CONTINUOUS
 62
    2
 10
2137.8522690656787
 20
357.65033789060197
 11
2138.103582050649
 21
356.81363861737572
  0
LINE
  8
_1-2_極細2
  6
CONTINUOUS
 62
    2
 10
2138.103582050649
 20
356.81363861737572
 11
2138.1819673215591
 21
356.53179473176669
  0
LINE
  8
_1-2_極細2
  6
CONTINUOUS
 62
    2
 10
2138.1819673215591
 20
356.53179473176669
 11
2138.2571941857436
 21
356.24975613017233
  0
LINE
  8
_1-2_極細2
  6
CONTINUOUS
 62
    2
 10
2138.2571941857436
 20
356.24975613017233
 11
2138.4623209293982
 21
355.41019478958043
  0
LINE
  8
_1-2_極細2
  6
CONTINUOUS
 62
    2
 10
2138.4623209293982
 20
355.41019478958043
 11
2138.739465068636
 21
354.03279341109027
  0
LINE
  8
_1-2_極細2
  6
CONTINUOUS
 62
    2
 10
2138.739465068636
 20
354.03279341109027
 11
2139.004008321926
 21
352.15038086068625
  0
LINE
  8
_1-2_極細2
  6
CONTINUOUS
 62
    2
 10
2139.004008321926
 20
352.15038086068625
 11
2139.1599304726619
 21
349.80883843214195
  0
LINE
  8
_1-2_極細2
  6
CONTINUOUS
 62
    2
 10
2139.1599304726619
 20
349.80883843214195
 11
2139.1169274815707
 21
347.06674075326328
  0
LINE
  8
_1-2_極細2
  6
CONTINUOUS
 62
    2
 10
2139.1169274815707
 20
347.06674075326328
 11
2138.8061004464612
 21
343.99457208206468
  0
LINE
  8
_1-2_極細2
  6
CONTINUOUS
 62
    2
 10
2138.8061004464612
 20
343.99457208206468
 11
2138.1914139595151
 21
340.67339327848049
  0
LINE
  8
_1-2_極細2
  6
CONTINUOUS
 62
    2
 10
2138.1914139595151
 20
340.67339327848049
 11
2137.2750946445535
 21
337.19290246051077
  0
LINE
  8
_1-2_極細2
  6
CONTINUOUS
 62
    2
 10
2137.2750946445535
 20
337.19290246051077
 11
2136.0964425150355
 21
333.64891884931922
  0
LINE
  8
_1-2_極細2
  6
CONTINUOUS
 62
    2
 10
2136.0964425150355
 20
333.64891884931922
 11
2134.7248615079548
 21
330.14040607396254
  0
LINE
  8
_1-2_極細2
  6
CONTINUOUS
 62
    2
 10
2134.7248615079548
 20
330.14040607396254
 11
2133.2489863052265
 21
326.76621996949098
  0
LINE
  8
_1-2_極細2
  6
CONTINUOUS
 62
    2
 10
2133.2489863052265
 20
326.76621996949098
 11
2131.7643666907456
 21
323.62180281745054
  0
LINE
  8
_1-2_極細2
  6
CONTINUOUS
 62
    2
 10
2131.7643666907456
 20
323.62180281745054
 11
2130.362165895936
 21
320.79604472172491
  0
LINE
  8
_1-2_極細2
  6
CONTINUOUS
 62
    2
 10
2130.362165895936
 20
320.79604472172491
 11
2129.1207751907655
 21
318.36849584461879
  0
LINE
  8
_1-2_極細2
  6
CONTINUOUS
 62
    2
 10
2129.1207751907655
 20
318.36849584461879
 11
2128.1013110654435
 21
316.40705094716714
  0
LINE
  8
_1-2_極細2
  6
CONTINUOUS
 62
    2
 10
2128.1013110654435
 20
316.40705094716714
 11
2127.3468954262639
 21
314.96615570426025
  0
LINE
  8
_1-2_極細2
  6
CONTINUOUS
 62
    2
 10
2127.3468954262639
 20
314.96615570426025
 11
2126.8846954999858
 21
314.08551952729999
  0
LINE
  8
_1-2_極細2
  6
CONTINUOUS
 62
    2
 10
2126.8846954999858
 20
314.08551952729999
 11
2126.7291440020504
 21
313.78927621324829
  0
LINE
  8
_1-5_寸法2
  6
CONTINUOUS
 62
    7
 10
2061.9850132346619
 20
364.47613231251484
 11
2148.512469730465
 21
401.20485850566723
  0
LINE
  8
_1-5_寸法2
  6
CONTINUOUS
 62
    7
 10
2144.8304503166555
 20
399.64193399170972
 11
2137.4425126127476
 21
409.09806303499033
  0
LINE
  8
_1-5_寸法2
  6
CONTINUOUS
 62
    7
 10
2144.8304503166555
 20
399.64193399170972
 11
2143.1603731051346
 21
411.52515081660857
  0
LINE
  8
_1-5_寸法2
  6
CONTINUOUS
 62
    7
 10
2023.9573292520383
 20
530.84288154720343
 11
2082.8696401442667
 21
555.84967388567316
  0
LINE
  8
_1-5_寸法2
  6
CONTINUOUS
 62
    7
 10
2079.1876207304572
 20
554.28674937171559
 11
2086.5755584343651
 21
544.83062032843497
  0
LINE
  8
_1-5_寸法2
  6
CONTINUOUS
 62
    7
 10
2079.1876207304572
 20
554.28674937171559
 11
2080.8576979419781
 21
542.40353254681679
  0
LINE
  8
_1-5_寸法2
  6
CONTINUOUS
 62
    7
 10
2144.8304503166555
 20
399.64193399170972
 11
2079.1876207304572
 21
554.28674937171559
  0
TEXT
  8
_1-5_寸法2
 62
    7
 10
2107.3202619816852
 20
488.0103999231419
 40
24
 41
1
 50
-66.999999999999687
  1
42
  0
LINE
  8
_1-5_寸法2
  6
CONTINUOUS
 62
    7
 10
1947.6944690119599
 20
500.64393871798814
 11
1915.6545164323106
 21
576.12533680366334
  0
LINE
  8
_1-5_寸法2
  6
CONTINUOUS
 62
    7
 10
1917.2174409462673
 20
572.44331738985341
 11
1926.6735699895478
 21
579.83125509376134
  0
LINE
  8
_1-5_寸法2
  6
CONTINUOUS
 62
    7
 10
1917.2174409462673
 20
572.44331738985341
 11
1929.1006577711662
 21
574.11339460137435
  0
LINE
  8
_1-5_寸法2
  6
CONTINUOUS
 62
    7
 10
1997.732609613204
 20
541.43835604646642
 11
1972.7258173463592
 21
600.3506667699977
  0
LINE
  8
_1-5_寸法2
  6
CONTINUOUS
 62
    7
 10
1974.2887418603159
 20
596.66864735618776
 11
1964.8326128170354
 21
589.28070965227982
  0
LINE
  8
_1-5_寸法2
  6
CONTINUOUS
 62
    7
 10
1974.2887418603159
 20
596.66864735618776
 11
1962.405525035417
 21
594.99857014466681
  0
LINE
  8
_1-5_寸法2
  6
CONTINUOUS
 62
    7
 10
1917.2174409462673
 20
572.44331738985341
 11
1974.2887418603159
 21
596.66864735618776
  0
TEXT
  8
_1-5_寸法2
 62
    7
 10
1923.6609749204333
 20
575.17843528927801
 40
24
 41
1
 50
23.000000000000313
  1
15.5
  0
LINE
  8
_1-5_寸法2
  6
CONTINUOUS
 62
    7
 10
2000.639433548871
 20
510.11916998086309
 11
2004.7805382705114
 21
525.5739832014882
  0
LINE
  8
_1-5_寸法2
  6
CONTINUOUS
 62
    7
 10
2000.639433548871
 20
510.11916998086309
 11
2011.9531420478559
 21
521.43287847984789
  0
LINE
  8
_1-5_寸法2
  6
CONTINUOUS
 62
    7
 10
2000.639433548871
 20
510.11916998086309
 11
2036.2360793853868
 21
571.77436914874443
  0
LINE
  8
_1-5_寸法2
  6
CONTINUOUS
 62
    7
 10
2036.2360793853868
 20
571.77436914874443
 11
2189.8360793853867
 21
571.77436914874443
  0
TEXT
  8
_1-5_寸法2
 62
    7
 10
2036.2360793853868
 20
571.77436914874443
 40
24
 41
0.7999999999999998
 50
0
  1
ボルトカバー金具
  0
LINE
  8
_1-5_寸法2
  6
CONTINUOUS
 62
    7
 10
1922.406819633658
 20
382.96036210602335
 11
1913.0075867834985
 21
395.9085056729013
  0
LINE
  8
_1-5_寸法2
  6
CONTINUOUS
 62
    7
 10
1922.406819633658
 20
382.96036210602335
 11
1920.7409169927737
 21
398.87339979186743
  0
LINE
  8
_1-5_寸法2
  6
CONTINUOUS
 62
    7
 10
1922.406819633658
 20
382.96036210602335
 11
1878.5901129780593
 21
497.24743194878874
  0
LINE
  8
_1-5_寸法2
  6
CONTINUOUS
 62
    7
 10
1878.5901129780593
 20
497.24743194878874
 11
1744.1901129780595
 21
497.24743194878874
  0
TEXT
  8
_1-5_寸法2
 62
    7
 10
1744.1901129780597
 20
497.24743194878874
 40
24
 41
0.7999999999999998
 50
0
  1
スタッドボルト
  0
LINE
  8
_1-2_極細2
  6
CENTER1
 62
    2
 10
2004.4742940860774
 20
370.38283349201549
 11
2042.7841614844958
 21
370.38283349201549
  0
LINE
  8
_1-2_極細2
  6
CENTER1
 62
    2
 10
2024.7142353753363
 20
350.37954329492021
 11
2024.7142353753363
 21
389.79649396317029
  0
CIRCLE
  8
_1-2_極細2
  6
CONTINUOUS
 62
    2
 10
2024.7142353753363
 20
370.38283361771948
 40
13.800000000000001
  0
CIRCLE
  8
_1-3_細線2
  6
CONTINUOUS
 62
    4
 10
2024.7142353753363
 20
370.38283361771948
 40
14.4
  0
TEXT
  8
_0-7_枠細線
 62
    5
 10
2061.998201438847
 20
640.10632207949504
 40
32
 41
0.6000000000000002
 50
0
  1
Ｓ＝１：２
  0
TEXT
  8
_0-7_枠細線
 62
    5
 10
1886.3629300426851
 20
640.10632207949504
 40
32
 41
0.8
 50
0
  1
Ｂ部詳細図
  0
LINE
  8
_0-7_枠細線
  6
CONTINUOUS
 62
    5
 10
1400
 20
283.9999999999992
 11
1400
 21
116
  0
TEXT
  8
_0-7_枠細線
 62
    5
 10
1254.4000000000015
 20
251.9999999999992
 40
24.000000000000004
 41
0.8
 50
0
  1
ノンスリップ
  0
LINE
  8
_0-7_枠細線
  6
CONTINUOUS
 62
    5
 10
1239.8843333405437
 20
167.60443464038576
 11
1391.6931119920307
 21
167.60443464038576
  0
LINE
  8
_0-7_枠細線
  6
CONTINUOUS
 62
    5
 10
1233.9080240078072
 20
194.27110130438587
 11
1385.7168026592944
 21
194.27110130438587
  0
ARC
  8
_0-7_枠細線
  6
CONTINUOUS
 62
    5
 10
1257.3333333387991
 20
175.60443463958575
 40
5.3333333327999997
 50
51.317813000006232
 51
203.5781780000018
  0
ARC
  8
_0-7_枠細線
  6
CONTINUOUS
 62
    5
 10
1264.0000000047989
 20
183.93109863875327
 40
5.3333333327999997
 50
231.31781300000054
 51
308.68218699999687
  0
LINE
  8
_0-7_枠細線
  6
CONTINUOUS
 62
    5
 10
1252.4452533392885
 20
173.47110130646581
 11
1275.5547466703099
 21
173.47110130646581
  0
ARC
  8
_0-7_枠細線
  6
CONTINUOUS
 62
    5
 10
1270.6666666707993
 20
175.60443463958575
 40
5.3333333327999997
 50
336.42182199999456
 51
128.68218699999915
  0
ARC
  8
_0-7_枠細線
  6
CONTINUOUS
 62
    5
 10
1305.3333333339995
 20
186.27110130518577
 40
5.3333333327999997
 50
156.42182199999701
 51
308.68218699999397
  0
ARC
  8
_0-7_枠細線
  6
CONTINUOUS
 62
    5
 10
1311.9999999999991
 20
177.94443730601824
 40
5.3333333327999997
 50
51.317813000007185
 51
128.68218699999662
  0
ARC
  8
_0-7_枠細線
  6
CONTINUOUS
 62
    5
 10
1318.6666666659994
 20
186.27110130518577
 40
5.3333333327999997
 50
231.31781299999577
 51
23.578178000004584
  0
LINE
  8
_0-7_枠細線
  6
CONTINUOUS
 62
    5
 10
1300.4452533344888
 20
188.4044346383057
 11
1323.5547466655096
 21
188.4044346383057
  0
LINE
  8
_0-7_枠細線
  6
CONTINUOUS
 62
    5
 10
1348.4452533296885
 20
173.47110130646581
 11
1371.5547466607102
 21
173.47110130646581
  0
ARC
  8
_0-7_枠細線
  6
CONTINUOUS
 62
    5
 10
1353.3333333291991
 20
175.60443463958575
 40
5.3333333327999997
 50
51.317813000006232
 51
203.5781780000018
  0
ARC
  8
_0-7_枠細線
  6
CONTINUOUS
 62
    5
 10
1359.9999999951988
 20
183.93109863875327
 40
5.3333333327999997
 50
231.31781300000245
 51
308.68218699999875
  0
ARC
  8
_0-7_枠細線
  6
CONTINUOUS
 62
    5
 10
1366.6666666611991
 20
175.60443463958575
 40
5.3333333327999997
 50
336.4218219999965
 51
128.68218699999724
  0
ARC
  8
_0-7_枠細線
  6
CONTINUOUS
 62
    5
 10
1305.3333333339995
 20
186.27110130518577
 40
9.9466666656720477
 50
151.14636799999636
 51
308.68218700000392
  0
LINE
  8
_0-7_枠細線
  6
CONTINUOUS
 62
    5
 10
1233.3219920078668
 20
191.07110130470573
 11
1296.621493334869
 21
191.07110130470573
  0
LINE
  8
_0-7_枠細線
  6
CONTINUOUS
 62
    5
 10
1279.3785093365941
 20
170.80443464006601
 11
1344.6214933300716
 21
170.80443464006601
  0
ARC
  8
_0-7_枠細線
  6
CONTINUOUS
 62
    5
 10
1226.7526373418573
 20
171.66297597331311
 40
13.744570665292123
 50
317.56162899999924
 51
42.438371000002093
  0
ARC
  8
_0-7_枠細線
  6
CONTINUOUS
 62
    5
 10
1257.3333333387991
 20
175.60443463958575
 40
9.9466666656720477
 50
51.317812999992654
 51
208.85363199999745
  0
ARC
  8
_0-7_枠細線
  6
CONTINUOUS
 62
    5
 10
1247.0397226731611
 20
190.21255997145852
 40
13.744570665292123
 50
137.56162899999987
 51
222.43837100000144
  0
LINE
  8
_0-7_枠細線
  6
CONTINUOUS
 62
    5
 10
1240.4703680071516
 20
170.80443464006601
 11
1248.6214933396693
 21
170.80443464006601
  0
ARC
  8
_0-7_枠細線
  6
CONTINUOUS
 62
    5
 10
1264.0000000047989
 20
183.93109863875327
 40
0.7199999999279512
 50
231.31781300002814
 51
308.68218699999932
  0
ARC
  8
_0-7_枠細線
  6
CONTINUOUS
 62
    5
 10
1270.6666666707993
 20
175.60443463958575
 40
9.9466666656720477
 50
331.14636800000056
 51
128.68218700000699
  0
ARC
  8
_0-7_枠細線
  6
CONTINUOUS
 62
    5
 10
1378.5614159933446
 20
171.66297597331311
 40
13.744570665292123
 50
317.56162899999799
 51
42.438371000002093
  0
ARC
  8
_0-7_枠細線
  6
CONTINUOUS
 62
    5
 10
1398.8485013246489
 20
190.21255997145852
 40
13.744570665292123
 50
137.56162900000308
 51
222.43837100000016
  0
LINE
  8
_0-7_枠細線
  6
CONTINUOUS
 62
    5
 10
1375.3785093269942
 20
170.80443464006601
 11
1392.2791466586393
 21
170.80443464006601
  0
LINE
  8
_0-7_枠細線
  6
CONTINUOUS
 62
    5
 10
1327.3785093317945
 20
191.07110130470573
 11
1385.1307706593541
 21
191.07110130470573
  0
ARC
  8
_0-7_枠細線
  6
CONTINUOUS
 62
    5
 10
1353.3333333291991
 20
175.60443463958575
 40
9.9466666656720477
 50
51.317812999993677
 51
208.85363200000518
  0
ARC
  8
_0-7_枠細線
  6
CONTINUOUS
 62
    5
 10
1311.9999999999991
 20
177.94443730601824
 40
0.7199999999279512
 50
51.317813000032764
 51
128.68218699999548
  0
ARC
  8
_0-7_枠細線
  6
CONTINUOUS
 62
    5
 10
1318.6666666659994
 20
186.27110130518577
 40
9.9466666656720477
 50
231.31781299999028
 51
28.853631999998139
  0
ARC
  8
_0-7_枠細線
  6
CONTINUOUS
 62
    5
 10
1359.9999999951988
 20
183.93109863875327
 40
0.7199999999279512
 50
231.31781300002814
 51
308.68218700001347
  0
ARC
  8
_0-7_枠細線
  6
CONTINUOUS
 62
    5
 10
1366.6666666611991
 20
175.60443463958575
 40
9.9466666656720477
 50
331.14636800000056
 51
128.682187000006
  0
LINE
  8
_0-7_枠細線
  6
CENTER1
 62
    5
 10
1264.0000000047989
 20
196.51076263749485
 11
1264.0000000047989
 21
165.55372530725754
  0
LINE
  8
_0-7_枠細線
  6
CENTER1
 62
    5
 10
1359.9999999951988
 20
196.51076263749485
 11
1359.9999999951988
 21
165.55372530725754
  0
LINE
  8
_0-7_枠細線
  6
CENTER1
 62
    5
 10
1311.9999999999991
 20
196.51076263749485
 11
1311.9999999999991
 21
165.55372530725754
  0
LINE
  8
_0-7_枠細線
  6
CONTINUOUS
 62
    5
 10
1264.0000000047989
 20
159.60443464038576
 11
1264.0000000047989
 21
119.60443464038576
  0
LINE
  8
_0-7_枠細線
  6
CONTINUOUS
 62
    5
 10
1264.0000000047989
 20
127.60443464038576
 11
1279.454813225424
 21
131.74553936202619
  0
LINE
  8
_0-7_枠細線
  6
CONTINUOUS
 62
    5
 10
1264.0000000047989
 20
127.60443464038576
 11
1279.454813225424
 21
123.46332991874544
  0
LINE
  8
_0-7_枠細線
  6
CONTINUOUS
 62
    5
 10
1311.9999999999991
 20
159.60443464038576
 11
1311.9999999999991
 21
119.60443464038576
  0
LINE
  8
_0-7_枠細線
  6
CONTINUOUS
 62
    5
 10
1311.9999999999991
 20
127.60443464038576
 11
1296.545186779374
 21
123.46332991874556
  0
LINE
  8
_0-7_枠細線
  6
CONTINUOUS
 62
    5
 10
1311.9999999999991
 20
127.60443464038576
 11
1296.545186779374
 21
131.74553936202619
  0
LINE
  8
_0-7_枠細線
  6
CONTINUOUS
 62
    5
 10
1264.0000000047989
 20
127.60443464038576
 11
1311.9999999999991
 21
127.60443464038576
  0
TEXT
  8
_0-7_枠細線
 62
    5
 10
1276.000000002399
 20
127.60443464038576
 40
24
 41
1
 50
0
  1
18
  0
LINE
  8
_0-7_枠細線
  6
CONTINUOUS
 62
    5
 10
1311.9999999999991
 20
127.60443464038576
 11
1327.4548132206241
 21
131.74553936202608
  0
LINE
  8
_0-7_枠細線
  6
CONTINUOUS
 62
    5
 10
1311.9999999999991
 20
127.60443464038576
 11
1327.4548132206241
 21
123.46332991874533
  0
LINE
  8
_0-7_枠細線
  6
CONTINUOUS
 62
    5
 10
1359.9999999951988
 20
159.60443464038576
 11
1359.9999999951988
 21
119.60443464038576
  0
LINE
  8
_0-7_枠細線
  6
CONTINUOUS
 62
    5
 10
1359.9999999951988
 20
127.60443464038576
 11
1344.5451867745737
 21
123.46332991874556
  0
LINE
  8
_0-7_枠細線
  6
CONTINUOUS
 62
    5
 10
1359.9999999951988
 20
127.60443464038576
 11
1344.5451867745737
 21
131.74553936202619
  0
LINE
  8
_0-7_枠細線
  6
CONTINUOUS
 62
    5
 10
1311.9999999999991
 20
127.60443464038576
 11
1359.9999999951988
 21
127.60443464038576
  0
TEXT
  8
_0-7_枠細線
 62
    5
 10
1323.9999999975994
 20
127.60443464038576
 40
24
 41
1
 50
0
  1
18
  0
TEXT
  8
_0-7_枠細線
 62
    5
 10
1273.6000000000006
 20
211.99999999999943
 40
24.000000000000004
 41
0.7999999999999997
 50
0
  1
品番－Ｄ
  0
LINE
  8
_0-7_枠細線
  6
CONTINUOUS
 62
    5
 10
1223.9999999999995
 20
283.9999999999992
 11
1223.9999999999995
 21
116
  0
TEXT
  8
_0-7_枠細線
 62
    5
 10
1097.5999999999992
 20
251.99999999999943
 40
24.000000000000004
 41
0.8
 50
0
  1
プレーン
  0
LINE
  8
_0-7_枠細線
  6
CONTINUOUS
 62
    5
 10
1063.08376400729
 20
167.60443464038576
 11
1214.8925426587773
 21
167.60443464038576
  0
LINE
  8
_0-7_枠細線
  6
CONTINUOUS
 62
    5
 10
1057.107454674554
 20
194.27110130438587
 11
1208.9162333260415
 21
194.27110130438587
  0
ARC
  8
_0-7_枠細線
  6
CONTINUOUS
 62
    5
 10
1201.7608466600891
 20
171.66297597331311
 40
13.744570665292123
 50
317.56162900000493
 51
42.43837099999547
  0
ARC
  8
_0-7_枠細線
  6
CONTINUOUS
 62
    5
 10
1049.9520680086041
 20
171.66297597331311
 40
13.744570665292274
 50
317.56162899999941
 51
42.43837100000097
  0
LINE
  8
_0-7_枠細線
  6
CONTINUOUS
 62
    5
 10
1056.5214226746136
 20
191.07110130470573
 11
1208.3302013261009
 21
191.07110130470573
  0
LINE
  8
_0-7_枠細線
  6
CONTINUOUS
 62
    5
 10
1063.6697986738986
 20
170.80443464006601
 11
1215.4785773253852
 21
170.80443464006601
  0
ARC
  8
_0-7_枠細線
  6
CONTINUOUS
 62
    5
 10
1070.23915333991
 20
190.21255997145852
 40
13.744570665292274
 50
137.56162900000007
 51
222.43837100000314
  0
ARC
  8
_0-7_枠細線
  6
CONTINUOUS
 62
    5
 10
1222.0479319913948
 20
190.21255997145852
 40
13.744570665292123
 50
137.56162899999987
 51
222.43837100000269
  0
TEXT
  8
_0-7_枠細線
 62
    5
 10
1097.6000000000008
 20
211.99999999999943
 40
24.000000000000004
 41
0.7999999999999997
 50
0
  1
品番－Ｆ
  0
TEXT
  8
_0-7_枠細線
 62
    5
 10
969.59999999999991
 20
251.9999999999992
 40
24.000000000000004
 41
0.8
 50
0
  1
タ イ プ
  0
LINE
  8
_0-7_枠細線
  6
CONTINUOUS
 62
    5
 10
967.99999999999886
 20
203.99999999999943
 11
1400
 21
203.99999999999943
  0
LINE
  8
_0-7_枠細線
  6
CONTINUOUS
 62
    5
 10
967.99999999999886
 20
243.9999999999992
 11
1400
 21
243.9999999999992
  0
LINE
  8
_0-7_枠細線
  6
CONTINUOUS
 62
    5
 10
967.99999999999886
 20
283.9999999999992
 11
1400
 21
283.9999999999992
  0
LINE
  8
_0-7_枠細線
  6
CONTINUOUS
 62
    5
 10
967.99999999999886
 20
116
 11
1400
 21
116
  0
LINE
  8
_0-7_枠細線
  6
CONTINUOUS
 62
    5
 10
1048
 20
283.9999999999992
 11
1048
 21
116
  0
LINE
  8
_0-7_枠細線
  6
CONTINUOUS
 62
    5
 10
967.99999999999886
 20
283.9999999999992
 11
967.99999999999886
 21
116
  0
TEXT
  8
_0-7_枠細線
 62
    5
 10
969.59999999999991
 20
147.99999999999966
 40
24.000000000000004
 41
0.8
 50
0
  1
表面形状
  0
TEXT
  8
_0-7_枠細線
 62
    5
 10
980.43873814529684
 20
287.99999999999932
 40
28.000000000000004
 41
0.7999999999999997
 50
0
  1
記号表
  0
TEXT
  8
_0-7_枠細線
 62
    5
 10
969.59999999999991
 20
211.99999999999955
 40
24.000000000000004
 41
0.8
 50
0
  1
記　　号
  0
ARC
  8
_0-1_計細線
  6
CONTINUOUS
 62
    3
 10
1075.4790333161138
 20
1196.2742530496535
 40
32.499868667505325
 50
269.99999999999977
 51
89.999999999999545
  0
LINE
  8
_0-1_計細線
  6
CONTINUOUS
 62
    3
 10
1088.4016144290892
 20
1194.4928269150919
 11
1075.4016669620871
 21
1194.4928269150919
  0
CIRCLE
  8
_0-1_計細線
  6
CONTINUOUS
 62
    3
 10
1081.1104772260235
 20
1190.5686027729453
 40
1.9999919180004326
  0
CIRCLE
  8
_0-1_計細線
  6
CONTINUOUS
 62
    3
 10
1087.5866710556204
 20
1189.234948162265
 40
1.9999919180004326
  0
CIRCLE
  8
_0-1_計細線
  6
CONTINUOUS
 62
    3
 10
1082.4441251700648
 20
1184.0924022767094
 40
1.9999919180004326
  0
LINE
  8
_0-1_計細線
  6
CONTINUOUS
 62
    3
 10
1088.4016144290892
 20
1194.4928269150919
 11
1088.4016144290892
 21
1196.2428198433417
  0
CIRCLE
  8
_0-1_計細線
  6
CONTINUOUS
 62
    3
 10
1069.692856698148
 20
1190.5686027729453
 40
1.9999919180004326
  0
CIRCLE
  8
_0-1_計細線
  6
CONTINUOUS
 62
    3
 10
1063.2166628685511
 20
1189.234948162265
 40
1.9999919180004326
  0
CIRCLE
  8
_0-1_計細線
  6
CONTINUOUS
 62
    3
 10
1068.3592087541067
 20
1184.0924022767094
 40
1.9999919180004326
  0
CIRCLE
  8
_0-1_計細線
  6
CONTINUOUS
 62
    3
 10
1075.3840603665669
 20
1188.2112256324767
 40
1.9999919180004326
  0
CIRCLE
  8
_0-1_計細線
  6
CONTINUOUS
 62
    3
 10
1075.3840603665669
 20
1182.2101032164437
 40
1.9999919180004326
  0
LINE
  8
_0-1_計細線
  6
CONTINUOUS
 62
    3
 10
1062.401719495085
 20
1194.4928269150919
 11
1062.401719495085
 21
1196.2428198433417
  0
LINE
  8
_0-1_計細線
  6
CONTINUOUS
 62
    3
 10
1062.401719495085
 20
1194.4928269150919
 11
1075.4016669620871
 21
1194.4928269150919
  0
LINE
  8
_0-1_計細線
  6
CONTINUOUS
 62
    3
 10
1088.4016144290892
 20
1197.9928127715916
 11
1075.4016669620871
 21
1197.9928127715916
  0
CIRCLE
  8
_0-1_計細線
  6
CONTINUOUS
 62
    3
 10
1081.1104772260235
 20
1201.9170369137396
 40
1.9999919180004326
  0
CIRCLE
  8
_0-1_計細線
  6
CONTINUOUS
 62
    3
 10
1087.5866710556204
 20
1203.2506848577796
 40
1.9999919180004326
  0
CIRCLE
  8
_0-1_計細線
  6
CONTINUOUS
 62
    3
 10
1082.4441251700648
 20
1208.3932307433352
 40
1.9999919180004326
  0
LINE
  8
_0-1_計細線
  6
CONTINUOUS
 62
    3
 10
1088.4016144290892
 20
1197.9928127715916
 11
1088.4016144290892
 21
1196.2428198433417
  0
CIRCLE
  8
_0-1_計細線
  6
CONTINUOUS
 62
    3
 10
1069.692856698148
 20
1201.9170369137396
 40
1.9999919180004326
  0
CIRCLE
  8
_0-1_計細線
  6
CONTINUOUS
 62
    3
 10
1063.2166628685511
 20
1203.2506848577796
 40
1.9999919180004326
  0
CIRCLE
  8
_0-1_計細線
  6
CONTINUOUS
 62
    3
 10
1068.3592087541067
 20
1208.3932307433352
 40
1.9999919180004326
  0
CIRCLE
  8
_0-1_計細線
  6
CONTINUOUS
 62
    3
 10
1075.3840603665669
 20
1204.2744073875679
 40
1.9999919180004326
  0
CIRCLE
  8
_0-1_計細線
  6
CONTINUOUS
 62
    3
 10
1075.3840603665669
 20
1210.2755364702411
 40
1.9999919180004326
  0
LINE
  8
_0-1_計細線
  6
CONTINUOUS
 62
    3
 10
1062.401719495085
 20
1197.9928127715916
 11
1062.401719495085
 21
1196.2428198433417
  0
LINE
  8
_0-1_計細線
  6
CONTINUOUS
 62
    3
 10
1062.401719495085
 20
1197.9928127715916
 11
1075.4016669620871
 21
1197.9928127715916
  0
CIRCLE
  8
_0-1_計細線
  6
CONTINUOUS
 62
    3
 10
1075.3243006080577
 20
1196.2742530496535
 40
16.499933323502546
  0
CIRCLE
  8
_0-1_計細線
  6
CONTINUOUS
 62
    3
 10
1075.3243006080577
 20
1196.2742530496535
 40
19.999919180003303
  0
CIRCLE
  8
_0-1_計細線
  6
CONTINUOUS
 62
    3
 10
1075.3243006080577
 20
1196.2742530496535
 40
21.999911098003736
  0
CIRCLE
  8
_0-1_計細線
  6
CONTINUOUS
 62
    3
 10
1075.3243006080577
 20
1196.2742530496535
 40
32.249869677755441
  0
ARC
  8
_0-1_計細線
  6
CONTINUOUS
 62
    3
 10
1075.3243006080577
 20
1196.2742530496535
 40
32.499868667505325
 50
89.999999999999915
 51
269.99999999999977
  0
LINE
  8
_0-1_計細線
  6
CONTINUOUS
 62
    3
 10
189.90166696208712
 20
1170.2428198433427
 11
189.90166696208712
 21
1160.2428198433427
  0
LINE
  8
_0-1_計細線
  6
CONTINUOUS
 62
    3
 10
189.90166696208712
 20
1185.7428198433422
 11
189.90166696208712
 21
1175.7428198433422
  0
LINE
  8
_0-1_計細線
  6
CONTINUOUS
 62
    3
 10
189.90166696208712
 20
1216.7428198433417
 11
189.90166696208712
 21
1206.7428198433417
  0
LINE
  8
_0-1_計細線
  6
CONTINUOUS
 62
    3
 10
189.90166696208712
 20
1232.2428198433413
 11
189.90166696208712
 21
1222.2428198433413
  0
LINE
  8
_0-1_計細線
  6
CONTINUOUS
 62
    3
 10
2188.5650186573157
 20
1227.9928198115917
 11
2190.3650186572877
 21
1227.9928198115917
  0
ARC
  8
_0-1_計細線
  6
CONTINUOUS
 62
    3
 10
2190.3650186572877
 20
1224.9928198145917
 40
2.9999999969999998
 50
0
 51
89.999999999999915
  0
LINE
  8
_0-0_計極細
  6
CONTINUOUS
 62
    2
 10
2193.3650186572586
 20
1219.2428198203415
 11
2203.3650186571585
 21
1219.2428198203415
  0
LINE
  8
_0-1_計細線
  6
CONTINUOUS
 62
    3
 10
2193.3650186572586
 20
1222.2428198173418
 11
2203.3650186571585
 21
1222.2428198173418
  0
LINE
  8
_0-0_計極細
  6
CONTINUOUS
 62
    2
 10
2226.8680813239916
 20
1196.2428198433417
 11
2226.8680813239916
 21
1219.5928198199913
  0
LINE
  8
_0-1_計細線
  6
CONTINUOUS
 62
    3
 10
2227.8650186573159
 20
1196.2428198433417
 11
2227.8650186573159
 21
1218.5928198209913
  0
LINE
  8
_0-0_計極細
  6
CONTINUOUS
 62
    2
 10
2203.3650186571585
 20
1218.5928198209913
 11
2227.8650186573159
 21
1218.5928198209913
  0
LINE
  8
_0-1_計細線
  6
CONTINUOUS
 62
    3
 10
2203.3650186571585
 20
1219.5928198199913
 11
2226.8680813239916
 21
1219.5928198199913
  0
LINE
  8
_0-1_計細線
  6
CONTINUOUS
 62
    3
 10
2203.3650186571585
 20
1196.2428198433417
 11
2203.3650186571585
 21
1222.2428198173418
  0
LINE
  8
_0-1_計細線
  6
CONTINUOUS
 62
    3
 10
2193.3650186572586
 20
1196.2428198433417
 11
2193.3650186572586
 21
1224.9928198145917
  0
LINE
  8
_0-1_計細線
  6
CONTINUOUS
 62
    3
 10
2188.5650186573157
 20
1164.4928198750918
 11
2190.3650186572877
 21
1164.4928198750918
  0
ARC
  8
_0-1_計細線
  6
CONTINUOUS
 62
    3
 10
2190.3650186572877
 20
1167.4928198720918
 40
2.9999999969999998
 50
269.99999999999977
 51
359.99999999999966
  0
LINE
  8
_0-0_計極細
  6
CONTINUOUS
 62
    2
 10
2193.3650186572586
 20
1173.242819866342
 11
2203.3650186571585
 21
1173.242819866342
  0
LINE
  8
_0-1_計細線
  6
CONTINUOUS
 62
    3
 10
2193.3650186572586
 20
1170.2428198693417
 11
2203.3650186571585
 21
1170.2428198693417
  0
LINE
  8
_0-0_計極細
  6
CONTINUOUS
 62
    2
 10
2226.8680813239916
 20
1196.2428198433417
 11
2226.8680813239916
 21
1172.8928198666922
  0
LINE
  8
_0-1_計細線
  6
CONTINUOUS
 62
    3
 10
2227.8650186573159
 20
1196.2428198433417
 11
2227.8650186573159
 21
1173.8928198656922
  0
LINE
  8
_0-0_計極細
  6
CONTINUOUS
 62
    2
 10
2203.3650186571585
 20
1173.8928198656922
 11
2227.8650186573159
 21
1173.8928198656922
  0
LINE
  8
_0-1_計細線
  6
CONTINUOUS
 62
    3
 10
2203.3650186571585
 20
1172.8928198666922
 11
2226.8680813239916
 21
1172.8928198666922
  0
LINE
  8
_0-1_計細線
  6
CONTINUOUS
 62
    3
 10
2203.3650186571585
 20
1196.2428198433417
 11
2203.3650186571585
 21
1170.2428198693417
  0
LINE
  8
_0-1_計細線
  6
CONTINUOUS
 62
    3
 10
2193.3650186572586
 20
1196.2428198433417
 11
2193.3650186572586
 21
1167.4928198720918
  0
LINE
  8
_0-0_計極細
  6
CONTINUOUS
 62
    2
 10
2193.3650186572586
 20
1199.2428198403416
 11
2203.3650186571585
 21
1199.2428198403416
  0
LINE
  8
_0-0_計極細
  6
CONTINUOUS
 62
    2
 10
2193.3650186572586
 20
1193.2428198463415
 11
2203.3650186571585
 21
1193.2428198463415
  0
LINE
  8
_0-1_計細線
  6
CONTINUOUS
 62
    3
 10
2226.8680813239916
 20
1219.5928198199913
 11
2227.8650186573159
 21
1218.5928198209913
  0
LINE
  8
_0-1_計細線
  6
CONTINUOUS
 62
    3
 10
2226.8680813239916
 20
1172.8928198666922
 11
2227.8650186573159
 21
1173.8928198656922
  0
LINE
  8
_0-1_計細線
  6
CONTINUOUS
 62
    3
 10
2170.8649378373175
 20
1236.143047351633
 11
2170.8649378373175
 21
1234.9430473516331
  0
LINE
  8
_0-1_計細線
  6
CONTINUOUS
 62
    3
 10
2170.8649378373175
 20
1234.9430473516331
 11
2205.8649378373166
 21
1234.9430473516331
  0
LINE
  8
_0-1_計細線
  6
CONTINUOUS
 62
    3
 10
2205.8649378373166
 20
1234.9430473516331
 11
2205.8649378373166
 21
1236.143047351633
  0
LINE
  8
_0-1_計細線
  6
CONTINUOUS
 62
    3
 10
2205.8649378373166
 20
1236.143047351633
 11
2170.8649378373175
 21
1236.143047351633
  0
LINE
  8
_0-0_計極細
  6
CONTINUOUS
 62
    2
 10
2172.8649378373175
 20
1234.9430473516331
 11
2172.8649378373175
 21
1236.143047351633
  0
LINE
  8
_0-0_計極細
  6
CONTINUOUS
 62
    2
 10
2184.8649378373175
 20
1234.9430473516331
 11
2184.8649378373175
 21
1236.143047351633
  0
LINE
  8
_0-0_計極細
  6
CONTINUOUS
 62
    2
 10
2186.8649378373166
 20
1234.9430473516331
 11
2186.8649378373166
 21
1236.143047351633
  0
LINE
  8
_0-0_計極細
  6
CONTINUOUS
 62
    2
 10
2188.8649378373166
 20
1234.9430473516331
 11
2188.8649378373166
 21
1236.143047351633
  0
LINE
  8
_0-0_計極細
  6
CONTINUOUS
 62
    2
 10
2202.8649378373166
 20
1234.9430473516331
 11
2202.8649378373166
 21
1236.143047351633
  0
LINE
  8
_0-0_計極細
  6
CONTINUOUS
 62
    2
 10
2182.8649378373175
 20
1234.9430473516331
 11
2182.8649378373175
 21
1236.143047351633
  0
LINE
  8
_0-1_計細線
  6
CONTINUOUS
 62
    3
 10
2170.8649378373175
 20
1157.5429721890355
 11
2170.8649378373175
 21
1156.3429721890357
  0
LINE
  8
_0-1_計細線
  6
CONTINUOUS
 62
    3
 10
2170.8649378373175
 20
1156.3429721890357
 11
2205.8649378373166
 21
1156.3429721890357
  0
LINE
  8
_0-1_計細線
  6
CONTINUOUS
 62
    3
 10
2205.8649378373166
 20
1156.3429721890357
 11
2205.8649378373166
 21
1157.5429721890355
  0
LINE
  8
_0-1_計細線
  6
CONTINUOUS
 62
    3
 10
2205.8649378373166
 20
1157.5429721890355
 11
2170.8649378373175
 21
1157.5429721890355
  0
LINE
  8
_0-0_計極細
  6
CONTINUOUS
 62
    2
 10
2172.8649378373175
 20
1156.3429721890357
 11
2172.8649378373175
 21
1157.5429721890355
  0
LINE
  8
_0-0_計極細
  6
CONTINUOUS
 62
    2
 10
2184.8649378373175
 20
1156.3429721890357
 11
2184.8649378373175
 21
1157.5429721890355
  0
LINE
  8
_0-0_計極細
  6
CONTINUOUS
 62
    2
 10
2186.8649378373166
 20
1156.3429721890357
 11
2186.8649378373166
 21
1157.5429721890355
  0
LINE
  8
_0-0_計極細
  6
CONTINUOUS
 62
    2
 10
2188.8649378373166
 20
1156.3429721890357
 11
2188.8649378373166
 21
1157.5429721890355
  0
LINE
  8
_0-0_計極細
  6
CONTINUOUS
 62
    2
 10
2202.8649378373166
 20
1156.3429721890357
 11
2202.8649378373166
 21
1157.5429721890355
  0
LINE
  8
_0-0_計極細
  6
CONTINUOUS
 62
    2
 10
2182.8649378373175
 20
1156.3429721890357
 11
2182.8649378373175
 21
1157.5429721890355
  0
LINE
  8
_0-1_計細線
  6
CONTINUOUS
 62
    3
 10
2170.8649863293176
 20
1157.5429721890355
 11
2182.8649378373175
 21
1157.5429721890355
  0
LINE
  8
_0-1_計細線
  6
CONTINUOUS
 62
    3
 10
2182.8649378373175
 20
1157.5429721890355
 11
2182.8649378373175
 21
1234.9430473516331
  0
LINE
  8
_0-1_計細線
  6
CONTINUOUS
 62
    3
 10
2182.8649378373175
 20
1234.9430473516331
 11
2170.8649863293176
 21
1234.9430473516331
  0
LINE
  8
_0-1_計細線
  6
CONTINUOUS
 62
    3
 10
2162.8650186573159
 20
1149.243009770335
 11
2162.8650186573159
 21
1196.2428198433417
  0
LINE
  8
_0-1_計細線
  6
CONTINUOUS
 62
    3
 10
2162.8650186573159
 20
1243.243009770335
 11
2162.8650186573159
 21
1196.2428198433417
  0
LINE
  8
_0-1_計細線
  6
CONTINUOUS
 62
    3
 10
2162.8650186573159
 20
1243.243009770335
 11
2170.8649863293176
 21
1243.243009770335
  0
LINE
  8
_0-1_計細線
  6
CONTINUOUS
 62
    3
 10
2162.8650186573159
 20
1149.243009770335
 11
2170.8649863293176
 21
1149.243009770335
  0
LINE
  8
_0-1_計細線
  6
CONTINUOUS
 62
    3
 10
2170.8649863293176
 20
1223.0864376888167
 11
2170.8649863293176
 21
1196.2428198433417
  0
LINE
  8
_0-1_計細線
  6
CONTINUOUS
 62
    3
 10
2170.8649863293176
 20
1169.3991953312275
 11
2170.8649863293176
 21
1196.2428198433417
  0
LINE
  8
_0-1_計細線
  6
CONTINUOUS
 62
    3
 10
2170.8649863293176
 20
1149.9430069416348
 11
2167.9697172701644
 21
1149.9430069416348
  0
LINE
  8
_0-1_計細線
  6
CONTINUOUS
 62
    3
 10
2167.8655509190285
 20
1149.243009770335
 11
2170.8649863293176
 21
1169.3991953312275
  0
LINE
  8
_0-1_計細線
  6
CONTINUOUS
 62
    3
 10
2170.8649863293176
 20
1149.243009770335
 11
2170.8649863293176
 21
1149.9430069416348
  0
LINE
  8
_0-1_計細線
  6
CONTINUOUS
 62
    3
 10
2170.8649378373175
 20
1157.5429721890355
 11
2169.1006656240161
 21
1157.5429721890355
  0
LINE
  8
_0-1_計細線
  6
CONTINUOUS
 62
    3
 10
2170.8649863293176
 20
1242.5426327450486
 11
2167.9697172701644
 21
1242.5426327450486
  0
LINE
  8
_0-1_計細線
  6
CONTINUOUS
 62
    3
 10
2167.8655509190285
 20
1243.2426299163485
 11
2170.8649863293176
 21
1223.086444355456
  0
LINE
  8
_0-1_計細線
  6
CONTINUOUS
 62
    3
 10
2170.8649863293176
 20
1243.2426299163485
 11
2170.8649863293176
 21
1242.5426327450486
  0
LINE
  8
_0-1_計細線
  6
CONTINUOUS
 62
    3
 10
2170.8649378373175
 20
1234.942667497648
 11
2169.1006656240161
 21
1234.942667497648
  0
ARC
  8
_0-1_計細線
  6
CONTINUOUS
 62
    3
 10
2183.6650186573161
 20
1230.2428199198821
 40
0.8
 50
179.99999999999983
 51
269.99999999999977
  0
LINE
  8
_0-1_計細線
  6
CONTINUOUS
 62
    3
 10
2183.6650186573161
 20
1229.4428199198821
 11
2187.0650186573157
 21
1229.4428199198821
  0
ARC
  8
_0-1_計細線
  6
CONTINUOUS
 62
    3
 10
2187.0650186573157
 20
1227.9428199198821
 40
1.5
 50
0
 51
89.999999999999915
  0
LINE
  8
_0-1_計細線
  6
CONTINUOUS
 62
    3
 10
2188.5650186573157
 20
1227.9428199198821
 11
2188.5650186573157
 21
1196.242819843342
  0
ARC
  8
_0-1_計細線
  6
CONTINUOUS
 62
    3
 10
2183.6650186573161
 20
1162.2428197668014
 40
0.8
 50
89.999999999999915
 51
179.99999999999983
  0
LINE
  8
_0-1_計細線
  6
CONTINUOUS
 62
    3
 10
2183.6650186573161
 20
1163.0428197668014
 11
2187.0650186573157
 21
1163.0428197668014
  0
ARC
  8
_0-1_計細線
  6
CONTINUOUS
 62
    3
 10
2187.0650186573157
 20
1164.5428197668014
 40
1.5
 50
269.99999999999977
 51
359.99999999999966
  0
LINE
  8
_0-1_計細線
  6
CONTINUOUS
 62
    3
 10
2188.5650186573157
 20
1164.5428197668014
 11
2188.5650186573157
 21
1196.2428198433415
  0
LINE
  8
_0-0_計極細
  6
CONTINUOUS
 62
    2
 10
2183.6650186573161
 20
1175.6733752295681
 11
2183.6650186573161
 21
1163.0428197668014
  0
LINE
  8
_0-0_計極細
  6
CONTINUOUS
 62
    2
 10
2183.6650186573161
 20
1216.8122644571158
 11
2183.6650186573161
 21
1229.4428199198821
  0
LINE
  8
_0-0_計極細
  6
CONTINUOUS
 62
    2
 10
2184.020559834099
 20
1214.6013856560808
 11
2184.1589792747427
 21
1213.4064704847519
  0
LINE
  8
_0-0_計極細
  6
CONTINUOUS
 62
    2
 10
2183.7186410541563
 20
1216.5623843983199
 11
2183.8734070954124
 21
1215.6560347275604
  0
LINE
  8
_0-0_計極細
  6
CONTINUOUS
 62
    2
 10
2183.8734070954124
 20
1215.6560347275604
 11
2184.020559834099
 21
1214.6013856560808
  0
LINE
  8
_0-0_計極細
  6
CONTINUOUS
 62
    2
 10
2183.5574483722057
 20
1217.313541362882
 11
2183.7186410541563
 21
1216.5623843983199
  0
LINE
  8
_0-0_計極細
  6
CONTINUOUS
 62
    2
 10
2183.3910490446306
 20
1217.9037856443629
 11
2183.5574483722057
 21
1217.313541362882
  0
LINE
  8
_0-0_計極細
  6
CONTINUOUS
 62
    2
 10
2183.220703066333
 20
1218.328623927584
 11
2183.3910490446306
 21
1217.9037856443629
  0
LINE
  8
_0-0_計極細
  6
CONTINUOUS
 62
    2
 10
2183.047723765344
 20
1218.5848295589194
 11
2183.220703066333
 21
1218.328623927584
  0
LINE
  8
_0-0_計極細
  6
CONTINUOUS
 62
    2
 10
2182.873411136412
 20
1218.6704492129293
 11
2183.047723765344
 21
1218.5848295589194
  0
LINE
  8
_0-0_計極細
  6
CONTINUOUS
 62
    2
 10
2184.8430165105383
 20
1200.0776110135553
 11
2184.8657897518442
 21
1198.1315388776648
  0
LINE
  8
_0-0_計極細
  6
CONTINUOUS
 62
    2
 10
2184.6860171449753
 20
1186.8062246434424
 11
2184.7527902084757
 21
1188.619677315251
  0
LINE
  8
_0-0_計極細
  6
CONTINUOUS
 62
    2
 10
2184.6054574705176
 20
1185.0651383458667
 11
2184.6860171449753
 21
1186.8062246434424
  0
LINE
  8
_0-0_計極細
  6
CONTINUOUS
 62
    2
 10
2184.8657897518442
 20
1194.3541008090192
 11
2184.873403054411
 21
1196.3150928846185
  0
LINE
  8
_0-0_計極細
  6
CONTINUOUS
 62
    2
 10
2184.8430165105383
 20
1192.4080286731287
 11
2184.8657897518442
 21
1194.3541008090192
  0
LINE
  8
_0-0_計極細
  6
CONTINUOUS
 62
    2
 10
2184.8052566631268
 20
1190.4916897504186
 11
2184.8430165105383
 21
1192.4080286731287
  0
LINE
  8
_0-0_計極細
  6
CONTINUOUS
 62
    2
 10
2184.7527902084757
 20
1188.619677315251
 11
2184.8052566631268
 21
1190.4916897504186
  0
LINE
  8
_0-0_計極細
  6
CONTINUOUS
 62
    2
 10
2184.8657897518442
 20
1198.1315388776648
 11
2184.873403054411
 21
1196.1705401354257
  0
LINE
  8
_0-0_計極細
  6
CONTINUOUS
 62
    2
 10
2184.4054916119167
 20
1210.6332016915762
 11
2184.5117045160405
 21
1209.0759613177433
  0
LINE
  8
_0-0_計極細
  6
CONTINUOUS
 62
    2
 10
2184.2876187549082
 20
1212.0803825101616
 11
2184.4054916119167
 21
1210.6332016915762
  0
LINE
  8
_0-0_計極細
  6
CONTINUOUS
 62
    2
 10
2184.8052566631268
 20
1201.993943269626
 11
2184.8430165105383
 21
1200.0776110135553
  0
LINE
  8
_0-0_計極細
  6
CONTINUOUS
 62
    2
 10
2184.7527902084757
 20
1203.8659623714334
 11
2184.8052566631268
 21
1201.993943269626
  0
LINE
  8
_0-0_計極細
  6
CONTINUOUS
 62
    2
 10
2184.6860171449753
 20
1205.679415043242
 11
2184.7527902084757
 21
1203.8659623714334
  0
LINE
  8
_0-0_計極細
  6
CONTINUOUS
 62
    2
 10
2184.6054574705176
 20
1207.4204946741775
 11
2184.6860171449753
 21
1205.679415043242
  0
LINE
  8
_0-0_計極細
  6
CONTINUOUS
 62
    2
 10
2184.5117045160405
 20
1209.0759613177433
 11
2184.6054574705176
 21
1207.4204946741775
  0
LINE
  8
_0-0_計極細
  6
CONTINUOUS
 62
    2
 10
2184.1589792747427
 20
1213.4064704847519
 11
2184.2876187549082
 21
1212.0803825101616
  0
LINE
  8
_0-0_計極細
  6
CONTINUOUS
 62
    2
 10
2184.4054916119167
 20
1181.8524313284679
 11
2184.5117045160405
 21
1183.4096783689406
  0
LINE
  8
_0-0_計極細
  6
CONTINUOUS
 62
    2
 10
2184.1589792747427
 20
1179.0791692019316
 11
2184.2876187549082
 21
1180.4052571765224
  0
LINE
  8
_0-0_計極細
  6
CONTINUOUS
 62
    2
 10
2184.020559834099
 20
1177.8842473639634
 11
2184.1589792747427
 21
1179.0791692019316
  0
LINE
  8
_0-0_計極細
  6
CONTINUOUS
 62
    2
 10
2183.8734070954124
 20
1176.829604959124
 11
2184.020559834099
 21
1177.8842473639634
  0
LINE
  8
_0-0_計極細
  6
CONTINUOUS
 62
    2
 10
2183.7186410541563
 20
1175.9232552883641
 11
2183.8734070954124
 21
1176.829604959124
  0
LINE
  8
_0-0_計極細
  6
CONTINUOUS
 62
    2
 10
2183.5574483722057
 20
1175.1720983238019
 11
2183.7186410541563
 21
1175.9232552883641
  0
LINE
  8
_0-0_計極細
  6
CONTINUOUS
 62
    2
 10
2183.3910490446306
 20
1174.5818540423215
 11
2183.5574483722057
 21
1175.1720983238019
  0
LINE
  8
_0-0_計極細
  6
CONTINUOUS
 62
    2
 10
2183.220703066333
 20
1174.1570090924602
 11
2183.3910490446306
 21
1174.5818540423215
  0
LINE
  8
_0-0_計極細
  6
CONTINUOUS
 62
    2
 10
2183.047723765344
 20
1173.9008034611247
 11
2183.220703066333
 21
1174.1570090924602
  0
LINE
  8
_0-0_計極細
  6
CONTINUOUS
 62
    2
 10
2182.873411136412
 20
1173.8151838071149
 11
2183.047723765344
 21
1173.9008034611247
  0
LINE
  8
_0-0_計極細
  6
CONTINUOUS
 62
    2
 10
2184.2876187549082
 20
1180.4052571765224
 11
2184.4054916119167
 21
1181.8524313284679
  0
LINE
  8
_0-0_計極細
  6
CONTINUOUS
 62
    2
 10
2184.5117045160405
 20
1183.4096783689406
 11
2184.6054574705176
 21
1185.0651383458667
  0
LINE
  8
_0-0_計極細
  6
CENTER1
 62
    2
 10
2136.2181221530191
 20
1196.2428198433417
 11
2248.0382660379109
 21
1196.2428198433417
  0
LINE
  8
_0-0_計極細
  6
CONTINUOUS
 62
    2
 10
1943.4060289392739
 20
1196.2428198433677
 11
1097.6805088201766
 21
1220.010840390813
  0
LINE
  8
_0-0_計極細
  6
CONTINUOUS
 62
    2
 10
1943.4060289392735
 20
1196.2428198433158
 11
1097.6805088201766
 21
1172.4747992958705
  0
LINE
  8
_0-0_計極細
  6
CENTER1
 62
    2
 10
170.2302077042616
 20
1196.2428198433417
 11
1981.2589283308946
 21
1196.2428198433417
  0
LINE
  8
_0-1_計細線
  6
CONTINUOUS
 62
    3
 10
188.40166696208712
 20
1233.2428198433417
 11
188.40166696208712
 21
1159.2428198433417
  0
LINE
  8
_0-1_計細線
  6
CONTINUOUS
 62
    3
 10
188.40166696208712
 20
1159.2428198433417
 11
1962.4016669620876
 21
1159.2428198433417
  0
LINE
  8
_0-1_計細線
  6
CONTINUOUS
 62
    3
 10
1962.4016669620876
 20
1159.2428198433417
 11
1962.4016669620876
 21
1233.2428198433417
  0
LINE
  8
_0-1_計細線
  6
CONTINUOUS
 62
    3
 10
1962.4016669620876
 20
1233.2428198433417
 11
188.40166696208712
 21
1233.2428198433417
  0
LINE
  8
_0-1_計細線
  6
CONTINUOUS
 62
    3
 10
1972.4016669620871
 20
1149.2428198433417
 11
1972.4016669620871
 21
1243.2428198433417
  0
LINE
  8
_0-1_計細線
  6
CONTINUOUS
 62
    3
 10
1972.4016669620871
 20
1243.2428198433417
 11
178.40166696208712
 21
1243.2428198433417
  0
LINE
  8
_0-1_計細線
  6
CONTINUOUS
 62
    3
 10
178.40166696208712
 20
1243.2428198433417
 11
178.40166696208712
 21
1149.2428198433417
  0
LINE
  8
_0-1_計細線
  6
CONTINUOUS
 62
    3
 10
178.40166696208712
 20
1149.2428198433417
 11
1972.4016669620871
 21
1149.2428198433417
  0
LINE
  8
_0-0_計極細
  6
CONTINUOUS
 62
    2
 10
385.30979004575966
 20
1201.2428198433417
 11
581.01352361371983
 21
1206.7428198433417
  0
LINE
  8
_0-0_計極細
  6
CONTINUOUS
 62
    2
 10
385.30979004575966
 20
1191.2428198433417
 11
581.01352361371983
 21
1185.7428198433417
  0
LINE
  8
_0-5_寸法線
  6
CONTINUOUS
 62
    7
 10
189.90166696208712
 20
1259.2428198433417
 11
189.90166696208735
 21
1331.2428198433415
  0
LINE
  8
_0-5_寸法線
  6
CONTINUOUS
 62
    7
 10
189.90166696208723
 20
1323.2428198433415
 11
205.3564801827124
 21
1327.383924564982
  0
LINE
  8
_0-5_寸法線
  6
CONTINUOUS
 62
    7
 10
189.90166696208723
 20
1323.2428198433415
 11
205.3564801827124
 21
1319.1017151217011
  0
LINE
  8
_0-5_寸法線
  6
CONTINUOUS
 62
    7
 10
1960.9016669620885
 20
1259.2428198433417
 11
1960.9016669620885
 21
1331.2428198433415
  0
LINE
  8
_0-5_寸法線
  6
CONTINUOUS
 62
    7
 10
1960.9016669620885
 20
1323.2428198433415
 11
1945.4468537414634
 21
1319.1017151217013
  0
LINE
  8
_0-5_寸法線
  6
CONTINUOUS
 62
    7
 10
1960.9016669620885
 20
1323.2428198433415
 11
1945.4468537414634
 21
1327.383924564982
  0
LINE
  8
_0-5_寸法線
  6
CONTINUOUS
 62
    7
 10
189.90166696208723
 20
1323.2428198433415
 11
1960.9016669620885
 21
1323.2428198433415
  0
TEXT
  8
_0-5_寸法線
 62
    7
 10
1051.4016669620878
 20
1323.2428198433415
 40
24
 41
1
 50
0
  1
1771
  0
LINE
  8
_0-5_寸法線
  6
CONTINUOUS
 62
    7
 10
1988.4016669620871
 20
1149.2428198433417
 11
2116.4016669620869
 21
1149.2428198433415
  0
LINE
  8
_0-5_寸法線
  6
CONTINUOUS
 62
    7
 10
2108.4016669620869
 20
1149.2428198433415
 11
2104.2605622404467
 21
1164.6976330639666
  0
LINE
  8
_0-5_寸法線
  6
CONTINUOUS
 62
    7
 10
2108.4016669620869
 20
1149.2428198433415
 11
2112.5427716837271
 21
1164.6976330639666
  0
LINE
  8
_0-5_寸法線
  6
CONTINUOUS
 62
    7
 10
1988.4016669620871
 20
1243.2428198433417
 11
2116.4016669620869
 21
1243.2428198433415
  0
LINE
  8
_0-5_寸法線
  6
CONTINUOUS
 62
    7
 10
2108.4016669620869
 20
1243.2428198433415
 11
2112.5427716837271
 21
1227.7880066227165
  0
LINE
  8
_0-5_寸法線
  6
CONTINUOUS
 62
    7
 10
2108.4016669620869
 20
1243.2428198433415
 11
2104.2605622404467
 21
1227.7880066227165
  0
LINE
  8
_0-5_寸法線
  6
CONTINUOUS
 62
    7
 10
2108.4016669620869
 20
1149.2428198433415
 11
2108.4016669620869
 21
1243.2428198433415
  0
TEXT
  8
_0-5_寸法線
 62
    7
 10
2108.4016669620869
 20
1184.2428198433415
 40
24
 41
1
 50
90
  1
94
  0
LINE
  8
_0-5_寸法線
  6
CONTINUOUS
 62
    7
 10
1988.4016669620871
 20
1149.2428198433417
 11
2060.4016669620869
 21
1149.2428198433415
  0
LINE
  8
_0-5_寸法線
  6
CONTINUOUS
 62
    7
 10
2052.4016669620869
 20
1149.2428198433415
 11
2048.2605622404467
 21
1164.6976330639666
  0
LINE
  8
_0-5_寸法線
  6
CONTINUOUS
 62
    7
 10
2052.4016669620869
 20
1149.2428198433415
 11
2056.5427716837271
 21
1164.6976330639666
  0
LINE
  8
_0-5_寸法線
  6
CONTINUOUS
 62
    7
 10
1988.4016669620871
 20
1196.242819843342
 11
2060.4016669620869
 21
1196.2428198433417
  0
LINE
  8
_0-5_寸法線
  6
CONTINUOUS
 62
    7
 10
2052.4016669620869
 20
1196.2428198433417
 11
2056.5427716837271
 21
1180.7880066227167
  0
LINE
  8
_0-5_寸法線
  6
CONTINUOUS
 62
    7
 10
2052.4016669620869
 20
1196.2428198433417
 11
2048.2605622404467
 21
1180.7880066227167
  0
LINE
  8
_0-5_寸法線
  6
CONTINUOUS
 62
    7
 10
2052.4016669620869
 20
1149.2428198433415
 11
2052.4016669620869
 21
1196.2428198433417
  0
TEXT
  8
_0-5_寸法線
 62
    7
 10
2052.4016669620869
 20
1160.7428198433417
 40
24
 41
1
 50
90
  1
47
  0
LINE
  8
_0-5_寸法線
  6
CONTINUOUS
 62
    7
 10
2052.4016669620869
 20
1196.2428198433417
 11
2048.2605622404467
 21
1211.6976330639668
  0
LINE
  8
_0-5_寸法線
  6
CONTINUOUS
 62
    7
 10
2052.4016669620869
 20
1196.2428198433417
 11
2056.5427716837271
 21
1211.6976330639668
  0
LINE
  8
_0-5_寸法線
  6
CONTINUOUS
 62
    7
 10
1988.4016669620871
 20
1243.2428198433417
 11
2060.4016669620869
 21
1243.2428198433415
  0
LINE
  8
_0-5_寸法線
  6
CONTINUOUS
 62
    7
 10
2052.4016669620869
 20
1243.2428198433415
 11
2056.5427716837271
 21
1227.7880066227165
  0
LINE
  8
_0-5_寸法線
  6
CONTINUOUS
 62
    7
 10
2052.4016669620869
 20
1243.2428198433415
 11
2048.2605622404467
 21
1227.7880066227165
  0
LINE
  8
_0-5_寸法線
  6
CONTINUOUS
 62
    7
 10
2052.4016669620869
 20
1196.2428198433417
 11
2052.4016669620869
 21
1243.2428198433415
  0
TEXT
  8
_0-5_寸法線
 62
    7
 10
2052.4016669620869
 20
1207.7428198433417
 40
24
 41
1
 50
90
  1
47
  0
LINE
  8
_0-5_寸法線
  6
CONTINUOUS
 62
    7
 10
2162.8650186573159
 20
1259.2426299163485
 11
2162.8650186573145
 21
1387.2428198433417
  0
LINE
  8
_0-5_寸法線
  6
CONTINUOUS
 62
    7
 10
2162.8650186573145
 20
1379.2428198433417
 11
2178.3198318779396
 21
1383.3839245649822
  0
LINE
  8
_0-5_寸法線
  6
CONTINUOUS
 62
    7
 10
2162.8650186573145
 20
1379.2428198433417
 11
2178.3198318779396
 21
1375.1017151217013
  0
LINE
  8
_0-5_寸法線
  6
CONTINUOUS
 62
    7
 10
2205.8649378373166
 20
1252.1426674976478
 11
2205.8649378373152
 21
1387.2428198433417
  0
LINE
  8
_0-5_寸法線
  6
CONTINUOUS
 62
    7
 10
2205.8649378373152
 20
1379.2428198433417
 11
2190.4101246166902
 21
1375.1017151217015
  0
LINE
  8
_0-5_寸法線
  6
CONTINUOUS
 62
    7
 10
2205.8649378373152
 20
1379.2428198433417
 11
2190.4101246166902
 21
1383.3839245649822
  0
LINE
  8
_0-5_寸法線
  6
CONTINUOUS
 62
    7
 10
2162.8650186573145
 20
1379.2428198433417
 11
2205.8649378373152
 21
1379.2428198433417
  0
TEXT
  8
_0-5_寸法線
 62
    7
 10
2172.3649782473153
 20
1379.2428198433417
 40
24
 41
1
 50
0
  1
43
  0
LINE
  8
_0-5_寸法線
  6
CONTINUOUS
 62
    7
 10
2162.8650186573159
 20
1259.2426299163485
 11
2162.8650186573159
 21
1331.2428198433417
  0
LINE
  8
_0-5_寸法線
  6
CONTINUOUS
 62
    7
 10
2162.8650186573159
 20
1323.2428198433417
 11
2147.4102054366908
 21
1319.1017151217015
  0
LINE
  8
_0-5_寸法線
  6
CONTINUOUS
 62
    7
 10
2162.8650186573159
 20
1323.2428198433417
 11
2147.4102054366908
 21
1327.3839245649822
  0
LINE
  8
_0-5_寸法線
  6
CONTINUOUS
 62
    7
 10
2182.8649378373175
 20
1252.1426674976478
 11
2182.8649378373175
 21
1331.2428198433417
  0
LINE
  8
_0-5_寸法線
  6
CONTINUOUS
 62
    7
 10
2129.1962445566842
 20
1323.2428198433417
 11
2182.8649378373175
 21
1323.2428198433417
  0
TEXT
  8
_0-5_寸法線
 62
    7
 10
2129.1962445566842
 20
1323.2428198433417
 40
24
 41
1
 50
0
  1
20
  0
LINE
  8
_0-5_寸法線
  6
CONTINUOUS
 62
    7
 10
2182.8649378373175
 20
1323.2428198433417
 11
2198.3197510579425
 21
1327.383924564982
  0
LINE
  8
_0-5_寸法線
  6
CONTINUOUS
 62
    7
 10
2182.8649378373175
 20
1323.2428198433417
 11
2198.3197510579425
 21
1319.1017151217013
  0
LINE
  8
_0-5_寸法線
  6
CONTINUOUS
 62
    7
 10
2205.8649378373166
 20
1252.1426674976478
 11
2205.8649378373166
 21
1331.2428198433417
  0
LINE
  8
_0-5_寸法線
  6
CONTINUOUS
 62
    7
 10
2205.8649378373166
 20
1323.2428198433417
 11
2190.4101246166915
 21
1319.1017151217015
  0
LINE
  8
_0-5_寸法線
  6
CONTINUOUS
 62
    7
 10
2205.8649378373166
 20
1323.2428198433417
 11
2190.4101246166915
 21
1327.3839245649822
  0
LINE
  8
_0-5_寸法線
  6
CONTINUOUS
 62
    7
 10
2182.8649378373175
 20
1323.2428198433417
 11
2205.8649378373166
 21
1323.2428198433417
  0
TEXT
  8
_0-5_寸法線
 62
    7
 10
2182.3649378373175
 20
1323.2428198433413
 40
24
 41
1
 50
0
  1
23
  0
LINE
  8
_0-5_寸法線
  6
CONTINUOUS
 62
    7
 10
2162.8650186573159
 20
1133.2426299163485
 11
2162.8650186573159
 21
1061.243009770335
  0
LINE
  8
_0-5_寸法線
  6
CONTINUOUS
 62
    7
 10
2162.8650186573159
 20
1069.243009770335
 11
2178.3198318779409
 21
1073.3841144919754
  0
LINE
  8
_0-5_寸法線
  6
CONTINUOUS
 62
    7
 10
2162.8650186573159
 20
1069.243009770335
 11
2178.3198318779409
 21
1065.1019050486946
  0
LINE
  8
_0-5_寸法線
  6
CONTINUOUS
 62
    7
 10
2227.8650186573159
 20
1157.8897585172278
 11
2227.8650186573159
 21
1061.243009770335
  0
LINE
  8
_0-5_寸法線
  6
CONTINUOUS
 62
    7
 10
2227.8650186573159
 20
1069.243009770335
 11
2212.4102054366908
 21
1065.1019050486948
  0
LINE
  8
_0-5_寸法線
  6
CONTINUOUS
 62
    7
 10
2227.8650186573159
 20
1069.243009770335
 11
2212.4102054366908
 21
1073.3841144919754
  0
LINE
  8
_0-5_寸法線
  6
CONTINUOUS
 62
    7
 10
2162.8650186573159
 20
1069.243009770335
 11
2227.8650186573159
 21
1069.243009770335
  0
TEXT
  8
_0-5_寸法線
 62
    7
 10
2183.3650186573168
 20
1069.243009770335
 40
24
 41
1
 50
0
  1
65
  0
LINE
  8
_0-5_寸法線
  6
CONTINUOUS
 62
    7
 10
1191.7289135199242
 20
1239.3075812522407
 11
1195.8700182415646
 21
1254.7623944728657
  0
LINE
  8
_0-5_寸法線
  6
CONTINUOUS
 62
    7
 10
1191.7289135199242
 20
1239.3075812522407
 11
1203.042622018909
 21
1250.6212897512255
  0
LINE
  8
_0-5_寸法線
  6
CONTINUOUS
 62
    7
 10
1191.7289135199242
 20
1239.3075812522407
 11
1217.0949353474068
 21
1283.2428198433417
  0
LINE
  8
_0-5_寸法線
  6
CONTINUOUS
 62
    7
 10
1217.0949353474068
 20
1283.2428198433417
 11
1370.6949353474065
 21
1283.2428198433417
  0
TEXT
  8
_0-5_寸法線
 62
    7
 10
1217.0949353474068
 20
1283.2428198433417
 40
24
 41
0.7999999999999998
 50
0
  1
排水ユニット本体
  0
LINE
  8
_0-5_寸法線
  6
CONTINUOUS
 62
    7
 10
1068.0165837602169
 20
1175.5235093812485
 11
1068.0165837602169
 21
1159.5235093812485
  0
LINE
  8
_0-5_寸法線
  6
CONTINUOUS
 62
    7
 10
1068.0165837602169
 20
1175.5235093812485
 11
1060.0165837602169
 21
1161.6671029206975
  0
LINE
  8
_0-5_寸法線
  6
CONTINUOUS
 62
    7
 10
1068.0165837602169
 20
1175.5235093812485
 11
1050.2567265247565
 21
1109.2428198433417
  0
LINE
  8
_0-5_寸法線
  6
CONTINUOUS
 62
    7
 10
1050.2567265247565
 20
1109.2428198433417
 11
992.65672652475632
 21
1109.2428198433417
  0
TEXT
  8
_0-5_寸法線
 62
    7
 10
992.65672652475644
 20
1109.2428198433417
 40
24
 41
0.7999999999999998
 50
0
  1
排水口
  0
LINE
  8
_0-5_寸法線
  6
CONTINUOUS
 62
    7
 10
1077.9300414966799
 20
1194.4928269150919
 11
1085.9300414966799
 21
1180.6364204545407
  0
LINE
  8
_0-5_寸法線
  6
CONTINUOUS
 62
    7
 10
1077.9300414966799
 20
1194.4928269150919
 11
1077.9300414966799
 21
1178.4928269150919
  0
LINE
  8
_0-5_寸法線
  6
CONTINUOUS
 62
    7
 10
1077.9300414966799
 20
1194.4928269150919
 11
1100.7727120463023
 21
1109.2428198433417
  0
LINE
  8
_0-5_寸法線
  6
CONTINUOUS
 62
    7
 10
1100.7727120463023
 20
1109.2428198433417
 11
1215.9727120463021
 21
1109.2428198433417
  0
TEXT
  8
_0-5_寸法線
 62
    7
 10
1100.7727120463023
 20
1109.2428198433417
 40
24
 41
0.7999999999999998
 50
0
  1
ストレーナー
  0
LINE
  8
_0-5_寸法線
  6
CONTINUOUS
 62
    7
 10
859.90642717598951
 20
1181.2185885846902
 11
855.76532245434908
 21
1165.7637753640652
  0
LINE
  8
_0-5_寸法線
  6
CONTINUOUS
 62
    7
 10
859.90642717598951
 20
1181.2185885846902
 11
848.59271867700465
 21
1169.9048800857056
  0
LINE
  8
_0-5_寸法線
  6
CONTINUOUS
 62
    7
 10
859.90642717598951
 20
1181.2185885846902
 11
818.35119771804125
 21
1109.2428198433417
  0
LINE
  8
_0-5_寸法線
  6
CONTINUOUS
 62
    7
 10
818.35119771804125
 20
1109.2428198433417
 11
760.75119771804111
 21
1109.2428198433417
  0
TEXT
  8
_0-5_寸法線
 62
    7
 10
760.75119771804123
 20
1109.2428198433417
 40
24
 41
0.7999999999999998
 50
0
  1
上フタ
  0
LINE
  8
_0-0_計極細
  6
CONTINUOUS
 62
    2
 10
236.90166508203697
 20
1185.7428217033894
 11
236.90166508203697
 21
1191.242821483384
  0
LINE
  8
_0-0_計極細
  6
CONTINUOUS
 62
    2
 10
236.90166508203697
 20
1170.242822323406
 11
236.90166508203697
 21
1175.7428221034002
  0
LINE
  8
_0-0_計極細
  6
CONTINUOUS
 62
    2
 10
196.90166668204552
 20
1170.242822323406
 11
196.90166668204552
 21
1175.7428221034002
  0
LINE
  8
_0-0_計極細
  6
CONTINUOUS
 62
    2
 10
236.90166508203697
 20
1222.2428202433521
 11
236.90166508203697
 21
1216.7428204633579
  0
LINE
  8
_0-0_計極細
  6
CONTINUOUS
 62
    2
 10
196.90166668204552
 20
1222.2428202433521
 11
196.90166668204552
 21
1216.7428204633579
  0
LINE
  8
_0-0_計極細
  6
CONTINUOUS
 62
    2
 10
236.90166508203697
 20
1206.7428208633683
 11
236.90166508203697
 21
1201.2428210833737
  0
LINE
  8
_0-0_計極細
  6
CONTINUOUS
 62
    2
 10
232.85166768749673
 20
1170.2428198433427
 11
232.85166768749673
 21
1175.7428198433422
  0
LINE
  8
_0-0_計極細
  6
CONTINUOUS
 62
    2
 10
225.95166768737431
 20
1170.2428198433427
 11
225.95166768737431
 21
1175.7428198433422
  0
LINE
  8
_0-0_計極細
  6
CONTINUOUS
 62
    2
 10
232.85166536694464
 20
1222.2428198433413
 11
232.85166767812257
 21
1216.7428198433417
  0
LINE
  8
_0-0_計極細
  6
CONTINUOUS
 62
    2
 10
225.95166539714796
 20
1222.2428198433413
 11
225.95166767812293
 21
1216.7428198433417
  0
LINE
  8
_0-0_計極細
  6
CONTINUOUS
 62
    2
 10
225.95166768737431
 20
1206.7428198433417
 11
225.95166768737431
 21
1205.1428209273786
  0
LINE
  8
_0-0_計極細
  6
CONTINUOUS
 62
    2
 10
225.95166768737431
 20
1204.1428209673786
 11
225.95166768737431
 21
1201.2428198433417
  0
LINE
  8
_0-0_計極細
  6
CONTINUOUS
 62
    2
 10
232.85166768749673
 20
1206.7428198433417
 11
232.85166768749673
 21
1205.1428209273786
  0
LINE
  8
_0-0_計極細
  6
CONTINUOUS
 62
    2
 10
232.85166768749673
 20
1204.1428209673786
 11
232.85166768749673
 21
1201.2428198433417
  0
LINE
  8
_0-0_計極細
  6
CONTINUOUS
 62
    2
 10
225.95166768737431
 20
1185.7428198433422
 11
225.95166768737431
 21
1187.3428216393791
  0
LINE
  8
_0-0_計極細
  6
CONTINUOUS
 62
    2
 10
225.95166768737431
 20
1188.342821599379
 11
225.95166768737431
 21
1191.2428198433417
  0
LINE
  8
_0-0_計極細
  6
CONTINUOUS
 62
    2
 10
232.85166768749673
 20
1185.7428198433422
 11
232.85166768749673
 21
1187.3428216393791
  0
LINE
  8
_0-0_計極細
  6
CONTINUOUS
 62
    2
 10
232.85166768749673
 20
1188.342821599379
 11
232.85166768749673
 21
1191.2428198433417
  0
LINE
  8
_0-0_計極細
  6
CONTINUOUS
 62
    2
 10
193.40166684204473
 20
1186.3428216793791
 11
202.40166648204581
 21
1186.3428216793791
  0
LINE
  8
_0-0_計極細
  6
CONTINUOUS
 62
    2
 10
193.40166684204473
 20
1186.3428216793791
 11
193.40166684204473
 21
1187.3428216393791
  0
LINE
  8
_0-0_計極細
  6
CONTINUOUS
 62
    2
 10
202.40166648204581
 20
1186.3428216793791
 11
202.40166648204581
 21
1187.3428216393791
  0
LINE
  8
_0-0_計極細
  6
CONTINUOUS
 62
    2
 10
193.40166684204473
 20
1206.142820887379
 11
202.40166648204581
 21
1206.142820887379
  0
LINE
  8
_0-0_計極細
  6
CONTINUOUS
 62
    2
 10
193.40166684204473
 20
1206.142820887379
 11
193.40166684204473
 21
1205.1428209273786
  0
LINE
  8
_0-0_計極細
  6
CONTINUOUS
 62
    2
 10
202.40166648204581
 20
1206.142820887379
 11
202.40166648204581
 21
1205.1428209273786
  0
LINE
  8
_0-1_計細線
  6
CONTINUOUS
 62
    3
 10
234.40166520204525
 20
1204.1428209673786
 11
234.40166520204525
 21
1205.1428209273786
  0
LINE
  8
_0-1_計細線
  6
CONTINUOUS
 62
    3
 10
221.60166571404602
 20
1204.1428209673786
 11
234.40166520204525
 21
1204.1428209673786
  0
LINE
  8
_0-1_計細線
  6
CONTINUOUS
 62
    3
 10
234.40166520204525
 20
1205.1428209273786
 11
192.40166688204522
 21
1205.1428209273786
  0
LINE
  8
_0-1_計細線
  6
CONTINUOUS
 62
    3
 10
192.40166688204522
 20
1187.3428216393791
 11
234.40166520204525
 21
1187.3428216393791
  0
LINE
  8
_0-1_計細線
  6
CONTINUOUS
 62
    3
 10
234.40166520204525
 20
1188.342821599379
 11
221.60166571404602
 21
1188.342821599379
  0
LINE
  8
_0-1_計細線
  6
CONTINUOUS
 62
    3
 10
234.40166520204525
 20
1187.3428216393791
 11
234.40166520204525
 21
1188.342821599379
  0
LINE
  8
_0-1_計細線
  6
CONTINUOUS
 62
    3
 10
221.60166571404602
 20
1187.3428216393791
 11
221.60166571404602
 21
1205.1428209273786
  0
LINE
  8
_0-1_計細線
  6
CONTINUOUS
 62
    3
 10
192.40166688204522
 20
1205.1428209273786
 11
192.40166688204522
 21
1187.3428216393791
  0
CIRCLE
  8
_0-5_寸法線
  6
CONTINUOUS
 62
    7
 10
208.90772674767754
 20
1196.2428212833788
 40
32.624478443415455
  0
LINE
  8
_0-0_計極細
  6
CONTINUOUS
 62
    2
 10
196.90166668204552
 20
1206.7428208633683
 11
196.90166668204552
 21
1206.142820887379
  0
LINE
  8
_0-0_計極細
  6
CONTINUOUS
 62
    2
 10
196.90166668204552
 20
1186.3428216793791
 11
196.90166668204552
 21
1185.7428217033894
  0
LINE
  8
_0-1_計細線
  6
CONTINUOUS
 62
    3
 10
223.90166560204602
 20
1201.2428198433417
 11
223.90166560204602
 21
1191.2428198433417
  0
LINE
  8
_0-0_計極細
  6
CONTINUOUS
 62
    2
 10
514.85166539142074
 20
1170.2428198433427
 11
514.85166539142074
 21
1175.7428198433422
  0
LINE
  8
_0-0_計極細
  6
CONTINUOUS
 62
    2
 10
507.95166539129832
 20
1170.2428198433427
 11
507.95166539129832
 21
1175.7428198433422
  0
LINE
  8
_0-0_計極細
  6
CONTINUOUS
 62
    2
 10
514.85166539142074
 20
1185.7428198433422
 11
514.85166539142074
 21
1191.2428198433417
  0
LINE
  8
_0-0_計極細
  6
CONTINUOUS
 62
    2
 10
507.95166539129832
 20
1185.7428198433422
 11
507.95166539129832
 21
1191.2428198433417
  0
LINE
  8
_0-0_計極細
  6
CONTINUOUS
 62
    2
 10
514.85166539142074
 20
1206.7428198433417
 11
514.85166539142074
 21
1201.2428198433417
  0
LINE
  8
_0-0_計極細
  6
CONTINUOUS
 62
    2
 10
507.95166539129832
 20
1206.7428198433417
 11
507.95166539129832
 21
1201.2428198433417
  0
LINE
  8
_0-0_計極細
  6
CONTINUOUS
 62
    2
 10
514.8516630708682
 20
1222.2428198433413
 11
514.85166538204658
 21
1216.7428198433417
  0
LINE
  8
_0-0_計極細
  6
CONTINUOUS
 62
    2
 10
507.95166310107152
 20
1222.2428198433413
 11
507.95166538204649
 21
1216.7428198433417
  0
LINE
  8
_0-0_計極細
  6
CONTINUOUS
 62
    2
 10
518.90166508203856
 20
1185.7428202633523
 11
518.90166508203856
 21
1191.2428200433469
  0
LINE
  8
_0-0_計極細
  6
CONTINUOUS
 62
    2
 10
503.90166568205404
 20
1185.7428202633523
 11
503.90166568205404
 21
1191.2428200433469
  0
LINE
  8
_0-0_計極細
  6
CONTINUOUS
 62
    2
 10
518.90166508203856
 20
1170.2428208833687
 11
518.90166508203856
 21
1175.7428206633631
  0
LINE
  8
_0-0_計極細
  6
CONTINUOUS
 62
    2
 10
503.90166568205404
 20
1170.2428208833687
 11
503.90166568205404
 21
1175.7428206633631
  0
LINE
  8
_0-0_計極細
  6
CONTINUOUS
 62
    2
 10
518.90166508203856
 20
1222.2428188033148
 11
518.90166508203856
 21
1216.7428190233209
  0
LINE
  8
_0-0_計極細
  6
CONTINUOUS
 62
    2
 10
503.90166568205404
 20
1222.2428188033148
 11
503.90166568205404
 21
1216.7428190233209
  0
LINE
  8
_0-0_計極細
  6
CONTINUOUS
 62
    2
 10
518.90166508203856
 20
1206.7428194233312
 11
518.90166508203856
 21
1201.2428196433366
  0
LINE
  8
_0-0_計極細
  6
CONTINUOUS
 62
    2
 10
503.90166568205404
 20
1206.7428194233312
 11
503.90166568205404
 21
1201.2428196433366
  0
LINE
  8
_0-0_計極細
  6
CONTINUOUS
 62
    2
 10
796.85166539142074
 20
1170.2428198433427
 11
796.85166539142074
 21
1175.7428198433422
  0
LINE
  8
_0-0_計極細
  6
CONTINUOUS
 62
    2
 10
789.95166539129832
 20
1170.2428198433427
 11
789.95166539129832
 21
1175.7428198433422
  0
LINE
  8
_0-0_計極細
  6
CONTINUOUS
 62
    2
 10
796.85166539142074
 20
1185.7428198433422
 11
796.85166539142074
 21
1191.2428198433417
  0
LINE
  8
_0-0_計極細
  6
CONTINUOUS
 62
    2
 10
789.95166539129832
 20
1185.7428198433422
 11
789.95166539129832
 21
1191.2428198433417
  0
LINE
  8
_0-0_計極細
  6
CONTINUOUS
 62
    2
 10
796.85166539142074
 20
1206.7428198433417
 11
796.85166539142074
 21
1201.2428198433417
  0
LINE
  8
_0-0_計極細
  6
CONTINUOUS
 62
    2
 10
789.95166539129832
 20
1206.7428198433417
 11
789.95166539129832
 21
1201.2428198433417
  0
LINE
  8
_0-0_計極細
  6
CONTINUOUS
 62
    2
 10
796.8516630708682
 20
1222.2428198433413
 11
796.85166538204658
 21
1216.7428198433417
  0
LINE
  8
_0-0_計極細
  6
CONTINUOUS
 62
    2
 10
789.95166310107152
 20
1222.2428198433413
 11
789.95166538204649
 21
1216.7428198433417
  0
LINE
  8
_0-0_計極細
  6
CONTINUOUS
 62
    2
 10
800.90166508203856
 20
1185.7428202633523
 11
800.90166508203856
 21
1191.2428200433469
  0
LINE
  8
_0-0_計極細
  6
CONTINUOUS
 62
    2
 10
785.90166568205404
 20
1185.7428202633523
 11
785.90166568205404
 21
1191.2428200433469
  0
LINE
  8
_0-0_計極細
  6
CONTINUOUS
 62
    2
 10
800.90166508203856
 20
1170.2428208833687
 11
800.90166508203856
 21
1175.7428206633631
  0
LINE
  8
_0-0_計極細
  6
CONTINUOUS
 62
    2
 10
785.90166568205404
 20
1170.2428208833687
 11
785.90166568205404
 21
1175.7428206633631
  0
LINE
  8
_0-0_計極細
  6
CONTINUOUS
 62
    2
 10
800.90166508203856
 20
1222.2428188033148
 11
800.90166508203856
 21
1216.7428190233209
  0
LINE
  8
_0-0_計極細
  6
CONTINUOUS
 62
    2
 10
785.90166568205404
 20
1222.2428188033148
 11
785.90166568205404
 21
1216.7428190233209
  0
LINE
  8
_0-0_計極細
  6
CONTINUOUS
 62
    2
 10
800.90166508203856
 20
1206.7428194233312
 11
800.90166508203856
 21
1201.2428196433366
  0
LINE
  8
_0-0_計極細
  6
CONTINUOUS
 62
    2
 10
785.90166568205404
 20
1206.7428194233312
 11
785.90166568205404
 21
1201.2428196433366
  0
LINE
  8
_0-5_寸法線
  6
CONTINUOUS
 62
    7
 10
208.80119678676533
 20
1190.0594825008561
 11
216.80119678676533
 21
1176.2030760403049
  0
LINE
  8
_0-5_寸法線
  6
CONTINUOUS
 62
    7
 10
208.80119678676533
 20
1190.0594825008561
 11
208.80119678676522
 21
1174.0594825008561
  0
LINE
  8
_0-5_寸法線
  6
CONTINUOUS
 62
    7
 10
208.80119678676533
 20
1190.0594825008561
 11
230.45595628082435
 21
1109.2428198433417
  0
LINE
  8
_0-5_寸法線
  6
CONTINUOUS
 62
    7
 10
230.45595628082435
 20
1109.2428198433417
 11
384.05595628082438
 21
1109.2428198433417
  0
TEXT
  8
_0-5_寸法線
 62
    7
 10
230.45595628082435
 20
1109.2428198433417
 40
24
 41
0.7999999999999998
 50
0
  1
ボルトカバー金具
  0
TEXT
  8
_0-5_寸法線
 62
    7
 10
115.41890741989255
 20
1173.717928826843
 40
24
 41
1
 50
0
  1
Ｂ部
  0
LINE
  8
_0-5_寸法線
  6
CONTINUOUS
 62
    7
 10
511.39781178705834
 20
1110.667901013094
 11
526.8526250076834
 21
1114.8090057347345
  0
LINE
  8
_0-5_寸法線
  6
CONTINUOUS
 62
    7
 10
511.39781178705834
 20
1110.667901013094
 11
526.8526250076834
 21
1106.5267962914536
  0
LINE
  8
_0-5_寸法線
  6
CONTINUOUS
 62
    7
 10
511.39781178705834
 20
1110.667901013094
 11
565.15317785161824
 21
1110.667901013094
  0
LINE
  8
_0-5_寸法線
  6
CONTINUOUS
 62
    7
 10
565.15317785161824
 20
1110.667901013094
 11
565.15317785161824
 21
1110.1564587441399
  0
LINE
  8
_0-5_寸法線
  6
CONTINUOUS
 62
    7
 10
511.39781178705834
 20
1261.2201123063069
 11
526.8526250076834
 21
1265.3612170279473
  0
LINE
  8
_0-5_寸法線
  6
CONTINUOUS
 62
    7
 10
511.39781178705834
 20
1261.2201123063069
 11
526.8526250076834
 21
1257.0790075846664
  0
LINE
  8
_0-5_寸法線
  6
CONTINUOUS
 62
    7
 10
511.39781178705834
 20
1261.2201123063069
 11
565.15317785161824
 21
1261.2201123063069
  0
LINE
  8
_0-5_寸法線
  6
CONTINUOUS
 62
    7
 10
565.15317785161824
 20
1261.2201123063069
 11
565.15317785161824
 21
1260.7086700373525
  0
LINE
  8
_0-0_計極細
  6
CENTER1
 62
    2
 10
511.4016653820463
 20
1277.8751249073277
 11
511.4016653820463
 21
1097.0028688392488
  0
LINE
  8
_0-0_計極細
  6
CONTINUOUS
 62
    2
 10
1952.4016677621023
 20
1195.742819863342
 11
1952.4016677621023
 21
1196.7428198233415
  0
LINE
  8
_0-1_計細線
  6
CONTINUOUS
 62
    3
 10
1961.4016674020979
 20
1205.742819463338
 11
1962.4016673620988
 21
1205.742819463338
  0
ARC
  8
_0-1_計細線
  6
CONTINUOUS
 62
    3
 10
1961.4016674020979
 20
1196.7428198233415
 40
0.9999999599995135
 50
269.99999999999977
 51
359.99999999999966
  0
LINE
  8
_0-1_計細線
  6
CONTINUOUS
 62
    3
 10
1950.4016678421033
 20
1195.742819863342
 11
1950.4016678421033
 21
1196.7428198233415
  0
LINE
  8
_0-1_計細線
  6
CONTINUOUS
 62
    3
 10
1950.4016678421033
 20
1196.7428198233415
 11
1961.4016674020979
 21
1196.7428198233415
  0
LINE
  8
_0-1_計細線
  6
CONTINUOUS
 62
    3
 10
1961.4016674020979
 20
1195.742819863342
 11
1950.4016678421033
 21
1195.742819863342
  0
LINE
  8
_0-1_計細線
  6
CONTINUOUS
 62
    3
 10
1961.4016674020979
 20
1196.7428198233415
 11
1961.4016674020979
 21
1205.742819463338
  0
LINE
  8
_0-1_計細線
  6
CONTINUOUS
 62
    3
 10
1962.4016673620988
 20
1205.742819463338
 11
1962.4016673620988
 21
1196.7428198233415
  0
LINE
  8
_0-5_寸法線
  6
CONTINUOUS
 62
    7
 10
1952.4016677621023
 20
1195.742819863342
 11
1948.2605630404619
 21
1180.2880066427169
  0
LINE
  8
_0-5_寸法線
  6
CONTINUOUS
 62
    7
 10
1952.4016677621023
 20
1195.742819863342
 11
1941.0879592631175
 21
1184.4291113643574
  0
LINE
  8
_0-5_寸法線
  6
CONTINUOUS
 62
    7
 10
1952.4016677621023
 20
1195.742819863342
 11
1902.460869465652
 21
1109.2428198433417
  0
LINE
  8
_0-5_寸法線
  6
CONTINUOUS
 62
    7
 10
1902.460869465652
 20
1109.2428198433417
 11
1768.0608694656521
 21
1109.2428198433417
  0
TEXT
  8
_0-5_寸法線
 62
    7
 10
1768.0608694656521
 20
1109.2428198433417
 40
24
 41
0.7999999999999998
 50
0
  1
抜け防止Ｌ金具
  0
ARC
  8
_0-0_計極細
  6
CONTINUOUS
 62
    2
 10
1042.2443291282234
 20
1214.2428198433415
 40
40.671428571426198
 50
153.73195538720606
 51
206.26804461279357
  0
ARC
  8
_0-0_計極細
  6
CONTINUOUS
 62
    2
 10
969.30147198537065
 20
1178.2428198433422
 40
40.671428571426773
 50
333.73195538720643
 51
26.268044612788561
  0
LINE
  8
_0-1_計細線
  6
CONTINUOUS
 62
    3
 10
1005.7729005567976
 20
1232.2428198433413
 11
189.90166696208712
 21
1232.2428198433413
  0
LINE
  8
_0-1_計細線
  6
CONTINUOUS
 62
    3
 10
189.90166696208712
 20
1222.2428198433413
 11
1002.3674548520144
 21
1222.2428198433413
  0
LINE
  8
_0-1_計細線
  6
CONTINUOUS
 62
    3
 10
1001.6498085368839
 20
1216.7428198433417
 11
189.90166696208712
 21
1216.7428198433417
  0
LINE
  8
_0-0_計極細
  6
CONTINUOUS
 62
    2
 10
1001.8035959267997
 20
1218.5685799120338
 11
1053.1228251039977
 21
1220.010840390813
  0
LINE
  8
_0-1_計細線
  6
CONTINUOUS
 62
    3
 10
189.90166696208712
 20
1206.7428198433417
 11
1002.2703988480939
 21
1206.7428198433417
  0
LINE
  8
_0-1_計細線
  6
CONTINUOUS
 62
    3
 10
1003.7064892556955
 20
1201.2428198433417
 11
223.90166560204602
 21
1201.2428198433417
  0
LINE
  8
_0-1_計細線
  6
CONTINUOUS
 62
    3
 10
223.90166560204602
 20
1191.2428198433417
 11
1007.8393118578997
 21
1191.2428198433417
  0
LINE
  8
_0-1_計細線
  6
CONTINUOUS
 62
    3
 10
1009.2754022655008
 20
1185.7428198433422
 11
189.90166696208712
 21
1185.7428198433422
  0
LINE
  8
_0-1_計細線
  6
CONTINUOUS
 62
    3
 10
189.90166696208712
 20
1175.7428198433422
 11
1009.8959925767103
 21
1175.7428198433422
  0
LINE
  8
_0-0_計極細
  6
CONTINUOUS
 62
    2
 10
1009.7177951158815
 20
1173.6946414551503
 11
1053.1228251039977
 21
1172.4747992958705
  0
LINE
  8
_0-1_計細線
  6
CONTINUOUS
 62
    3
 10
1009.1783462615804
 20
1170.2428198433427
 11
189.90166696208712
 21
1170.2428198433427
  0
LINE
  8
_0-1_計細線
  6
CONTINUOUS
 62
    3
 10
189.90166696208712
 20
1160.2428198433427
 11
1005.7729005567971
 21
1160.2428198433427
  0
TEXT
  8
_0-5_寸法線
 62
    7
 10
537.90341247042215
 20
1260.0672129794516
 40
24
 41
1
 50
0
  1
Ａ’
  0
TEXT
  8
_0-5_寸法線
 62
    7
 10
538.17018228636471
 20
1110.3909425505346
 40
24
 41
1
 50
0
  1
Ａ
  0
LINE
  8
_0-5_寸法線
  6
CONTINUOUS
 62
    7
 10
178.40166696208712
 20
1259.2428198433417
 11
178.40166696208735
 21
1387.2428198433417
  0
LINE
  8
_0-5_寸法線
  6
CONTINUOUS
 62
    7
 10
178.40166696208735
 20
1379.2428198433417
 11
193.8564801827124
 21
1383.3839245649822
  0
LINE
  8
_0-5_寸法線
  6
CONTINUOUS
 62
    7
 10
178.40166696208735
 20
1379.2428198433417
 11
193.8564801827124
 21
1375.1017151217013
  0
LINE
  8
_0-5_寸法線
  6
CONTINUOUS
 62
    7
 10
1972.4016669620871
 20
1259.2428198433417
 11
1972.4016669620873
 21
1387.2428198433417
  0
LINE
  8
_0-5_寸法線
  6
CONTINUOUS
 62
    7
 10
1972.4016669620873
 20
1379.2428198433417
 11
1956.9468537414623
 21
1375.1017151217015
  0
LINE
  8
_0-5_寸法線
  6
CONTINUOUS
 62
    7
 10
1972.4016669620873
 20
1379.2428198433417
 11
1956.9468537414623
 21
1383.3839245649822
  0
LINE
  8
_0-5_寸法線
  6
CONTINUOUS
 62
    7
 10
178.40166696208735
 20
1379.2428198433417
 11
1972.4016669620873
 21
1379.2428198433417
  0
TEXT
  8
_0-5_寸法線
 62
    7
 10
1051.4016669620873
 20
1379.2428198433415
 40
24
 41
1
 50
0
  1
1794
  0
LINE
  8
_0-5_寸法線
  6
CONTINUOUS
 62
    7
 10
178.40166696208712
 20
1133.2428198433417
 11
178.40166696208701
 21
1061.2428198433417
  0
LINE
  8
_0-5_寸法線
  6
CONTINUOUS
 62
    7
 10
178.40166696208701
 20
1069.2428198433417
 11
193.85648018271206
 21
1073.3839245649822
  0
LINE
  8
_0-5_寸法線
  6
CONTINUOUS
 62
    7
 10
178.40166696208701
 20
1069.2428198433417
 11
193.85648018271206
 21
1065.1017151217013
  0
LINE
  8
_0-5_寸法線
  6
CONTINUOUS
 62
    7
 10
1075.4016669620871
 20
1133.2428198433417
 11
1075.4016669620869
 21
1061.2428198433417
  0
LINE
  8
_0-5_寸法線
  6
CONTINUOUS
 62
    7
 10
1075.4016669620869
 20
1069.2428198433417
 11
1059.9468537414618
 21
1065.1017151217015
  0
LINE
  8
_0-5_寸法線
  6
CONTINUOUS
 62
    7
 10
1075.4016669620869
 20
1069.2428198433417
 11
1059.9468537414618
 21
1073.3839245649822
  0
LINE
  8
_0-5_寸法線
  6
CONTINUOUS
 62
    7
 10
178.40166696208701
 20
1069.2428198433417
 11
1075.4016669620869
 21
1069.2428198433417
  0
TEXT
  8
_0-5_寸法線
 62
    7
 10
608.90166696208689
 20
1069.2428198433417
 40
24
 41
1
 50
0
  1
897
  0
LINE
  8
_0-5_寸法線
  6
CONTINUOUS
 62
    7
 10
1075.4016669620869
 20
1069.2428198433417
 11
1090.8564801827119
 21
1073.383924564982
  0
LINE
  8
_0-5_寸法線
  6
CONTINUOUS
 62
    7
 10
1075.4016669620869
 20
1069.2428198433417
 11
1090.8564801827119
 21
1065.1017151217013
  0
LINE
  8
_0-5_寸法線
  6
CONTINUOUS
 62
    7
 10
1972.4016669620871
 20
1133.2428198433417
 11
1972.4016669620869
 21
1061.2428198433417
  0
LINE
  8
_0-5_寸法線
  6
CONTINUOUS
 62
    7
 10
1972.4016669620869
 20
1069.2428198433417
 11
1956.9468537414618
 21
1065.1017151217015
  0
LINE
  8
_0-5_寸法線
  6
CONTINUOUS
 62
    7
 10
1972.4016669620869
 20
1069.2428198433417
 11
1956.9468537414618
 21
1073.3839245649822
  0
LINE
  8
_0-5_寸法線
  6
CONTINUOUS
 62
    7
 10
1075.4016669620869
 20
1069.2428198433417
 11
1972.4016669620869
 21
1069.2428198433417
  0
TEXT
  8
_0-5_寸法線
 62
    7
 10
1505.9016669620869
 20
1069.2428198433417
 40
24
 41
1
 50
0
  1
897
  0
LINE
  8
_0-0_計極細
  6
CENTER1
 62
    2
 10
1075.4016669620871
 20
1258.7849403717601
 11
1075.4016669620871
 21
824.49859781452392
  0
ENDSEC
  0
EOF
