  0
SECTION
  2
HEADER
  9
$ACADVER
  1
AC1015
  9
$ACADMAINTVER
 70
    20
  9
$DWGCODEPAGE
  3
ANSI_932
  9
$INSBASE
 10
0.0
 20
0.0
 30
0.0
  9
$EXTMIN
 10
-0.0679599248419436
 20
-0.0480524721097027
 30
-0.0000000000000058
  9
$EXTMAX
 10
1485.067987586598
 20
1050.048072030928
 30
0.0000000000000104
  9
$LIMMIN
 10
0.0
 20
0.0
  9
$LIMMAX
 10
1485.0
 20
1050.0
  9
$ORTHOMODE
 70
     0
  9
$REGENMODE
 70
     1
  9
$FILLMODE
 70
     1
  9
$QTEXTMODE
 70
     0
  9
$MIRRTEXT
 70
     0
  9
$LTSCALE
 40
5.0
  9
$ATTMODE
 70
     1
  9
$TEXTSIZE
 40
0.2
  9
$TRACEWID
 40
0.05
  9
$TEXTSTYLE
  7
STANDARD
  9
$CLAYER
  8
0
  9
$CELTYPE
  6
CONTINUOUS
  9
$CECOLOR
 62
   256
  9
$CELTSCALE
 40
1.0
  9
$DISPSILH
 70
     0
  9
$DIMSCALE
 40
1.0
  9
$DIMASZ
 40
0.18
  9
$DIMEXO
 40
0.0625
  9
$DIMDLI
 40
0.38
  9
$DIMRND
 40
0.0
  9
$DIMDLE
 40
0.0
  9
$DIMEXE
 40
0.18
  9
$DIMTP
 40
0.0
  9
$DIMTM
 40
0.0
  9
$DIMTXT
 40
0.18
  9
$DIMCEN
 40
0.09
  9
$DIMTSZ
 40
0.0
  9
$DIMTOL
 70
     0
  9
$DIMLIM
 70
     0
  9
$DIMTIH
 70
     1
  9
$DIMTOH
 70
     1
  9
$DIMSE1
 70
     0
  9
$DIMSE2
 70
     0
  9
$DIMTAD
 70
     0
  9
$DIMZIN
 70
     0
  9
$DIMBLK
  1

  9
$DIMASO
 70
     1
  9
$DIMSHO
 70
     1
  9
$DIMPOST
  1

  9
$DIMAPOST
  1

  9
$DIMALT
 70
     0
  9
$DIMALTD
 70
     2
  9
$DIMALTF
 40
25.4
  9
$DIMLFAC
 40
1.0
  9
$DIMTOFL
 70
     0
  9
$DIMTVP
 40
0.0
  9
$DIMTIX
 70
     0
  9
$DIMSOXD
 70
     0
  9
$DIMSAH
 70
     0
  9
$DIMBLK1
  1

  9
$DIMBLK2
  1

  9
$DIMSTYLE
  2
Standard
  9
$DIMCLRD
 70
     0
  9
$DIMCLRE
 70
     0
  9
$DIMCLRT
 70
     0
  9
$DIMTFAC
 40
1.0
  9
$DIMGAP
 40
0.09
  9
$DIMJUST
 70
     0
  9
$DIMSD1
 70
     0
  9
$DIMSD2
 70
     0
  9
$DIMTOLJ
 70
     1
  9
$DIMTZIN
 70
     0
  9
$DIMALTZ
 70
     0
  9
$DIMALTTZ
 70
     0
  9
$DIMUPT
 70
     0
  9
$DIMDEC
 70
     4
  9
$DIMTDEC
 70
     4
  9
$DIMALTU
 70
     2
  9
$DIMALTTD
 70
     2
  9
$DIMTXSTY
  7
STANDARD
  9
$DIMAUNIT
 70
     0
  9
$DIMADEC
 70
     0
  9
$DIMALTRND
 40
0.0
  9
$DIMAZIN
 70
     0
  9
$DIMDSEP
 70
    46
  9
$DIMATFIT
 70
     3
  9
$DIMFRAC
 70
     0
  9
$DIMLDRBLK
  1

  9
$DIMLUNIT
 70
     2
  9
$DIMLWD
 70
    -2
  9
$DIMLWE
 70
    -2
  9
$DIMTMOVE
 70
     0
  9
$LUNITS
 70
     2
  9
$LUPREC
 70
     4
  9
$SKETCHINC
 40
0.1
  9
$FILLETRAD
 40
0.0
  9
$AUNITS
 70
     0
  9
$AUPREC
 70
     0
  9
$MENU
  1
.
  9
$ELEVATION
 40
0.0
  9
$PELEVATION
 40
0.0
  9
$THICKNESS
 40
0.0
  9
$LIMCHECK
 70
     0
  9
$CHAMFERA
 40
0.0
  9
$CHAMFERB
 40
0.0
  9
$CHAMFERC
 40
0.0
  9
$CHAMFERD
 40
0.0
  9
$SKPOLY
 70
     0
  9
$TDCREATE
 40
2457205.617290092
  9
$TDUCREATE
 40
2457205.242290093
  9
$TDUPDATE
 40
2457499.590627546
  9
$TDUUPDATE
 40
2457499.215627546
  9
$TDINDWG
 40
0.0018054051
  9
$TDUSRTIMER
 40
0.0018054051
  9
$USRTIMER
 70
     1
  9
$ANGBASE
 50
0.0
  9
$ANGDIR
 70
     0
  9
$PDMODE
 70
     0
  9
$PDSIZE
 40
0.0
  9
$PLINEWID
 40
0.0
  9
$SPLFRAME
 70
     0
  9
$SPLINETYPE
 70
     6
  9
$SPLINESEGS
 70
     8
  9
$HANDSEED
  5
528
  9
$SURFTAB1
 70
     6
  9
$SURFTAB2
 70
     6
  9
$SURFTYPE
 70
     6
  9
$SURFU
 70
     6
  9
$SURFV
 70
     6
  9
$UCSBASE
  2

  9
$UCSNAME
  2

  9
$UCSORG
 10
0.0
 20
0.0
 30
0.0
  9
$UCSXDIR
 10
1.0
 20
0.0
 30
0.0
  9
$UCSYDIR
 10
0.0
 20
1.0
 30
0.0
  9
$UCSORTHOREF
  2

  9
$UCSORTHOVIEW
 70
     0
  9
$UCSORGTOP
 10
0.0
 20
0.0
 30
0.0
  9
$UCSORGBOTTOM
 10
0.0
 20
0.0
 30
0.0
  9
$UCSORGLEFT
 10
0.0
 20
0.0
 30
0.0
  9
$UCSORGRIGHT
 10
0.0
 20
0.0
 30
0.0
  9
$UCSORGFRONT
 10
0.0
 20
0.0
 30
0.0
  9
$UCSORGBACK
 10
0.0
 20
0.0
 30
0.0
  9
$PUCSBASE
  2

  9
$PUCSNAME
  2

  9
$PUCSORG
 10
0.0
 20
0.0
 30
0.0
  9
$PUCSXDIR
 10
1.0
 20
0.0
 30
0.0
  9
$PUCSYDIR
 10
0.0
 20
1.0
 30
0.0
  9
$PUCSORTHOREF
  2

  9
$PUCSORTHOVIEW
 70
     0
  9
$PUCSORGTOP
 10
0.0
 20
0.0
 30
0.0
  9
$PUCSORGBOTTOM
 10
0.0
 20
0.0
 30
0.0
  9
$PUCSORGLEFT
 10
0.0
 20
0.0
 30
0.0
  9
$PUCSORGRIGHT
 10
0.0
 20
0.0
 30
0.0
  9
$PUCSORGFRONT
 10
0.0
 20
0.0
 30
0.0
  9
$PUCSORGBACK
 10
0.0
 20
0.0
 30
0.0
  9
$USERI1
 70
     0
  9
$USERI2
 70
     0
  9
$USERI3
 70
     0
  9
$USERI4
 70
     0
  9
$USERI5
 70
     0
  9
$USERR1
 40
0.0
  9
$USERR2
 40
0.0
  9
$USERR3
 40
0.0
  9
$USERR4
 40
0.0
  9
$USERR5
 40
0.0
  9
$WORLDVIEW
 70
     1
  9
$SHADEDGE
 70
     3
  9
$SHADEDIF
 70
    70
  9
$TILEMODE
 70
     1
  9
$MAXACTVP
 70
    64
  9
$PINSBASE
 10
0.0
 20
0.0
 30
0.0
  9
$PLIMCHECK
 70
     0
  9
$PEXTMIN
 10
1.000000000000000E+20
 20
1.000000000000000E+20
 30
1.000000000000000E+20
  9
$PEXTMAX
 10
-1.000000000000000E+20
 20
-1.000000000000000E+20
 30
-1.000000000000000E+20
  9
$PLIMMIN
 10
0.0
 20
0.0
  9
$PLIMMAX
 10
12.0
 20
9.0
  9
$UNITMODE
 70
     0
  9
$VISRETAIN
 70
     1
  9
$PLINEGEN
 70
     0
  9
$PSLTSCALE
 70
     1
  9
$TREEDEPTH
 70
  3020
  9
$CMLSTYLE
  2
Standard
  9
$CMLJUST
 70
     0
  9
$CMLSCALE
 40
1.0
  9
$PROXYGRAPHICS
 70
     1
  9
$MEASUREMENT
 70
     0
  9
$CELWEIGHT
370
    -1
  9
$ENDCAPS
280
     0
  9
$JOINSTYLE
280
     0
  9
$LWDISPLAY
290
     0
  9
$INSUNITS
 70
     0
  9
$HYPERLINKBASE
  1

  9
$STYLESHEET
  1

  9
$XEDIT
290
     1
  9
$CEPSNTYPE
380
     0
  9
$PSTYLEMODE
290
     1
  9
$FINGERPRINTGUID
  2
{449BDB44-C233-4BAF-8486-768515408B2C}
  9
$VERSIONGUID
  2
{E8259A6A-BC92-49F7-BE0A-E4206A355FDE}
  9
$EXTNAMES
290
     1
  9
$PSVPSCALE
 40
0.0
  9
$OLESTARTUP
290
     0
  0
ENDSEC
  0
SECTION
  2
CLASSES
  0
CLASS
  1
ACDBDICTIONARYWDFLT
  2
AcDbDictionaryWithDefault
  3
ObjectDBX Classes
 90
        0
280
     0
281
     0
  0
CLASS
  1
MATERIAL
  2
AcDbMaterial
  3
ObjectDBX Classes
 90
     1153
280
     0
281
     0
  0
CLASS
  1
VISUALSTYLE
  2
AcDbVisualStyle
  3
ObjectDBX Classes
 90
     4095
280
     0
281
     0
  0
CLASS
  1
SCALE
  2
AcDbScale
  3
ObjectDBX Classes
 90
     1153
280
     0
281
     0
  0
CLASS
  1
TABLESTYLE
  2
AcDbTableStyle
  3
ObjectDBX Classes
 90
     4095
280
     0
281
     0
  0
CLASS
  1
MLEADERSTYLE
  2
AcDbMLeaderStyle
  3
ACDB_MLEADERSTYLE_CLASS
 90
     4095
280
     0
281
     0
  0
CLASS
  1
ACDBSECTIONVIEWSTYLE
  2
AcDbSectionViewStyle
  3
ObjectDBX Classes
 90
     1025
280
     0
281
     0
  0
CLASS
  1
ACDBDETAILVIEWSTYLE
  2
AcDbDetailViewStyle
  3
ObjectDBX Classes
 90
     1025
280
     0
281
     0
  0
CLASS
  1
DICTIONARYVAR
  2
AcDbDictionaryVar
  3
ObjectDBX Classes
 90
        0
280
     0
281
     0
  0
CLASS
  1
CELLSTYLEMAP
  2
AcDbCellStyleMap
  3
ObjectDBX Classes
 90
     1152
280
     0
281
     0
  0
CLASS
  1
ACDBPLACEHOLDER
  2
AcDbPlaceHolder
  3
ObjectDBX Classes
 90
        0
280
     0
281
     0
  0
CLASS
  1
LAYOUT
  2
AcDbLayout
  3
ObjectDBX Classes
 90
        0
280
     0
281
     0
  0
ENDSEC
  0
SECTION
  2
TABLES
  0
TABLE
  2
VPORT
  5
8
330
0
100
AcDbSymbolTable
 70
     1
  0
VPORT
  5
A1
330
8
100
AcDbSymbolTableRecord
100
AcDbViewportTableRecord
  2
*Active
 70
     0
 10
0.0
 20
0.0
 11
1.0
 21
1.0
 12
742.5000138308782
 22
525.0000097794092
 13
0.0
 23
0.0
 14
1.0
 24
1.0
 15
0.0
 25
0.0
 16
0.0
 26
0.0
 36
1.0
 17
0.0
 27
0.0
 37
0.0
 40
1058.883539770846
 41
1.78072625698324
 42
50.0
 43
0.0
 44
0.0
 50
0.0
 51
0.0
 71
     0
 72
   100
 73
     1
 74
     1
 75
     0
 76
     0
 77
     0
 78
     0
281
     0
 65
     1
110
0.0
120
0.0
130
0.0
111
1.0
121
0.0
131
0.0
112
0.0
122
1.0
132
0.0
 79
     0
146
0.0
1001
ACAD_NAV_VCDISPLAY
1070
     3
  0
ENDTAB
  0
TABLE
  2
LTYPE
  5
5
330
0
100
AcDbSymbolTable
 70
    35
  0
LTYPE
  5
5A
330
5
100
AcDbSymbolTableRecord
100
AcDbLinetypeTableRecord
  2
ByBlock
 70
     0
  3

 72
    65
 73
     0
 40
0.0
  0
LTYPE
  5
5B
330
5
100
AcDbSymbolTableRecord
100
AcDbLinetypeTableRecord
  2
ByLayer
 70
     0
  3

 72
    65
 73
     0
 40
0.0
  0
LTYPE
  5
5C
330
5
100
AcDbSymbolTableRecord
100
AcDbLinetypeTableRecord
  2
CONTINUOUS
 70
     0
  3
実線
 72
    65
 73
     0
 40
0.0
  0
LTYPE
  5
73
330
5
100
AcDbSymbolTableRecord
100
AcDbLinetypeTableRecord
  2
DASHED1
 70
     0
  3
--  --  --  --  --  --  --  --  
 72
    65
 73
     2
 40
2.5
 49
1.25
 74
     0
 49
-1.25
 74
     0
  0
LTYPE
  5
74
330
5
100
AcDbSymbolTableRecord
100
AcDbLinetypeTableRecord
  2
DASHED2
 70
     0
  3
----    ----    ----    ----    
 72
    65
 73
     2
 40
5.0
 49
2.5
 74
     0
 49
-2.5
 74
     0
  0
LTYPE
  5
75
330
5
100
AcDbSymbolTableRecord
100
AcDbLinetypeTableRecord
  2
DASHED3
 70
     0
  3
------  ------  ------  ------  
 72
    65
 73
     2
 40
5.0
 49
3.75
 74
     0
 49
-1.25
 74
     0
  0
LTYPE
  5
76
330
5
100
AcDbSymbolTableRecord
100
AcDbLinetypeTableRecord
  2
CENTER1
 70
     0
  3
----- - ----- - ----- - ----- - 
 72
    65
 73
     4
 40
10.0
 49
6.25
 74
     0
 49
-1.25
 74
     0
 49
1.25
 74
     0
 49
-1.25
 74
     0
  0
LTYPE
  5
77
330
5
100
AcDbSymbolTableRecord
100
AcDbLinetypeTableRecord
  2
CENTER2
 70
     0
  3
----------  --  ----------  --  
 72
    65
 73
     4
 40
20.0
 49
12.5
 74
     0
 49
-2.5
 74
     0
 49
2.5
 74
     0
 49
-2.5
 74
     0
  0
LTYPE
  5
78
330
5
100
AcDbSymbolTableRecord
100
AcDbLinetypeTableRecord
  2
PHANTOM1
 70
     0
  3
--- - - --- - - --- - - --- - - 
 72
    65
 73
     6
 40
10.0
 49
3.25
 74
     0
 49
-1.25
 74
     0
 49
1.25
 74
     0
 49
-1.25
 74
     0
 49
1.25
 74
     0
 49
-1.25
 74
     0
  0
LTYPE
  5
79
330
5
100
AcDbSymbolTableRecord
100
AcDbLinetypeTableRecord
  2
PHANTOM2
 70
     0
  3
--------  -  -  --------  -  -  
 72
    65
 73
     6
 40
20.0
 49
10.0
 74
     0
 49
-2.5
 74
     0
 49
1.25
 74
     0
 49
-2.5
 74
     0
 49
1.25
 74
     0
 49
-2.5
 74
     0
  0
LTYPE
  5
7A
330
5
100
AcDbSymbolTableRecord
100
AcDbLinetypeTableRecord
  2
DOT
 70
     0
  3
-   -   -   -   -   -   -   -   
 72
    65
 73
     2
 40
2.5
 49
0.625
 74
     0
 49
-1.875
 74
     0
  0
LTYPE
  5
7B
330
5
100
AcDbSymbolTableRecord
100
AcDbLinetypeTableRecord
  2
DUMMY
 70
     0
  3
ダミー
 72
    65
 73
     0
 40
0.0
  0
LTYPE
  5
7C
330
5
100
AcDbSymbolTableRecord
100
AcDbLinetypeTableRecord
  2
RAND1
 70
     0
  3
ランダム線1
 72
    65
 73
     4
 40
10.0
 49
1.0
 74
     0
 49
-2.0
 74
     0
 49
3.0
 74
     0
 49
-4.0
 74
     0
  0
LTYPE
  5
7D
330
5
100
AcDbSymbolTableRecord
100
AcDbLinetypeTableRecord
  2
RAND2
 70
     0
  3
ランダム線2
 72
    65
 73
     4
 40
14.0
 49
2.0
 74
     0
 49
-3.0
 74
     0
 49
4.0
 74
     0
 49
-5.0
 74
     0
  0
LTYPE
  5
7E
330
5
100
AcDbSymbolTableRecord
100
AcDbLinetypeTableRecord
  2
RAND3
 70
     0
  3
ランダム線3
 72
    65
 73
     4
 40
18.0
 49
3.0
 74
     0
 49
-4.0
 74
     0
 49
5.0
 74
     0
 49
-6.0
 74
     0
  0
LTYPE
  5
7F
330
5
100
AcDbSymbolTableRecord
100
AcDbLinetypeTableRecord
  2
RAND4
 70
     0
  3
ランダム線4
 72
    65
 73
     4
 40
22.0
 49
4.0
 74
     0
 49
-5.0
 74
     0
 49
6.0
 74
     0
 49
-7.0
 74
     0
  0
LTYPE
  5
80
330
5
100
AcDbSymbolTableRecord
100
AcDbLinetypeTableRecord
  2
RAND5
 70
     0
  3
ランダム線5
 72
    65
 73
     4
 40
26.0
 49
5.0
 74
     0
 49
-6.0
 74
     0
 49
7.0
 74
     0
 49
-8.0
 74
     0
  0
LTYPE
  5
81
330
5
100
AcDbSymbolTableRecord
100
AcDbLinetypeTableRecord
  2
LONG1
 70
     0
  3
----------  --  ----------  --  
 72
    65
 73
     4
 40
40.0
 49
32.5
 74
     0
 49
-2.5
 74
     0
 49
2.5
 74
     0
 49
-2.5
 74
     0
  0
LTYPE
  5
82
330
5
100
AcDbSymbolTableRecord
100
AcDbLinetypeTableRecord
  2
LONG2
 70
     0
  3
--------  -  -  --------  -  -  
 72
    65
 73
     6
 40
40.0
 49
30.0
 74
     0
 49
-2.5
 74
     0
 49
1.25
 74
     0
 49
-2.5
 74
     0
 49
1.25
 74
     0
 49
-2.5
 74
     0
  0
LTYPE
  5
83
330
5
100
AcDbSymbolTableRecord
100
AcDbLinetypeTableRecord
  2
LONG3
 70
     0
  3
+++++++++++++++..+++++++++++++++
 72
    65
 73
     2
 40
40.0
 49
37.5
 74
     0
 49
-2.5
 74
     0
  0
LTYPE
  5
84
330
5
100
AcDbSymbolTableRecord
100
AcDbLinetypeTableRecord
  2
LONG4
 70
     0
  3
+++++++++++++++..+++++++++++++++
 72
    65
 73
     2
 40
80.0
 49
75.0
 74
     0
 49
-5.0
 74
     0
  0
LTYPE
  5
85
330
5
100
AcDbSymbolTableRecord
100
AcDbLinetypeTableRecord
  2
LONG5
 70
     0
  3
----------  --  ----------  --  
 72
    65
 73
     4
 40
60.0
 49
37.5
 74
     0
 49
-7.5
 74
     0
 49
7.5
 74
     0
 49
-7.5
 74
     0
  0
LTYPE
  5
86
330
5
100
AcDbSymbolTableRecord
100
AcDbLinetypeTableRecord
  2
DASHED
 70
     0
  3
-------   -------------   ------
 72
    65
 73
     2
 40
7.5
 49
6.0
 74
     0
 49
-1.5
 74
     0
  0
LTYPE
  5
87
330
5
100
AcDbSymbolTableRecord
100
AcDbLinetypeTableRecord
  2
DASHED_SPACED
 70
     0
  3
----        --------        ----
 72
    65
 73
     2
 40
12.0
 49
6.0
 74
     0
 49
-6.0
 74
     0
  0
LTYPE
  5
88
330
5
100
AcDbSymbolTableRecord
100
AcDbLinetypeTableRecord
  2
LONG_DASHED_DOTTED
 70
     0
  3
------------- --- --------------
 72
    65
 73
     4
 40
15.25
 49
12.0
 74
     0
 49
-1.5
 74
     0
 49
0.25
 74
     0
 49
-1.5
 74
     0
  0
LTYPE
  5
89
330
5
100
AcDbSymbolTableRecord
100
AcDbLinetypeTableRecord
  2
LONG_DASHED_DOUBLE-DOTTED
 70
     0
  3
----------- --- --- ------------
 72
    65
 73
     6
 40
17.0
 49
12.0
 74
     0
 49
-1.5
 74
     0
 49
0.25
 74
     0
 49
-1.5
 74
     0
 49
0.25
 74
     0
 49
-1.5
 74
     0
  0
LTYPE
  5
8A
330
5
100
AcDbSymbolTableRecord
100
AcDbLinetypeTableRecord
  2
LONG_DASHED_TRIPLICATE-DOTTED
 70
     0
  3
--------- --- --- --- ----------
 72
    65
 73
     8
 40
18.75
 49
12.0
 74
     0
 49
-1.5
 74
     0
 49
0.25
 74
     0
 49
-1.5
 74
     0
 49
0.25
 74
     0
 49
-1.5
 74
     0
 49
0.25
 74
     0
 49
-1.5
 74
     0
  0
LTYPE
  5
8B
330
5
100
AcDbSymbolTableRecord
100
AcDbLinetypeTableRecord
  2
DOTTED
 70
     0
  3
   -       -       -       -    
 72
    65
 73
     2
 40
1.75
 49
0.25
 74
     0
 49
-1.5
 74
     0
  0
LTYPE
  5
8C
330
5
100
AcDbSymbolTableRecord
100
AcDbLinetypeTableRecord
  2
CHAIN
 70
     0
  3
-------------- -- --------------
 72
    65
 73
     4
 40
18.5
 49
12.0
 74
     0
 49
-1.5
 74
     0
 49
3.5
 74
     0
 49
-1.5
 74
     0
  0
LTYPE
  5
8D
330
5
100
AcDbSymbolTableRecord
100
AcDbLinetypeTableRecord
  2
CHAIN_DOUBLE_DASH
 70
     0
  3
------------ -- -- -------------
 72
    65
 73
     6
 40
23.5
 49
12.0
 74
     0
 49
-1.5
 74
     0
 49
3.5
 74
     0
 49
-1.5
 74
     0
 49
3.5
 74
     0
 49
-1.5
 74
     0
  0
LTYPE
  5
8E
330
5
100
AcDbSymbolTableRecord
100
AcDbLinetypeTableRecord
  2
DASHED_DOTTED
 70
     0
  3
-----------     -     ----------
 72
    65
 73
     4
 40
9.25
 49
6.0
 74
     0
 49
-1.5
 74
     0
 49
0.25
 74
     0
 49
-1.5
 74
     0
  0
LTYPE
  5
8F
330
5
100
AcDbSymbolTableRecord
100
AcDbLinetypeTableRecord
  2
DOUBLE-DASHED_DOTTED
 70
     0
  3
------   -----------   -   -----
 72
    65
 73
     6
 40
16.75
 49
6.0
 74
     0
 49
-1.5
 74
     0
 49
6.0
 74
     0
 49
-1.5
 74
     0
 49
0.25
 74
     0
 49
-1.5
 74
     0
  0
LTYPE
  5
90
330
5
100
AcDbSymbolTableRecord
100
AcDbLinetypeTableRecord
  2
DASHED_DOUBLE-DOTTED
 70
     0
  3
---------    -    -    ---------
 72
    65
 73
     6
 40
11.0
 49
6.0
 74
     0
 49
-1.5
 74
     0
 49
0.25
 74
     0
 49
-1.5
 74
     0
 49
0.25
 74
     0
 49
-1.5
 74
     0
  0
LTYPE
  5
91
330
5
100
AcDbSymbolTableRecord
100
AcDbLinetypeTableRecord
  2
DOUBLE-DASHED_DOUBLE-DOTTED
 70
     0
  3
-----   ---------   -   -   ----
 72
    65
 73
     8
 40
18.5
 49
6.0
 74
     0
 49
-1.5
 74
     0
 49
6.0
 74
     0
 49
-1.5
 74
     0
 49
0.25
 74
     0
 49
-1.5
 74
     0
 49
0.25
 74
     0
 49
-1.5
 74
     0
  0
LTYPE
  5
92
330
5
100
AcDbSymbolTableRecord
100
AcDbLinetypeTableRecord
  2
DASHED_TRIPLICATE-DOTTED
 70
     0
  3
-------    -    -    -    ------
 72
    65
 73
     8
 40
12.75
 49
6.0
 74
     0
 49
-1.5
 74
     0
 49
0.25
 74
     0
 49
-1.5
 74
     0
 49
0.25
 74
     0
 49
-1.5
 74
     0
 49
0.25
 74
     0
 49
-1.5
 74
     0
  0
LTYPE
  5
93
330
5
100
AcDbSymbolTableRecord
100
AcDbLinetypeTableRecord
  2
DOUBLE-DASHED_TRIPLICATE-DOTTED
 70
     0
  3
-----  ---------  -  -  -  -----
 72
    65
 73
    10
 40
20.25
 49
6.0
 74
     0
 49
-1.5
 74
     0
 49
6.0
 74
     0
 49
-1.5
 74
     0
 49
0.25
 74
     0
 49
-1.5
 74
     0
 49
0.25
 74
     0
 49
-1.5
 74
     0
 49
0.25
 74
     0
 49
-1.5
 74
     0
  0
LTYPE
  5
94
330
5
100
AcDbSymbolTableRecord
100
AcDbLinetypeTableRecord
  2
UNDEFINED
 70
     0
  3
--------------------------------
 72
    65
 73
     0
 40
0.0
  0
ENDTAB
  0
TABLE
  2
LAYER
  5
2
102
{ACAD_XDICTIONARY
360
465
102
}
330
0
100
AcDbSymbolTable
 70
    10
  0
LAYER
  5
54
102
{ACAD_XDICTIONARY
360
44E
102
}
330
2
100
AcDbSymbolTableRecord
100
AcDbLayerTableRecord
  2
0
 70
     0
 62
     7
  6
CONTINUOUS
370
    -3
390
F
  0
LAYER
  5
96
102
{ACAD_XDICTIONARY
360
450
102
}
330
2
100
AcDbSymbolTableRecord
100
AcDbLayerTableRecord
  2
_0-0_計極細
 70
     0
 62
     7
  6
CONTINUOUS
370
    -3
390
F
  0
LAYER
  5
97
102
{ACAD_XDICTIONARY
360
452
102
}
330
2
100
AcDbSymbolTableRecord
100
AcDbLayerTableRecord
  2
_0-1_計細線
 70
     0
 62
     7
  6
CONTINUOUS
370
    -3
390
F
  0
LAYER
  5
98
102
{ACAD_XDICTIONARY
360
454
102
}
330
2
100
AcDbSymbolTableRecord
100
AcDbLayerTableRecord
  2
_0-5_寸法線
 70
     0
 62
     7
  6
CONTINUOUS
370
    -3
390
F
  0
LAYER
  5
99
102
{ACAD_XDICTIONARY
360
456
102
}
330
2
100
AcDbSymbolTableRecord
100
AcDbLayerTableRecord
  2
_0-7_枠細線
 70
     0
 62
     7
  6
CONTINUOUS
370
    -3
390
F
  0
LAYER
  5
9A
102
{ACAD_XDICTIONARY
360
458
102
}
330
2
100
AcDbSymbolTableRecord
100
AcDbLayerTableRecord
  2
_0-8_枠中線
 70
     0
 62
     7
  6
CONTINUOUS
370
    -3
390
F
  0
LAYER
  5
9B
102
{ACAD_XDICTIONARY
360
45A
102
}
330
2
100
AcDbSymbolTableRecord
100
AcDbLayerTableRecord
  2
_1-2_極細2
 70
     0
 62
     7
  6
CONTINUOUS
370
    -3
390
F
  0
LAYER
  5
9C
102
{ACAD_XDICTIONARY
360
45C
102
}
330
2
100
AcDbSymbolTableRecord
100
AcDbLayerTableRecord
  2
_1-3_細線2
 70
     0
 62
     7
  6
CONTINUOUS
370
    -3
390
F
  0
LAYER
  5
9D
102
{ACAD_XDICTIONARY
360
45E
102
}
330
2
100
AcDbSymbolTableRecord
100
AcDbLayerTableRecord
  2
_1-5_寸法2
 70
     0
 62
     7
  6
CONTINUOUS
370
    -3
390
F
  0
LAYER
  5
9E
102
{ACAD_XDICTIONARY
360
460
102
}
330
2
100
AcDbSymbolTableRecord
100
AcDbLayerTableRecord
  2
ADD_LINE
 70
     0
 62
     7
  6
CONTINUOUS
370
    -3
390
F
  0
ENDTAB
  0
TABLE
  2
STYLE
  5
3
330
0
100
AcDbSymbolTable
 70
     3
  0
STYLE
  5
55
330
3
100
AcDbSymbolTableRecord
100
AcDbTextStyleTableRecord
  2
STANDARD
 70
     0
 40
0.0
 41
1.0
 50
0.0
 71
     0
 42
0.2
  3
txt
  4
bigfont.shx
  0
STYLE
  5
59
330
3
100
AcDbSymbolTableRecord
100
AcDbTextStyleTableRecord
  2
Annotative
 70
     0
 40
0.0
 41
1.0
 50
0.0
 71
     0
 42
0.2
  3
txt
  4

1001
AcadAnnotative
1000
AnnotativeData
1002
{
1070
     1
1070
     1
1002
}
  0
STYLE
  5
95
330
3
100
AcDbSymbolTableRecord
100
AcDbTextStyleTableRecord
  2
TATEGAKI
 70
     4
 40
0.0
 41
1.0
 50
0.0
 71
     0
 42
1.0
  3
txt
  4
bigfont.shx
  0
ENDTAB
  0
TABLE
  2
VIEW
  5
6
330
0
100
AcDbSymbolTable
 70
     0
  0
ENDTAB
  0
TABLE
  2
UCS
  5
7
330
0
100
AcDbSymbolTable
 70
     0
  0
ENDTAB
  0
TABLE
  2
APPID
  5
9
330
0
100
AcDbSymbolTable
 70
     4
  0
APPID
  5
56
330
9
100
AcDbSymbolTableRecord
100
AcDbRegAppTableRecord
  2
ACAD
 70
     0
  0
APPID
  5
5D
330
9
100
AcDbSymbolTableRecord
100
AcDbRegAppTableRecord
  2
AcadAnnotative
 70
     0
  0
APPID
  5
439
330
9
100
AcDbSymbolTableRecord
100
AcDbRegAppTableRecord
  2
ACAD_NAV_VCDISPLAY
 70
     0
  0
APPID
  5
521
330
9
100
AcDbSymbolTableRecord
100
AcDbRegAppTableRecord
  2
ACAD_MLEADERVER
 70
     0
  0
ENDTAB
  0
TABLE
  2
DIMSTYLE
  5
A
330
0
100
AcDbSymbolTable
 70
     2
100
AcDbDimStyleTable
 71
     0
  0
DIMSTYLE
105
57
330
A
100
AcDbSymbolTableRecord
100
AcDbDimStyleTableRecord
  2
Standard
 70
     0
340
55
  0
DIMSTYLE
105
58
330
A
100
AcDbSymbolTableRecord
100
AcDbDimStyleTableRecord
  2
Annotative
 70
     0
340
55
1001
AcadAnnotative
1000
AnnotativeData
1002
{
1070
     1
1070
     1
1002
}
  0
ENDTAB
  0
TABLE
  2
BLOCK_RECORD
  5
1
330
0
100
AcDbSymbolTable
 70
     0
  0
BLOCK_RECORD
  5
6F
330
1
100
AcDbSymbolTableRecord
100
AcDbBlockTableRecord
  2
*Model_Space
340
72
  0
BLOCK_RECORD
  5
6B
330
1
100
AcDbSymbolTableRecord
100
AcDbBlockTableRecord
  2
*Paper_Space
340
6E
  0
ENDTAB
  0
ENDSEC
  0
SECTION
  2
BLOCKS
  0
BLOCK
  5
70
330
6F
100
AcDbEntity
  8
0
100
AcDbBlockBegin
  2
*Model_Space
 70
     0
 10
0.0
 20
0.0
 30
0.0
  3
*Model_Space
  1

  0
ENDBLK
  5
71
330
6F
100
AcDbEntity
  8
0
100
AcDbBlockEnd
  0
BLOCK
  5
6C
330
6B
100
AcDbEntity
 67
     1
  8
0
100
AcDbBlockBegin
  2
*Paper_Space
 70
     0
 10
0.0
 20
0.0
 30
0.0
  3
*Paper_Space
  1

  0
ENDBLK
  5
6D
330
6B
100
AcDbEntity
 67
     1
  8
0
100
AcDbBlockEnd
  0
ENDSEC
  0
SECTION
  2
ENTITIES
  0
LINE
  5
A2
330
6F
100
AcDbEntity
  8
_0-7_枠細線
  6
Continuous
 62
     5
100
AcDbLine
 10
-0.0000000000002842
 20
-0.000000000000071
 30
0.0
 11
-0.0000000000002842
 21
1050.0
 31
0.0
  0
LINE
  5
A3
330
6F
100
AcDbEntity
  8
_0-8_枠中線
  6
Continuous
 62
     5
100
AcDbLine
 10
1425.0
 20
59.99999999999985
 30
0.0
 11
1425.0
 21
970.0000000000001
 31
0.0
  0
LINE
  5
A4
330
6F
100
AcDbEntity
  8
_0-8_枠中線
  6
Continuous
 62
     5
100
AcDbLine
 10
59.99999999999957
 20
59.99999999999985
 30
0.0
 11
59.99999999999972
 21
970.0000000000001
 31
0.0
  0
LINE
  5
A5
330
6F
100
AcDbEntity
  8
_0-8_枠中線
  6
Continuous
 62
     5
100
AcDbLine
 10
59.99999999999957
 20
59.99999999999964
 30
0.0
 11
1425.0
 21
59.99999999999985
 31
0.0
  0
LINE
  5
A6
330
6F
100
AcDbEntity
  8
_0-8_枠中線
  6
Continuous
 62
     5
100
AcDbLine
 10
59.99999999999972
 20
970.0000000000001
 30
0.0
 11
1425.0
 21
970.0000000000001
 31
0.0
  0
LINE
  5
A7
330
6F
100
AcDbEntity
  8
_0-7_枠細線
  6
Continuous
 62
     5
100
AcDbLine
 10
-0.0000000000002842
 20
0.0
 30
0.0
 11
1485.0
 21
0.0
 31
0.0
  0
LINE
  5
A8
330
6F
100
AcDbEntity
  8
_0-7_枠細線
  6
Continuous
 62
     5
100
AcDbLine
 10
-0.0000000000002842
 20
1050.0
 30
0.0
 11
1485.0
 21
1050.0
 31
0.0
  0
LINE
  5
A9
330
6F
100
AcDbEntity
  8
_0-7_枠細線
  6
Continuous
 62
     5
100
AcDbLine
 10
1425.0
 20
952.5000000000002
 30
0.0
 11
890.0
 21
952.5000000000002
 31
0.0
  0
TEXT
  5
AA
330
6F
100
AcDbEntity
  8
_0-7_枠細線
 62
     5
100
AcDbText
 10
895.0
 20
955.0
 30
0.0
 40
12.5
  1
記号
100
AcDbText
  0
TEXT
  5
AB
330
6F
100
AcDbEntity
  8
_0-7_枠細線
 62
     5
100
AcDbText
 10
996.875
 20
955.0
 30
0.0
 40
12.5
  1
訂　 正　 記　 事
100
AcDbText
  0
TEXT
  5
AC
330
6F
100
AcDbEntity
  8
_0-7_枠細線
 62
     5
100
AcDbText
 10
1181.25
 20
955.0
 30
0.0
 40
12.5
  1
訂 正 年 月 日
 41
0.9
100
AcDbText
  0
TEXT
  5
AD
330
6F
100
AcDbEntity
  8
_0-7_枠細線
 62
     5
100
AcDbText
 10
1306.25
 20
955.0
 30
0.0
 40
12.5
  1
備　　　　　考
100
AcDbText
  0
LINE
  5
AE
330
6F
100
AcDbEntity
  8
_0-7_枠細線
  6
Continuous
 62
     5
100
AcDbLine
 10
1185.0
 20
180.0
 30
0.0
 11
1185.0
 21
99.99999999999985
 31
0.0
  0
TEXT
  5
AF
330
6F
100
AcDbEntity
  8
_0-7_枠細線
 62
     5
100
AcDbText
 10
937.5
 20
97.49999999999985
 30
0.0
 40
17.50000000000001
  1
備考
  7
TATEGAKI
100
AcDbText
  0
TEXT
  5
B0
330
6F
100
AcDbEntity
  8
_0-7_枠細線
 62
     5
100
AcDbText
 10
937.5
 20
137.5
 30
0.0
 40
17.50000000000001
  1
品番
  7
TATEGAKI
100
AcDbText
  0
TEXT
  5
B1
330
6F
100
AcDbEntity
  8
_0-7_枠細線
 62
     5
100
AcDbText
 10
937.5
 20
177.5
 30
0.0
 40
17.50000000000001
  1
品名
  7
TATEGAKI
100
AcDbText
  0
LINE
  5
B2
330
6F
100
AcDbEntity
  8
_0-7_枠細線
  6
Continuous
 62
     5
100
AcDbLine
 10
1185.0
 20
140.0
 30
0.0
 11
925.0
 21
140.0
 31
0.0
  0
LINE
  5
B3
330
6F
100
AcDbEntity
  8
_0-7_枠細線
  6
Continuous
 62
     5
100
AcDbLine
 10
950.0
 20
180.0
 30
0.0
 11
950.0
 21
59.99999999999985
 31
0.0
  0
LINE
  5
B4
330
6F
100
AcDbEntity
  8
_0-8_枠中線
  6
Continuous
 62
     5
100
AcDbLine
 10
1425.0
 20
180.0
 30
0.0
 11
925.0
 21
180.0
 31
0.0
  0
LINE
  5
B5
330
6F
100
AcDbEntity
  8
_0-8_枠中線
  6
Continuous
 62
     5
100
AcDbLine
 10
925.0
 20
180.0
 30
0.0
 11
925.0
 21
59.99999999999985
 31
0.0
  0
LINE
  5
B6
330
6F
100
AcDbEntity
  8
_0-7_枠細線
  6
Continuous
 62
     5
100
AcDbLine
 10
1245.0
 20
180.0
 30
0.0
 11
1245.0
 21
59.99999999999985
 31
0.0
  0
TEXT
  5
B7
330
6F
100
AcDbEntity
  8
_0-7_枠細線
 62
     5
100
AcDbText
 10
1192.5
 20
160.0
 30
0.0
 40
15.00000000000001
  1
縮　尺
100
AcDbText
  0
LINE
  5
B8
330
6F
100
AcDbEntity
  8
_0-7_枠細線
  6
Continuous
 62
     5
100
AcDbLine
 10
1185.0
 20
155.0
 30
0.0
 11
1245.0
 21
155.0
 31
0.0
  0
LINE
  5
B9
330
6F
100
AcDbEntity
  8
_0-7_枠細線
  6
Continuous
 62
     5
100
AcDbLine
 10
1245.0
 20
99.99999999999985
 30
0.0
 11
925.0
 21
99.99999999999985
 31
0.0
  0
LINE
  5
BA
330
6F
100
AcDbEntity
  8
_0-7_枠細線
  6
Continuous
 62
     5
100
AcDbLine
 10
1425.0
 20
89.99999999999987
 30
0.0
 11
1245.0
 21
89.99999999999987
 31
0.0
  0
LINE
  5
BB
330
6F
100
AcDbEntity
  8
_0-7_枠細線
  6
Continuous
 62
     5
100
AcDbLine
 10
1245.0
 20
119.9999999999999
 30
0.0
 11
1425.0
 21
119.9999999999999
 31
0.0
  0
LINE
  5
BC
330
6F
100
AcDbEntity
  8
_0-7_枠細線
  6
Continuous
 62
     5
100
AcDbLine
 10
1425.0
 20
140.0
 30
0.0
 11
1245.0
 21
140.0
 31
0.0
  0
TEXT
  5
BD
330
6F
100
AcDbEntity
  8
_0-7_枠細線
 62
     5
100
AcDbText
 10
1255.0
 20
147.5
 30
0.0
 40
25.0
  1
株式会社シマブン
 41
0.7
100
AcDbText
  0
TEXT
  5
BE
330
6F
100
AcDbEntity
  8
_0-7_枠細線
 62
     5
100
AcDbText
 10
1252.5
 20
59.99999999999985
 30
0.0
 40
15.00000000000001
  1
年月日
100
AcDbText
  0
TEXT
  5
BF
330
6F
100
AcDbEntity
  8
_0-7_枠細線
 62
     5
100
AcDbText
 10
1252.5
 20
74.99999999999987
 30
0.0
 40
15.00000000000001
  1
作　成
100
AcDbText
  0
TEXT
  5
C0
330
6F
100
AcDbEntity
  8
_0-7_枠細線
 62
     5
100
AcDbText
 10
1256.25
 20
122.4999999999998
 30
0.0
 40
15.00000000000001
  1
承 認
100
AcDbText
  0
LINE
  5
C1
330
6F
100
AcDbEntity
  8
_0-7_枠細線
  6
Continuous
 62
     5
100
AcDbLine
 10
1305.0
 20
140.0
 30
0.0
 11
1305.0
 21
59.99999999999985
 31
0.0
  0
TEXT
  5
C2
330
6F
100
AcDbEntity
  8
_0-7_枠細線
 62
     5
100
AcDbText
 10
1316.25
 20
122.4999999999998
 30
0.0
 40
15.00000000000001
  1
検 図
100
AcDbText
  0
LINE
  5
C3
330
6F
100
AcDbEntity
  8
_0-7_枠細線
  6
Continuous
 62
     5
100
AcDbLine
 10
1365.0
 20
140.0
 30
0.0
 11
1365.0
 21
89.99999999999987
 31
0.0
  0
TEXT
  5
C4
330
6F
100
AcDbEntity
  8
_0-7_枠細線
 62
     5
100
AcDbText
 10
1376.25
 20
122.4999999999998
 30
0.0
 40
15.00000000000001
  1
設 計
100
AcDbText
  0
TEXT
  5
C5
330
6F
100
AcDbEntity
  8
_0-7_枠細線
 62
     5
100
AcDbText
 10
1194.0
 20
117.4999999999998
 30
0.0
 40
20.00000000000001
  1
１：５
 41
0.6999999999999999
100
AcDbText
  0
LINE
  5
C6
330
6F
100
AcDbEntity
  8
_0-7_枠細線
  6
Continuous
 62
     5
100
AcDbLine
 10
1485.000000000001
 20
-0.000000000000071
 30
0.0
 11
1485.000000000001
 21
1050.0
 31
0.0
  0
LINE
  5
C7
330
6F
100
AcDbEntity
  8
_0-7_枠細線
  6
Continuous
 62
     5
100
AcDbLine
 10
-0.0000000000002842
 20
1050.0
 30
0.0
 11
1485.0
 21
1050.0
 31
0.0
  0
LINE
  5
C8
330
6F
100
AcDbEntity
  8
_0-7_枠細線
  6
Continuous
 62
     5
100
AcDbLine
 10
1425.0
 20
935.0000000000001
 30
0.0
 11
890.0
 21
935.0000000000001
 31
0.0
  0
LINE
  5
C9
330
6F
100
AcDbEntity
  8
_0-7_枠細線
  6
Continuous
 62
     5
100
AcDbLine
 10
890.0
 20
935.0000000000001
 30
0.0
 11
890.0
 21
969.9999999999993
 31
0.0
  0
LINE
  5
CA
330
6F
100
AcDbEntity
  8
_0-7_枠細線
  6
Continuous
 62
     5
100
AcDbLine
 10
925.0
 20
935.0000000000001
 30
0.0
 11
925.0
 21
969.9999999999997
 31
0.0
  0
LINE
  5
CB
330
6F
100
AcDbEntity
  8
_0-7_枠細線
  6
Continuous
 62
     5
100
AcDbLine
 10
1175.0
 20
935.0000000000001
 30
0.0
 11
1175.0
 21
969.9999999999997
 31
0.0
  0
LINE
  5
CC
330
6F
100
AcDbEntity
  8
_0-7_枠細線
  6
Continuous
 62
     5
100
AcDbLine
 10
1275.0
 20
935.0000000000001
 30
0.0
 11
1275.0
 21
969.9999999999997
 31
0.0
  0
TEXT
  5
CD
330
6F
100
AcDbEntity
  8
_0-7_枠細線
 62
     5
100
AcDbText
 10
793.4115529758381
 20
411.0358911806494
 30
0.0
 40
20.0
  1
Ａ－Ａ\U+2019断面図
 41
0.8
100
AcDbText
  0
TEXT
  5
CE
330
6F
100
AcDbEntity
  8
_0-7_枠細線
 62
     5
100
AcDbText
 10
919.1835975984396
 20
411.0358911806494
 30
0.0
 40
20.0
  1
Ｓ＝１：２
 41
0.6000000000000002
100
AcDbText
  0
LINE
  5
CF
330
6F
100
AcDbEntity
  8
_0-7_枠細線
  6
Continuous
 62
     5
100
AcDbLine
 10
875.0
 20
177.4999999999992
 30
0.0
 11
875.0
 21
72.49999999999978
 31
0.0
  0
TEXT
  5
D0
330
6F
100
AcDbEntity
  8
_0-7_枠細線
 62
     5
100
AcDbText
 10
784.000000000001
 20
157.4999999999992
 30
0.0
 40
15.0
  1
ノンスリップ
 41
0.8
100
AcDbText
  0
LINE
  5
D1
330
6F
100
AcDbEntity
  8
_0-7_枠細線
  6
Continuous
 62
     5
100
AcDbLine
 10
774.9277083378398
 20
104.7527716502409
 30
0.0
 11
869.8081949950191
 21
104.7527716502409
 31
0.0
  0
LINE
  5
D2
330
6F
100
AcDbEntity
  8
_0-7_枠細線
  6
Continuous
 62
     5
100
AcDbLine
 10
771.1925150048796
 20
121.4194383152409
 30
0.0
 11
866.073001662059
 21
121.4194383152409
 31
0.0
  0
ARC
  5
D3
330
6F
100
AcDbEntity
  8
_0-7_枠細線
  6
Continuous
 62
     5
100
AcDbCircle
 10
785.8333333367495
 20
109.7527716497408
 30
0.0
 40
3.333333333
100
AcDbArc
 50
51.3178130000056
 51
203.5781780000021
  0
ARC
  5
D4
330
6F
100
AcDbEntity
  8
_0-7_枠細線
  6
Continuous
 62
     5
100
AcDbCircle
 10
790.0000000029994
 20
114.9569366492205
 30
0.0
 40
3.333333333
100
AcDbArc
 50
231.3178130000016
 51
308.6821869999977
  0
LINE
  5
D5
330
6F
100
AcDbEntity
  8
_0-7_枠細線
  6
Continuous
 62
     5
100
AcDbLine
 10
782.7782833370553
 20
108.4194383165409
 30
0.0
 11
797.2217166689439
 21
108.4194383165409
 31
0.0
  0
ARC
  5
D6
330
6F
100
AcDbEntity
  8
_0-7_枠細線
  6
Continuous
 62
     5
100
AcDbCircle
 10
794.1666666692496
 20
109.7527716497408
 30
0.0
 40
3.333333333
100
AcDbArc
 50
336.4218219999948
 51
128.6821869999986
  0
ARC
  5
D7
330
6F
100
AcDbEntity
  8
_0-7_枠細線
  6
Continuous
 62
     5
100
AcDbCircle
 10
815.8333333337496
 20
116.4194383157409
 30
0.0
 40
3.333333333
100
AcDbArc
 50
156.4218219999974
 51
308.6821869999925
  0
ARC
  5
D8
330
6F
100
AcDbEntity
  8
_0-7_枠細線
  6
Continuous
 62
     5
100
AcDbCircle
 10
819.9999999999993
 20
111.2152733162612
 30
0.0
 40
3.333333333
100
AcDbArc
 50
51.3178130000065
 51
128.6821869999965
  0
ARC
  5
D9
330
6F
100
AcDbEntity
  8
_0-7_枠細線
  6
Continuous
 62
     5
100
AcDbCircle
 10
824.1666666662498
 20
116.4194383157409
 30
0.0
 40
3.333333333
100
AcDbArc
 50
231.3178129999961
 51
23.57817800000454
  0
LINE
  5
DA
330
6F
100
AcDbEntity
  8
_0-7_枠細線
  6
Continuous
 62
     5
100
AcDbLine
 10
812.7782833340553
 20
117.7527716489408
 30
0.0
 11
827.2217166659435
 21
117.7527716489408
 31
0.0
  0
LINE
  5
DB
330
6F
100
AcDbEntity
  8
_0-7_枠細線
  6
Continuous
 62
     5
100
AcDbLine
 10
842.7782833310553
 20
108.4194383165409
 30
0.0
 11
857.2217166629435
 21
108.4194383165409
 31
0.0
  0
ARC
  5
DC
330
6F
100
AcDbEntity
  8
_0-7_枠細線
  6
Continuous
 62
     5
100
AcDbCircle
 10
845.8333333307496
 20
109.7527716497408
 30
0.0
 40
3.333333333
100
AcDbArc
 50
51.31781300000711
 51
203.5781780000021
  0
ARC
  5
DD
330
6F
100
AcDbEntity
  8
_0-7_枠細線
  6
Continuous
 62
     5
100
AcDbCircle
 10
849.9999999969992
 20
114.9569366492205
 30
0.0
 40
3.333333333
100
AcDbArc
 50
231.3178130000031
 51
308.6821869999977
  0
ARC
  5
DE
330
6F
100
AcDbEntity
  8
_0-7_枠細線
  6
Continuous
 62
     5
100
AcDbCircle
 10
854.1666666632496
 20
109.7527716497408
 30
0.0
 40
3.333333333
100
AcDbArc
 50
336.4218219999948
 51
128.6821869999971
  0
ARC
  5
DF
330
6F
100
AcDbEntity
  8
_0-7_枠細線
  6
Continuous
 62
     5
100
AcDbCircle
 10
815.8333333337496
 20
116.4194383157409
 30
0.0
 40
6.216666666045029
100
AcDbArc
 50
151.1463679999964
 51
308.6821870000033
  0
LINE
  5
E0
330
6F
100
AcDbEntity
  8
_0-7_枠細線
  6
Continuous
 62
     5
100
AcDbLine
 10
770.8262450049167
 20
119.4194383154409
 30
0.0
 11
810.388433334293
 21
119.4194383154409
 31
0.0
  0
LINE
  5
E1
330
6F
100
AcDbEntity
  8
_0-7_枠細線
  6
Continuous
 62
     5
100
AcDbLine
 10
799.6115683353714
 20
106.752771650041
 30
0.0
 11
840.3884333312946
 21
106.752771650041
 31
0.0
  0
ARC
  5
E2
330
6F
100
AcDbEntity
  8
_0-7_枠細線
  6
Continuous
 62
     5
100
AcDbCircle
 10
766.7203983386606
 20
107.2893599833204
 30
0.0
 40
8.590356665807576
100
AcDbArc
 50
317.5616289999997
 51
42.43837100000209
  0
ARC
  5
E3
330
6F
100
AcDbEntity
  8
_0-7_枠細線
  6
Continuous
 62
     5
100
AcDbCircle
 10
785.8333333367495
 20
109.7527716497408
 30
0.0
 40
6.216666666045029
100
AcDbArc
 50
51.31781299999307
 51
208.8536319999972
  0
ARC
  5
E4
330
6F
100
AcDbEntity
  8
_0-7_枠細線
  6
Continuous
 62
     5
100
AcDbCircle
 10
779.3998266707257
 20
118.8828499821613
 30
0.0
 40
8.590356665807576
100
AcDbArc
 50
137.561629
 51
222.438371000001
  0
LINE
  5
E5
330
6F
100
AcDbEntity
  8
_0-7_枠細線
  6
Continuous
 62
     5
100
AcDbLine
 10
775.2939800044697
 20
106.752771650041
 30
0.0
 11
780.3884333372935
 21
106.752771650041
 31
0.0
  0
ARC
  5
E6
330
6F
100
AcDbEntity
  8
_0-7_枠細線
  6
Continuous
 62
     5
100
AcDbCircle
 10
790.0000000029994
 20
114.9569366492205
 30
0.0
 40
0.4499999999549697
100
AcDbArc
 50
231.3178130000302
 51
308.682187000003
  0
ARC
  5
E7
330
6F
100
AcDbEntity
  8
_0-7_枠細線
  6
Continuous
 62
     5
100
AcDbCircle
 10
794.1666666692496
 20
109.7527716497408
 30
0.0
 40
6.216666666045029
100
AcDbArc
 50
331.1463680000006
 51
128.6821870000066
  0
ARC
  5
E8
330
6F
100
AcDbEntity
  8
_0-7_枠細線
  6
Continuous
 62
     5
100
AcDbCircle
 10
861.6008849958404
 20
107.2893599833204
 30
0.0
 40
8.590356665807576
100
AcDbArc
 50
317.5616289999981
 51
42.43837100000209
  0
ARC
  5
E9
330
6F
100
AcDbEntity
  8
_0-7_枠細線
  6
Continuous
 62
     5
100
AcDbCircle
 10
874.2803133279052
 20
118.8828499821613
 30
0.0
 40
8.590356665807576
100
AcDbArc
 50
137.561629000002
 51
222.438371000001
  0
LINE
  5
EA
330
6F
100
AcDbEntity
  8
_0-7_枠細線
  6
Continuous
 62
     5
100
AcDbLine
 10
859.6115683293716
 20
106.752771650041
 30
0.0
 11
870.1744666616493
 21
106.752771650041
 31
0.0
  0
LINE
  5
EB
330
6F
100
AcDbEntity
  8
_0-7_枠細線
  6
Continuous
 62
     5
100
AcDbLine
 10
829.6115683323716
 20
119.4194383154409
 30
0.0
 11
865.7067316620965
 21
119.4194383154409
 31
0.0
  0
ARC
  5
EC
330
6F
100
AcDbEntity
  8
_0-7_枠細線
  6
Continuous
 62
     5
100
AcDbCircle
 10
845.8333333307496
 20
109.7527716497408
 30
0.0
 40
6.216666666045029
100
AcDbArc
 50
51.31781299999389
 51
208.8536320000048
  0
ARC
  5
ED
330
6F
100
AcDbEntity
  8
_0-7_枠細線
  6
Continuous
 62
     5
100
AcDbCircle
 10
819.9999999999993
 20
111.2152733162612
 30
0.0
 40
0.4499999999549697
100
AcDbArc
 50
51.3178130000305
 51
128.6821870000034
  0
ARC
  5
EE
330
6F
100
AcDbEntity
  8
_0-7_枠細線
  6
Continuous
 62
     5
100
AcDbCircle
 10
824.1666666662498
 20
116.4194383157409
 30
0.0
 40
6.216666666045029
100
AcDbArc
 50
231.3178129999903
 51
28.85363199999791
  0
ARC
  5
EF
330
6F
100
AcDbEntity
  8
_0-7_枠細線
  6
Continuous
 62
     5
100
AcDbCircle
 10
849.9999999969992
 20
114.9569366492205
 30
0.0
 40
0.4499999999549697
100
AcDbArc
 50
231.3178130000302
 51
308.6821870000144
  0
ARC
  5
F0
330
6F
100
AcDbEntity
  8
_0-7_枠細線
  6
Continuous
 62
     5
100
AcDbCircle
 10
854.1666666632496
 20
109.7527716497408
 30
0.0
 40
6.216666666045029
100
AcDbArc
 50
331.1463680000006
 51
128.6821870000058
  0
LINE
  5
F1
330
6F
100
AcDbEntity
  8
_0-7_枠細線
  6
CENTER1
 62
     5
100
AcDbLine
 10
790.0000000029994
 20
122.819226648434
 30
0.0
 11
790.0000000029994
 21
103.4710783170357
 31
0.0
  0
LINE
  5
F2
330
6F
100
AcDbEntity
  8
_0-7_枠細線
  6
CENTER1
 62
     5
100
AcDbLine
 10
849.9999999969992
 20
122.819226648434
 30
0.0
 11
849.9999999969992
 21
103.4710783170357
 31
0.0
  0
LINE
  5
F3
330
6F
100
AcDbEntity
  8
_0-7_枠細線
  6
CENTER1
 62
     5
100
AcDbLine
 10
819.9999999999993
 20
122.819226648434
 30
0.0
 11
819.9999999999993
 21
103.4710783170357
 31
0.0
  0
LINE
  5
F4
330
6F
100
AcDbEntity
  8
_0-7_枠細線
  6
Continuous
 62
     5
100
AcDbLine
 10
790.0000000029994
 20
99.75277165024099
 30
0.0
 11
790.0000000029994
 21
74.75277165024095
 31
0.0
  0
LINE
  5
F5
330
6F
100
AcDbEntity
  8
_0-7_枠細線
  6
Continuous
 62
     5
100
AcDbLine
 10
790.0000000029994
 20
79.75277165024095
 30
0.0
 11
799.65925826589
 21
82.34096210126613
 31
0.0
  0
LINE
  5
F6
330
6F
100
AcDbEntity
  8
_0-7_枠細線
  6
Continuous
 62
     5
100
AcDbLine
 10
790.0000000029994
 20
79.75277165024095
 30
0.0
 11
799.65925826589
 21
77.16458119921576
 31
0.0
  0
LINE
  5
F7
330
6F
100
AcDbEntity
  8
_0-7_枠細線
  6
Continuous
 62
     5
100
AcDbLine
 10
819.9999999999993
 20
99.75277165024099
 30
0.0
 11
819.9999999999993
 21
74.75277165024095
 31
0.0
  0
LINE
  5
F8
330
6F
100
AcDbEntity
  8
_0-7_枠細線
  6
Continuous
 62
     5
100
AcDbLine
 10
819.9999999999993
 20
79.75277165024095
 30
0.0
 11
810.3407417371087
 21
77.16458119921576
 31
0.0
  0
LINE
  5
F9
330
6F
100
AcDbEntity
  8
_0-7_枠細線
  6
Continuous
 62
     5
100
AcDbLine
 10
819.9999999999993
 20
79.75277165024095
 30
0.0
 11
810.3407417371087
 21
82.34096210126613
 31
0.0
  0
LINE
  5
FA
330
6F
100
AcDbEntity
  8
_0-7_枠細線
  6
Continuous
 62
     5
100
AcDbLine
 10
790.0000000029994
 20
79.75277165024095
 30
0.0
 11
819.9999999999993
 21
79.75277165024095
 31
0.0
  0
TEXT
  5
FB
330
6F
100
AcDbEntity
  8
_0-7_枠細線
 62
     5
100
AcDbText
 10
797.5000000014995
 20
79.75277165024095
 30
0.0
 40
15.0
  1
18
100
AcDbText
  0
LINE
  5
FC
330
6F
100
AcDbEntity
  8
_0-7_枠細線
  6
Continuous
 62
     5
100
AcDbLine
 10
819.9999999999993
 20
79.75277165024095
 30
0.0
 11
829.6592582628903
 21
82.34096210126606
 31
0.0
  0
LINE
  5
FD
330
6F
100
AcDbEntity
  8
_0-7_枠細線
  6
Continuous
 62
     5
100
AcDbLine
 10
819.9999999999993
 20
79.75277165024095
 30
0.0
 11
829.6592582628903
 21
77.1645811992157
 31
0.0
  0
LINE
  5
FE
330
6F
100
AcDbEntity
  8
_0-7_枠細線
  6
Continuous
 62
     5
100
AcDbLine
 10
849.9999999969992
 20
99.75277165024099
 30
0.0
 11
849.9999999969992
 21
74.75277165024095
 31
0.0
  0
LINE
  5
FF
330
6F
100
AcDbEntity
  8
_0-7_枠細線
  6
Continuous
 62
     5
100
AcDbLine
 10
849.9999999969992
 20
79.75277165024095
 30
0.0
 11
840.3407417341085
 21
77.16458119921576
 31
0.0
  0
LINE
  5
100
330
6F
100
AcDbEntity
  8
_0-7_枠細線
  6
Continuous
 62
     5
100
AcDbLine
 10
849.9999999969992
 20
79.75277165024095
 30
0.0
 11
840.3407417341085
 21
82.34096210126613
 31
0.0
  0
LINE
  5
101
330
6F
100
AcDbEntity
  8
_0-7_枠細線
  6
Continuous
 62
     5
100
AcDbLine
 10
819.9999999999993
 20
79.75277165024095
 30
0.0
 11
849.9999999969992
 21
79.75277165024095
 31
0.0
  0
TEXT
  5
102
330
6F
100
AcDbEntity
  8
_0-7_枠細線
 62
     5
100
AcDbText
 10
827.4999999984995
 20
79.75277165024095
 30
0.0
 40
15.0
  1
18
100
AcDbText
  0
TEXT
  5
103
330
6F
100
AcDbEntity
  8
_0-7_枠細線
 62
     5
100
AcDbText
 10
796.0000000000003
 20
132.4999999999994
 30
0.0
 40
15.0
  1
品番－Ｄ
 41
0.8
100
AcDbText
  0
LINE
  5
104
330
6F
100
AcDbEntity
  8
_0-7_枠細線
  6
Continuous
 62
     5
100
AcDbLine
 10
765.0
 20
177.4999999999992
 30
0.0
 11
765.0
 21
72.49999999999978
 31
0.0
  0
TEXT
  5
105
330
6F
100
AcDbEntity
  8
_0-7_枠細線
 62
     5
100
AcDbText
 10
685.9999999999996
 20
157.4999999999994
 30
0.0
 40
15.0
  1
プレーン
 41
0.8
100
AcDbText
  0
LINE
  5
106
330
6F
100
AcDbEntity
  8
_0-7_枠細線
  6
Continuous
 62
     5
100
AcDbLine
 10
664.427352504556
 20
104.7527716502409
 30
0.0
 11
759.3078391617358
 21
104.7527716502409
 31
0.0
  0
LINE
  5
107
330
6F
100
AcDbEntity
  8
_0-7_枠細線
  6
Continuous
 62
     5
100
AcDbLine
 10
660.6921591715961
 20
121.4194383152409
 30
0.0
 11
755.5726458287759
 21
121.4194383152409
 31
0.0
  0
ARC
  5
108
330
6F
100
AcDbEntity
  8
_0-7_枠細線
  6
Continuous
 62
     5
100
AcDbCircle
 10
751.1005291625555
 20
107.2893599833204
 30
0.0
 40
8.590356665807576
100
AcDbArc
 50
317.5616290000054
 51
42.43837099999521
  0
ARC
  5
109
330
6F
100
AcDbEntity
  8
_0-7_枠細線
  6
Continuous
 62
     5
100
AcDbCircle
 10
656.2200425053776
 20
107.2893599833204
 30
0.0
 40
8.590356665807671
100
AcDbArc
 50
317.5616289999993
 51
42.43837100000148
  0
LINE
  5
10A
330
6F
100
AcDbEntity
  8
_0-7_枠細線
  6
Continuous
 62
     5
100
AcDbLine
 10
660.3258891716336
 20
119.4194383154409
 30
0.0
 11
755.206375828813
 21
119.4194383154409
 31
0.0
  0
LINE
  5
10B
330
6F
100
AcDbEntity
  8
_0-7_枠細線
  6
Continuous
 62
     5
100
AcDbLine
 10
664.7936241711865
 20
106.752771650041
 30
0.0
 11
759.6741108283658
 21
106.752771650041
 31
0.0
  0
ARC
  5
10C
330
6F
100
AcDbEntity
  8
_0-7_枠細線
  6
Continuous
 62
     5
100
AcDbCircle
 10
668.8994708374435
 20
118.8828499821613
 30
0.0
 40
8.590356665807671
100
AcDbArc
 50
137.5616289999995
 51
222.438371000003
  0
ARC
  5
10D
330
6F
100
AcDbEntity
  8
_0-7_枠細線
  6
Continuous
 62
     5
100
AcDbCircle
 10
763.7799574946217
 20
118.8828499821613
 30
0.0
 40
8.590356665807576
100
AcDbArc
 50
137.561629
 51
222.4383710000026
  0
TEXT
  5
10E
330
6F
100
AcDbEntity
  8
_0-7_枠細線
 62
     5
100
AcDbText
 10
686.0000000000003
 20
132.4999999999994
 30
0.0
 40
15.0
  1
品番－Ｆ
 41
0.8
100
AcDbText
  0
TEXT
  5
10F
330
6F
100
AcDbEntity
  8
_0-7_枠細線
 62
     5
100
AcDbText
 10
606.0
 20
157.4999999999992
 30
0.0
 40
15.0
  1
タ イ プ
 41
0.7
100
AcDbText
  0
LINE
  5
110
330
6F
100
AcDbEntity
  8
_0-7_枠細線
  6
Continuous
 62
     5
100
AcDbLine
 10
604.9999999999991
 20
127.4999999999994
 30
0.0
 11
875.0
 21
127.4999999999994
 31
0.0
  0
LINE
  5
111
330
6F
100
AcDbEntity
  8
_0-7_枠細線
  6
Continuous
 62
     5
100
AcDbLine
 10
604.9999999999991
 20
152.4999999999992
 30
0.0
 11
875.0
 21
152.4999999999992
 31
0.0
  0
LINE
  5
112
330
6F
100
AcDbEntity
  8
_0-7_枠細線
  6
Continuous
 62
     5
100
AcDbLine
 10
604.9999999999991
 20
177.4999999999992
 30
0.0
 11
875.0
 21
177.4999999999992
 31
0.0
  0
LINE
  5
113
330
6F
100
AcDbEntity
  8
_0-7_枠細線
  6
Continuous
 62
     5
100
AcDbLine
 10
604.9999999999991
 20
72.49999999999978
 30
0.0
 11
875.0
 21
72.49999999999978
 31
0.0
  0
LINE
  5
114
330
6F
100
AcDbEntity
  8
_0-7_枠細線
  6
Continuous
 62
     5
100
AcDbLine
 10
655.0
 20
177.4999999999992
 30
0.0
 11
655.0
 21
72.49999999999978
 31
0.0
  0
LINE
  5
115
330
6F
100
AcDbEntity
  8
_0-7_枠細線
  6
Continuous
 62
     5
100
AcDbLine
 10
604.9999999999991
 20
177.4999999999992
 30
0.0
 11
604.9999999999991
 21
72.49999999999978
 31
0.0
  0
TEXT
  5
116
330
6F
100
AcDbEntity
  8
_0-7_枠細線
 62
     5
100
AcDbText
 10
606.0
 20
92.49999999999955
 30
0.0
 40
15.0
  1
表面形状
 41
0.7
100
AcDbText
  0
TEXT
  5
117
330
6F
100
AcDbEntity
  8
_0-7_枠細線
 62
     5
100
AcDbText
 10
612.7742113408104
 20
179.9999999999994
 30
0.0
 40
17.5
  1
記号表
 41
0.7999999999999997
100
AcDbText
  0
TEXT
  5
118
330
6F
100
AcDbEntity
  8
_0-7_枠細線
 62
     5
100
AcDbText
 10
606.0
 20
132.4999999999995
 30
0.0
 40
15.0
  1
記　　号
 41
0.7
100
AcDbText
  0
TEXT
  5
119
330
6F
100
AcDbEntity
  8
_0-7_枠細線
 62
     5
100
AcDbText
 10
310.5823137366752
 20
408.3925172095009
 30
0.0
 40
25.0
  1
流末接続断面
 41
0.8
100
AcDbText
  0
TEXT
  5
11A
330
6F
100
AcDbEntity
  8
_0-7_枠細線
 62
     5
100
AcDbText
 10
460.7312834858439
 20
408.3925172095009
 30
0.0
 40
20.0
  1
Ｓ＝１：２
 41
0.6
100
AcDbText
  0
LINE
  5
11B
330
6F
100
AcDbEntity
  8
_1-2_極細2
  6
CENTER1
 62
     2
100
AcDbLine
 10
376.4130021347068
 20
294.9207693814125
 30
0.0
 11
376.4130021347068
 21
139.9457693814116
 31
0.0
  0
LINE
  5
11C
330
6F
100
AcDbEntity
  8
_1-2_極細2
  6
CENTER1
 62
     2
100
AcDbLine
 10
315.7775665669563
 20
189.5318804925233
 30
0.0
 11
436.7775665669573
 21
189.5318804925233
 31
0.0
  0
LINE
  5
11D
330
6F
100
AcDbEntity
  8
_1-2_極細2
  6
Continuous
 62
     2
100
AcDbLine
 10
401.3035079185337
 20
177.9372270178007
 30
0.0
 11
385.5076556094295
 21
162.1413747086965
 31
0.0
  0
LINE
  5
11E
330
6F
100
AcDbEntity
  8
_1-2_極細2
  6
Continuous
 62
     2
100
AcDbLine
 10
402.9097150470488
 20
186.6145019581813
 30
0.0
 11
376.8303806690489
 21
160.5351675801813
 31
0.0
  0
LINE
  5
11F
330
6F
100
AcDbEntity
  8
_1-2_極細2
  6
Continuous
 62
     2
100
AcDbLine
 10
402.2306959860829
 20
193.0065507090809
 30
0.0
 11
370.4383319181493
 21
161.2141866411473
 31
0.0
  0
LINE
  5
120
330
6F
100
AcDbEntity
  8
_1-2_極細2
  6
Continuous
 62
     2
100
AcDbLine
 10
400.4155712633892
 20
198.2624937982527
 30
0.0
 11
365.1823888289773
 21
163.029311363841
 31
0.0
  0
LINE
  5
121
330
6F
100
AcDbEntity
  8
_1-2_極細2
  6
Continuous
 62
     2
100
AcDbLine
 10
397.7837044800052
 20
202.7016948267345
 30
0.0
 11
360.7431878004954
 21
165.6611781472247
 31
0.0
  0
LINE
  5
122
330
6F
100
AcDbEntity
  8
_1-2_極細2
  6
Continuous
 62
     2
100
AcDbLine
 10
394.4537140016223
 20
206.4427721602168
 30
0.0
 11
357.0021104670132
 21
168.9911686256077
 31
0.0
  0
LINE
  5
123
330
6F
100
AcDbEntity
  8
_1-2_極細2
  6
Continuous
 62
     2
100
AcDbLine
 10
390.4491944441679
 20
209.509320414628
 30
0.0
 11
353.9355622126022
 21
172.9956881830621
 31
0.0
  0
LINE
  5
124
330
6F
100
AcDbEntity
  8
_1-2_極細2
  6
Continuous
 62
     2
100
AcDbLine
 10
385.7145997713437
 20
211.8457935536692
 30
0.0
 11
351.5990890735606
 21
177.7302828558863
 31
0.0
  0
LINE
  5
125
330
6F
100
AcDbEntity
  8
_1-2_極細2
  6
Continuous
 62
     2
100
AcDbLine
 10
380.075330056421
 20
213.2775916506122
 30
0.0
 11
350.1672909766179
 21
183.3695525708089
 31
0.0
  0
LINE
  5
126
330
6F
100
AcDbEntity
  8
_1-2_極細2
  6
Continuous
 62
     2
100
AcDbLine
 10
373.0434545278999
 20
213.3167839339565
 30
0.0
 11
350.1280986932738
 21
190.4014280993301
 31
0.0
  0
LINE
  5
127
330
6F
100
AcDbEntity
  8
_1-2_極細2
  6
Continuous
 62
     2
100
AcDbLine
 10
361.7830789070625
 20
209.1274761249845
 30
0.0
 11
354.3174065022453
 21
201.6618037201676
 31
0.0
  0
LINE
  5
128
330
6F
100
AcDbEntity
  8
_1-3_細線2
  6
DASHED2
 62
     4
100
AcDbLine
 10
553.9130021347069
 20
258.0318804925233
 30
0.0
 11
553.9130021347069
 21
275.5318804925233
 31
0.0
  0
LINE
  5
129
330
6F
100
AcDbEntity
  8
_1-3_細線2
  6
Continuous
 62
     4
100
AcDbLine
 10
556.4130021347068
 20
278.0318804925233
 30
0.0
 11
556.4130021347068
 21
258.0318804925233
 31
0.0
  0
LINE
  5
12A
330
6F
100
AcDbEntity
  8
_1-3_細線2
  6
Continuous
 62
     4
100
AcDbLine
 10
318.9130021347069
 20
153.0318804925233
 30
0.0
 11
433.9130021347068
 21
153.0318804925233
 31
0.0
  0
LINE
  5
12B
330
6F
100
AcDbEntity
  8
_1-3_細線2
  6
Continuous
 62
     4
100
AcDbLine
 10
433.9130021347068
 20
153.0318804925233
 30
0.0
 11
433.9130021347068
 21
228.0318804925233
 31
0.0
  0
LINE
  5
12C
330
6F
100
AcDbEntity
  8
_1-3_細線2
  6
Continuous
 62
     4
100
AcDbLine
 10
318.9130021347069
 20
153.0318804925233
 30
0.0
 11
318.9130021347069
 21
228.0318804925233
 31
0.0
  0
LINE
  5
12D
330
6F
100
AcDbEntity
  8
_1-3_細線2
  6
DASHED2
 62
     4
100
AcDbLine
 10
321.4130021347068
 20
230.5318804925233
 30
0.0
 11
321.4130021347068
 21
155.5318804925233
 31
0.0
  0
LINE
  5
12E
330
6F
100
AcDbEntity
  8
_1-3_細線2
  6
DASHED2
 62
     4
100
AcDbLine
 10
431.4130021347068
 20
230.5318804925233
 30
0.0
 11
431.4130021347068
 21
155.5318804925233
 31
0.0
  0
LINE
  5
12F
330
6F
100
AcDbEntity
  8
_1-3_細線2
  6
DASHED2
 62
     4
100
AcDbLine
 10
321.4130021347068
 20
155.5318804925233
 30
0.0
 11
431.4130021347068
 21
155.5318804925233
 31
0.0
  0
LINE
  5
130
330
6F
100
AcDbEntity
  8
_1-3_細線2
  6
DASHED2
 62
     4
100
AcDbLine
 10
198.9130021347069
 20
258.0318804925233
 30
0.0
 11
198.9130021347069
 21
275.5318804925233
 31
0.0
  0
LINE
  5
131
330
6F
100
AcDbEntity
  8
_1-3_細線2
  6
Continuous
 62
     4
100
AcDbLine
 10
196.4130021347066
 20
278.0318804925233
 30
0.0
 11
556.4130021347068
 21
278.0318804925233
 31
0.0
  0
LINE
  5
132
330
6F
100
AcDbEntity
  8
_1-3_細線2
  6
Continuous
 62
     4
100
AcDbLine
 10
196.4130021347066
 20
258.0318804925233
 30
0.0
 11
196.4130021347066
 21
278.0318804925233
 31
0.0
  0
LINE
  5
133
330
6F
100
AcDbEntity
  8
_1-3_細線2
  6
Continuous
 62
     4
100
AcDbLine
 10
221.4130021347066
 20
228.0318804925233
 30
0.0
 11
221.4130021347066
 21
258.0318804925233
 31
0.0
  0
LINE
  5
134
330
6F
100
AcDbEntity
  8
_1-3_細線2
  6
Continuous
 62
     4
100
AcDbLine
 10
318.9130021347069
 20
228.0318804925233
 30
0.0
 11
221.4130021347066
 21
228.0318804925233
 31
0.0
  0
LINE
  5
135
330
6F
100
AcDbEntity
  8
_1-3_細線2
  6
DASHED2
 62
     4
100
AcDbLine
 10
221.4130021347066
 20
275.5318804925233
 30
0.0
 11
198.9130021347069
 21
275.5318804925233
 31
0.0
  0
LINE
  5
136
330
6F
100
AcDbEntity
  8
_1-3_細線2
  6
DASHED2
 62
     4
100
AcDbLine
 10
221.4130021347066
 20
258.0318804925233
 30
0.0
 11
221.4130021347066
 21
275.5318804925233
 31
0.0
  0
LINE
  5
137
330
6F
100
AcDbEntity
  8
_1-3_細線2
  6
Continuous
 62
     4
100
AcDbLine
 10
221.4130021347066
 20
258.0318804925233
 30
0.0
 11
196.4130021347066
 21
258.0318804925233
 31
0.0
  0
LINE
  5
138
330
6F
100
AcDbEntity
  8
_1-3_細線2
  6
DASHED2
 62
     4
100
AcDbLine
 10
223.9130021347069
 20
278.0318804925233
 30
0.0
 11
223.9130021347066
 21
230.5318804925233
 31
0.0
  0
LINE
  5
139
330
6F
100
AcDbEntity
  8
_1-3_細線2
  6
DASHED2
 62
     4
100
AcDbLine
 10
321.4130021347068
 20
230.5318804925233
 30
0.0
 11
223.9130021347066
 21
230.5318804925233
 31
0.0
  0
LINE
  5
13A
330
6F
100
AcDbEntity
  8
_1-3_細線2
  6
Continuous
 62
     4
100
AcDbLine
 10
531.4130021347068
 20
228.0318804925233
 30
0.0
 11
531.4130021347068
 21
258.0318804925233
 31
0.0
  0
LINE
  5
13B
330
6F
100
AcDbEntity
  8
_1-3_細線2
  6
DASHED2
 62
     4
100
AcDbLine
 10
531.4130021347068
 20
275.5318804925233
 30
0.0
 11
553.9130021347069
 21
275.5318804925233
 31
0.0
  0
LINE
  5
13C
330
6F
100
AcDbEntity
  8
_1-3_細線2
  6
DASHED2
 62
     4
100
AcDbLine
 10
531.4130021347068
 20
258.0318804925233
 30
0.0
 11
531.4130021347068
 21
275.5318804925233
 31
0.0
  0
LINE
  5
13D
330
6F
100
AcDbEntity
  8
_1-3_細線2
  6
Continuous
 62
     4
100
AcDbLine
 10
556.4130021347068
 20
258.0318804925233
 30
0.0
 11
531.4130021347068
 21
258.0318804925233
 31
0.0
  0
LINE
  5
13E
330
6F
100
AcDbEntity
  8
_1-3_細線2
  6
DASHED2
 62
     4
100
AcDbLine
 10
528.9130021347069
 20
278.0318804925233
 30
0.0
 11
528.9130021347069
 21
230.5318804925233
 31
0.0
  0
LINE
  5
13F
330
6F
100
AcDbEntity
  8
_1-3_細線2
  6
Continuous
 62
     4
100
AcDbLine
 10
433.9130021347068
 20
228.0318804925233
 30
0.0
 11
531.4130021347068
 21
228.0318804925233
 31
0.0
  0
LINE
  5
140
330
6F
100
AcDbEntity
  8
_1-3_細線2
  6
DASHED2
 62
     4
100
AcDbLine
 10
431.4130021347068
 20
230.5318804925233
 30
0.0
 11
528.9130021347069
 21
230.5318804925233
 31
0.0
  0
CIRCLE
  5
141
330
6F
100
AcDbEntity
  8
_1-3_細線2
  6
Continuous
 62
     4
100
AcDbCircle
 10
376.4130021347068
 20
187.0318804925233
 30
0.0
 40
26.5
  0
CIRCLE
  5
142
330
6F
100
AcDbEntity
  8
_1-3_細線2
  6
Continuous
 62
     4
100
AcDbCircle
 10
376.4130021347068
 20
187.0318804925233
 30
0.0
 40
34.0
  0
LINE
  5
143
330
6F
100
AcDbEntity
  8
_1-5_寸法2
  6
Continuous
 62
     7
100
AcDbLine
 10
388.294117492881
 20
177.1987310107297
 30
0.0
 11
395.3651853047464
 21
170.1276631988642
 31
0.0
  0
LINE
  5
144
330
6F
100
AcDbEntity
  8
_1-5_寸法2
  6
Continuous
 62
     7
100
AcDbLine
 10
388.294117492881
 20
177.1987310107297
 30
0.0
 11
390.8823079439062
 21
167.539472747839
 31
0.0
  0
LINE
  5
145
330
6F
100
AcDbEntity
  8
_1-5_寸法2
  6
Continuous
 62
     7
100
AcDbLine
 10
388.294117492881
 20
177.1987310107297
 30
0.0
 11
411.8500084758174
 21
136.3987310107296
 31
0.0
  0
LINE
  5
146
330
6F
100
AcDbEntity
  8
_1-5_寸法2
  6
Continuous
 62
     7
100
AcDbLine
 10
411.8500084758174
 20
136.3987310107296
 30
0.0
 11
447.8500084758173
 21
136.3987310107296
 31
0.0
  0
TEXT
  5
147
330
6F
100
AcDbEntity
  8
_1-5_寸法2
 62
     7
100
AcDbText
 10
411.8500084758174
 20
136.3987310107296
 30
0.0
 40
15.0
  1
開口部
 41
0.8000000000000001
100
AcDbText
  0
LINE
  5
148
330
6F
100
AcDbEntity
  8
_1-5_寸法2
  6
Continuous
 62
     7
100
AcDbLine
 10
406.529534159547
 20
186.8081060107297
 30
0.0
 11
416.5295341595469
 21
186.8081060107296
 31
0.0
  0
LINE
  5
149
330
6F
100
AcDbEntity
  8
_1-5_寸法2
  6
Continuous
 62
     7
100
AcDbLine
 10
406.529534159547
 20
186.8081060107297
 30
0.0
 11
415.1897881973913
 21
181.8081060107296
 31
0.0
  0
LINE
  5
14A
330
6F
100
AcDbEntity
  8
_1-5_寸法2
  6
Continuous
 62
     7
100
AcDbLine
 10
406.529534159547
 20
186.8081060107297
 30
0.0
 11
449.279534159547
 21
175.3532780342989
 31
0.0
  0
LINE
  5
14B
330
6F
100
AcDbEntity
  8
_1-5_寸法2
  6
Continuous
 62
     7
100
AcDbLine
 10
449.279534159547
 20
175.3532780342989
 30
0.0
 11
563.2795341595469
 21
175.3532780342989
 31
0.0
  0
TEXT
  5
14C
330
6F
100
AcDbEntity
  8
_1-5_寸法2
 62
     7
100
AcDbText
 10
449.279534159547
 20
175.3532780342989
 30
0.0
 40
15.0
  1
SUS製片ニップル 20A
 41
0.7
100
AcDbText
  0
LINE
  5
14D
330
6F
100
AcDbEntity
  8
_1-5_寸法2
  6
Continuous
 62
     7
100
AcDbLine
 10
308.9130021347068
 20
153.0318804925233
 30
0.0
 11
116.4130021347065
 21
153.0318804925238
 31
0.0
  0
LINE
  5
14E
330
6F
100
AcDbEntity
  8
_1-5_寸法2
  6
Continuous
 62
     7
100
AcDbLine
 10
121.4130021347065
 20
153.0318804925238
 30
0.0
 11
118.8248116836813
 21
162.6911387554145
 31
0.0
  0
LINE
  5
14F
330
6F
100
AcDbEntity
  8
_1-5_寸法2
  6
Continuous
 62
     7
100
AcDbLine
 10
121.4130021347065
 20
153.0318804925238
 30
0.0
 11
124.0011925857318
 21
162.6911387554145
 31
0.0
  0
LINE
  5
150
330
6F
100
AcDbEntity
  8
_1-5_寸法2
  6
Continuous
 62
     7
100
AcDbLine
 10
186.4130021347065
 20
278.0318804925234
 30
0.0
 11
116.4130021347065
 21
278.0318804925237
 31
0.0
  0
LINE
  5
151
330
6F
100
AcDbEntity
  8
_1-5_寸法2
  6
Continuous
 62
     7
100
AcDbLine
 10
121.4130021347065
 20
278.0318804925237
 30
0.0
 11
124.0011925857318
 21
268.3726222296331
 31
0.0
  0
LINE
  5
152
330
6F
100
AcDbEntity
  8
_1-5_寸法2
  6
Continuous
 62
     7
100
AcDbLine
 10
121.4130021347065
 20
278.0318804925237
 30
0.0
 11
118.8248116836813
 21
268.3726222296331
 31
0.0
  0
LINE
  5
153
330
6F
100
AcDbEntity
  8
_1-5_寸法2
  6
Continuous
 62
     7
100
AcDbLine
 10
121.4130021347065
 20
153.0318804925238
 30
0.0
 11
121.4130021347065
 21
278.0318804925237
 31
0.0
  0
TEXT
  5
154
330
6F
100
AcDbEntity
  8
_1-5_寸法2
 62
     7
100
AcDbText
 10
121.4130021347065
 20
208.0318804925237
 30
0.0
 40
15.0
  1
50
 50
90.0
100
AcDbText
  0
LINE
  5
155
330
6F
100
AcDbEntity
  8
_1-5_寸法2
  6
Continuous
 62
     7
100
AcDbLine
 10
156.4130021347065
 20
153.0318804925238
 30
0.0
 11
153.8248116836814
 21
162.6911387554145
 31
0.0
  0
LINE
  5
156
330
6F
100
AcDbEntity
  8
_1-5_寸法2
  6
Continuous
 62
     7
100
AcDbLine
 10
156.4130021347065
 20
153.0318804925238
 30
0.0
 11
159.0011925857317
 21
162.6911387554145
 31
0.0
  0
LINE
  5
157
330
6F
100
AcDbEntity
  8
_1-5_寸法2
  6
Continuous
 62
     7
100
AcDbLine
 10
211.4130021347066
 20
228.0318804925234
 30
0.0
 11
151.4130021347065
 21
228.0318804925234
 31
0.0
  0
LINE
  5
158
330
6F
100
AcDbEntity
  8
_1-5_寸法2
  6
Continuous
 62
     7
100
AcDbLine
 10
156.4130021347065
 20
228.0318804925233
 30
0.0
 11
159.0011925857316
 21
218.3726222296326
 31
0.0
  0
LINE
  5
159
330
6F
100
AcDbEntity
  8
_1-5_寸法2
  6
Continuous
 62
     7
100
AcDbLine
 10
156.4130021347065
 20
228.0318804925233
 30
0.0
 11
153.8248116836813
 21
218.3726222296327
 31
0.0
  0
LINE
  5
15A
330
6F
100
AcDbEntity
  8
_1-5_寸法2
  6
Continuous
 62
     7
100
AcDbLine
 10
156.4130021347065
 20
153.0318804925238
 30
0.0
 11
156.4130021347065
 21
228.0318804925233
 31
0.0
  0
TEXT
  5
15B
330
6F
100
AcDbEntity
  8
_1-5_寸法2
 62
     7
100
AcDbText
 10
156.4130021347065
 20
183.0318804925236
 30
0.0
 40
15.0
  1
30
 50
90.0
100
AcDbText
  0
LINE
  5
15C
330
6F
100
AcDbEntity
  8
_1-5_寸法2
  6
Continuous
 62
     7
100
AcDbLine
 10
186.4130021347065
 20
258.0318804925235
 30
0.0
 11
151.4130021347065
 21
258.0318804925233
 31
0.0
  0
LINE
  5
15D
330
6F
100
AcDbEntity
  8
_1-5_寸法2
  6
Continuous
 62
     7
100
AcDbLine
 10
156.4130021347065
 20
258.0318804925233
 30
0.0
 11
159.0011925857316
 21
248.3726222296326
 31
0.0
  0
LINE
  5
15E
330
6F
100
AcDbEntity
  8
_1-5_寸法2
  6
Continuous
 62
     7
100
AcDbLine
 10
156.4130021347065
 20
258.0318804925233
 30
0.0
 11
153.8248116836813
 21
248.3726222296327
 31
0.0
  0
LINE
  5
15F
330
6F
100
AcDbEntity
  8
_1-5_寸法2
  6
Continuous
 62
     7
100
AcDbLine
 10
156.4130021347065
 20
228.0318804925233
 30
0.0
 11
156.4130021347065
 21
258.0318804925233
 31
0.0
  0
TEXT
  5
160
330
6F
100
AcDbEntity
  8
_1-5_寸法2
 62
     7
100
AcDbText
 10
156.4130021347065
 20
235.5318804925233
 30
0.0
 40
15.0
  1
12
 50
90.0
100
AcDbText
  0
LINE
  5
161
330
6F
100
AcDbEntity
  8
_1-5_寸法2
  6
Continuous
 62
     7
100
AcDbLine
 10
156.4130021347065
 20
258.0318804925233
 30
0.0
 11
153.8248116836814
 21
267.691138755414
 31
0.0
  0
LINE
  5
162
330
6F
100
AcDbEntity
  8
_1-5_寸法2
  6
Continuous
 62
     7
100
AcDbLine
 10
156.4130021347065
 20
258.0318804925233
 30
0.0
 11
159.0011925857317
 21
267.691138755414
 31
0.0
  0
LINE
  5
163
330
6F
100
AcDbEntity
  8
_1-5_寸法2
  6
Continuous
 62
     7
100
AcDbLine
 10
156.4130021347065
 20
278.0318804925233
 30
0.0
 11
159.0011925857317
 21
268.3726222296327
 31
0.0
  0
LINE
  5
164
330
6F
100
AcDbEntity
  8
_1-5_寸法2
  6
Continuous
 62
     7
100
AcDbLine
 10
156.4130021347065
 20
278.0318804925233
 30
0.0
 11
153.8248116836814
 21
268.3726222296327
 31
0.0
  0
LINE
  5
165
330
6F
100
AcDbEntity
  8
_1-5_寸法2
  6
Continuous
 62
     7
100
AcDbLine
 10
156.4130021347065
 20
258.0318804925233
 30
0.0
 11
156.4130021347065
 21
278.0318804925233
 31
0.0
  0
TEXT
  5
166
330
6F
100
AcDbEntity
  8
_1-5_寸法2
 62
     7
100
AcDbText
 10
156.4130021347065
 20
264.5789393440623
 30
0.0
 40
15.0
  1
8
 50
90.0
100
AcDbText
  0
LINE
  5
167
330
6F
100
AcDbEntity
  8
_1-5_寸法2
  6
Continuous
 62
     7
100
AcDbLine
 10
196.4130021347066
 20
288.0318804925233
 30
0.0
 11
196.4130021347066
 21
389.7818808445314
 31
0.0
  0
LINE
  5
168
330
6F
100
AcDbEntity
  8
_1-5_寸法2
  6
Continuous
 62
     7
100
AcDbLine
 10
196.4130021347066
 20
384.7818808445314
 30
0.0
 11
206.0722603975972
 21
387.3700712955565
 31
0.0
  0
LINE
  5
169
330
6F
100
AcDbEntity
  8
_1-5_寸法2
  6
Continuous
 62
     7
100
AcDbLine
 10
196.4130021347066
 20
384.7818808445314
 30
0.0
 11
206.0722603975972
 21
382.1936903935062
 31
0.0
  0
LINE
  5
16A
330
6F
100
AcDbEntity
  8
_1-5_寸法2
  6
Continuous
 62
     7
100
AcDbLine
 10
556.4130021347068
 20
288.0318804925233
 30
0.0
 11
556.4130021347068
 21
389.7818808445314
 31
0.0
  0
LINE
  5
16B
330
6F
100
AcDbEntity
  8
_1-5_寸法2
  6
Continuous
 62
     7
100
AcDbLine
 10
556.4130021347068
 20
384.7818808445314
 30
0.0
 11
546.7537438718161
 21
382.1936903935062
 31
0.0
  0
LINE
  5
16C
330
6F
100
AcDbEntity
  8
_1-5_寸法2
  6
Continuous
 62
     7
100
AcDbLine
 10
556.4130021347068
 20
384.7818808445314
 30
0.0
 11
546.7537438718161
 21
387.3700712955566
 31
0.0
  0
LINE
  5
16D
330
6F
100
AcDbEntity
  8
_1-5_寸法2
  6
Continuous
 62
     7
100
AcDbLine
 10
196.4130021347066
 20
384.7818808445314
 30
0.0
 11
556.4130021347068
 21
384.7818808445314
 31
0.0
  0
TEXT
  5
16E
330
6F
100
AcDbEntity
  8
_1-5_寸法2
 62
     7
100
AcDbText
 10
365.1630021347068
 20
384.7818808445314
 30
0.0
 40
15.0
  1
144
100
AcDbText
  0
LINE
  5
16F
330
6F
100
AcDbEntity
  8
_1-5_寸法2
  6
Continuous
 62
     7
100
AcDbLine
 10
223.9130021347067
 20
314.7818808445312
 30
0.0
 11
233.5722603975974
 21
317.3700712955565
 31
0.0
  0
LINE
  5
170
330
6F
100
AcDbEntity
  8
_1-5_寸法2
  6
Continuous
 62
     7
100
AcDbLine
 10
223.9130021347067
 20
314.7818808445312
 30
0.0
 11
233.5722603975974
 21
312.1936903935061
 31
0.0
  0
LINE
  5
171
330
6F
100
AcDbEntity
  8
_1-5_寸法2
  6
Continuous
 62
     7
100
AcDbLine
 10
321.4130021347068
 20
288.0318804925233
 30
0.0
 11
321.4130021347068
 21
319.7818808445313
 31
0.0
  0
LINE
  5
172
330
6F
100
AcDbEntity
  8
_1-5_寸法2
  6
Continuous
 62
     7
100
AcDbLine
 10
321.4130021347068
 20
314.7818808445312
 30
0.0
 11
311.7537438718162
 21
312.1936903935061
 31
0.0
  0
LINE
  5
173
330
6F
100
AcDbEntity
  8
_1-5_寸法2
  6
Continuous
 62
     7
100
AcDbLine
 10
321.4130021347068
 20
314.7818808445312
 30
0.0
 11
311.7537438718162
 21
317.3700712955565
 31
0.0
  0
LINE
  5
174
330
6F
100
AcDbEntity
  8
_1-5_寸法2
  6
Continuous
 62
     7
100
AcDbLine
 10
223.9130021347067
 20
314.7818808445312
 30
0.0
 11
321.4130021347068
 21
314.7818808445312
 31
0.0
  0
TEXT
  5
175
330
6F
100
AcDbEntity
  8
_1-5_寸法2
 62
     7
100
AcDbText
 10
265.1630021347068
 20
314.7818808445312
 30
0.0
 40
15.0
  1
39
100
AcDbText
  0
LINE
  5
176
330
6F
100
AcDbEntity
  8
_1-5_寸法2
  6
Continuous
 62
     7
100
AcDbLine
 10
321.4130021347068
 20
314.7818808445312
 30
0.0
 11
331.0722603975976
 21
317.3700712955564
 31
0.0
  0
LINE
  5
177
330
6F
100
AcDbEntity
  8
_1-5_寸法2
  6
Continuous
 62
     7
100
AcDbLine
 10
321.4130021347068
 20
314.7818808445312
 30
0.0
 11
331.0722603975975
 21
312.1936903935061
 31
0.0
  0
LINE
  5
178
330
6F
100
AcDbEntity
  8
_1-5_寸法2
  6
Continuous
 62
     7
100
AcDbLine
 10
431.4130021347068
 20
288.0318804925233
 30
0.0
 11
431.4130021347068
 21
319.7818808445313
 31
0.0
  0
LINE
  5
179
330
6F
100
AcDbEntity
  8
_1-5_寸法2
  6
Continuous
 62
     7
100
AcDbLine
 10
431.4130021347068
 20
314.7818808445312
 30
0.0
 11
421.7537438718162
 21
312.1936903935061
 31
0.0
  0
LINE
  5
17A
330
6F
100
AcDbEntity
  8
_1-5_寸法2
  6
Continuous
 62
     7
100
AcDbLine
 10
431.4130021347068
 20
314.7818808445312
 30
0.0
 11
421.7537438718162
 21
317.3700712955565
 31
0.0
  0
LINE
  5
17B
330
6F
100
AcDbEntity
  8
_1-5_寸法2
  6
Continuous
 62
     7
100
AcDbLine
 10
321.4130021347068
 20
314.7818808445312
 30
0.0
 11
431.4130021347068
 21
314.7818808445312
 31
0.0
  0
TEXT
  5
17C
330
6F
100
AcDbEntity
  8
_1-5_寸法2
 62
     7
100
AcDbText
 10
368.9130021347068
 20
314.7818808445312
 30
0.0
 40
15.0
  1
44
100
AcDbText
  0
LINE
  5
17D
330
6F
100
AcDbEntity
  8
_1-5_寸法2
  6
Continuous
 62
     7
100
AcDbLine
 10
431.4130021347068
 20
314.7818808445312
 30
0.0
 11
441.0722603975976
 21
317.3700712955564
 31
0.0
  0
LINE
  5
17E
330
6F
100
AcDbEntity
  8
_1-5_寸法2
  6
Continuous
 62
     7
100
AcDbLine
 10
431.4130021347068
 20
314.7818808445312
 30
0.0
 11
441.0722603975975
 21
312.1936903935061
 31
0.0
  0
LINE
  5
17F
330
6F
100
AcDbEntity
  8
_1-5_寸法2
  6
Continuous
 62
     7
100
AcDbLine
 10
528.9130021347069
 20
314.7818808445312
 30
0.0
 11
519.2537438718161
 21
312.1936903935061
 31
0.0
  0
LINE
  5
180
330
6F
100
AcDbEntity
  8
_1-5_寸法2
  6
Continuous
 62
     7
100
AcDbLine
 10
528.9130021347069
 20
314.7818808445312
 30
0.0
 11
519.2537438718161
 21
317.3700712955565
 31
0.0
  0
LINE
  5
181
330
6F
100
AcDbEntity
  8
_1-5_寸法2
  6
Continuous
 62
     7
100
AcDbLine
 10
431.4130021347068
 20
314.7818808445312
 30
0.0
 11
528.9130021347069
 21
314.7818808445312
 31
0.0
  0
TEXT
  5
182
330
6F
100
AcDbEntity
  8
_1-5_寸法2
 62
     7
100
AcDbText
 10
472.6630021347069
 20
314.7818808445312
 30
0.0
 40
15.0
  1
39
100
AcDbText
  0
LINE
  5
183
330
6F
100
AcDbEntity
  8
_1-5_寸法2
  6
Continuous
 62
     7
100
AcDbLine
 10
196.4130021347066
 20
288.0318804925233
 30
0.0
 11
196.4130021347066
 21
359.7818808445313
 31
0.0
  0
LINE
  5
184
330
6F
100
AcDbEntity
  8
_1-5_寸法2
  6
Continuous
 62
     7
100
AcDbLine
 10
196.4130021347066
 20
349.7818808445313
 30
0.0
 11
206.0722603975972
 21
352.3700712955565
 31
0.0
  0
LINE
  5
185
330
6F
100
AcDbEntity
  8
_1-5_寸法2
  6
Continuous
 62
     7
100
AcDbLine
 10
196.4130021347066
 20
349.7818808445313
 30
0.0
 11
206.0722603975972
 21
347.1936903935062
 31
0.0
  0
LINE
  5
186
330
6F
100
AcDbEntity
  8
_1-5_寸法2
  6
Continuous
 62
     7
100
AcDbLine
 10
223.9130021347066
 20
288.0318804925233
 30
0.0
 11
223.9130021347066
 21
359.7818808445313
 31
0.0
  0
LINE
  5
187
330
6F
100
AcDbEntity
  8
_1-5_寸法2
  6
Continuous
 62
     7
100
AcDbLine
 10
223.9130021347066
 20
349.7818808445313
 30
0.0
 11
214.2537438718159
 21
347.1936903935062
 31
0.0
  0
LINE
  5
188
330
6F
100
AcDbEntity
  8
_1-5_寸法2
  6
Continuous
 62
     7
100
AcDbLine
 10
223.9130021347066
 20
349.7818808445313
 30
0.0
 11
214.2537438718159
 21
352.3700712955565
 31
0.0
  0
LINE
  5
189
330
6F
100
AcDbEntity
  8
_1-5_寸法2
  6
Continuous
 62
     7
100
AcDbLine
 10
196.4130021347066
 20
349.7818808445313
 30
0.0
 11
223.9130021347066
 21
349.7818808445313
 31
0.0
  0
TEXT
  5
18A
330
6F
100
AcDbEntity
  8
_1-5_寸法2
 62
     7
100
AcDbText
 10
202.6630021347066
 20
349.7818808445313
 30
0.0
 40
15.0
  1
11
100
AcDbText
  0
LINE
  5
18B
330
6F
100
AcDbEntity
  8
_1-5_寸法2
  6
Continuous
 62
     7
100
AcDbLine
 10
528.9130021347069
 20
288.0318804925233
 30
0.0
 11
528.9130021347069
 21
359.7818808445313
 31
0.0
  0
LINE
  5
18C
330
6F
100
AcDbEntity
  8
_1-5_寸法2
  6
Continuous
 62
     7
100
AcDbLine
 10
528.9130021347069
 20
349.7818808445313
 30
0.0
 11
538.5722603975977
 21
352.3700712955565
 31
0.0
  0
LINE
  5
18D
330
6F
100
AcDbEntity
  8
_1-5_寸法2
  6
Continuous
 62
     7
100
AcDbLine
 10
528.9130021347069
 20
349.7818808445313
 30
0.0
 11
538.5722603975977
 21
347.1936903935062
 31
0.0
  0
LINE
  5
18E
330
6F
100
AcDbEntity
  8
_1-5_寸法2
  6
Continuous
 62
     7
100
AcDbLine
 10
556.4130021347071
 20
288.0318804925233
 30
0.0
 11
556.4130021347071
 21
359.7818808445313
 31
0.0
  0
LINE
  5
18F
330
6F
100
AcDbEntity
  8
_1-5_寸法2
  6
Continuous
 62
     7
100
AcDbLine
 10
556.4130021347071
 20
349.7818808445313
 30
0.0
 11
546.7537438718164
 21
347.1936903935062
 31
0.0
  0
LINE
  5
190
330
6F
100
AcDbEntity
  8
_1-5_寸法2
  6
Continuous
 62
     7
100
AcDbLine
 10
556.4130021347071
 20
349.7818808445313
 30
0.0
 11
546.7537438718164
 21
352.3700712955565
 31
0.0
  0
LINE
  5
191
330
6F
100
AcDbEntity
  8
_1-5_寸法2
  6
Continuous
 62
     7
100
AcDbLine
 10
528.9130021347069
 20
349.7818808445313
 30
0.0
 11
556.4130021347071
 21
349.7818808445313
 31
0.0
  0
TEXT
  5
192
330
6F
100
AcDbEntity
  8
_1-5_寸法2
 62
     7
100
AcDbText
 10
535.1630021347065
 20
349.7818808445313
 30
0.0
 40
15.0
  1
11
100
AcDbText
  0
LINE
  5
193
330
6F
100
AcDbEntity
  8
_1-5_寸法2
  6
Continuous
 62
     7
100
AcDbLine
 10
223.9130021347067
 20
288.0318804925233
 30
0.0
 11
223.9130021347069
 21
354.7818808445313
 31
0.0
  0
LINE
  5
194
330
6F
100
AcDbEntity
  8
_1-5_寸法2
  6
Continuous
 62
     7
100
AcDbLine
 10
223.9130021347069
 20
349.7818808445313
 30
0.0
 11
233.5722603975975
 21
352.3700712955565
 31
0.0
  0
LINE
  5
195
330
6F
100
AcDbEntity
  8
_1-5_寸法2
  6
Continuous
 62
     7
100
AcDbLine
 10
223.9130021347069
 20
349.7818808445313
 30
0.0
 11
233.5722603975975
 21
347.1936903935062
 31
0.0
  0
LINE
  5
196
330
6F
100
AcDbEntity
  8
_1-5_寸法2
  6
Continuous
 62
     7
100
AcDbLine
 10
528.9130021347069
 20
288.0318804925233
 30
0.0
 11
528.9130021347069
 21
354.7818808445313
 31
0.0
  0
LINE
  5
197
330
6F
100
AcDbEntity
  8
_1-5_寸法2
  6
Continuous
 62
     7
100
AcDbLine
 10
528.9130021347069
 20
349.7818808445313
 30
0.0
 11
519.2537438718161
 21
347.1936903935062
 31
0.0
  0
LINE
  5
198
330
6F
100
AcDbEntity
  8
_1-5_寸法2
  6
Continuous
 62
     7
100
AcDbLine
 10
528.9130021347069
 20
349.7818808445313
 30
0.0
 11
519.2537438718161
 21
352.3700712955565
 31
0.0
  0
LINE
  5
199
330
6F
100
AcDbEntity
  8
_1-5_寸法2
  6
Continuous
 62
     7
100
AcDbLine
 10
223.9130021347069
 20
349.7818808445313
 30
0.0
 11
528.9130021347069
 21
349.7818808445313
 31
0.0
  0
TEXT
  5
19A
330
6F
100
AcDbEntity
  8
_1-5_寸法2
 62
     7
100
AcDbText
 10
365.1630021347068
 20
349.7818808445313
 30
0.0
 40
15.0
  1
122
100
AcDbText
  0
LINE
  5
19B
330
6F
100
AcDbEntity
  8
_0-1_計細線
  6
Continuous
 62
     3
100
AcDbLine
 10
171.4130021359064
 20
551.6302886403353
 30
0.0
 11
171.4130021359064
 21
563.6302886403353
 31
0.0
  0
LINE
  5
19C
330
6F
100
AcDbEntity
  8
_0-1_計細線
  6
Continuous
 62
     3
100
AcDbLine
 10
747.4130021359067
 20
571.6302886403354
 30
0.0
 11
747.4130021359067
 21
521.6302886403354
 31
0.0
  0
LINE
  5
19D
330
6F
100
AcDbEntity
  8
_0-1_計細線
  6
Continuous
 62
     3
100
AcDbLine
 10
656.4129625026907
 20
551.6302886403353
 30
0.0
 11
656.4129625026907
 21
521.6302886403354
 31
0.0
  0
LINE
  5
19E
330
6F
100
AcDbEntity
  8
_0-1_計細線
  6
Continuous
 62
     3
100
AcDbLine
 10
656.4129625026907
 20
521.6302886403354
 30
0.0
 11
747.4130021359067
 21
521.6302886403354
 31
0.0
  0
LINE
  5
19F
330
6F
100
AcDbEntity
  8
_0-1_計細線
  6
Continuous
 62
     3
100
AcDbLine
 10
161.4130021347065
 20
563.6302886403353
 30
0.0
 11
161.4130021347065
 21
571.6302886403354
 31
0.0
  0
LINE
  5
1A0
330
6F
100
AcDbEntity
  8
_0-1_計細線
  6
Continuous
 62
     3
100
AcDbLine
 10
161.4130021347065
 20
571.6302886403354
 30
0.0
 11
747.4130021359067
 21
571.6302886403354
 31
0.0
  0
LINE
  5
1A1
330
6F
100
AcDbEntity
  8
_0-1_計細線
  6
Continuous
 62
     3
100
AcDbLine
 10
161.4130021347065
 20
563.6302886403353
 30
0.0
 11
747.4130021359067
 21
563.6302886403353
 31
0.0
  0
LINE
  5
1A2
330
6F
100
AcDbEntity
  8
_0-1_計細線
  6
Continuous
 62
     3
100
AcDbLine
 10
747.4130021359067
 20
521.6302886403354
 30
0.0
 11
785.4130021359067
 21
521.6302886403354
 31
0.0
  0
LINE
  5
1A3
330
6F
100
AcDbEntity
  8
_0-1_計細線
  6
Continuous
 62
     3
100
AcDbLine
 10
747.4130021359067
 20
548.8302886403354
 30
0.0
 11
785.4130021359067
 21
548.8302886403354
 31
0.0
  0
LINE
  5
1A4
330
6F
100
AcDbEntity
  8
_0-1_計細線
  6
Continuous
 62
     3
100
AcDbLine
 10
785.4130021359067
 20
521.6302886403354
 30
0.0
 11
785.4130021359067
 21
548.8302886403354
 31
0.0
  0
LINE
  5
1A5
330
6F
100
AcDbEntity
  8
_0-0_計極細
  6
Continuous
 62
     2
100
AcDbLine
 10
767.4130021359067
 20
521.6302886403354
 30
0.0
 11
767.4130021359067
 21
548.8302886403354
 31
0.0
  0
LINE
  5
1A6
330
6F
100
AcDbEntity
  8
_0-0_計極細
  6
Continuous
 62
     2
100
AcDbLine
 10
785.4130021359067
 20
538.4365116948388
 30
0.0
 11
784.5036644819588
 21
548.8302886403354
 31
0.0
  0
LINE
  5
1A7
330
6F
100
AcDbEntity
  8
_0-0_計極細
  6
Continuous
 62
     2
100
AcDbLine
 10
783.8718966172335
 20
521.6302886403354
 30
0.0
 11
781.4922049693284
 21
548.8302886403354
 31
0.0
  0
LINE
  5
1A8
330
6F
100
AcDbEntity
  8
_0-0_計極細
  6
Continuous
 62
     2
100
AcDbLine
 10
780.8604371046034
 20
521.6302886403354
 30
0.0
 11
778.4807454566983
 21
548.8302886403354
 31
0.0
  0
LINE
  5
1A9
330
6F
100
AcDbEntity
  8
_0-0_計極細
  6
Continuous
 62
     2
100
AcDbLine
 10
777.8489775919736
 20
521.6302886403354
 30
0.0
 11
775.4692859440685
 21
548.8302886403354
 31
0.0
  0
LINE
  5
1AA
330
6F
100
AcDbEntity
  8
_0-0_計極細
  6
Continuous
 62
     2
100
AcDbLine
 10
774.8375180793435
 20
521.6302886403354
 30
0.0
 11
772.4578264314384
 21
548.8302886403354
 31
0.0
  0
LINE
  5
1AB
330
6F
100
AcDbEntity
  8
_0-0_計極細
  6
Continuous
 62
     2
100
AcDbLine
 10
771.8260585667133
 20
521.6302886403354
 30
0.0
 11
769.4463669188084
 21
548.8302886403354
 31
0.0
  0
LINE
  5
1AC
330
6F
100
AcDbEntity
  8
_0-0_計極細
  6
Continuous
 62
     2
100
AcDbLine
 10
767.4130021359067
 20
537.6506147224851
 30
0.0
 11
768.8145990540836
 21
521.6302886403354
 31
0.0
  0
LINE
  5
1AD
330
6F
100
AcDbEntity
  8
_0-5_寸法線
  6
Continuous
 62
     7
100
AcDbLine
 10
747.4130021359067
 20
511.6302886403353
 30
0.0
 11
747.4130021359067
 21
476.6302886403354
 31
0.0
  0
LINE
  5
1AE
330
6F
100
AcDbEntity
  8
_0-5_寸法線
  6
Continuous
 62
     7
100
AcDbLine
 10
747.4130021359067
 20
481.6302886403354
 30
0.0
 11
757.0722603987974
 21
484.2184790913607
 31
0.0
  0
LINE
  5
1AF
330
6F
100
AcDbEntity
  8
_0-5_寸法線
  6
Continuous
 62
     7
100
AcDbLine
 10
747.4130021359067
 20
481.6302886403354
 30
0.0
 11
757.0722603987974
 21
479.0420981893103
 31
0.0
  0
LINE
  5
1B0
330
6F
100
AcDbEntity
  8
_0-5_寸法線
  6
Continuous
 62
     7
100
AcDbLine
 10
785.4130021359067
 20
512.6302886403355
 30
0.0
 11
785.4130021359058
 21
476.6302886403354
 31
0.0
  0
LINE
  5
1B1
330
6F
100
AcDbEntity
  8
_0-5_寸法線
  6
Continuous
 62
     7
100
AcDbLine
 10
785.4130021359059
 20
481.6302886403354
 30
0.0
 11
775.753743873015
 21
479.0420981893103
 31
0.0
  0
LINE
  5
1B2
330
6F
100
AcDbEntity
  8
_0-5_寸法線
  6
Continuous
 62
     7
100
AcDbLine
 10
785.4130021359059
 20
481.6302886403354
 30
0.0
 11
775.753743873015
 21
484.2184790913607
 31
0.0
  0
LINE
  5
1B3
330
6F
100
AcDbEntity
  8
_0-5_寸法線
  6
Continuous
 62
     7
100
AcDbLine
 10
747.4130021359067
 20
481.6302886403354
 30
0.0
 11
785.4130021359059
 21
481.6302886403354
 31
0.0
  0
TEXT
  5
1B4
330
6F
100
AcDbEntity
  8
_0-5_寸法線
 62
     7
100
AcDbText
 10
758.9130021359062
 20
481.6302886403354
 30
0.0
 40
15.0
  1
38
100
AcDbText
  0
LINE
  5
1B5
330
6F
100
AcDbEntity
  8
_0-1_計細線
  6
Continuous
 62
     3
100
AcDbLine
 10
706.4130022889874
 20
563.6302886403353
 30
0.0
 11
704.4130022889873
 21
561.6302886403353
 31
0.0
  0
LINE
  5
1B6
330
6F
100
AcDbEntity
  8
_0-1_計細線
  6
Continuous
 62
     3
100
AcDbLine
 10
704.4130022889873
 20
551.6302886403353
 30
0.0
 11
704.4130022889873
 21
561.6302886403353
 31
0.0
  0
LINE
  5
1B7
330
6F
100
AcDbEntity
  8
_0-1_計細線
  6
Continuous
 62
     3
100
AcDbLine
 10
720.4130019828259
 20
561.6302886403353
 30
0.0
 11
718.4130019828261
 21
563.6302886403353
 31
0.0
  0
LINE
  5
1B8
330
6F
100
AcDbEntity
  8
_0-1_計細線
  6
Continuous
 62
     3
100
AcDbLine
 10
720.4130019828259
 20
551.6302886403353
 30
0.0
 11
720.4130019828259
 21
561.6302886403353
 31
0.0
  0
LINE
  5
1B9
330
6F
100
AcDbEntity
  8
_0-1_計細線
  6
Continuous
 62
     3
100
AcDbLine
 10
706.4130022889874
 20
547.6302886403354
 30
0.0
 11
704.4130022889873
 21
545.6302886403354
 31
0.0
  0
LINE
  5
1BA
330
6F
100
AcDbEntity
  8
_0-1_計細線
  6
Continuous
 62
     3
100
AcDbLine
 10
706.4130022889874
 20
549.6302886403354
 30
0.0
 11
706.4130022889874
 21
547.6302886403354
 31
0.0
  0
LINE
  5
1BB
330
6F
100
AcDbEntity
  8
_0-1_計細線
  6
Continuous
 62
     3
100
AcDbLine
 10
704.4130022889873
 20
551.6302886403353
 30
0.0
 11
706.4130022889874
 21
549.6302886403354
 31
0.0
  0
LINE
  5
1BC
330
6F
100
AcDbEntity
  8
_0-1_計細線
  6
Continuous
 62
     3
100
AcDbLine
 10
718.4130019828261
 20
547.6302886403354
 30
0.0
 11
720.4130019828259
 21
545.6302886403354
 31
0.0
  0
LINE
  5
1BD
330
6F
100
AcDbEntity
  8
_0-1_計細線
  6
Continuous
 62
     3
100
AcDbLine
 10
718.4130019828261
 20
549.6302886403354
 30
0.0
 11
718.4130019828261
 21
547.6302886403354
 31
0.0
  0
LINE
  5
1BE
330
6F
100
AcDbEntity
  8
_0-1_計細線
  6
Continuous
 62
     3
100
AcDbLine
 10
720.4130019828259
 20
551.6302886403353
 30
0.0
 11
718.4130019828261
 21
549.6302886403354
 31
0.0
  0
LINE
  5
1BF
330
6F
100
AcDbEntity
  8
_0-1_計細線
  6
Continuous
 62
     3
100
AcDbLine
 10
704.4130022889873
 20
545.6302886403354
 30
0.0
 11
704.4130022889873
 21
531.6302886403353
 31
0.0
  0
ARC
  5
1C0
330
6F
100
AcDbEntity
  8
_0-1_計細線
  6
Continuous
 62
     3
100
AcDbCircle
 10
707.4130022889874
 20
531.6302886403353
 30
0.0
 40
3.0
100
AcDbArc
 50
179.9999999999998
 51
269.9999999999997
  0
LINE
  5
1C1
330
6F
100
AcDbEntity
  8
_0-1_計細線
  6
Continuous
 62
     3
100
AcDbLine
 10
707.4130022889874
 20
528.6302886403354
 30
0.0
 11
717.4130019828258
 21
528.6302886403354
 31
0.0
  0
LINE
  5
1C2
330
6F
100
AcDbEntity
  8
_0-1_計細線
  6
Continuous
 62
     3
100
AcDbLine
 10
720.4130019828259
 20
545.6302886403354
 30
0.0
 11
720.4130019828259
 21
531.6302886403353
 31
0.0
  0
ARC
  5
1C3
330
6F
100
AcDbEntity
  8
_0-1_計細線
  6
Continuous
 62
     3
100
AcDbCircle
 10
717.4130019828258
 20
531.6302886403353
 30
0.0
 40
3.0
100
AcDbArc
 50
269.9999999999997
 51
359.9999999999997
  0
LINE
  5
1C4
330
6F
100
AcDbEntity
  8
_0-0_計極細
  6
CENTER1
 62
     2
100
AcDbLine
 10
712.4130021359067
 20
566.2126204803363
 30
0.0
 11
712.4130021359067
 21
523.8531887878348
 31
0.0
  0
LINE
  5
1C5
330
6F
100
AcDbEntity
  8
_0-1_計細線
  6
Continuous
 62
     3
100
AcDbLine
 10
720.4130019828259
 20
551.6302886403353
 30
0.0
 11
747.4130021359067
 21
551.6302886403353
 31
0.0
  0
LINE
  5
1C6
330
6F
100
AcDbEntity
  8
_0-5_寸法線
  6
Continuous
 62
     7
100
AcDbLine
 10
477.4129890793711
 20
786.1137355042464
 30
0.0
 11
487.0722304313607
 21
788.7019189605246
 31
0.0
  0
LINE
  5
1C7
330
6F
100
AcDbEntity
  8
_0-5_寸法線
  6
Continuous
 62
     7
100
AcDbLine
 10
477.4129890793711
 20
786.1137355042464
 30
0.0
 11
487.0722304313607
 21
783.5255453813084
 31
0.0
  0
LINE
  5
1C8
330
6F
100
AcDbEntity
  8
_0-5_寸法線
  6
Continuous
 62
     7
100
AcDbLine
 10
477.4129890793711
 20
786.1137355042464
 30
0.0
 11
521.5947061150436
 21
786.1137355042464
 31
0.0
  0
LINE
  5
1CA
330
6F
100
AcDbEntity
  8
_0-1_計細線
  6
Continuous
 62
     3
100
AcDbLine
 10
747.4129625014898
 20
630.1386720576247
 30
0.0
 11
747.4129625014898
 21
774.1386690647474
 31
0.0
  0
LINE
  5
1CB
330
6F
100
AcDbEntity
  8
_0-1_計細線
  6
Continuous
 62
     3
100
AcDbLine
 10
747.4129625014898
 20
774.1386690647473
 30
0.0
 11
161.4130021347065
 21
774.1386690647473
 31
0.0
  0
LINE
  5
1CC
330
6F
100
AcDbEntity
  8
_0-1_計細線
  6
Continuous
 62
     3
100
AcDbLine
 10
161.4130021347065
 20
774.1386690647473
 30
0.0
 11
161.4130021347065
 21
630.1386720576247
 31
0.0
  0
LINE
  5
1CD
330
6F
100
AcDbEntity
  8
_0-1_計細線
  6
Continuous
 62
     3
100
AcDbLine
 10
161.4130021347065
 20
630.1386720576247
 30
0.0
 11
747.4129625014898
 21
630.1386720576247
 31
0.0
  0
LINE
  5
1CE
330
6F
100
AcDbEntity
  8
_0-1_計細線
  6
Continuous
 62
     3
100
AcDbLine
 10
172.4130021347064
 20
763.1386690659474
 30
0.0
 11
746.4129625026904
 21
763.1386690659474
 31
0.0
  0
LINE
  5
1CF
330
6F
100
AcDbEntity
  8
_0-1_計細線
  6
Continuous
 62
     3
100
AcDbLine
 10
172.4130021347064
 20
641.1386720564248
 30
0.0
 11
746.4129625026904
 21
641.1386720564248
 31
0.0
  0
LINE
  5
1D0
330
6F
100
AcDbEntity
  8
_0-1_計細線
  6
Continuous
 62
     3
100
AcDbLine
 10
172.4130021347064
 20
763.1386690659474
 30
0.0
 11
172.4130021347064
 21
641.1386720564248
 31
0.0
  0
LINE
  5
1D1
330
6F
100
AcDbEntity
  8
_0-1_計細線
  6
Continuous
 62
     3
100
AcDbLine
 10
746.4129625026904
 20
763.1386690659474
 30
0.0
 11
746.4129625026904
 21
641.1386720564248
 31
0.0
  0
LINE
  5
1D2
330
6F
100
AcDbEntity
  8
_0-1_計細線
  6
Continuous
 62
     3
100
AcDbLine
 10
173.9130020741056
 20
761.3886681674243
 30
0.0
 11
173.9130020741056
 21
751.3886685714348
 31
0.0
  0
LINE
  5
1D3
330
6F
100
AcDbEntity
  8
_0-1_計細線
  6
Continuous
 62
     3
100
AcDbLine
 10
173.9130020741056
 20
745.888668793641
 30
0.0
 11
173.9130020741056
 21
735.8886691976513
 31
0.0
  0
LINE
  5
1D4
330
6F
100
AcDbEntity
  8
_0-1_計細線
  6
Continuous
 62
     3
100
AcDbLine
 10
173.9130020741056
 20
730.388669419857
 30
0.0
 11
173.9130020741056
 21
720.3886698238672
 31
0.0
  0
LINE
  5
1D5
330
6F
100
AcDbEntity
  8
_0-1_計細線
  6
Continuous
 62
     3
100
AcDbLine
 10
173.9130020741056
 20
761.3886681674243
 30
0.0
 11
623.367323123561
 21
761.3886681674243
 31
0.0
  0
LINE
  5
1D6
330
6F
100
AcDbEntity
  8
_0-1_計細線
  6
Continuous
 62
     3
100
AcDbLine
 10
173.9130020741056
 20
642.8886729549473
 30
0.0
 11
173.9130020741056
 21
652.8886725509364
 31
0.0
  0
LINE
  5
1D7
330
6F
100
AcDbEntity
  8
_0-1_計細線
  6
Continuous
 62
     3
100
AcDbLine
 10
173.9130020741056
 20
658.3886723287304
 30
0.0
 11
173.9130020741056
 21
668.3886719247202
 31
0.0
  0
LINE
  5
1D8
330
6F
100
AcDbEntity
  8
_0-1_計細線
  6
Continuous
 62
     3
100
AcDbLine
 10
173.9130020741056
 20
673.8886717025149
 30
0.0
 11
173.9130020741056
 21
683.8886712985044
 31
0.0
  0
LINE
  5
1D9
330
6F
100
AcDbEntity
  8
_0-1_計細線
  6
Continuous
 62
     3
100
AcDbLine
 10
173.9130020741056
 20
642.8886729549473
 30
0.0
 11
623.367323123561
 21
642.8886729549473
 31
0.0
  0
ARC
  5
1DA
330
6F
100
AcDbEntity
  8
_0-0_計極細
  6
Continuous
 62
     2
100
AcDbCircle
 10
680.6220689858101
 20
731.763669364305
 30
0.0
 40
64.47385154715509
100
AcDbArc
 50
152.6458882631094
 51
207.3541117368903
  0
ARC
  5
1DB
330
6F
100
AcDbEntity
  8
_0-0_計極細
  6
Continuous
 62
     2
100
AcDbCircle
 10
566.0928241748952
 20
672.5136717580617
 30
0.0
 40
64.47385154715509
100
AcDbArc
 50
332.6458882631088
 51
27.35411173689007
  0
LINE
  5
1DC
330
6F
100
AcDbEntity
  8
_0-1_計細線
  6
Continuous
 62
     3
100
AcDbLine
 10
173.9130020741056
 20
683.8886712985044
 30
0.0
 11
629.5553085162723
 21
683.8886712985044
 31
0.0
  0
LINE
  5
1DD
330
6F
100
AcDbEntity
  8
_0-1_計細線
  6
Continuous
 62
     3
100
AcDbLine
 10
173.9130020741056
 20
673.8886717025149
 30
0.0
 11
630.5520121039822
 21
673.8886717025149
 31
0.0
  0
LINE
  5
1DE
330
6F
100
AcDbEntity
  8
_0-1_計細線
  6
Continuous
 62
     3
100
AcDbLine
 10
173.9130020741056
 20
668.3886719247202
 30
0.0
 11
630.4345828522855
 21
668.3886719247202
 31
0.0
  0
LINE
  5
1DF
330
6F
100
AcDbEntity
  8
_0-1_計細線
  6
Continuous
 62
     3
100
AcDbLine
 10
173.9130020741056
 20
658.3886723287304
 30
0.0
 11
629.00039068677
 21
658.3886723287304
 31
0.0
  0
LINE
  5
1E0
330
6F
100
AcDbEntity
  8
_0-1_計細線
  6
Continuous
 62
     3
100
AcDbLine
 10
173.9130020741056
 20
652.8886725509364
 30
0.0
 11
627.5072926611151
 21
652.8886725509364
 31
0.0
  0
LINE
  5
1E1
330
6F
100
AcDbEntity
  8
_0-1_計細線
  6
Continuous
 62
     3
100
AcDbLine
 10
173.9130020741056
 20
751.3886685714348
 30
0.0
 11
619.2076004995915
 21
751.3886685714348
 31
0.0
  0
LINE
  5
1E2
330
6F
100
AcDbEntity
  8
_0-1_計細線
  6
Continuous
 62
     3
100
AcDbLine
 10
173.9130020741056
 20
745.888668793641
 30
0.0
 11
617.7145024739361
 21
745.888668793641
 31
0.0
  0
LINE
  5
1E3
330
6F
100
AcDbEntity
  8
_0-1_計細線
  6
Continuous
 62
     3
100
AcDbLine
 10
173.9130020741056
 20
735.8886691976513
 30
0.0
 11
616.28031030842
 21
735.8886691976513
 31
0.0
  0
LINE
  5
1E4
330
6F
100
AcDbEntity
  8
_0-1_計細線
  6
Continuous
 62
     3
100
AcDbLine
 10
173.9130020741056
 20
730.388669419857
 30
0.0
 11
616.1628810567231
 21
730.388669419857
 31
0.0
  0
LINE
  5
1E5
330
6F
100
AcDbEntity
  8
_0-1_計細線
  6
Continuous
 62
     3
100
AcDbLine
 10
173.9130020741056
 20
720.3886698238672
 30
0.0
 11
617.1595846444325
 21
720.3886698238672
 31
0.0
  0
LINE
  5
1EB
330
6F
100
AcDbEntity
  8
_0-5_寸法線
  6
Continuous
 62
     7
100
AcDbLine
 10
757.4129231732355
 20
774.1386690647474
 30
0.0
 11
810.4129625014904
 21
774.1386690647474
 31
0.0
  0
LINE
  5
1EC
330
6F
100
AcDbEntity
  8
_0-5_寸法線
  6
Continuous
 62
     7
100
AcDbLine
 10
805.4129625014903
 20
774.1386690647474
 30
0.0
 11
808.0011529525155
 21
764.4794108018567
 31
0.0
  0
LINE
  5
1ED
330
6F
100
AcDbEntity
  8
_0-5_寸法線
  6
Continuous
 62
     7
100
AcDbLine
 10
805.4129625014903
 20
774.1386690647474
 30
0.0
 11
802.8247720504651
 21
764.4794108018567
 31
0.0
  0
LINE
  5
1EE
330
6F
100
AcDbEntity
  8
_0-5_寸法線
  6
Continuous
 62
     7
100
AcDbLine
 10
757.4129231732355
 20
630.1386720576247
 30
0.0
 11
810.4129625014904
 21
630.1386720576247
 31
0.0
  0
LINE
  5
1EF
330
6F
100
AcDbEntity
  8
_0-5_寸法線
  6
Continuous
 62
     7
100
AcDbLine
 10
805.4129625014903
 20
630.1386720576247
 30
0.0
 11
802.8247720504651
 21
639.7979303205153
 31
0.0
  0
LINE
  5
1F0
330
6F
100
AcDbEntity
  8
_0-5_寸法線
  6
Continuous
 62
     7
100
AcDbLine
 10
805.4129625014903
 20
630.1386720576247
 30
0.0
 11
808.0011529525155
 21
639.7979303205153
 31
0.0
  0
LINE
  5
1F1
330
6F
100
AcDbEntity
  8
_0-5_寸法線
  6
Continuous
 62
     7
100
AcDbLine
 10
805.4129625014903
 20
774.1386690647474
 30
0.0
 11
805.4129625014903
 21
630.1386720576247
 31
0.0
  0
TEXT
  5
1F2
330
6F
100
AcDbEntity
  8
_0-5_寸法線
 62
     7
100
AcDbText
 10
805.4129625014901
 20
690.8886705611859
 30
0.0
 40
15.0
  1
144
 50
89.99999999999927
100
AcDbText
  0
LINE
  5
1F3
330
6F
100
AcDbEntity
  8
_0-0_計極細
  6
CENTER2
 62
     2
100
AcDbLine
 10
148.696178812019
 20
702.1386705611859
 30
0.0
 11
790.6571893787067
 21
702.1386705611859
 31
0.0
  0
LINE
  5
1F4
330
6F
100
AcDbEntity
  8
_0-1_計細線
  6
Continuous
 62
     3
100
AcDbLine
 10
747.4130021359067
 20
688.5386705611857
 30
0.0
 11
785.4130021359067
 21
688.5386705611857
 31
0.0
  0
LINE
  5
1F5
330
6F
100
AcDbEntity
  8
_0-1_計細線
  6
Continuous
 62
     3
100
AcDbLine
 10
747.4130021359067
 20
715.7386705611859
 30
0.0
 11
785.4130021359067
 21
715.7386705611859
 31
0.0
  0
LINE
  5
1F6
330
6F
100
AcDbEntity
  8
_0-1_計細線
  6
Continuous
 62
     3
100
AcDbLine
 10
785.4130021359067
 20
688.5386705611857
 30
0.0
 11
785.4130021359067
 21
715.7386705611859
 31
0.0
  0
LINE
  5
1F7
330
6F
100
AcDbEntity
  8
_0-0_計極細
  6
Continuous
 62
     2
100
AcDbLine
 10
767.4130021359067
 20
688.5386705611857
 30
0.0
 11
767.4130021359067
 21
715.7386705611859
 31
0.0
  0
LINE
  5
1F8
330
6F
100
AcDbEntity
  8
_0-0_計極細
  6
Continuous
 62
     2
100
AcDbLine
 10
785.4130021359067
 20
705.3448936156891
 30
0.0
 11
784.5036644819588
 21
715.7386705611859
 31
0.0
  0
LINE
  5
1F9
330
6F
100
AcDbEntity
  8
_0-0_計極細
  6
Continuous
 62
     2
100
AcDbLine
 10
783.8718966172335
 20
688.5386705611857
 30
0.0
 11
781.4922049693284
 21
715.7386705611859
 31
0.0
  0
LINE
  5
1FA
330
6F
100
AcDbEntity
  8
_0-0_計極細
  6
Continuous
 62
     2
100
AcDbLine
 10
780.8604371046034
 20
688.5386705611857
 30
0.0
 11
778.4807454566983
 21
715.7386705611859
 31
0.0
  0
LINE
  5
1FB
330
6F
100
AcDbEntity
  8
_0-0_計極細
  6
Continuous
 62
     2
100
AcDbLine
 10
777.8489775919736
 20
688.5386705611857
 30
0.0
 11
775.4692859440685
 21
715.7386705611859
 31
0.0
  0
LINE
  5
1FC
330
6F
100
AcDbEntity
  8
_0-0_計極細
  6
Continuous
 62
     2
100
AcDbLine
 10
774.8375180793435
 20
688.5386705611857
 30
0.0
 11
772.4578264314384
 21
715.7386705611859
 31
0.0
  0
LINE
  5
1FD
330
6F
100
AcDbEntity
  8
_0-0_計極細
  6
Continuous
 62
     2
100
AcDbLine
 10
771.8260585667133
 20
688.5386705611857
 30
0.0
 11
769.4463669188084
 21
715.7386705611859
 31
0.0
  0
LINE
  5
1FE
330
6F
100
AcDbEntity
  8
_0-0_計極細
  6
Continuous
 62
     2
100
AcDbLine
 10
767.4130021359067
 20
704.5589966433356
 30
0.0
 11
768.8145990540836
 21
688.5386705611857
 31
0.0
  0
LINE
  5
1FF
330
6F
100
AcDbEntity
  8
_0-1_計細線
  6
DASHED2
 62
     3
100
AcDbLine
 10
657.4129625026905
 20
724.1386690659476
 30
0.0
 11
746.4129625026904
 21
724.1386690659476
 31
0.0
  0
LINE
  5
200
330
6F
100
AcDbEntity
  8
_0-1_計細線
  6
DASHED2
 62
     3
100
AcDbLine
 10
657.4129625026905
 20
680.1386720564242
 30
0.0
 11
746.4129625026904
 21
680.1386720564242
 31
0.0
  0
LINE
  5
201
330
6F
100
AcDbEntity
  8
_0-1_計細線
  6
DASHED2
 62
     3
100
AcDbLine
 10
657.4129625026905
 20
680.1386720564242
 30
0.0
 11
657.4129625026905
 21
724.1386690659476
 31
0.0
  0
LINE
  5
202
330
6F
100
AcDbEntity
  8
_0-1_計細線
  6
Continuous
 62
     3
100
AcDbLine
 10
652.41296250149
 20
729.1386690659476
 30
0.0
 11
652.41296250149
 21
675.1386720564243
 31
0.0
  0
LINE
  5
203
330
6F
100
AcDbEntity
  8
_0-0_計極細
  6
Continuous
 62
     2
100
AcDbLine
 10
658.41296250149
 20
723.1386690659474
 30
0.0
 11
658.41296250149
 21
681.138672056424
 31
0.0
  0
LINE
  5
204
330
6F
100
AcDbEntity
  8
_0-0_計極細
  6
Continuous
 62
     2
100
AcDbLine
 10
661.4129625014901
 20
720.1386690659473
 30
0.0
 11
661.4129625014901
 21
684.1386720564241
 31
0.0
  0
LINE
  5
205
330
6F
100
AcDbEntity
  8
_0-1_計細線
  6
Continuous
 62
     3
100
AcDbLine
 10
744.4129625026904
 20
729.1386690659476
 30
0.0
 11
744.4129625026904
 21
675.1386720564243
 31
0.0
  0
LINE
  5
206
330
6F
100
AcDbEntity
  8
_0-1_計細線
  6
Continuous
 62
     3
100
AcDbLine
 10
652.41296250149
 20
675.1386720564243
 30
0.0
 11
744.4129625026904
 21
675.1386720564243
 31
0.0
  0
LINE
  5
207
330
6F
100
AcDbEntity
  8
_0-1_計細線
  6
Continuous
 62
     3
100
AcDbLine
 10
744.4129625026904
 20
729.1386690659476
 30
0.0
 11
652.41296250149
 21
729.1386690659476
 31
0.0
  0
LINE
  5
208
330
6F
100
AcDbEntity
  8
_0-0_計極細
  6
Continuous
 62
     2
100
AcDbLine
 10
738.4129625026904
 20
681.138672056424
 30
0.0
 11
738.4129625026904
 21
723.1386690659474
 31
0.0
  0
LINE
  5
209
330
6F
100
AcDbEntity
  8
_0-0_計極細
  6
Continuous
 62
     2
100
AcDbLine
 10
735.4129625026904
 20
684.1386720564241
 30
0.0
 11
735.4129625026904
 21
720.1386690659473
 31
0.0
  0
LINE
  5
20A
330
6F
100
AcDbEntity
  8
_0-0_計極細
  6
Continuous
 62
     2
100
AcDbLine
 10
738.4129625026904
 20
723.1386690659474
 30
0.0
 11
658.41296250149
 21
723.1386690659474
 31
0.0
  0
LINE
  5
20B
330
6F
100
AcDbEntity
  8
_0-0_計極細
  6
Continuous
 62
     2
100
AcDbLine
 10
658.41296250149
 20
681.138672056424
 30
0.0
 11
738.4129625026904
 21
681.138672056424
 31
0.0
  0
LINE
  5
20C
330
6F
100
AcDbEntity
  8
_0-0_計極細
  6
Continuous
 62
     2
100
AcDbLine
 10
735.4129625026904
 20
720.1386690659473
 30
0.0
 11
661.4129625014901
 21
720.1386690659473
 31
0.0
  0
LINE
  5
20D
330
6F
100
AcDbEntity
  8
_0-0_計極細
  6
Continuous
 62
     2
100
AcDbLine
 10
661.4129625014901
 20
684.1386720564241
 30
0.0
 11
735.4129625026904
 21
684.1386720564241
 31
0.0
  0
CIRCLE
  5
20E
330
6F
100
AcDbEntity
  8
_0-0_計極細
  6
Continuous
 62
     2
100
AcDbCircle
 10
730.4129625014899
 20
688.1386705611857
 30
0.0
 40
2.5
  0
CIRCLE
  5
20F
330
6F
100
AcDbEntity
  8
_0-0_計極細
  6
Continuous
 62
     2
100
AcDbCircle
 10
726.4129625014901
 20
695.1386705611858
 30
0.0
 40
2.5
  0
CIRCLE
  5
210
330
6F
100
AcDbEntity
  8
_0-0_計極細
  6
Continuous
 62
     2
100
AcDbCircle
 10
730.4129625014899
 20
716.1386705611858
 30
0.0
 40
2.5
  0
CIRCLE
  5
211
330
6F
100
AcDbEntity
  8
_0-0_計極細
  6
Continuous
 62
     2
100
AcDbCircle
 10
726.4129625014901
 20
709.1386705611857
 30
0.0
 40
2.5
  0
CIRCLE
  5
212
330
6F
100
AcDbEntity
  8
_0-0_計極細
  6
Continuous
 62
     2
100
AcDbCircle
 10
730.4129625014899
 20
702.1386705611859
 30
0.0
 40
2.5
  0
CIRCLE
  5
213
330
6F
100
AcDbEntity
  8
_0-0_計極細
  6
Continuous
 62
     2
100
AcDbCircle
 10
666.4129625014901
 20
688.1386705611857
 30
0.0
 40
2.5
  0
CIRCLE
  5
214
330
6F
100
AcDbEntity
  8
_0-0_計極細
  6
Continuous
 62
     2
100
AcDbCircle
 10
674.41296250149
 20
688.1386705611857
 30
0.0
 40
2.5
  0
CIRCLE
  5
215
330
6F
100
AcDbEntity
  8
_0-0_計極細
  6
Continuous
 62
     2
100
AcDbCircle
 10
682.41296250149
 20
688.1386705611857
 30
0.0
 40
2.5
  0
CIRCLE
  5
216
330
6F
100
AcDbEntity
  8
_0-0_計極細
  6
Continuous
 62
     2
100
AcDbCircle
 10
690.41296250149
 20
688.1386705611857
 30
0.0
 40
2.5
  0
CIRCLE
  5
217
330
6F
100
AcDbEntity
  8
_0-0_計極細
  6
Continuous
 62
     2
100
AcDbCircle
 10
698.41296250149
 20
688.1386705611857
 30
0.0
 40
2.5
  0
CIRCLE
  5
218
330
6F
100
AcDbEntity
  8
_0-0_計極細
  6
Continuous
 62
     2
100
AcDbCircle
 10
706.4129625014901
 20
688.1386705611857
 30
0.0
 40
2.5
  0
CIRCLE
  5
219
330
6F
100
AcDbEntity
  8
_0-0_計極細
  6
Continuous
 62
     2
100
AcDbCircle
 10
714.41296250149
 20
688.1386705611857
 30
0.0
 40
2.5
  0
CIRCLE
  5
21A
330
6F
100
AcDbEntity
  8
_0-0_計極細
  6
Continuous
 62
     2
100
AcDbCircle
 10
722.4129625014898
 20
688.1386705611857
 30
0.0
 40
2.5
  0
CIRCLE
  5
21B
330
6F
100
AcDbEntity
  8
_0-0_計極細
  6
Continuous
 62
     2
100
AcDbCircle
 10
670.41296250149
 20
695.1386705611858
 30
0.0
 40
2.5
  0
CIRCLE
  5
21C
330
6F
100
AcDbEntity
  8
_0-0_計極細
  6
Continuous
 62
     2
100
AcDbCircle
 10
678.41296250149
 20
695.1386705611858
 30
0.0
 40
2.5
  0
CIRCLE
  5
21D
330
6F
100
AcDbEntity
  8
_0-0_計極細
  6
Continuous
 62
     2
100
AcDbCircle
 10
686.4129625014901
 20
695.1386705611858
 30
0.0
 40
2.5
  0
CIRCLE
  5
21E
330
6F
100
AcDbEntity
  8
_0-0_計極細
  6
Continuous
 62
     2
100
AcDbCircle
 10
694.41296250149
 20
695.1386705611858
 30
0.0
 40
2.5
  0
CIRCLE
  5
21F
330
6F
100
AcDbEntity
  8
_0-0_計極細
  6
Continuous
 62
     2
100
AcDbCircle
 10
702.41296250149
 20
695.1386705611858
 30
0.0
 40
2.5
  0
CIRCLE
  5
220
330
6F
100
AcDbEntity
  8
_0-0_計極細
  6
Continuous
 62
     2
100
AcDbCircle
 10
710.41296250149
 20
695.1386705611858
 30
0.0
 40
2.5
  0
CIRCLE
  5
221
330
6F
100
AcDbEntity
  8
_0-0_計極細
  6
Continuous
 62
     2
100
AcDbCircle
 10
718.41296250149
 20
695.1386705611858
 30
0.0
 40
2.5
  0
CIRCLE
  5
222
330
6F
100
AcDbEntity
  8
_0-0_計極細
  6
Continuous
 62
     2
100
AcDbCircle
 10
666.4129625014901
 20
716.1386705611858
 30
0.0
 40
2.5
  0
CIRCLE
  5
223
330
6F
100
AcDbEntity
  8
_0-0_計極細
  6
Continuous
 62
     2
100
AcDbCircle
 10
674.41296250149
 20
716.1386705611858
 30
0.0
 40
2.5
  0
CIRCLE
  5
224
330
6F
100
AcDbEntity
  8
_0-0_計極細
  6
Continuous
 62
     2
100
AcDbCircle
 10
682.41296250149
 20
716.1386705611858
 30
0.0
 40
2.5
  0
CIRCLE
  5
225
330
6F
100
AcDbEntity
  8
_0-0_計極細
  6
Continuous
 62
     2
100
AcDbCircle
 10
690.41296250149
 20
716.1386705611858
 30
0.0
 40
2.5
  0
CIRCLE
  5
226
330
6F
100
AcDbEntity
  8
_0-0_計極細
  6
Continuous
 62
     2
100
AcDbCircle
 10
698.41296250149
 20
716.1386705611858
 30
0.0
 40
2.5
  0
CIRCLE
  5
227
330
6F
100
AcDbEntity
  8
_0-0_計極細
  6
Continuous
 62
     2
100
AcDbCircle
 10
706.4129625014901
 20
716.1386705611858
 30
0.0
 40
2.5
  0
CIRCLE
  5
228
330
6F
100
AcDbEntity
  8
_0-0_計極細
  6
Continuous
 62
     2
100
AcDbCircle
 10
714.41296250149
 20
716.1386705611858
 30
0.0
 40
2.5
  0
CIRCLE
  5
229
330
6F
100
AcDbEntity
  8
_0-0_計極細
  6
Continuous
 62
     2
100
AcDbCircle
 10
722.4129625014898
 20
716.1386705611858
 30
0.0
 40
2.5
  0
CIRCLE
  5
22A
330
6F
100
AcDbEntity
  8
_0-0_計極細
  6
Continuous
 62
     2
100
AcDbCircle
 10
670.41296250149
 20
709.1386705611857
 30
0.0
 40
2.5
  0
CIRCLE
  5
22B
330
6F
100
AcDbEntity
  8
_0-0_計極細
  6
Continuous
 62
     2
100
AcDbCircle
 10
678.41296250149
 20
709.1386705611857
 30
0.0
 40
2.5
  0
CIRCLE
  5
22C
330
6F
100
AcDbEntity
  8
_0-0_計極細
  6
Continuous
 62
     2
100
AcDbCircle
 10
686.4129625014901
 20
709.1386705611857
 30
0.0
 40
2.5
  0
CIRCLE
  5
22D
330
6F
100
AcDbEntity
  8
_0-0_計極細
  6
Continuous
 62
     2
100
AcDbCircle
 10
694.41296250149
 20
709.1386705611857
 30
0.0
 40
2.5
  0
CIRCLE
  5
22E
330
6F
100
AcDbEntity
  8
_0-0_計極細
  6
Continuous
 62
     2
100
AcDbCircle
 10
702.41296250149
 20
709.1386705611857
 30
0.0
 40
2.5
  0
CIRCLE
  5
22F
330
6F
100
AcDbEntity
  8
_0-0_計極細
  6
Continuous
 62
     2
100
AcDbCircle
 10
710.41296250149
 20
709.1386705611857
 30
0.0
 40
2.5
  0
CIRCLE
  5
230
330
6F
100
AcDbEntity
  8
_0-0_計極細
  6
Continuous
 62
     2
100
AcDbCircle
 10
718.41296250149
 20
709.1386705611857
 30
0.0
 40
2.5
  0
CIRCLE
  5
231
330
6F
100
AcDbEntity
  8
_0-0_計極細
  6
Continuous
 62
     2
100
AcDbCircle
 10
666.4129625014901
 20
702.1386705611859
 30
0.0
 40
2.5
  0
CIRCLE
  5
232
330
6F
100
AcDbEntity
  8
_0-0_計極細
  6
Continuous
 62
     2
100
AcDbCircle
 10
674.41296250149
 20
702.1386705611859
 30
0.0
 40
2.5
  0
CIRCLE
  5
233
330
6F
100
AcDbEntity
  8
_0-0_計極細
  6
Continuous
 62
     2
100
AcDbCircle
 10
682.41296250149
 20
702.1386705611859
 30
0.0
 40
2.5
  0
CIRCLE
  5
234
330
6F
100
AcDbEntity
  8
_0-0_計極細
  6
Continuous
 62
     2
100
AcDbCircle
 10
690.41296250149
 20
702.1386705611859
 30
0.0
 40
2.5
  0
CIRCLE
  5
235
330
6F
100
AcDbEntity
  8
_0-0_計極細
  6
Continuous
 62
     2
100
AcDbCircle
 10
698.41296250149
 20
702.1386705611859
 30
0.0
 40
2.5
  0
CIRCLE
  5
236
330
6F
100
AcDbEntity
  8
_0-0_計極細
  6
Continuous
 62
     2
100
AcDbCircle
 10
706.4129625014901
 20
702.1386705611859
 30
0.0
 40
2.5
  0
CIRCLE
  5
237
330
6F
100
AcDbEntity
  8
_0-0_計極細
  6
Continuous
 62
     2
100
AcDbCircle
 10
714.41296250149
 20
702.1386705611859
 30
0.0
 40
2.5
  0
CIRCLE
  5
238
330
6F
100
AcDbEntity
  8
_0-0_計極細
  6
Continuous
 62
     2
100
AcDbCircle
 10
722.4129625014898
 20
702.1386705611859
 30
0.0
 40
2.5
  0
LINE
  5
239
330
6F
100
AcDbEntity
  8
_0-1_計細線
  6
Continuous
 62
     3
100
AcDbLine
 10
173.9130020741056
 20
704.8886704500833
 30
0.0
 11
173.9130020741056
 21
714.8886700460725
 31
0.0
  0
LINE
  5
23A
330
6F
100
AcDbEntity
  8
_0-1_計細線
  6
Continuous
 62
     3
100
AcDbLine
 10
173.9130020741056
 20
714.8886700460725
 30
0.0
 11
618.3957728455588
 21
714.8886700460725
 31
0.0
  0
LINE
  5
23B
330
6F
100
AcDbEntity
  8
_0-1_計細線
  6
Continuous
 62
     3
100
AcDbLine
 10
173.9130020741056
 20
714.8886700460725
 30
0.0
 11
173.9130020741056
 21
704.8886704500833
 31
0.0
  0
LINE
  5
23C
330
6F
100
AcDbEntity
  8
_0-1_計細線
  6
Continuous
 62
     3
100
AcDbLine
 10
173.9130020741056
 20
704.8886704500833
 30
0.0
 11
622.0165063941484
 21
704.8886704500833
 31
0.0
  0
LINE
  5
242
330
6F
100
AcDbEntity
  8
_0-5_寸法線
  6
Continuous
 62
     7
100
AcDbLine
 10
657.4129625026905
 20
734.1386660730703
 30
0.0
 11
657.4129625026897
 21
819.1386660718702
 31
0.0
  0
LINE
  5
243
330
6F
100
AcDbEntity
  8
_0-5_寸法線
  6
Continuous
 62
     7
100
AcDbLine
 10
657.4129625026897
 20
814.1386660718701
 30
0.0
 11
667.0722207655804
 21
816.7268565228951
 31
0.0
  0
LINE
  5
244
330
6F
100
AcDbEntity
  8
_0-5_寸法線
  6
Continuous
 62
     7
100
AcDbLine
 10
657.4129625026897
 20
814.1386660718701
 30
0.0
 11
667.0722207655804
 21
811.5504756208446
 31
0.0
  0
LINE
  5
245
330
6F
100
AcDbEntity
  8
_0-5_寸法線
  6
Continuous
 62
     7
100
AcDbLine
 10
747.4129625014898
 20
784.1386660718701
 30
0.0
 11
747.4129625014896
 21
819.1386660718702
 31
0.0
  0
LINE
  5
246
330
6F
100
AcDbEntity
  8
_0-5_寸法線
  6
Continuous
 62
     7
100
AcDbLine
 10
747.4129625014896
 20
814.1386660718701
 30
0.0
 11
737.7537042385987
 21
811.5504756208446
 31
0.0
  0
LINE
  5
247
330
6F
100
AcDbEntity
  8
_0-5_寸法線
  6
Continuous
 62
     7
100
AcDbLine
 10
747.4129625014896
 20
814.1386660718701
 30
0.0
 11
737.7537042385987
 21
816.7268565228951
 31
0.0
  0
LINE
  5
248
330
6F
100
AcDbEntity
  8
_0-5_寸法線
  6
Continuous
 62
     7
100
AcDbLine
 10
657.4129625026897
 20
814.1386660718701
 30
0.0
 11
747.4129625014896
 21
814.1386660718701
 31
0.0
  0
TEXT
  5
249
330
6F
100
AcDbEntity
  8
_0-5_寸法線
 62
     7
100
AcDbText
 10
694.9129625020897
 20
814.1386660718701
 30
0.0
 40
15.0
  1
90
100
AcDbText
  0
LINE
  5
24A
330
6F
100
AcDbEntity
  8
_0-5_寸法線
  6
Continuous
 62
     7
100
AcDbLine
 10
172.4130021347062
 20
784.1386690647473
 30
0.0
 11
172.4130021347064
 21
854.1386675683085
 31
0.0
  0
LINE
  5
24B
330
6F
100
AcDbEntity
  8
_0-5_寸法線
  6
Continuous
 62
     7
100
AcDbLine
 10
172.4130021347064
 20
849.1386675683086
 30
0.0
 11
162.7537438718157
 21
846.5504771172833
 31
0.0
  0
LINE
  5
24C
330
6F
100
AcDbEntity
  8
_0-5_寸法線
  6
Continuous
 62
     7
100
AcDbLine
 10
172.4130021347064
 20
849.1386675683086
 30
0.0
 11
162.7537438718157
 21
851.7268580193338
 31
0.0
  0
LINE
  5
24D
330
6F
100
AcDbEntity
  8
_0-5_寸法線
  6
Continuous
 62
     7
100
AcDbLine
 10
173.9130020741054
 20
784.1386690647473
 30
0.0
 11
173.9130020741056
 21
854.1386675683085
 31
0.0
  0
LINE
  5
24E
330
6F
100
AcDbEntity
  8
_0-5_寸法線
  6
Continuous
 62
     7
100
AcDbLine
 10
147.4130021347064
 20
849.1386675683086
 30
0.0
 11
173.9130020741056
 21
849.1386675683086
 31
0.0
  0
TEXT
  5
24F
330
6F
100
AcDbEntity
  8
_0-5_寸法線
 62
     7
100
AcDbText
 10
150.0183822721803
 20
849.1386675683086
 30
0.0
 40
15.0
  1
1.5
100
AcDbText
  0
LINE
  5
250
330
6F
100
AcDbEntity
  8
_0-5_寸法線
  6
Continuous
 62
     7
100
AcDbLine
 10
173.9130020741056
 20
849.1386675683086
 30
0.0
 11
183.5722603369963
 21
851.7268580193338
 31
0.0
  0
LINE
  5
251
330
6F
100
AcDbEntity
  8
_0-5_寸法線
  6
Continuous
 62
     7
100
AcDbLine
 10
173.9130020741056
 20
849.1386675683086
 30
0.0
 11
183.5722603369963
 21
846.5504771172833
 31
0.0
  0
LINE
  5
252
330
6F
100
AcDbEntity
  8
_0-5_寸法線
  6
Continuous
 62
     7
100
AcDbLine
 10
744.9129625026902
 20
784.1386690647473
 30
0.0
 11
744.9129625026905
 21
854.1386675683085
 31
0.0
  0
LINE
  5
253
330
6F
100
AcDbEntity
  8
_0-5_寸法線
  6
Continuous
 62
     7
100
AcDbLine
 10
744.9129625026905
 20
849.1386675683086
 30
0.0
 11
735.2537042397998
 21
846.5504771172833
 31
0.0
  0
LINE
  5
254
330
6F
100
AcDbEntity
  8
_0-5_寸法線
  6
Continuous
 62
     7
100
AcDbLine
 10
744.9129625026905
 20
849.1386675683086
 30
0.0
 11
735.2537042397998
 21
851.7268580193338
 31
0.0
  0
LINE
  5
255
330
6F
100
AcDbEntity
  8
_0-5_寸法線
  6
Continuous
 62
     7
100
AcDbLine
 10
173.9130020741056
 20
849.1386675683086
 30
0.0
 11
744.9129625026905
 21
849.1386675683086
 31
0.0
  0
TEXT
  5
256
330
6F
100
AcDbEntity
  8
_0-5_寸法線
 62
     7
100
AcDbText
 10
451.912982288398
 20
849.1386675683086
 30
0.0
 40
15.0
  1
Ｂ
100
AcDbText
  0
LINE
  5
257
330
6F
100
AcDbEntity
  8
_0-5_寸法線
  6
Continuous
 62
     7
100
AcDbLine
 10
746.4129625026902
 20
784.1386690647473
 30
0.0
 11
746.4129625026904
 21
854.1386675683085
 31
0.0
  0
LINE
  5
258
330
6F
100
AcDbEntity
  8
_0-5_寸法線
  6
Continuous
 62
     7
100
AcDbLine
 10
746.4129625026904
 20
849.1386675683086
 30
0.0
 11
756.072220765581
 21
851.7268580193338
 31
0.0
  0
LINE
  5
259
330
6F
100
AcDbEntity
  8
_0-5_寸法線
  6
Continuous
 62
     7
100
AcDbLine
 10
746.4129625026904
 20
849.1386675683086
 30
0.0
 11
756.072220765581
 21
846.5504771172833
 31
0.0
  0
LINE
  5
25A
330
6F
100
AcDbEntity
  8
_0-5_寸法線
  6
Continuous
 62
     7
100
AcDbLine
 10
744.9129625026905
 20
849.1386675683086
 30
0.0
 11
771.4129625026904
 21
849.1386675683086
 31
0.0
  0
TEXT
  5
25B
330
6F
100
AcDbEntity
  8
_0-5_寸法線
 62
     7
100
AcDbText
 10
746.5961600499571
 20
849.1386675683086
 30
0.0
 40
15.0
  1
1.5
100
AcDbText
  0
LINE
  5
25C
330
6F
100
AcDbEntity
  8
_0-5_寸法線
  6
Continuous
 62
     7
100
AcDbLine
 10
161.4130021347065
 20
784.1386690647473
 30
0.0
 11
161.4130021347069
 21
924.1386675683086
 31
0.0
  0
LINE
  5
25D
330
6F
100
AcDbEntity
  8
_0-5_寸法線
  6
Continuous
 62
     7
100
AcDbLine
 10
161.4130021347069
 20
919.1386675683085
 30
0.0
 11
171.0722603975975
 21
921.7268580193337
 31
0.0
  0
LINE
  5
25E
330
6F
100
AcDbEntity
  8
_0-5_寸法線
  6
Continuous
 62
     7
100
AcDbLine
 10
161.4130021347069
 20
919.1386675683085
 30
0.0
 11
171.0722603975975
 21
916.5504771172832
 31
0.0
  0
LINE
  5
25F
330
6F
100
AcDbEntity
  8
_0-5_寸法線
  6
Continuous
 62
     7
100
AcDbLine
 10
747.4129625014897
 20
784.1386690647473
 30
0.0
 11
747.4129625014903
 21
924.1386675683086
 31
0.0
  0
LINE
  5
260
330
6F
100
AcDbEntity
  8
_0-5_寸法線
  6
Continuous
 62
     7
100
AcDbLine
 10
747.4129625014903
 20
919.1386675683085
 30
0.0
 11
737.7537042385995
 21
916.5504771172832
 31
0.0
  0
LINE
  5
261
330
6F
100
AcDbEntity
  8
_0-5_寸法線
  6
Continuous
 62
     7
100
AcDbLine
 10
747.4129625014903
 20
919.1386675683085
 30
0.0
 11
737.7537042385995
 21
921.7268580193337
 31
0.0
  0
LINE
  5
262
330
6F
100
AcDbEntity
  8
_0-5_寸法線
  6
Continuous
 62
     7
100
AcDbLine
 10
161.4130021347069
 20
919.1386675683085
 30
0.0
 11
747.4129625014903
 21
919.1386675683085
 31
0.0
  0
TEXT
  5
263
330
6F
100
AcDbEntity
  8
_0-5_寸法線
 62
     7
100
AcDbText
 10
446.9129823180985
 20
919.1386675683085
 30
0.0
 40
15.0
  1
Ｌ
100
AcDbText
  0
LINE
  5
264
330
6F
100
AcDbEntity
  8
_0-5_寸法線
  6
Continuous
 62
     7
100
AcDbLine
 10
161.4130021347065
 20
784.1386690647473
 30
0.0
 11
161.4130021347065
 21
889.1386675683087
 31
0.0
  0
LINE
  5
265
330
6F
100
AcDbEntity
  8
_0-5_寸法線
  6
Continuous
 62
     7
100
AcDbLine
 10
161.4130021347065
 20
884.1386675683086
 30
0.0
 11
151.7537438718159
 21
881.5504771172832
 31
0.0
  0
LINE
  5
266
330
6F
100
AcDbEntity
  8
_0-5_寸法線
  6
Continuous
 62
     7
100
AcDbLine
 10
161.4130021347065
 20
884.1386675683086
 30
0.0
 11
151.7537438718159
 21
886.7268580193337
 31
0.0
  0
LINE
  5
267
330
6F
100
AcDbEntity
  8
_0-5_寸法線
  6
Continuous
 62
     7
100
AcDbLine
 10
172.4130021347062
 20
784.1386690647473
 30
0.0
 11
172.4130021347068
 21
889.1386675683087
 31
0.0
  0
LINE
  5
268
330
6F
100
AcDbEntity
  8
_0-5_寸法線
  6
Continuous
 62
     7
100
AcDbLine
 10
136.4130021347065
 20
884.1386675683086
 30
0.0
 11
172.4130021347066
 21
884.1386675683086
 31
0.0
  0
TEXT
  5
269
330
6F
100
AcDbEntity
  8
_0-5_寸法線
 62
     7
100
AcDbText
 10
140.2889673631477
 20
884.1386675683086
 30
0.0
 40
15.0
  1
11
100
AcDbText
  0
LINE
  5
26A
330
6F
100
AcDbEntity
  8
_0-5_寸法線
  6
Continuous
 62
     7
100
AcDbLine
 10
172.4130021347066
 20
884.1386675683086
 30
0.0
 11
182.0722603975974
 21
886.7268580193337
 31
0.0
  0
LINE
  5
26B
330
6F
100
AcDbEntity
  8
_0-5_寸法線
  6
Continuous
 62
     7
100
AcDbLine
 10
172.4130021347066
 20
884.1386675683086
 30
0.0
 11
182.0722603975974
 21
881.5504771172832
 31
0.0
  0
LINE
  5
26C
330
6F
100
AcDbEntity
  8
_0-5_寸法線
  6
Continuous
 62
     7
100
AcDbLine
 10
746.4129625026902
 20
784.1386690647473
 30
0.0
 11
746.4129625026902
 21
889.1386675683087
 31
0.0
  0
LINE
  5
26D
330
6F
100
AcDbEntity
  8
_0-5_寸法線
  6
Continuous
 62
     7
100
AcDbLine
 10
746.4129625026902
 20
884.1386675683086
 30
0.0
 11
736.7537042397996
 21
881.5504771172832
 31
0.0
  0
LINE
  5
26E
330
6F
100
AcDbEntity
  8
_0-5_寸法線
  6
Continuous
 62
     7
100
AcDbLine
 10
746.4129625026902
 20
884.1386675683086
 30
0.0
 11
736.7537042397996
 21
886.7268580193337
 31
0.0
  0
LINE
  5
26F
330
6F
100
AcDbEntity
  8
_0-5_寸法線
  6
Continuous
 62
     7
100
AcDbLine
 10
172.4130021347066
 20
884.1386675683086
 30
0.0
 11
746.4129625026902
 21
884.1386675683086
 31
0.0
  0
TEXT
  5
270
330
6F
100
AcDbEntity
  8
_0-5_寸法線
 62
     7
100
AcDbText
 10
451.9129823186983
 20
884.1386675683086
 30
0.0
 40
15.0
  1
Ａ
100
AcDbText
  0
LINE
  5
271
330
6F
100
AcDbEntity
  8
_0-5_寸法線
  6
Continuous
 62
     7
100
AcDbLine
 10
747.4129625014897
 20
784.1386690647473
 30
0.0
 11
747.4129625014897
 21
889.1386675683087
 31
0.0
  0
LINE
  5
272
330
6F
100
AcDbEntity
  8
_0-5_寸法線
  6
Continuous
 62
     7
100
AcDbLine
 10
747.4129625014897
 20
884.1386675683086
 30
0.0
 11
757.0722207643805
 21
886.7268580193337
 31
0.0
  0
LINE
  5
273
330
6F
100
AcDbEntity
  8
_0-5_寸法線
  6
Continuous
 62
     7
100
AcDbLine
 10
747.4129625014897
 20
884.1386675683086
 30
0.0
 11
757.0722207643805
 21
881.5504771172832
 31
0.0
  0
LINE
  5
274
330
6F
100
AcDbEntity
  8
_0-5_寸法線
  6
Continuous
 62
     7
100
AcDbLine
 10
746.4129625026902
 20
884.1386675683086
 30
0.0
 11
772.4129625014898
 21
884.1386675683086
 31
0.0
  0
TEXT
  5
275
330
6F
100
AcDbEntity
  8
_0-5_寸法線
 62
     7
100
AcDbText
 10
754.9279591339149
 20
884.1386675683086
 30
0.0
 40
15.0
  1
1
100
AcDbText
  0
LINE
  5
276
330
6F
100
AcDbEntity
  8
_0-0_計極細
  6
CENTER1
 62
     2
100
AcDbLine
 10
213.412988969371
 20
766.7596272017795
 30
0.0
 11
213.412988969371
 21
637.7779165556428
 31
0.0
  0
LINE
  5
277
330
6F
100
AcDbEntity
  8
_0-5_寸法線
  6
Continuous
 62
     7
100
AcDbLine
 10
477.4129890793711
 20
607.4883181172846
 30
0.0
 11
487.0722304313607
 21
604.9001279943472
 31
0.0
  0
LINE
  5
278
330
6F
100
AcDbEntity
  8
_0-5_寸法線
  6
Continuous
 62
     7
100
AcDbLine
 10
477.4129890793711
 20
607.4883181172846
 30
0.0
 11
487.0722304313607
 21
610.0765015735634
 31
0.0
  0
LINE
  5
279
330
6F
100
AcDbEntity
  8
_0-5_寸法線
  6
Continuous
 62
     7
100
AcDbLine
 10
477.4129890793711
 20
607.4883181172846
 30
0.0
 11
521.5947061150436
 21
607.4883181172846
 31
0.0
  0
LINE
  5
27A
330
6F
100
AcDbEntity
  8
_0-0_計極細
  6
CENTER1
 62
     2
100
AcDbLine
 10
477.4129890793711
 20
810.3669696649749
 30
0.0
 11
477.4129890793711
 21
600.1360643078727
 31
0.0
  0
LINE
  5
27C
330
6F
100
AcDbEntity
  8
_0-5_寸法線
  6
Continuous
 62
     7
100
AcDbLine
 10
151.4130021347065
 20
571.6302886403353
 30
0.0
 11
116.4130021347065
 21
571.630288640335
 31
0.0
  0
LINE
  5
27D
330
6F
100
AcDbEntity
  8
_0-5_寸法線
  6
Continuous
 62
     7
100
AcDbLine
 10
121.4130021347065
 20
571.630288640335
 30
0.0
 11
124.0011925857318
 21
561.9710303774443
 31
0.0
  0
LINE
  5
27E
330
6F
100
AcDbEntity
  8
_0-5_寸法線
  6
Continuous
 62
     7
100
AcDbLine
 10
121.4130021347065
 20
571.630288640335
 30
0.0
 11
118.8248116836813
 21
561.9710303774443
 31
0.0
  0
LINE
  5
27F
330
6F
100
AcDbEntity
  8
_0-5_寸法線
  6
Continuous
 62
     7
100
AcDbLine
 10
151.4130021347065
 20
551.6302886403352
 30
0.0
 11
116.4130021347065
 21
551.630288640335
 31
0.0
  0
LINE
  5
280
330
6F
100
AcDbEntity
  8
_0-5_寸法線
  6
Continuous
 62
     7
100
AcDbLine
 10
121.4130021347065
 20
551.630288640335
 30
0.0
 11
118.8248116836813
 21
561.2895469032257
 31
0.0
  0
LINE
  5
281
330
6F
100
AcDbEntity
  8
_0-5_寸法線
  6
Continuous
 62
     7
100
AcDbLine
 10
121.4130021347065
 20
551.630288640335
 30
0.0
 11
124.0011925857317
 21
561.2895469032257
 31
0.0
  0
LINE
  5
282
330
6F
100
AcDbEntity
  8
_0-5_寸法線
  6
Continuous
 62
     7
100
AcDbLine
 10
121.4130021347065
 20
571.630288640335
 30
0.0
 11
121.4130021347065
 21
551.630288640335
 31
0.0
  0
TEXT
  5
283
330
6F
100
AcDbEntity
  8
_0-5_寸法線
 62
     7
100
AcDbText
 10
121.4130021347065
 20
554.130288640335
 30
0.0
 40
15.0
  1
20
 50
90.0
100
AcDbText
  0
LINE
  5
284
330
6F
100
AcDbEntity
  8
_0-1_計細線
  6
Continuous
 62
     3
100
AcDbLine
 10
900.5793005073121
 20
725.1386690647473
 30
0.0
 11
900.5793005073121
 21
679.1386690647471
 31
0.0
  0
LINE
  5
285
330
6F
100
AcDbEntity
  8
_0-1_計細線
  6
Continuous
 62
     3
100
AcDbLine
 10
900.5793005073121
 20
679.1386690647471
 30
0.0
 11
870.579300507312
 21
679.1386690647471
 31
0.0
  0
LINE
  5
286
330
6F
100
AcDbEntity
  8
_0-1_計細線
  6
Continuous
 62
     3
100
AcDbLine
 10
870.579300507312
 20
725.1386690647473
 30
0.0
 11
900.5793005073121
 21
725.1386690647473
 31
0.0
  0
LINE
  5
287
330
6F
100
AcDbEntity
  8
_0-0_計極細
  6
CENTER1
 62
     2
100
AcDbLine
 10
843.8237449517561
 20
702.1386690647473
 30
0.0
 11
906.5080557186087
 21
702.1386690647473
 31
0.0
  0
CIRCLE
  5
288
330
6F
100
AcDbEntity
  8
_0-1_計細線
  6
Continuous
 62
     3
100
AcDbCircle
 10
886.9793005073118
 20
702.1386690647473
 30
0.0
 40
13.6
  0
CIRCLE
  5
289
330
6F
100
AcDbEntity
  8
_0-1_計細線
  6
Continuous
 62
     3
100
AcDbCircle
 10
886.9793005073118
 20
702.1386690647473
 30
0.0
 40
10.6
  0
LINE
  5
28A
330
6F
100
AcDbEntity
  8
_0-5_寸法線
  6
Continuous
 62
     7
100
AcDbLine
 10
910.579300507312
 20
725.1386690647473
 30
0.0
 11
945.579300507312
 21
725.1386690647462
 31
0.0
  0
LINE
  5
28B
330
6F
100
AcDbEntity
  8
_0-5_寸法線
  6
Continuous
 62
     7
100
AcDbLine
 10
940.5793005073119
 20
725.1386690647464
 30
0.0
 11
943.1674909583373
 21
715.4794108018555
 31
0.0
  0
LINE
  5
28C
330
6F
100
AcDbEntity
  8
_0-5_寸法線
  6
Continuous
 62
     7
100
AcDbLine
 10
940.5793005073119
 20
725.1386690647464
 30
0.0
 11
937.9911100562868
 21
715.4794108018555
 31
0.0
  0
LINE
  5
28D
330
6F
100
AcDbEntity
  8
_0-5_寸法線
  6
Continuous
 62
     7
100
AcDbLine
 10
910.579300507312
 20
679.1386690647471
 30
0.0
 11
945.579300507312
 21
679.1386690647463
 31
0.0
  0
LINE
  5
28E
330
6F
100
AcDbEntity
  8
_0-5_寸法線
  6
Continuous
 62
     7
100
AcDbLine
 10
940.5793005073119
 20
679.1386690647463
 30
0.0
 11
937.9911100562868
 21
688.7979273276371
 31
0.0
  0
LINE
  5
28F
330
6F
100
AcDbEntity
  8
_0-5_寸法線
  6
Continuous
 62
     7
100
AcDbLine
 10
940.5793005073119
 20
679.1386690647463
 30
0.0
 11
943.1674909583373
 21
688.7979273276371
 31
0.0
  0
LINE
  5
290
330
6F
100
AcDbEntity
  8
_0-5_寸法線
  6
Continuous
 62
     7
100
AcDbLine
 10
940.5793005073119
 20
725.1386690647464
 30
0.0
 11
940.5793005073119
 21
679.1386690647463
 31
0.0
  0
TEXT
  5
291
330
6F
100
AcDbEntity
  8
_0-5_寸法線
 62
     7
100
AcDbText
 10
940.5793005073119
 20
694.6386690647464
 30
0.0
 40
15.0
  1
46
 50
90.0
100
AcDbText
  0
LINE
  5
292
330
6F
100
AcDbEntity
  8
_0-1_計細線
  6
Continuous
 62
     3
100
AcDbLine
 10
870.579300507312
 20
765.1386690647473
 30
0.0
 11
858.5793005073117
 21
765.1386690647473
 31
0.0
  0
LINE
  5
293
330
6F
100
AcDbEntity
  8
_0-1_計細線
  6
Continuous
 62
     3
100
AcDbLine
 10
850.5793005073121
 20
774.1386690647473
 30
0.0
 11
858.5793005073117
 21
774.1386690647473
 31
0.0
  0
LINE
  5
294
330
6F
100
AcDbEntity
  8
_0-1_計細線
  6
Continuous
 62
     3
100
AcDbLine
 10
858.5793005073117
 20
774.1386690647473
 30
0.0
 11
858.5793005073117
 21
765.1386690647473
 31
0.0
  0
LINE
  5
295
330
6F
100
AcDbEntity
  8
_0-1_計細線
  6
Continuous
 62
     3
100
AcDbLine
 10
870.579300507312
 20
725.1386690647473
 30
0.0
 11
870.579300507312
 21
765.1386690647473
 31
0.0
  0
LINE
  5
296
330
6F
100
AcDbEntity
  8
_0-1_計細線
  6
Continuous
 62
     3
100
AcDbLine
 10
858.5793005073117
 20
766.3386690647473
 30
0.0
 11
858.5793005073117
 21
765.1386690647473
 31
0.0
  0
LINE
  5
297
330
6F
100
AcDbEntity
  8
_0-1_計細線
  6
Continuous
 62
     3
100
AcDbLine
 10
858.5793005073117
 20
765.1386690647473
 30
0.0
 11
893.5793005073115
 21
765.1386690647473
 31
0.0
  0
LINE
  5
298
330
6F
100
AcDbEntity
  8
_0-1_計細線
  6
Continuous
 62
     3
100
AcDbLine
 10
893.5793005073115
 20
765.1386690647473
 30
0.0
 11
893.5793005073115
 21
766.3386690647473
 31
0.0
  0
LINE
  5
299
330
6F
100
AcDbEntity
  8
_0-1_計細線
  6
Continuous
 62
     3
100
AcDbLine
 10
893.5793005073115
 20
766.3386690647473
 30
0.0
 11
858.5793005073117
 21
766.3386690647473
 31
0.0
  0
LINE
  5
29A
330
6F
100
AcDbEntity
  8
_0-0_計極細
  6
Continuous
 62
     2
100
AcDbLine
 10
860.579300507312
 20
765.1386690647473
 30
0.0
 11
860.579300507312
 21
766.3386690647473
 31
0.0
  0
LINE
  5
29B
330
6F
100
AcDbEntity
  8
_0-0_計極細
  6
Continuous
 62
     2
100
AcDbLine
 10
872.579300507312
 20
765.1386690647473
 30
0.0
 11
872.579300507312
 21
766.3386690647473
 31
0.0
  0
LINE
  5
29C
330
6F
100
AcDbEntity
  8
_0-0_計極細
  6
Continuous
 62
     2
100
AcDbLine
 10
874.5793005073114
 20
765.1386690647473
 30
0.0
 11
874.5793005073114
 21
766.3386690647473
 31
0.0
  0
LINE
  5
29D
330
6F
100
AcDbEntity
  8
_0-0_計極細
  6
Continuous
 62
     2
100
AcDbLine
 10
876.5793005073113
 20
765.1386690647473
 30
0.0
 11
876.5793005073113
 21
766.3386690647473
 31
0.0
  0
LINE
  5
29E
330
6F
100
AcDbEntity
  8
_0-0_計極細
  6
Continuous
 62
     2
100
AcDbLine
 10
890.5793005073116
 20
765.1386690647473
 30
0.0
 11
890.5793005073116
 21
766.3386690647473
 31
0.0
  0
LINE
  5
29F
330
6F
100
AcDbEntity
  8
_0-0_計極細
  6
Continuous
 62
     2
100
AcDbLine
 10
870.579300507312
 20
765.1386690647473
 30
0.0
 11
870.579300507312
 21
766.3386690647473
 31
0.0
  0
LINE
  5
2A0
330
6F
100
AcDbEntity
  8
_0-1_計細線
  6
Continuous
 62
     3
100
AcDbLine
 10
870.579300507312
 20
639.1386690647472
 30
0.0
 11
858.5793005073115
 21
639.1386690647472
 31
0.0
  0
LINE
  5
2A1
330
6F
100
AcDbEntity
  8
_0-1_計細線
  6
Continuous
 62
     3
100
AcDbLine
 10
858.5793005073115
 20
630.1386690647472
 30
0.0
 11
850.5793005073115
 21
630.1386690647472
 31
0.0
  0
LINE
  5
2A2
330
6F
100
AcDbEntity
  8
_0-1_計細線
  6
Continuous
 62
     3
100
AcDbLine
 10
858.5793005073117
 20
639.1386690647472
 30
0.0
 11
858.5793005073115
 21
630.1386690647472
 31
0.0
  0
LINE
  5
2A3
330
6F
100
AcDbEntity
  8
_0-1_計細線
  6
Continuous
 62
     3
100
AcDbLine
 10
870.579300507312
 20
639.1386690647472
 30
0.0
 11
870.579300507312
 21
679.1386690647471
 31
0.0
  0
LINE
  5
2A4
330
6F
100
AcDbEntity
  8
_0-1_計細線
  6
Continuous
 62
     3
100
AcDbLine
 10
858.5793005073117
 20
639.1386690647472
 30
0.0
 11
858.5793005073117
 21
637.9386690647475
 31
0.0
  0
LINE
  5
2A5
330
6F
100
AcDbEntity
  8
_0-1_計細線
  6
Continuous
 62
     3
100
AcDbLine
 10
858.5793005073117
 20
637.9386690647475
 30
0.0
 11
893.5793005073115
 21
637.9386690647475
 31
0.0
  0
LINE
  5
2A6
330
6F
100
AcDbEntity
  8
_0-1_計細線
  6
Continuous
 62
     3
100
AcDbLine
 10
893.5793005073115
 20
637.9386690647475
 30
0.0
 11
893.5793005073115
 21
639.1386690647472
 31
0.0
  0
LINE
  5
2A7
330
6F
100
AcDbEntity
  8
_0-1_計細線
  6
Continuous
 62
     3
100
AcDbLine
 10
893.5793005073115
 20
639.1386690647472
 30
0.0
 11
858.5793005073117
 21
639.1386690647472
 31
0.0
  0
LINE
  5
2A8
330
6F
100
AcDbEntity
  8
_0-0_計極細
  6
Continuous
 62
     2
100
AcDbLine
 10
860.579300507312
 20
637.9386690647475
 30
0.0
 11
860.579300507312
 21
639.1386690647472
 31
0.0
  0
LINE
  5
2A9
330
6F
100
AcDbEntity
  8
_0-0_計極細
  6
Continuous
 62
     2
100
AcDbLine
 10
872.579300507312
 20
637.9386690647475
 30
0.0
 11
872.579300507312
 21
639.1386690647472
 31
0.0
  0
LINE
  5
2AA
330
6F
100
AcDbEntity
  8
_0-0_計極細
  6
Continuous
 62
     2
100
AcDbLine
 10
874.5793005073114
 20
637.9386690647475
 30
0.0
 11
874.5793005073114
 21
639.1386690647472
 31
0.0
  0
LINE
  5
2AB
330
6F
100
AcDbEntity
  8
_0-0_計極細
  6
Continuous
 62
     2
100
AcDbLine
 10
876.5793005073113
 20
637.9386690647475
 30
0.0
 11
876.5793005073113
 21
639.1386690647472
 31
0.0
  0
LINE
  5
2AC
330
6F
100
AcDbEntity
  8
_0-0_計極細
  6
Continuous
 62
     2
100
AcDbLine
 10
890.5793005073116
 20
637.9386690647475
 30
0.0
 11
890.5793005073116
 21
639.1386690647472
 31
0.0
  0
LINE
  5
2AD
330
6F
100
AcDbEntity
  8
_0-0_計極細
  6
Continuous
 62
     2
100
AcDbLine
 10
870.579300507312
 20
637.9386690647475
 30
0.0
 11
870.579300507312
 21
639.1386690647472
 31
0.0
  0
LINE
  5
2AE
330
6F
100
AcDbEntity
  8
_0-1_計細線
  6
Continuous
 62
     3
100
AcDbLine
 10
850.5793005073115
 20
630.1386690647472
 30
0.0
 11
850.5793005073121
 21
774.1386690647473
 31
0.0
  0
LINE
  5
2AF
330
6F
100
AcDbEntity
  8
_0-5_寸法線
  6
Continuous
 62
     7
100
AcDbLine
 10
850.5793005073114
 20
784.1386690647473
 30
0.0
 11
850.5793005073108
 21
819.1386675683085
 31
0.0
  0
LINE
  5
2B0
330
6F
100
AcDbEntity
  8
_0-5_寸法線
  6
Continuous
 62
     7
100
AcDbLine
 10
850.5793005073108
 20
814.1386675683087
 30
0.0
 11
860.2385587702016
 21
816.7268580193338
 31
0.0
  0
LINE
  5
2B1
330
6F
100
AcDbEntity
  8
_0-5_寸法線
  6
Continuous
 62
     7
100
AcDbLine
 10
850.5793005073108
 20
814.1386675683087
 30
0.0
 11
860.2385587702016
 21
811.5504771172833
 31
0.0
  0
LINE
  5
2B2
330
6F
100
AcDbEntity
  8
_0-5_寸法線
  6
Continuous
 62
     7
100
AcDbLine
 10
870.579300507312
 20
776.3386690647473
 30
0.0
 11
870.5793005073116
 21
819.1386675683085
 31
0.0
  0
LINE
  5
2B3
330
6F
100
AcDbEntity
  8
_0-5_寸法線
  6
Continuous
 62
     7
100
AcDbLine
 10
870.5793005073116
 20
814.1386675683087
 30
0.0
 11
860.920042244421
 21
811.5504771172833
 31
0.0
  0
LINE
  5
2B4
330
6F
100
AcDbEntity
  8
_0-5_寸法線
  6
Continuous
 62
     7
100
AcDbLine
 10
870.5793005073116
 20
814.1386675683087
 30
0.0
 11
860.920042244421
 21
816.7268580193338
 31
0.0
  0
LINE
  5
2B5
330
6F
100
AcDbEntity
  8
_0-5_寸法線
  6
Continuous
 62
     7
100
AcDbLine
 10
850.5793005073108
 20
814.1386675683087
 30
0.0
 11
870.5793005073116
 21
814.1386675683087
 31
0.0
  0
TEXT
  5
2B6
330
6F
100
AcDbEntity
  8
_0-5_寸法線
 62
     7
100
AcDbText
 10
853.0793005073116
 20
814.1386675683087
 30
0.0
 40
15.0
  1
20
100
AcDbText
  0
LINE
  5
2B7
330
6F
100
AcDbEntity
  8
_0-5_寸法線
  6
Continuous
 62
     7
100
AcDbLine
 10
870.5793005073116
 20
814.1386675683087
 30
0.0
 11
880.2385587702024
 21
816.7268580193338
 31
0.0
  0
LINE
  5
2B8
330
6F
100
AcDbEntity
  8
_0-5_寸法線
  6
Continuous
 62
     7
100
AcDbLine
 10
870.5793005073116
 20
814.1386675683087
 30
0.0
 11
880.2385587702024
 21
811.5504771172833
 31
0.0
  0
LINE
  5
2B9
330
6F
100
AcDbEntity
  8
_0-5_寸法線
  6
Continuous
 62
     7
100
AcDbLine
 10
893.5793005073115
 20
776.3386690647473
 30
0.0
 11
893.5793005073112
 21
819.1386675683085
 31
0.0
  0
LINE
  5
2BA
330
6F
100
AcDbEntity
  8
_0-5_寸法線
  6
Continuous
 62
     7
100
AcDbLine
 10
893.5793005073112
 20
814.1386675683087
 30
0.0
 11
883.9200422444205
 21
811.5504771172833
 31
0.0
  0
LINE
  5
2BB
330
6F
100
AcDbEntity
  8
_0-5_寸法線
  6
Continuous
 62
     7
100
AcDbLine
 10
893.5793005073112
 20
814.1386675683087
 30
0.0
 11
883.9200422444205
 21
816.7268580193338
 31
0.0
  0
LINE
  5
2BC
330
6F
100
AcDbEntity
  8
_0-5_寸法線
  6
Continuous
 62
     7
100
AcDbLine
 10
870.5793005073116
 20
814.1386675683087
 30
0.0
 11
893.5793005073112
 21
814.1386675683087
 31
0.0
  0
TEXT
  5
2BD
330
6F
100
AcDbEntity
  8
_0-5_寸法線
 62
     7
100
AcDbText
 10
874.5793005073114
 20
814.1386675683087
 30
0.0
 40
15.0
  1
23
100
AcDbText
  0
LINE
  5
2BE
330
6F
100
AcDbEntity
  8
_0-5_寸法線
  6
Continuous
 62
     7
100
AcDbLine
 10
850.5793005073117
 20
784.1386690647473
 30
0.0
 11
850.5793005073117
 21
854.1386675683085
 31
0.0
  0
LINE
  5
2BF
330
6F
100
AcDbEntity
  8
_0-5_寸法線
  6
Continuous
 62
     7
100
AcDbLine
 10
850.5793005073117
 20
849.1386675683086
 30
0.0
 11
860.2385587702025
 21
851.7268580193338
 31
0.0
  0
LINE
  5
2C0
330
6F
100
AcDbEntity
  8
_0-5_寸法線
  6
Continuous
 62
     7
100
AcDbLine
 10
850.5793005073117
 20
849.1386675683086
 30
0.0
 11
860.2385587702025
 21
846.5504771172833
 31
0.0
  0
LINE
  5
2C1
330
6F
100
AcDbEntity
  8
_0-5_寸法線
  6
Continuous
 62
     7
100
AcDbLine
 10
893.5793005073115
 20
776.3386690647473
 30
0.0
 11
893.5793005073115
 21
854.1386675683085
 31
0.0
  0
LINE
  5
2C2
330
6F
100
AcDbEntity
  8
_0-5_寸法線
  6
Continuous
 62
     7
100
AcDbLine
 10
893.5793005073115
 20
849.1386675683086
 30
0.0
 11
883.9200422444205
 21
846.5504771172833
 31
0.0
  0
LINE
  5
2C3
330
6F
100
AcDbEntity
  8
_0-5_寸法線
  6
Continuous
 62
     7
100
AcDbLine
 10
893.5793005073115
 20
849.1386675683086
 30
0.0
 11
883.9200422444205
 21
851.7268580193338
 31
0.0
  0
LINE
  5
2C4
330
6F
100
AcDbEntity
  8
_0-5_寸法線
  6
Continuous
 62
     7
100
AcDbLine
 10
850.5793005073117
 20
849.1386675683086
 30
0.0
 11
893.5793005073115
 21
849.1386675683086
 31
0.0
  0
TEXT
  5
2C5
330
6F
100
AcDbEntity
  8
_0-5_寸法線
 62
     7
100
AcDbText
 10
864.5793005073118
 20
849.1386675683086
 30
0.0
 40
15.0
  1
43
100
AcDbText
  0
LINE
  5
2C6
330
6F
100
AcDbEntity
  8
_0-5_寸法線
  6
Continuous
 62
     7
100
AcDbLine
 10
850.5793005073121
 20
620.1386690647471
 30
0.0
 11
850.5793005073121
 21
585.1386690647472
 31
0.0
  0
LINE
  5
2C7
330
6F
100
AcDbEntity
  8
_0-5_寸法線
  6
Continuous
 62
     7
100
AcDbLine
 10
850.5793005073121
 20
590.1386690647472
 30
0.0
 11
860.2385587702025
 21
592.7268595157725
 31
0.0
  0
LINE
  5
2C8
330
6F
100
AcDbEntity
  8
_0-5_寸法線
  6
Continuous
 62
     7
100
AcDbLine
 10
850.5793005073121
 20
590.1386690647472
 30
0.0
 11
860.2385587702025
 21
587.5504786137221
 31
0.0
  0
LINE
  5
2C9
330
6F
100
AcDbEntity
  8
_0-5_寸法線
  6
Continuous
 62
     7
100
AcDbLine
 10
900.5793005073121
 20
669.1386690647472
 30
0.0
 11
900.5793005073121
 21
585.1386690647472
 31
0.0
  0
LINE
  5
2CA
330
6F
100
AcDbEntity
  8
_0-5_寸法線
  6
Continuous
 62
     7
100
AcDbLine
 10
900.5793005073121
 20
590.1386690647472
 30
0.0
 11
890.9200422444214
 21
587.5504786137221
 31
0.0
  0
LINE
  5
2CB
330
6F
100
AcDbEntity
  8
_0-5_寸法線
  6
Continuous
 62
     7
100
AcDbLine
 10
900.5793005073121
 20
590.1386690647472
 30
0.0
 11
890.9200422444214
 21
592.7268595157725
 31
0.0
  0
LINE
  5
2CC
330
6F
100
AcDbEntity
  8
_0-5_寸法線
  6
Continuous
 62
     7
100
AcDbLine
 10
850.5793005073121
 20
590.1386690647472
 30
0.0
 11
900.5793005073121
 21
590.1386690647472
 31
0.0
  0
TEXT
  5
2CD
330
6F
100
AcDbEntity
  8
_0-5_寸法線
 62
     7
100
AcDbText
 10
868.0793005073121
 20
590.1386690647472
 30
0.0
 40
15.0
  1
50
100
AcDbText
  0
LINE
  5
2CE
330
6F
100
AcDbEntity
  8
_0-1_計細線
  6
Continuous
 62
     3
100
AcDbLine
 10
190.4130022877872
 20
563.6302886403353
 30
0.0
 11
188.4130022877873
 21
561.6302886403353
 31
0.0
  0
LINE
  5
2CF
330
6F
100
AcDbEntity
  8
_0-1_計細線
  6
Continuous
 62
     3
100
AcDbLine
 10
188.4130022877873
 20
551.6302886403353
 30
0.0
 11
188.4130022877873
 21
561.6302886403353
 31
0.0
  0
LINE
  5
2D0
330
6F
100
AcDbEntity
  8
_0-1_計細線
  6
Continuous
 62
     3
100
AcDbLine
 10
204.413001981626
 20
561.6302886403353
 30
0.0
 11
202.4130019816259
 21
563.6302886403353
 31
0.0
  0
LINE
  5
2D1
330
6F
100
AcDbEntity
  8
_0-1_計細線
  6
Continuous
 62
     3
100
AcDbLine
 10
204.413001981626
 20
551.6302886403353
 30
0.0
 11
204.413001981626
 21
561.6302886403353
 31
0.0
  0
LINE
  5
2D2
330
6F
100
AcDbEntity
  8
_0-1_計細線
  6
Continuous
 62
     3
100
AcDbLine
 10
190.4130022877872
 20
547.6302886403354
 30
0.0
 11
188.4130022877873
 21
545.6302886403354
 31
0.0
  0
LINE
  5
2D3
330
6F
100
AcDbEntity
  8
_0-1_計細線
  6
Continuous
 62
     3
100
AcDbLine
 10
190.4130022877872
 20
549.6302886403354
 30
0.0
 11
190.4130022877872
 21
547.6302886403354
 31
0.0
  0
LINE
  5
2D4
330
6F
100
AcDbEntity
  8
_0-1_計細線
  6
Continuous
 62
     3
100
AcDbLine
 10
188.4130022877873
 20
551.6302886403353
 30
0.0
 11
190.4130022877872
 21
549.6302886403354
 31
0.0
  0
LINE
  5
2D5
330
6F
100
AcDbEntity
  8
_0-1_計細線
  6
Continuous
 62
     3
100
AcDbLine
 10
202.4130019816259
 20
547.6302886403354
 30
0.0
 11
204.413001981626
 21
545.6302886403354
 31
0.0
  0
LINE
  5
2D6
330
6F
100
AcDbEntity
  8
_0-1_計細線
  6
Continuous
 62
     3
100
AcDbLine
 10
202.4130019816259
 20
549.6302886403354
 30
0.0
 11
202.4130019816259
 21
547.6302886403354
 31
0.0
  0
LINE
  5
2D7
330
6F
100
AcDbEntity
  8
_0-1_計細線
  6
Continuous
 62
     3
100
AcDbLine
 10
204.413001981626
 20
551.6302886403353
 30
0.0
 11
202.4130019816259
 21
549.6302886403354
 31
0.0
  0
LINE
  5
2D8
330
6F
100
AcDbEntity
  8
_0-1_計細線
  6
Continuous
 62
     3
100
AcDbLine
 10
188.4130022877873
 20
545.6302886403354
 30
0.0
 11
188.4130022877873
 21
531.6302886403353
 31
0.0
  0
ARC
  5
2D9
330
6F
100
AcDbEntity
  8
_0-1_計細線
  6
Continuous
 62
     3
100
AcDbCircle
 10
191.4130022877873
 20
531.6302886403353
 30
0.0
 40
3.0
100
AcDbArc
 50
179.9999999999998
 51
269.9999999999997
  0
LINE
  5
2DA
330
6F
100
AcDbEntity
  8
_0-1_計細線
  6
Continuous
 62
     3
100
AcDbLine
 10
191.4130022877873
 20
528.6302886403354
 30
0.0
 11
201.4130019816259
 21
528.6302886403354
 31
0.0
  0
LINE
  5
2DB
330
6F
100
AcDbEntity
  8
_0-1_計細線
  6
Continuous
 62
     3
100
AcDbLine
 10
204.413001981626
 20
545.6302886403354
 30
0.0
 11
204.413001981626
 21
531.6302886403353
 31
0.0
  0
ARC
  5
2DC
330
6F
100
AcDbEntity
  8
_0-1_計細線
  6
Continuous
 62
     3
100
AcDbCircle
 10
201.4130019816259
 20
531.6302886403353
 30
0.0
 40
3.0
100
AcDbArc
 50
269.9999999999997
 51
359.9999999999997
  0
LINE
  5
2DD
330
6F
100
AcDbEntity
  8
_0-0_計極細
  6
CENTER1
 62
     2
100
AcDbLine
 10
196.4130021347066
 20
566.2126204803363
 30
0.0
 11
196.4130021347066
 21
523.8531887878348
 31
0.0
  0
LINE
  5
2DE
330
6F
100
AcDbEntity
  8
_0-1_計細線
  6
Continuous
 62
     3
100
AcDbLine
 10
171.4130021359064
 20
551.6302886403353
 30
0.0
 11
188.4130022877873
 21
551.6302886403353
 31
0.0
  0
LINE
  5
2DF
330
6F
100
AcDbEntity
  8
_0-1_計細線
  6
Continuous
 62
     3
100
AcDbLine
 10
204.413001981626
 20
551.6302886403353
 30
0.0
 11
704.4130022889873
 21
551.6302886403353
 31
0.0
  0
LINE
  5
2E0
330
6F
100
AcDbEntity
  8
_0-5_寸法線
  6
Continuous
 62
     7
100
AcDbLine
 10
203.4799843600524
 20
529.4559878682997
 30
0.0
 11
211.4058274169658
 21
523.3583644101665
 31
0.0
  0
LINE
  5
2E1
330
6F
100
AcDbEntity
  8
_0-5_寸法線
  6
Continuous
 62
     7
100
AcDbLine
 10
203.4799843600524
 20
529.4559878682997
 30
0.0
 11
207.2951540646812
 21
520.2123695223876
 31
0.0
  0
LINE
  5
2E2
330
6F
100
AcDbEntity
  8
_0-5_寸法線
  6
Continuous
 62
     7
100
AcDbLine
 10
203.4799843600524
 20
529.4559878682997
 30
0.0
 11
226.6160804332724
 21
499.2255084821019
 31
0.0
  0
LINE
  5
2E3
330
6F
100
AcDbEntity
  8
_0-5_寸法線
  6
Continuous
 62
     7
100
AcDbLine
 10
226.6160804332724
 20
499.2255084821019
 30
0.0
 11
274.6160804332723
 21
499.2255084821019
 31
0.0
  0
TEXT
  5
2E4
330
6F
100
AcDbEntity
  8
_0-5_寸法線
 62
     7
100
AcDbText
 10
226.6160804332724
 20
499.2255084821019
 30
0.0
 40
15.0
  1
アンカー
 41
0.8000000000000001
100
AcDbText
  0
LINE
  5
2E5
330
6F
100
AcDbEntity
  8
_0-5_寸法線
  6
Continuous
 62
     7
100
AcDbLine
 10
161.4130021347065
 20
553.6302886403354
 30
0.0
 11
161.4130021347065
 21
476.6302886403354
 31
0.0
  0
LINE
  5
2E6
330
6F
100
AcDbEntity
  8
_0-5_寸法線
  6
Continuous
 62
     7
100
AcDbLine
 10
161.4130021347065
 20
481.6302886403354
 30
0.0
 11
171.0722603975972
 21
484.2184790913607
 31
0.0
  0
LINE
  5
2E7
330
6F
100
AcDbEntity
  8
_0-5_寸法線
  6
Continuous
 62
     7
100
AcDbLine
 10
161.4130021347065
 20
481.6302886403354
 30
0.0
 11
171.0722603975972
 21
479.0420981893103
 31
0.0
  0
LINE
  5
2E8
330
6F
100
AcDbEntity
  8
_0-5_寸法線
  6
Continuous
 62
     7
100
AcDbLine
 10
196.4130021347066
 20
509.166312005882
 30
0.0
 11
196.4130021347066
 21
476.6302886403354
 31
0.0
  0
LINE
  5
2E9
330
6F
100
AcDbEntity
  8
_0-5_寸法線
  6
Continuous
 62
     7
100
AcDbLine
 10
196.4130021347066
 20
481.6302886403354
 30
0.0
 11
186.7537438718159
 21
479.0420981893103
 31
0.0
  0
LINE
  5
2EA
330
6F
100
AcDbEntity
  8
_0-5_寸法線
  6
Continuous
 62
     7
100
AcDbLine
 10
196.4130021347066
 20
481.6302886403354
 30
0.0
 11
186.7537438718159
 21
484.2184790913607
 31
0.0
  0
LINE
  5
2EB
330
6F
100
AcDbEntity
  8
_0-5_寸法線
  6
Continuous
 62
     7
100
AcDbLine
 10
161.4130021347065
 20
481.6302886403354
 30
0.0
 11
196.4130021347066
 21
481.6302886403354
 31
0.0
  0
TEXT
  5
2EC
330
6F
100
AcDbEntity
  8
_0-5_寸法線
 62
     7
100
AcDbText
 10
171.4130021347065
 20
481.6302886403354
 30
0.0
 40
15.0
  1
35
100
AcDbText
  0
LINE
  5
2ED
330
6F
100
AcDbEntity
  8
_0-5_寸法線
  6
Continuous
 62
     7
100
AcDbLine
 10
196.4130021347066
 20
481.6302886403354
 30
0.0
 11
206.0722603975972
 21
484.2184790913606
 31
0.0
  0
LINE
  5
2EE
330
6F
100
AcDbEntity
  8
_0-5_寸法線
  6
Continuous
 62
     7
100
AcDbLine
 10
196.4130021347066
 20
481.6302886403354
 30
0.0
 11
206.0722603975972
 21
479.0420981893102
 31
0.0
  0
LINE
  5
2EF
330
6F
100
AcDbEntity
  8
_0-5_寸法線
  6
Continuous
 62
     7
100
AcDbLine
 10
712.4130021359067
 20
511.6038517040207
 30
0.0
 11
712.4130021359067
 21
476.6302886403354
 31
0.0
  0
LINE
  5
2F0
330
6F
100
AcDbEntity
  8
_0-5_寸法線
  6
Continuous
 62
     7
100
AcDbLine
 10
712.4130021359067
 20
481.6302886403354
 30
0.0
 11
702.7537438730161
 21
479.0420981893103
 31
0.0
  0
LINE
  5
2F1
330
6F
100
AcDbEntity
  8
_0-5_寸法線
  6
Continuous
 62
     7
100
AcDbLine
 10
712.4130021359067
 20
481.6302886403354
 30
0.0
 11
702.7537438730161
 21
484.2184790913607
 31
0.0
  0
LINE
  5
2F2
330
6F
100
AcDbEntity
  8
_0-5_寸法線
  6
Continuous
 62
     7
100
AcDbLine
 10
196.4130021347066
 20
481.6302886403354
 30
0.0
 11
712.4130021359067
 21
481.6302886403354
 31
0.0
  0
TEXT
  5
2F3
330
6F
100
AcDbEntity
  8
_0-5_寸法線
 62
     7
100
AcDbText
 10
416.9130021353065
 20
481.6302886403354
 30
0.0
 40
15.0
  1
Ｃ＝Ｎ\U+00D7Ｄ
100
AcDbText
  0
LINE
  5
2F4
330
6F
100
AcDbEntity
  8
_0-5_寸法線
  6
Continuous
 62
     7
100
AcDbLine
 10
712.4130021359067
 20
481.6302886403354
 30
0.0
 11
722.0722603987974
 21
484.2184790913606
 31
0.0
  0
LINE
  5
2F5
330
6F
100
AcDbEntity
  8
_0-5_寸法線
  6
Continuous
 62
     7
100
AcDbLine
 10
712.4130021359067
 20
481.6302886403354
 30
0.0
 11
722.0722603987974
 21
479.0420981893102
 31
0.0
  0
LINE
  5
2F6
330
6F
100
AcDbEntity
  8
_0-5_寸法線
  6
Continuous
 62
     7
100
AcDbLine
 10
747.4130021359067
 20
511.6302886403353
 30
0.0
 11
747.4130021359067
 21
476.6302886403354
 31
0.0
  0
LINE
  5
2F7
330
6F
100
AcDbEntity
  8
_0-5_寸法線
  6
Continuous
 62
     7
100
AcDbLine
 10
747.4130021359067
 20
481.6302886403354
 30
0.0
 11
737.753743873016
 21
479.0420981893103
 31
0.0
  0
LINE
  5
2F8
330
6F
100
AcDbEntity
  8
_0-5_寸法線
  6
Continuous
 62
     7
100
AcDbLine
 10
747.4130021359067
 20
481.6302886403354
 30
0.0
 11
737.753743873016
 21
484.2184790913607
 31
0.0
  0
LINE
  5
2F9
330
6F
100
AcDbEntity
  8
_0-5_寸法線
  6
Continuous
 62
     7
100
AcDbLine
 10
712.4130021359067
 20
481.6302886403354
 30
0.0
 11
747.4130021359067
 21
481.6302886403354
 31
0.0
  0
TEXT
  5
2FA
330
6F
100
AcDbEntity
  8
_0-5_寸法線
 62
     7
100
AcDbText
 10
722.4130021359067
 20
481.6302886403354
 30
0.0
 40
15.0
  1
35
100
AcDbText
  0
TEXT
  5
2FB
330
6F
100
AcDbEntity
  8
_0-7_枠細線
 62
     5
100
AcDbText
 10
965.4999999999997
 20
69.99999999999978
 30
0.0
 40
20.0
  1
表面形状については記号表参照のこと
 41
0.5999999999999997
100
AcDbText
  0
TEXT
  5
2FC
330
6F
100
AcDbEntity
  8
_0-7_枠細線
 62
     5
100
AcDbText
 10
1119.000000000005
 20
806.6386675683085
 30
0.0
 40
15.0
  1
Ｌ
 41
0.8
100
AcDbText
  0
TEXT
  5
2FD
330
6F
100
AcDbEntity
  8
_0-7_枠細線
 62
     5
100
AcDbText
 10
1169.000000000004
 20
806.6386675683085
 30
0.0
 40
15.0
  1
Ａ
 41
0.8
100
AcDbText
  0
LINE
  5
2FE
330
6F
100
AcDbEntity
  8
_0-7_枠細線
  6
Continuous
 62
     5
100
AcDbLine
 10
1200.000000000003
 20
826.6386675683087
 30
0.0
 11
1200.000000000003
 21
676.6386675683087
 31
0.0
  0
LINE
  5
2FF
330
6F
100
AcDbEntity
  8
_0-7_枠細線
  6
Continuous
 62
     5
100
AcDbLine
 10
1150.000000000004
 20
826.6386675683087
 30
0.0
 11
1150.000000000004
 21
676.6386675683087
 31
0.0
  0
LINE
  5
300
330
6F
100
AcDbEntity
  8
_0-7_枠細線
  6
Continuous
 62
     5
100
AcDbLine
 10
1100.000000000005
 20
826.6386675683087
 30
0.0
 11
1100.000000000005
 21
676.6386675683087
 31
0.0
  0
LINE
  5
301
330
6F
100
AcDbEntity
  8
_0-7_枠細線
  6
Continuous
 62
     5
100
AcDbLine
 10
1250.000000000002
 20
826.6386675683087
 30
0.0
 11
1250.000000000002
 21
676.6386675683087
 31
0.0
  0
TEXT
  5
302
330
6F
100
AcDbEntity
  8
_0-7_枠細線
 62
     5
100
AcDbText
 10
1217.500000000003
 20
781.6386675683085
 30
0.0
 40
15.0
  1
571
 41
0.6
100
AcDbText
  0
TEXT
  5
303
330
6F
100
AcDbEntity
  8
_0-7_枠細線
 62
     5
100
AcDbText
 10
1217.500000000003
 20
756.6386675683087
 30
0.0
 40
15.0
  1
871
 41
0.6
100
AcDbText
  0
TEXT
  5
304
330
6F
100
AcDbEntity
  8
_0-7_枠細線
 62
     5
100
AcDbText
 10
1210.000000000003
 20
731.6386675683085
 30
0.0
 40
15.0
  1
1171
 41
0.6
100
AcDbText
  0
TEXT
  5
305
330
6F
100
AcDbEntity
  8
_0-7_枠細線
 62
     5
100
AcDbText
 10
1210.000000000003
 20
706.6386675683087
 30
0.0
 40
15.0
  1
1771
 41
0.6
100
AcDbText
  0
TEXT
  5
306
330
6F
100
AcDbEntity
  8
_0-7_枠細線
 62
     5
100
AcDbText
 10
1210.000000000003
 20
681.6386675683087
 30
0.0
 40
15.0
  1
1971
 41
0.6
100
AcDbText
  0
TEXT
  5
307
330
6F
100
AcDbEntity
  8
_0-7_枠細線
 62
     5
100
AcDbText
 10
1219.000000000003
 20
806.6386675683085
 30
0.0
 40
15.0
  1
Ｂ
 41
0.7999999999999999
100
AcDbText
  0
TEXT
  5
308
330
6F
100
AcDbEntity
  8
_0-7_枠細線
 62
     5
100
AcDbText
 10
1167.500000000003
 20
781.6386675683085
 30
0.0
 40
15.0
  1
574
 41
0.6
100
AcDbText
  0
TEXT
  5
309
330
6F
100
AcDbEntity
  8
_0-7_枠細線
 62
     5
100
AcDbText
 10
1167.500000000003
 20
756.6386675683087
 30
0.0
 40
15.0
  1
874
 41
0.6
100
AcDbText
  0
TEXT
  5
30A
330
6F
100
AcDbEntity
  8
_0-7_枠細線
 62
     5
100
AcDbText
 10
1160.000000000004
 20
731.6386675683085
 30
0.0
 40
15.0
  1
1174
 41
0.6
100
AcDbText
  0
TEXT
  5
30B
330
6F
100
AcDbEntity
  8
_0-7_枠細線
 62
     5
100
AcDbText
 10
1160.000000000004
 20
706.6386675683087
 30
0.0
 40
15.0
  1
1774
 41
0.6
100
AcDbText
  0
TEXT
  5
30C
330
6F
100
AcDbEntity
  8
_0-7_枠細線
 62
     5
100
AcDbText
 10
1160.000000000004
 20
681.6386675683087
 30
0.0
 40
15.0
  1
1974
 41
0.6
100
AcDbText
  0
LINE
  5
30D
330
6F
100
AcDbEntity
  8
_0-7_枠細線
  6
Continuous
 62
     5
100
AcDbLine
 10
1300.000000000002
 20
826.6386675683087
 30
0.0
 11
1300.000000000002
 21
676.6386675683087
 31
0.0
  0
TEXT
  5
30E
330
6F
100
AcDbEntity
  8
_0-7_枠細線
 62
     5
100
AcDbText
 10
1269.000000000003
 20
806.6386675683085
 30
0.0
 40
15.0
  1
Ｃ
 41
0.7999999999999999
100
AcDbText
  0
TEXT
  5
30F
330
6F
100
AcDbEntity
  8
_0-7_枠細線
 62
     5
100
AcDbText
 10
1117.500000000005
 20
781.6386675683085
 30
0.0
 40
15.0
  1
586
 41
0.6
100
AcDbText
  0
TEXT
  5
310
330
6F
100
AcDbEntity
  8
_0-7_枠細線
 62
     5
100
AcDbText
 10
1117.500000000005
 20
756.6386675683087
 30
0.0
 40
15.0
  1
886
 41
0.6
100
AcDbText
  0
TEXT
  5
311
330
6F
100
AcDbEntity
  8
_0-7_枠細線
 62
     5
100
AcDbText
 10
1110.000000000004
 20
731.6386675683085
 30
0.0
 40
15.0
  1
1186
 41
0.6
100
AcDbText
  0
TEXT
  5
312
330
6F
100
AcDbEntity
  8
_0-7_枠細線
 62
     5
100
AcDbText
 10
1110.000000000004
 20
706.6386675683087
 30
0.0
 40
15.0
  1
1786
 41
0.6
100
AcDbText
  0
TEXT
  5
313
330
6F
100
AcDbEntity
  8
_0-7_枠細線
 62
     5
100
AcDbText
 10
1110.000000000004
 20
681.6386675683087
 30
0.0
 40
15.0
  1
1986
 41
0.6
100
AcDbText
  0
TEXT
  5
314
330
6F
100
AcDbEntity
  8
_0-7_枠細線
 62
     5
100
AcDbText
 10
1321.500000000001
 20
806.6386675683085
 30
0.0
 40
15.0
  1
Ｄ
 41
0.7999999999999999
100
AcDbText
  0
LINE
  5
315
330
6F
100
AcDbEntity
  8
_0-7_枠細線
  6
Continuous
 62
     5
100
AcDbLine
 10
1355.000000000001
 20
826.6386675683087
 30
0.0
 11
1355.000000000001
 21
676.6386675683087
 31
0.0
  0
TEXT
  5
316
330
6F
100
AcDbEntity
  8
_0-7_枠細線
 62
     5
100
AcDbText
 10
1364.0
 20
806.6386675683085
 30
0.0
 40
15.0
  1
Ｎ
 41
0.7999999999999999
100
AcDbText
  0
TEXT
  5
317
330
6F
100
AcDbEntity
  8
_0-7_枠細線
 62
     5
100
AcDbText
 10
1366.488814750347
 20
781.6386675683085
 30
0.0
 40
15.0
  1
1
100
AcDbText
  0
TEXT
  5
318
330
6F
100
AcDbEntity
  8
_0-7_枠細線
 62
     5
100
AcDbText
 10
1366.488814750347
 20
756.6386675683087
 30
0.0
 40
15.0
  1
2
100
AcDbText
  0
TEXT
  5
319
330
6F
100
AcDbEntity
  8
_0-7_枠細線
 62
     5
100
AcDbText
 10
1366.488814750347
 20
731.6386675683085
 30
0.0
 40
15.0
  1
2
100
AcDbText
  0
TEXT
  5
31A
330
6F
100
AcDbEntity
  8
_0-7_枠細線
 62
     5
100
AcDbText
 10
1366.488814750347
 20
706.6386675683087
 30
0.0
 40
15.0
  1
4
100
AcDbText
  0
TEXT
  5
31B
330
6F
100
AcDbEntity
  8
_0-7_枠細線
 62
     5
100
AcDbText
 10
1366.488814750347
 20
681.6386675683087
 30
0.0
 40
15.0
  1
4
100
AcDbText
  0
LINE
  5
31C
330
6F
100
AcDbEntity
  8
_0-7_枠細線
  6
Continuous
 62
     5
100
AcDbLine
 10
1385.0
 20
826.6386675683087
 30
0.0
 11
1385.0
 21
676.6386675683087
 31
0.0
  0
TEXT
  5
31D
330
6F
100
AcDbEntity
  8
_0-7_枠細線
 62
     5
100
AcDbText
 10
1018.500000000005
 20
806.6386675683085
 30
0.0
 40
15.0
  1
品　　番
 41
0.8
100
AcDbText
  0
TEXT
  5
31E
330
6F
100
AcDbEntity
  8
_0-7_枠細線
 62
     5
100
AcDbText
 10
994.4601466049389
 20
831.6386675683085
 30
0.0
 40
17.5
  1
品番寸法表
100
AcDbText
  0
LINE
  5
31F
330
6F
100
AcDbEntity
  8
_0-7_枠細線
  6
Continuous
 62
     5
100
AcDbLine
 10
985.0000000000056
 20
826.6386675683087
 30
0.0
 11
985.0000000000056
 21
676.6386675683087
 31
0.0
  0
LINE
  5
320
330
6F
100
AcDbEntity
  8
_0-7_枠細線
  6
Continuous
 62
     5
100
AcDbLine
 10
985.0000000000056
 20
826.6386675683087
 30
0.0
 11
1385.0
 21
826.6386675683087
 31
0.0
  0
LINE
  5
321
330
6F
100
AcDbEntity
  8
_0-7_枠細線
  6
Continuous
 62
     5
100
AcDbLine
 10
985.0000000000056
 20
801.6386675683087
 30
0.0
 11
1385.0
 21
801.6386675683087
 31
0.0
  0
LINE
  5
322
330
6F
100
AcDbEntity
  8
_0-7_枠細線
  6
Continuous
 62
     5
100
AcDbLine
 10
985.0000000000056
 20
776.6386675683086
 30
0.0
 11
1385.0
 21
776.6386675683086
 31
0.0
  0
LINE
  5
323
330
6F
100
AcDbEntity
  8
_0-7_枠細線
  6
Continuous
 62
     5
100
AcDbLine
 10
985.0000000000056
 20
751.6386675683086
 30
0.0
 11
1385.0
 21
751.6386675683086
 31
0.0
  0
LINE
  5
324
330
6F
100
AcDbEntity
  8
_0-7_枠細線
  6
Continuous
 62
     5
100
AcDbLine
 10
985.0000000000056
 20
726.6386675683086
 30
0.0
 11
1385.0
 21
726.6386675683086
 31
0.0
  0
LINE
  5
325
330
6F
100
AcDbEntity
  8
_0-7_枠細線
  6
Continuous
 62
     5
100
AcDbLine
 10
985.0000000000056
 20
701.6386675683087
 30
0.0
 11
1385.0
 21
701.6386675683087
 31
0.0
  0
LINE
  5
326
330
6F
100
AcDbEntity
  8
_0-7_枠細線
  6
Continuous
 62
     5
100
AcDbLine
 10
985.0000000000056
 20
676.6386675683087
 30
0.0
 11
1385.0
 21
676.6386675683087
 31
0.0
  0
TEXT
  5
327
330
6F
100
AcDbEntity
  8
_0-7_枠細線
 62
     5
100
AcDbText
 10
1375.0
 20
95.0
 30
0.0
 40
20.0
  1
藤戸
100
AcDbText
  0
TEXT
  5
328
330
6F
100
AcDbEntity
  8
_0-7_枠細線
 62
     5
100
AcDbText
 10
1255.0
 20
95.0
 30
0.0
 40
20.0
  1
大野
100
AcDbText
  0
TEXT
  5
329
330
6F
100
AcDbEntity
  8
_0-7_枠細線
 62
     5
100
AcDbText
 10
1315.0
 20
95.0
 30
0.0
 40
20.0
  1
深川
100
AcDbText
  0
TEXT
  5
32A
330
6F
100
AcDbEntity
  8
_0-7_枠細線
 62
     5
100
AcDbText
 10
1310.0
 20
67.5
 30
0.0
 40
15.0
  1
２０１５年０４月０１日
 41
0.55
100
AcDbText
  0
TEXT
  5
32B
330
6F
100
AcDbEntity
  8
_0-7_枠細線
 62
     5
100
AcDbText
 10
793.4115529758381
 20
411.0358911806494
 30
0.0
 40
20.0
  1
Ａ－Ａ\U+2019断面図
 41
0.8
100
AcDbText
  0
TEXT
  5
32C
330
6F
100
AcDbEntity
  8
_0-7_枠細線
 62
     5
100
AcDbText
 10
919.1835975984396
 20
411.0358911806494
 30
0.0
 40
20.0
  1
Ｓ＝１：２
 41
0.6000000000000002
100
AcDbText
  0
LINE
  5
32D
330
6F
100
AcDbEntity
  8
_1-2_極細2
  6
Continuous
 62
     2
100
AcDbLine
 10
1030.574640287769
 20
258.0318804925231
 30
0.0
 11
1030.574640287769
 21
276.2818804925229
 31
0.0
  0
LINE
  5
32E
330
6F
100
AcDbEntity
  8
_1-2_極細2
  6
Continuous
 62
     2
100
AcDbLine
 10
1032.324640287769
 20
258.0318804925231
 30
0.0
 11
1032.32464028777
 21
278.0318804925233
 31
0.0
  0
LINE
  5
32F
330
6F
100
AcDbEntity
  8
_1-2_極細2
  6
Continuous
 62
     2
100
AcDbLine
 10
1030.574640287769
 20
258.0318804925231
 30
0.0
 11
1032.324640287769
 21
258.0318804925231
 31
0.0
  0
LINE
  5
330
330
6F
100
AcDbEntity
  8
_1-2_極細2
  6
Continuous
 62
     2
100
AcDbLine
 10
672.3246402877696
 20
258.0318804925235
 30
0.0
 11
672.3246402877696
 21
278.0318804925233
 31
0.0
  0
LINE
  5
331
330
6F
100
AcDbEntity
  8
_1-2_極細2
  6
Continuous
 62
     2
100
AcDbLine
 10
674.0746402877698
 20
258.0318804925231
 30
0.0
 11
674.0746402877688
 21
276.2818804925233
 31
0.0
  0
LINE
  5
332
330
6F
100
AcDbEntity
  8
_1-2_極細2
  6
Continuous
 62
     2
100
AcDbLine
 10
672.3246402877696
 20
258.0318804925235
 30
0.0
 11
674.0746402877698
 21
258.0318804925235
 31
0.0
  0
LINE
  5
333
330
6F
100
AcDbEntity
  8
_1-2_極細2
  6
Continuous
 62
     2
100
AcDbLine
 10
698.0746402877706
 20
228.031880492523
 30
0.0
 11
698.0746402877706
 21
276.2818804925229
 31
0.0
  0
LINE
  5
334
330
6F
100
AcDbEntity
  8
_1-2_極細2
  6
Continuous
 62
     2
100
AcDbLine
 10
699.8246402877696
 20
229.7818804925234
 30
0.0
 11
699.8246402877696
 21
278.0318804925233
 31
0.0
  0
LINE
  5
335
330
6F
100
AcDbEntity
  8
_1-2_極細2
  6
Continuous
 62
     2
100
AcDbLine
 10
674.0746402877698
 20
276.2818804925229
 30
0.0
 11
698.0746402877706
 21
276.2818804925229
 31
0.0
  0
LINE
  5
336
330
6F
100
AcDbEntity
  8
_1-2_極細2
  6
Continuous
 62
     2
100
AcDbLine
 10
672.3246402877696
 20
278.0318804925233
 30
0.0
 11
699.8246402877696
 21
278.0318804925233
 31
0.0
  0
LINE
  5
337
330
6F
100
AcDbEntity
  8
_1-2_極細2
  6
Continuous
 62
     2
100
AcDbLine
 10
1004.82464028777
 20
229.7818804925234
 30
0.0
 11
1004.82464028777
 21
278.0318804925233
 31
0.0
  0
LINE
  5
338
330
6F
100
AcDbEntity
  8
_1-2_極細2
  6
Continuous
 62
     2
100
AcDbLine
 10
1006.574640287768
 20
228.031880492523
 30
0.0
 11
1006.574640287768
 21
276.2818804925229
 31
0.0
  0
LINE
  5
339
330
6F
100
AcDbEntity
  8
_1-2_極細2
  6
Continuous
 62
     2
100
AcDbLine
 10
1004.82464028777
 20
278.0318804925233
 30
0.0
 11
1032.32464028777
 21
278.0318804925233
 31
0.0
  0
LINE
  5
33A
330
6F
100
AcDbEntity
  8
_1-2_極細2
  6
Continuous
 62
     2
100
AcDbLine
 10
1006.574640287768
 20
276.2818804925229
 30
0.0
 11
1030.574640287769
 21
276.2818804925229
 31
0.0
  0
LINE
  5
33B
330
6F
100
AcDbEntity
  8
_1-2_極細2
  6
Continuous
 62
     2
100
AcDbLine
 10
699.8246402877696
 20
229.7818804925234
 30
0.0
 11
1004.82464028777
 21
229.7818804925234
 31
0.0
  0
LINE
  5
33C
330
6F
100
AcDbEntity
  8
_1-5_寸法2
  6
Continuous
 62
     7
100
AcDbLine
 10
688.0746402877706
 20
228.0318804925231
 30
0.0
 11
612.3246402877696
 21
228.0318804925234
 31
0.0
  0
LINE
  5
33D
330
6F
100
AcDbEntity
  8
_1-5_寸法2
  6
Continuous
 62
     7
100
AcDbLine
 10
622.3246402877696
 20
228.0318804925233
 30
0.0
 11
619.7364498367445
 21
237.691138755414
 31
0.0
  0
LINE
  5
33E
330
6F
100
AcDbEntity
  8
_1-5_寸法2
  6
Continuous
 62
     7
100
AcDbLine
 10
622.3246402877696
 20
228.0318804925233
 30
0.0
 11
624.9128307387948
 21
237.691138755414
 31
0.0
  0
LINE
  5
33F
330
6F
100
AcDbEntity
  8
_1-5_寸法2
  6
Continuous
 62
     7
100
AcDbLine
 10
662.3246402877696
 20
258.0318804925235
 30
0.0
 11
612.3246402877696
 21
258.0318804925237
 31
0.0
  0
LINE
  5
340
330
6F
100
AcDbEntity
  8
_1-5_寸法2
  6
Continuous
 62
     7
100
AcDbLine
 10
622.3246402877696
 20
258.0318804925235
 30
0.0
 11
624.9128307387948
 21
248.3726222296329
 31
0.0
  0
LINE
  5
341
330
6F
100
AcDbEntity
  8
_1-5_寸法2
  6
Continuous
 62
     7
100
AcDbLine
 10
622.3246402877696
 20
258.0318804925235
 30
0.0
 11
619.7364498367444
 21
248.3726222296329
 31
0.0
  0
LINE
  5
342
330
6F
100
AcDbEntity
  8
_1-5_寸法2
  6
Continuous
 62
     7
100
AcDbLine
 10
622.3246402877696
 20
228.0318804925233
 30
0.0
 11
622.3246402877696
 21
258.0318804925235
 31
0.0
  0
TEXT
  5
343
330
6F
100
AcDbEntity
  8
_1-5_寸法2
 62
     7
100
AcDbText
 10
622.3246402877696
 20
235.5318804925236
 30
0.0
 40
15.0
  1
12
 50
90.0
100
AcDbText
  0
LINE
  5
344
330
6F
100
AcDbEntity
  8
_1-5_寸法2
  6
Continuous
 62
     7
100
AcDbLine
 10
622.3246402877696
 20
258.0318804925235
 30
0.0
 11
619.7364498367445
 21
267.6911387554143
 31
0.0
  0
LINE
  5
345
330
6F
100
AcDbEntity
  8
_1-5_寸法2
  6
Continuous
 62
     7
100
AcDbLine
 10
622.3246402877696
 20
258.0318804925235
 30
0.0
 11
624.9128307387948
 21
267.6911387554143
 31
0.0
  0
LINE
  5
346
330
6F
100
AcDbEntity
  8
_1-5_寸法2
  6
Continuous
 62
     7
100
AcDbLine
 10
662.3246402877696
 20
278.0318804925234
 30
0.0
 11
612.3246402877696
 21
278.0318804925236
 31
0.0
  0
LINE
  5
347
330
6F
100
AcDbEntity
  8
_1-5_寸法2
  6
Continuous
 62
     7
100
AcDbLine
 10
622.3246402877696
 20
278.0318804925235
 30
0.0
 11
624.9128307387948
 21
268.3726222296328
 31
0.0
  0
LINE
  5
348
330
6F
100
AcDbEntity
  8
_1-5_寸法2
  6
Continuous
 62
     7
100
AcDbLine
 10
622.3246402877696
 20
278.0318804925235
 30
0.0
 11
619.7364498367444
 21
268.3726222296328
 31
0.0
  0
LINE
  5
349
330
6F
100
AcDbEntity
  8
_1-5_寸法2
  6
Continuous
 62
     7
100
AcDbLine
 10
622.3246402877696
 20
258.0318804925235
 30
0.0
 11
622.3246402877696
 21
278.0318804925235
 31
0.0
  0
TEXT
  5
34A
330
6F
100
AcDbEntity
  8
_1-5_寸法2
 62
     7
100
AcDbText
 10
622.3246402877696
 20
264.2818804925235
 30
0.0
 40
15.0
  1
8
 50
90.0
100
AcDbText
  0
LINE
  5
34B
330
6F
100
AcDbEntity
  8
_1-3_細線2
  6
Continuous
 62
     4
100
AcDbLine
 10
978.4496402877698
 20
253.7443808445313
 30
0.0
 11
978.4496402877698
 21
243.8193808445312
 31
0.0
  0
LINE
  5
34C
330
6F
100
AcDbEntity
  8
_1-3_細線2
  6
Continuous
 62
     4
100
AcDbLine
 10
881.1996402877698
 20
271.781880844531
 30
0.0
 11
862.199640287771
 21
271.781880844531
 31
0.0
  0
LINE
  5
34D
330
6F
100
AcDbEntity
  8
_1-3_細線2
  6
Continuous
 62
     4
100
AcDbLine
 10
862.199640287771
 20
271.781880844531
 30
0.0
 11
862.199640287771
 21
234.7818808445313
 31
0.0
  0
LINE
  5
34E
330
6F
100
AcDbEntity
  8
_1-3_細線2
  6
Continuous
 62
     4
100
AcDbLine
 10
978.4496402877698
 20
271.781880844531
 30
0.0
 11
978.4496402877698
 21
234.7818808445313
 31
0.0
  0
LINE
  5
34F
330
6F
100
AcDbEntity
  8
_1-3_細線2
  6
Continuous
 62
     4
100
AcDbLine
 10
919.9496402877686
 20
271.781880844531
 30
0.0
 11
900.9496402877699
 21
271.781880844531
 31
0.0
  0
LINE
  5
350
330
6F
100
AcDbEntity
  8
_1-3_細線2
  6
Continuous
 62
     4
100
AcDbLine
 10
958.6996402877685
 20
271.781880844531
 30
0.0
 11
939.6996402877688
 21
271.781880844531
 31
0.0
  0
LINE
  5
351
330
6F
100
AcDbEntity
  8
_1-3_細線2
  6
Continuous
 62
     4
100
AcDbLine
 10
997.4496402877692
 20
271.781880844531
 30
0.0
 11
978.4496402877698
 21
271.781880844531
 31
0.0
  0
LINE
  5
352
330
6F
100
AcDbEntity
  8
_1-3_細線2
  6
Continuous
 62
     4
100
AcDbLine
 10
939.6996402877688
 20
271.781880844531
 30
0.0
 11
939.6996402877688
 21
234.7818808445313
 31
0.0
  0
LINE
  5
353
330
6F
100
AcDbEntity
  8
_1-3_細線2
  6
Continuous
 62
     4
100
AcDbLine
 10
900.9496402877699
 20
271.781880844531
 30
0.0
 11
900.9496402877699
 21
234.7818808445313
 31
0.0
  0
LINE
  5
354
330
6F
100
AcDbEntity
  8
_1-3_細線2
  6
Continuous
 62
     4
100
AcDbLine
 10
823.4496402877699
 20
271.781880844531
 30
0.0
 11
842.4496402877702
 21
271.781880844531
 31
0.0
  0
LINE
  5
355
330
6F
100
AcDbEntity
  8
_1-3_細線2
  6
Continuous
 62
     4
100
AcDbLine
 10
842.4496402877702
 20
271.781880844531
 30
0.0
 11
842.4496402877702
 21
234.7818808445313
 31
0.0
  0
LINE
  5
356
330
6F
100
AcDbEntity
  8
_1-3_細線2
  6
Continuous
 62
     4
100
AcDbLine
 10
784.6996402877705
 20
271.781880844531
 30
0.0
 11
803.6996402877708
 21
271.781880844531
 31
0.0
  0
LINE
  5
357
330
6F
100
AcDbEntity
  8
_1-3_細線2
  6
Continuous
 62
     4
100
AcDbLine
 10
803.6996402877708
 20
271.781880844531
 30
0.0
 11
803.6996402877708
 21
234.7818808445313
 31
0.0
  0
LINE
  5
358
330
6F
100
AcDbEntity
  8
_1-3_細線2
  6
Continuous
 62
     4
100
AcDbLine
 10
726.199640287772
 20
271.781880844531
 30
0.0
 11
726.199640287772
 21
234.7818808445313
 31
0.0
  0
LINE
  5
359
330
6F
100
AcDbEntity
  8
_1-3_細線2
  6
Continuous
 62
     4
100
AcDbLine
 10
745.9496402877711
 20
271.781880844531
 30
0.0
 11
764.9496402877713
 21
271.781880844531
 31
0.0
  0
LINE
  5
35A
330
6F
100
AcDbEntity
  8
_1-3_細線2
  6
Continuous
 62
     4
100
AcDbLine
 10
707.1996402877723
 20
271.781880844531
 30
0.0
 11
726.199640287772
 21
271.781880844531
 31
0.0
  0
LINE
  5
35B
330
6F
100
AcDbEntity
  8
_1-3_細線2
  6
Continuous
 62
     4
100
AcDbLine
 10
764.9496402877713
 20
271.781880844531
 30
0.0
 11
764.9496402877713
 21
234.7818808445313
 31
0.0
  0
ARC
  5
35C
330
6F
100
AcDbEntity
  8
_1-3_細線2
  6
Continuous
 62
     4
100
AcDbCircle
 10
997.4496402877699
 20
271.7818808445313
 30
0.0
 40
3.0
100
AcDbArc
 50
0.0
 51
89.99999999999991
  0
LINE
  5
35D
330
6F
100
AcDbEntity
  8
_1-3_細線2
  6
Continuous
 62
     4
100
AcDbLine
 10
975.4496402877693
 20
271.7818808445313
 30
0.0
 11
975.4496402877693
 21
234.7818808445313
 31
0.0
  0
LINE
  5
35E
330
6F
100
AcDbEntity
  8
_1-3_細線2
  6
Continuous
 62
     4
100
AcDbLine
 10
997.4496402877699
 20
274.7818808445313
 30
0.0
 11
978.4496402877692
 21
274.7818808445313
 31
0.0
  0
ARC
  5
35F
330
6F
100
AcDbEntity
  8
_1-3_細線2
  6
Continuous
 62
     4
100
AcDbCircle
 10
978.4496402877692
 20
271.7818808445313
 30
0.0
 40
3.0
100
AcDbArc
 50
89.99999999999991
 51
179.9999999999998
  0
ARC
  5
360
330
6F
100
AcDbEntity
  8
_1-3_細線2
  6
Continuous
 62
     4
100
AcDbCircle
 10
958.6996402877696
 20
271.7818808445313
 30
0.0
 40
3.0
100
AcDbArc
 50
0.0
 51
89.99999999999991
  0
LINE
  5
361
330
6F
100
AcDbEntity
  8
_1-3_細線2
  6
Continuous
 62
     4
100
AcDbLine
 10
936.6996402877697
 20
271.7818808445313
 30
0.0
 11
936.6996402877697
 21
234.7818808445313
 31
0.0
  0
LINE
  5
362
330
6F
100
AcDbEntity
  8
_1-3_細線2
  6
Continuous
 62
     4
100
AcDbLine
 10
958.6996402877696
 20
274.7818808445313
 30
0.0
 11
939.69964028777
 21
274.7818808445313
 31
0.0
  0
ARC
  5
363
330
6F
100
AcDbEntity
  8
_1-3_細線2
  6
Continuous
 62
     4
100
AcDbCircle
 10
939.69964028777
 20
271.7818808445313
 30
0.0
 40
3.0
100
AcDbArc
 50
89.99999999999991
 51
179.9999999999998
  0
ARC
  5
364
330
6F
100
AcDbEntity
  8
_1-3_細線2
  6
Continuous
 62
     4
100
AcDbCircle
 10
919.9496402877697
 20
271.7818808445313
 30
0.0
 40
3.0
100
AcDbArc
 50
0.0
 51
89.99999999999991
  0
LINE
  5
365
330
6F
100
AcDbEntity
  8
_1-3_細線2
  6
Continuous
 62
     4
100
AcDbLine
 10
897.9496402877693
 20
271.7818808445313
 30
0.0
 11
897.9496402877693
 21
234.7818808445313
 31
0.0
  0
LINE
  5
366
330
6F
100
AcDbEntity
  8
_1-3_細線2
  6
Continuous
 62
     4
100
AcDbLine
 10
919.9496402877697
 20
274.7818808445313
 30
0.0
 11
900.9496402877692
 21
274.7818808445313
 31
0.0
  0
ARC
  5
367
330
6F
100
AcDbEntity
  8
_1-3_細線2
  6
Continuous
 62
     4
100
AcDbCircle
 10
900.9496402877692
 20
271.7818808445313
 30
0.0
 40
3.0
100
AcDbArc
 50
89.99999999999991
 51
179.9999999999998
  0
ARC
  5
368
330
6F
100
AcDbEntity
  8
_1-3_細線2
  6
Continuous
 62
     4
100
AcDbCircle
 10
881.1996402877705
 20
271.7818808445313
 30
0.0
 40
3.0
100
AcDbArc
 50
0.0
 51
89.99999999999991
  0
LINE
  5
369
330
6F
100
AcDbEntity
  8
_1-3_細線2
  6
Continuous
 62
     4
100
AcDbLine
 10
859.1996402877704
 20
271.7818808445313
 30
0.0
 11
859.1996402877704
 21
234.7818808445313
 31
0.0
  0
LINE
  5
36A
330
6F
100
AcDbEntity
  8
_1-3_細線2
  6
Continuous
 62
     4
100
AcDbLine
 10
881.1996402877705
 20
274.7818808445313
 30
0.0
 11
862.1996402877705
 21
274.7818808445313
 31
0.0
  0
ARC
  5
36B
330
6F
100
AcDbEntity
  8
_1-3_細線2
  6
Continuous
 62
     4
100
AcDbCircle
 10
862.1996402877705
 20
271.7818808445313
 30
0.0
 40
3.0
100
AcDbArc
 50
89.99999999999991
 51
179.9999999999998
  0
LINE
  5
36C
330
6F
100
AcDbEntity
  8
_1-3_細線2
  6
Continuous
 62
     4
100
AcDbLine
 10
845.4496402877705
 20
271.7818808445312
 30
0.0
 11
845.4496402877705
 21
234.7818808445313
 31
0.0
  0
ARC
  5
36D
330
6F
100
AcDbEntity
  8
_1-3_細線2
  6
Continuous
 62
     4
100
AcDbCircle
 10
842.4496402877705
 20
271.7818808445313
 30
0.0
 40
3.0
100
AcDbArc
 50
359.9999999999974
 51
90.00000000000182
  0
LINE
  5
36E
330
6F
100
AcDbEntity
  8
_1-3_細線2
  6
Continuous
 62
     4
100
AcDbLine
 10
823.4496402877697
 20
274.7818808445313
 30
0.0
 11
842.4496402877702
 21
274.7818808445313
 31
0.0
  0
ARC
  5
36F
330
6F
100
AcDbEntity
  8
_1-3_細線2
  6
Continuous
 62
     4
100
AcDbCircle
 10
823.4496402877697
 20
271.7818808445313
 30
0.0
 40
3.0
100
AcDbArc
 50
89.99999999999991
 51
180.0000000000018
  0
LINE
  5
370
330
6F
100
AcDbEntity
  8
_1-3_細線2
  6
Continuous
 62
     4
100
AcDbLine
 10
806.6996402877709
 20
271.7818808445312
 30
0.0
 11
806.6996402877709
 21
234.7818808445313
 31
0.0
  0
ARC
  5
371
330
6F
100
AcDbEntity
  8
_1-3_細線2
  6
Continuous
 62
     4
100
AcDbCircle
 10
803.699640287771
 20
271.7818808445313
 30
0.0
 40
3.0
100
AcDbArc
 50
359.9999999999974
 51
90.00000000000182
  0
LINE
  5
372
330
6F
100
AcDbEntity
  8
_1-3_細線2
  6
Continuous
 62
     4
100
AcDbLine
 10
784.6996402877704
 20
274.7818808445313
 30
0.0
 11
803.6996402877708
 21
274.7818808445313
 31
0.0
  0
ARC
  5
373
330
6F
100
AcDbEntity
  8
_1-3_細線2
  6
Continuous
 62
     4
100
AcDbCircle
 10
784.6996402877704
 20
271.7818808445313
 30
0.0
 40
3.0
100
AcDbArc
 50
90.00000000000218
 51
180.0000000000018
  0
LINE
  5
374
330
6F
100
AcDbEntity
  8
_1-3_細線2
  6
Continuous
 62
     4
100
AcDbLine
 10
767.9496402877714
 20
271.7818808445312
 30
0.0
 11
767.9496402877714
 21
234.7818808445313
 31
0.0
  0
ARC
  5
375
330
6F
100
AcDbEntity
  8
_1-3_細線2
  6
Continuous
 62
     4
100
AcDbCircle
 10
764.9496402877714
 20
271.7818808445313
 30
0.0
 40
3.0
100
AcDbArc
 50
359.9999999999974
 51
90.00000000000182
  0
LINE
  5
376
330
6F
100
AcDbEntity
  8
_1-3_細線2
  6
Continuous
 62
     4
100
AcDbLine
 10
745.949640287771
 20
274.7818808445313
 30
0.0
 11
764.9496402877713
 21
274.7818808445313
 31
0.0
  0
ARC
  5
377
330
6F
100
AcDbEntity
  8
_1-3_細線2
  6
Continuous
 62
     4
100
AcDbCircle
 10
745.949640287771
 20
271.7818808445313
 30
0.0
 40
3.0
100
AcDbArc
 50
89.99999999999991
 51
180.0000000000018
  0
LINE
  5
378
330
6F
100
AcDbEntity
  8
_1-3_細線2
  6
Continuous
 62
     4
100
AcDbLine
 10
729.199640287771
 20
271.7818808445312
 30
0.0
 11
729.199640287771
 21
234.7818808445313
 31
0.0
  0
ARC
  5
379
330
6F
100
AcDbEntity
  8
_1-3_細線2
  6
Continuous
 62
     4
100
AcDbCircle
 10
726.1996402877713
 20
271.7818808445313
 30
0.0
 40
3.0
100
AcDbArc
 50
359.9999999999974
 51
89.99999999999955
  0
LINE
  5
37A
330
6F
100
AcDbEntity
  8
_1-3_細線2
  6
Continuous
 62
     4
100
AcDbLine
 10
707.1996402877713
 20
274.7818808445313
 30
0.0
 11
726.1996402877713
 21
274.7818808445313
 31
0.0
  0
ARC
  5
37B
330
6F
100
AcDbEntity
  8
_1-3_細線2
  6
Continuous
 62
     4
100
AcDbCircle
 10
707.1996402877713
 20
271.7818808445313
 30
0.0
 40
3.0
100
AcDbArc
 50
89.99999999999991
 51
179.9999999999998
  0
LINE
  5
37C
330
6F
100
AcDbEntity
  8
_1-3_細線2
  6
Continuous
 62
     4
100
AcDbLine
 10
726.199640287772
 20
234.7818808445313
 30
0.0
 11
729.199640287771
 21
234.7818808445313
 31
0.0
  0
LINE
  5
37D
330
6F
100
AcDbEntity
  8
_1-3_細線2
  6
Continuous
 62
     4
100
AcDbLine
 10
764.9496402877713
 20
234.7818808445313
 30
0.0
 11
767.9496402877714
 21
234.7818808445313
 31
0.0
  0
LINE
  5
37E
330
6F
100
AcDbEntity
  8
_1-3_細線2
  6
Continuous
 62
     4
100
AcDbLine
 10
803.6996402877708
 20
234.7818808445313
 30
0.0
 11
806.6996402877709
 21
234.7818808445313
 31
0.0
  0
LINE
  5
37F
330
6F
100
AcDbEntity
  8
_1-3_細線2
  6
Continuous
 62
     4
100
AcDbLine
 10
842.4496402877702
 20
234.7818808445313
 30
0.0
 11
845.4496402877705
 21
234.7818808445313
 31
0.0
  0
LINE
  5
380
330
6F
100
AcDbEntity
  8
_1-3_細線2
  6
Continuous
 62
     4
100
AcDbLine
 10
859.1996402877704
 20
234.7818808445313
 30
0.0
 11
862.199640287771
 21
234.7818808445313
 31
0.0
  0
LINE
  5
381
330
6F
100
AcDbEntity
  8
_1-3_細線2
  6
Continuous
 62
     4
100
AcDbLine
 10
897.9496402877693
 20
234.7818808445313
 30
0.0
 11
900.9496402877699
 21
234.7818808445313
 31
0.0
  0
LINE
  5
382
330
6F
100
AcDbEntity
  8
_1-3_細線2
  6
Continuous
 62
     4
100
AcDbLine
 10
936.6996402877697
 20
234.7818808445313
 30
0.0
 11
939.6996402877688
 21
234.7818808445313
 31
0.0
  0
LINE
  5
383
330
6F
100
AcDbEntity
  8
_1-3_細線2
  6
Continuous
 62
     4
100
AcDbLine
 10
975.4496402877693
 20
234.7818808445313
 30
0.0
 11
978.4496402877698
 21
234.7818808445313
 31
0.0
  0
LINE
  5
384
330
6F
100
AcDbEntity
  8
_1-3_細線2
  6
Continuous
 62
     4
100
AcDbLine
 10
884.1996402877704
 20
259.7818804925235
 30
0.0
 11
881.1996402877698
 21
259.7818804925233
 31
0.0
  0
LINE
  5
385
330
6F
100
AcDbEntity
  8
_1-3_細線2
  6
Continuous
 62
     4
100
AcDbLine
 10
1000.44964028777
 20
259.7818804925235
 30
0.0
 11
997.4496402877692
 21
259.7818804925235
 31
0.0
  0
LINE
  5
386
330
6F
100
AcDbEntity
  8
_1-3_細線2
  6
Continuous
 62
     4
100
AcDbLine
 10
961.6996402877692
 20
259.7818804925235
 30
0.0
 11
958.6996402877685
 21
259.7818804925235
 31
0.0
  0
LINE
  5
387
330
6F
100
AcDbEntity
  8
_1-3_細線2
  6
Continuous
 62
     4
100
AcDbLine
 10
922.9496402877693
 20
259.7818804925235
 30
0.0
 11
919.9496402877686
 21
259.7818804925233
 31
0.0
  0
LINE
  5
388
330
6F
100
AcDbEntity
  8
_1-3_細線2
  6
Continuous
 62
     4
100
AcDbLine
 10
820.4496402877698
 20
259.7818804925235
 30
0.0
 11
823.4496402877706
 21
259.7818804925233
 31
0.0
  0
LINE
  5
389
330
6F
100
AcDbEntity
  8
_1-3_細線2
  6
Continuous
 62
     4
100
AcDbLine
 10
781.6996402877704
 20
259.7818804925235
 30
0.0
 11
784.6996402877711
 21
259.7818804925233
 31
0.0
  0
LINE
  5
38A
330
6F
100
AcDbEntity
  8
_1-3_細線2
  6
Continuous
 62
     4
100
AcDbLine
 10
704.1996402877715
 20
259.7818804925235
 30
0.0
 11
707.1996402877723
 21
259.7818804925233
 31
0.0
  0
LINE
  5
38B
330
6F
100
AcDbEntity
  8
_1-3_細線2
  6
Continuous
 62
     4
100
AcDbLine
 10
742.949640287771
 20
259.7818804925235
 30
0.0
 11
745.9496402877714
 21
259.7818804925233
 31
0.0
  0
LINE
  5
38C
330
6F
100
AcDbEntity
  8
_1-3_細線2
  6
Continuous
 62
     4
100
AcDbLine
 10
881.1996402877698
 20
271.781880844531
 30
0.0
 11
881.1996402877698
 21
259.7818804925235
 31
0.0
  0
LINE
  5
38D
330
6F
100
AcDbEntity
  8
_1-3_細線2
  6
Continuous
 62
     4
100
AcDbLine
 10
958.6996402877685
 20
271.781880844531
 30
0.0
 11
958.6996402877685
 21
259.7818804925235
 31
0.0
  0
LINE
  5
38E
330
6F
100
AcDbEntity
  8
_1-3_細線2
  6
Continuous
 62
     4
100
AcDbLine
 10
997.4496402877692
 20
271.781880844531
 30
0.0
 11
997.4496402877692
 21
259.7818804925235
 31
0.0
  0
LINE
  5
38F
330
6F
100
AcDbEntity
  8
_1-3_細線2
  6
Continuous
 62
     4
100
AcDbLine
 10
919.9496402877686
 20
271.781880844531
 30
0.0
 11
919.9496402877686
 21
259.7818804925235
 31
0.0
  0
LINE
  5
390
330
6F
100
AcDbEntity
  8
_1-3_細線2
  6
Continuous
 62
     4
100
AcDbLine
 10
823.4496402877699
 20
271.781880844531
 30
0.0
 11
823.4496402877706
 21
259.7818804925235
 31
0.0
  0
LINE
  5
391
330
6F
100
AcDbEntity
  8
_1-3_細線2
  6
Continuous
 62
     4
100
AcDbLine
 10
784.6996402877705
 20
271.781880844531
 30
0.0
 11
784.6996402877711
 21
259.7818804925235
 31
0.0
  0
LINE
  5
392
330
6F
100
AcDbEntity
  8
_1-3_細線2
  6
Continuous
 62
     4
100
AcDbLine
 10
707.1996402877723
 20
271.781880844531
 30
0.0
 11
707.1996402877723
 21
259.7818804925235
 31
0.0
  0
LINE
  5
393
330
6F
100
AcDbEntity
  8
_1-3_細線2
  6
Continuous
 62
     4
100
AcDbLine
 10
745.9496402877711
 20
271.781880844531
 30
0.0
 11
745.9496402877714
 21
259.7818804925235
 31
0.0
  0
LINE
  5
394
330
6F
100
AcDbEntity
  8
_1-3_細線2
  6
Continuous
 62
     4
100
AcDbLine
 10
1000.44964028777
 20
271.7818808445313
 30
0.0
 11
1000.44964028777
 21
259.7818804925235
 31
0.0
  0
LINE
  5
395
330
6F
100
AcDbEntity
  8
_1-3_細線2
  6
Continuous
 62
     4
100
AcDbLine
 10
961.6996402877692
 20
271.7818808445313
 30
0.0
 11
961.6996402877692
 21
259.7818804925235
 31
0.0
  0
LINE
  5
396
330
6F
100
AcDbEntity
  8
_1-3_細線2
  6
Continuous
 62
     4
100
AcDbLine
 10
922.9496402877693
 20
271.7818808445313
 30
0.0
 11
922.9496402877693
 21
259.7818804925235
 31
0.0
  0
LINE
  5
397
330
6F
100
AcDbEntity
  8
_1-3_細線2
  6
Continuous
 62
     4
100
AcDbLine
 10
884.1996402877704
 20
271.7818808445313
 30
0.0
 11
884.1996402877704
 21
259.7818804925235
 31
0.0
  0
LINE
  5
398
330
6F
100
AcDbEntity
  8
_1-3_細線2
  6
Continuous
 62
     4
100
AcDbLine
 10
820.4496402877698
 20
271.7818808445312
 30
0.0
 11
820.4496402877698
 21
259.7818804925235
 31
0.0
  0
LINE
  5
399
330
6F
100
AcDbEntity
  8
_1-3_細線2
  6
Continuous
 62
     4
100
AcDbLine
 10
781.6996402877704
 20
271.7818808445312
 30
0.0
 11
781.6996402877704
 21
259.7818804925235
 31
0.0
  0
LINE
  5
39A
330
6F
100
AcDbEntity
  8
_1-3_細線2
  6
Continuous
 62
     4
100
AcDbLine
 10
742.949640287771
 20
271.7818808445312
 30
0.0
 11
742.949640287771
 21
259.7818804925235
 31
0.0
  0
LINE
  5
39B
330
6F
100
AcDbEntity
  8
_1-3_細線2
  6
Continuous
 62
     4
100
AcDbLine
 10
704.1996402877715
 20
271.7818808445313
 30
0.0
 11
704.1996402877715
 21
259.7818804925235
 31
0.0
  0
ARC
  5
39C
330
6F
100
AcDbEntity
  8
_1-3_細線2
  6
Continuous
 62
     4
100
AcDbCircle
 10
714.2077702877714
 20
235.2818804925241
 30
0.0
 40
0.5000000000000002
100
AcDbArc
 50
179.9999999999998
 51
269.9999999999997
  0
LINE
  5
39D
330
6F
100
AcDbEntity
  8
_1-3_細線2
  6
Continuous
 62
     4
100
AcDbLine
 10
716.1996402877719
 20
234.7818804925239
 30
0.0
 11
714.2077702877714
 21
234.7818804925239
 31
0.0
  0
ARC
  5
39E
330
6F
100
AcDbEntity
  8
_1-3_細線2
  6
Continuous
 62
     4
100
AcDbCircle
 10
714.2077702877714
 20
259.2818804925235
 30
0.0
 40
0.5000000000000002
100
AcDbArc
 50
89.99999999999991
 51
179.9999999999998
  0
LINE
  5
39F
330
6F
100
AcDbEntity
  8
_1-3_細線2
  6
Continuous
 62
     4
100
AcDbLine
 10
716.1996402877719
 20
259.7818804925244
 30
0.0
 11
714.2077702877714
 21
259.7818804925244
 31
0.0
  0
LINE
  5
3A0
330
6F
100
AcDbEntity
  8
_1-3_細線2
  6
Continuous
 62
     4
100
AcDbLine
 10
713.7077702877706
 20
246.031880492524
 30
0.0
 11
713.7077702877706
 21
235.2818804925241
 31
0.0
  0
LINE
  5
3A1
330
6F
100
AcDbEntity
  8
_1-3_細線2
  6
Continuous
 62
     4
100
AcDbLine
 10
713.7077702877706
 20
259.2818804925235
 30
0.0
 11
713.7077702877706
 21
246.031880492524
 31
0.0
  0
ARC
  5
3A2
330
6F
100
AcDbEntity
  8
_1-3_細線2
  6
Continuous
 62
     4
100
AcDbCircle
 10
717.449640287772
 20
269.7818804925234
 30
0.0
 40
1.25
100
AcDbArc
 50
89.99999999999991
 51
179.9999999999998
  0
LINE
  5
3A3
330
6F
100
AcDbEntity
  8
_1-3_細線2
  6
Continuous
 62
     4
100
AcDbLine
 10
724.949640287772
 20
271.0318804925234
 30
0.0
 11
717.449640287772
 21
271.0318804925234
 31
0.0
  0
ARC
  5
3A4
330
6F
100
AcDbEntity
  8
_1-3_細線2
  6
Continuous
 62
     4
100
AcDbCircle
 10
724.949640287772
 20
269.7818804925234
 30
0.0
 40
1.25
100
AcDbArc
 50
0.0
 51
89.99999999999991
  0
LINE
  5
3A5
330
6F
100
AcDbEntity
  8
_1-3_細線2
  6
Continuous
 62
     4
100
AcDbLine
 10
716.1996402877719
 20
269.7818804925234
 30
0.0
 11
716.1996402877719
 21
231.0318804925234
 31
0.0
  0
ARC
  5
3A6
330
6F
100
AcDbEntity
  8
_1-3_細線2
  6
Continuous
 62
     4
100
AcDbCircle
 10
717.449640287772
 20
231.0318804925234
 30
0.0
 40
1.25
100
AcDbArc
 50
179.9999999999998
 51
269.9999999999997
  0
LINE
  5
3A7
330
6F
100
AcDbEntity
  8
_1-3_細線2
  6
Continuous
 62
     4
100
AcDbLine
 10
717.449640287772
 20
229.7818804925234
 30
0.0
 11
724.949640287772
 21
229.7818804925234
 31
0.0
  0
LINE
  5
3A8
330
6F
100
AcDbEntity
  8
_1-3_細線2
  6
Continuous
 62
     4
100
AcDbLine
 10
726.199640287772
 20
231.0318804925234
 30
0.0
 11
726.199640287772
 21
269.7818804925234
 31
0.0
  0
ARC
  5
3A9
330
6F
100
AcDbEntity
  8
_1-3_細線2
  6
Continuous
 62
     4
100
AcDbCircle
 10
724.949640287772
 20
231.0318804925234
 30
0.0
 40
1.25
100
AcDbArc
 50
269.9999999999997
 51
359.9999999999997
  0
LINE
  5
3AA
330
6F
100
AcDbEntity
  8
_1-3_細線2
  6
Continuous
 62
     4
100
AcDbLine
 10
729.1996402877718
 20
238.6568804925234
 30
0.0
 11
764.9496402877713
 21
238.6568804925234
 31
0.0
  0
LINE
  5
3AB
330
6F
100
AcDbEntity
  8
_1-3_細線2
  6
Continuous
 62
     4
100
AcDbLine
 10
729.1996402877718
 20
255.9068804925235
 30
0.0
 11
764.9496402877713
 21
255.9068804925235
 31
0.0
  0
LINE
  5
3AC
330
6F
100
AcDbEntity
  8
_1-3_細線2
  6
Continuous
 62
     4
100
AcDbLine
 10
767.9496402877724
 20
238.6568804925234
 30
0.0
 11
803.699640287772
 21
238.6568804925234
 31
0.0
  0
LINE
  5
3AD
330
6F
100
AcDbEntity
  8
_1-3_細線2
  6
Continuous
 62
     4
100
AcDbLine
 10
767.9496402877724
 20
255.9068804925235
 30
0.0
 11
803.699640287772
 21
255.9068804925235
 31
0.0
  0
LINE
  5
3AE
330
6F
100
AcDbEntity
  8
_1-3_細線2
  6
Continuous
 62
     4
100
AcDbLine
 10
806.699640287772
 20
238.6568804925234
 30
0.0
 11
842.4496402877712
 21
238.6568804925234
 31
0.0
  0
LINE
  5
3AF
330
6F
100
AcDbEntity
  8
_1-3_細線2
  6
Continuous
 62
     4
100
AcDbLine
 10
806.699640287772
 20
255.9068804925235
 30
0.0
 11
842.4496402877712
 21
255.9068804925235
 31
0.0
  0
LINE
  5
3B0
330
6F
100
AcDbEntity
  8
_1-3_細線2
  6
Continuous
 62
     4
100
AcDbLine
 10
845.4496402877714
 20
255.9068804925235
 30
0.0
 11
859.1996402877704
 21
255.9068804925235
 31
0.0
  0
LINE
  5
3B1
330
6F
100
AcDbEntity
  8
_1-3_細線2
  6
Continuous
 62
     4
100
AcDbLine
 10
845.4496402877714
 20
238.6568804925234
 30
0.0
 11
859.1996402877704
 21
238.6568804925234
 31
0.0
  0
ARC
  5
3B2
330
6F
100
AcDbEntity
  8
_1-3_細線2
  6
Continuous
 62
     4
100
AcDbCircle
 10
990.4415105428943
 20
235.2818804925241
 30
0.0
 40
0.5000000000000002
100
AcDbArc
 50
269.9999999999997
 51
359.9999999999997
  0
LINE
  5
3B3
330
6F
100
AcDbEntity
  8
_1-3_細線2
  6
Continuous
 62
     4
100
AcDbLine
 10
988.4496405428942
 20
234.7818804925239
 30
0.0
 11
990.4415105428943
 21
234.7818804925239
 31
0.0
  0
ARC
  5
3B4
330
6F
100
AcDbEntity
  8
_1-3_細線2
  6
Continuous
 62
     4
100
AcDbCircle
 10
990.4415105428943
 20
259.2818804925235
 30
0.0
 40
0.5000000000000002
100
AcDbArc
 50
0.0
 51
89.99999999999991
  0
LINE
  5
3B5
330
6F
100
AcDbEntity
  8
_1-3_細線2
  6
Continuous
 62
     4
100
AcDbLine
 10
988.4496405428942
 20
259.7818804925244
 30
0.0
 11
990.4415105428943
 21
259.7818804925244
 31
0.0
  0
LINE
  5
3B6
330
6F
100
AcDbEntity
  8
_1-3_細線2
  6
Continuous
 62
     4
100
AcDbLine
 10
990.9415105428951
 20
246.031880492524
 30
0.0
 11
990.9415105428951
 21
235.2818804925241
 31
0.0
  0
LINE
  5
3B7
330
6F
100
AcDbEntity
  8
_1-3_細線2
  6
Continuous
 62
     4
100
AcDbLine
 10
990.9415105428951
 20
259.2818804925235
 30
0.0
 11
990.9415105428951
 21
246.031880492524
 31
0.0
  0
ARC
  5
3B8
330
6F
100
AcDbEntity
  8
_1-3_細線2
  6
Continuous
 62
     4
100
AcDbCircle
 10
987.1996405428941
 20
269.7818804925234
 30
0.0
 40
1.25
100
AcDbArc
 50
0.0
 51
89.99999999999991
  0
LINE
  5
3B9
330
6F
100
AcDbEntity
  8
_1-3_細線2
  6
Continuous
 62
     4
100
AcDbLine
 10
979.6996405428942
 20
271.0318804925234
 30
0.0
 11
987.1996405428941
 21
271.0318804925234
 31
0.0
  0
ARC
  5
3BA
330
6F
100
AcDbEntity
  8
_1-3_細線2
  6
Continuous
 62
     4
100
AcDbCircle
 10
979.6996405428942
 20
269.7818804925234
 30
0.0
 40
1.25
100
AcDbArc
 50
89.99999999999991
 51
179.9999999999998
  0
LINE
  5
3BB
330
6F
100
AcDbEntity
  8
_1-3_細線2
  6
Continuous
 62
     4
100
AcDbLine
 10
988.4496405428942
 20
269.7818804925234
 30
0.0
 11
988.4496405428942
 21
231.0318804925234
 31
0.0
  0
ARC
  5
3BC
330
6F
100
AcDbEntity
  8
_1-3_細線2
  6
Continuous
 62
     4
100
AcDbCircle
 10
987.1996405428941
 20
231.0318804925234
 30
0.0
 40
1.25
100
AcDbArc
 50
269.9999999999997
 51
359.9999999999997
  0
LINE
  5
3BD
330
6F
100
AcDbEntity
  8
_1-3_細線2
  6
Continuous
 62
     4
100
AcDbLine
 10
987.1996405428941
 20
229.7818804925234
 30
0.0
 11
979.6996405428942
 21
229.7818804925234
 31
0.0
  0
LINE
  5
3BE
330
6F
100
AcDbEntity
  8
_1-3_細線2
  6
Continuous
 62
     4
100
AcDbLine
 10
978.449640542894
 20
231.0318804925234
 30
0.0
 11
978.449640542894
 21
269.7818804925234
 31
0.0
  0
ARC
  5
3BF
330
6F
100
AcDbEntity
  8
_1-3_細線2
  6
Continuous
 62
     4
100
AcDbCircle
 10
979.6996405428942
 20
231.0318804925234
 30
0.0
 40
1.25
100
AcDbArc
 50
179.9999999999998
 51
269.9999999999997
  0
LINE
  5
3C0
330
6F
100
AcDbEntity
  8
_1-3_細線2
  6
Continuous
 62
     4
100
AcDbLine
 10
975.4496405428936
 20
238.6568804925234
 30
0.0
 11
939.6996405428945
 21
238.6568804925234
 31
0.0
  0
LINE
  5
3C1
330
6F
100
AcDbEntity
  8
_1-3_細線2
  6
Continuous
 62
     4
100
AcDbLine
 10
975.4496405428936
 20
255.9068804925235
 30
0.0
 11
939.6996405428945
 21
255.9068804925235
 31
0.0
  0
LINE
  5
3C2
330
6F
100
AcDbEntity
  8
_1-3_細線2
  6
Continuous
 62
     4
100
AcDbLine
 10
936.6996405428931
 20
238.6568804925234
 30
0.0
 11
900.9496405428942
 21
238.6568804925234
 31
0.0
  0
LINE
  5
3C3
330
6F
100
AcDbEntity
  8
_1-3_細線2
  6
Continuous
 62
     4
100
AcDbLine
 10
936.6996405428931
 20
255.9068804925235
 30
0.0
 11
900.9496405428942
 21
255.9068804925235
 31
0.0
  0
LINE
  5
3C4
330
6F
100
AcDbEntity
  8
_1-3_細線2
  6
Continuous
 62
     4
100
AcDbLine
 10
897.9496405428937
 20
238.6568804925234
 30
0.0
 11
862.1996405428944
 21
238.6568804925234
 31
0.0
  0
LINE
  5
3C5
330
6F
100
AcDbEntity
  8
_1-3_細線2
  6
Continuous
 62
     4
100
AcDbLine
 10
897.9496405428937
 20
255.9068804925235
 30
0.0
 11
862.1996405428944
 21
255.9068804925235
 31
0.0
  0
LINE
  5
3C6
330
6F
100
AcDbEntity
  8
_1-2_極細2
  6
CENTER1
 62
     2
100
AcDbLine
 10
703.0748718320705
 20
247.2818804925234
 30
0.0
 11
1002.55839612375
 21
247.2818804925234
 31
0.0
  0
LINE
  5
3C7
330
6F
100
AcDbEntity
  8
_1-2_極細2
  6
Continuous
 62
     2
100
AcDbLine
 10
713.7077702877706
 20
247.2818804925234
 30
0.0
 11
706.1964802877704
 21
247.2818804925234
 31
0.0
  0
LINE
  5
3C8
330
6F
100
AcDbEntity
  8
_1-3_細線2
  6
Continuous
 62
     4
100
AcDbLine
 10
713.7077702877706
 20
238.5318804925246
 30
0.0
 11
706.1964502877721
 21
238.5318804925246
 31
0.0
  0
ARC
  5
3C9
330
6F
100
AcDbEntity
  8
_1-3_細線2
  6
Continuous
 62
     4
100
AcDbCircle
 10
706.1964502877721
 20
239.0318804925241
 30
0.0
 40
0.5000000000000002
100
AcDbArc
 50
179.9999999999998
 51
269.9999999999997
  0
ARC
  5
3CA
330
6F
100
AcDbEntity
  8
_1-2_極細2
  6
Continuous
 62
     2
100
AcDbCircle
 10
725.0914002877708
 20
242.9065154925249
 30
0.0
 40
19.39489
100
AcDbArc
 50
166.961978000005
 51
193.0356699999996
  0
ARC
  5
3CB
330
6F
100
AcDbEntity
  8
_1-3_細線2
  6
Continuous
 62
     4
100
AcDbCircle
 10
706.1964502877721
 20
255.5318804925248
 30
0.0
 40
0.5000000000000002
100
AcDbArc
 50
89.99999999999991
 51
179.9999999999998
  0
ARC
  5
3CC
330
6F
100
AcDbEntity
  8
_1-2_極細2
  6
Continuous
 62
     2
100
AcDbCircle
 10
725.0914002877708
 20
251.6572404925237
 30
0.0
 40
19.39489
100
AcDbArc
 50
166.96433
 51
193.0380219999984
  0
LINE
  5
3CD
330
6F
100
AcDbEntity
  8
_1-3_細線2
  6
Continuous
 62
     4
100
AcDbLine
 10
713.7077702877706
 20
256.0318804925244
 30
0.0
 11
706.1964502877721
 21
256.0318804925244
 31
0.0
  0
LINE
  5
3CE
330
6F
100
AcDbEntity
  8
_1-3_細線2
  6
Continuous
 62
     4
100
AcDbLine
 10
705.6964502877709
 20
239.0318804925241
 30
0.0
 11
705.6964502877709
 21
255.5318804925248
 31
0.0
  0
LINE
  5
3CF
330
6F
100
AcDbEntity
  8
_1-2_極細2
  6
Continuous
 62
     2
100
AcDbLine
 10
990.9415105428951
 20
247.2818804925234
 30
0.0
 11
998.4528005428957
 21
247.2818804925234
 31
0.0
  0
LINE
  5
3D0
330
6F
100
AcDbEntity
  8
_1-3_細線2
  6
Continuous
 62
     4
100
AcDbLine
 10
990.9415105428951
 20
238.5318804925246
 30
0.0
 11
998.4528305428941
 21
238.5318804925246
 31
0.0
  0
ARC
  5
3D1
330
6F
100
AcDbEntity
  8
_1-3_細線2
  6
Continuous
 62
     4
100
AcDbCircle
 10
998.4528305428941
 20
239.0318804925241
 30
0.0
 40
0.5000000000000002
100
AcDbArc
 50
269.9999999999997
 51
359.9999999999997
  0
ARC
  5
3D2
330
6F
100
AcDbEntity
  8
_1-2_極細2
  6
Continuous
 62
     2
100
AcDbCircle
 10
979.5578805428947
 20
242.9065154925249
 30
0.0
 40
19.39489
100
AcDbArc
 50
346.9643299999997
 51
13.03802199999457
  0
ARC
  5
3D3
330
6F
100
AcDbEntity
  8
_1-3_細線2
  6
Continuous
 62
     4
100
AcDbCircle
 10
998.4528305428941
 20
255.5318804925248
 30
0.0
 40
0.5000000000000002
100
AcDbArc
 50
0.0
 51
89.99999999999991
  0
ARC
  5
3D4
330
6F
100
AcDbEntity
  8
_1-2_極細2
  6
Continuous
 62
     2
100
AcDbCircle
 10
979.5578805428947
 20
251.6572404925237
 30
0.0
 40
19.39489
100
AcDbArc
 50
346.9619780000008
 51
13.03566999999962
  0
LINE
  5
3D5
330
6F
100
AcDbEntity
  8
_1-3_細線2
  6
Continuous
 62
     4
100
AcDbLine
 10
990.9415105428951
 20
256.0318804925244
 30
0.0
 11
998.4528305428941
 21
256.0318804925244
 31
0.0
  0
LINE
  5
3D6
330
6F
100
AcDbEntity
  8
_1-3_細線2
  6
Continuous
 62
     4
100
AcDbLine
 10
998.9528305428951
 20
239.0318804925241
 30
0.0
 11
998.9528305428951
 21
255.5318804925248
 31
0.0
  0
LINE
  5
3D7
330
6F
100
AcDbEntity
  8
_1-5_寸法2
  6
Continuous
 62
     7
100
AcDbLine
 10
806.6996402877704
 20
283.5318804925232
 30
0.0
 11
806.6996402877704
 21
324.7818808445313
 31
0.0
  0
LINE
  5
3D8
330
6F
100
AcDbEntity
  8
_1-5_寸法2
  6
Continuous
 62
     7
100
AcDbLine
 10
806.6996402877704
 20
314.7818808445312
 30
0.0
 11
797.0403820248799
 21
312.1936903935061
 31
0.0
  0
LINE
  5
3D9
330
6F
100
AcDbEntity
  8
_1-5_寸法2
  6
Continuous
 62
     7
100
AcDbLine
 10
806.6996402877704
 20
314.7818808445312
 30
0.0
 11
797.0403820248799
 21
317.3700712955565
 31
0.0
  0
LINE
  5
3DA
330
6F
100
AcDbEntity
  8
_1-5_寸法2
  6
Continuous
 62
     7
100
AcDbLine
 10
820.4496402877705
 20
283.5318804925232
 30
0.0
 11
820.4496402877705
 21
324.7818808445313
 31
0.0
  0
LINE
  5
3DB
330
6F
100
AcDbEntity
  8
_1-5_寸法2
  6
Continuous
 62
     7
100
AcDbLine
 10
783.062493207709
 20
314.7818808445312
 30
0.0
 11
820.4496402877705
 21
314.7818808445312
 31
0.0
  0
TEXT
  5
3DC
330
6F
100
AcDbEntity
  8
_1-5_寸法2
 62
     7
100
AcDbText
 10
783.0624932077092
 20
314.7818808445312
 30
0.0
 40
15.0
  1
5.5
100
AcDbText
  0
LINE
  5
3DD
330
6F
100
AcDbEntity
  8
_1-5_寸法2
  6
Continuous
 62
     7
100
AcDbLine
 10
820.4496402877705
 20
314.7818808445312
 30
0.0
 11
830.1088985506611
 21
317.3700712955564
 31
0.0
  0
LINE
  5
3DE
330
6F
100
AcDbEntity
  8
_1-5_寸法2
  6
Continuous
 62
     7
100
AcDbLine
 10
820.4496402877705
 20
314.7818808445312
 30
0.0
 11
830.1088985506611
 21
312.1936903935061
 31
0.0
  0
LINE
  5
3DF
330
6F
100
AcDbEntity
  8
_1-5_寸法2
  6
Continuous
 62
     7
100
AcDbLine
 10
845.4496402877705
 20
283.5318804925232
 30
0.0
 11
845.4496402877705
 21
324.7818808445313
 31
0.0
  0
LINE
  5
3E0
330
6F
100
AcDbEntity
  8
_1-5_寸法2
  6
Continuous
 62
     7
100
AcDbLine
 10
845.4496402877705
 20
314.7818808445312
 30
0.0
 11
835.7903820248798
 21
312.1936903935061
 31
0.0
  0
LINE
  5
3E1
330
6F
100
AcDbEntity
  8
_1-5_寸法2
  6
Continuous
 62
     7
100
AcDbLine
 10
845.4496402877705
 20
314.7818808445312
 30
0.0
 11
835.7903820248798
 21
317.3700712955565
 31
0.0
  0
LINE
  5
3E2
330
6F
100
AcDbEntity
  8
_1-5_寸法2
  6
Continuous
 62
     7
100
AcDbLine
 10
820.4496402877705
 20
314.7818808445312
 30
0.0
 11
845.4496402877705
 21
314.7818808445312
 31
0.0
  0
TEXT
  5
3E3
330
6F
100
AcDbEntity
  8
_1-5_寸法2
 62
     7
100
AcDbText
 10
825.4496402877704
 20
314.7818808445312
 30
0.0
 40
15.0
  1
10
100
AcDbText
  0
LINE
  5
3E4
330
6F
100
AcDbEntity
  8
_1-5_寸法2
  6
Continuous
 62
     7
100
AcDbLine
 10
1004.82464028777
 20
288.0318804925233
 30
0.0
 11
1004.82464028777
 21
359.7818808445313
 31
0.0
  0
LINE
  5
3E5
330
6F
100
AcDbEntity
  8
_1-5_寸法2
  6
Continuous
 62
     7
100
AcDbLine
 10
1004.82464028777
 20
349.7818808445313
 30
0.0
 11
1014.483898550661
 21
352.3700712955565
 31
0.0
  0
LINE
  5
3E6
330
6F
100
AcDbEntity
  8
_1-5_寸法2
  6
Continuous
 62
     7
100
AcDbLine
 10
1004.82464028777
 20
349.7818808445313
 30
0.0
 11
1014.483898550661
 21
347.1936903935062
 31
0.0
  0
LINE
  5
3E7
330
6F
100
AcDbEntity
  8
_1-5_寸法2
  6
Continuous
 62
     7
100
AcDbLine
 10
1032.32464028777
 20
288.0318804925233
 30
0.0
 11
1032.32464028777
 21
359.7818808445313
 31
0.0
  0
LINE
  5
3E8
330
6F
100
AcDbEntity
  8
_1-5_寸法2
  6
Continuous
 62
     7
100
AcDbLine
 10
1032.32464028777
 20
349.7818808445313
 30
0.0
 11
1022.665382024879
 21
347.1936903935062
 31
0.0
  0
LINE
  5
3E9
330
6F
100
AcDbEntity
  8
_1-5_寸法2
  6
Continuous
 62
     7
100
AcDbLine
 10
1032.32464028777
 20
349.7818808445313
 30
0.0
 11
1022.665382024879
 21
352.3700712955565
 31
0.0
  0
LINE
  5
3EA
330
6F
100
AcDbEntity
  8
_1-5_寸法2
  6
Continuous
 62
     7
100
AcDbLine
 10
1004.82464028777
 20
349.7818808445313
 30
0.0
 11
1032.32464028777
 21
349.7818808445313
 31
0.0
  0
TEXT
  5
3EB
330
6F
100
AcDbEntity
  8
_1-5_寸法2
 62
     7
100
AcDbText
 10
1011.074640287769
 20
349.7818808445313
 30
0.0
 40
15.0
  1
11
100
AcDbText
  0
LINE
  5
3EC
330
6F
100
AcDbEntity
  8
_1-5_寸法2
  6
Continuous
 62
     7
100
AcDbLine
 10
672.3246402877696
 20
288.0318804925233
 30
0.0
 11
672.3246402877696
 21
359.7818808445313
 31
0.0
  0
LINE
  5
3ED
330
6F
100
AcDbEntity
  8
_1-5_寸法2
  6
Continuous
 62
     7
100
AcDbLine
 10
672.3246402877696
 20
349.7818808445313
 30
0.0
 11
681.9838985506605
 21
352.3700712955565
 31
0.0
  0
LINE
  5
3EE
330
6F
100
AcDbEntity
  8
_1-5_寸法2
  6
Continuous
 62
     7
100
AcDbLine
 10
672.3246402877696
 20
349.7818808445313
 30
0.0
 11
681.9838985506605
 21
347.1936903935062
 31
0.0
  0
LINE
  5
3EF
330
6F
100
AcDbEntity
  8
_1-5_寸法2
  6
Continuous
 62
     7
100
AcDbLine
 10
699.8246402877696
 20
288.0318804925233
 30
0.0
 11
699.8246402877696
 21
359.7818808445313
 31
0.0
  0
LINE
  5
3F0
330
6F
100
AcDbEntity
  8
_1-5_寸法2
  6
Continuous
 62
     7
100
AcDbLine
 10
699.8246402877696
 20
349.7818808445313
 30
0.0
 11
690.1653820248788
 21
347.1936903935062
 31
0.0
  0
LINE
  5
3F1
330
6F
100
AcDbEntity
  8
_1-5_寸法2
  6
Continuous
 62
     7
100
AcDbLine
 10
699.8246402877696
 20
349.7818808445313
 30
0.0
 11
690.1653820248788
 21
352.3700712955565
 31
0.0
  0
LINE
  5
3F2
330
6F
100
AcDbEntity
  8
_1-5_寸法2
  6
Continuous
 62
     7
100
AcDbLine
 10
672.3246402877696
 20
349.7818808445313
 30
0.0
 11
699.8246402877696
 21
349.7818808445313
 31
0.0
  0
TEXT
  5
3F3
330
6F
100
AcDbEntity
  8
_1-5_寸法2
 62
     7
100
AcDbText
 10
678.5746402877696
 20
349.7818808445313
 30
0.0
 40
15.0
  1
11
100
AcDbText
  0
LINE
  5
3F4
330
6F
100
AcDbEntity
  8
_1-5_寸法2
  6
Continuous
 62
     7
100
AcDbLine
 10
672.3246402877696
 20
288.0318804925233
 30
0.0
 11
672.3246402877702
 21
394.7818808445314
 31
0.0
  0
LINE
  5
3F5
330
6F
100
AcDbEntity
  8
_1-5_寸法2
  6
Continuous
 62
     7
100
AcDbLine
 10
672.3246402877702
 20
384.7818808445314
 30
0.0
 11
681.9838985506607
 21
387.3700712955565
 31
0.0
  0
LINE
  5
3F6
330
6F
100
AcDbEntity
  8
_1-5_寸法2
  6
Continuous
 62
     7
100
AcDbLine
 10
672.3246402877702
 20
384.7818808445314
 30
0.0
 11
681.9838985506607
 21
382.1936903935062
 31
0.0
  0
LINE
  5
3F7
330
6F
100
AcDbEntity
  8
_1-5_寸法2
  6
Continuous
 62
     7
100
AcDbLine
 10
1032.32464028777
 20
288.0318804925233
 30
0.0
 11
1032.32464028777
 21
394.7818808445314
 31
0.0
  0
LINE
  5
3F8
330
6F
100
AcDbEntity
  8
_1-5_寸法2
  6
Continuous
 62
     7
100
AcDbLine
 10
1032.32464028777
 20
384.7818808445314
 30
0.0
 11
1022.665382024879
 21
382.1936903935062
 31
0.0
  0
LINE
  5
3F9
330
6F
100
AcDbEntity
  8
_1-5_寸法2
  6
Continuous
 62
     7
100
AcDbLine
 10
1032.32464028777
 20
384.7818808445314
 30
0.0
 11
1022.665382024879
 21
387.3700712955566
 31
0.0
  0
LINE
  5
3FA
330
6F
100
AcDbEntity
  8
_1-5_寸法2
  6
Continuous
 62
     7
100
AcDbLine
 10
672.3246402877702
 20
384.7818808445314
 30
0.0
 11
1032.32464028777
 21
384.7818808445314
 31
0.0
  0
TEXT
  5
3FB
330
6F
100
AcDbEntity
  8
_1-5_寸法2
 62
     7
100
AcDbText
 10
841.0746402877702
 20
384.7818808445314
 30
0.0
 40
15.0
  1
144
100
AcDbText
  0
LINE
  5
3FC
330
6F
100
AcDbEntity
  8
_1-5_寸法2
  6
Continuous
 62
     7
100
AcDbLine
 10
704.1996402877715
 20
281.7818808445313
 30
0.0
 11
704.1996402877718
 21
354.7818808445313
 31
0.0
  0
LINE
  5
3FD
330
6F
100
AcDbEntity
  8
_1-5_寸法2
  6
Continuous
 62
     7
100
AcDbLine
 10
704.1996402877718
 20
349.7818808445313
 30
0.0
 11
713.8588985506625
 21
352.3700712955565
 31
0.0
  0
LINE
  5
3FE
330
6F
100
AcDbEntity
  8
_1-5_寸法2
  6
Continuous
 62
     7
100
AcDbLine
 10
704.1996402877718
 20
349.7818808445313
 30
0.0
 11
713.8588985506625
 21
347.1936903935062
 31
0.0
  0
LINE
  5
3FF
330
6F
100
AcDbEntity
  8
_1-5_寸法2
  6
Continuous
 62
     7
100
AcDbLine
 10
1000.44964028777
 20
281.7818808445313
 30
0.0
 11
1000.44964028777
 21
354.7818808445313
 31
0.0
  0
LINE
  5
400
330
6F
100
AcDbEntity
  8
_1-5_寸法2
  6
Continuous
 62
     7
100
AcDbLine
 10
1000.44964028777
 20
349.7818808445313
 30
0.0
 11
990.7903820248792
 21
347.1936903935062
 31
0.0
  0
LINE
  5
401
330
6F
100
AcDbEntity
  8
_1-5_寸法2
  6
Continuous
 62
     7
100
AcDbLine
 10
1000.44964028777
 20
349.7818808445313
 30
0.0
 11
990.7903820248792
 21
352.3700712955565
 31
0.0
  0
LINE
  5
402
330
6F
100
AcDbEntity
  8
_1-5_寸法2
  6
Continuous
 62
     7
100
AcDbLine
 10
704.1996402877718
 20
349.7818808445313
 30
0.0
 11
1000.44964028777
 21
349.7818808445313
 31
0.0
  0
TEXT
  5
403
330
6F
100
AcDbEntity
  8
_1-5_寸法2
 62
     7
100
AcDbText
 10
833.5746402877708
 20
349.7818808445313
 30
0.0
 40
15.0
  1
118.5
100
AcDbText
  0
LINE
  5
404
330
6F
100
AcDbEntity
  8
_1-2_極細2
  6
Continuous
 62
     2
100
AcDbLine
 10
1006.574640287768
 20
228.031880492523
 30
0.0
 11
698.0746402877706
 21
228.031880492523
 31
0.0
  0
LINE
  5
405
330
6F
100
AcDbEntity
  8
_1-2_極細2
  6
CENTER1
 62
     2
100
AcDbLine
 10
852.3246402877697
 20
300.6520282238256
 30
0.0
 11
852.3246402877697
 21
206.0643707256416
 31
0.0
  0
LINE
  5
406
330
6F
100
AcDbEntity
  8
_0-1_計細線
  6
Continuous
 62
     3
100
AcDbLine
 10
173.9130020741056
 20
689.3886710762995
 30
0.0
 11
173.9130020741056
 21
699.3886706722888
 31
0.0
  0
LINE
  5
407
330
6F
100
AcDbEntity
  8
_0-1_計細線
  6
Continuous
 62
     3
100
AcDbLine
 10
173.9130020741056
 20
699.3886706722888
 30
0.0
 11
624.6983867665544
 21
699.3886706722888
 31
0.0
  0
LINE
  5
408
330
6F
100
AcDbEntity
  8
_0-1_計細線
  6
Continuous
 62
     3
100
AcDbLine
 10
173.9130020741056
 20
689.3886710762995
 30
0.0
 11
628.319120315145
 21
689.3886710762995
 31
0.0
  0
LINE
  5
409
330
6F
100
AcDbEntity
  8
_0-1_計細線
  6
Continuous
 62
     3
100
AcDbLine
 10
173.9130020741056
 20
699.3886706722888
 30
0.0
 11
173.9130020741056
 21
689.3886710762995
 31
0.0
  0
TEXT
  5
40A
330
6F
100
AcDbEntity
  8
_0-7_枠細線
 62
     5
100
AcDbText
 10
957.5000000000001
 20
109.9999999999999
 30
0.0
 40
20.00000000000001
  1
ＧＳＧＹ－１５Ｌ６００～２０００
 41
0.5249999999999999
100
AcDbText
  0
TEXT
  5
40B
330
6F
100
AcDbEntity
  8
_0-7_枠細線
 62
     5
100
AcDbText
 10
965.4999999999999
 20
150.0
 30
0.0
 40
20.0
  1
玄関排水ユニット
 41
0.6
100
AcDbText
  0
TEXT
  5
40C
330
6F
100
AcDbEntity
  8
_0-7_枠細線
 62
     5
100
AcDbText
 10
997.5000000000056
 20
781.6386675683085
 30
0.0
 40
15.0
  1
GSGY-15L 600
 41
0.6
100
AcDbText
  0
TEXT
  5
40D
330
6F
100
AcDbEntity
  8
_0-7_枠細線
 62
     5
100
AcDbText
 10
997.5000000000056
 20
756.6386675683085
 30
0.0
 40
15.0
  1
GSGY-15L 900
 41
0.6
100
AcDbText
  0
TEXT
  5
40E
330
6F
100
AcDbEntity
  8
_0-7_枠細線
 62
     5
100
AcDbText
 10
997.5000000000056
 20
731.6386675683085
 30
0.0
 40
15.0
  1
GSGY-15L1200
 41
0.6
100
AcDbText
  0
TEXT
  5
40F
330
6F
100
AcDbEntity
  8
_0-7_枠細線
 62
     5
100
AcDbText
 10
997.5000000000056
 20
706.6386675683087
 30
0.0
 40
15.0
  1
GSGY-15L1800
 41
0.6
100
AcDbText
  0
TEXT
  5
410
330
6F
100
AcDbEntity
  8
_0-7_枠細線
 62
     5
100
AcDbText
 10
997.5000000000056
 20
681.6386675683087
 30
0.0
 40
15.0
  1
GSGY-15L2000
 41
0.6
100
AcDbText
  0
LINE
  5
411
330
6F
100
AcDbEntity
  8
_0-0_計極細
  6
Continuous
 62
     2
100
AcDbLine
 10
473.9629867983962
 20
751.3886690647473
 30
0.0
 11
473.962989079371
 21
745.8886690647476
 31
0.0
  0
LINE
  5
412
330
6F
100
AcDbEntity
  8
_0-0_計極細
  6
Continuous
 62
     2
100
AcDbLine
 10
480.8629867681927
 20
751.3886690647473
 30
0.0
 11
480.8629890793711
 21
745.8886690647476
 31
0.0
  0
LINE
  5
413
330
6F
100
AcDbEntity
  8
_0-0_計極細
  6
Continuous
 62
     2
100
AcDbLine
 10
473.9629890886229
 20
735.8886690647477
 30
0.0
 11
473.9629890886229
 21
730.3886690647476
 31
0.0
  0
LINE
  5
414
330
6F
100
AcDbEntity
  8
_0-0_計極細
  6
Continuous
 62
     2
100
AcDbLine
 10
480.8629890887452
 20
735.8886690647477
 30
0.0
 11
480.8629890887452
 21
730.3886690647476
 31
0.0
  0
LINE
  5
415
330
6F
100
AcDbEntity
  8
_0-0_計極細
  6
Continuous
 62
     2
100
AcDbLine
 10
473.9629890886229
 20
714.8886690647481
 30
0.0
 11
473.9629890886229
 21
720.3886690647477
 31
0.0
  0
LINE
  5
416
330
6F
100
AcDbEntity
  8
_0-0_計極細
  6
Continuous
 62
     2
100
AcDbLine
 10
480.8629890887452
 20
714.8886690647481
 30
0.0
 11
480.8629890887452
 21
720.3886690647477
 31
0.0
  0
LINE
  5
417
330
6F
100
AcDbEntity
  8
_0-0_計極細
  6
Continuous
 62
     2
100
AcDbLine
 10
473.9629890886229
 20
699.3886690647486
 30
0.0
 11
473.9629890886229
 21
704.888669064748
 31
0.0
  0
LINE
  5
418
330
6F
100
AcDbEntity
  8
_0-0_計極細
  6
Continuous
 62
     2
100
AcDbLine
 10
480.8629890887452
 20
699.3886690647486
 30
0.0
 11
480.8629890887452
 21
704.888669064748
 31
0.0
  0
LINE
  5
419
330
6F
100
AcDbEntity
  8
_0-0_計極細
  6
Continuous
 62
     2
100
AcDbLine
 10
473.9629867983962
 20
652.8886690647472
 30
0.0
 11
473.962989079371
 21
658.3886690647468
 31
0.0
  0
LINE
  5
41A
330
6F
100
AcDbEntity
  8
_0-0_計極細
  6
Continuous
 62
     2
100
AcDbLine
 10
480.8629867681927
 20
652.8886690647472
 30
0.0
 11
480.8629890793711
 21
658.3886690647468
 31
0.0
  0
LINE
  5
41B
330
6F
100
AcDbEntity
  8
_0-0_計極細
  6
Continuous
 62
     2
100
AcDbLine
 10
473.9629890886229
 20
668.3886690647469
 30
0.0
 11
473.9629890886229
 21
673.8886690647468
 31
0.0
  0
LINE
  5
41C
330
6F
100
AcDbEntity
  8
_0-0_計極細
  6
Continuous
 62
     2
100
AcDbLine
 10
480.8629890887452
 20
668.3886690647469
 30
0.0
 11
480.8629890887452
 21
673.8886690647468
 31
0.0
  0
LINE
  5
41D
330
6F
100
AcDbEntity
  8
_0-0_計極細
  6
Continuous
 62
     2
100
AcDbLine
 10
473.9629890886229
 20
689.3886690647463
 30
0.0
 11
473.9629890886229
 21
683.8886690647468
 31
0.0
  0
LINE
  5
41E
330
6F
100
AcDbEntity
  8
_0-0_計極細
  6
Continuous
 62
     2
100
AcDbLine
 10
480.8629890887452
 20
689.3886690647463
 30
0.0
 11
480.8629890887452
 21
683.8886690647468
 31
0.0
  0
LINE
  5
41F
330
6F
100
AcDbEntity
  8
_0-0_計極細
  6
Continuous
 62
     2
100
AcDbLine
 10
209.9629866883961
 20
751.3886690647473
 30
0.0
 11
209.962988969371
 21
745.8886690647476
 31
0.0
  0
LINE
  5
420
330
6F
100
AcDbEntity
  8
_0-0_計極細
  6
Continuous
 62
     2
100
AcDbLine
 10
216.8629866581927
 20
751.3886690647473
 30
0.0
 11
216.8629889693711
 21
745.8886690647476
 31
0.0
  0
LINE
  5
421
330
6F
100
AcDbEntity
  8
_0-0_計極細
  6
Continuous
 62
     2
100
AcDbLine
 10
209.9629889786228
 20
735.8886690647477
 30
0.0
 11
209.9629889786228
 21
730.3886690647476
 31
0.0
  0
LINE
  5
422
330
6F
100
AcDbEntity
  8
_0-0_計極細
  6
Continuous
 62
     2
100
AcDbLine
 10
216.8629889787452
 20
735.8886690647477
 30
0.0
 11
216.8629889787452
 21
730.3886690647476
 31
0.0
  0
LINE
  5
423
330
6F
100
AcDbEntity
  8
_0-0_計極細
  6
Continuous
 62
     2
100
AcDbLine
 10
209.9629889786228
 20
714.8886690647481
 30
0.0
 11
209.9629889786228
 21
720.3886690647477
 31
0.0
  0
LINE
  5
424
330
6F
100
AcDbEntity
  8
_0-0_計極細
  6
Continuous
 62
     2
100
AcDbLine
 10
216.8629889787452
 20
714.8886690647481
 30
0.0
 11
216.8629889787452
 21
720.3886690647477
 31
0.0
  0
LINE
  5
425
330
6F
100
AcDbEntity
  8
_0-0_計極細
  6
Continuous
 62
     2
100
AcDbLine
 10
209.9629889786228
 20
699.3886690647486
 30
0.0
 11
209.9629889786228
 21
704.888669064748
 31
0.0
  0
LINE
  5
426
330
6F
100
AcDbEntity
  8
_0-0_計極細
  6
Continuous
 62
     2
100
AcDbLine
 10
216.8629889787452
 20
699.3886690647486
 30
0.0
 11
216.8629889787452
 21
704.888669064748
 31
0.0
  0
LINE
  5
427
330
6F
100
AcDbEntity
  8
_0-0_計極細
  6
Continuous
 62
     2
100
AcDbLine
 10
209.9629866883961
 20
652.8886690647472
 30
0.0
 11
209.962988969371
 21
658.3886690647468
 31
0.0
  0
LINE
  5
428
330
6F
100
AcDbEntity
  8
_0-0_計極細
  6
Continuous
 62
     2
100
AcDbLine
 10
216.8629866581927
 20
652.8886690647472
 30
0.0
 11
216.8629889693711
 21
658.3886690647468
 31
0.0
  0
LINE
  5
429
330
6F
100
AcDbEntity
  8
_0-0_計極細
  6
Continuous
 62
     2
100
AcDbLine
 10
209.9629889786228
 20
668.3886690647469
 30
0.0
 11
209.9629889786228
 21
673.8886690647468
 31
0.0
  0
LINE
  5
42A
330
6F
100
AcDbEntity
  8
_0-0_計極細
  6
Continuous
 62
     2
100
AcDbLine
 10
216.8629889787452
 20
668.3886690647469
 30
0.0
 11
216.8629889787452
 21
673.8886690647468
 31
0.0
  0
LINE
  5
42B
330
6F
100
AcDbEntity
  8
_0-0_計極細
  6
Continuous
 62
     2
100
AcDbLine
 10
209.9629889786228
 20
689.3886690647463
 30
0.0
 11
209.9629889786228
 21
683.8886690647468
 31
0.0
  0
LINE
  5
42C
330
6F
100
AcDbEntity
  8
_0-0_計極細
  6
Continuous
 62
     2
100
AcDbLine
 10
216.8629889787452
 20
689.3886690647463
 30
0.0
 11
216.8629889787452
 21
683.8886690647468
 31
0.0
  0
TEXT
  5
42D
330
6F
100
AcDbEntity
  8
_0-7_枠細線
 62
     5
100
AcDbText
 10
1267.500000000002
 20
781.6386675683085
 30
0.0
 40
15.0
  1
516
 41
0.6
100
AcDbText
  0
TEXT
  5
42E
330
6F
100
AcDbEntity
  8
_0-7_枠細線
 62
     5
100
AcDbText
 10
1267.500000000002
 20
756.6386675683087
 30
0.0
 40
15.0
  1
816
 41
0.6
100
AcDbText
  0
TEXT
  5
42F
330
6F
100
AcDbEntity
  8
_0-7_枠細線
 62
     5
100
AcDbText
 10
1260.000000000002
 20
731.6386675683085
 30
0.0
 40
15.0
  1
1116
 41
0.6
100
AcDbText
  0
TEXT
  5
430
330
6F
100
AcDbEntity
  8
_0-7_枠細線
 62
     5
100
AcDbText
 10
1260.000000000002
 20
706.6386675683087
 30
0.0
 40
15.0
  1
1716
 41
0.6
100
AcDbText
  0
TEXT
  5
431
330
6F
100
AcDbEntity
  8
_0-7_枠細線
 62
     5
100
AcDbText
 10
1260.000000000002
 20
681.6386675683087
 30
0.0
 40
15.0
  1
1916
 41
0.6
100
AcDbText
  0
TEXT
  5
432
330
6F
100
AcDbEntity
  8
_0-7_枠細線
 62
     5
100
AcDbText
 10
1322.500000000001
 20
781.6386675683085
 30
0.0
 40
15.0
  1
516
 41
0.6
100
AcDbText
  0
TEXT
  5
433
330
6F
100
AcDbEntity
  8
_0-7_枠細線
 62
     5
100
AcDbText
 10
1322.500000000001
 20
756.6386675683087
 30
0.0
 40
15.0
  1
408
 41
0.6
100
AcDbText
  0
TEXT
  5
434
330
6F
100
AcDbEntity
  8
_0-7_枠細線
 62
     5
100
AcDbText
 10
1322.500000000001
 20
731.6386675683085
 30
0.0
 40
15.0
  1
558
 41
0.6
100
AcDbText
  0
TEXT
  5
435
330
6F
100
AcDbEntity
  8
_0-7_枠細線
 62
     5
100
AcDbText
 10
1322.500000000001
 20
706.6386675683087
 30
0.0
 40
15.0
  1
429
 41
0.6
100
AcDbText
  0
TEXT
  5
436
330
6F
100
AcDbEntity
  8
_0-7_枠細線
 62
     5
100
AcDbText
 10
1322.500000000001
 20
681.6386675683087
 30
0.0
 40
15.0
  1
479
 41
0.6
100
AcDbText
  0
TEXT
  5
483
330
6F
100
AcDbEntity
  8
_0-5_寸法線
 62
     7
100
AcDbText
 10
499.5038475972073
 20
607.4883181172846
 30
0.0
 40
20.0
  1
Ａ
100
AcDbText
  0
TEXT
  5
484
330
6F
100
AcDbEntity
  8
_0-5_寸法線
 62
     7
100
AcDbText
 10
499.5038475972074
 20
786.1137355042464
 30
0.0
 40
20.0
  1
Ａ\U+2019
100
AcDbText
  0
LINE
  5
4C4
330
6F
100
AcDbEntity
  8
_0-5_寸法線
  6
Continuous
 62
     7
100
AcDbLine
 10
526.7252955316458
 20
768.2428357314138
 30
0.0
 11
526.7252955316458
 21
778.2428357314138
 31
0.0
  0
LINE
  5
4C5
330
6F
100
AcDbEntity
  8
_0-5_寸法線
  6
Continuous
 62
     7
100
AcDbLine
 10
526.7252955316458
 20
768.2428357314138
 30
0.0
 11
531.7252955316458
 21
776.9030897692582
 31
0.0
  0
LINE
  5
4C6
330
6F
100
AcDbEntity
  8
_0-5_寸法線
  6
Continuous
 62
     7
100
AcDbLine
 10
526.7252955316458
 20
768.2428357314138
 30
0.0
 11
533.396113968212
 21
793.1386690647473
 31
0.0
  0
LINE
  5
4C7
330
6F
100
AcDbEntity
  8
_0-5_寸法線
  6
Continuous
 62
     7
100
AcDbLine
 10
533.396113968212
 20
793.1386690647473
 30
0.0
 11
629.396113968212
 21
793.1386690647473
 31
0.0
  0
TEXT
  5
4C8
330
6F
100
AcDbEntity
  8
_0-5_寸法線
 62
     7
100
AcDbText
 10
533.396113968212
 20
793.1386690647473
 30
0.0
 40
15.0
  1
排水ユニット本体
 41
0.7999999999999999
100
AcDbText
  0
LINE
  5
4C9
330
6F
100
AcDbEntity
  8
_0-5_寸法線
  6
Continuous
 62
     7
100
AcDbLine
 10
265.5680048477866
 20
663.8953736918997
 30
0.0
 11
262.9798143967613
 21
654.236115429009
 31
0.0
  0
LINE
  5
4CA
330
6F
100
AcDbEntity
  8
_0-5_寸法線
  6
Continuous
 62
     7
100
AcDbLine
 10
265.5680048477866
 20
663.8953736918997
 30
0.0
 11
258.496937035921
 21
656.8243058800343
 31
0.0
  0
LINE
  5
4CB
330
6F
100
AcDbEntity
  8
_0-5_寸法線
  6
Continuous
 62
     7
100
AcDbLine
 10
265.5680048477866
 20
663.8953736918997
 30
0.0
 11
228.3796831710452
 21
599.4833110995697
 31
0.0
  0
LINE
  5
4CC
330
6F
100
AcDbEntity
  8
_0-5_寸法線
  6
Continuous
 62
     7
100
AcDbLine
 10
228.3796831710452
 20
599.4833110995697
 30
0.0
 11
192.3796831710453
 21
599.4833110995697
 31
0.0
  0
TEXT
  5
4CD
330
6F
100
AcDbEntity
  8
_0-5_寸法線
 62
     7
100
AcDbText
 10
192.3796831710453
 20
599.4833110995697
 30
0.0
 40
15.0
  1
上フタ
 41
0.8
100
AcDbText
  0
ENDSEC
  0
SECTION
  2
OBJECTS
  0
DICTIONARY
  5
C
330
0
100
AcDbDictionary
281
     1
  3
ACAD_CIP_PREVIOUS_PRODUCT_INFO
350
438
  3
ACAD_COLOR
350
62
  3
ACAD_DETAILVIEWSTYLE
350
69
  3
ACAD_GROUP
350
D
  3
ACAD_LAYOUT
350
61
  3
ACAD_MATERIAL
350
10
  3
ACAD_MLEADERSTYLE
350
65
  3
ACAD_MLINESTYLE
350
5E
  3
ACAD_PLOTSETTINGS
350
60
  3
ACAD_PLOTSTYLENAME
350
E
  3
ACAD_SCALELIST
350
42
  3
ACAD_SECTIONVIEWSTYLE
350
67
  3
ACAD_TABLESTYLE
350
63
  3
ACAD_VISUALSTYLE
350
29
  3
ACDB_RECOMPOSE_DATA
350
4E3
  3
AcDbVariableDictionary
350
43F
  3
AcDsDecomposeData
350
4EA
  3
DWGPROPS
350
4E4
  0
DICTIONARY
  5
465
330
2
100
AcDbDictionary
280
     1
281
     1
  3
ACAD_LAYERSTATES
360
466
  0
DICTIONARY
  5
44E
330
54
100
AcDbDictionary
280
     1
281
     1
  3
ADSK_XREC_LAYER_RECONCILED
360
44F
  0
DICTIONARY
  5
450
330
96
100
AcDbDictionary
280
     1
281
     1
  3
ADSK_XREC_LAYER_RECONCILED
360
451
  0
DICTIONARY
  5
452
330
97
100
AcDbDictionary
280
     1
281
     1
  3
ADSK_XREC_LAYER_RECONCILED
360
453
  0
DICTIONARY
  5
454
330
98
100
AcDbDictionary
280
     1
281
     1
  3
ADSK_XREC_LAYER_RECONCILED
360
455
  0
DICTIONARY
  5
456
330
99
100
AcDbDictionary
280
     1
281
     1
  3
ADSK_XREC_LAYER_RECONCILED
360
457
  0
DICTIONARY
  5
458
330
9A
100
AcDbDictionary
280
     1
281
     1
  3
ADSK_XREC_LAYER_RECONCILED
360
459
  0
DICTIONARY
  5
45A
330
9B
100
AcDbDictionary
280
     1
281
     1
  3
ADSK_XREC_LAYER_RECONCILED
360
45B
  0
DICTIONARY
  5
45C
330
9C
100
AcDbDictionary
280
     1
281
     1
  3
ADSK_XREC_LAYER_RECONCILED
360
45D
  0
DICTIONARY
  5
45E
330
9D
100
AcDbDictionary
280
     1
281
     1
  3
ADSK_XREC_LAYER_RECONCILED
360
45F
  0
DICTIONARY
  5
460
330
9E
100
AcDbDictionary
280
     1
281
     1
  3
ADSK_XREC_LAYER_RECONCILED
360
461
  0
XRECORD
  5
438
102
{ACAD_REACTORS
330
C
102
}
330
C
100
AcDbXrecord
280
     1
300
ACDLT
300
2014
300
ACDLT_F_S
  0
DICTIONARY
  5
62
102
{ACAD_REACTORS
330
C
102
}
330
C
100
AcDbDictionary
281
     1
  0
DICTIONARY
  5
69
102
{ACAD_REACTORS
330
C
102
}
330
C
100
AcDbDictionary
281
     1
  3
Imperial24
350
6A
  0
DICTIONARY
  5
D
102
{ACAD_REACTORS
330
C
102
}
330
C
100
AcDbDictionary
281
     1
  0
DICTIONARY
  5
61
102
{ACAD_REACTORS
330
C
102
}
330
C
100
AcDbDictionary
281
     1
  3
Model
350
72
  3
レイアウト1
350
6E
  0
DICTIONARY
  5
10
102
{ACAD_REACTORS
330
C
102
}
330
C
100
AcDbDictionary
281
     1
  3
ByBlock
350
19
  3
ByLayer
350
11
  3
Global
350
21
  0
DICTIONARY
  5
65
102
{ACAD_REACTORS
330
C
102
}
330
C
100
AcDbDictionary
281
     1
  3
Standard
350
66
  0
DICTIONARY
  5
5E
102
{ACAD_REACTORS
330
C
102
}
330
C
100
AcDbDictionary
281
     1
  3
Standard
350
5F
  0
DICTIONARY
  5
60
102
{ACAD_REACTORS
330
C
102
}
330
C
100
AcDbDictionary
281
     1
  0
ACDBDICTIONARYWDFLT
  5
E
102
{ACAD_REACTORS
330
C
102
}
330
C
100
AcDbDictionary
281
     1
  3
Normal
350
F
100
AcDbDictionaryWithDefault
340
F
  0
DICTIONARY
  5
42
102
{ACAD_REACTORS
330
C
102
}
330
C
100
AcDbDictionary
281
     1
  3
A0
350
43
  3
A1
350
44
  3
A2
350
45
  3
A3
350
46
  3
A4
350
47
  3
A5
350
48
  3
A6
350
49
  3
A7
350
4A
  3
A8
350
4B
  3
A9
350
4C
  3
B0
350
4D
  3
B1
350
4E
  3
B2
350
4F
  3
B3
350
50
  3
B4
350
51
  3
B5
350
52
  3
B6
350
53
  0
DICTIONARY
  5
67
102
{ACAD_REACTORS
330
C
102
}
330
C
100
AcDbDictionary
281
     1
  3
Imperial24
350
68
  0
DICTIONARY
  5
63
102
{ACAD_REACTORS
330
C
102
}
330
C
100
AcDbDictionary
281
     1
  3
Standard
350
64
  0
DICTIONARY
  5
29
102
{ACAD_REACTORS
330
C
102
}
330
C
100
AcDbDictionary
281
     1
  3
2dWireframe
350
2F
  3
Basic
350
2E
  3
Brighten
350
35
  3
ColorChange
350
39
  3
Conceptual
350
32
  3
Dim
350
34
  3
EdgeColorOff
350
41
  3
Facepattern
350
38
  3
Flat
350
2A
  3
FlatWithEdges
350
2B
  3
Gouraud
350
2C
  3
GouraudWithEdges
350
2D
  3
Hidden
350
31
  3
JitterOff
350
3F
  3
Linepattern
350
37
  3
OverhangOff
350
40
  3
Realistic
350
33
  3
Shaded
350
3E
  3
Shaded with edges
350
3D
  3
Shades of Gray
350
3A
  3
Sketchy
350
3B
  3
Thicken
350
36
  3
Wireframe
350
30
  3
X-Ray
350
3C
  0
XRECORD
  5
4E3
102
{ACAD_REACTORS
330
C
102
}
330
C
100
AcDbXrecord
280
     1
 90
        1
330
64
  0
DICTIONARY
  5
43F
102
{ACAD_REACTORS
330
C
102
}
330
C
100
AcDbDictionary
281
     1
  3
CANNOSCALE
350
445
  3
CMLEADERSTYLE
350
441
  3
CTABLESTYLE
350
440
  3
CVIEWDETAILSTYLE
350
442
  3
CVIEWSECTIONSTYLE
350
443
  3
DIMASSOC
350
4DF
  3
INDEXCTL
350
4DE
  3
LAYEREVAL
350
447
  3
LAYERNOTIFY
350
448
  3
LIGHTINGUNITS
350
446
  3
MSLTSCALE
350
444
  3
SORTENTS
350
4DD
  3
XCLIPFRAME
350
4E0
  0
DICTIONARY
  5
4EA
102
{ACAD_REACTORS
330
C
102
}
330
C
100
AcDbDictionary
281
     1
  3
AcDsRecords
350
4EC
  3
AcDsSchemas
350
4EB
1001
ACAD
1070
     2
  0
XRECORD
  5
4E4
102
{ACAD_REACTORS
330
C
102
}
330
C
100
AcDbXrecord
280
     1
  1
DWGPROPS COOKIE
  2

  3

  4

  6

  7

  8
shima022
  9

300
=
301
=
302
=
303
=
304
=
305
=
306
=
307
=
308
=
309
=
 40
0.0018039583333333
 41
2457205.617290092
 42
2457499.590627546
  1

 90
        0
  0
DICTIONARY
  5
466
102
{ACAD_REACTORS
330
465
102
}
330
465
100
AcDbDictionary
281
     1
  0
XRECORD
  5
44F
102
{ACAD_REACTORS
330
44E
102
}
330
44E
100
AcDbXrecord
280
     1
290
     1
  0
XRECORD
  5
451
102
{ACAD_REACTORS
330
450
102
}
330
450
100
AcDbXrecord
280
     1
290
     1
  0
XRECORD
  5
453
102
{ACAD_REACTORS
330
452
102
}
330
452
100
AcDbXrecord
280
     1
290
     1
  0
XRECORD
  5
455
102
{ACAD_REACTORS
330
454
102
}
330
454
100
AcDbXrecord
280
     1
290
     1
  0
XRECORD
  5
457
102
{ACAD_REACTORS
330
456
102
}
330
456
100
AcDbXrecord
280
     1
290
     1
  0
XRECORD
  5
459
102
{ACAD_REACTORS
330
458
102
}
330
458
100
AcDbXrecord
280
     1
290
     1
  0
XRECORD
  5
45B
102
{ACAD_REACTORS
330
45A
102
}
330
45A
100
AcDbXrecord
280
     1
290
     1
  0
XRECORD
  5
45D
102
{ACAD_REACTORS
330
45C
102
}
330
45C
100
AcDbXrecord
280
     1
290
     1
  0
XRECORD
  5
45F
102
{ACAD_REACTORS
330
45E
102
}
330
45E
100
AcDbXrecord
280
     1
290
     1
  0
XRECORD
  5
461
102
{ACAD_REACTORS
330
460
102
}
330
460
100
AcDbXrecord
280
     1
290
     1
  0
ACDBDETAILVIEWSTYLE
  5
6A
102
{ACAD_XDICTIONARY
360
43C
102
}
102
{ACAD_REACTORS
330
69
102
}
330
69
100
AcDbModelDocViewStyle
 70
     0
  3
Imperial24
290
     0
100
AcDbDetailViewStyle
 70
     0
 71
     0
 90
        3
 71
     1
340
55
 40
0.24
340
0
 40
0.24
300

 40
0.36
280
     3
 71
     2
340
5C
 90
       25
 71
     3
340
55
 40
0.24
 90
        1
 40
0.75
 90
        1
300
%<\AcVar ViewType \f "%tc1">% %<\AcVar ViewDetailId>%\PSCALE %<\AcVar ViewScale \f "%sn">%
 71
     4
340
5C
 90
       25
340
5C
 90
       25
280
     0
  0
LAYOUT
  5
72
102
{ACAD_XDICTIONARY
360
526
102
}
102
{ACAD_REACTORS
330
61
102
}
330
61
100
AcDbPlotSettings
  1

  2
RICOH MP C3503 JPN RPCS
  4

  6

 40
0.0
 41
0.0
 42
0.0
 43
0.0
 44
0.0
 45
0.0
 46
0.0
 47
0.0
 48
0.0
 49
0.0
140
0.0
141
0.0
142
1.0
143
1.0
 70
  1712
 72
     0
 73
     0
 74
     0
  7

 75
     0
147
1.0
148
0.0
149
0.0
100
AcDbLayout
  1
Model
 70
     1
 71
     0
 10
0.0
 20
0.0
 11
12.0
 21
9.0
 12
0.0
 22
0.0
 32
0.0
 14
0.0
 24
0.0
 34
0.0
 15
0.0
 25
0.0
 35
0.0
146
0.0
 13
0.0
 23
0.0
 33
0.0
 16
1.0
 26
0.0
 36
0.0
 17
0.0
 27
1.0
 37
0.0
 76
     0
330
6F
331
A1
  0
LAYOUT
  5
6E
102
{ACAD_XDICTIONARY
360
524
102
}
102
{ACAD_REACTORS
330
61
102
}
330
61
100
AcDbPlotSettings
  1

  2
RICOH MP C3503 JPN RPCS
  4

  6

 40
0.0
 41
0.0
 42
0.0
 43
0.0
 44
0.0
 45
0.0
 46
0.0
 47
0.0
 48
0.0
 49
0.0
140
0.0
141
0.0
142
1.0
143
1.0
 70
   688
 72
     0
 73
     0
 74
     5
  7

 75
    16
147
1.0
148
0.0
149
0.0
100
AcDbLayout
  1
レイアウト1
 70
     1
 71
     1
 10
0.0
 20
0.0
 11
12.0
 21
9.0
 12
0.0
 22
0.0
 32
0.0
 14
1.000000000000000E+20
 24
1.000000000000000E+20
 34
1.000000000000000E+20
 15
-1.000000000000000E+20
 25
-1.000000000000000E+20
 35
-1.000000000000000E+20
146
0.0
 13
0.0
 23
0.0
 33
0.0
 16
1.0
 26
0.0
 36
0.0
 17
0.0
 27
1.0
 37
0.0
 76
     0
330
6B
  0
MATERIAL
  5
19
102
{ACAD_XDICTIONARY
360
1A
102
}
102
{ACAD_REACTORS
330
10
102
}
330
10
100
AcDbMaterial
  1
ByBlock
 72
     0
 43
0.0208333333333333
 43
0.0
 43
0.0
 43
0.0
 43
0.0
 43
0.0208333333333333
 43
0.0
 43
0.0
 43
0.0
 43
0.0
 43
1.0
 43
0.0
 43
0.0
 43
0.0
 43
0.0
 43
1.0
 77
     0
 47
0.0208333333333333
 47
0.0
 47
0.0
 47
0.0
 47
0.0
 47
0.0208333333333333
 47
0.0
 47
0.0
 47
0.0
 47
0.0
 47
1.0
 47
0.0
 47
0.0
 47
0.0
 47
0.0
 47
1.0
171
     0
 49
0.0208333333333333
 49
0.0
 49
0.0
 49
0.0
 49
0.0
 49
0.0208333333333333
 49
0.0
 49
0.0
 49
0.0
 49
0.0
 49
1.0
 49
0.0
 49
0.0
 49
0.0
 49
0.0
 49
1.0
175
     0
142
0.0208333333333333
142
0.0
142
0.0
142
0.0
142
0.0
142
0.0208333333333333
142
0.0
142
0.0
142
0.0
142
0.0
142
1.0
142
0.0
142
0.0
142
0.0
142
0.0
142
1.0
179
     0
144
0.0208333333333333
144
0.0
144
0.0
144
0.0
144
0.0
144
0.0208333333333333
144
0.0
144
0.0
144
0.0
144
0.0
144
1.0
144
0.0
144
0.0
144
0.0
144
0.0
144
1.0
147
0.0208333333333333
147
0.0
147
0.0
147
0.0
147
0.0
147
0.0208333333333333
147
0.0
147
0.0
147
0.0
147
0.0
147
1.0
147
0.0
147
0.0
147
0.0
147
0.0
147
1.0
  0
MATERIAL
  5
11
102
{ACAD_XDICTIONARY
360
12
102
}
102
{ACAD_REACTORS
330
10
102
}
330
10
100
AcDbMaterial
  1
ByLayer
 72
     0
 43
0.0208333333333333
 43
0.0
 43
0.0
 43
0.0
 43
0.0
 43
0.0208333333333333
 43
0.0
 43
0.0
 43
0.0
 43
0.0
 43
1.0
 43
0.0
 43
0.0
 43
0.0
 43
0.0
 43
1.0
 77
     0
 47
0.0208333333333333
 47
0.0
 47
0.0
 47
0.0
 47
0.0
 47
0.0208333333333333
 47
0.0
 47
0.0
 47
0.0
 47
0.0
 47
1.0
 47
0.0
 47
0.0
 47
0.0
 47
0.0
 47
1.0
171
     0
 49
0.0208333333333333
 49
0.0
 49
0.0
 49
0.0
 49
0.0
 49
0.0208333333333333
 49
0.0
 49
0.0
 49
0.0
 49
0.0
 49
1.0
 49
0.0
 49
0.0
 49
0.0
 49
0.0
 49
1.0
175
     0
142
0.0208333333333333
142
0.0
142
0.0
142
0.0
142
0.0
142
0.0208333333333333
142
0.0
142
0.0
142
0.0
142
0.0
142
1.0
142
0.0
142
0.0
142
0.0
142
0.0
142
1.0
179
     0
144
0.0208333333333333
144
0.0
144
0.0
144
0.0
144
0.0
144
0.0208333333333333
144
0.0
144
0.0
144
0.0
144
0.0
144
1.0
144
0.0
144
0.0
144
0.0
144
0.0
144
1.0
147
0.0208333333333333
147
0.0
147
0.0
147
0.0
147
0.0
147
0.0208333333333333
147
0.0
147
0.0
147
0.0
147
0.0
147
1.0
147
0.0
147
0.0
147
0.0
147
0.0
147
1.0
  0
MATERIAL
  5
21
102
{ACAD_XDICTIONARY
360
22
102
}
102
{ACAD_REACTORS
330
10
102
}
330
10
100
AcDbMaterial
  1
Global
 72
     0
 43
0.0208333333333333
 43
0.0
 43
0.0
 43
0.0
 43
0.0
 43
0.0208333333333333
 43
0.0
 43
0.0
 43
0.0
 43
0.0
 43
1.0
 43
0.0
 43
0.0
 43
0.0
 43
0.0
 43
1.0
 77
     0
 47
0.0208333333333333
 47
0.0
 47
0.0
 47
0.0
 47
0.0
 47
0.0208333333333333
 47
0.0
 47
0.0
 47
0.0
 47
0.0
 47
1.0
 47
0.0
 47
0.0
 47
0.0
 47
0.0
 47
1.0
171
     0
 49
0.0208333333333333
 49
0.0
 49
0.0
 49
0.0
 49
0.0
 49
0.0208333333333333
 49
0.0
 49
0.0
 49
0.0
 49
0.0
 49
1.0
 49
0.0
 49
0.0
 49
0.0
 49
0.0
 49
1.0
175
     0
142
0.0208333333333333
142
0.0
142
0.0
142
0.0
142
0.0
142
0.0208333333333333
142
0.0
142
0.0
142
0.0
142
0.0
142
1.0
142
0.0
142
0.0
142
0.0
142
0.0
142
1.0
179
     0
144
0.0208333333333333
144
0.0
144
0.0
144
0.0
144
0.0
144
0.0208333333333333
144
0.0
144
0.0
144
0.0
144
0.0
144
1.0
144
0.0
144
0.0
144
0.0
144
0.0
144
1.0
147
0.0208333333333333
147
0.0
147
0.0
147
0.0
147
0.0
147
0.0208333333333333
147
0.0
147
0.0
147
0.0
147
0.0
147
1.0
147
0.0
147
0.0
147
0.0
147
0.0
147
1.0
  0
MLEADERSTYLE
  5
66
102
{ACAD_REACTORS
330
65
102
}
330
65
100
AcDbMLeaderStyle
170
     2
171
     1
172
     0
 90
        2
 40
0.0
 41
0.0
173
     1
 91
-1056964608
340
5A
 92
       -2
290
     1
 42
0.09
291
     1
 43
0.36
  3
Standard
 44
0.18
300

342
55
174
     1
178
     6
175
     1
176
     0
 93
-1056964608
 45
0.18
292
     0
297
     0
 46
0.18
 94
-1056964608
 47
1.0
 49
1.0
140
1.0
293
     1
141
0.0
294
     1
177
     0
142
1.0
295
     0
296
     0
143
0.125
1001
ACAD_MLEADERVER
1070
     2
  0
MLINESTYLE
  5
5F
102
{ACAD_REACTORS
330
5E
102
}
330
5E
100
AcDbMlineStyle
  2
STANDARD
 70
     0
  3

 62
   256
 51
90.0
 52
90.0
 71
     2
 49
0.5
 62
   256
  6
BYLAYER
 49
-0.5
 62
   256
  6
BYLAYER
  0
ACDBPLACEHOLDER
  5
F
102
{ACAD_REACTORS
330
E
102
}
330
E
  0
SCALE
  5
43
102
{ACAD_REACTORS
330
42
102
}
330
42
100
AcDbScale
 70
     0
300
1:1
140
1.0
141
1.0
290
     1
  0
SCALE
  5
44
102
{ACAD_REACTORS
330
42
102
}
330
42
100
AcDbScale
 70
     0
300
1/128" = 1'-0"
140
0.0078125
141
12.0
290
     0
  0
SCALE
  5
45
102
{ACAD_REACTORS
330
42
102
}
330
42
100
AcDbScale
 70
     0
300
1/64" = 1'-0"
140
0.015625
141
12.0
290
     0
  0
SCALE
  5
46
102
{ACAD_REACTORS
330
42
102
}
330
42
100
AcDbScale
 70
     0
300
1/32" = 1'-0"
140
0.03125
141
12.0
290
     0
  0
SCALE
  5
47
102
{ACAD_REACTORS
330
42
102
}
330
42
100
AcDbScale
 70
     0
300
1/16" = 1'-0"
140
0.0625
141
12.0
290
     0
  0
SCALE
  5
48
102
{ACAD_REACTORS
330
42
102
}
330
42
100
AcDbScale
 70
     0
300
3/32" = 1'-0"
140
0.09375
141
12.0
290
     0
  0
SCALE
  5
49
102
{ACAD_REACTORS
330
42
102
}
330
42
100
AcDbScale
 70
     0
300
1/8" = 1'-0"
140
0.125
141
12.0
290
     0
  0
SCALE
  5
4A
102
{ACAD_REACTORS
330
42
102
}
330
42
100
AcDbScale
 70
     0
300
3/16" = 1'-0"
140
0.1875
141
12.0
290
     0
  0
SCALE
  5
4B
102
{ACAD_REACTORS
330
42
102
}
330
42
100
AcDbScale
 70
     0
300
1/4" = 1'-0"
140
0.25
141
12.0
290
     0
  0
SCALE
  5
4C
102
{ACAD_REACTORS
330
42
102
}
330
42
100
AcDbScale
 70
     0
300
3/8" = 1'-0"
140
0.375
141
12.0
290
     0
  0
SCALE
  5
4D
102
{ACAD_REACTORS
330
42
102
}
330
42
100
AcDbScale
 70
     0
300
1/2" = 1'-0"
140
0.5
141
12.0
290
     0
  0
SCALE
  5
4E
102
{ACAD_REACTORS
330
42
102
}
330
42
100
AcDbScale
 70
     0
300
3/4" = 1'-0"
140
0.75
141
12.0
290
     0
  0
SCALE
  5
4F
102
{ACAD_REACTORS
330
42
102
}
330
42
100
AcDbScale
 70
     0
300
1" = 1'-0"
140
1.0
141
12.0
290
     0
  0
SCALE
  5
50
102
{ACAD_REACTORS
330
42
102
}
330
42
100
AcDbScale
 70
     0
300
1-1/2" = 1'-0"
140
1.5
141
12.0
290
     0
  0
SCALE
  5
51
102
{ACAD_REACTORS
330
42
102
}
330
42
100
AcDbScale
 70
     0
300
3" = 1'-0"
140
3.0
141
12.0
290
     0
  0
SCALE
  5
52
102
{ACAD_REACTORS
330
42
102
}
330
42
100
AcDbScale
 70
     0
300
6" = 1'-0"
140
6.0
141
12.0
290
     0
  0
SCALE
  5
53
102
{ACAD_REACTORS
330
42
102
}
330
42
100
AcDbScale
 70
     0
300
1'-0" = 1'-0"
140
12.0
141
12.0
290
     0
  0
ACDBSECTIONVIEWSTYLE
  5
68
102
{ACAD_XDICTIONARY
360
43A
102
}
102
{ACAD_REACTORS
330
67
102
}
330
67
100
AcDbModelDocViewStyle
 70
     0
  3
Imperial24
290
     0
100
AcDbSectionViewStyle
 70
     0
 71
     0
 90
       78
 71
     1
340
55
 40
0.24
340
0
340
0
 40
0.24
300
I, O, Q, S, X, Z
 40
0.48
 90
        3
 40
0.18
 90
        1
 71
     2
340
5C
 90
       25
340
5C
 90
       50
 40
0.24
 40
0.0
 40
0.24
 71
     3
340
55
 40
0.24
 90
        1
 40
0.75
 90
        1
300
%<\AcVar ViewType \f "%tc1">% %<\AcVar ViewSectionStartId>%-%<\AcVar ViewSectionEndId>%\PSCALE %<\AcVar ViewScale \f "%sn">%
 71
     4
300
ANSI31
 40
1.0
 90
        0
290
     0
290
     0
 90
        6
 40
0.0
 40
1.570796326794896
 40
0.2617993877991494
 40
1.308996938995747
 40
-0.2617993877991494
 40
1.832595714594046
  0
TABLESTYLE
  5
64
102
{ACAD_XDICTIONARY
360
4E1
102
}
102
{ACAD_REACTORS
330
63
102
}
330
63
100
AcDbTableStyle
  3
Standard
 70
     0
 71
     0
 40
0.06
 41
0.06
280
     0
281
     0
  7
STANDARD
140
0.18
170
     2
 62
     0
 63
     7
283
     0
274
    -2
284
     1
 64
     0
275
    -2
285
     1
 65
     0
276
    -2
286
     1
 66
     0
277
    -2
287
     1
 67
     0
278
    -2
288
     1
 68
     0
279
    -2
289
     1
 69
     0
  7
STANDARD
140
0.25
170
     5
 62
     0
 63
     7
283
     0
274
    -2
284
     1
 64
     0
275
    -2
285
     1
 65
     0
276
    -2
286
     1
 66
     0
277
    -2
287
     1
 67
     0
278
    -2
288
     1
 68
     0
279
    -2
289
     1
 69
     0
  7
STANDARD
140
0.18
170
     5
 62
     0
 63
     7
283
     0
274
    -2
284
     1
 64
     0
275
    -2
285
     1
 65
     0
276
    -2
286
     1
 66
     0
277
    -2
287
     1
 67
     0
278
    -2
288
     1
 68
     0
279
    -2
289
     1
 69
     0
  0
VISUALSTYLE
  5
2F
102
{ACAD_XDICTIONARY
360
4FA
102
}
102
{ACAD_REACTORS
330
29
102
}
330
29
100
AcDbVisualStyle
  2
2dWireframe
 70
     4
 71
     0
 72
     2
 73
     0
 90
        0
 40
-0.6
 41
-30.0
 62
     5
 63
     7
 74
     1
 91
        4
 64
     7
 65
   257
 75
     1
175
     1
 42
1.0
 92
        0
 66
   257
 43
1.0
 76
     1
 77
     6
 78
     2
 67
     7
 79
     5
170
     0
171
     0
290
     0
174
     0
 93
        1
 44
0.0
173
     0
291
     0
 45
0.0
1001
ACAD
1000
AcDbSavedByObjectVersion
1070
     0
  0
VISUALSTYLE
  5
2E
102
{ACAD_XDICTIONARY
360
4F8
102
}
102
{ACAD_REACTORS
330
29
102
}
330
29
100
AcDbVisualStyle
  2
Basic
 70
     7
 71
     1
 72
     0
 73
     1
 90
        0
 40
-0.6
 41
-30.0
 62
     5
 63
     7
 74
     0
 91
        4
 64
     7
 65
   257
 75
     1
175
     1
 42
1.0
 92
        8
 66
     7
 43
1.0
 76
     1
 77
     6
 78
     2
 67
     7
 79
     5
170
     0
171
     0
290
     0
174
     0
 93
        1
 44
0.0
173
     0
291
     1
 45
0.0
1001
ACAD
1000
AcDbSavedByObjectVersion
1070
     0
  0
VISUALSTYLE
  5
35
102
{ACAD_XDICTIONARY
360
506
102
}
102
{ACAD_REACTORS
330
29
102
}
330
29
100
AcDbVisualStyle
  2
Brighten
 70
    12
 71
     2
 72
     2
 73
     0
 90
        0
 40
-0.6
 41
-30.0
 62
     5
 63
     7
 74
     1
 91
        4
 64
     7
 65
   257
 75
     1
175
     1
 42
1.0
 92
        8
 66
     7
 43
1.0
 76
     1
 77
     6
 78
     2
 67
     7
 79
     5
170
     0
171
     0
290
     0
174
     0
 93
        1
 44
50.0
173
     0
291
     1
 45
0.0
1001
ACAD
1000
AcDbSavedByObjectVersion
1070
     0
  0
VISUALSTYLE
  5
39
102
{ACAD_XDICTIONARY
360
50E
102
}
102
{ACAD_REACTORS
330
29
102
}
330
29
100
AcDbVisualStyle
  2
ColorChange
 70
    16
 71
     2
 72
     2
 73
     3
 90
        0
 40
-0.6
 41
-30.0
 62
     5
 63
     8
 74
     1
 91
        4
 64
     7
 65
   257
 75
     1
175
     1
 42
1.0
 92
        8
 66
     8
 43
1.0
 76
     1
 77
     6
 78
     2
 67
     7
 79
     5
170
     0
171
     0
290
     0
174
     0
 93
        1
 44
0.0
173
     0
291
     1
 45
0.0
1001
ACAD
1000
AcDbSavedByObjectVersion
1070
     0
  0
VISUALSTYLE
  5
32
102
{ACAD_XDICTIONARY
360
500
102
}
102
{ACAD_REACTORS
330
29
102
}
330
29
100
AcDbVisualStyle
  2
Conceptual
 70
     9
 71
     3
 72
     2
 73
     0
 90
        0
 40
-0.6
 41
-30.0
 62
     5
 63
     7
 74
     2
 91
        2
 64
     7
 65
   257
 75
     1
175
     1
 42
179.0
 92
        8
 66
     7
 43
1.0
 76
     1
 77
     6
 78
     2
 67
     7
 79
     3
170
     0
171
     0
290
     0
174
     0
 93
        1
 44
0.0
173
     0
291
     0
 45
0.0
1001
ACAD
1000
AcDbSavedByObjectVersion
1070
     0
  0
VISUALSTYLE
  5
34
102
{ACAD_XDICTIONARY
360
504
102
}
102
{ACAD_REACTORS
330
29
102
}
330
29
100
AcDbVisualStyle
  2
Dim
 70
    11
 71
     2
 72
     2
 73
     0
 90
        0
 40
-0.6
 41
-30.0
 62
     5
 63
     7
 74
     1
 91
        4
 64
     7
 65
   257
 75
     1
175
     1
 42
1.0
 92
        8
 66
     7
 43
1.0
 76
     1
 77
     6
 78
     2
 67
     7
 79
     5
170
     0
171
     0
290
     0
174
     0
 93
        1
 44
-50.0
173
     0
291
     1
 45
0.0
1001
ACAD
1000
AcDbSavedByObjectVersion
1070
     0
  0
VISUALSTYLE
  5
41
102
{ACAD_XDICTIONARY
360
51E
102
}
102
{ACAD_REACTORS
330
29
102
}
330
29
100
AcDbVisualStyle
  2
EdgeColorOff
 70
    22
 71
     2
 72
     2
 73
     0
 90
        0
 40
-0.6
 41
-30.0
 62
     5
 63
     7
 74
     1
 91
        4
 64
     7
 65
   257
 75
     1
175
     1
 42
1.0
 92
        8
 66
     7
 43
1.0
 76
     1
 77
     6
 78
     2
 67
     7
 79
     5
170
     0
171
     0
290
     0
174
     0
 93
        1
 44
0.0
173
     0
291
     1
 45
0.0
1001
ACAD
1000
AcDbSavedByObjectVersion
1070
     0
  0
VISUALSTYLE
  5
38
102
{ACAD_XDICTIONARY
360
50C
102
}
102
{ACAD_REACTORS
330
29
102
}
330
29
100
AcDbVisualStyle
  2
Facepattern
 70
    15
 71
     2
 72
     2
 73
     0
 90
        0
 40
-0.6
 41
-30.0
 62
     5
 63
     7
 74
     1
 91
        4
 64
     7
 65
   257
 75
     1
175
     1
 42
1.0
 92
        8
 66
     7
 43
1.0
 76
     1
 77
     6
 78
     2
 67
     7
 79
     5
170
     0
171
     0
290
     0
174
     0
 93
        1
 44
0.0
173
     0
291
     1
 45
0.0
1001
ACAD
1000
AcDbSavedByObjectVersion
1070
     0
  0
VISUALSTYLE
  5
2A
102
{ACAD_XDICTIONARY
360
4F0
102
}
102
{ACAD_REACTORS
330
29
102
}
330
29
100
AcDbVisualStyle
  2
Flat
 70
     0
 71
     2
 72
     1
 73
     1
 90
        2
 40
-0.6
 41
30.0
 62
     5
 63
     7
 74
     0
 91
        0
 64
     7
 65
   257
 75
     1
175
     1
 42
1.0
 92
        8
 66
     7
 43
1.0
 76
     1
 77
     6
 78
     2
 67
     7
 79
     5
170
     0
171
     0
290
     0
174
     0
 93
       13
 44
0.0
173
     0
291
     1
 45
0.0
1001
ACAD
1000
AcDbSavedByObjectVersion
1070
     0
  0
VISUALSTYLE
  5
2B
102
{ACAD_XDICTIONARY
360
4F2
102
}
102
{ACAD_REACTORS
330
29
102
}
330
29
100
AcDbVisualStyle
  2
FlatWithEdges
 70
     1
 71
     2
 72
     1
 73
     1
 90
        2
 40
-0.6
 41
30.0
 62
     5
 63
     7
 74
     1
 91
        0
 64
     7
 65
   257
 75
     1
175
     1
 42
1.0
 92
        0
 66
   257
 43
1.0
 76
     1
 77
     6
 78
     2
 67
     7
 79
     5
170
     0
171
     0
290
     0
174
     0
 93
       13
 44
0.0
173
     0
291
     1
 45
0.0
1001
ACAD
1000
AcDbSavedByObjectVersion
1070
     0
  0
VISUALSTYLE
  5
2C
102
{ACAD_XDICTIONARY
360
4F4
102
}
102
{ACAD_REACTORS
330
29
102
}
330
29
100
AcDbVisualStyle
  2
Gouraud
 70
     2
 71
     2
 72
     2
 73
     1
 90
        2
 40
-0.6
 41
30.0
 62
     5
 63
     7
 74
     0
 91
        0
 64
     7
 65
   257
 75
     1
175
     1
 42
1.0
 92
        0
 66
     7
 43
1.0
 76
     1
 77
     6
 78
     2
 67
     7
 79
     5
170
     0
171
     0
290
     0
174
     0
 93
       13
 44
0.0
173
     0
291
     1
 45
0.0
1001
ACAD
1000
AcDbSavedByObjectVersion
1070
     0
  0
VISUALSTYLE
  5
2D
102
{ACAD_XDICTIONARY
360
4F6
102
}
102
{ACAD_REACTORS
330
29
102
}
330
29
100
AcDbVisualStyle
  2
GouraudWithEdges
 70
     3
 71
     2
 72
     2
 73
     1
 90
        2
 40
-0.6
 41
30.0
 62
     5
 63
     7
 74
     1
 91
        0
 64
     7
 65
   257
 75
     1
175
     1
 42
1.0
 92
        0
 66
   257
 43
1.0
 76
     1
 77
     6
 78
     2
 67
     7
 79
     5
170
     0
171
     0
290
     0
174
     0
 93
       13
 44
0.0
173
     0
291
     1
 45
0.0
1001
ACAD
1000
AcDbSavedByObjectVersion
1070
     0
  0
VISUALSTYLE
  5
31
102
{ACAD_XDICTIONARY
360
4FE
102
}
102
{ACAD_REACTORS
330
29
102
}
330
29
100
AcDbVisualStyle
  2
Hidden
 70
     6
 71
     1
 72
     2
 73
     2
 90
        0
 40
-0.6
 41
-30.0
 62
     5
 63
     7
 74
     2
 91
        2
 64
     7
 65
   257
 75
     2
175
     1
 42
40.0
 92
        0
 66
   257
 43
1.0
 76
     1
 77
     6
 78
     2
 67
     7
 79
     3
170
     0
171
     0
290
     0
174
     0
 93
        1
 44
0.0
173
     0
291
     0
 45
0.0
1001
ACAD
1000
AcDbSavedByObjectVersion
1070
     0
  0
VISUALSTYLE
  5
3F
102
{ACAD_XDICTIONARY
360
51A
102
}
102
{ACAD_REACTORS
330
29
102
}
330
29
100
AcDbVisualStyle
  2
JitterOff
 70
    20
 71
     2
 72
     2
 73
     0
 90
        0
 40
-0.6
 41
-30.0
 62
     5
 63
     7
 74
     1
 91
        4
 64
     7
 65
   257
 75
     1
175
     1
 42
1.0
 92
       10
 66
     7
 43
1.0
 76
     1
 77
     6
 78
     2
 67
     7
 79
     5
170
     0
171
     0
290
     0
174
     0
 93
        1
 44
0.0
173
     0
291
     1
 45
0.0
1001
ACAD
1000
AcDbSavedByObjectVersion
1070
     0
  0
VISUALSTYLE
  5
37
102
{ACAD_XDICTIONARY
360
50A
102
}
102
{ACAD_REACTORS
330
29
102
}
330
29
100
AcDbVisualStyle
  2
Linepattern
 70
    14
 71
     2
 72
     2
 73
     0
 90
        0
 40
-0.6
 41
-30.0
 62
     5
 63
     7
 74
     1
 91
        4
 64
     7
 65
   257
 75
     7
175
     7
 42
1.0
 92
        8
 66
     7
 43
1.0
 76
     1
 77
     6
 78
     2
 67
     7
 79
     5
170
     0
171
     0
290
     0
174
     0
 93
        1
 44
0.0
173
     0
291
     1
 45
0.0
1001
ACAD
1000
AcDbSavedByObjectVersion
1070
     0
  0
VISUALSTYLE
  5
40
102
{ACAD_XDICTIONARY
360
51C
102
}
102
{ACAD_REACTORS
330
29
102
}
330
29
100
AcDbVisualStyle
  2
OverhangOff
 70
    21
 71
     2
 72
     2
 73
     0
 90
        0
 40
-0.6
 41
-30.0
 62
     5
 63
     7
 74
     1
 91
        4
 64
     7
 65
   257
 75
     1
175
     1
 42
1.0
 92
        9
 66
     7
 43
1.0
 76
     1
 77
     6
 78
     2
 67
     7
 79
     5
170
     0
171
     0
290
     0
174
     0
 93
        1
 44
0.0
173
     0
291
     1
 45
0.0
1001
ACAD
1000
AcDbSavedByObjectVersion
1070
     0
  0
VISUALSTYLE
  5
33
102
{ACAD_XDICTIONARY
360
502
102
}
102
{ACAD_REACTORS
330
29
102
}
330
29
100
AcDbVisualStyle
  2
Realistic
 70
     8
 71
     2
 72
     3
 73
     0
 90
        2
 40
-0.6
 41
30.0
 62
     5
 63
     7
 74
     0
 91
        0
 64
     7
 65
   257
 75
     1
175
     1
 42
1.0
 92
        8
 66
   257
 43
1.0
 76
     1
 77
     6
 78
     2
 67
     7
 79
     3
170
     0
171
     0
290
     0
174
     0
 93
       13
 44
0.0
173
     0
291
     0
 45
0.0
1001
ACAD
1000
AcDbSavedByObjectVersion
1070
     0
  0
VISUALSTYLE
  5
3E
102
{ACAD_XDICTIONARY
360
518
102
}
102
{ACAD_REACTORS
330
29
102
}
330
29
100
AcDbVisualStyle
  2
Shaded
 70
    27
 71
     2
 72
     2
 73
     1
 90
        2
 40
-0.6
 41
30.0
 62
     5
 63
     7
 74
     0
 91
        4
 64
     7
 65
   257
 75
     1
175
     1
 42
1.0
 92
        8
 66
   257
 43
1.0
 76
     1
 77
     6
 78
     2
 67
     8
 79
     3
170
     0
171
     0
290
     0
174
     0
 93
        5
 44
0.0
173
     0
291
     0
 45
0.0
1001
ACAD
1000
AcDbSavedByObjectVersion
1070
     0
  0
VISUALSTYLE
  5
3D
102
{ACAD_XDICTIONARY
360
516
102
}
102
{ACAD_REACTORS
330
29
102
}
330
29
100
AcDbVisualStyle
  2
Shaded with edges
 70
    26
 71
     2
 72
     2
 73
     1
 90
        2
 40
-0.6
 41
30.0
 62
     5
 63
     7
 74
     1
 91
       10
 64
     7
 65
   257
 75
     2
175
     1
 42
1.0
 92
        8
 66
   257
 43
1.0
 76
     1
 77
     6
 78
     2
 67
     7
 79
     3
170
     0
171
     0
290
     0
174
     0
 93
        5
 44
0.0
173
     0
291
     0
 45
0.0
1001
ACAD
1000
AcDbSavedByObjectVersion
1070
     0
  0
VISUALSTYLE
  5
3A
102
{ACAD_XDICTIONARY
360
510
102
}
102
{ACAD_REACTORS
330
29
102
}
330
29
100
AcDbVisualStyle
  2
Shades of Gray
 70
    23
 71
     2
 72
     2
 73
     3
 90
        0
 40
-0.6
 41
-30.0
 62
     5
 63
     7
 74
     2
 91
        2
 64
     7
 65
     7
 75
     1
175
     1
 42
40.0
 92
        8
 66
     7
 43
1.0
 76
     1
 77
     6
 78
     2
 67
     7
 79
     3
170
     0
171
     0
290
     0
174
     0
 93
        1
 44
0.0
173
     0
291
     0
 45
0.0
1001
ACAD
1000
AcDbSavedByObjectVersion
1070
     0
  0
VISUALSTYLE
  5
3B
102
{ACAD_XDICTIONARY
360
512
102
}
102
{ACAD_REACTORS
330
29
102
}
330
29
100
AcDbVisualStyle
  2
Sketchy
 70
    24
 71
     1
 72
     2
 73
     2
 90
        0
 40
-0.6
 41
-30.0
 62
     5
 63
     7
 74
     2
 91
        2
 64
     7
 65
     7
 75
     1
175
     1
 42
40.0
 92
       11
 66
     7
 43
1.0
 76
     1
 77
     6
 78
     2
 67
     7
 79
     6
170
     0
171
     0
290
     0
174
     0
 93
        1
 44
0.0
173
     0
291
     0
 45
0.0
1001
ACAD
1000
AcDbSavedByObjectVersion
1070
     0
  0
VISUALSTYLE
  5
36
102
{ACAD_XDICTIONARY
360
508
102
}
102
{ACAD_REACTORS
330
29
102
}
330
29
100
AcDbVisualStyle
  2
Thicken
 70
    13
 71
     2
 72
     2
 73
     0
 90
        0
 40
-0.6
 41
-30.0
 62
     5
 63
     7
 74
     1
 91
        4
 64
     7
 65
   257
 75
     1
175
     1
 42
1.0
 92
       12
 66
     7
 43
1.0
 76
     1
 77
     6
 78
     2
 67
     7
 79
     5
170
     0
171
     0
290
     0
174
     0
 93
        1
 44
0.0
173
     0
291
     1
 45
0.0
1001
ACAD
1000
AcDbSavedByObjectVersion
1070
     0
  0
VISUALSTYLE
  5
30
102
{ACAD_XDICTIONARY
360
4FC
102
}
102
{ACAD_REACTORS
330
29
102
}
330
29
100
AcDbVisualStyle
  2
Wireframe
 70
     5
 71
     0
 72
     2
 73
     0
 90
        0
 40
-0.6
 41
-30.0
 62
     5
 63
     7
 74
     1
 91
        4
 64
     7
 65
   257
 75
     1
175
     1
 42
1.0
 92
        0
 66
   257
 43
1.0
 76
     1
 77
     6
 78
     2
 67
     7
 79
     3
170
     0
171
     0
290
     0
174
     0
 93
        1
 44
0.0
173
     0
291
     0
 45
0.0
1001
ACAD
1000
AcDbSavedByObjectVersion
1070
     0
  0
VISUALSTYLE
  5
3C
102
{ACAD_XDICTIONARY
360
514
102
}
102
{ACAD_REACTORS
330
29
102
}
330
29
100
AcDbVisualStyle
  2
X-Ray
 70
    25
 71
     2
 72
     2
 73
     1
 90
        1
 40
0.5
 41
-30.0
 62
     5
 63
     7
 74
     1
 91
        0
 64
     7
 65
   257
 75
     1
175
     1
 42
1.0
 92
        8
 66
     7
 43
1.0
 76
     1
 77
     6
 78
     2
 67
     7
 79
     3
170
     0
171
     0
290
     0
174
     0
 93
       13
 44
0.0
173
     0
291
     0
 45
0.0
1001
ACAD
1000
AcDbSavedByObjectVersion
1070
     0
  0
DICTIONARYVAR
  5
445
102
{ACAD_REACTORS
330
43F
102
}
330
43F
100
DictionaryVariables
280
     0
  1
1:1
  0
DICTIONARYVAR
  5
441
102
{ACAD_REACTORS
330
43F
102
}
330
43F
100
DictionaryVariables
280
     0
  1
STANDARD
  0
DICTIONARYVAR
  5
440
102
{ACAD_REACTORS
330
43F
102
}
330
43F
100
DictionaryVariables
280
     0
  1
STANDARD
  0
DICTIONARYVAR
  5
442
102
{ACAD_REACTORS
330
43F
102
}
330
43F
100
DictionaryVariables
280
     0
  1
Imperial24
  0
DICTIONARYVAR
  5
443
102
{ACAD_REACTORS
330
43F
102
}
330
43F
100
DictionaryVariables
280
     0
  1
Imperial24
  0
DICTIONARYVAR
  5
4DF
102
{ACAD_REACTORS
330
43F
102
}
330
43F
100
DictionaryVariables
280
     0
  1
1
  0
DICTIONARYVAR
  5
4DE
102
{ACAD_REACTORS
330
43F
102
}
330
43F
100
DictionaryVariables
280
     0
  1
0
  0
DICTIONARYVAR
  5
447
102
{ACAD_REACTORS
330
43F
102
}
330
43F
100
DictionaryVariables
280
     0
  1
1
  0
DICTIONARYVAR
  5
448
102
{ACAD_REACTORS
330
43F
102
}
330
43F
100
DictionaryVariables
280
     0
  1
15
  0
DICTIONARYVAR
  5
446
102
{ACAD_REACTORS
330
43F
102
}
330
43F
100
DictionaryVariables
280
     0
  1
0
  0
DICTIONARYVAR
  5
444
102
{ACAD_REACTORS
330
43F
102
}
330
43F
100
DictionaryVariables
280
     0
  1
0
  0
DICTIONARYVAR
  5
4DD
102
{ACAD_REACTORS
330
43F
102
}
330
43F
100
DictionaryVariables
280
     0
  1
127
  0
DICTIONARYVAR
  5
4E0
102
{ACAD_REACTORS
330
43F
102
}
330
43F
100
DictionaryVariables
280
     0
  1
2
  0
DICTIONARY
  5
4EC
102
{ACAD_REACTORS
330
4EA
102
}
330
4EA
100
AcDbDictionary
281
     1
  0
DICTIONARY
  5
4EB
102
{ACAD_REACTORS
330
4EA
102
}
330
4EA
100
AcDbDictionary
281
     1
  3
140694576470224
350
4E5
  3
140694576470240
350
4E6
  3
140694576470256
350
4E7
  3
140694576470272
350
4E8
  3
140694576470288
350
4E9
  0
DICTIONARY
  5
43C
330
6A
100
AcDbDictionary
280
     1
281
     1
  3
ACAD_XREC_ROUNDTRIP
360
523
  0
DICTIONARY
  5
526
330
72
100
AcDbDictionary
280
     1
281
     1
  3
ACAD_XREC_ROUNDTRIP
360
527
  0
DICTIONARY
  5
524
330
6E
100
AcDbDictionary
280
     1
281
     1
  3
ACAD_XREC_ROUNDTRIP
360
525
  0
DICTIONARY
  5
1A
330
19
100
AcDbDictionary
280
     1
281
     1
  3
ACAD_XREC_ROUNDTRIP
360
4EE
  3
BUMPTILE
360
1C
  3
DIFFUSETILE
360
1B
  3
OPACITYTILE
360
1F
  3
REFLECTIONTILE
360
1E
  3
REFRACTIONTILE
360
20
  3
SPECULARTILE
360
1D
  0
DICTIONARY
  5
12
330
11
100
AcDbDictionary
280
     1
281
     1
  3
ACAD_XREC_ROUNDTRIP
360
4ED
  3
BUMPTILE
360
14
  3
DIFFUSETILE
360
13
  3
OPACITYTILE
360
17
  3
REFLECTIONTILE
360
16
  3
REFRACTIONTILE
360
18
  3
SPECULARTILE
360
15
  0
DICTIONARY
  5
22
330
21
100
AcDbDictionary
280
     1
281
     1
  3
ACAD_XREC_ROUNDTRIP
360
4EF
  3
BUMPTILE
360
24
  3
DIFFUSETILE
360
23
  3
OPACITYTILE
360
27
  3
REFLECTIONTILE
360
26
  3
REFRACTIONTILE
360
28
  3
SPECULARTILE
360
25
  0
DICTIONARY
  5
43A
330
68
100
AcDbDictionary
280
     1
281
     1
  3
ACAD_XREC_ROUNDTRIP
360
522
  0
DICTIONARY
  5
4E1
330
64
100
AcDbDictionary
280
     1
281
     1
  3
ACAD_ROUNDTRIP_2008_TABLESTYLE_CELLSTYLEMAP
360
4E2
  3
ACAD_XREC_ROUNDTRIP
360
520
  0
DICTIONARY
  5
4FA
330
2F
100
AcDbDictionary
280
     1
281
     1
  3
ACAD_XREC_ROUNDTRIP
360
4FB
  0
DICTIONARY
  5
4F8
330
2E
100
AcDbDictionary
280
     1
281
     1
  3
ACAD_XREC_ROUNDTRIP
360
4F9
  0
DICTIONARY
  5
506
330
35
100
AcDbDictionary
280
     1
281
     1
  3
ACAD_XREC_ROUNDTRIP
360
507
  0
DICTIONARY
  5
50E
330
39
100
AcDbDictionary
280
     1
281
     1
  3
ACAD_XREC_ROUNDTRIP
360
50F
  0
DICTIONARY
  5
500
330
32
100
AcDbDictionary
280
     1
281
     1
  3
ACAD_XREC_ROUNDTRIP
360
501
  0
DICTIONARY
  5
504
330
34
100
AcDbDictionary
280
     1
281
     1
  3
ACAD_XREC_ROUNDTRIP
360
505
  0
DICTIONARY
  5
51E
330
41
100
AcDbDictionary
280
     1
281
     1
  3
ACAD_XREC_ROUNDTRIP
360
51F
  0
DICTIONARY
  5
50C
330
38
100
AcDbDictionary
280
     1
281
     1
  3
ACAD_XREC_ROUNDTRIP
360
50D
  0
DICTIONARY
  5
4F0
330
2A
100
AcDbDictionary
280
     1
281
     1
  3
ACAD_XREC_ROUNDTRIP
360
4F1
  0
DICTIONARY
  5
4F2
330
2B
100
AcDbDictionary
280
     1
281
     1
  3
ACAD_XREC_ROUNDTRIP
360
4F3
  0
DICTIONARY
  5
4F4
330
2C
100
AcDbDictionary
280
     1
281
     1
  3
ACAD_XREC_ROUNDTRIP
360
4F5
  0
DICTIONARY
  5
4F6
330
2D
100
AcDbDictionary
280
     1
281
     1
  3
ACAD_XREC_ROUNDTRIP
360
4F7
  0
DICTIONARY
  5
4FE
330
31
100
AcDbDictionary
280
     1
281
     1
  3
ACAD_XREC_ROUNDTRIP
360
4FF
  0
DICTIONARY
  5
51A
330
3F
100
AcDbDictionary
280
     1
281
     1
  3
ACAD_XREC_ROUNDTRIP
360
51B
  0
DICTIONARY
  5
50A
330
37
100
AcDbDictionary
280
     1
281
     1
  3
ACAD_XREC_ROUNDTRIP
360
50B
  0
DICTIONARY
  5
51C
330
40
100
AcDbDictionary
280
     1
281
     1
  3
ACAD_XREC_ROUNDTRIP
360
51D
  0
DICTIONARY
  5
502
330
33
100
AcDbDictionary
280
     1
281
     1
  3
ACAD_XREC_ROUNDTRIP
360
503
  0
DICTIONARY
  5
518
330
3E
100
AcDbDictionary
280
     1
281
     1
  3
ACAD_XREC_ROUNDTRIP
360
519
  0
DICTIONARY
  5
516
330
3D
100
AcDbDictionary
280
     1
281
     1
  3
ACAD_XREC_ROUNDTRIP
360
517
  0
DICTIONARY
  5
510
330
3A
100
AcDbDictionary
280
     1
281
     1
  3
ACAD_XREC_ROUNDTRIP
360
511
  0
DICTIONARY
  5
512
330
3B
100
AcDbDictionary
280
     1
281
     1
  3
ACAD_XREC_ROUNDTRIP
360
513
  0
DICTIONARY
  5
508
330
36
100
AcDbDictionary
280
     1
281
     1
  3
ACAD_XREC_ROUNDTRIP
360
509
  0
DICTIONARY
  5
4FC
330
30
100
AcDbDictionary
280
     1
281
     1
  3
ACAD_XREC_ROUNDTRIP
360
4FD
  0
DICTIONARY
  5
514
330
3C
100
AcDbDictionary
280
     1
281
     1
  3
ACAD_XREC_ROUNDTRIP
360
515
  0
XRECORD
  5
4E5
102
{ACAD_REACTORS
330
4EB
102
}
330
4EB
100
AcDbXrecord
280
     1
  1
AcDb_Thumbnail_Schema
102
{ATTRRECORD
341
4E6
  2
AcDbDs::TreatedAsObjectData
280
     1
291
     1
102
ATTRRECORD}
102
{ATTRRECORD
341
4E7
  2
AcDbDs::Legacy
280
     1
291
     1
102
ATTRRECORD}
  2
AcDbDs::ID
280
    10
 91
        8
102
{ATTRRECORD
341
4E8
  2
AcDs:Indexable
280
     1
291
     1
102
ATTRRECORD}
102
{ATTRRECORD
341
4E9
  2
AcDbDs::HandleAttribute
280
     7
282
     1
102
ATTRRECORD}
  2
Thumbnail_Data
280
    15
 91
        0
  0
XRECORD
  5
4E6
102
{ACAD_REACTORS
330
4EB
102
}
330
4EB
100
AcDbXrecord
280
     1
  1
AcDbDs::TreatedAsObjectDataSchema
  2
AcDbDs::TreatedAsObjectData
280
     1
 91
        0
  0
XRECORD
  5
4E7
102
{ACAD_REACTORS
330
4EB
102
}
330
4EB
100
AcDbXrecord
280
     1
  1
AcDbDs::LegacySchema
  2
AcDbDs::Legacy
280
     1
 91
        0
  0
XRECORD
  5
4E8
102
{ACAD_REACTORS
330
4EB
102
}
330
4EB
100
AcDbXrecord
280
     1
  1
AcDbDs::IndexedPropertySchema
  2
AcDs:Indexable
280
     1
 91
        0
  0
XRECORD
  5
4E9
102
{ACAD_REACTORS
330
4EB
102
}
330
4EB
100
AcDbXrecord
280
     1
  1
AcDbDs::HandleAttributeSchema
  2
AcDbDs::HandleAttribute
280
     7
 91
        1
284
     1
  0
XRECORD
  5
523
102
{ACAD_REACTORS
330
43C
102
}
330
43C
100
AcDbXrecord
280
     1
102
DISPLAYNAME
  1
Imperial24
102
FLAGS
 90
        0
  0
XRECORD
  5
527
102
{ACAD_REACTORS
330
526
102
}
330
526
100
AcDbXrecord
280
     1
102
SHADEPLOT
 70
     0
102
SHADEPLOTRESLEVEL
 70
     2
102
SHADEPLOTCUSTOMDPI
 70
   300
  0
XRECORD
  5
525
102
{ACAD_REACTORS
330
524
102
}
330
524
100
AcDbXrecord
280
     1
102
SHADEPLOT
 70
     0
102
SHADEPLOTRESLEVEL
 70
     2
102
SHADEPLOTCUSTOMDPI
 70
   300
  0
XRECORD
  5
4EE
102
{ACAD_REACTORS
330
1A
102
}
330
1A
100
AcDbXrecord
280
     1
102
MATERIAL
148
0.0
149
0.0
149
0.0
 93
        0
 94
      127
282
     0
 72
     0
 77
     0
171
     0
175
     0
179
     0
273
     0
  0
XRECORD
  5
1C
102
{ACAD_REACTORS
330
1A
102
}
330
1A
100
AcDbXrecord
280
     1
270
     1
271
     1
  0
XRECORD
  5
1B
102
{ACAD_REACTORS
330
1A
102
}
330
1A
100
AcDbXrecord
280
     1
270
     1
271
     1
  0
XRECORD
  5
1F
102
{ACAD_REACTORS
330
1A
102
}
330
1A
100
AcDbXrecord
280
     1
270
     1
271
     1
  0
XRECORD
  5
1E
102
{ACAD_REACTORS
330
1A
102
}
330
1A
100
AcDbXrecord
280
     1
270
     1
271
     1
  0
XRECORD
  5
20
102
{ACAD_REACTORS
330
1A
102
}
330
1A
100
AcDbXrecord
280
     1
270
     1
271
     1
  0
XRECORD
  5
1D
102
{ACAD_REACTORS
330
1A
102
}
330
1A
100
AcDbXrecord
280
     1
270
     1
271
     1
  0
XRECORD
  5
4ED
102
{ACAD_REACTORS
330
12
102
}
330
12
100
AcDbXrecord
280
     1
102
MATERIAL
148
0.0
149
0.0
149
0.0
 93
        0
 94
      127
282
     0
 72
     0
 77
     0
171
     0
175
     0
179
     0
273
     0
  0
XRECORD
  5
14
102
{ACAD_REACTORS
330
12
102
}
330
12
100
AcDbXrecord
280
     1
270
     1
271
     1
  0
XRECORD
  5
13
102
{ACAD_REACTORS
330
12
102
}
330
12
100
AcDbXrecord
280
     1
270
     1
271
     1
  0
XRECORD
  5
17
102
{ACAD_REACTORS
330
12
102
}
330
12
100
AcDbXrecord
280
     1
270
     1
271
     1
  0
XRECORD
  5
16
102
{ACAD_REACTORS
330
12
102
}
330
12
100
AcDbXrecord
280
     1
270
     1
271
     1
  0
XRECORD
  5
18
102
{ACAD_REACTORS
330
12
102
}
330
12
100
AcDbXrecord
280
     1
270
     1
271
     1
  0
XRECORD
  5
15
102
{ACAD_REACTORS
330
12
102
}
330
12
100
AcDbXrecord
280
     1
270
     1
271
     1
  0
XRECORD
  5
4EF
102
{ACAD_REACTORS
330
22
102
}
330
22
100
AcDbXrecord
280
     1
102
MATERIAL
148
0.0
149
0.0
149
0.0
 93
        0
 94
      127
282
     0
 72
     0
 77
     0
171
     0
175
     0
179
     0
273
     0
  0
XRECORD
  5
24
102
{ACAD_REACTORS
330
22
102
}
330
22
100
AcDbXrecord
280
     1
270
     1
271
     1
  0
XRECORD
  5
23
102
{ACAD_REACTORS
330
22
102
}
330
22
100
AcDbXrecord
280
     1
270
     1
271
     1
  0
XRECORD
  5
27
102
{ACAD_REACTORS
330
22
102
}
330
22
100
AcDbXrecord
280
     1
270
     1
271
     1
  0
XRECORD
  5
26
102
{ACAD_REACTORS
330
22
102
}
330
22
100
AcDbXrecord
280
     1
270
     1
271
     1
  0
XRECORD
  5
28
102
{ACAD_REACTORS
330
22
102
}
330
22
100
AcDbXrecord
280
     1
270
     1
271
     1
  0
XRECORD
  5
25
102
{ACAD_REACTORS
330
22
102
}
330
22
100
AcDbXrecord
280
     1
270
     1
271
     1
  0
XRECORD
  5
522
102
{ACAD_REACTORS
330
43A
102
}
330
43A
100
AcDbXrecord
280
     1
102
DISPLAYNAME
  1
Imperial24
102
FLAGS
 90
        0
  0
CELLSTYLEMAP
  5
4E2
102
{ACAD_REACTORS
330
4E1
102
}
330
4E1
100
AcDbCellStyleMap
 90
        3
300
CELLSTYLE
  1
TABLEFORMAT_BEGIN
 90
        5
170
     1
 91
        0
 92
    32768
 62
   257
 93
        1
300
CONTENTFORMAT
  1
CONTENTFORMAT_BEGIN
 90
        0
 91
        0
 92
      512
 93
        0
300

 40
0.0
140
1.0
 94
        5
 62
     0
340
55
144
0.25
309
CONTENTFORMAT_END
171
     0
 94
        0
309
TABLEFORMAT_END
  1
CELLSTYLE_BEGIN
 90
        1
 91
        1
300
_TITLE
309
CELLSTYLE_END
300
CELLSTYLE
  1
TABLEFORMAT_BEGIN
 90
        5
170
     1
 91
        0
 92
        0
 62
   257
 93
        1
300
CONTENTFORMAT
  1
CONTENTFORMAT_BEGIN
 90
        0
 91
        0
 92
      512
 93
        0
300

 40
0.0
140
1.0
 94
        5
 62
     0
340
55
144
0.18
309
CONTENTFORMAT_END
171
     0
 94
        0
309
TABLEFORMAT_END
  1
CELLSTYLE_BEGIN
 90
        2
 91
        1
300
_HEADER
309
CELLSTYLE_END
300
CELLSTYLE
  1
TABLEFORMAT_BEGIN
 90
        5
170
     1
 91
        0
 92
        0
 62
   257
 93
        1
300
CONTENTFORMAT
  1
CONTENTFORMAT_BEGIN
 90
        0
 91
        0
 92
      512
 93
        0
300

 40
0.0
140
1.0
 94
        2
 62
     0
340
55
144
0.18
309
CONTENTFORMAT_END
171
     0
 94
        0
309
TABLEFORMAT_END
  1
CELLSTYLE_BEGIN
 90
        3
 91
        2
300
_DATA
309
CELLSTYLE_END
  0
XRECORD
  5
520
102
{ACAD_REACTORS
330
4E1
102
}
330
4E1
100
AcDbXrecord
280
     1
102
ACAD_ROUNDTRIP_PRE2007_TABLESTYLE
 90
      512
 91
        0
  1

 92
      512
 93
        0
  2

 94
      512
 95
        0
  3

  0
XRECORD
  5
4FB
102
{ACAD_REACTORS
330
4FA
102
}
330
4FA
100
AcDbXrecord
280
     1
102
RTVSPost2010Prop28
280
     1
102
RTVSPost2010PropOp28
 70
     1
102
RTVSPost2010Prop29
280
     1
102
RTVSPost2010PropOp29
 70
     1
102
RTVSPost2010Prop30
280
     0
102
RTVSPost2010PropOp30
 70
     1
102
RTVSPost2010Prop31
280
     0
102
RTVSPost2010PropOp31
 70
     1
102
RTVSPost2010Prop32
280
     0
102
RTVSPost2010PropOp32
 70
     1
102
RTVSPost2010Prop33
280
     0
102
RTVSPost2010PropOp33
 70
     1
102
RTVSPost2010Prop34
280
     0
102
RTVSPost2010PropOp34
 70
     1
102
RTVSPost2010Prop35
280
     0
102
RTVSPost2010PropOp35
 70
     1
102
RTVSPost2010Prop36
280
     0
102
RTVSPost2010PropOp36
 70
     1
102
RTVSPost2010Prop37
 90
       50
102
RTVSPost2010PropOp37
 70
     1
102
RTVSPost2010Prop38
140
0.0
102
RTVSPost2010PropOp38
 70
     1
102
RTVSPost2010Prop39
140
1.0
102
RTVSPost2010PropOp39
 70
     1
102
RTVSPost2010Prop40
 90
        0
102
RTVSPost2010PropOp40
 70
     1
102
RTVSPost2010Prop41ColorIndex
 90
       18
102
RTVSPost2010Prop41ColorRGB
 90
        0
102
RTVSPost2010PropOp41
 70
     1
102
RTVSPost2010Prop42
 90
       50
102
RTVSPost2010PropOp42
 70
     1
102
RTVSPost2010Prop43
 90
        3
102
RTVSPost2010PropOp43
 70
     1
102
RTVSPost2010Prop44ColorIndex
 90
        5
102
RTVSPost2010Prop44ColorRGB
 90
      255
102
RTVSPost2010PropOp44
 70
     1
102
RTVSPost2010Prop45
280
     0
102
RTVSPost2010PropOp45
 70
     1
102
RTVSPost2010Prop46
 90
       50
102
RTVSPost2010PropOp46
 70
     1
102
RTVSPost2010Prop47
 90
       50
102
RTVSPost2010PropOp47
 70
     1
102
RTVSPost2010Prop48
 90
       50
102
RTVSPost2010PropOp48
 70
     1
102
RTVSPost2010Prop49
280
     0
102
RTVSPost2010PropOp49
 70
     1
102
RTVSPost2010Prop50
 90
       50
102
RTVSPost2010PropOp50
 70
     1
102
RTVSPost2010Prop51ColorIndex
 90
      256
102
RTVSPost2010Prop51ColorRGB
 90
-16777216
102
RTVSPost2010PropOp51
 70
     0
102
RTVSPost2010Prop52
140
1.0
102
RTVSPost2010PropOp52
 70
     0
102
RTVSPost2010Prop53
 90
        2
102
RTVSPost2010PropOp53
 70
     1
102
RTVSPost2010Prop54
  1
strokes_ogs.tif
102
RTVSPost2010PropOp54
 70
     1
102
RTVSPost2010Prop55
280
     0
102
RTVSPost2010PropOp55
 70
     1
102
RTVSPost2010Prop56
140
1.0
102
RTVSPost2010PropOp56
 70
     1
102
RTVSPost2010Prop57
140
1.0
102
RTVSPost2010PropOp57
 70
     1
102
RTVSPropertyOp0
 70
     1
102
RTVSPropertyOp1
 70
     1
102
RTVSPropertyOp2
 70
     1
102
RTVSPropertyOp3
 70
     1
102
RTVSPropertyOp4
 70
     1
102
RTVSPropertyOp5
 70
     1
102
RTVSPropertyOp6
 70
     1
102
RTVSPropertyOp7
 70
     1
102
RTVSPropertyOp8
 70
     1
102
RTVSPropertyOp9
 70
     1
102
RTVSPropertyOp10
 70
     1
102
RTVSPropertyOp11
 70
     1
102
RTVSPropertyOp12
 70
     1
102
RTVSPropertyOp13
 70
     1
102
RTVSPropertyOp14
 70
     1
102
RTVSPropertyOp15
 70
     1
102
RTVSPropertyOp16
 70
     1
102
RTVSPropertyOp17
 70
     1
102
RTVSPropertyOp18
 70
     1
102
RTVSPropertyOp19
 70
     1
102
RTVSPropertyOp20
 70
     1
102
RTVSPropertyOp21
 70
     1
102
RTVSPropertyOp22
 70
     1
102
RTVSPropertyOp23
 70
     1
102
RTVSPropertyOp24
 70
     1
102
RTVSPropertyOp25
 70
     1
102
RTVSPropertyOp26
 70
     1
102
RTVSPropertyOp27
 70
     1
102
RTVSPropertyOp28
 70
     1
102
RTVSPropertyOp29
 70
     1
102
RTVSPropertyOp30
 70
     1
102
RTVSPropertyOp31
 70
     1
102
RTVSPropertyOp32
 70
     1
102
RTVSPropertyOp33
 70
     1
102
RTVSPropertyOp34
 70
     1
102
RTVSPropertyOp35
 70
     1
102
RTVSPropertyOp36
 70
     1
102
RTVSPropertyOp37
 70
     1
102
RTVSPropertyOp38
 70
     1
102
RTVSPropertyOp39
 70
     1
102
RTVSPropertyOp40
 70
     1
102
RTVSPropertyOp41
 70
     1
102
RTVSPropertyOp42
 70
     1
102
RTVSPropertyOp43
 70
     1
102
RTVSPropertyOp44
 70
     1
102
RTVSPropertyOp45
 70
     1
102
RTVSPropertyOp46
 70
     1
102
RTVSPropertyOp47
 70
     1
102
RTVSPropertyOp48
 70
     1
102
RTVSPropertyOp49
 70
     1
102
RTVSPropertyOp50
 70
     1
102
RTVSPropertyOp51
 70
     0
102
RTVSPropertyOp52
 70
     0
102
RTVSPropertyOp53
 70
     1
102
RTVSPropertyOp54
 70
     1
102
RTVSPropertyOp55
 70
     1
102
RTVSPropertyOp56
 70
     1
102
RTVSPropertyOp57
 70
     1
102
RTVSPropertyOp58
 70
     1
102
RTVSPropertyOp59
 70
     1
102
RTVSPropertyOp60
 70
     1
102
RTVSPropertyOp61
 70
     1
102
RTVSPropertyOp62
 70
     1
  0
XRECORD
  5
4F9
102
{ACAD_REACTORS
330
4F8
102
}
330
4F8
100
AcDbXrecord
280
     1
102
RTVSPost2010Prop28
280
     0
102
RTVSPost2010PropOp28
 70
     1
102
RTVSPost2010Prop29
280
     1
102
RTVSPost2010PropOp29
 70
     1
102
RTVSPost2010Prop30
280
     1
102
RTVSPost2010PropOp30
 70
     1
102
RTVSPost2010Prop31
280
     0
102
RTVSPost2010PropOp31
 70
     1
102
RTVSPost2010Prop32
280
     0
102
RTVSPost2010PropOp32
 70
     1
102
RTVSPost2010Prop33
280
     0
102
RTVSPost2010PropOp33
 70
     1
102
RTVSPost2010Prop34
280
     0
102
RTVSPost2010PropOp34
 70
     1
102
RTVSPost2010Prop35
280
     0
102
RTVSPost2010PropOp35
 70
     1
102
RTVSPost2010Prop36
280
     0
102
RTVSPost2010PropOp36
 70
     1
102
RTVSPost2010Prop37
 90
       50
102
RTVSPost2010PropOp37
 70
     1
102
RTVSPost2010Prop38
140
0.0
102
RTVSPost2010PropOp38
 70
     1
102
RTVSPost2010Prop39
140
1.0
102
RTVSPost2010PropOp39
 70
     1
102
RTVSPost2010Prop40
 90
        0
102
RTVSPost2010PropOp40
 70
     1
102
RTVSPost2010Prop41ColorIndex
 90
       18
102
RTVSPost2010Prop41ColorRGB
 90
        0
102
RTVSPost2010PropOp41
 70
     1
102
RTVSPost2010Prop42
 90
       50
102
RTVSPost2010PropOp42
 70
     1
102
RTVSPost2010Prop43
 90
        3
102
RTVSPost2010PropOp43
 70
     1
102
RTVSPost2010Prop44ColorIndex
 90
        5
102
RTVSPost2010Prop44ColorRGB
 90
      255
102
RTVSPost2010PropOp44
 70
     1
102
RTVSPost2010Prop45
280
     0
102
RTVSPost2010PropOp45
 70
     1
102
RTVSPost2010Prop46
 90
       50
102
RTVSPost2010PropOp46
 70
     1
102
RTVSPost2010Prop47
 90
       50
102
RTVSPost2010PropOp47
 70
     1
102
RTVSPost2010Prop48
 90
       50
102
RTVSPost2010PropOp48
 70
     1
102
RTVSPost2010Prop49
280
     0
102
RTVSPost2010PropOp49
 70
     1
102
RTVSPost2010Prop50
 90
       50
102
RTVSPost2010PropOp50
 70
     1
102
RTVSPost2010Prop51ColorIndex
 90
      256
102
RTVSPost2010Prop51ColorRGB
 90
-16777216
102
RTVSPost2010PropOp51
 70
     0
102
RTVSPost2010Prop52
140
1.0
102
RTVSPost2010PropOp52
 70
     0
102
RTVSPost2010Prop53
 90
        2
102
RTVSPost2010PropOp53
 70
     1
102
RTVSPost2010Prop54
  1
strokes_ogs.tif
102
RTVSPost2010PropOp54
 70
     1
102
RTVSPost2010Prop55
280
     0
102
RTVSPost2010PropOp55
 70
     1
102
RTVSPost2010Prop56
140
1.0
102
RTVSPost2010PropOp56
 70
     1
102
RTVSPost2010Prop57
140
1.0
102
RTVSPost2010PropOp57
 70
     1
102
RTVSPropertyOp0
 70
     1
102
RTVSPropertyOp1
 70
     1
102
RTVSPropertyOp2
 70
     1
102
RTVSPropertyOp3
 70
     1
102
RTVSPropertyOp4
 70
     1
102
RTVSPropertyOp5
 70
     1
102
RTVSPropertyOp6
 70
     1
102
RTVSPropertyOp7
 70
     1
102
RTVSPropertyOp8
 70
     1
102
RTVSPropertyOp9
 70
     1
102
RTVSPropertyOp10
 70
     1
102
RTVSPropertyOp11
 70
     1
102
RTVSPropertyOp12
 70
     1
102
RTVSPropertyOp13
 70
     1
102
RTVSPropertyOp14
 70
     1
102
RTVSPropertyOp15
 70
     1
102
RTVSPropertyOp16
 70
     1
102
RTVSPropertyOp17
 70
     1
102
RTVSPropertyOp18
 70
     1
102
RTVSPropertyOp19
 70
     1
102
RTVSPropertyOp20
 70
     1
102
RTVSPropertyOp21
 70
     1
102
RTVSPropertyOp22
 70
     1
102
RTVSPropertyOp23
 70
     1
102
RTVSPropertyOp24
 70
     1
102
RTVSPropertyOp25
 70
     1
102
RTVSPropertyOp26
 70
     1
102
RTVSPropertyOp27
 70
     1
102
RTVSPropertyOp28
 70
     1
102
RTVSPropertyOp29
 70
     1
102
RTVSPropertyOp30
 70
     1
102
RTVSPropertyOp31
 70
     1
102
RTVSPropertyOp32
 70
     1
102
RTVSPropertyOp33
 70
     1
102
RTVSPropertyOp34
 70
     1
102
RTVSPropertyOp35
 70
     1
102
RTVSPropertyOp36
 70
     1
102
RTVSPropertyOp37
 70
     1
102
RTVSPropertyOp38
 70
     1
102
RTVSPropertyOp39
 70
     1
102
RTVSPropertyOp40
 70
     1
102
RTVSPropertyOp41
 70
     1
102
RTVSPropertyOp42
 70
     1
102
RTVSPropertyOp43
 70
     1
102
RTVSPropertyOp44
 70
     1
102
RTVSPropertyOp45
 70
     1
102
RTVSPropertyOp46
 70
     1
102
RTVSPropertyOp47
 70
     1
102
RTVSPropertyOp48
 70
     1
102
RTVSPropertyOp49
 70
     1
102
RTVSPropertyOp50
 70
     1
102
RTVSPropertyOp51
 70
     0
102
RTVSPropertyOp52
 70
     0
102
RTVSPropertyOp53
 70
     1
102
RTVSPropertyOp54
 70
     1
102
RTVSPropertyOp55
 70
     1
102
RTVSPropertyOp56
 70
     1
102
RTVSPropertyOp57
 70
     1
102
RTVSPropertyOp58
 70
     1
102
RTVSPropertyOp59
 70
     1
102
RTVSPropertyOp60
 70
     1
102
RTVSPropertyOp61
 70
     1
102
RTVSPropertyOp62
 70
     1
  0
XRECORD
  5
507
102
{ACAD_REACTORS
330
506
102
}
330
506
100
AcDbXrecord
280
     1
102
RTVSPost2010Prop28
280
     0
102
RTVSPost2010PropOp28
 70
     1
102
RTVSPost2010Prop29
280
     1
102
RTVSPost2010PropOp29
 70
     1
102
RTVSPost2010Prop30
280
     1
102
RTVSPost2010PropOp30
 70
     1
102
RTVSPost2010Prop31
280
     0
102
RTVSPost2010PropOp31
 70
     1
102
RTVSPost2010Prop32
280
     0
102
RTVSPost2010PropOp32
 70
     1
102
RTVSPost2010Prop33
280
     0
102
RTVSPost2010PropOp33
 70
     1
102
RTVSPost2010Prop34
280
     0
102
RTVSPost2010PropOp34
 70
     1
102
RTVSPost2010Prop35
280
     0
102
RTVSPost2010PropOp35
 70
     1
102
RTVSPost2010Prop36
280
     0
102
RTVSPost2010PropOp36
 70
     1
102
RTVSPost2010Prop37
 90
       50
102
RTVSPost2010PropOp37
 70
     1
102
RTVSPost2010Prop38
140
0.0
102
RTVSPost2010PropOp38
 70
     1
102
RTVSPost2010Prop39
140
1.0
102
RTVSPost2010PropOp39
 70
     1
102
RTVSPost2010Prop40
 90
        0
102
RTVSPost2010PropOp40
 70
     1
102
RTVSPost2010Prop41ColorIndex
 90
       18
102
RTVSPost2010Prop41ColorRGB
 90
        0
102
RTVSPost2010PropOp41
 70
     1
102
RTVSPost2010Prop42
 90
       50
102
RTVSPost2010PropOp42
 70
     1
102
RTVSPost2010Prop43
 90
        3
102
RTVSPost2010PropOp43
 70
     1
102
RTVSPost2010Prop44ColorIndex
 90
        5
102
RTVSPost2010Prop44ColorRGB
 90
      255
102
RTVSPost2010PropOp44
 70
     1
102
RTVSPost2010Prop45
280
     0
102
RTVSPost2010PropOp45
 70
     1
102
RTVSPost2010Prop46
 90
       50
102
RTVSPost2010PropOp46
 70
     1
102
RTVSPost2010Prop47
 90
       50
102
RTVSPost2010PropOp47
 70
     1
102
RTVSPost2010Prop48
 90
       50
102
RTVSPost2010PropOp48
 70
     1
102
RTVSPost2010Prop49
280
     0
102
RTVSPost2010PropOp49
 70
     1
102
RTVSPost2010Prop50
 90
       50
102
RTVSPost2010PropOp50
 70
     1
102
RTVSPost2010Prop51ColorIndex
 90
      256
102
RTVSPost2010Prop51ColorRGB
 90
-16777216
102
RTVSPost2010PropOp51
 70
     0
102
RTVSPost2010Prop52
140
1.0
102
RTVSPost2010PropOp52
 70
     0
102
RTVSPost2010Prop53
 90
        2
102
RTVSPost2010PropOp53
 70
     1
102
RTVSPost2010Prop54
  1
strokes_ogs.tif
102
RTVSPost2010PropOp54
 70
     1
102
RTVSPost2010Prop55
280
     0
102
RTVSPost2010PropOp55
 70
     1
102
RTVSPost2010Prop56
140
1.0
102
RTVSPost2010PropOp56
 70
     1
102
RTVSPost2010Prop57
140
1.0
102
RTVSPost2010PropOp57
 70
     1
102
RTVSPropertyOp0
 70
     1
102
RTVSPropertyOp1
 70
     1
102
RTVSPropertyOp2
 70
     1
102
RTVSPropertyOp3
 70
     1
102
RTVSPropertyOp4
 70
     1
102
RTVSPropertyOp5
 70
     1
102
RTVSPropertyOp6
 70
     1
102
RTVSPropertyOp7
 70
     1
102
RTVSPropertyOp8
 70
     1
102
RTVSPropertyOp9
 70
     1
102
RTVSPropertyOp10
 70
     1
102
RTVSPropertyOp11
 70
     1
102
RTVSPropertyOp12
 70
     1
102
RTVSPropertyOp13
 70
     1
102
RTVSPropertyOp14
 70
     1
102
RTVSPropertyOp15
 70
     1
102
RTVSPropertyOp16
 70
     1
102
RTVSPropertyOp17
 70
     1
102
RTVSPropertyOp18
 70
     1
102
RTVSPropertyOp19
 70
     1
102
RTVSPropertyOp20
 70
     1
102
RTVSPropertyOp21
 70
     1
102
RTVSPropertyOp22
 70
     1
102
RTVSPropertyOp23
 70
     1
102
RTVSPropertyOp24
 70
     1
102
RTVSPropertyOp25
 70
     1
102
RTVSPropertyOp26
 70
     1
102
RTVSPropertyOp27
 70
     1
102
RTVSPropertyOp28
 70
     1
102
RTVSPropertyOp29
 70
     1
102
RTVSPropertyOp30
 70
     1
102
RTVSPropertyOp31
 70
     1
102
RTVSPropertyOp32
 70
     1
102
RTVSPropertyOp33
 70
     1
102
RTVSPropertyOp34
 70
     1
102
RTVSPropertyOp35
 70
     1
102
RTVSPropertyOp36
 70
     1
102
RTVSPropertyOp37
 70
     1
102
RTVSPropertyOp38
 70
     1
102
RTVSPropertyOp39
 70
     1
102
RTVSPropertyOp40
 70
     1
102
RTVSPropertyOp41
 70
     1
102
RTVSPropertyOp42
 70
     1
102
RTVSPropertyOp43
 70
     1
102
RTVSPropertyOp44
 70
     1
102
RTVSPropertyOp45
 70
     1
102
RTVSPropertyOp46
 70
     1
102
RTVSPropertyOp47
 70
     1
102
RTVSPropertyOp48
 70
     1
102
RTVSPropertyOp49
 70
     1
102
RTVSPropertyOp50
 70
     1
102
RTVSPropertyOp51
 70
     0
102
RTVSPropertyOp52
 70
     0
102
RTVSPropertyOp53
 70
     1
102
RTVSPropertyOp54
 70
     1
102
RTVSPropertyOp55
 70
     1
102
RTVSPropertyOp56
 70
     1
102
RTVSPropertyOp57
 70
     1
102
RTVSPropertyOp58
 70
     1
102
RTVSPropertyOp59
 70
     1
102
RTVSPropertyOp60
 70
     1
102
RTVSPropertyOp61
 70
     1
102
RTVSPropertyOp62
 70
     1
  0
XRECORD
  5
50F
102
{ACAD_REACTORS
330
50E
102
}
330
50E
100
AcDbXrecord
280
     1
102
RTVSPost2010Prop28
280
     0
102
RTVSPost2010PropOp28
 70
     1
102
RTVSPost2010Prop29
280
     1
102
RTVSPost2010PropOp29
 70
     1
102
RTVSPost2010Prop30
280
     1
102
RTVSPost2010PropOp30
 70
     1
102
RTVSPost2010Prop31
280
     0
102
RTVSPost2010PropOp31
 70
     1
102
RTVSPost2010Prop32
280
     0
102
RTVSPost2010PropOp32
 70
     1
102
RTVSPost2010Prop33
280
     0
102
RTVSPost2010PropOp33
 70
     1
102
RTVSPost2010Prop34
280
     0
102
RTVSPost2010PropOp34
 70
     1
102
RTVSPost2010Prop35
280
     0
102
RTVSPost2010PropOp35
 70
     1
102
RTVSPost2010Prop36
280
     0
102
RTVSPost2010PropOp36
 70
     1
102
RTVSPost2010Prop37
 90
       50
102
RTVSPost2010PropOp37
 70
     1
102
RTVSPost2010Prop38
140
0.0
102
RTVSPost2010PropOp38
 70
     1
102
RTVSPost2010Prop39
140
1.0
102
RTVSPost2010PropOp39
 70
     1
102
RTVSPost2010Prop40
 90
        0
102
RTVSPost2010PropOp40
 70
     1
102
RTVSPost2010Prop41ColorIndex
 90
       18
102
RTVSPost2010Prop41ColorRGB
 90
        0
102
RTVSPost2010PropOp41
 70
     1
102
RTVSPost2010Prop42
 90
       50
102
RTVSPost2010PropOp42
 70
     1
102
RTVSPost2010Prop43
 90
        3
102
RTVSPost2010PropOp43
 70
     1
102
RTVSPost2010Prop44ColorIndex
 90
        5
102
RTVSPost2010Prop44ColorRGB
 90
      255
102
RTVSPost2010PropOp44
 70
     1
102
RTVSPost2010Prop45
280
     0
102
RTVSPost2010PropOp45
 70
     1
102
RTVSPost2010Prop46
 90
       50
102
RTVSPost2010PropOp46
 70
     1
102
RTVSPost2010Prop47
 90
       50
102
RTVSPost2010PropOp47
 70
     1
102
RTVSPost2010Prop48
 90
       50
102
RTVSPost2010PropOp48
 70
     1
102
RTVSPost2010Prop49
280
     0
102
RTVSPost2010PropOp49
 70
     1
102
RTVSPost2010Prop50
 90
       50
102
RTVSPost2010PropOp50
 70
     1
102
RTVSPost2010Prop51ColorIndex
 90
      256
102
RTVSPost2010Prop51ColorRGB
 90
-16777216
102
RTVSPost2010PropOp51
 70
     0
102
RTVSPost2010Prop52
140
1.0
102
RTVSPost2010PropOp52
 70
     0
102
RTVSPost2010Prop53
 90
        2
102
RTVSPost2010PropOp53
 70
     1
102
RTVSPost2010Prop54
  1
strokes_ogs.tif
102
RTVSPost2010PropOp54
 70
     1
102
RTVSPost2010Prop55
280
     0
102
RTVSPost2010PropOp55
 70
     1
102
RTVSPost2010Prop56
140
1.0
102
RTVSPost2010PropOp56
 70
     1
102
RTVSPost2010Prop57
140
1.0
102
RTVSPost2010PropOp57
 70
     1
102
RTVSPropertyOp0
 70
     1
102
RTVSPropertyOp1
 70
     1
102
RTVSPropertyOp2
 70
     1
102
RTVSPropertyOp3
 70
     1
102
RTVSPropertyOp4
 70
     1
102
RTVSPropertyOp5
 70
     1
102
RTVSPropertyOp6
 70
     1
102
RTVSPropertyOp7
 70
     1
102
RTVSPropertyOp8
 70
     1
102
RTVSPropertyOp9
 70
     1
102
RTVSPropertyOp10
 70
     1
102
RTVSPropertyOp11
 70
     1
102
RTVSPropertyOp12
 70
     1
102
RTVSPropertyOp13
 70
     1
102
RTVSPropertyOp14
 70
     1
102
RTVSPropertyOp15
 70
     1
102
RTVSPropertyOp16
 70
     1
102
RTVSPropertyOp17
 70
     1
102
RTVSPropertyOp18
 70
     1
102
RTVSPropertyOp19
 70
     1
102
RTVSPropertyOp20
 70
     1
102
RTVSPropertyOp21
 70
     1
102
RTVSPropertyOp22
 70
     1
102
RTVSPropertyOp23
 70
     1
102
RTVSPropertyOp24
 70
     1
102
RTVSPropertyOp25
 70
     1
102
RTVSPropertyOp26
 70
     1
102
RTVSPropertyOp27
 70
     1
102
RTVSPropertyOp28
 70
     1
102
RTVSPropertyOp29
 70
     1
102
RTVSPropertyOp30
 70
     1
102
RTVSPropertyOp31
 70
     1
102
RTVSPropertyOp32
 70
     1
102
RTVSPropertyOp33
 70
     1
102
RTVSPropertyOp34
 70
     1
102
RTVSPropertyOp35
 70
     1
102
RTVSPropertyOp36
 70
     1
102
RTVSPropertyOp37
 70
     1
102
RTVSPropertyOp38
 70
     1
102
RTVSPropertyOp39
 70
     1
102
RTVSPropertyOp40
 70
     1
102
RTVSPropertyOp41
 70
     1
102
RTVSPropertyOp42
 70
     1
102
RTVSPropertyOp43
 70
     1
102
RTVSPropertyOp44
 70
     1
102
RTVSPropertyOp45
 70
     1
102
RTVSPropertyOp46
 70
     1
102
RTVSPropertyOp47
 70
     1
102
RTVSPropertyOp48
 70
     1
102
RTVSPropertyOp49
 70
     1
102
RTVSPropertyOp50
 70
     1
102
RTVSPropertyOp51
 70
     0
102
RTVSPropertyOp52
 70
     0
102
RTVSPropertyOp53
 70
     1
102
RTVSPropertyOp54
 70
     1
102
RTVSPropertyOp55
 70
     1
102
RTVSPropertyOp56
 70
     1
102
RTVSPropertyOp57
 70
     1
102
RTVSPropertyOp58
 70
     1
102
RTVSPropertyOp59
 70
     1
102
RTVSPropertyOp60
 70
     1
102
RTVSPropertyOp61
 70
     1
102
RTVSPropertyOp62
 70
     1
  0
XRECORD
  5
501
102
{ACAD_REACTORS
330
500
102
}
330
500
100
AcDbXrecord
280
     1
102
RTVSPost2010Prop28
280
     0
102
RTVSPost2010PropOp28
 70
     1
102
RTVSPost2010Prop29
280
     1
102
RTVSPost2010PropOp29
 70
     1
102
RTVSPost2010Prop30
280
     1
102
RTVSPost2010PropOp30
 70
     1
102
RTVSPost2010Prop31
280
     0
102
RTVSPost2010PropOp31
 70
     1
102
RTVSPost2010Prop32
280
     0
102
RTVSPost2010PropOp32
 70
     1
102
RTVSPost2010Prop33
280
     0
102
RTVSPost2010PropOp33
 70
     1
102
RTVSPost2010Prop34
280
     0
102
RTVSPost2010PropOp34
 70
     1
102
RTVSPost2010Prop35
280
     0
102
RTVSPost2010PropOp35
 70
     1
102
RTVSPost2010Prop36
280
     0
102
RTVSPost2010PropOp36
 70
     1
102
RTVSPost2010Prop37
 90
       50
102
RTVSPost2010PropOp37
 70
     1
102
RTVSPost2010Prop38
140
0.0
102
RTVSPost2010PropOp38
 70
     1
102
RTVSPost2010Prop39
140
1.0
102
RTVSPost2010PropOp39
 70
     1
102
RTVSPost2010Prop40
 90
        0
102
RTVSPost2010PropOp40
 70
     1
102
RTVSPost2010Prop41ColorIndex
 90
       18
102
RTVSPost2010Prop41ColorRGB
 90
        0
102
RTVSPost2010PropOp41
 70
     1
102
RTVSPost2010Prop42
 90
       50
102
RTVSPost2010PropOp42
 70
     1
102
RTVSPost2010Prop43
 90
        3
102
RTVSPost2010PropOp43
 70
     1
102
RTVSPost2010Prop44ColorIndex
 90
        5
102
RTVSPost2010Prop44ColorRGB
 90
      255
102
RTVSPost2010PropOp44
 70
     1
102
RTVSPost2010Prop45
280
     0
102
RTVSPost2010PropOp45
 70
     1
102
RTVSPost2010Prop46
 90
       50
102
RTVSPost2010PropOp46
 70
     1
102
RTVSPost2010Prop47
 90
       50
102
RTVSPost2010PropOp47
 70
     1
102
RTVSPost2010Prop48
 90
       50
102
RTVSPost2010PropOp48
 70
     1
102
RTVSPost2010Prop49
280
     0
102
RTVSPost2010PropOp49
 70
     1
102
RTVSPost2010Prop50
 90
       50
102
RTVSPost2010PropOp50
 70
     1
102
RTVSPost2010Prop51ColorIndex
 90
      256
102
RTVSPost2010Prop51ColorRGB
 90
-16777216
102
RTVSPost2010PropOp51
 70
     0
102
RTVSPost2010Prop52
140
1.0
102
RTVSPost2010PropOp52
 70
     0
102
RTVSPost2010Prop53
 90
        2
102
RTVSPost2010PropOp53
 70
     1
102
RTVSPost2010Prop54
  1
strokes_ogs.tif
102
RTVSPost2010PropOp54
 70
     1
102
RTVSPost2010Prop55
280
     0
102
RTVSPost2010PropOp55
 70
     1
102
RTVSPost2010Prop56
140
1.0
102
RTVSPost2010PropOp56
 70
     1
102
RTVSPost2010Prop57
140
1.0
102
RTVSPost2010PropOp57
 70
     1
102
RTVSPropertyOp0
 70
     1
102
RTVSPropertyOp1
 70
     1
102
RTVSPropertyOp2
 70
     1
102
RTVSPropertyOp3
 70
     1
102
RTVSPropertyOp4
 70
     1
102
RTVSPropertyOp5
 70
     1
102
RTVSPropertyOp6
 70
     1
102
RTVSPropertyOp7
 70
     1
102
RTVSPropertyOp8
 70
     1
102
RTVSPropertyOp9
 70
     1
102
RTVSPropertyOp10
 70
     1
102
RTVSPropertyOp11
 70
     1
102
RTVSPropertyOp12
 70
     1
102
RTVSPropertyOp13
 70
     1
102
RTVSPropertyOp14
 70
     1
102
RTVSPropertyOp15
 70
     1
102
RTVSPropertyOp16
 70
     1
102
RTVSPropertyOp17
 70
     1
102
RTVSPropertyOp18
 70
     1
102
RTVSPropertyOp19
 70
     1
102
RTVSPropertyOp20
 70
     1
102
RTVSPropertyOp21
 70
     1
102
RTVSPropertyOp22
 70
     1
102
RTVSPropertyOp23
 70
     1
102
RTVSPropertyOp24
 70
     1
102
RTVSPropertyOp25
 70
     1
102
RTVSPropertyOp26
 70
     1
102
RTVSPropertyOp27
 70
     1
102
RTVSPropertyOp28
 70
     1
102
RTVSPropertyOp29
 70
     1
102
RTVSPropertyOp30
 70
     1
102
RTVSPropertyOp31
 70
     1
102
RTVSPropertyOp32
 70
     1
102
RTVSPropertyOp33
 70
     1
102
RTVSPropertyOp34
 70
     1
102
RTVSPropertyOp35
 70
     1
102
RTVSPropertyOp36
 70
     1
102
RTVSPropertyOp37
 70
     1
102
RTVSPropertyOp38
 70
     1
102
RTVSPropertyOp39
 70
     1
102
RTVSPropertyOp40
 70
     1
102
RTVSPropertyOp41
 70
     1
102
RTVSPropertyOp42
 70
     1
102
RTVSPropertyOp43
 70
     1
102
RTVSPropertyOp44
 70
     1
102
RTVSPropertyOp45
 70
     1
102
RTVSPropertyOp46
 70
     1
102
RTVSPropertyOp47
 70
     1
102
RTVSPropertyOp48
 70
     1
102
RTVSPropertyOp49
 70
     1
102
RTVSPropertyOp50
 70
     1
102
RTVSPropertyOp51
 70
     0
102
RTVSPropertyOp52
 70
     0
102
RTVSPropertyOp53
 70
     1
102
RTVSPropertyOp54
 70
     1
102
RTVSPropertyOp55
 70
     1
102
RTVSPropertyOp56
 70
     1
102
RTVSPropertyOp57
 70
     1
102
RTVSPropertyOp58
 70
     1
102
RTVSPropertyOp59
 70
     1
102
RTVSPropertyOp60
 70
     1
102
RTVSPropertyOp61
 70
     1
102
RTVSPropertyOp62
 70
     1
  0
XRECORD
  5
505
102
{ACAD_REACTORS
330
504
102
}
330
504
100
AcDbXrecord
280
     1
102
RTVSPost2010Prop28
280
     0
102
RTVSPost2010PropOp28
 70
     1
102
RTVSPost2010Prop29
280
     1
102
RTVSPost2010PropOp29
 70
     1
102
RTVSPost2010Prop30
280
     1
102
RTVSPost2010PropOp30
 70
     1
102
RTVSPost2010Prop31
280
     0
102
RTVSPost2010PropOp31
 70
     1
102
RTVSPost2010Prop32
280
     0
102
RTVSPost2010PropOp32
 70
     1
102
RTVSPost2010Prop33
280
     0
102
RTVSPost2010PropOp33
 70
     1
102
RTVSPost2010Prop34
280
     0
102
RTVSPost2010PropOp34
 70
     1
102
RTVSPost2010Prop35
280
     0
102
RTVSPost2010PropOp35
 70
     1
102
RTVSPost2010Prop36
280
     0
102
RTVSPost2010PropOp36
 70
     1
102
RTVSPost2010Prop37
 90
       50
102
RTVSPost2010PropOp37
 70
     1
102
RTVSPost2010Prop38
140
0.0
102
RTVSPost2010PropOp38
 70
     1
102
RTVSPost2010Prop39
140
1.0
102
RTVSPost2010PropOp39
 70
     1
102
RTVSPost2010Prop40
 90
        0
102
RTVSPost2010PropOp40
 70
     1
102
RTVSPost2010Prop41ColorIndex
 90
       18
102
RTVSPost2010Prop41ColorRGB
 90
        0
102
RTVSPost2010PropOp41
 70
     1
102
RTVSPost2010Prop42
 90
       50
102
RTVSPost2010PropOp42
 70
     1
102
RTVSPost2010Prop43
 90
        3
102
RTVSPost2010PropOp43
 70
     1
102
RTVSPost2010Prop44ColorIndex
 90
        5
102
RTVSPost2010Prop44ColorRGB
 90
      255
102
RTVSPost2010PropOp44
 70
     1
102
RTVSPost2010Prop45
280
     0
102
RTVSPost2010PropOp45
 70
     1
102
RTVSPost2010Prop46
 90
       50
102
RTVSPost2010PropOp46
 70
     1
102
RTVSPost2010Prop47
 90
       50
102
RTVSPost2010PropOp47
 70
     1
102
RTVSPost2010Prop48
 90
       50
102
RTVSPost2010PropOp48
 70
     1
102
RTVSPost2010Prop49
280
     0
102
RTVSPost2010PropOp49
 70
     1
102
RTVSPost2010Prop50
 90
       50
102
RTVSPost2010PropOp50
 70
     1
102
RTVSPost2010Prop51ColorIndex
 90
      256
102
RTVSPost2010Prop51ColorRGB
 90
-16777216
102
RTVSPost2010PropOp51
 70
     0
102
RTVSPost2010Prop52
140
1.0
102
RTVSPost2010PropOp52
 70
     0
102
RTVSPost2010Prop53
 90
        2
102
RTVSPost2010PropOp53
 70
     1
102
RTVSPost2010Prop54
  1
strokes_ogs.tif
102
RTVSPost2010PropOp54
 70
     1
102
RTVSPost2010Prop55
280
     0
102
RTVSPost2010PropOp55
 70
     1
102
RTVSPost2010Prop56
140
1.0
102
RTVSPost2010PropOp56
 70
     1
102
RTVSPost2010Prop57
140
1.0
102
RTVSPost2010PropOp57
 70
     1
102
RTVSPropertyOp0
 70
     1
102
RTVSPropertyOp1
 70
     1
102
RTVSPropertyOp2
 70
     1
102
RTVSPropertyOp3
 70
     1
102
RTVSPropertyOp4
 70
     1
102
RTVSPropertyOp5
 70
     1
102
RTVSPropertyOp6
 70
     1
102
RTVSPropertyOp7
 70
     1
102
RTVSPropertyOp8
 70
     1
102
RTVSPropertyOp9
 70
     1
102
RTVSPropertyOp10
 70
     1
102
RTVSPropertyOp11
 70
     1
102
RTVSPropertyOp12
 70
     1
102
RTVSPropertyOp13
 70
     1
102
RTVSPropertyOp14
 70
     1
102
RTVSPropertyOp15
 70
     1
102
RTVSPropertyOp16
 70
     1
102
RTVSPropertyOp17
 70
     1
102
RTVSPropertyOp18
 70
     1
102
RTVSPropertyOp19
 70
     1
102
RTVSPropertyOp20
 70
     1
102
RTVSPropertyOp21
 70
     1
102
RTVSPropertyOp22
 70
     1
102
RTVSPropertyOp23
 70
     1
102
RTVSPropertyOp24
 70
     1
102
RTVSPropertyOp25
 70
     1
102
RTVSPropertyOp26
 70
     1
102
RTVSPropertyOp27
 70
     1
102
RTVSPropertyOp28
 70
     1
102
RTVSPropertyOp29
 70
     1
102
RTVSPropertyOp30
 70
     1
102
RTVSPropertyOp31
 70
     1
102
RTVSPropertyOp32
 70
     1
102
RTVSPropertyOp33
 70
     1
102
RTVSPropertyOp34
 70
     1
102
RTVSPropertyOp35
 70
     1
102
RTVSPropertyOp36
 70
     1
102
RTVSPropertyOp37
 70
     1
102
RTVSPropertyOp38
 70
     1
102
RTVSPropertyOp39
 70
     1
102
RTVSPropertyOp40
 70
     1
102
RTVSPropertyOp41
 70
     1
102
RTVSPropertyOp42
 70
     1
102
RTVSPropertyOp43
 70
     1
102
RTVSPropertyOp44
 70
     1
102
RTVSPropertyOp45
 70
     1
102
RTVSPropertyOp46
 70
     1
102
RTVSPropertyOp47
 70
     1
102
RTVSPropertyOp48
 70
     1
102
RTVSPropertyOp49
 70
     1
102
RTVSPropertyOp50
 70
     1
102
RTVSPropertyOp51
 70
     0
102
RTVSPropertyOp52
 70
     0
102
RTVSPropertyOp53
 70
     1
102
RTVSPropertyOp54
 70
     1
102
RTVSPropertyOp55
 70
     1
102
RTVSPropertyOp56
 70
     1
102
RTVSPropertyOp57
 70
     1
102
RTVSPropertyOp58
 70
     1
102
RTVSPropertyOp59
 70
     1
102
RTVSPropertyOp60
 70
     1
102
RTVSPropertyOp61
 70
     1
102
RTVSPropertyOp62
 70
     1
  0
XRECORD
  5
51F
102
{ACAD_REACTORS
330
51E
102
}
330
51E
100
AcDbXrecord
280
     1
102
RTVSPost2010Prop28
280
     0
102
RTVSPost2010PropOp28
 70
     1
102
RTVSPost2010Prop29
280
     1
102
RTVSPost2010PropOp29
 70
     1
102
RTVSPost2010Prop30
280
     1
102
RTVSPost2010PropOp30
 70
     1
102
RTVSPost2010Prop31
280
     0
102
RTVSPost2010PropOp31
 70
     1
102
RTVSPost2010Prop32
280
     0
102
RTVSPost2010PropOp32
 70
     1
102
RTVSPost2010Prop33
280
     0
102
RTVSPost2010PropOp33
 70
     1
102
RTVSPost2010Prop34
280
     0
102
RTVSPost2010PropOp34
 70
     1
102
RTVSPost2010Prop35
280
     0
102
RTVSPost2010PropOp35
 70
     1
102
RTVSPost2010Prop36
280
     0
102
RTVSPost2010PropOp36
 70
     1
102
RTVSPost2010Prop37
 90
       50
102
RTVSPost2010PropOp37
 70
     0
102
RTVSPost2010Prop38
140
0.0
102
RTVSPost2010PropOp38
 70
     0
102
RTVSPost2010Prop39
140
1.0
102
RTVSPost2010PropOp39
 70
     0
102
RTVSPost2010Prop40
 90
        0
102
RTVSPost2010PropOp40
 70
     0
102
RTVSPost2010Prop41ColorIndex
 90
       18
102
RTVSPost2010Prop41ColorRGB
 90
        0
102
RTVSPost2010PropOp41
 70
     0
102
RTVSPost2010Prop42
 90
       50
102
RTVSPost2010PropOp42
 70
     0
102
RTVSPost2010Prop43
 90
        3
102
RTVSPost2010PropOp43
 70
     0
102
RTVSPost2010Prop44ColorIndex
 90
        5
102
RTVSPost2010Prop44ColorRGB
 90
      255
102
RTVSPost2010PropOp44
 70
     0
102
RTVSPost2010Prop45
280
     0
102
RTVSPost2010PropOp45
 70
     1
102
RTVSPost2010Prop46
 90
       50
102
RTVSPost2010PropOp46
 70
     0
102
RTVSPost2010Prop47
 90
       50
102
RTVSPost2010PropOp47
 70
     0
102
RTVSPost2010Prop48
 90
       50
102
RTVSPost2010PropOp48
 70
     0
102
RTVSPost2010Prop49
280
     0
102
RTVSPost2010PropOp49
 70
     1
102
RTVSPost2010Prop50
 90
       50
102
RTVSPost2010PropOp50
 70
     0
102
RTVSPost2010Prop51ColorIndex
 90
      256
102
RTVSPost2010Prop51ColorRGB
 90
-16777216
102
RTVSPost2010PropOp51
 70
     0
102
RTVSPost2010Prop52
140
1.0
102
RTVSPost2010PropOp52
 70
     0
102
RTVSPost2010Prop53
 90
        2
102
RTVSPost2010PropOp53
 70
     0
102
RTVSPost2010Prop54
  1
strokes_ogs.tif
102
RTVSPost2010PropOp54
 70
     0
102
RTVSPost2010Prop55
280
     0
102
RTVSPost2010PropOp55
 70
     1
102
RTVSPost2010Prop56
140
1.0
102
RTVSPost2010PropOp56
 70
     0
102
RTVSPost2010Prop57
140
1.0
102
RTVSPost2010PropOp57
 70
     0
102
RTVSPropertyOp0
 70
     0
102
RTVSPropertyOp1
 70
     0
102
RTVSPropertyOp2
 70
     0
102
RTVSPropertyOp3
 70
     0
102
RTVSPropertyOp4
 70
     0
102
RTVSPropertyOp5
 70
     0
102
RTVSPropertyOp6
 70
     0
102
RTVSPropertyOp7
 70
     0
102
RTVSPropertyOp8
 70
     0
102
RTVSPropertyOp9
 70
     0
102
RTVSPropertyOp10
 70
     0
102
RTVSPropertyOp11
 70
     0
102
RTVSPropertyOp12
 70
     0
102
RTVSPropertyOp13
 70
     0
102
RTVSPropertyOp14
 70
     2
102
RTVSPropertyOp15
 70
     0
102
RTVSPropertyOp16
 70
     0
102
RTVSPropertyOp17
 70
     0
102
RTVSPropertyOp18
 70
     0
102
RTVSPropertyOp19
 70
     0
102
RTVSPropertyOp20
 70
     0
102
RTVSPropertyOp21
 70
     0
102
RTVSPropertyOp22
 70
     0
102
RTVSPropertyOp23
 70
     0
102
RTVSPropertyOp24
 70
     0
102
RTVSPropertyOp25
 70
     0
102
RTVSPropertyOp26
 70
     0
102
RTVSPropertyOp27
 70
     0
102
RTVSPropertyOp28
 70
     1
102
RTVSPropertyOp29
 70
     1
102
RTVSPropertyOp30
 70
     1
102
RTVSPropertyOp31
 70
     1
102
RTVSPropertyOp32
 70
     1
102
RTVSPropertyOp33
 70
     1
102
RTVSPropertyOp34
 70
     1
102
RTVSPropertyOp35
 70
     1
102
RTVSPropertyOp36
 70
     1
102
RTVSPropertyOp37
 70
     0
102
RTVSPropertyOp38
 70
     0
102
RTVSPropertyOp39
 70
     0
102
RTVSPropertyOp40
 70
     0
102
RTVSPropertyOp41
 70
     0
102
RTVSPropertyOp42
 70
     0
102
RTVSPropertyOp43
 70
     0
102
RTVSPropertyOp44
 70
     0
102
RTVSPropertyOp45
 70
     1
102
RTVSPropertyOp46
 70
     0
102
RTVSPropertyOp47
 70
     0
102
RTVSPropertyOp48
 70
     0
102
RTVSPropertyOp49
 70
     1
102
RTVSPropertyOp50
 70
     0
102
RTVSPropertyOp51
 70
     0
102
RTVSPropertyOp52
 70
     0
102
RTVSPropertyOp53
 70
     0
102
RTVSPropertyOp54
 70
     0
102
RTVSPropertyOp55
 70
     1
102
RTVSPropertyOp56
 70
     0
102
RTVSPropertyOp57
 70
     0
102
RTVSPropertyOp58
 70
     1
102
RTVSPropertyOp59
 70
     1
102
RTVSPropertyOp60
 70
     1
102
RTVSPropertyOp61
 70
     1
102
RTVSPropertyOp62
 70
     1
  0
XRECORD
  5
50D
102
{ACAD_REACTORS
330
50C
102
}
330
50C
100
AcDbXrecord
280
     1
102
RTVSPost2010Prop28
280
     0
102
RTVSPost2010PropOp28
 70
     1
102
RTVSPost2010Prop29
280
     1
102
RTVSPost2010PropOp29
 70
     1
102
RTVSPost2010Prop30
280
     1
102
RTVSPost2010PropOp30
 70
     1
102
RTVSPost2010Prop31
280
     0
102
RTVSPost2010PropOp31
 70
     1
102
RTVSPost2010Prop32
280
     0
102
RTVSPost2010PropOp32
 70
     1
102
RTVSPost2010Prop33
280
     0
102
RTVSPost2010PropOp33
 70
     1
102
RTVSPost2010Prop34
280
     0
102
RTVSPost2010PropOp34
 70
     1
102
RTVSPost2010Prop35
280
     0
102
RTVSPost2010PropOp35
 70
     1
102
RTVSPost2010Prop36
280
     0
102
RTVSPost2010PropOp36
 70
     1
102
RTVSPost2010Prop37
 90
       50
102
RTVSPost2010PropOp37
 70
     1
102
RTVSPost2010Prop38
140
0.0
102
RTVSPost2010PropOp38
 70
     1
102
RTVSPost2010Prop39
140
1.0
102
RTVSPost2010PropOp39
 70
     1
102
RTVSPost2010Prop40
 90
        0
102
RTVSPost2010PropOp40
 70
     1
102
RTVSPost2010Prop41ColorIndex
 90
       18
102
RTVSPost2010Prop41ColorRGB
 90
        0
102
RTVSPost2010PropOp41
 70
     1
102
RTVSPost2010Prop42
 90
       50
102
RTVSPost2010PropOp42
 70
     1
102
RTVSPost2010Prop43
 90
        3
102
RTVSPost2010PropOp43
 70
     1
102
RTVSPost2010Prop44ColorIndex
 90
        5
102
RTVSPost2010Prop44ColorRGB
 90
      255
102
RTVSPost2010PropOp44
 70
     1
102
RTVSPost2010Prop45
280
     0
102
RTVSPost2010PropOp45
 70
     1
102
RTVSPost2010Prop46
 90
       50
102
RTVSPost2010PropOp46
 70
     1
102
RTVSPost2010Prop47
 90
       50
102
RTVSPost2010PropOp47
 70
     1
102
RTVSPost2010Prop48
 90
       50
102
RTVSPost2010PropOp48
 70
     1
102
RTVSPost2010Prop49
280
     0
102
RTVSPost2010PropOp49
 70
     1
102
RTVSPost2010Prop50
 90
       50
102
RTVSPost2010PropOp50
 70
     1
102
RTVSPost2010Prop51ColorIndex
 90
      256
102
RTVSPost2010Prop51ColorRGB
 90
-16777216
102
RTVSPost2010PropOp51
 70
     0
102
RTVSPost2010Prop52
140
1.0
102
RTVSPost2010PropOp52
 70
     0
102
RTVSPost2010Prop53
 90
        2
102
RTVSPost2010PropOp53
 70
     1
102
RTVSPost2010Prop54
  1
strokes_ogs.tif
102
RTVSPost2010PropOp54
 70
     1
102
RTVSPost2010Prop55
280
     0
102
RTVSPost2010PropOp55
 70
     1
102
RTVSPost2010Prop56
140
1.0
102
RTVSPost2010PropOp56
 70
     1
102
RTVSPost2010Prop57
140
1.0
102
RTVSPost2010PropOp57
 70
     1
102
RTVSPropertyOp0
 70
     1
102
RTVSPropertyOp1
 70
     1
102
RTVSPropertyOp2
 70
     1
102
RTVSPropertyOp3
 70
     1
102
RTVSPropertyOp4
 70
     1
102
RTVSPropertyOp5
 70
     1
102
RTVSPropertyOp6
 70
     1
102
RTVSPropertyOp7
 70
     1
102
RTVSPropertyOp8
 70
     1
102
RTVSPropertyOp9
 70
     1
102
RTVSPropertyOp10
 70
     1
102
RTVSPropertyOp11
 70
     1
102
RTVSPropertyOp12
 70
     1
102
RTVSPropertyOp13
 70
     1
102
RTVSPropertyOp14
 70
     1
102
RTVSPropertyOp15
 70
     1
102
RTVSPropertyOp16
 70
     1
102
RTVSPropertyOp17
 70
     1
102
RTVSPropertyOp18
 70
     1
102
RTVSPropertyOp19
 70
     1
102
RTVSPropertyOp20
 70
     1
102
RTVSPropertyOp21
 70
     1
102
RTVSPropertyOp22
 70
     1
102
RTVSPropertyOp23
 70
     1
102
RTVSPropertyOp24
 70
     1
102
RTVSPropertyOp25
 70
     1
102
RTVSPropertyOp26
 70
     1
102
RTVSPropertyOp27
 70
     1
102
RTVSPropertyOp28
 70
     1
102
RTVSPropertyOp29
 70
     1
102
RTVSPropertyOp30
 70
     1
102
RTVSPropertyOp31
 70
     1
102
RTVSPropertyOp32
 70
     1
102
RTVSPropertyOp33
 70
     1
102
RTVSPropertyOp34
 70
     1
102
RTVSPropertyOp35
 70
     1
102
RTVSPropertyOp36
 70
     1
102
RTVSPropertyOp37
 70
     1
102
RTVSPropertyOp38
 70
     1
102
RTVSPropertyOp39
 70
     1
102
RTVSPropertyOp40
 70
     1
102
RTVSPropertyOp41
 70
     1
102
RTVSPropertyOp42
 70
     1
102
RTVSPropertyOp43
 70
     1
102
RTVSPropertyOp44
 70
     1
102
RTVSPropertyOp45
 70
     1
102
RTVSPropertyOp46
 70
     1
102
RTVSPropertyOp47
 70
     1
102
RTVSPropertyOp48
 70
     1
102
RTVSPropertyOp49
 70
     1
102
RTVSPropertyOp50
 70
     1
102
RTVSPropertyOp51
 70
     0
102
RTVSPropertyOp52
 70
     0
102
RTVSPropertyOp53
 70
     1
102
RTVSPropertyOp54
 70
     1
102
RTVSPropertyOp55
 70
     1
102
RTVSPropertyOp56
 70
     1
102
RTVSPropertyOp57
 70
     1
102
RTVSPropertyOp58
 70
     1
102
RTVSPropertyOp59
 70
     1
102
RTVSPropertyOp60
 70
     1
102
RTVSPropertyOp61
 70
     1
102
RTVSPropertyOp62
 70
     1
  0
XRECORD
  5
4F1
102
{ACAD_REACTORS
330
4F0
102
}
330
4F0
100
AcDbXrecord
280
     1
102
RTVSPost2010Prop28
280
     0
102
RTVSPost2010PropOp28
 70
     1
102
RTVSPost2010Prop29
280
     1
102
RTVSPost2010PropOp29
 70
     1
102
RTVSPost2010Prop30
280
     1
102
RTVSPost2010PropOp30
 70
     1
102
RTVSPost2010Prop31
280
     0
102
RTVSPost2010PropOp31
 70
     1
102
RTVSPost2010Prop32
280
     0
102
RTVSPost2010PropOp32
 70
     1
102
RTVSPost2010Prop33
280
     0
102
RTVSPost2010PropOp33
 70
     1
102
RTVSPost2010Prop34
280
     0
102
RTVSPost2010PropOp34
 70
     1
102
RTVSPost2010Prop35
280
     0
102
RTVSPost2010PropOp35
 70
     1
102
RTVSPost2010Prop36
280
     0
102
RTVSPost2010PropOp36
 70
     1
102
RTVSPost2010Prop37
 90
       50
102
RTVSPost2010PropOp37
 70
     1
102
RTVSPost2010Prop38
140
0.0
102
RTVSPost2010PropOp38
 70
     1
102
RTVSPost2010Prop39
140
1.0
102
RTVSPost2010PropOp39
 70
     1
102
RTVSPost2010Prop40
 90
        0
102
RTVSPost2010PropOp40
 70
     1
102
RTVSPost2010Prop41ColorIndex
 90
       18
102
RTVSPost2010Prop41ColorRGB
 90
        0
102
RTVSPost2010PropOp41
 70
     1
102
RTVSPost2010Prop42
 90
       50
102
RTVSPost2010PropOp42
 70
     1
102
RTVSPost2010Prop43
 90
        3
102
RTVSPost2010PropOp43
 70
     1
102
RTVSPost2010Prop44ColorIndex
 90
        5
102
RTVSPost2010Prop44ColorRGB
 90
      255
102
RTVSPost2010PropOp44
 70
     1
102
RTVSPost2010Prop45
280
     0
102
RTVSPost2010PropOp45
 70
     1
102
RTVSPost2010Prop46
 90
       50
102
RTVSPost2010PropOp46
 70
     1
102
RTVSPost2010Prop47
 90
       50
102
RTVSPost2010PropOp47
 70
     1
102
RTVSPost2010Prop48
 90
       50
102
RTVSPost2010PropOp48
 70
     1
102
RTVSPost2010Prop49
280
     0
102
RTVSPost2010PropOp49
 70
     1
102
RTVSPost2010Prop50
 90
       50
102
RTVSPost2010PropOp50
 70
     1
102
RTVSPost2010Prop51ColorIndex
 90
      256
102
RTVSPost2010Prop51ColorRGB
 90
-16777216
102
RTVSPost2010PropOp51
 70
     0
102
RTVSPost2010Prop52
140
1.0
102
RTVSPost2010PropOp52
 70
     0
102
RTVSPost2010Prop53
 90
        2
102
RTVSPost2010PropOp53
 70
     1
102
RTVSPost2010Prop54
  1
strokes_ogs.tif
102
RTVSPost2010PropOp54
 70
     1
102
RTVSPost2010Prop55
280
     0
102
RTVSPost2010PropOp55
 70
     1
102
RTVSPost2010Prop56
140
1.0
102
RTVSPost2010PropOp56
 70
     1
102
RTVSPost2010Prop57
140
1.0
102
RTVSPost2010PropOp57
 70
     1
102
RTVSPropertyOp0
 70
     1
102
RTVSPropertyOp1
 70
     1
102
RTVSPropertyOp2
 70
     1
102
RTVSPropertyOp3
 70
     1
102
RTVSPropertyOp4
 70
     1
102
RTVSPropertyOp5
 70
     1
102
RTVSPropertyOp6
 70
     1
102
RTVSPropertyOp7
 70
     1
102
RTVSPropertyOp8
 70
     1
102
RTVSPropertyOp9
 70
     1
102
RTVSPropertyOp10
 70
     1
102
RTVSPropertyOp11
 70
     1
102
RTVSPropertyOp12
 70
     1
102
RTVSPropertyOp13
 70
     1
102
RTVSPropertyOp14
 70
     1
102
RTVSPropertyOp15
 70
     1
102
RTVSPropertyOp16
 70
     1
102
RTVSPropertyOp17
 70
     1
102
RTVSPropertyOp18
 70
     1
102
RTVSPropertyOp19
 70
     1
102
RTVSPropertyOp20
 70
     1
102
RTVSPropertyOp21
 70
     1
102
RTVSPropertyOp22
 70
     1
102
RTVSPropertyOp23
 70
     1
102
RTVSPropertyOp24
 70
     1
102
RTVSPropertyOp25
 70
     1
102
RTVSPropertyOp26
 70
     1
102
RTVSPropertyOp27
 70
     1
102
RTVSPropertyOp28
 70
     1
102
RTVSPropertyOp29
 70
     1
102
RTVSPropertyOp30
 70
     1
102
RTVSPropertyOp31
 70
     1
102
RTVSPropertyOp32
 70
     1
102
RTVSPropertyOp33
 70
     1
102
RTVSPropertyOp34
 70
     1
102
RTVSPropertyOp35
 70
     1
102
RTVSPropertyOp36
 70
     1
102
RTVSPropertyOp37
 70
     1
102
RTVSPropertyOp38
 70
     1
102
RTVSPropertyOp39
 70
     1
102
RTVSPropertyOp40
 70
     1
102
RTVSPropertyOp41
 70
     1
102
RTVSPropertyOp42
 70
     1
102
RTVSPropertyOp43
 70
     1
102
RTVSPropertyOp44
 70
     1
102
RTVSPropertyOp45
 70
     1
102
RTVSPropertyOp46
 70
     1
102
RTVSPropertyOp47
 70
     1
102
RTVSPropertyOp48
 70
     1
102
RTVSPropertyOp49
 70
     1
102
RTVSPropertyOp50
 70
     1
102
RTVSPropertyOp51
 70
     0
102
RTVSPropertyOp52
 70
     0
102
RTVSPropertyOp53
 70
     1
102
RTVSPropertyOp54
 70
     1
102
RTVSPropertyOp55
 70
     1
102
RTVSPropertyOp56
 70
     1
102
RTVSPropertyOp57
 70
     1
102
RTVSPropertyOp58
 70
     1
102
RTVSPropertyOp59
 70
     1
102
RTVSPropertyOp60
 70
     1
102
RTVSPropertyOp61
 70
     1
102
RTVSPropertyOp62
 70
     1
  0
XRECORD
  5
4F3
102
{ACAD_REACTORS
330
4F2
102
}
330
4F2
100
AcDbXrecord
280
     1
102
RTVSPost2010Prop28
280
     0
102
RTVSPost2010PropOp28
 70
     1
102
RTVSPost2010Prop29
280
     1
102
RTVSPost2010PropOp29
 70
     1
102
RTVSPost2010Prop30
280
     1
102
RTVSPost2010PropOp30
 70
     1
102
RTVSPost2010Prop31
280
     0
102
RTVSPost2010PropOp31
 70
     1
102
RTVSPost2010Prop32
280
     0
102
RTVSPost2010PropOp32
 70
     1
102
RTVSPost2010Prop33
280
     0
102
RTVSPost2010PropOp33
 70
     1
102
RTVSPost2010Prop34
280
     0
102
RTVSPost2010PropOp34
 70
     1
102
RTVSPost2010Prop35
280
     0
102
RTVSPost2010PropOp35
 70
     1
102
RTVSPost2010Prop36
280
     0
102
RTVSPost2010PropOp36
 70
     1
102
RTVSPost2010Prop37
 90
       50
102
RTVSPost2010PropOp37
 70
     1
102
RTVSPost2010Prop38
140
0.0
102
RTVSPost2010PropOp38
 70
     1
102
RTVSPost2010Prop39
140
1.0
102
RTVSPost2010PropOp39
 70
     1
102
RTVSPost2010Prop40
 90
        0
102
RTVSPost2010PropOp40
 70
     1
102
RTVSPost2010Prop41ColorIndex
 90
       18
102
RTVSPost2010Prop41ColorRGB
 90
        0
102
RTVSPost2010PropOp41
 70
     1
102
RTVSPost2010Prop42
 90
       50
102
RTVSPost2010PropOp42
 70
     1
102
RTVSPost2010Prop43
 90
        3
102
RTVSPost2010PropOp43
 70
     1
102
RTVSPost2010Prop44ColorIndex
 90
        5
102
RTVSPost2010Prop44ColorRGB
 90
      255
102
RTVSPost2010PropOp44
 70
     1
102
RTVSPost2010Prop45
280
     0
102
RTVSPost2010PropOp45
 70
     1
102
RTVSPost2010Prop46
 90
       50
102
RTVSPost2010PropOp46
 70
     1
102
RTVSPost2010Prop47
 90
       50
102
RTVSPost2010PropOp47
 70
     1
102
RTVSPost2010Prop48
 90
       50
102
RTVSPost2010PropOp48
 70
     1
102
RTVSPost2010Prop49
280
     0
102
RTVSPost2010PropOp49
 70
     1
102
RTVSPost2010Prop50
 90
       50
102
RTVSPost2010PropOp50
 70
     1
102
RTVSPost2010Prop51ColorIndex
 90
      256
102
RTVSPost2010Prop51ColorRGB
 90
-16777216
102
RTVSPost2010PropOp51
 70
     0
102
RTVSPost2010Prop52
140
1.0
102
RTVSPost2010PropOp52
 70
     0
102
RTVSPost2010Prop53
 90
        2
102
RTVSPost2010PropOp53
 70
     1
102
RTVSPost2010Prop54
  1
strokes_ogs.tif
102
RTVSPost2010PropOp54
 70
     1
102
RTVSPost2010Prop55
280
     0
102
RTVSPost2010PropOp55
 70
     1
102
RTVSPost2010Prop56
140
1.0
102
RTVSPost2010PropOp56
 70
     1
102
RTVSPost2010Prop57
140
1.0
102
RTVSPost2010PropOp57
 70
     1
102
RTVSPropertyOp0
 70
     1
102
RTVSPropertyOp1
 70
     1
102
RTVSPropertyOp2
 70
     1
102
RTVSPropertyOp3
 70
     1
102
RTVSPropertyOp4
 70
     1
102
RTVSPropertyOp5
 70
     1
102
RTVSPropertyOp6
 70
     1
102
RTVSPropertyOp7
 70
     1
102
RTVSPropertyOp8
 70
     1
102
RTVSPropertyOp9
 70
     1
102
RTVSPropertyOp10
 70
     1
102
RTVSPropertyOp11
 70
     1
102
RTVSPropertyOp12
 70
     1
102
RTVSPropertyOp13
 70
     1
102
RTVSPropertyOp14
 70
     1
102
RTVSPropertyOp15
 70
     1
102
RTVSPropertyOp16
 70
     1
102
RTVSPropertyOp17
 70
     1
102
RTVSPropertyOp18
 70
     1
102
RTVSPropertyOp19
 70
     1
102
RTVSPropertyOp20
 70
     1
102
RTVSPropertyOp21
 70
     1
102
RTVSPropertyOp22
 70
     1
102
RTVSPropertyOp23
 70
     1
102
RTVSPropertyOp24
 70
     1
102
RTVSPropertyOp25
 70
     1
102
RTVSPropertyOp26
 70
     1
102
RTVSPropertyOp27
 70
     1
102
RTVSPropertyOp28
 70
     1
102
RTVSPropertyOp29
 70
     1
102
RTVSPropertyOp30
 70
     1
102
RTVSPropertyOp31
 70
     1
102
RTVSPropertyOp32
 70
     1
102
RTVSPropertyOp33
 70
     1
102
RTVSPropertyOp34
 70
     1
102
RTVSPropertyOp35
 70
     1
102
RTVSPropertyOp36
 70
     1
102
RTVSPropertyOp37
 70
     1
102
RTVSPropertyOp38
 70
     1
102
RTVSPropertyOp39
 70
     1
102
RTVSPropertyOp40
 70
     1
102
RTVSPropertyOp41
 70
     1
102
RTVSPropertyOp42
 70
     1
102
RTVSPropertyOp43
 70
     1
102
RTVSPropertyOp44
 70
     1
102
RTVSPropertyOp45
 70
     1
102
RTVSPropertyOp46
 70
     1
102
RTVSPropertyOp47
 70
     1
102
RTVSPropertyOp48
 70
     1
102
RTVSPropertyOp49
 70
     1
102
RTVSPropertyOp50
 70
     1
102
RTVSPropertyOp51
 70
     0
102
RTVSPropertyOp52
 70
     0
102
RTVSPropertyOp53
 70
     1
102
RTVSPropertyOp54
 70
     1
102
RTVSPropertyOp55
 70
     1
102
RTVSPropertyOp56
 70
     1
102
RTVSPropertyOp57
 70
     1
102
RTVSPropertyOp58
 70
     1
102
RTVSPropertyOp59
 70
     1
102
RTVSPropertyOp60
 70
     1
102
RTVSPropertyOp61
 70
     1
102
RTVSPropertyOp62
 70
     1
  0
XRECORD
  5
4F5
102
{ACAD_REACTORS
330
4F4
102
}
330
4F4
100
AcDbXrecord
280
     1
102
RTVSPost2010Prop28
280
     0
102
RTVSPost2010PropOp28
 70
     1
102
RTVSPost2010Prop29
280
     1
102
RTVSPost2010PropOp29
 70
     1
102
RTVSPost2010Prop30
280
     1
102
RTVSPost2010PropOp30
 70
     1
102
RTVSPost2010Prop31
280
     0
102
RTVSPost2010PropOp31
 70
     1
102
RTVSPost2010Prop32
280
     0
102
RTVSPost2010PropOp32
 70
     1
102
RTVSPost2010Prop33
280
     0
102
RTVSPost2010PropOp33
 70
     1
102
RTVSPost2010Prop34
280
     0
102
RTVSPost2010PropOp34
 70
     1
102
RTVSPost2010Prop35
280
     0
102
RTVSPost2010PropOp35
 70
     1
102
RTVSPost2010Prop36
280
     0
102
RTVSPost2010PropOp36
 70
     1
102
RTVSPost2010Prop37
 90
       50
102
RTVSPost2010PropOp37
 70
     1
102
RTVSPost2010Prop38
140
0.0
102
RTVSPost2010PropOp38
 70
     1
102
RTVSPost2010Prop39
140
1.0
102
RTVSPost2010PropOp39
 70
     1
102
RTVSPost2010Prop40
 90
        0
102
RTVSPost2010PropOp40
 70
     1
102
RTVSPost2010Prop41ColorIndex
 90
       18
102
RTVSPost2010Prop41ColorRGB
 90
        0
102
RTVSPost2010PropOp41
 70
     1
102
RTVSPost2010Prop42
 90
       50
102
RTVSPost2010PropOp42
 70
     1
102
RTVSPost2010Prop43
 90
        3
102
RTVSPost2010PropOp43
 70
     1
102
RTVSPost2010Prop44ColorIndex
 90
        5
102
RTVSPost2010Prop44ColorRGB
 90
      255
102
RTVSPost2010PropOp44
 70
     1
102
RTVSPost2010Prop45
280
     0
102
RTVSPost2010PropOp45
 70
     1
102
RTVSPost2010Prop46
 90
       50
102
RTVSPost2010PropOp46
 70
     1
102
RTVSPost2010Prop47
 90
       50
102
RTVSPost2010PropOp47
 70
     1
102
RTVSPost2010Prop48
 90
       50
102
RTVSPost2010PropOp48
 70
     1
102
RTVSPost2010Prop49
280
     0
102
RTVSPost2010PropOp49
 70
     1
102
RTVSPost2010Prop50
 90
       50
102
RTVSPost2010PropOp50
 70
     1
102
RTVSPost2010Prop51ColorIndex
 90
      256
102
RTVSPost2010Prop51ColorRGB
 90
-16777216
102
RTVSPost2010PropOp51
 70
     0
102
RTVSPost2010Prop52
140
1.0
102
RTVSPost2010PropOp52
 70
     0
102
RTVSPost2010Prop53
 90
        2
102
RTVSPost2010PropOp53
 70
     1
102
RTVSPost2010Prop54
  1
strokes_ogs.tif
102
RTVSPost2010PropOp54
 70
     1
102
RTVSPost2010Prop55
280
     0
102
RTVSPost2010PropOp55
 70
     1
102
RTVSPost2010Prop56
140
1.0
102
RTVSPost2010PropOp56
 70
     1
102
RTVSPost2010Prop57
140
1.0
102
RTVSPost2010PropOp57
 70
     1
102
RTVSPropertyOp0
 70
     1
102
RTVSPropertyOp1
 70
     1
102
RTVSPropertyOp2
 70
     1
102
RTVSPropertyOp3
 70
     1
102
RTVSPropertyOp4
 70
     1
102
RTVSPropertyOp5
 70
     1
102
RTVSPropertyOp6
 70
     1
102
RTVSPropertyOp7
 70
     1
102
RTVSPropertyOp8
 70
     1
102
RTVSPropertyOp9
 70
     1
102
RTVSPropertyOp10
 70
     1
102
RTVSPropertyOp11
 70
     1
102
RTVSPropertyOp12
 70
     1
102
RTVSPropertyOp13
 70
     1
102
RTVSPropertyOp14
 70
     1
102
RTVSPropertyOp15
 70
     1
102
RTVSPropertyOp16
 70
     1
102
RTVSPropertyOp17
 70
     1
102
RTVSPropertyOp18
 70
     1
102
RTVSPropertyOp19
 70
     1
102
RTVSPropertyOp20
 70
     1
102
RTVSPropertyOp21
 70
     1
102
RTVSPropertyOp22
 70
     1
102
RTVSPropertyOp23
 70
     1
102
RTVSPropertyOp24
 70
     1
102
RTVSPropertyOp25
 70
     1
102
RTVSPropertyOp26
 70
     1
102
RTVSPropertyOp27
 70
     1
102
RTVSPropertyOp28
 70
     1
102
RTVSPropertyOp29
 70
     1
102
RTVSPropertyOp30
 70
     1
102
RTVSPropertyOp31
 70
     1
102
RTVSPropertyOp32
 70
     1
102
RTVSPropertyOp33
 70
     1
102
RTVSPropertyOp34
 70
     1
102
RTVSPropertyOp35
 70
     1
102
RTVSPropertyOp36
 70
     1
102
RTVSPropertyOp37
 70
     1
102
RTVSPropertyOp38
 70
     1
102
RTVSPropertyOp39
 70
     1
102
RTVSPropertyOp40
 70
     1
102
RTVSPropertyOp41
 70
     1
102
RTVSPropertyOp42
 70
     1
102
RTVSPropertyOp43
 70
     1
102
RTVSPropertyOp44
 70
     1
102
RTVSPropertyOp45
 70
     1
102
RTVSPropertyOp46
 70
     1
102
RTVSPropertyOp47
 70
     1
102
RTVSPropertyOp48
 70
     1
102
RTVSPropertyOp49
 70
     1
102
RTVSPropertyOp50
 70
     1
102
RTVSPropertyOp51
 70
     0
102
RTVSPropertyOp52
 70
     0
102
RTVSPropertyOp53
 70
     1
102
RTVSPropertyOp54
 70
     1
102
RTVSPropertyOp55
 70
     1
102
RTVSPropertyOp56
 70
     1
102
RTVSPropertyOp57
 70
     1
102
RTVSPropertyOp58
 70
     1
102
RTVSPropertyOp59
 70
     1
102
RTVSPropertyOp60
 70
     1
102
RTVSPropertyOp61
 70
     1
102
RTVSPropertyOp62
 70
     1
  0
XRECORD
  5
4F7
102
{ACAD_REACTORS
330
4F6
102
}
330
4F6
100
AcDbXrecord
280
     1
102
RTVSPost2010Prop28
280
     0
102
RTVSPost2010PropOp28
 70
     1
102
RTVSPost2010Prop29
280
     1
102
RTVSPost2010PropOp29
 70
     1
102
RTVSPost2010Prop30
280
     1
102
RTVSPost2010PropOp30
 70
     1
102
RTVSPost2010Prop31
280
     0
102
RTVSPost2010PropOp31
 70
     1
102
RTVSPost2010Prop32
280
     0
102
RTVSPost2010PropOp32
 70
     1
102
RTVSPost2010Prop33
280
     0
102
RTVSPost2010PropOp33
 70
     1
102
RTVSPost2010Prop34
280
     0
102
RTVSPost2010PropOp34
 70
     1
102
RTVSPost2010Prop35
280
     0
102
RTVSPost2010PropOp35
 70
     1
102
RTVSPost2010Prop36
280
     0
102
RTVSPost2010PropOp36
 70
     1
102
RTVSPost2010Prop37
 90
       50
102
RTVSPost2010PropOp37
 70
     1
102
RTVSPost2010Prop38
140
0.0
102
RTVSPost2010PropOp38
 70
     1
102
RTVSPost2010Prop39
140
1.0
102
RTVSPost2010PropOp39
 70
     1
102
RTVSPost2010Prop40
 90
        0
102
RTVSPost2010PropOp40
 70
     1
102
RTVSPost2010Prop41ColorIndex
 90
       18
102
RTVSPost2010Prop41ColorRGB
 90
        0
102
RTVSPost2010PropOp41
 70
     1
102
RTVSPost2010Prop42
 90
       50
102
RTVSPost2010PropOp42
 70
     1
102
RTVSPost2010Prop43
 90
        3
102
RTVSPost2010PropOp43
 70
     1
102
RTVSPost2010Prop44ColorIndex
 90
        5
102
RTVSPost2010Prop44ColorRGB
 90
      255
102
RTVSPost2010PropOp44
 70
     1
102
RTVSPost2010Prop45
280
     0
102
RTVSPost2010PropOp45
 70
     1
102
RTVSPost2010Prop46
 90
       50
102
RTVSPost2010PropOp46
 70
     1
102
RTVSPost2010Prop47
 90
       50
102
RTVSPost2010PropOp47
 70
     1
102
RTVSPost2010Prop48
 90
       50
102
RTVSPost2010PropOp48
 70
     1
102
RTVSPost2010Prop49
280
     0
102
RTVSPost2010PropOp49
 70
     1
102
RTVSPost2010Prop50
 90
       50
102
RTVSPost2010PropOp50
 70
     1
102
RTVSPost2010Prop51ColorIndex
 90
      256
102
RTVSPost2010Prop51ColorRGB
 90
-16777216
102
RTVSPost2010PropOp51
 70
     0
102
RTVSPost2010Prop52
140
1.0
102
RTVSPost2010PropOp52
 70
     0
102
RTVSPost2010Prop53
 90
        2
102
RTVSPost2010PropOp53
 70
     1
102
RTVSPost2010Prop54
  1
strokes_ogs.tif
102
RTVSPost2010PropOp54
 70
     1
102
RTVSPost2010Prop55
280
     0
102
RTVSPost2010PropOp55
 70
     1
102
RTVSPost2010Prop56
140
1.0
102
RTVSPost2010PropOp56
 70
     1
102
RTVSPost2010Prop57
140
1.0
102
RTVSPost2010PropOp57
 70
     1
102
RTVSPropertyOp0
 70
     1
102
RTVSPropertyOp1
 70
     1
102
RTVSPropertyOp2
 70
     1
102
RTVSPropertyOp3
 70
     1
102
RTVSPropertyOp4
 70
     1
102
RTVSPropertyOp5
 70
     1
102
RTVSPropertyOp6
 70
     1
102
RTVSPropertyOp7
 70
     1
102
RTVSPropertyOp8
 70
     1
102
RTVSPropertyOp9
 70
     1
102
RTVSPropertyOp10
 70
     1
102
RTVSPropertyOp11
 70
     1
102
RTVSPropertyOp12
 70
     1
102
RTVSPropertyOp13
 70
     1
102
RTVSPropertyOp14
 70
     1
102
RTVSPropertyOp15
 70
     1
102
RTVSPropertyOp16
 70
     1
102
RTVSPropertyOp17
 70
     1
102
RTVSPropertyOp18
 70
     1
102
RTVSPropertyOp19
 70
     1
102
RTVSPropertyOp20
 70
     1
102
RTVSPropertyOp21
 70
     1
102
RTVSPropertyOp22
 70
     1
102
RTVSPropertyOp23
 70
     1
102
RTVSPropertyOp24
 70
     1
102
RTVSPropertyOp25
 70
     1
102
RTVSPropertyOp26
 70
     1
102
RTVSPropertyOp27
 70
     1
102
RTVSPropertyOp28
 70
     1
102
RTVSPropertyOp29
 70
     1
102
RTVSPropertyOp30
 70
     1
102
RTVSPropertyOp31
 70
     1
102
RTVSPropertyOp32
 70
     1
102
RTVSPropertyOp33
 70
     1
102
RTVSPropertyOp34
 70
     1
102
RTVSPropertyOp35
 70
     1
102
RTVSPropertyOp36
 70
     1
102
RTVSPropertyOp37
 70
     1
102
RTVSPropertyOp38
 70
     1
102
RTVSPropertyOp39
 70
     1
102
RTVSPropertyOp40
 70
     1
102
RTVSPropertyOp41
 70
     1
102
RTVSPropertyOp42
 70
     1
102
RTVSPropertyOp43
 70
     1
102
RTVSPropertyOp44
 70
     1
102
RTVSPropertyOp45
 70
     1
102
RTVSPropertyOp46
 70
     1
102
RTVSPropertyOp47
 70
     1
102
RTVSPropertyOp48
 70
     1
102
RTVSPropertyOp49
 70
     1
102
RTVSPropertyOp50
 70
     1
102
RTVSPropertyOp51
 70
     0
102
RTVSPropertyOp52
 70
     0
102
RTVSPropertyOp53
 70
     1
102
RTVSPropertyOp54
 70
     1
102
RTVSPropertyOp55
 70
     1
102
RTVSPropertyOp56
 70
     1
102
RTVSPropertyOp57
 70
     1
102
RTVSPropertyOp58
 70
     1
102
RTVSPropertyOp59
 70
     1
102
RTVSPropertyOp60
 70
     1
102
RTVSPropertyOp61
 70
     1
102
RTVSPropertyOp62
 70
     1
  0
XRECORD
  5
4FF
102
{ACAD_REACTORS
330
4FE
102
}
330
4FE
100
AcDbXrecord
280
     1
102
RTVSPost2010Prop28
280
     0
102
RTVSPost2010PropOp28
 70
     1
102
RTVSPost2010Prop29
280
     1
102
RTVSPost2010PropOp29
 70
     1
102
RTVSPost2010Prop30
280
     1
102
RTVSPost2010PropOp30
 70
     1
102
RTVSPost2010Prop31
280
     0
102
RTVSPost2010PropOp31
 70
     1
102
RTVSPost2010Prop32
280
     0
102
RTVSPost2010PropOp32
 70
     1
102
RTVSPost2010Prop33
280
     0
102
RTVSPost2010PropOp33
 70
     1
102
RTVSPost2010Prop34
280
     0
102
RTVSPost2010PropOp34
 70
     1
102
RTVSPost2010Prop35
280
     0
102
RTVSPost2010PropOp35
 70
     1
102
RTVSPost2010Prop36
280
     0
102
RTVSPost2010PropOp36
 70
     1
102
RTVSPost2010Prop37
 90
       50
102
RTVSPost2010PropOp37
 70
     1
102
RTVSPost2010Prop38
140
0.0
102
RTVSPost2010PropOp38
 70
     1
102
RTVSPost2010Prop39
140
1.0
102
RTVSPost2010PropOp39
 70
     1
102
RTVSPost2010Prop40
 90
        0
102
RTVSPost2010PropOp40
 70
     1
102
RTVSPost2010Prop41ColorIndex
 90
       18
102
RTVSPost2010Prop41ColorRGB
 90
        0
102
RTVSPost2010PropOp41
 70
     1
102
RTVSPost2010Prop42
 90
       50
102
RTVSPost2010PropOp42
 70
     1
102
RTVSPost2010Prop43
 90
        3
102
RTVSPost2010PropOp43
 70
     1
102
RTVSPost2010Prop44ColorIndex
 90
        5
102
RTVSPost2010Prop44ColorRGB
 90
      255
102
RTVSPost2010PropOp44
 70
     1
102
RTVSPost2010Prop45
280
     0
102
RTVSPost2010PropOp45
 70
     1
102
RTVSPost2010Prop46
 90
       50
102
RTVSPost2010PropOp46
 70
     1
102
RTVSPost2010Prop47
 90
       50
102
RTVSPost2010PropOp47
 70
     1
102
RTVSPost2010Prop48
 90
       50
102
RTVSPost2010PropOp48
 70
     1
102
RTVSPost2010Prop49
280
     0
102
RTVSPost2010PropOp49
 70
     1
102
RTVSPost2010Prop50
 90
       50
102
RTVSPost2010PropOp50
 70
     1
102
RTVSPost2010Prop51ColorIndex
 90
      256
102
RTVSPost2010Prop51ColorRGB
 90
-16777216
102
RTVSPost2010PropOp51
 70
     0
102
RTVSPost2010Prop52
140
1.0
102
RTVSPost2010PropOp52
 70
     0
102
RTVSPost2010Prop53
 90
        2
102
RTVSPost2010PropOp53
 70
     1
102
RTVSPost2010Prop54
  1
strokes_ogs.tif
102
RTVSPost2010PropOp54
 70
     1
102
RTVSPost2010Prop55
280
     0
102
RTVSPost2010PropOp55
 70
     1
102
RTVSPost2010Prop56
140
1.0
102
RTVSPost2010PropOp56
 70
     1
102
RTVSPost2010Prop57
140
1.0
102
RTVSPost2010PropOp57
 70
     1
102
RTVSPropertyOp0
 70
     1
102
RTVSPropertyOp1
 70
     1
102
RTVSPropertyOp2
 70
     1
102
RTVSPropertyOp3
 70
     1
102
RTVSPropertyOp4
 70
     1
102
RTVSPropertyOp5
 70
     1
102
RTVSPropertyOp6
 70
     1
102
RTVSPropertyOp7
 70
     1
102
RTVSPropertyOp8
 70
     1
102
RTVSPropertyOp9
 70
     1
102
RTVSPropertyOp10
 70
     1
102
RTVSPropertyOp11
 70
     1
102
RTVSPropertyOp12
 70
     1
102
RTVSPropertyOp13
 70
     1
102
RTVSPropertyOp14
 70
     1
102
RTVSPropertyOp15
 70
     1
102
RTVSPropertyOp16
 70
     1
102
RTVSPropertyOp17
 70
     1
102
RTVSPropertyOp18
 70
     1
102
RTVSPropertyOp19
 70
     1
102
RTVSPropertyOp20
 70
     1
102
RTVSPropertyOp21
 70
     1
102
RTVSPropertyOp22
 70
     1
102
RTVSPropertyOp23
 70
     1
102
RTVSPropertyOp24
 70
     1
102
RTVSPropertyOp25
 70
     1
102
RTVSPropertyOp26
 70
     1
102
RTVSPropertyOp27
 70
     1
102
RTVSPropertyOp28
 70
     1
102
RTVSPropertyOp29
 70
     1
102
RTVSPropertyOp30
 70
     1
102
RTVSPropertyOp31
 70
     1
102
RTVSPropertyOp32
 70
     1
102
RTVSPropertyOp33
 70
     1
102
RTVSPropertyOp34
 70
     1
102
RTVSPropertyOp35
 70
     1
102
RTVSPropertyOp36
 70
     1
102
RTVSPropertyOp37
 70
     1
102
RTVSPropertyOp38
 70
     1
102
RTVSPropertyOp39
 70
     1
102
RTVSPropertyOp40
 70
     1
102
RTVSPropertyOp41
 70
     1
102
RTVSPropertyOp42
 70
     1
102
RTVSPropertyOp43
 70
     1
102
RTVSPropertyOp44
 70
     1
102
RTVSPropertyOp45
 70
     1
102
RTVSPropertyOp46
 70
     1
102
RTVSPropertyOp47
 70
     1
102
RTVSPropertyOp48
 70
     1
102
RTVSPropertyOp49
 70
     1
102
RTVSPropertyOp50
 70
     1
102
RTVSPropertyOp51
 70
     0
102
RTVSPropertyOp52
 70
     0
102
RTVSPropertyOp53
 70
     1
102
RTVSPropertyOp54
 70
     1
102
RTVSPropertyOp55
 70
     1
102
RTVSPropertyOp56
 70
     1
102
RTVSPropertyOp57
 70
     1
102
RTVSPropertyOp58
 70
     1
102
RTVSPropertyOp59
 70
     1
102
RTVSPropertyOp60
 70
     1
102
RTVSPropertyOp61
 70
     1
102
RTVSPropertyOp62
 70
     1
  0
XRECORD
  5
51B
102
{ACAD_REACTORS
330
51A
102
}
330
51A
100
AcDbXrecord
280
     1
102
RTVSPost2010Prop28
280
     0
102
RTVSPost2010PropOp28
 70
     1
102
RTVSPost2010Prop29
280
     1
102
RTVSPost2010PropOp29
 70
     1
102
RTVSPost2010Prop30
280
     1
102
RTVSPost2010PropOp30
 70
     1
102
RTVSPost2010Prop31
280
     0
102
RTVSPost2010PropOp31
 70
     1
102
RTVSPost2010Prop32
280
     0
102
RTVSPost2010PropOp32
 70
     1
102
RTVSPost2010Prop33
280
     0
102
RTVSPost2010PropOp33
 70
     1
102
RTVSPost2010Prop34
280
     0
102
RTVSPost2010PropOp34
 70
     1
102
RTVSPost2010Prop35
280
     0
102
RTVSPost2010PropOp35
 70
     1
102
RTVSPost2010Prop36
280
     0
102
RTVSPost2010PropOp36
 70
     1
102
RTVSPost2010Prop37
 90
       50
102
RTVSPost2010PropOp37
 70
     0
102
RTVSPost2010Prop38
140
0.0
102
RTVSPost2010PropOp38
 70
     0
102
RTVSPost2010Prop39
140
1.0
102
RTVSPost2010PropOp39
 70
     0
102
RTVSPost2010Prop40
 90
        0
102
RTVSPost2010PropOp40
 70
     0
102
RTVSPost2010Prop41ColorIndex
 90
       18
102
RTVSPost2010Prop41ColorRGB
 90
        0
102
RTVSPost2010PropOp41
 70
     0
102
RTVSPost2010Prop42
 90
       50
102
RTVSPost2010PropOp42
 70
     0
102
RTVSPost2010Prop43
 90
        3
102
RTVSPost2010PropOp43
 70
     0
102
RTVSPost2010Prop44ColorIndex
 90
        5
102
RTVSPost2010Prop44ColorRGB
 90
      255
102
RTVSPost2010PropOp44
 70
     0
102
RTVSPost2010Prop45
280
     0
102
RTVSPost2010PropOp45
 70
     1
102
RTVSPost2010Prop46
 90
       50
102
RTVSPost2010PropOp46
 70
     0
102
RTVSPost2010Prop47
 90
       50
102
RTVSPost2010PropOp47
 70
     0
102
RTVSPost2010Prop48
 90
       50
102
RTVSPost2010PropOp48
 70
     0
102
RTVSPost2010Prop49
280
     0
102
RTVSPost2010PropOp49
 70
     1
102
RTVSPost2010Prop50
 90
       50
102
RTVSPost2010PropOp50
 70
     0
102
RTVSPost2010Prop51ColorIndex
 90
      256
102
RTVSPost2010Prop51ColorRGB
 90
-16777216
102
RTVSPost2010PropOp51
 70
     0
102
RTVSPost2010Prop52
140
1.0
102
RTVSPost2010PropOp52
 70
     0
102
RTVSPost2010Prop53
 90
        2
102
RTVSPost2010PropOp53
 70
     0
102
RTVSPost2010Prop54
  1
strokes_ogs.tif
102
RTVSPost2010PropOp54
 70
     0
102
RTVSPost2010Prop55
280
     0
102
RTVSPost2010PropOp55
 70
     1
102
RTVSPost2010Prop56
140
1.0
102
RTVSPost2010PropOp56
 70
     0
102
RTVSPost2010Prop57
140
1.0
102
RTVSPost2010PropOp57
 70
     0
102
RTVSPropertyOp0
 70
     0
102
RTVSPropertyOp1
 70
     0
102
RTVSPropertyOp2
 70
     0
102
RTVSPropertyOp3
 70
     0
102
RTVSPropertyOp4
 70
     0
102
RTVSPropertyOp5
 70
     0
102
RTVSPropertyOp6
 70
     0
102
RTVSPropertyOp7
 70
     0
102
RTVSPropertyOp8
 70
     0
102
RTVSPropertyOp9
 70
     0
102
RTVSPropertyOp10
 70
     0
102
RTVSPropertyOp11
 70
     0
102
RTVSPropertyOp12
 70
     0
102
RTVSPropertyOp13
 70
     0
102
RTVSPropertyOp14
 70
     2
102
RTVSPropertyOp15
 70
     0
102
RTVSPropertyOp16
 70
     0
102
RTVSPropertyOp17
 70
     0
102
RTVSPropertyOp18
 70
     0
102
RTVSPropertyOp19
 70
     0
102
RTVSPropertyOp20
 70
     0
102
RTVSPropertyOp21
 70
     0
102
RTVSPropertyOp22
 70
     0
102
RTVSPropertyOp23
 70
     0
102
RTVSPropertyOp24
 70
     0
102
RTVSPropertyOp25
 70
     0
102
RTVSPropertyOp26
 70
     0
102
RTVSPropertyOp27
 70
     0
102
RTVSPropertyOp28
 70
     1
102
RTVSPropertyOp29
 70
     1
102
RTVSPropertyOp30
 70
     1
102
RTVSPropertyOp31
 70
     1
102
RTVSPropertyOp32
 70
     1
102
RTVSPropertyOp33
 70
     1
102
RTVSPropertyOp34
 70
     1
102
RTVSPropertyOp35
 70
     1
102
RTVSPropertyOp36
 70
     1
102
RTVSPropertyOp37
 70
     0
102
RTVSPropertyOp38
 70
     0
102
RTVSPropertyOp39
 70
     0
102
RTVSPropertyOp40
 70
     0
102
RTVSPropertyOp41
 70
     0
102
RTVSPropertyOp42
 70
     0
102
RTVSPropertyOp43
 70
     0
102
RTVSPropertyOp44
 70
     0
102
RTVSPropertyOp45
 70
     1
102
RTVSPropertyOp46
 70
     0
102
RTVSPropertyOp47
 70
     0
102
RTVSPropertyOp48
 70
     0
102
RTVSPropertyOp49
 70
     1
102
RTVSPropertyOp50
 70
     0
102
RTVSPropertyOp51
 70
     0
102
RTVSPropertyOp52
 70
     0
102
RTVSPropertyOp53
 70
     0
102
RTVSPropertyOp54
 70
     0
102
RTVSPropertyOp55
 70
     1
102
RTVSPropertyOp56
 70
     0
102
RTVSPropertyOp57
 70
     0
102
RTVSPropertyOp58
 70
     1
102
RTVSPropertyOp59
 70
     1
102
RTVSPropertyOp60
 70
     1
102
RTVSPropertyOp61
 70
     1
102
RTVSPropertyOp62
 70
     1
  0
XRECORD
  5
50B
102
{ACAD_REACTORS
330
50A
102
}
330
50A
100
AcDbXrecord
280
     1
102
RTVSPost2010Prop28
280
     0
102
RTVSPost2010PropOp28
 70
     1
102
RTVSPost2010Prop29
280
     1
102
RTVSPost2010PropOp29
 70
     1
102
RTVSPost2010Prop30
280
     1
102
RTVSPost2010PropOp30
 70
     1
102
RTVSPost2010Prop31
280
     0
102
RTVSPost2010PropOp31
 70
     1
102
RTVSPost2010Prop32
280
     0
102
RTVSPost2010PropOp32
 70
     1
102
RTVSPost2010Prop33
280
     0
102
RTVSPost2010PropOp33
 70
     1
102
RTVSPost2010Prop34
280
     0
102
RTVSPost2010PropOp34
 70
     1
102
RTVSPost2010Prop35
280
     0
102
RTVSPost2010PropOp35
 70
     1
102
RTVSPost2010Prop36
280
     0
102
RTVSPost2010PropOp36
 70
     1
102
RTVSPost2010Prop37
 90
       50
102
RTVSPost2010PropOp37
 70
     1
102
RTVSPost2010Prop38
140
0.0
102
RTVSPost2010PropOp38
 70
     1
102
RTVSPost2010Prop39
140
1.0
102
RTVSPost2010PropOp39
 70
     1
102
RTVSPost2010Prop40
 90
        0
102
RTVSPost2010PropOp40
 70
     1
102
RTVSPost2010Prop41ColorIndex
 90
       18
102
RTVSPost2010Prop41ColorRGB
 90
        0
102
RTVSPost2010PropOp41
 70
     1
102
RTVSPost2010Prop42
 90
       50
102
RTVSPost2010PropOp42
 70
     1
102
RTVSPost2010Prop43
 90
        3
102
RTVSPost2010PropOp43
 70
     1
102
RTVSPost2010Prop44ColorIndex
 90
        5
102
RTVSPost2010Prop44ColorRGB
 90
      255
102
RTVSPost2010PropOp44
 70
     1
102
RTVSPost2010Prop45
280
     0
102
RTVSPost2010PropOp45
 70
     1
102
RTVSPost2010Prop46
 90
       50
102
RTVSPost2010PropOp46
 70
     1
102
RTVSPost2010Prop47
 90
       50
102
RTVSPost2010PropOp47
 70
     1
102
RTVSPost2010Prop48
 90
       50
102
RTVSPost2010PropOp48
 70
     1
102
RTVSPost2010Prop49
280
     0
102
RTVSPost2010PropOp49
 70
     1
102
RTVSPost2010Prop50
 90
       50
102
RTVSPost2010PropOp50
 70
     1
102
RTVSPost2010Prop51ColorIndex
 90
      256
102
RTVSPost2010Prop51ColorRGB
 90
-16777216
102
RTVSPost2010PropOp51
 70
     0
102
RTVSPost2010Prop52
140
1.0
102
RTVSPost2010PropOp52
 70
     0
102
RTVSPost2010Prop53
 90
        2
102
RTVSPost2010PropOp53
 70
     1
102
RTVSPost2010Prop54
  1
strokes_ogs.tif
102
RTVSPost2010PropOp54
 70
     1
102
RTVSPost2010Prop55
280
     0
102
RTVSPost2010PropOp55
 70
     1
102
RTVSPost2010Prop56
140
1.0
102
RTVSPost2010PropOp56
 70
     1
102
RTVSPost2010Prop57
140
1.0
102
RTVSPost2010PropOp57
 70
     1
102
RTVSPropertyOp0
 70
     1
102
RTVSPropertyOp1
 70
     1
102
RTVSPropertyOp2
 70
     1
102
RTVSPropertyOp3
 70
     1
102
RTVSPropertyOp4
 70
     1
102
RTVSPropertyOp5
 70
     1
102
RTVSPropertyOp6
 70
     1
102
RTVSPropertyOp7
 70
     1
102
RTVSPropertyOp8
 70
     1
102
RTVSPropertyOp9
 70
     1
102
RTVSPropertyOp10
 70
     1
102
RTVSPropertyOp11
 70
     1
102
RTVSPropertyOp12
 70
     1
102
RTVSPropertyOp13
 70
     1
102
RTVSPropertyOp14
 70
     1
102
RTVSPropertyOp15
 70
     1
102
RTVSPropertyOp16
 70
     1
102
RTVSPropertyOp17
 70
     1
102
RTVSPropertyOp18
 70
     1
102
RTVSPropertyOp19
 70
     1
102
RTVSPropertyOp20
 70
     1
102
RTVSPropertyOp21
 70
     1
102
RTVSPropertyOp22
 70
     1
102
RTVSPropertyOp23
 70
     1
102
RTVSPropertyOp24
 70
     1
102
RTVSPropertyOp25
 70
     1
102
RTVSPropertyOp26
 70
     1
102
RTVSPropertyOp27
 70
     1
102
RTVSPropertyOp28
 70
     1
102
RTVSPropertyOp29
 70
     1
102
RTVSPropertyOp30
 70
     1
102
RTVSPropertyOp31
 70
     1
102
RTVSPropertyOp32
 70
     1
102
RTVSPropertyOp33
 70
     1
102
RTVSPropertyOp34
 70
     1
102
RTVSPropertyOp35
 70
     1
102
RTVSPropertyOp36
 70
     1
102
RTVSPropertyOp37
 70
     1
102
RTVSPropertyOp38
 70
     1
102
RTVSPropertyOp39
 70
     1
102
RTVSPropertyOp40
 70
     1
102
RTVSPropertyOp41
 70
     1
102
RTVSPropertyOp42
 70
     1
102
RTVSPropertyOp43
 70
     1
102
RTVSPropertyOp44
 70
     1
102
RTVSPropertyOp45
 70
     1
102
RTVSPropertyOp46
 70
     1
102
RTVSPropertyOp47
 70
     1
102
RTVSPropertyOp48
 70
     1
102
RTVSPropertyOp49
 70
     1
102
RTVSPropertyOp50
 70
     1
102
RTVSPropertyOp51
 70
     0
102
RTVSPropertyOp52
 70
     0
102
RTVSPropertyOp53
 70
     1
102
RTVSPropertyOp54
 70
     1
102
RTVSPropertyOp55
 70
     1
102
RTVSPropertyOp56
 70
     1
102
RTVSPropertyOp57
 70
     1
102
RTVSPropertyOp58
 70
     1
102
RTVSPropertyOp59
 70
     1
102
RTVSPropertyOp60
 70
     1
102
RTVSPropertyOp61
 70
     1
102
RTVSPropertyOp62
 70
     1
  0
XRECORD
  5
51D
102
{ACAD_REACTORS
330
51C
102
}
330
51C
100
AcDbXrecord
280
     1
102
RTVSPost2010Prop28
280
     0
102
RTVSPost2010PropOp28
 70
     1
102
RTVSPost2010Prop29
280
     1
102
RTVSPost2010PropOp29
 70
     1
102
RTVSPost2010Prop30
280
     1
102
RTVSPost2010PropOp30
 70
     1
102
RTVSPost2010Prop31
280
     0
102
RTVSPost2010PropOp31
 70
     1
102
RTVSPost2010Prop32
280
     0
102
RTVSPost2010PropOp32
 70
     1
102
RTVSPost2010Prop33
280
     0
102
RTVSPost2010PropOp33
 70
     1
102
RTVSPost2010Prop34
280
     0
102
RTVSPost2010PropOp34
 70
     1
102
RTVSPost2010Prop35
280
     0
102
RTVSPost2010PropOp35
 70
     1
102
RTVSPost2010Prop36
280
     0
102
RTVSPost2010PropOp36
 70
     1
102
RTVSPost2010Prop37
 90
       50
102
RTVSPost2010PropOp37
 70
     0
102
RTVSPost2010Prop38
140
0.0
102
RTVSPost2010PropOp38
 70
     0
102
RTVSPost2010Prop39
140
1.0
102
RTVSPost2010PropOp39
 70
     0
102
RTVSPost2010Prop40
 90
        0
102
RTVSPost2010PropOp40
 70
     0
102
RTVSPost2010Prop41ColorIndex
 90
       18
102
RTVSPost2010Prop41ColorRGB
 90
        0
102
RTVSPost2010PropOp41
 70
     0
102
RTVSPost2010Prop42
 90
       50
102
RTVSPost2010PropOp42
 70
     0
102
RTVSPost2010Prop43
 90
        3
102
RTVSPost2010PropOp43
 70
     0
102
RTVSPost2010Prop44ColorIndex
 90
        5
102
RTVSPost2010Prop44ColorRGB
 90
      255
102
RTVSPost2010PropOp44
 70
     0
102
RTVSPost2010Prop45
280
     0
102
RTVSPost2010PropOp45
 70
     1
102
RTVSPost2010Prop46
 90
       50
102
RTVSPost2010PropOp46
 70
     0
102
RTVSPost2010Prop47
 90
       50
102
RTVSPost2010PropOp47
 70
     0
102
RTVSPost2010Prop48
 90
       50
102
RTVSPost2010PropOp48
 70
     0
102
RTVSPost2010Prop49
280
     0
102
RTVSPost2010PropOp49
 70
     1
102
RTVSPost2010Prop50
 90
       50
102
RTVSPost2010PropOp50
 70
     0
102
RTVSPost2010Prop51ColorIndex
 90
      256
102
RTVSPost2010Prop51ColorRGB
 90
-16777216
102
RTVSPost2010PropOp51
 70
     0
102
RTVSPost2010Prop52
140
1.0
102
RTVSPost2010PropOp52
 70
     0
102
RTVSPost2010Prop53
 90
        2
102
RTVSPost2010PropOp53
 70
     0
102
RTVSPost2010Prop54
  1
strokes_ogs.tif
102
RTVSPost2010PropOp54
 70
     0
102
RTVSPost2010Prop55
280
     0
102
RTVSPost2010PropOp55
 70
     1
102
RTVSPost2010Prop56
140
1.0
102
RTVSPost2010PropOp56
 70
     0
102
RTVSPost2010Prop57
140
1.0
102
RTVSPost2010PropOp57
 70
     0
102
RTVSPropertyOp0
 70
     0
102
RTVSPropertyOp1
 70
     0
102
RTVSPropertyOp2
 70
     0
102
RTVSPropertyOp3
 70
     0
102
RTVSPropertyOp4
 70
     0
102
RTVSPropertyOp5
 70
     0
102
RTVSPropertyOp6
 70
     0
102
RTVSPropertyOp7
 70
     0
102
RTVSPropertyOp8
 70
     0
102
RTVSPropertyOp9
 70
     0
102
RTVSPropertyOp10
 70
     0
102
RTVSPropertyOp11
 70
     0
102
RTVSPropertyOp12
 70
     0
102
RTVSPropertyOp13
 70
     0
102
RTVSPropertyOp14
 70
     2
102
RTVSPropertyOp15
 70
     0
102
RTVSPropertyOp16
 70
     0
102
RTVSPropertyOp17
 70
     0
102
RTVSPropertyOp18
 70
     0
102
RTVSPropertyOp19
 70
     0
102
RTVSPropertyOp20
 70
     0
102
RTVSPropertyOp21
 70
     0
102
RTVSPropertyOp22
 70
     0
102
RTVSPropertyOp23
 70
     0
102
RTVSPropertyOp24
 70
     0
102
RTVSPropertyOp25
 70
     0
102
RTVSPropertyOp26
 70
     0
102
RTVSPropertyOp27
 70
     0
102
RTVSPropertyOp28
 70
     1
102
RTVSPropertyOp29
 70
     1
102
RTVSPropertyOp30
 70
     1
102
RTVSPropertyOp31
 70
     1
102
RTVSPropertyOp32
 70
     1
102
RTVSPropertyOp33
 70
     1
102
RTVSPropertyOp34
 70
     1
102
RTVSPropertyOp35
 70
     1
102
RTVSPropertyOp36
 70
     1
102
RTVSPropertyOp37
 70
     0
102
RTVSPropertyOp38
 70
     0
102
RTVSPropertyOp39
 70
     0
102
RTVSPropertyOp40
 70
     0
102
RTVSPropertyOp41
 70
     0
102
RTVSPropertyOp42
 70
     0
102
RTVSPropertyOp43
 70
     0
102
RTVSPropertyOp44
 70
     0
102
RTVSPropertyOp45
 70
     1
102
RTVSPropertyOp46
 70
     0
102
RTVSPropertyOp47
 70
     0
102
RTVSPropertyOp48
 70
     0
102
RTVSPropertyOp49
 70
     1
102
RTVSPropertyOp50
 70
     0
102
RTVSPropertyOp51
 70
     0
102
RTVSPropertyOp52
 70
     0
102
RTVSPropertyOp53
 70
     0
102
RTVSPropertyOp54
 70
     0
102
RTVSPropertyOp55
 70
     1
102
RTVSPropertyOp56
 70
     0
102
RTVSPropertyOp57
 70
     0
102
RTVSPropertyOp58
 70
     1
102
RTVSPropertyOp59
 70
     1
102
RTVSPropertyOp60
 70
     1
102
RTVSPropertyOp61
 70
     1
102
RTVSPropertyOp62
 70
     1
  0
XRECORD
  5
503
102
{ACAD_REACTORS
330
502
102
}
330
502
100
AcDbXrecord
280
     1
102
RTVSPost2010Prop28
280
     0
102
RTVSPost2010PropOp28
 70
     1
102
RTVSPost2010Prop29
280
     1
102
RTVSPost2010PropOp29
 70
     1
102
RTVSPost2010Prop30
280
     1
102
RTVSPost2010PropOp30
 70
     1
102
RTVSPost2010Prop31
280
     0
102
RTVSPost2010PropOp31
 70
     1
102
RTVSPost2010Prop32
280
     0
102
RTVSPost2010PropOp32
 70
     1
102
RTVSPost2010Prop33
280
     0
102
RTVSPost2010PropOp33
 70
     1
102
RTVSPost2010Prop34
280
     0
102
RTVSPost2010PropOp34
 70
     1
102
RTVSPost2010Prop35
280
     0
102
RTVSPost2010PropOp35
 70
     1
102
RTVSPost2010Prop36
280
     0
102
RTVSPost2010PropOp36
 70
     1
102
RTVSPost2010Prop37
 90
       50
102
RTVSPost2010PropOp37
 70
     1
102
RTVSPost2010Prop38
140
0.0
102
RTVSPost2010PropOp38
 70
     1
102
RTVSPost2010Prop39
140
1.0
102
RTVSPost2010PropOp39
 70
     1
102
RTVSPost2010Prop40
 90
        0
102
RTVSPost2010PropOp40
 70
     1
102
RTVSPost2010Prop41ColorIndex
 90
       18
102
RTVSPost2010Prop41ColorRGB
 90
        0
102
RTVSPost2010PropOp41
 70
     1
102
RTVSPost2010Prop42
 90
       50
102
RTVSPost2010PropOp42
 70
     1
102
RTVSPost2010Prop43
 90
        3
102
RTVSPost2010PropOp43
 70
     1
102
RTVSPost2010Prop44ColorIndex
 90
        5
102
RTVSPost2010Prop44ColorRGB
 90
      255
102
RTVSPost2010PropOp44
 70
     1
102
RTVSPost2010Prop45
280
     0
102
RTVSPost2010PropOp45
 70
     1
102
RTVSPost2010Prop46
 90
       50
102
RTVSPost2010PropOp46
 70
     1
102
RTVSPost2010Prop47
 90
       50
102
RTVSPost2010PropOp47
 70
     1
102
RTVSPost2010Prop48
 90
       50
102
RTVSPost2010PropOp48
 70
     1
102
RTVSPost2010Prop49
280
     0
102
RTVSPost2010PropOp49
 70
     1
102
RTVSPost2010Prop50
 90
       50
102
RTVSPost2010PropOp50
 70
     1
102
RTVSPost2010Prop51ColorIndex
 90
      256
102
RTVSPost2010Prop51ColorRGB
 90
-16777216
102
RTVSPost2010PropOp51
 70
     0
102
RTVSPost2010Prop52
140
1.0
102
RTVSPost2010PropOp52
 70
     0
102
RTVSPost2010Prop53
 90
        2
102
RTVSPost2010PropOp53
 70
     1
102
RTVSPost2010Prop54
  1
strokes_ogs.tif
102
RTVSPost2010PropOp54
 70
     1
102
RTVSPost2010Prop55
280
     0
102
RTVSPost2010PropOp55
 70
     1
102
RTVSPost2010Prop56
140
1.0
102
RTVSPost2010PropOp56
 70
     1
102
RTVSPost2010Prop57
140
1.0
102
RTVSPost2010PropOp57
 70
     1
102
RTVSPropertyOp0
 70
     1
102
RTVSPropertyOp1
 70
     1
102
RTVSPropertyOp2
 70
     1
102
RTVSPropertyOp3
 70
     1
102
RTVSPropertyOp4
 70
     1
102
RTVSPropertyOp5
 70
     1
102
RTVSPropertyOp6
 70
     1
102
RTVSPropertyOp7
 70
     1
102
RTVSPropertyOp8
 70
     1
102
RTVSPropertyOp9
 70
     1
102
RTVSPropertyOp10
 70
     1
102
RTVSPropertyOp11
 70
     1
102
RTVSPropertyOp12
 70
     1
102
RTVSPropertyOp13
 70
     1
102
RTVSPropertyOp14
 70
     1
102
RTVSPropertyOp15
 70
     1
102
RTVSPropertyOp16
 70
     1
102
RTVSPropertyOp17
 70
     1
102
RTVSPropertyOp18
 70
     1
102
RTVSPropertyOp19
 70
     1
102
RTVSPropertyOp20
 70
     1
102
RTVSPropertyOp21
 70
     1
102
RTVSPropertyOp22
 70
     1
102
RTVSPropertyOp23
 70
     1
102
RTVSPropertyOp24
 70
     1
102
RTVSPropertyOp25
 70
     1
102
RTVSPropertyOp26
 70
     1
102
RTVSPropertyOp27
 70
     1
102
RTVSPropertyOp28
 70
     1
102
RTVSPropertyOp29
 70
     1
102
RTVSPropertyOp30
 70
     1
102
RTVSPropertyOp31
 70
     1
102
RTVSPropertyOp32
 70
     1
102
RTVSPropertyOp33
 70
     1
102
RTVSPropertyOp34
 70
     1
102
RTVSPropertyOp35
 70
     1
102
RTVSPropertyOp36
 70
     1
102
RTVSPropertyOp37
 70
     1
102
RTVSPropertyOp38
 70
     1
102
RTVSPropertyOp39
 70
     1
102
RTVSPropertyOp40
 70
     1
102
RTVSPropertyOp41
 70
     1
102
RTVSPropertyOp42
 70
     1
102
RTVSPropertyOp43
 70
     1
102
RTVSPropertyOp44
 70
     1
102
RTVSPropertyOp45
 70
     1
102
RTVSPropertyOp46
 70
     1
102
RTVSPropertyOp47
 70
     1
102
RTVSPropertyOp48
 70
     1
102
RTVSPropertyOp49
 70
     1
102
RTVSPropertyOp50
 70
     1
102
RTVSPropertyOp51
 70
     0
102
RTVSPropertyOp52
 70
     0
102
RTVSPropertyOp53
 70
     1
102
RTVSPropertyOp54
 70
     1
102
RTVSPropertyOp55
 70
     1
102
RTVSPropertyOp56
 70
     1
102
RTVSPropertyOp57
 70
     1
102
RTVSPropertyOp58
 70
     1
102
RTVSPropertyOp59
 70
     1
102
RTVSPropertyOp60
 70
     1
102
RTVSPropertyOp61
 70
     1
102
RTVSPropertyOp62
 70
     1
  0
XRECORD
  5
519
102
{ACAD_REACTORS
330
518
102
}
330
518
100
AcDbXrecord
280
     1
102
RTVSPost2010Prop28
280
     0
102
RTVSPost2010PropOp28
 70
     1
102
RTVSPost2010Prop29
280
     1
102
RTVSPost2010PropOp29
 70
     1
102
RTVSPost2010Prop30
280
     1
102
RTVSPost2010PropOp30
 70
     1
102
RTVSPost2010Prop31
280
     0
102
RTVSPost2010PropOp31
 70
     1
102
RTVSPost2010Prop32
280
     0
102
RTVSPost2010PropOp32
 70
     1
102
RTVSPost2010Prop33
280
     0
102
RTVSPost2010PropOp33
 70
     1
102
RTVSPost2010Prop34
280
     0
102
RTVSPost2010PropOp34
 70
     1
102
RTVSPost2010Prop35
280
     0
102
RTVSPost2010PropOp35
 70
     1
102
RTVSPost2010Prop36
280
     0
102
RTVSPost2010PropOp36
 70
     1
102
RTVSPost2010Prop37
 90
       50
102
RTVSPost2010PropOp37
 70
     1
102
RTVSPost2010Prop38
140
0.0
102
RTVSPost2010PropOp38
 70
     1
102
RTVSPost2010Prop39
140
1.0
102
RTVSPost2010PropOp39
 70
     1
102
RTVSPost2010Prop40
 90
        0
102
RTVSPost2010PropOp40
 70
     1
102
RTVSPost2010Prop41ColorIndex
 90
       18
102
RTVSPost2010Prop41ColorRGB
 90
        0
102
RTVSPost2010PropOp41
 70
     1
102
RTVSPost2010Prop42
 90
       50
102
RTVSPost2010PropOp42
 70
     1
102
RTVSPost2010Prop43
 90
        3
102
RTVSPost2010PropOp43
 70
     1
102
RTVSPost2010Prop44ColorIndex
 90
        5
102
RTVSPost2010Prop44ColorRGB
 90
      255
102
RTVSPost2010PropOp44
 70
     1
102
RTVSPost2010Prop45
280
     0
102
RTVSPost2010PropOp45
 70
     1
102
RTVSPost2010Prop46
 90
       50
102
RTVSPost2010PropOp46
 70
     1
102
RTVSPost2010Prop47
 90
       50
102
RTVSPost2010PropOp47
 70
     1
102
RTVSPost2010Prop48
 90
       50
102
RTVSPost2010PropOp48
 70
     1
102
RTVSPost2010Prop49
280
     0
102
RTVSPost2010PropOp49
 70
     1
102
RTVSPost2010Prop50
 90
       50
102
RTVSPost2010PropOp50
 70
     1
102
RTVSPost2010Prop51ColorIndex
 90
      256
102
RTVSPost2010Prop51ColorRGB
 90
-16777216
102
RTVSPost2010PropOp51
 70
     0
102
RTVSPost2010Prop52
140
1.0
102
RTVSPost2010PropOp52
 70
     0
102
RTVSPost2010Prop53
 90
        2
102
RTVSPost2010PropOp53
 70
     1
102
RTVSPost2010Prop54
  1
strokes_ogs.tif
102
RTVSPost2010PropOp54
 70
     1
102
RTVSPost2010Prop55
280
     0
102
RTVSPost2010PropOp55
 70
     1
102
RTVSPost2010Prop56
140
1.0
102
RTVSPost2010PropOp56
 70
     1
102
RTVSPost2010Prop57
140
1.0
102
RTVSPost2010PropOp57
 70
     1
102
RTVSPropertyOp0
 70
     1
102
RTVSPropertyOp1
 70
     1
102
RTVSPropertyOp2
 70
     1
102
RTVSPropertyOp3
 70
     1
102
RTVSPropertyOp4
 70
     1
102
RTVSPropertyOp5
 70
     1
102
RTVSPropertyOp6
 70
     1
102
RTVSPropertyOp7
 70
     1
102
RTVSPropertyOp8
 70
     1
102
RTVSPropertyOp9
 70
     1
102
RTVSPropertyOp10
 70
     1
102
RTVSPropertyOp11
 70
     1
102
RTVSPropertyOp12
 70
     1
102
RTVSPropertyOp13
 70
     1
102
RTVSPropertyOp14
 70
     1
102
RTVSPropertyOp15
 70
     1
102
RTVSPropertyOp16
 70
     1
102
RTVSPropertyOp17
 70
     1
102
RTVSPropertyOp18
 70
     1
102
RTVSPropertyOp19
 70
     1
102
RTVSPropertyOp20
 70
     1
102
RTVSPropertyOp21
 70
     1
102
RTVSPropertyOp22
 70
     1
102
RTVSPropertyOp23
 70
     1
102
RTVSPropertyOp24
 70
     1
102
RTVSPropertyOp25
 70
     1
102
RTVSPropertyOp26
 70
     1
102
RTVSPropertyOp27
 70
     1
102
RTVSPropertyOp28
 70
     1
102
RTVSPropertyOp29
 70
     1
102
RTVSPropertyOp30
 70
     1
102
RTVSPropertyOp31
 70
     1
102
RTVSPropertyOp32
 70
     1
102
RTVSPropertyOp33
 70
     1
102
RTVSPropertyOp34
 70
     1
102
RTVSPropertyOp35
 70
     1
102
RTVSPropertyOp36
 70
     1
102
RTVSPropertyOp37
 70
     1
102
RTVSPropertyOp38
 70
     1
102
RTVSPropertyOp39
 70
     1
102
RTVSPropertyOp40
 70
     1
102
RTVSPropertyOp41
 70
     1
102
RTVSPropertyOp42
 70
     1
102
RTVSPropertyOp43
 70
     1
102
RTVSPropertyOp44
 70
     1
102
RTVSPropertyOp45
 70
     1
102
RTVSPropertyOp46
 70
     1
102
RTVSPropertyOp47
 70
     1
102
RTVSPropertyOp48
 70
     1
102
RTVSPropertyOp49
 70
     1
102
RTVSPropertyOp50
 70
     1
102
RTVSPropertyOp51
 70
     0
102
RTVSPropertyOp52
 70
     0
102
RTVSPropertyOp53
 70
     1
102
RTVSPropertyOp54
 70
     1
102
RTVSPropertyOp55
 70
     1
102
RTVSPropertyOp56
 70
     1
102
RTVSPropertyOp57
 70
     1
102
RTVSPropertyOp58
 70
     1
102
RTVSPropertyOp59
 70
     1
102
RTVSPropertyOp60
 70
     1
102
RTVSPropertyOp61
 70
     1
102
RTVSPropertyOp62
 70
     1
  0
XRECORD
  5
517
102
{ACAD_REACTORS
330
516
102
}
330
516
100
AcDbXrecord
280
     1
102
RTVSPost2010Prop28
280
     0
102
RTVSPost2010PropOp28
 70
     1
102
RTVSPost2010Prop29
280
     1
102
RTVSPost2010PropOp29
 70
     1
102
RTVSPost2010Prop30
280
     1
102
RTVSPost2010PropOp30
 70
     1
102
RTVSPost2010Prop31
280
     0
102
RTVSPost2010PropOp31
 70
     1
102
RTVSPost2010Prop32
280
     0
102
RTVSPost2010PropOp32
 70
     1
102
RTVSPost2010Prop33
280
     0
102
RTVSPost2010PropOp33
 70
     1
102
RTVSPost2010Prop34
280
     0
102
RTVSPost2010PropOp34
 70
     1
102
RTVSPost2010Prop35
280
     0
102
RTVSPost2010PropOp35
 70
     1
102
RTVSPost2010Prop36
280
     0
102
RTVSPost2010PropOp36
 70
     1
102
RTVSPost2010Prop37
 90
       50
102
RTVSPost2010PropOp37
 70
     1
102
RTVSPost2010Prop38
140
0.0
102
RTVSPost2010PropOp38
 70
     1
102
RTVSPost2010Prop39
140
1.0
102
RTVSPost2010PropOp39
 70
     1
102
RTVSPost2010Prop40
 90
        0
102
RTVSPost2010PropOp40
 70
     1
102
RTVSPost2010Prop41ColorIndex
 90
       18
102
RTVSPost2010Prop41ColorRGB
 90
        0
102
RTVSPost2010PropOp41
 70
     1
102
RTVSPost2010Prop42
 90
       50
102
RTVSPost2010PropOp42
 70
     1
102
RTVSPost2010Prop43
 90
        3
102
RTVSPost2010PropOp43
 70
     1
102
RTVSPost2010Prop44ColorIndex
 90
        5
102
RTVSPost2010Prop44ColorRGB
 90
      255
102
RTVSPost2010PropOp44
 70
     1
102
RTVSPost2010Prop45
280
     0
102
RTVSPost2010PropOp45
 70
     1
102
RTVSPost2010Prop46
 90
       50
102
RTVSPost2010PropOp46
 70
     1
102
RTVSPost2010Prop47
 90
       50
102
RTVSPost2010PropOp47
 70
     1
102
RTVSPost2010Prop48
 90
       50
102
RTVSPost2010PropOp48
 70
     1
102
RTVSPost2010Prop49
280
     0
102
RTVSPost2010PropOp49
 70
     1
102
RTVSPost2010Prop50
 90
       50
102
RTVSPost2010PropOp50
 70
     1
102
RTVSPost2010Prop51ColorIndex
 90
      256
102
RTVSPost2010Prop51ColorRGB
 90
-16777216
102
RTVSPost2010PropOp51
 70
     0
102
RTVSPost2010Prop52
140
1.0
102
RTVSPost2010PropOp52
 70
     0
102
RTVSPost2010Prop53
 90
        2
102
RTVSPost2010PropOp53
 70
     1
102
RTVSPost2010Prop54
  1
strokes_ogs.tif
102
RTVSPost2010PropOp54
 70
     1
102
RTVSPost2010Prop55
280
     0
102
RTVSPost2010PropOp55
 70
     1
102
RTVSPost2010Prop56
140
1.0
102
RTVSPost2010PropOp56
 70
     1
102
RTVSPost2010Prop57
140
1.0
102
RTVSPost2010PropOp57
 70
     1
102
RTVSPropertyOp0
 70
     1
102
RTVSPropertyOp1
 70
     1
102
RTVSPropertyOp2
 70
     1
102
RTVSPropertyOp3
 70
     1
102
RTVSPropertyOp4
 70
     1
102
RTVSPropertyOp5
 70
     1
102
RTVSPropertyOp6
 70
     1
102
RTVSPropertyOp7
 70
     1
102
RTVSPropertyOp8
 70
     1
102
RTVSPropertyOp9
 70
     1
102
RTVSPropertyOp10
 70
     1
102
RTVSPropertyOp11
 70
     1
102
RTVSPropertyOp12
 70
     1
102
RTVSPropertyOp13
 70
     1
102
RTVSPropertyOp14
 70
     1
102
RTVSPropertyOp15
 70
     1
102
RTVSPropertyOp16
 70
     1
102
RTVSPropertyOp17
 70
     1
102
RTVSPropertyOp18
 70
     1
102
RTVSPropertyOp19
 70
     1
102
RTVSPropertyOp20
 70
     1
102
RTVSPropertyOp21
 70
     1
102
RTVSPropertyOp22
 70
     1
102
RTVSPropertyOp23
 70
     1
102
RTVSPropertyOp24
 70
     1
102
RTVSPropertyOp25
 70
     1
102
RTVSPropertyOp26
 70
     1
102
RTVSPropertyOp27
 70
     1
102
RTVSPropertyOp28
 70
     1
102
RTVSPropertyOp29
 70
     1
102
RTVSPropertyOp30
 70
     1
102
RTVSPropertyOp31
 70
     1
102
RTVSPropertyOp32
 70
     1
102
RTVSPropertyOp33
 70
     1
102
RTVSPropertyOp34
 70
     1
102
RTVSPropertyOp35
 70
     1
102
RTVSPropertyOp36
 70
     1
102
RTVSPropertyOp37
 70
     1
102
RTVSPropertyOp38
 70
     1
102
RTVSPropertyOp39
 70
     1
102
RTVSPropertyOp40
 70
     1
102
RTVSPropertyOp41
 70
     1
102
RTVSPropertyOp42
 70
     1
102
RTVSPropertyOp43
 70
     1
102
RTVSPropertyOp44
 70
     1
102
RTVSPropertyOp45
 70
     1
102
RTVSPropertyOp46
 70
     1
102
RTVSPropertyOp47
 70
     1
102
RTVSPropertyOp48
 70
     1
102
RTVSPropertyOp49
 70
     1
102
RTVSPropertyOp50
 70
     1
102
RTVSPropertyOp51
 70
     0
102
RTVSPropertyOp52
 70
     0
102
RTVSPropertyOp53
 70
     1
102
RTVSPropertyOp54
 70
     1
102
RTVSPropertyOp55
 70
     1
102
RTVSPropertyOp56
 70
     1
102
RTVSPropertyOp57
 70
     1
102
RTVSPropertyOp58
 70
     1
102
RTVSPropertyOp59
 70
     1
102
RTVSPropertyOp60
 70
     1
102
RTVSPropertyOp61
 70
     1
102
RTVSPropertyOp62
 70
     1
  0
XRECORD
  5
511
102
{ACAD_REACTORS
330
510
102
}
330
510
100
AcDbXrecord
280
     1
102
RTVSPost2010Prop28
280
     0
102
RTVSPost2010PropOp28
 70
     1
102
RTVSPost2010Prop29
280
     1
102
RTVSPost2010PropOp29
 70
     1
102
RTVSPost2010Prop30
280
     1
102
RTVSPost2010PropOp30
 70
     1
102
RTVSPost2010Prop31
280
     0
102
RTVSPost2010PropOp31
 70
     1
102
RTVSPost2010Prop32
280
     0
102
RTVSPost2010PropOp32
 70
     1
102
RTVSPost2010Prop33
280
     0
102
RTVSPost2010PropOp33
 70
     1
102
RTVSPost2010Prop34
280
     0
102
RTVSPost2010PropOp34
 70
     1
102
RTVSPost2010Prop35
280
     0
102
RTVSPost2010PropOp35
 70
     1
102
RTVSPost2010Prop36
280
     0
102
RTVSPost2010PropOp36
 70
     1
102
RTVSPost2010Prop37
 90
       50
102
RTVSPost2010PropOp37
 70
     1
102
RTVSPost2010Prop38
140
0.0
102
RTVSPost2010PropOp38
 70
     1
102
RTVSPost2010Prop39
140
1.0
102
RTVSPost2010PropOp39
 70
     1
102
RTVSPost2010Prop40
 90
        0
102
RTVSPost2010PropOp40
 70
     1
102
RTVSPost2010Prop41ColorIndex
 90
       18
102
RTVSPost2010Prop41ColorRGB
 90
        0
102
RTVSPost2010PropOp41
 70
     1
102
RTVSPost2010Prop42
 90
       50
102
RTVSPost2010PropOp42
 70
     1
102
RTVSPost2010Prop43
 90
        3
102
RTVSPost2010PropOp43
 70
     1
102
RTVSPost2010Prop44ColorIndex
 90
        5
102
RTVSPost2010Prop44ColorRGB
 90
      255
102
RTVSPost2010PropOp44
 70
     1
102
RTVSPost2010Prop45
280
     0
102
RTVSPost2010PropOp45
 70
     1
102
RTVSPost2010Prop46
 90
       50
102
RTVSPost2010PropOp46
 70
     1
102
RTVSPost2010Prop47
 90
       50
102
RTVSPost2010PropOp47
 70
     1
102
RTVSPost2010Prop48
 90
       50
102
RTVSPost2010PropOp48
 70
     1
102
RTVSPost2010Prop49
280
     0
102
RTVSPost2010PropOp49
 70
     1
102
RTVSPost2010Prop50
 90
       50
102
RTVSPost2010PropOp50
 70
     1
102
RTVSPost2010Prop51ColorIndex
 90
      256
102
RTVSPost2010Prop51ColorRGB
 90
-16777216
102
RTVSPost2010PropOp51
 70
     0
102
RTVSPost2010Prop52
140
1.0
102
RTVSPost2010PropOp52
 70
     0
102
RTVSPost2010Prop53
 90
        2
102
RTVSPost2010PropOp53
 70
     1
102
RTVSPost2010Prop54
  1
strokes_ogs.tif
102
RTVSPost2010PropOp54
 70
     1
102
RTVSPost2010Prop55
280
     0
102
RTVSPost2010PropOp55
 70
     1
102
RTVSPost2010Prop56
140
1.0
102
RTVSPost2010PropOp56
 70
     1
102
RTVSPost2010Prop57
140
1.0
102
RTVSPost2010PropOp57
 70
     1
102
RTVSPropertyOp0
 70
     1
102
RTVSPropertyOp1
 70
     1
102
RTVSPropertyOp2
 70
     1
102
RTVSPropertyOp3
 70
     1
102
RTVSPropertyOp4
 70
     1
102
RTVSPropertyOp5
 70
     1
102
RTVSPropertyOp6
 70
     1
102
RTVSPropertyOp7
 70
     1
102
RTVSPropertyOp8
 70
     1
102
RTVSPropertyOp9
 70
     1
102
RTVSPropertyOp10
 70
     1
102
RTVSPropertyOp11
 70
     1
102
RTVSPropertyOp12
 70
     1
102
RTVSPropertyOp13
 70
     1
102
RTVSPropertyOp14
 70
     1
102
RTVSPropertyOp15
 70
     1
102
RTVSPropertyOp16
 70
     1
102
RTVSPropertyOp17
 70
     1
102
RTVSPropertyOp18
 70
     1
102
RTVSPropertyOp19
 70
     1
102
RTVSPropertyOp20
 70
     1
102
RTVSPropertyOp21
 70
     1
102
RTVSPropertyOp22
 70
     1
102
RTVSPropertyOp23
 70
     1
102
RTVSPropertyOp24
 70
     1
102
RTVSPropertyOp25
 70
     1
102
RTVSPropertyOp26
 70
     1
102
RTVSPropertyOp27
 70
     1
102
RTVSPropertyOp28
 70
     1
102
RTVSPropertyOp29
 70
     1
102
RTVSPropertyOp30
 70
     1
102
RTVSPropertyOp31
 70
     1
102
RTVSPropertyOp32
 70
     1
102
RTVSPropertyOp33
 70
     1
102
RTVSPropertyOp34
 70
     1
102
RTVSPropertyOp35
 70
     1
102
RTVSPropertyOp36
 70
     1
102
RTVSPropertyOp37
 70
     1
102
RTVSPropertyOp38
 70
     1
102
RTVSPropertyOp39
 70
     1
102
RTVSPropertyOp40
 70
     1
102
RTVSPropertyOp41
 70
     1
102
RTVSPropertyOp42
 70
     1
102
RTVSPropertyOp43
 70
     1
102
RTVSPropertyOp44
 70
     1
102
RTVSPropertyOp45
 70
     1
102
RTVSPropertyOp46
 70
     1
102
RTVSPropertyOp47
 70
     1
102
RTVSPropertyOp48
 70
     1
102
RTVSPropertyOp49
 70
     1
102
RTVSPropertyOp50
 70
     1
102
RTVSPropertyOp51
 70
     0
102
RTVSPropertyOp52
 70
     0
102
RTVSPropertyOp53
 70
     1
102
RTVSPropertyOp54
 70
     1
102
RTVSPropertyOp55
 70
     1
102
RTVSPropertyOp56
 70
     1
102
RTVSPropertyOp57
 70
     1
102
RTVSPropertyOp58
 70
     1
102
RTVSPropertyOp59
 70
     1
102
RTVSPropertyOp60
 70
     1
102
RTVSPropertyOp61
 70
     1
102
RTVSPropertyOp62
 70
     1
  0
XRECORD
  5
513
102
{ACAD_REACTORS
330
512
102
}
330
512
100
AcDbXrecord
280
     1
102
RTVSPost2010Prop28
280
     0
102
RTVSPost2010PropOp28
 70
     1
102
RTVSPost2010Prop29
280
     1
102
RTVSPost2010PropOp29
 70
     1
102
RTVSPost2010Prop30
280
     1
102
RTVSPost2010PropOp30
 70
     1
102
RTVSPost2010Prop31
280
     0
102
RTVSPost2010PropOp31
 70
     1
102
RTVSPost2010Prop32
280
     0
102
RTVSPost2010PropOp32
 70
     1
102
RTVSPost2010Prop33
280
     0
102
RTVSPost2010PropOp33
 70
     1
102
RTVSPost2010Prop34
280
     0
102
RTVSPost2010PropOp34
 70
     1
102
RTVSPost2010Prop35
280
     0
102
RTVSPost2010PropOp35
 70
     1
102
RTVSPost2010Prop36
280
     0
102
RTVSPost2010PropOp36
 70
     1
102
RTVSPost2010Prop37
 90
       50
102
RTVSPost2010PropOp37
 70
     1
102
RTVSPost2010Prop38
140
0.0
102
RTVSPost2010PropOp38
 70
     1
102
RTVSPost2010Prop39
140
1.0
102
RTVSPost2010PropOp39
 70
     1
102
RTVSPost2010Prop40
 90
        0
102
RTVSPost2010PropOp40
 70
     1
102
RTVSPost2010Prop41ColorIndex
 90
       18
102
RTVSPost2010Prop41ColorRGB
 90
        0
102
RTVSPost2010PropOp41
 70
     1
102
RTVSPost2010Prop42
 90
       50
102
RTVSPost2010PropOp42
 70
     1
102
RTVSPost2010Prop43
 90
        3
102
RTVSPost2010PropOp43
 70
     1
102
RTVSPost2010Prop44ColorIndex
 90
        5
102
RTVSPost2010Prop44ColorRGB
 90
      255
102
RTVSPost2010PropOp44
 70
     1
102
RTVSPost2010Prop45
280
     0
102
RTVSPost2010PropOp45
 70
     1
102
RTVSPost2010Prop46
 90
       50
102
RTVSPost2010PropOp46
 70
     1
102
RTVSPost2010Prop47
 90
       50
102
RTVSPost2010PropOp47
 70
     1
102
RTVSPost2010Prop48
 90
       50
102
RTVSPost2010PropOp48
 70
     1
102
RTVSPost2010Prop49
280
     0
102
RTVSPost2010PropOp49
 70
     1
102
RTVSPost2010Prop50
 90
       50
102
RTVSPost2010PropOp50
 70
     1
102
RTVSPost2010Prop51ColorIndex
 90
      256
102
RTVSPost2010Prop51ColorRGB
 90
-16777216
102
RTVSPost2010PropOp51
 70
     0
102
RTVSPost2010Prop52
140
1.0
102
RTVSPost2010PropOp52
 70
     0
102
RTVSPost2010Prop53
 90
        2
102
RTVSPost2010PropOp53
 70
     1
102
RTVSPost2010Prop54
  1
strokes_ogs.tif
102
RTVSPost2010PropOp54
 70
     1
102
RTVSPost2010Prop55
280
     0
102
RTVSPost2010PropOp55
 70
     1
102
RTVSPost2010Prop56
140
1.0
102
RTVSPost2010PropOp56
 70
     1
102
RTVSPost2010Prop57
140
1.0
102
RTVSPost2010PropOp57
 70
     1
102
RTVSPropertyOp0
 70
     1
102
RTVSPropertyOp1
 70
     1
102
RTVSPropertyOp2
 70
     1
102
RTVSPropertyOp3
 70
     1
102
RTVSPropertyOp4
 70
     1
102
RTVSPropertyOp5
 70
     1
102
RTVSPropertyOp6
 70
     1
102
RTVSPropertyOp7
 70
     1
102
RTVSPropertyOp8
 70
     1
102
RTVSPropertyOp9
 70
     1
102
RTVSPropertyOp10
 70
     1
102
RTVSPropertyOp11
 70
     1
102
RTVSPropertyOp12
 70
     1
102
RTVSPropertyOp13
 70
     1
102
RTVSPropertyOp14
 70
     1
102
RTVSPropertyOp15
 70
     1
102
RTVSPropertyOp16
 70
     1
102
RTVSPropertyOp17
 70
     1
102
RTVSPropertyOp18
 70
     1
102
RTVSPropertyOp19
 70
     1
102
RTVSPropertyOp20
 70
     1
102
RTVSPropertyOp21
 70
     1
102
RTVSPropertyOp22
 70
     1
102
RTVSPropertyOp23
 70
     1
102
RTVSPropertyOp24
 70
     1
102
RTVSPropertyOp25
 70
     1
102
RTVSPropertyOp26
 70
     1
102
RTVSPropertyOp27
 70
     1
102
RTVSPropertyOp28
 70
     1
102
RTVSPropertyOp29
 70
     1
102
RTVSPropertyOp30
 70
     1
102
RTVSPropertyOp31
 70
     1
102
RTVSPropertyOp32
 70
     1
102
RTVSPropertyOp33
 70
     1
102
RTVSPropertyOp34
 70
     1
102
RTVSPropertyOp35
 70
     1
102
RTVSPropertyOp36
 70
     1
102
RTVSPropertyOp37
 70
     1
102
RTVSPropertyOp38
 70
     1
102
RTVSPropertyOp39
 70
     1
102
RTVSPropertyOp40
 70
     1
102
RTVSPropertyOp41
 70
     1
102
RTVSPropertyOp42
 70
     1
102
RTVSPropertyOp43
 70
     1
102
RTVSPropertyOp44
 70
     1
102
RTVSPropertyOp45
 70
     1
102
RTVSPropertyOp46
 70
     1
102
RTVSPropertyOp47
 70
     1
102
RTVSPropertyOp48
 70
     1
102
RTVSPropertyOp49
 70
     1
102
RTVSPropertyOp50
 70
     1
102
RTVSPropertyOp51
 70
     0
102
RTVSPropertyOp52
 70
     0
102
RTVSPropertyOp53
 70
     1
102
RTVSPropertyOp54
 70
     1
102
RTVSPropertyOp55
 70
     1
102
RTVSPropertyOp56
 70
     1
102
RTVSPropertyOp57
 70
     1
102
RTVSPropertyOp58
 70
     1
102
RTVSPropertyOp59
 70
     1
102
RTVSPropertyOp60
 70
     1
102
RTVSPropertyOp61
 70
     1
102
RTVSPropertyOp62
 70
     1
  0
XRECORD
  5
509
102
{ACAD_REACTORS
330
508
102
}
330
508
100
AcDbXrecord
280
     1
102
RTVSPost2010Prop28
280
     0
102
RTVSPost2010PropOp28
 70
     1
102
RTVSPost2010Prop29
280
     1
102
RTVSPost2010PropOp29
 70
     1
102
RTVSPost2010Prop30
280
     1
102
RTVSPost2010PropOp30
 70
     1
102
RTVSPost2010Prop31
280
     0
102
RTVSPost2010PropOp31
 70
     1
102
RTVSPost2010Prop32
280
     0
102
RTVSPost2010PropOp32
 70
     1
102
RTVSPost2010Prop33
280
     0
102
RTVSPost2010PropOp33
 70
     1
102
RTVSPost2010Prop34
280
     0
102
RTVSPost2010PropOp34
 70
     1
102
RTVSPost2010Prop35
280
     0
102
RTVSPost2010PropOp35
 70
     1
102
RTVSPost2010Prop36
280
     0
102
RTVSPost2010PropOp36
 70
     1
102
RTVSPost2010Prop37
 90
       50
102
RTVSPost2010PropOp37
 70
     1
102
RTVSPost2010Prop38
140
0.0
102
RTVSPost2010PropOp38
 70
     1
102
RTVSPost2010Prop39
140
1.0
102
RTVSPost2010PropOp39
 70
     1
102
RTVSPost2010Prop40
 90
        0
102
RTVSPost2010PropOp40
 70
     1
102
RTVSPost2010Prop41ColorIndex
 90
       18
102
RTVSPost2010Prop41ColorRGB
 90
        0
102
RTVSPost2010PropOp41
 70
     1
102
RTVSPost2010Prop42
 90
       50
102
RTVSPost2010PropOp42
 70
     1
102
RTVSPost2010Prop43
 90
        3
102
RTVSPost2010PropOp43
 70
     1
102
RTVSPost2010Prop44ColorIndex
 90
        5
102
RTVSPost2010Prop44ColorRGB
 90
      255
102
RTVSPost2010PropOp44
 70
     1
102
RTVSPost2010Prop45
280
     0
102
RTVSPost2010PropOp45
 70
     1
102
RTVSPost2010Prop46
 90
       50
102
RTVSPost2010PropOp46
 70
     1
102
RTVSPost2010Prop47
 90
       50
102
RTVSPost2010PropOp47
 70
     1
102
RTVSPost2010Prop48
 90
       50
102
RTVSPost2010PropOp48
 70
     1
102
RTVSPost2010Prop49
280
     0
102
RTVSPost2010PropOp49
 70
     1
102
RTVSPost2010Prop50
 90
       50
102
RTVSPost2010PropOp50
 70
     1
102
RTVSPost2010Prop51ColorIndex
 90
      256
102
RTVSPost2010Prop51ColorRGB
 90
-16777216
102
RTVSPost2010PropOp51
 70
     0
102
RTVSPost2010Prop52
140
1.0
102
RTVSPost2010PropOp52
 70
     0
102
RTVSPost2010Prop53
 90
        2
102
RTVSPost2010PropOp53
 70
     1
102
RTVSPost2010Prop54
  1
strokes_ogs.tif
102
RTVSPost2010PropOp54
 70
     1
102
RTVSPost2010Prop55
280
     0
102
RTVSPost2010PropOp55
 70
     1
102
RTVSPost2010Prop56
140
1.0
102
RTVSPost2010PropOp56
 70
     1
102
RTVSPost2010Prop57
140
1.0
102
RTVSPost2010PropOp57
 70
     1
102
RTVSPropertyOp0
 70
     1
102
RTVSPropertyOp1
 70
     1
102
RTVSPropertyOp2
 70
     1
102
RTVSPropertyOp3
 70
     1
102
RTVSPropertyOp4
 70
     1
102
RTVSPropertyOp5
 70
     1
102
RTVSPropertyOp6
 70
     1
102
RTVSPropertyOp7
 70
     1
102
RTVSPropertyOp8
 70
     1
102
RTVSPropertyOp9
 70
     1
102
RTVSPropertyOp10
 70
     1
102
RTVSPropertyOp11
 70
     1
102
RTVSPropertyOp12
 70
     1
102
RTVSPropertyOp13
 70
     1
102
RTVSPropertyOp14
 70
     1
102
RTVSPropertyOp15
 70
     1
102
RTVSPropertyOp16
 70
     1
102
RTVSPropertyOp17
 70
     1
102
RTVSPropertyOp18
 70
     1
102
RTVSPropertyOp19
 70
     1
102
RTVSPropertyOp20
 70
     1
102
RTVSPropertyOp21
 70
     1
102
RTVSPropertyOp22
 70
     1
102
RTVSPropertyOp23
 70
     1
102
RTVSPropertyOp24
 70
     1
102
RTVSPropertyOp25
 70
     1
102
RTVSPropertyOp26
 70
     1
102
RTVSPropertyOp27
 70
     1
102
RTVSPropertyOp28
 70
     1
102
RTVSPropertyOp29
 70
     1
102
RTVSPropertyOp30
 70
     1
102
RTVSPropertyOp31
 70
     1
102
RTVSPropertyOp32
 70
     1
102
RTVSPropertyOp33
 70
     1
102
RTVSPropertyOp34
 70
     1
102
RTVSPropertyOp35
 70
     1
102
RTVSPropertyOp36
 70
     1
102
RTVSPropertyOp37
 70
     1
102
RTVSPropertyOp38
 70
     1
102
RTVSPropertyOp39
 70
     1
102
RTVSPropertyOp40
 70
     1
102
RTVSPropertyOp41
 70
     1
102
RTVSPropertyOp42
 70
     1
102
RTVSPropertyOp43
 70
     1
102
RTVSPropertyOp44
 70
     1
102
RTVSPropertyOp45
 70
     1
102
RTVSPropertyOp46
 70
     1
102
RTVSPropertyOp47
 70
     1
102
RTVSPropertyOp48
 70
     1
102
RTVSPropertyOp49
 70
     1
102
RTVSPropertyOp50
 70
     1
102
RTVSPropertyOp51
 70
     0
102
RTVSPropertyOp52
 70
     0
102
RTVSPropertyOp53
 70
     1
102
RTVSPropertyOp54
 70
     1
102
RTVSPropertyOp55
 70
     1
102
RTVSPropertyOp56
 70
     1
102
RTVSPropertyOp57
 70
     1
102
RTVSPropertyOp58
 70
     1
102
RTVSPropertyOp59
 70
     1
102
RTVSPropertyOp60
 70
     1
102
RTVSPropertyOp61
 70
     1
102
RTVSPropertyOp62
 70
     1
  0
XRECORD
  5
4FD
102
{ACAD_REACTORS
330
4FC
102
}
330
4FC
100
AcDbXrecord
280
     1
102
RTVSPost2010Prop28
280
     0
102
RTVSPost2010PropOp28
 70
     1
102
RTVSPost2010Prop29
280
     1
102
RTVSPost2010PropOp29
 70
     1
102
RTVSPost2010Prop30
280
     1
102
RTVSPost2010PropOp30
 70
     1
102
RTVSPost2010Prop31
280
     0
102
RTVSPost2010PropOp31
 70
     1
102
RTVSPost2010Prop32
280
     0
102
RTVSPost2010PropOp32
 70
     1
102
RTVSPost2010Prop33
280
     0
102
RTVSPost2010PropOp33
 70
     1
102
RTVSPost2010Prop34
280
     0
102
RTVSPost2010PropOp34
 70
     1
102
RTVSPost2010Prop35
280
     0
102
RTVSPost2010PropOp35
 70
     1
102
RTVSPost2010Prop36
280
     0
102
RTVSPost2010PropOp36
 70
     1
102
RTVSPost2010Prop37
 90
       50
102
RTVSPost2010PropOp37
 70
     1
102
RTVSPost2010Prop38
140
0.0
102
RTVSPost2010PropOp38
 70
     1
102
RTVSPost2010Prop39
140
1.0
102
RTVSPost2010PropOp39
 70
     1
102
RTVSPost2010Prop40
 90
        0
102
RTVSPost2010PropOp40
 70
     1
102
RTVSPost2010Prop41ColorIndex
 90
       18
102
RTVSPost2010Prop41ColorRGB
 90
        0
102
RTVSPost2010PropOp41
 70
     1
102
RTVSPost2010Prop42
 90
       50
102
RTVSPost2010PropOp42
 70
     1
102
RTVSPost2010Prop43
 90
        3
102
RTVSPost2010PropOp43
 70
     1
102
RTVSPost2010Prop44ColorIndex
 90
        5
102
RTVSPost2010Prop44ColorRGB
 90
      255
102
RTVSPost2010PropOp44
 70
     1
102
RTVSPost2010Prop45
280
     0
102
RTVSPost2010PropOp45
 70
     1
102
RTVSPost2010Prop46
 90
       50
102
RTVSPost2010PropOp46
 70
     1
102
RTVSPost2010Prop47
 90
       50
102
RTVSPost2010PropOp47
 70
     1
102
RTVSPost2010Prop48
 90
       50
102
RTVSPost2010PropOp48
 70
     1
102
RTVSPost2010Prop49
280
     0
102
RTVSPost2010PropOp49
 70
     1
102
RTVSPost2010Prop50
 90
       50
102
RTVSPost2010PropOp50
 70
     1
102
RTVSPost2010Prop51ColorIndex
 90
      256
102
RTVSPost2010Prop51ColorRGB
 90
-16777216
102
RTVSPost2010PropOp51
 70
     0
102
RTVSPost2010Prop52
140
1.0
102
RTVSPost2010PropOp52
 70
     0
102
RTVSPost2010Prop53
 90
        2
102
RTVSPost2010PropOp53
 70
     1
102
RTVSPost2010Prop54
  1
strokes_ogs.tif
102
RTVSPost2010PropOp54
 70
     1
102
RTVSPost2010Prop55
280
     0
102
RTVSPost2010PropOp55
 70
     1
102
RTVSPost2010Prop56
140
1.0
102
RTVSPost2010PropOp56
 70
     1
102
RTVSPost2010Prop57
140
1.0
102
RTVSPost2010PropOp57
 70
     1
102
RTVSPropertyOp0
 70
     1
102
RTVSPropertyOp1
 70
     1
102
RTVSPropertyOp2
 70
     1
102
RTVSPropertyOp3
 70
     1
102
RTVSPropertyOp4
 70
     1
102
RTVSPropertyOp5
 70
     1
102
RTVSPropertyOp6
 70
     1
102
RTVSPropertyOp7
 70
     1
102
RTVSPropertyOp8
 70
     1
102
RTVSPropertyOp9
 70
     1
102
RTVSPropertyOp10
 70
     1
102
RTVSPropertyOp11
 70
     1
102
RTVSPropertyOp12
 70
     1
102
RTVSPropertyOp13
 70
     1
102
RTVSPropertyOp14
 70
     1
102
RTVSPropertyOp15
 70
     1
102
RTVSPropertyOp16
 70
     1
102
RTVSPropertyOp17
 70
     1
102
RTVSPropertyOp18
 70
     1
102
RTVSPropertyOp19
 70
     1
102
RTVSPropertyOp20
 70
     1
102
RTVSPropertyOp21
 70
     1
102
RTVSPropertyOp22
 70
     1
102
RTVSPropertyOp23
 70
     1
102
RTVSPropertyOp24
 70
     1
102
RTVSPropertyOp25
 70
     1
102
RTVSPropertyOp26
 70
     1
102
RTVSPropertyOp27
 70
     1
102
RTVSPropertyOp28
 70
     1
102
RTVSPropertyOp29
 70
     1
102
RTVSPropertyOp30
 70
     1
102
RTVSPropertyOp31
 70
     1
102
RTVSPropertyOp32
 70
     1
102
RTVSPropertyOp33
 70
     1
102
RTVSPropertyOp34
 70
     1
102
RTVSPropertyOp35
 70
     1
102
RTVSPropertyOp36
 70
     1
102
RTVSPropertyOp37
 70
     1
102
RTVSPropertyOp38
 70
     1
102
RTVSPropertyOp39
 70
     1
102
RTVSPropertyOp40
 70
     1
102
RTVSPropertyOp41
 70
     1
102
RTVSPropertyOp42
 70
     1
102
RTVSPropertyOp43
 70
     1
102
RTVSPropertyOp44
 70
     1
102
RTVSPropertyOp45
 70
     1
102
RTVSPropertyOp46
 70
     1
102
RTVSPropertyOp47
 70
     1
102
RTVSPropertyOp48
 70
     1
102
RTVSPropertyOp49
 70
     1
102
RTVSPropertyOp50
 70
     1
102
RTVSPropertyOp51
 70
     0
102
RTVSPropertyOp52
 70
     0
102
RTVSPropertyOp53
 70
     1
102
RTVSPropertyOp54
 70
     1
102
RTVSPropertyOp55
 70
     1
102
RTVSPropertyOp56
 70
     1
102
RTVSPropertyOp57
 70
     1
102
RTVSPropertyOp58
 70
     1
102
RTVSPropertyOp59
 70
     1
102
RTVSPropertyOp60
 70
     1
102
RTVSPropertyOp61
 70
     1
102
RTVSPropertyOp62
 70
     1
  0
XRECORD
  5
515
102
{ACAD_REACTORS
330
514
102
}
330
514
100
AcDbXrecord
280
     1
102
RTVSPost2010Prop28
280
     0
102
RTVSPost2010PropOp28
 70
     1
102
RTVSPost2010Prop29
280
     1
102
RTVSPost2010PropOp29
 70
     1
102
RTVSPost2010Prop30
280
     1
102
RTVSPost2010PropOp30
 70
     1
102
RTVSPost2010Prop31
280
     0
102
RTVSPost2010PropOp31
 70
     1
102
RTVSPost2010Prop32
280
     0
102
RTVSPost2010PropOp32
 70
     1
102
RTVSPost2010Prop33
280
     0
102
RTVSPost2010PropOp33
 70
     1
102
RTVSPost2010Prop34
280
     0
102
RTVSPost2010PropOp34
 70
     1
102
RTVSPost2010Prop35
280
     0
102
RTVSPost2010PropOp35
 70
     1
102
RTVSPost2010Prop36
280
     0
102
RTVSPost2010PropOp36
 70
     1
102
RTVSPost2010Prop37
 90
       50
102
RTVSPost2010PropOp37
 70
     1
102
RTVSPost2010Prop38
140
0.0
102
RTVSPost2010PropOp38
 70
     1
102
RTVSPost2010Prop39
140
1.0
102
RTVSPost2010PropOp39
 70
     1
102
RTVSPost2010Prop40
 90
        0
102
RTVSPost2010PropOp40
 70
     1
102
RTVSPost2010Prop41ColorIndex
 90
       18
102
RTVSPost2010Prop41ColorRGB
 90
        0
102
RTVSPost2010PropOp41
 70
     1
102
RTVSPost2010Prop42
 90
       50
102
RTVSPost2010PropOp42
 70
     1
102
RTVSPost2010Prop43
 90
        3
102
RTVSPost2010PropOp43
 70
     1
102
RTVSPost2010Prop44ColorIndex
 90
        5
102
RTVSPost2010Prop44ColorRGB
 90
      255
102
RTVSPost2010PropOp44
 70
     1
102
RTVSPost2010Prop45
280
     0
102
RTVSPost2010PropOp45
 70
     1
102
RTVSPost2010Prop46
 90
       50
102
RTVSPost2010PropOp46
 70
     1
102
RTVSPost2010Prop47
 90
       50
102
RTVSPost2010PropOp47
 70
     1
102
RTVSPost2010Prop48
 90
       50
102
RTVSPost2010PropOp48
 70
     1
102
RTVSPost2010Prop49
280
     0
102
RTVSPost2010PropOp49
 70
     1
102
RTVSPost2010Prop50
 90
       50
102
RTVSPost2010PropOp50
 70
     1
102
RTVSPost2010Prop51ColorIndex
 90
      256
102
RTVSPost2010Prop51ColorRGB
 90
-16777216
102
RTVSPost2010PropOp51
 70
     0
102
RTVSPost2010Prop52
140
1.0
102
RTVSPost2010PropOp52
 70
     0
102
RTVSPost2010Prop53
 90
        2
102
RTVSPost2010PropOp53
 70
     1
102
RTVSPost2010Prop54
  1
strokes_ogs.tif
102
RTVSPost2010PropOp54
 70
     1
102
RTVSPost2010Prop55
280
     0
102
RTVSPost2010PropOp55
 70
     1
102
RTVSPost2010Prop56
140
1.0
102
RTVSPost2010PropOp56
 70
     1
102
RTVSPost2010Prop57
140
1.0
102
RTVSPost2010PropOp57
 70
     1
102
RTVSPropertyOp0
 70
     1
102
RTVSPropertyOp1
 70
     1
102
RTVSPropertyOp2
 70
     1
102
RTVSPropertyOp3
 70
     1
102
RTVSPropertyOp4
 70
     1
102
RTVSPropertyOp5
 70
     1
102
RTVSPropertyOp6
 70
     1
102
RTVSPropertyOp7
 70
     1
102
RTVSPropertyOp8
 70
     1
102
RTVSPropertyOp9
 70
     1
102
RTVSPropertyOp10
 70
     1
102
RTVSPropertyOp11
 70
     1
102
RTVSPropertyOp12
 70
     1
102
RTVSPropertyOp13
 70
     1
102
RTVSPropertyOp14
 70
     1
102
RTVSPropertyOp15
 70
     1
102
RTVSPropertyOp16
 70
     1
102
RTVSPropertyOp17
 70
     1
102
RTVSPropertyOp18
 70
     1
102
RTVSPropertyOp19
 70
     1
102
RTVSPropertyOp20
 70
     1
102
RTVSPropertyOp21
 70
     1
102
RTVSPropertyOp22
 70
     1
102
RTVSPropertyOp23
 70
     1
102
RTVSPropertyOp24
 70
     1
102
RTVSPropertyOp25
 70
     1
102
RTVSPropertyOp26
 70
     1
102
RTVSPropertyOp27
 70
     1
102
RTVSPropertyOp28
 70
     1
102
RTVSPropertyOp29
 70
     1
102
RTVSPropertyOp30
 70
     1
102
RTVSPropertyOp31
 70
     1
102
RTVSPropertyOp32
 70
     1
102
RTVSPropertyOp33
 70
     1
102
RTVSPropertyOp34
 70
     1
102
RTVSPropertyOp35
 70
     1
102
RTVSPropertyOp36
 70
     1
102
RTVSPropertyOp37
 70
     1
102
RTVSPropertyOp38
 70
     1
102
RTVSPropertyOp39
 70
     1
102
RTVSPropertyOp40
 70
     1
102
RTVSPropertyOp41
 70
     1
102
RTVSPropertyOp42
 70
     1
102
RTVSPropertyOp43
 70
     1
102
RTVSPropertyOp44
 70
     1
102
RTVSPropertyOp45
 70
     1
102
RTVSPropertyOp46
 70
     1
102
RTVSPropertyOp47
 70
     1
102
RTVSPropertyOp48
 70
     1
102
RTVSPropertyOp49
 70
     1
102
RTVSPropertyOp50
 70
     1
102
RTVSPropertyOp51
 70
     0
102
RTVSPropertyOp52
 70
     0
102
RTVSPropertyOp53
 70
     1
102
RTVSPropertyOp54
 70
     1
102
RTVSPropertyOp55
 70
     1
102
RTVSPropertyOp56
 70
     1
102
RTVSPropertyOp57
 70
     1
102
RTVSPropertyOp58
 70
     1
102
RTVSPropertyOp59
 70
     1
102
RTVSPropertyOp60
 70
     1
102
RTVSPropertyOp61
 70
     1
102
RTVSPropertyOp62
 70
     1
  0
ENDSEC
  0
EOF
