  0
SECTION
  2
HEADER
  9
$ACADVER
  1
AC1009
  9
$INSBASE
 10
0
 20
0
 30
0
  9
$EXTMIN
 10
0
 20
0
  9
$EXTMAX
 10
2376
 20
1680
  9
$LIMMIN
 10
0
 20
0
  9
$LIMMAX
 10
2376
 20
1680
  9
$LTSCALE
 40
8
  0
ENDSEC
  0
SECTION
  2
TABLES
  0
TABLE
  2
LTYPE
 70
     9
  0
LTYPE
  2
CONTINUOUS
 70
    64
  3
実線
 72
    65
 73
     0
 40
0.0
  0
LTYPE
  2
DASHED1
 70
    64
  3
--  --  --  --  --  --  --  --  
 72
    65
 73
     2
 40
2.5
 49
1.25
 49
-1.25
  0
LTYPE
  2
DASHED2
 70
    64
  3
----    ----    ----    ----    
 72
    65
 73
     2
 40
5.0
 49
2.5
 49
-2.5
  0
LTYPE
  2
DASHED3
 70
    64
  3
------  ------  ------  ------  
 72
    65
 73
     2
 40
5.0
 49
3.75
 49
-1.25
  0
LTYPE
  2
CENTER1
 70
    64
  3
----- - ----- - ----- - ----- - 
 72
    65
 73
     4
 40
10.0
 49
6.25
 49
-1.25
 49
1.25
 49
-1.25
  0
LTYPE
  2
CENTER2
 70
    64
  3
----------  --  ----------  --  
 72
    65
 73
     4
 40
20.0
 49
12.5
 49
-2.5
 49
2.5
 49
-2.5
  0
LTYPE
  2
PHANTOM1
 70
    64
  3
--- - - --- - - --- - - --- - - 
 72
    65
 73
     6
 40
10.0
 49
3.25
 49
-1.25
 49
1.25
 49
-1.25
 49
1.25
 49
-1.25
  0
LTYPE
  2
PHANTOM2
 70
    64
  3
--------  -  -  --------  -  -  
 72
    65
 73
     6
 40
20.0
 49
10.0
 49
-2.5
 49
1.25
 49
-2.5
 49
1.25
 49
-2.5
  0
LTYPE
  2
DOT
 70
    64
  3
-   -   -   -   -   -   -   -   
 72
    65
 73
     2
 40
2.5
 49
0.625
 49
-1.875
  0
LTYPE
  2
DUMMY
 70
    64
  3
ダミー
 72
    65
 73
     0
 40
0.0
  0
LTYPE
  2
RAND1
 70
    64
  3
ランダム線1
 72
    65
 73
     4
 40
10.0
 49
1.0
 49
-2.0
 49
3.0
 49
-4.0
  0
LTYPE
  2
RAND2
 70
    64
  3
ランダム線2
 72
    65
 73
     4
 40
14.0
 49
2.0
 49
-3.0
 49
4.0
 49
-5.0
  0
LTYPE
  2
RAND3
 70
    64
  3
ランダム線3
 72
    65
 73
     4
 40
18.0
 49
3.0
 49
-4.0
 49
5.0
 49
-6.0
  0
LTYPE
  2
RAND4
 70
    64
  3
ランダム線4
 72
    65
 73
     4
 40
22.0
 49
4.0
 49
-5.0
 49
6.0
 49
-7.0
  0
LTYPE
  2
RAND5
 70
    64
  3
ランダム線5
 72
    65
 73
     4
 40
26.0
 49
5.0
 49
-6.0
 49
7.0
 49
-8.0
  0
LTYPE
  2
LONG1
 70
    64
  3
----------  --  ----------  --  
 72
    65
 73
     4
 40
40.0
 49
32.5
 49
-2.5
 49
2.5
 49
-2.5
  0
LTYPE
  2
LONG2
 70
    64
  3
--------  -  -  --------  -  -  
 72
    65
 73
     6
 40
40.0
 49
30.0
 49
-2.5
 49
1.25
 49
-2.5
 49
1.25
 49
-2.5
  0
LTYPE
  2
LONG3
 70
    64
  3
+++++++++++++++..+++++++++++++++
 72
    65
 73
     2
 40
40.0
 49
37.5
 49
-2.5
  0
LTYPE
  2
LONG4
 70
    64
  3
+++++++++++++++..+++++++++++++++
 72
    65
 73
     2
 40
80.0
 49
75.0
 49
-5.0
  0
LTYPE
  2
LONG5
 70
    64
  3
----------  --  ----------  --  
 72
    65
 73
     4
 40
60.0
 49
37.5
 49
-7.5
 49
7.5
 49
-7.5
  0
LTYPE
  2
dashed
 70
   64
  3
-------   -------------   ------
 72
   65
 73
    2
 40
7.5
 49
6
 49
-1.5
  0
LTYPE
  2
dashed_spaced
 70
   64
  3
----        --------        ----
 72
   65
 73
    2
 40
12
 49
6
 49
-6
  0
LTYPE
  2
long_dashed_dotted
 70
   64
  3
------------- --- --------------
 72
   65
 73
    4
 40
15.25
 49
12
 49
-1.5
 49
0.25
 49
-1.5
  0
LTYPE
  2
long_dashed_double-dotted
 70
   64
  3
----------- --- --- ------------
 72
   65
 73
    6
 40
17
 49
12
 49
-1.5
 49
0.25
 49
-1.5
 49
0.25
 49
-1.5
  0
LTYPE
  2
long_dashed_triplicate-dotted
 70
   64
  3
--------- --- --- --- ----------
 72
   65
 73
    8
 40
18.75
 49
12
 49
-1.5
 49
0.25
 49
-1.5
 49
0.25
 49
-1.5
 49
0.25
 49
-1.5
  0
LTYPE
  2
dotted
 70
   64
  3
   -       -       -       -    
 72
   65
 73
    2
 40
1.75
 49
0.25
 49
-1.5
  0
LTYPE
  2
chain
 70
   64
  3
-------------- -- --------------
 72
   65
 73
    4
 40
18.5
 49
12
 49
-1.5
 49
3.5
 49
-1.5
  0
LTYPE
  2
chain_double_dash
 70
   64
  3
------------ -- -- -------------
 72
   65
 73
    6
 40
23.5
 49
12
 49
-1.5
 49
3.5
 49
-1.5
 49
3.5
 49
-1.5
  0
LTYPE
  2
dashed_dotted
 70
   64
  3
-----------     -     ----------
 72
   65
 73
    4
 40
9.25
 49
6
 49
-1.5
 49
0.25
 49
-1.5
  0
LTYPE
  2
double-dashed_dotted
 70
   64
  3
------   -----------   -   -----
 72
   65
 73
    6
 40
16.75
 49
6
 49
-1.5
 49
6
 49
-1.5
 49
0.25
 49
-1.5
  0
LTYPE
  2
dashed_double-dotted
 70
   64
  3
---------    -    -    ---------
 72
   65
 73
    6
 40
11
 49
6
 49
-1.5
 49
0.25
 49
-1.5
 49
0.25
 49
-1.5
  0
LTYPE
  2
double-dashed_double-dotted
 70
   64
  3
-----   ---------   -   -   ----
 72
   65
 73
    8
 40
18.5
 49
6
 49
-1.5
 49
6
 49
-1.5
 49
0.25
 49
-1.5
 49
0.25
 49
-1.5
  0
LTYPE
  2
dashed_triplicate-dotted
 70
   64
  3
-------    -    -    -    ------
 72
   65
 73
    8
 40
12.75
 49
6
 49
-1.5
 49
0.25
 49
-1.5
 49
0.25
 49
-1.5
 49
0.25
 49
-1.5
  0
LTYPE
  2
double-dashed_triplicate-dotted
 70
   64
  3
-----  ---------  -  -  -  -----
 72
   65
 73
   10
 40
20.25
 49
6
 49
-1.5
 49
6
 49
-1.5
 49
0.25
 49
-1.5
 49
0.25
 49
-1.5
 49
0.25
 49
-1.5
  0
LTYPE
  2
undefined
 70
   64
  3
--------------------------------
 72
   65
 73
    0
 40
0
  0
ENDTAB
  0
TABLE
  2
STYLE
  5
3
100
AcDbSymbolTable
 70
     1
  0
STYLE
  5
10
100
AcDbSymbolTableRecord
100
AcDbTextStyleTableRecord
  2
STANDARD
 70
     0
 40
0.0
 41
1.0
 50
0.0
 71
     0
 42
0.2
  3
txt
  4
bigfont.shx
  0
STYLE
  5
26
100
AcDbSymbolTableRecord
100
AcDbTextStyleTableRecord
  2
TATEGAKI
 70
    68
 40
0.0
 41
1.0
 50
0.0
 71
     0
 42
1.0
  3
txt
  4
bigfont.shx
  0
ENDTAB
  0
TABLE
  2
LAYER
 70
   10
  0
LAYER
  2
_0-0_計極細
 70
   64
 62
    7
  6
CONTINUOUS
  0
LAYER
  2
_0-1_計細線
 70
   64
 62
    7
  6
CONTINUOUS
  0
LAYER
  2
_0-5_寸法線
 70
   64
 62
    7
  6
CONTINUOUS
  0
LAYER
  2
_0-7_枠細線
 70
   64
 62
    7
  6
CONTINUOUS
  0
LAYER
  2
_0-8_枠中線
 70
   64
 62
    7
  6
CONTINUOUS
  0
LAYER
  2
_0-9_枠極太
 70
   64
 62
    7
  6
CONTINUOUS
  0
LAYER
  2
_0-a_極細3
 70
   64
 62
    7
  6
CONTINUOUS
  0
LAYER
  2
_0-b_細線3
 70
   64
 62
    7
  6
CONTINUOUS
  0
LAYER
  2
_0-d_寸法3
 70
   64
 62
    7
  6
CONTINUOUS
  0
LAYER
  2
ADD_LINE
 70
   64
 62
    7
  6
CONTINUOUS
  0
ENDTAB
  0
ENDSEC
  0
SECTION
  2
BLOCKS
  0
ENDSEC
  0
SECTION
  2
ENTITIES
  0
LINE
  8
_0-7_枠細線
  6
CONTINUOUS
 62
    5
 10
1896
 20
288
 11
1896
 21
160
  0
TEXT
  8
_0-7_枠細線
 62
    5
 10
1500
 20
156
 40
28
 41
1
 50
0
  1
備考
  7
TATEGAKI
  0
TEXT
  8
_0-7_枠細線
 62
    5
 10
1500
 20
220
 40
28
 41
1
 50
0
  1
品番
  7
TATEGAKI
  0
TEXT
  8
_0-7_枠細線
 62
    5
 10
1500
 20
284
 40
28
 41
1
 50
0
  1
品名
  7
TATEGAKI
  0
LINE
  8
_0-7_枠細線
  6
CONTINUOUS
 62
    5
 10
1896
 20
224
 11
1480
 21
224
  0
LINE
  8
_0-7_枠細線
  6
CONTINUOUS
 62
    5
 10
1520
 20
288
 11
1520
 21
96
  0
LINE
  8
_0-8_枠中線
  6
CONTINUOUS
 62
    5
 10
2280
 20
288
 11
1480
 21
288
  0
LINE
  8
_0-8_枠中線
  6
CONTINUOUS
 62
    5
 10
1480
 20
288
 11
1480
 21
96
  0
LINE
  8
_0-7_枠細線
  6
CONTINUOUS
 62
    5
 10
1992
 20
288
 11
1992
 21
96
  0
TEXT
  8
_0-7_枠細線
 62
    5
 10
1908
 20
256
 40
24
 41
1
 50
0
  1
縮　尺
  0
LINE
  8
_0-7_枠細線
  6
CONTINUOUS
 62
    5
 10
1896
 20
248
 11
1992
 21
248
  0
LINE
  8
_0-7_枠細線
  6
CONTINUOUS
 62
    5
 10
1992
 20
160
 11
1480
 21
160
  0
LINE
  8
_0-7_枠細線
  6
CONTINUOUS
 62
    5
 10
2280
 20
144
 11
1992
 21
144
  0
LINE
  8
_0-7_枠細線
  6
CONTINUOUS
 62
    5
 10
1992
 20
192
 11
2280
 21
192
  0
LINE
  8
_0-7_枠細線
  6
CONTINUOUS
 62
    5
 10
2280
 20
224
 11
1992
 21
224
  0
TEXT
  8
_0-7_枠細線
 62
    5
 10
2008
 20
236
 40
40
 41
0.8
 50
0
  1
株式会社シマブン
  0
TEXT
  8
_0-7_枠細線
 62
    5
 10
2004
 20
96
 40
24
 41
1
 50
0
  1
年月日
  0
TEXT
  8
_0-7_枠細線
 62
    5
 10
2004
 20
120
 40
24
 41
1
 50
0
  1
作　成
  0
TEXT
  8
_0-7_枠細線
 62
    5
 10
2010
 20
196
 40
24
 41
1
 50
0
  1
承 認
  0
LINE
  8
_0-7_枠細線
  6
CONTINUOUS
 62
    5
 10
2088
 20
224
 11
2088
 21
96
  0
TEXT
  8
_0-7_枠細線
 62
    5
 10
2106
 20
196
 40
24
 41
1
 50
0
  1
検 図
  0
LINE
  8
_0-7_枠細線
  6
CONTINUOUS
 62
    5
 10
2184
 20
224
 11
2184
 21
144
  0
TEXT
  8
_0-7_枠細線
 62
    5
 10
2200
 20
152
 40
32
 41
1
 50
0
  1
藤戸
  0
TEXT
  8
_0-7_枠細線
 62
    5
 10
2202
 20
196
 40
24
 41
1
 50
0
  1
設 計
  0
TEXT
  8
_0-7_枠細線
 62
    5
 10
2008
 20
152
 40
32
 41
1
 50
0
  1
隠塚
  0
TEXT
  8
_0-7_枠細線
 62
    5
 10
2104
 20
152
 40
32
 41
1
 50
0
  1
渋田
  0
TEXT
  8
_0-7_枠細線
 62
    5
 10
1536.8000000000002
 20
240
 40
32
 41
0.5
 50
0
  1
セーフティグレーチング補強仕様Ｈ２０タイプ
  0
TEXT
  8
_0-7_枠細線
 62
    5
 10
2096
 20
108
 40
24
 41
0.6666666666666666
 50
0
  1
２０１０年０３月０１日
  0
TEXT
  8
_0-7_枠細線
 62
    5
 10
1536.8000000000002
 20
112
 40
32
 41
0.5999999999999998
 50
0
  1
色については品番表参照のこと
  0
TEXT
  8
_0-7_枠細線
 62
    5
 10
1536.8000000000002
 20
176
 40
32
 41
0.6
 50
0
  1
ＧＲＳＫ－２０Ｗ３００　ＳＥＴ
  0
LINE
  8
_0-7_枠細線
  6
CONTINUOUS
 62
    5
 10
1668.445396090538
 20
768.00000000000011
 11
1668.445396090538
 21
896.00000000000011
  0
TEXT
  8
_0-7_枠細線
 62
    5
 10
1704.445396090538
 20
860.00000000000011
 40
24
 41
1
 50
0
  1
耐荷重
  0
TEXT
  8
_0-7_枠細線
 62
    5
 10
1680.445396090538
 20
780.00000000000011
 40
24
 41
1
 50
0
  1
（歩道用）
  0
LINE
  8
_0-7_枠細線
  6
CONTINUOUS
 62
    5
 10
1812.445396090538
 20
768.00000000000011
 11
1812.445396090538
 21
896.00000000000011
  0
TEXT
  8
_0-7_枠細線
 62
    5
 10
1848.445396090538
 20
860.00000000000011
 40
24
 41
1
 50
0
  1
蓋重量
  0
LINE
  8
_0-7_枠細線
  6
CONTINUOUS
 62
    5
 10
1956.445396090538
 20
768.00000000000011
 11
1956.445396090538
 21
896.00000000000011
  0
TEXT
  8
_0-7_枠細線
 62
    5
 10
1992.445396090538
 20
860.00000000000011
 40
24
 41
1
 50
0
  1
枠重量
  0
LINE
  8
_0-7_枠細線
  6
CONTINUOUS
 62
    5
 10
1668.445396090538
 20
848.00000000000011
 11
2100.4453960905375
 21
848.00000000000011
  0
LINE
  8
_0-7_枠細線
  6
CONTINUOUS
 62
    5
 10
1668.445396090538
 20
896.00000000000011
 11
2100.4453960905375
 21
896.00000000000011
  0
LINE
  8
_0-7_枠細線
  6
CONTINUOUS
 62
    5
 10
1668.445396090538
 20
768.00000000000011
 11
2100.4453960905375
 21
768.00000000000011
  0
LINE
  8
_0-7_枠細線
  6
CONTINUOUS
 62
    5
 10
2100.4453960905375
 20
768.00000000000011
 11
2100.4453960905375
 21
896.00000000000011
  0
TEXT
  8
_0-7_枠細線
 62
    5
 10
1980.445396090538
 20
798.00000000000011
 40
24
 41
0.8000000000000001
 50
0
  1
2.4kg/ｍ組
  0
TEXT
  8
_0-7_枠細線
 62
    5
 10
1692.445396090538
 20
812.00000000000011
 40
24
 41
1
 50
0
  1
5.0kN/㎡
  0
TEXT
  8
_0-7_枠細線
 62
    5
 10
1846.0453960905384
 20
798.00000000000011
 40
24
 41
0.8000000000000001
 50
0
  1
4.7kg/ｍ
  0
TEXT
  8
_0-7_枠細線
 62
    5
 10
1726.0453960905384
 20
687.99999999999977
 40
24
 41
0.8000000000000001
 50
0
  1
品　　番
  0
LINE
  8
_0-7_枠細線
  6
CONTINUOUS
 62
    5
 10
1668.445396090538
 20
599.99999999999977
 11
2180.445396090538
 21
599.99999999999977
  0
LINE
  8
_0-7_枠細線
  6
CONTINUOUS
 62
    5
 10
1668.445396090538
 20
639.99999999999977
 11
2180.445396090538
 21
639.99999999999977
  0
LINE
  8
_0-7_枠細線
  6
CONTINUOUS
 62
    5
 10
1668.445396090538
 20
679.99999999999977
 11
2180.445396090538
 21
679.99999999999977
  0
TEXT
  8
_0-7_枠細線
 62
    5
 10
1930.8453960905385
 20
687.99999999999977
 40
24
 41
0.8000000000000001
 50
0
  1
色
  0
TEXT
  8
_0-7_枠細線
 62
    5
 10
2062.0453960905384
 20
687.99999999999977
 40
24
 41
0.8000000000000001
 50
0
  1
備　　考
  0
LINE
  8
_0-7_枠細線
  6
CONTINUOUS
 62
    5
 10
1668.445396090538
 20
720
 11
2180.445396090538
 21
720
  0
LINE
  8
_0-7_枠細線
  6
CONTINUOUS
 62
    5
 10
1668.445396090538
 20
359.99999999999977
 11
2180.445396090538
 21
359.99999999999977
  0
LINE
  8
_0-7_枠細線
  6
CONTINUOUS
 62
    5
 10
1668.445396090538
 20
559.99999999999977
 11
2180.445396090538
 21
559.99999999999977
  0
LINE
  8
_0-7_枠細線
  6
CONTINUOUS
 62
    5
 10
1668.445396090538
 20
519.99999999999977
 11
2180.445396090538
 21
519.99999999999977
  0
LINE
  8
_0-7_枠細線
  6
CONTINUOUS
 62
    5
 10
1668.445396090538
 20
479.99999999999977
 11
2180.445396090538
 21
479.99999999999977
  0
LINE
  8
_0-7_枠細線
  6
CONTINUOUS
 62
    5
 10
1668.445396090538
 20
439.99999999999977
 11
2180.445396090538
 21
439.99999999999977
  0
LINE
  8
_0-7_枠細線
  6
CONTINUOUS
 62
    5
 10
1668.445396090538
 20
399.99999999999977
 11
2180.445396090538
 21
399.99999999999977
  0
TEXT
  8
_0-7_枠細線
 62
    5
 10
1826.445396090538
 20
728
 40
28
 41
1
 50
0
  1
品番表
  0
TEXT
  8
_0-7_枠細線
 62
    5
 10
1676.0453960905384
 20
647.99999999999977
 40
24
 41
0.5666666666666667
 50
0
  1
ＧＲＳＫ－２０Ｗ３００－Ｂ
  0
TEXT
  8
_0-7_枠細線
 62
    5
 10
1676.0453960905388
 20
607.99999999999977
 40
24
 41
0.5666666666666667
 50
0
  1
ＧＲＳＫ－２０Ｗ３００－Ｇ
  0
TEXT
  8
_0-7_枠細線
 62
    5
 10
1676.0453960905388
 20
567.99999999999977
 40
24
 41
0.5666666666666667
 50
0
  1
ＧＲＳＫ－２０Ｗ３００－Ｓ
  0
TEXT
  8
_0-7_枠細線
 62
    5
 10
1676.0453960905388
 20
527.99999999999977
 40
24
 41
0.5666666666666667
 50
0
  1
ＧＲＳＫ－２０Ｗ３００－Ｐ
  0
TEXT
  8
_0-7_枠細線
 62
    5
 10
1676.0453960905388
 20
487.99999999999977
 40
24
 41
0.5666666666666667
 50
0
  1
ＧＲＳＫ－２０Ｗ３００－Ａ
  0
TEXT
  8
_0-7_枠細線
 62
    5
 10
1676.0453960905388
 20
447.99999999999977
 40
24
 41
0.5666666666666667
 50
0
  1
ＧＲＳＫ－２０Ｗ３００－Ｄ
  0
TEXT
  8
_0-7_枠細線
 62
    5
 10
1676.0453960905388
 20
407.99999999999977
 40
24
 41
0.5666666666666667
 50
0
  1
ＧＲＳＫ－２０Ｗ３００－Ｍ
  0
LINE
  8
_0-7_枠細線
  6
CONTINUOUS
 62
    5
 10
1668.445396090538
 20
319.99999999999977
 11
2180.445396090538
 21
319.99999999999977
  0
TEXT
  8
_0-7_枠細線
 62
    5
 10
1676.0453960905388
 20
327.99999999999977
 40
24
 41
0.5666666666666667
 50
0
  1
ＧＲＳＫ－２０Ｗ３００－Ｋ
  0
LINE
  8
_0-7_枠細線
  6
CONTINUOUS
 62
    5
 10
2180.445396090538
 20
720
 11
2180.445396090538
 21
319.99999999999977
  0
LINE
  8
_0-7_枠細線
  6
CONTINUOUS
 62
    5
 10
2020.445396090538
 20
720
 11
2020.445396090538
 21
319.99999999999977
  0
LINE
  8
_0-7_枠細線
  6
CONTINUOUS
 62
    5
 10
1860.4453960905385
 20
720
 11
1860.4453960905385
 21
319.99999999999977
  0
LINE
  8
_0-7_枠細線
  6
CONTINUOUS
 62
    5
 10
1668.445396090538
 20
720
 11
1668.445396090538
 21
319.99999999999977
  0
TEXT
  8
_0-7_枠細線
 62
    5
 10
1676.0453960905384
 20
367.99999999999977
 40
24
 41
0.5666666666666667
 50
0
  1
ＧＲＳＫ－２０Ｗ３００－Ｃ
  0
LINE
  8
_0-7_枠細線
  6
CONTINUOUS
 62
    5
 10
1660.6072548488428
 20
367.99183630122775
 11
1648.6072548488428
 21
391.99183630122775
  0
LINE
  8
_0-7_枠細線
  6
CONTINUOUS
 62
    5
 10
1636.6072548488428
 20
367.99183630122775
 11
1660.6072548488428
 21
367.99183630122775
  0
LINE
  8
_0-7_枠細線
  6
CONTINUOUS
 62
    5
 10
1648.6072548488428
 20
391.99183630122775
 11
1636.6072548488428
 21
367.99183630122775
  0
TEXT
  8
_0-7_枠細線
 62
    5
 10
1640.3914968778795
 20
366.47372435746797
 40
20
 41
0.8
 50
0
  1
４
  0
TEXT
  8
_0-7_枠細線
 62
    5
 10
1910.4000000000001
 20
188
 40
32
 41
0.7000000000000001
 50
0
  1
１：８
  0
LINE
  8
_0-9_枠極太
  6
CONTINUOUS
 62
    5
 10
96
 20
96
 11
96
 21
1536
  0
LINE
  8
_0-9_枠極太
  6
CONTINUOUS
 62
    5
 10
96
 20
1536
 11
2280
 21
1536
  0
LINE
  8
_0-9_枠極太
  6
CONTINUOUS
 62
    5
 10
2280
 20
1536
 11
2280
 21
96
  0
LINE
  8
_0-9_枠極太
  6
CONTINUOUS
 62
    5
 10
2280
 20
96
 11
96
 21
96
  0
LINE
  8
_0-7_枠細線
  6
CONTINUOUS
 62
    5
 10
2280.0000000000009
 20
1508
 11
1424.0000000000009
 21
1508
  0
TEXT
  8
_0-7_枠細線
 62
    5
 10
1432.0000000000009
 20
1512
 40
20
 41
1
 50
0
  1
記号
  0
TEXT
  8
_0-7_枠細線
 62
    5
 10
1595.0000000000009
 20
1512
 40
20
 41
1
 50
0
  1
訂　 正　 記　 事
  0
TEXT
  8
_0-7_枠細線
 62
    5
 10
1890.0000000000009
 20
1512
 40
20
 41
1
 50
0
  1
訂 正 年 月 日
  0
TEXT
  8
_0-7_枠細線
 62
    5
 10
2090.0000000000009
 20
1512
 40
20
 41
1
 50
0
  1
備　　　　　考
  0
LINE
  8
_0-7_枠細線
  6
CONTINUOUS
 62
    5
 10
2280.0000000000009
 20
1480
 11
1424.0000000000009
 21
1480
  0
TEXT
  8
_0-7_枠細線
 62
    5
 10
1502.1605925925933
 20
1484
 40
20
 41
1
 50
0
  1
品番・色記号変更
  0
TEXT
  8
_0-7_枠細線
 62
    5
 10
1888.0000000000009
 20
1484
 40
20
 41
0.7199999999999999
 50
0
  1
２０１３．０３．１３
  0
LINE
  8
_0-7_枠細線
  6
CONTINUOUS
 62
    5
 10
2280.0000000000009
 20
1452
 11
1424.0000000000009
 21
1452
  0
LINE
  8
_0-7_枠細線
  6
CONTINUOUS
 62
    5
 10
2280.0000000000009
 20
1424
 11
1424.0000000000009
 21
1424
  0
TEXT
  8
_0-7_枠細線
 62
    5
 10
1502.1605925925933
 20
1456
 40
20
 41
1
 50
0
  1
クロスバーピッチ変更
  0
TEXT
  8
_0-7_枠細線
 62
    5
 10
1502.1605925925933
 20
1428
 40
20
 41
1
 50
0
  1
取外具形状変更
  0
TEXT
  8
_0-7_枠細線
 62
    5
 10
1888.0000000000009
 20
1456
 40
20
 41
0.7199999999999999
 50
0
  1
２０１５．１１．２０
  0
LINE
  8
_0-7_枠細線
  6
CONTINUOUS
 62
    5
 10
1464.0000000000009
 20
1454.307734354795
 11
1452.0000000000009
 21
1478.307734354795
  0
LINE
  8
_0-7_枠細線
  6
CONTINUOUS
 62
    5
 10
1440.0000000000009
 20
1454.307734354795
 11
1464.0000000000009
 21
1454.307734354795
  0
LINE
  8
_0-7_枠細線
  6
CONTINUOUS
 62
    5
 10
1452.0000000000009
 20
1478.307734354795
 11
1440.0000000000009
 21
1454.307734354795
  0
TEXT
  8
_0-7_枠細線
 62
    5
 10
1443.7842420290381
 20
1453.8165307621866
 40
20
 41
0.8
 50
0
  1
１
  0
TEXT
  8
_0-7_枠細線
 62
    5
 10
1443.7842420290381
 20
1425.8165307621866
 40
20
 41
0.8
 50
0
  1
２
  0
LINE
  8
_0-7_枠細線
  6
CONTINUOUS
 62
    5
 10
2280.0000000000009
 20
1396
 11
1424.0000000000009
 21
1396
  0
LINE
  8
_0-7_枠細線
  6
CONTINUOUS
 62
    5
 10
1452.0000000000009
 20
1450.307734354795
 11
1440.0000000000009
 21
1426.307734354795
  0
LINE
  8
_0-7_枠細線
  6
CONTINUOUS
 62
    5
 10
1440.0000000000009
 20
1426.307734354795
 11
1464.0000000000009
 21
1426.307734354795
  0
LINE
  8
_0-7_枠細線
  6
CONTINUOUS
 62
    5
 10
1464.0000000000009
 20
1426.307734354795
 11
1452.0000000000009
 21
1450.307734354795
  0
TEXT
  8
_0-7_枠細線
 62
    5
 10
1443.7842420290381
 20
1397.4314401305048
 40
20
 41
0.8
 50
0
  1
３
  0
TEXT
  8
_0-7_枠細線
 62
    5
 10
1888.0000000000009
 20
1400
 40
20
 41
0.7199999999999999
 50
0
  1
２０１７．０４．０１
  0
LINE
  8
_0-7_枠細線
  6
CONTINUOUS
 62
    5
 10
1464.0000000000009
 20
1370.307734354795
 11
1452.0000000000009
 21
1394.307734354795
  0
LINE
  8
_0-7_枠細線
  6
CONTINUOUS
 62
    5
 10
1440.0000000000009
 20
1370.307734354795
 11
1464.0000000000009
 21
1370.307734354795
  0
LINE
  8
_0-7_枠細線
  6
CONTINUOUS
 62
    5
 10
1452.0000000000009
 20
1394.307734354795
 11
1440.0000000000009
 21
1370.307734354795
  0
TEXT
  8
_0-7_枠細線
 62
    5
 10
1888.0000000000009
 20
1372
 40
20
 41
0.7199999999999999
 50
0
  1
２０１７．０４．０１
  0
TEXT
  8
_0-7_枠細線
 62
    5
 10
1502.1605925925933
 20
1372
 40
20
 41
1
 50
0
  1
ブラウン色（Ｃ）追加
  0
LINE
  8
_0-7_枠細線
  6
CONTINUOUS
 62
    5
 10
2280.0000000000009
 20
1368
 11
1424.0000000000009
 21
1368
  0
LINE
  8
_0-7_枠細線
  6
CONTINUOUS
 62
    5
 10
1452.0000000000009
 20
1422.307734354795
 11
1440.0000000000009
 21
1398.307734354795
  0
LINE
  8
_0-7_枠細線
  6
CONTINUOUS
 62
    5
 10
1440.0000000000009
 20
1398.307734354795
 11
1464.0000000000009
 21
1398.307734354795
  0
LINE
  8
_0-7_枠細線
  6
CONTINUOUS
 62
    5
 10
1464.0000000000009
 20
1398.307734354795
 11
1452.0000000000009
 21
1422.307734354795
  0
TEXT
  8
_0-7_枠細線
 62
    5
 10
1443.7842420290381
 20
1368.7896224110355
 40
20
 41
0.8
 50
0
  1
４
  0
TEXT
  8
_0-7_枠細線
 62
    5
 10
1502.1605925925933
 20
1400
 40
20
 41
1
 50
0
  1
取外具形状変更
  0
TEXT
  8
_0-7_枠細線
 62
    5
 10
1888.0000000000009
 20
1428
 40
20
 41
0.7199999999999999
 50
0
  1
２０１５．１１．２０
  0
LINE
  8
_0-7_枠細線
  6
CONTINUOUS
 62
    5
 10
1464.0000000000009
 20
1342.307734354795
 11
1452.0000000000009
 21
1366.307734354795
  0
LINE
  8
_0-7_枠細線
  6
CONTINUOUS
 62
    5
 10
1440.0000000000009
 20
1342.307734354795
 11
1464.0000000000009
 21
1342.307734354795
  0
LINE
  8
_0-7_枠細線
  6
CONTINUOUS
 62
    5
 10
1452.0000000000009
 20
1366.307734354795
 11
1440.0000000000009
 21
1342.307734354795
  0
LINE
  8
_0-7_枠細線
  6
CONTINUOUS
 62
    5
 10
2280.0000000000009
 20
1340
 11
1424.0000000000009
 21
1340
  0
TEXT
  8
_0-7_枠細線
 62
    5
 10
1888.0000000000009
 20
1344
 40
20
 41
0.7199999999999999
 50
0
  1
２０１９．０９．０１
  0
TEXT
  8
_0-7_枠細線
 62
    5
 10
1443.7842420290378
 20
1340.789622411035
 40
20
 41
0.8
 50
0
  1
５
  0
TEXT
  8
_0-7_枠細線
 62
    5
 10
1502.1605925925933
 20
1344
 40
20
 41
1
 50
0
  1
アンカー材質･厚み変更
  0
LINE
  8
_0-7_枠細線
  6
CONTINUOUS
 62
    5
 10
1464.0000000000009
 20
1314.307734354795
 11
1452.0000000000009
 21
1338.307734354795
  0
LINE
  8
_0-7_枠細線
  6
CONTINUOUS
 62
    5
 10
1440.0000000000009
 20
1314.307734354795
 11
1464.0000000000009
 21
1314.307734354795
  0
LINE
  8
_0-7_枠細線
  6
CONTINUOUS
 62
    5
 10
1452.0000000000009
 20
1338.307734354795
 11
1440.0000000000009
 21
1314.307734354795
  0
LINE
  8
_0-7_枠細線
  6
CONTINUOUS
 62
    5
 10
2280.0000000000009
 20
1312
 11
1424.0000000000009
 21
1312
  0
LINE
  8
_0-7_枠細線
  6
CONTINUOUS
 62
    5
 10
1464.0000000000009
 20
1286.307734354795
 11
1452.0000000000009
 21
1310.307734354795
  0
LINE
  8
_0-7_枠細線
  6
CONTINUOUS
 62
    5
 10
1440.0000000000009
 20
1286.307734354795
 11
1464.0000000000009
 21
1286.307734354795
  0
LINE
  8
_0-7_枠細線
  6
CONTINUOUS
 62
    5
 10
1452.0000000000009
 20
1310.307734354795
 11
1440.0000000000009
 21
1286.307734354795
  0
LINE
  8
_0-7_枠細線
  6
CONTINUOUS
 62
    5
 10
2280.0000000000009
 20
1284
 11
1424.0000000000009
 21
1284
  0
TEXT
  8
_0-7_枠細線
 62
    5
 10
1443.7842420290381
 20
1312.7896224110355
 40
20
 41
0.8
 50
0
  1
６
  0
TEXT
  8
_0-7_枠細線
 62
    5
 10
1443.7842420290381
 20
1284.7896224110352
 40
20
 41
0.8
 50
0
  1
７
  0
LINE
  8
_0-7_枠細線
  6
CONTINUOUS
 62
    5
 10
1424.0000000000009
 20
1284
 11
1424.0000000000009
 21
1535.9999999999986
  0
LINE
  8
_0-7_枠細線
  6
CONTINUOUS
 62
    5
 10
1480.0000000000009
 20
1284
 11
1480.0000000000009
 21
1535.9999999999986
  0
LINE
  8
_0-7_枠細線
  6
CONTINUOUS
 62
    5
 10
1880.0000000000009
 20
1284
 11
1880.0000000000009
 21
1535.9999999999986
  0
LINE
  8
_0-7_枠細線
  6
CONTINUOUS
 62
    5
 10
2040.0000000000009
 20
1284
 11
2040.0000000000009
 21
1535.9999999999986
  0
TEXT
  8
_0-7_枠細線
 62
    5
 10
1882.8453960905388
 20
608.00000000000011
 40
24
 41
0.7999999999999999
 50
0
  1
ライトグレー
  0
TEXT
  8
_0-7_枠細線
 62
    5
 10
1902.0453960905386
 20
648.00000000000011
 40
24
 41
0.7999999999999999
 50
0
  1
ベージュ
  0
TEXT
  8
_0-7_枠細線
 62
    5
 10
1902.0453960905386
 20
568.00000000000011
 40
24
 41
0.7999999999999999
 50
0
  1
ホワイト
  0
TEXT
  8
_0-7_枠細線
 62
    5
 10
1911.6453960905387
 20
528.00000000000011
 40
24
 41
0.7999999999999999
 50
0
  1
ピンク
  0
TEXT
  8
_0-7_枠細線
 62
    5
 10
1911.6453960905387
 20
488.00000000000006
 40
24
 41
0.7999999999999999
 50
0
  1
ブルー
  0
TEXT
  8
_0-7_枠細線
 62
    5
 10
1882.8453960905388
 20
448.00000000000006
 40
24
 41
0.7999999999999999
 50
0
  1
ダークグレー
  0
TEXT
  8
_0-7_枠細線
 62
    5
 10
1911.6453960905387
 20
408.00000000000006
 40
24
 41
0.7999999999999999
 50
0
  1
ウッド
  0
TEXT
  8
_0-7_枠細線
 62
    5
 10
1902.0453960905386
 20
328.00000000000011
 40
24
 41
0.7999999999999999
 50
0
  1
ブラック
  0
TEXT
  8
_0-7_枠細線
 62
    5
 10
1902.0453960905386
 20
368.00000000000011
 40
24
 41
0.7999999999999999
 50
0
  1
ブラウン
  0
LINE
  8
_0-7_枠細線
  6
CONTINUOUS
 62
    5
 10
1668.445396090538
 20
1133.8946910356817
 11
1668.445396090538
 21
1013.8946910356818
  0
TEXT
  8
_0-7_枠細線
 62
    5
 10
1671.7225259619299
 20
980.73377816458583
 40
24
 41
0.8000000000000001
 50
0
  1
※ 特寸品はAが20以下となるようBにて調整
  0
TEXT
  8
_0-7_枠細線
 62
    5
 10
1671.7225259619299
 20
949.54143699835436
 40
24
 41
0.8000000000000001
 50
0
  1
※ 角型の場合は、集水マス補強仕様による
  0
TEXT
  8
_0-7_枠細線
 62
    5
 10
1709.6453960905401
 20
1101.8946910356817
 40
24
 41
0.8000000000000001
 50
0
  1
種　別
  0
TEXT
  8
_0-7_枠細線
 62
    5
 10
1709.6453960905394
 20
1061.8946910356817
 40
24
 41
0.8000000000000001
 50
0
  1
定尺品
  0
TEXT
  8
_0-7_枠細線
 62
    5
 10
1709.6453960905394
 20
1021.8946910356818
 40
24
 41
0.8000000000000001
 50
0
  1
特寸品
  0
LINE
  8
_0-7_枠細線
  6
CONTINUOUS
 62
    5
 10
1808.4453960905403
 20
1133.8946910356817
 11
1808.4453960905403
 21
1013.8946910356818
  0
TEXT
  8
_0-7_枠細線
 62
    5
 10
1856.8453960905424
 20
1061.8946910356817
 40
24
 41
0.5999999999999999
 50
0
  1
９９９
  0
TEXT
  8
_0-7_枠細線
 62
    5
 10
1868.8453960905424
 20
1101.8946910356817
 40
24
 41
0.8000000000000001
 50
0
  1
Ｌ
  0
TEXT
  8
_0-7_枠細線
 62
    5
 10
1820.8453960905408
 20
1021.8946910356818
 40
24
 41
0.5999999999999999
 50
0
  1
３０５～１３０５
  0
LINE
  8
_0-7_枠細線
  6
CONTINUOUS
 62
    5
 10
1948.4453960905403
 20
1133.8946910356817
 11
1948.4453960905403
 21
1013.8946910356818
  0
TEXT
  8
_0-7_枠細線
 62
    5
 10
1849.254021948771
 20
1141.8946910356817
 40
28
 41
1
 50
0
  1
寸法表
  0
LINE
  8
_0-7_枠細線
  6
CONTINUOUS
 62
    5
 10
2228.4453960905416
 20
1133.8946910356817
 11
2228.4453960905416
 21
1013.8946910356818
  0
LINE
  8
_0-7_枠細線
  6
CONTINUOUS
 62
    5
 10
1668.445396090538
 20
1133.8946910356817
 11
2228.4453960905416
 21
1133.8946910356817
  0
LINE
  8
_0-7_枠細線
  6
CONTINUOUS
 62
    5
 10
1668.445396090538
 20
1093.8946910356817
 11
2228.4453960905416
 21
1093.8946910356817
  0
LINE
  8
_0-7_枠細線
  6
CONTINUOUS
 62
    5
 10
1668.445396090538
 20
1053.8946910356817
 11
2228.4453960905416
 21
1053.8946910356817
  0
LINE
  8
_0-7_枠細線
  6
CONTINUOUS
 62
    5
 10
1668.445396090538
 20
1013.8946910356818
 11
2228.4453960905416
 21
1013.8946910356818
  0
LINE
  8
_0-7_枠細線
  6
CONTINUOUS
 62
    5
 10
2088.4453960905412
 20
1133.8946910356817
 11
2088.4453960905412
 21
1013.8946910356818
  0
TEXT
  8
_0-7_枠細線
 62
    5
 10
1989.6453960905446
 20
1021.8946910356818
 40
24
 41
0.5999999999999999
 50
0
  1
７～２０
  0
TEXT
  8
_0-7_枠細線
 62
    5
 10
2008.8453960905458
 20
1101.8946910356817
 40
24
 41
0.8000000000000001
 50
0
  1
Ａ
  0
TEXT
  8
_0-7_枠細線
 62
    5
 10
2148.8453960905431
 20
1101.8946910356817
 40
24
 41
0.8000000000000001
 50
0
  1
Ｂ
  0
TEXT
  8
_0-7_枠細線
 62
    5
 10
2129.6453960905396
 20
1061.8946910356817
 40
24
 41
0.5999999999999999
 50
0
  1
４８．５
  0
TEXT
  8
_0-7_枠細線
 62
    5
 10
1989.6453960905405
 20
1061.8946910356817
 40
24
 41
0.5999999999999999
 50
0
  1
１４．５
  0
TEXT
  8
_0-7_枠細線
 62
    5
 10
2093.6453960905415
 20
1021.8946910356818
 40
24
 41
0.5999999999999999
 50
0
  1
２６．５～４８．５
  0
LINE
  8
_0-1_計細線
  6
CONTINUOUS
 62
    3
 10
337.73722627737197
 20
930.18678502224361
 11
1336.737226277372
 21
930.18678502224361
  0
LINE
  8
_0-1_計細線
  6
CONTINUOUS
 62
    3
 10
337.73722627737197
 20
941.58678502224416
 11
1336.737226277372
 21
941.58678502224416
  0
LINE
  8
_0-1_計細線
  6
CONTINUOUS
 62
    3
 10
337.73722627737197
 20
930.18678502224361
 11
337.73722627737197
 21
941.58678502224416
  0
LINE
  8
_0-1_計細線
  6
CONTINUOUS
 62
    3
 10
1336.737226277372
 20
930.18678502224361
 11
1336.737226277372
 21
941.58678502224416
  0
LINE
  8
_0-0_計極細
  6
CONTINUOUS
 62
    2
 10
337.73722627737197
 20
938.38678502224388
 11
1336.737226277372
 21
938.38678502224388
  0
LINE
  8
_0-0_計極細
  6
CONTINUOUS
 62
    2
 10
337.73722627737197
 20
933.38678502224388
 11
1336.737226277372
 21
933.38678502224388
  0
LINE
  8
_0-1_計細線
  6
CONTINUOUS
 62
    3
 10
337.73722627737197
 20
947.18678502224452
 11
1336.737226277372
 21
947.18678502224452
  0
LINE
  8
_0-1_計細線
  6
CONTINUOUS
 62
    3
 10
337.73722627737197
 20
958.58678502224507
 11
1336.737226277372
 21
958.58678502224507
  0
LINE
  8
_0-1_計細線
  6
CONTINUOUS
 62
    3
 10
337.73722627737197
 20
947.18678502224452
 11
337.73722627737197
 21
958.58678502224507
  0
LINE
  8
_0-1_計細線
  6
CONTINUOUS
 62
    3
 10
1336.737226277372
 20
947.18678502224452
 11
1336.737226277372
 21
958.58678502224507
  0
LINE
  8
_0-0_計極細
  6
CONTINUOUS
 62
    2
 10
337.73722627737197
 20
955.38678502224434
 11
1336.737226277372
 21
955.38678502224434
  0
LINE
  8
_0-0_計極細
  6
CONTINUOUS
 62
    2
 10
337.73722627737197
 20
950.38678502224434
 11
1336.737226277372
 21
950.38678502224434
  0
LINE
  8
_0-1_計細線
  6
CONTINUOUS
 62
    3
 10
337.73722627737197
 20
964.18678502224498
 11
1336.737226277372
 21
964.18678502224498
  0
LINE
  8
_0-1_計細線
  6
CONTINUOUS
 62
    3
 10
337.73722627737197
 20
975.58678502224552
 11
1336.737226277372
 21
975.58678502224552
  0
LINE
  8
_0-1_計細線
  6
CONTINUOUS
 62
    3
 10
337.73722627737197
 20
964.18678502224498
 11
337.73722627737197
 21
975.58678502224552
  0
LINE
  8
_0-1_計細線
  6
CONTINUOUS
 62
    3
 10
1336.737226277372
 20
964.18678502224498
 11
1336.737226277372
 21
975.58678502224552
  0
LINE
  8
_0-0_計極細
  6
CONTINUOUS
 62
    2
 10
337.73722627737197
 20
972.38678502224525
 11
1336.737226277372
 21
972.38678502224525
  0
LINE
  8
_0-0_計極細
  6
CONTINUOUS
 62
    2
 10
337.73722627737197
 20
967.38678502224525
 11
1336.737226277372
 21
967.38678502224525
  0
LINE
  8
_0-0_計極細
  6
CENTER2
 62
    2
 10
321.84862674035276
 20
995.38678502224343
 11
1352.7819600737298
 21
995.38678502224343
  0
LINE
  8
_0-1_計細線
  6
CONTINUOUS
 62
    3
 10
337.73722627737197
 20
1060.5867850222428
 11
1336.737226277372
 21
1060.5867850222428
  0
LINE
  8
_0-1_計細線
  6
CONTINUOUS
 62
    3
 10
337.73722627737197
 20
1049.1867850222422
 11
1336.737226277372
 21
1049.1867850222422
  0
LINE
  8
_0-1_計細線
  6
CONTINUOUS
 62
    3
 10
337.73722627737197
 20
1060.5867850222428
 11
337.73722627737197
 21
1049.1867850222422
  0
LINE
  8
_0-1_計細線
  6
CONTINUOUS
 62
    3
 10
1336.737226277372
 20
1060.5867850222428
 11
1336.737226277372
 21
1049.1867850222422
  0
LINE
  8
_0-0_計極細
  6
CONTINUOUS
 62
    2
 10
337.73722627737197
 20
1052.3867850222425
 11
1336.737226277372
 21
1052.3867850222425
  0
LINE
  8
_0-0_計極細
  6
CONTINUOUS
 62
    2
 10
337.73722627737197
 20
1057.3867850222425
 11
1336.737226277372
 21
1057.3867850222425
  0
LINE
  8
_0-1_計細線
  6
CONTINUOUS
 62
    3
 10
337.73722627737197
 20
1026.5867850222428
 11
1336.737226277372
 21
1026.5867850222428
  0
LINE
  8
_0-1_計細線
  6
CONTINUOUS
 62
    3
 10
337.73722627737197
 20
1015.1867850222422
 11
1336.737226277372
 21
1015.1867850222422
  0
LINE
  8
_0-1_計細線
  6
CONTINUOUS
 62
    3
 10
337.73722627737197
 20
1026.5867850222428
 11
337.73722627737197
 21
1015.1867850222422
  0
LINE
  8
_0-1_計細線
  6
CONTINUOUS
 62
    3
 10
1336.737226277372
 20
1026.5867850222428
 11
1336.737226277372
 21
1015.1867850222422
  0
LINE
  8
_0-0_計極細
  6
CONTINUOUS
 62
    2
 10
337.73722627737197
 20
1018.3867850222425
 11
1336.737226277372
 21
1018.3867850222425
  0
LINE
  8
_0-0_計極細
  6
CONTINUOUS
 62
    2
 10
337.73722627737197
 20
1023.3867850222425
 11
1336.737226277372
 21
1023.3867850222425
  0
LINE
  8
_0-1_計細線
  6
CONTINUOUS
 62
    3
 10
337.73722627737197
 20
1043.5867850222437
 11
1336.737226277372
 21
1043.5867850222437
  0
LINE
  8
_0-1_計細線
  6
CONTINUOUS
 62
    3
 10
337.73722627737197
 20
1032.1867850222432
 11
1336.737226277372
 21
1032.1867850222432
  0
LINE
  8
_0-1_計細線
  6
CONTINUOUS
 62
    3
 10
337.73722627737197
 20
1043.5867850222437
 11
337.73722627737197
 21
1032.1867850222432
  0
LINE
  8
_0-1_計細線
  6
CONTINUOUS
 62
    3
 10
1336.737226277372
 20
1043.5867850222437
 11
1336.737226277372
 21
1032.1867850222432
  0
LINE
  8
_0-0_計極細
  6
CONTINUOUS
 62
    2
 10
337.73722627737197
 20
1035.3867850222434
 11
1336.737226277372
 21
1035.3867850222434
  0
LINE
  8
_0-0_計極細
  6
CONTINUOUS
 62
    2
 10
337.73722627737197
 20
1040.3867850222434
 11
1336.737226277372
 21
1040.3867850222434
  0
LINE
  8
_0-1_計細線
  6
CONTINUOUS
 62
    3
 10
337.73722627737197
 20
1128.5867850222432
 11
1336.737226277372
 21
1128.5867850222432
  0
LINE
  8
_0-1_計細線
  6
CONTINUOUS
 62
    3
 10
337.73722627737197
 20
1117.1867850222427
 11
1336.737226277372
 21
1117.1867850222427
  0
LINE
  8
_0-1_計細線
  6
CONTINUOUS
 62
    3
 10
337.73722627737197
 20
1128.5867850222432
 11
337.73722627737197
 21
1117.1867850222427
  0
LINE
  8
_0-1_計細線
  6
CONTINUOUS
 62
    3
 10
1336.737226277372
 20
1128.5867850222432
 11
1336.737226277372
 21
1117.1867850222427
  0
LINE
  8
_0-0_計極細
  6
CONTINUOUS
 62
    2
 10
337.73722627737197
 20
1120.3867850222434
 11
1336.737226277372
 21
1120.3867850222434
  0
LINE
  8
_0-0_計極細
  6
CONTINUOUS
 62
    2
 10
337.73722627737197
 20
1125.3867850222434
 11
1336.737226277372
 21
1125.3867850222434
  0
LINE
  8
_0-1_計細線
  6
CONTINUOUS
 62
    3
 10
337.73722627737197
 20
862.1867850222427
 11
1336.737226277372
 21
862.1867850222427
  0
LINE
  8
_0-1_計細線
  6
CONTINUOUS
 62
    3
 10
337.73722627737197
 20
873.58678502224325
 11
1336.737226277372
 21
873.58678502224325
  0
LINE
  8
_0-1_計細線
  6
CONTINUOUS
 62
    3
 10
337.73722627737197
 20
862.1867850222427
 11
337.73722627737197
 21
873.58678502224325
  0
LINE
  8
_0-1_計細線
  6
CONTINUOUS
 62
    3
 10
1336.737226277372
 20
862.1867850222427
 11
1336.737226277372
 21
873.58678502224325
  0
LINE
  8
_0-0_計極細
  6
CONTINUOUS
 62
    2
 10
337.73722627737197
 20
870.38678502224343
 11
1336.737226277372
 21
870.38678502224343
  0
LINE
  8
_0-0_計極細
  6
CONTINUOUS
 62
    2
 10
337.73722627737197
 20
865.38678502224343
 11
1336.737226277372
 21
865.38678502224343
  0
LINE
  8
_0-1_計細線
  6
CONTINUOUS
 62
    3
 10
337.73722627737197
 20
1145.3867850222434
 11
1336.737226277372
 21
1145.3867850222434
  0
LINE
  8
_0-1_計細線
  6
CONTINUOUS
 62
    3
 10
337.73722627737197
 20
1133.9867850222429
 11
1336.737226277372
 21
1133.9867850222429
  0
LINE
  8
_0-1_計細線
  6
CONTINUOUS
 62
    3
 10
337.73722627737197
 20
1145.3867850222434
 11
337.73722627737197
 21
1133.9867850222429
  0
LINE
  8
_0-1_計細線
  6
CONTINUOUS
 62
    3
 10
1336.737226277372
 20
1145.3867850222434
 11
1336.737226277372
 21
1133.9867850222429
  0
LINE
  8
_0-0_計極細
  6
CONTINUOUS
 62
    2
 10
337.73722627737197
 20
1137.1867850222432
 11
1336.737226277372
 21
1137.1867850222432
  0
LINE
  8
_0-0_計極細
  6
CONTINUOUS
 62
    2
 10
337.73722627737197
 20
1142.1867850222432
 11
1336.737226277372
 21
1142.1867850222432
  0
LINE
  8
_0-1_計細線
  6
CONTINUOUS
 62
    3
 10
337.73722627737197
 20
845.38678502224388
 11
1336.737226277372
 21
845.38678502224388
  0
LINE
  8
_0-1_計細線
  6
CONTINUOUS
 62
    3
 10
337.73722627737197
 20
856.78678502224443
 11
1336.737226277372
 21
856.78678502224443
  0
LINE
  8
_0-1_計細線
  6
CONTINUOUS
 62
    3
 10
337.73722627737197
 20
845.38678502224388
 11
337.73722627737197
 21
856.78678502224443
  0
LINE
  8
_0-1_計細線
  6
CONTINUOUS
 62
    3
 10
1336.737226277372
 20
845.38678502224388
 11
1336.737226277372
 21
856.78678502224443
  0
LINE
  8
_0-0_計極細
  6
CONTINUOUS
 62
    2
 10
337.73722627737197
 20
853.58678502224416
 11
1336.737226277372
 21
853.58678502224416
  0
LINE
  8
_0-0_計極細
  6
CONTINUOUS
 62
    2
 10
337.73722627737197
 20
848.58678502224416
 11
1336.737226277372
 21
848.58678502224416
  0
LINE
  8
_0-1_計細線
  6
CONTINUOUS
 62
    3
 10
337.73722627737197
 20
1077.5867850222419
 11
1336.737226277372
 21
1077.5867850222419
  0
LINE
  8
_0-1_計細線
  6
CONTINUOUS
 62
    3
 10
337.73722627737197
 20
1066.1867850222413
 11
1336.737226277372
 21
1066.1867850222413
  0
LINE
  8
_0-1_計細線
  6
CONTINUOUS
 62
    3
 10
337.73722627737197
 20
1077.5867850222419
 11
337.73722627737197
 21
1066.1867850222413
  0
LINE
  8
_0-1_計細線
  6
CONTINUOUS
 62
    3
 10
1336.737226277372
 20
1077.5867850222419
 11
1336.737226277372
 21
1066.1867850222413
  0
LINE
  8
_0-0_計極細
  6
CONTINUOUS
 62
    2
 10
337.73722627737197
 20
1069.3867850222416
 11
1336.737226277372
 21
1069.3867850222416
  0
LINE
  8
_0-0_計極細
  6
CONTINUOUS
 62
    2
 10
337.73722627737197
 20
1074.3867850222416
 11
1336.737226277372
 21
1074.3867850222416
  0
LINE
  8
_0-1_計細線
  6
CONTINUOUS
 62
    3
 10
337.73722627737197
 20
1094.586785022241
 11
1336.737226277372
 21
1094.586785022241
  0
LINE
  8
_0-1_計細線
  6
CONTINUOUS
 62
    3
 10
337.73722627737197
 20
1083.1867850222404
 11
1336.737226277372
 21
1083.1867850222404
  0
LINE
  8
_0-1_計細線
  6
CONTINUOUS
 62
    3
 10
337.73722627737197
 20
1094.586785022241
 11
337.73722627737197
 21
1083.1867850222404
  0
LINE
  8
_0-1_計細線
  6
CONTINUOUS
 62
    3
 10
1336.737226277372
 20
1094.586785022241
 11
1336.737226277372
 21
1083.1867850222404
  0
LINE
  8
_0-0_計極細
  6
CONTINUOUS
 62
    2
 10
337.73722627737197
 20
1086.3867850222407
 11
1336.737226277372
 21
1086.3867850222407
  0
LINE
  8
_0-0_計極細
  6
CONTINUOUS
 62
    2
 10
337.73722627737197
 20
1091.3867850222407
 11
1336.737226277372
 21
1091.3867850222407
  0
LINE
  8
_0-1_計細線
  6
CONTINUOUS
 62
    3
 10
337.73722627737197
 20
1111.5867850222401
 11
1336.737226277372
 21
1111.5867850222401
  0
LINE
  8
_0-1_計細線
  6
CONTINUOUS
 62
    3
 10
337.73722627737197
 20
1100.1867850222395
 11
1336.737226277372
 21
1100.1867850222395
  0
LINE
  8
_0-1_計細線
  6
CONTINUOUS
 62
    3
 10
337.73722627737197
 20
1111.5867850222401
 11
337.73722627737197
 21
1100.1867850222395
  0
LINE
  8
_0-1_計細線
  6
CONTINUOUS
 62
    3
 10
1336.737226277372
 20
1111.5867850222401
 11
1336.737226277372
 21
1100.1867850222395
  0
LINE
  8
_0-0_計極細
  6
CONTINUOUS
 62
    2
 10
337.73722627737197
 20
1103.3867850222398
 11
1336.737226277372
 21
1103.3867850222398
  0
LINE
  8
_0-0_計極細
  6
CONTINUOUS
 62
    2
 10
337.73722627737197
 20
1108.3867850222398
 11
1336.737226277372
 21
1108.3867850222398
  0
LINE
  8
_0-1_計細線
  6
CONTINUOUS
 62
    3
 10
337.73722627737197
 20
913.18678502224498
 11
1336.737226277372
 21
913.18678502224498
  0
LINE
  8
_0-1_計細線
  6
CONTINUOUS
 62
    3
 10
337.73722627737197
 20
924.58678502224552
 11
1336.737226277372
 21
924.58678502224552
  0
LINE
  8
_0-1_計細線
  6
CONTINUOUS
 62
    3
 10
337.73722627737197
 20
913.18678502224498
 11
337.73722627737197
 21
924.58678502224552
  0
LINE
  8
_0-1_計細線
  6
CONTINUOUS
 62
    3
 10
1336.737226277372
 20
913.18678502224498
 11
1336.737226277372
 21
924.58678502224552
  0
LINE
  8
_0-0_計極細
  6
CONTINUOUS
 62
    2
 10
337.73722627737197
 20
921.38678502224525
 11
1336.737226277372
 21
921.38678502224525
  0
LINE
  8
_0-0_計極細
  6
CONTINUOUS
 62
    2
 10
337.73722627737197
 20
916.38678502224525
 11
1336.737226277372
 21
916.38678502224525
  0
LINE
  8
_0-1_計細線
  6
CONTINUOUS
 62
    3
 10
337.73722627737197
 20
896.18678502224589
 11
1336.737226277372
 21
896.18678502224589
  0
LINE
  8
_0-1_計細線
  6
CONTINUOUS
 62
    3
 10
337.73722627737197
 20
907.58678502224643
 11
1336.737226277372
 21
907.58678502224643
  0
LINE
  8
_0-1_計細線
  6
CONTINUOUS
 62
    3
 10
337.73722627737197
 20
896.18678502224589
 11
337.73722627737197
 21
907.58678502224643
  0
LINE
  8
_0-1_計細線
  6
CONTINUOUS
 62
    3
 10
1336.737226277372
 20
896.18678502224589
 11
1336.737226277372
 21
907.58678502224643
  0
LINE
  8
_0-0_計極細
  6
CONTINUOUS
 62
    2
 10
337.73722627737197
 20
904.38678502224616
 11
1336.737226277372
 21
904.38678502224616
  0
LINE
  8
_0-0_計極細
  6
CONTINUOUS
 62
    2
 10
337.73722627737197
 20
899.38678502224616
 11
1336.737226277372
 21
899.38678502224616
  0
LINE
  8
_0-1_計細線
  6
CONTINUOUS
 62
    3
 10
337.73722627737197
 20
879.1867850222468
 11
1336.737226277372
 21
879.1867850222468
  0
LINE
  8
_0-1_計細線
  6
CONTINUOUS
 62
    3
 10
337.73722627737197
 20
890.58678502224734
 11
1336.737226277372
 21
890.58678502224734
  0
LINE
  8
_0-1_計細線
  6
CONTINUOUS
 62
    3
 10
337.73722627737197
 20
879.1867850222468
 11
337.73722627737197
 21
890.58678502224734
  0
LINE
  8
_0-1_計細線
  6
CONTINUOUS
 62
    3
 10
1336.737226277372
 20
879.1867850222468
 11
1336.737226277372
 21
890.58678502224734
  0
LINE
  8
_0-0_計極細
  6
CONTINUOUS
 62
    2
 10
337.73722627737197
 20
887.38678502224707
 11
1336.737226277372
 21
887.38678502224707
  0
LINE
  8
_0-0_計極細
  6
CONTINUOUS
 62
    2
 10
337.73722627737197
 20
882.38678502224707
 11
1336.737226277372
 21
882.38678502224707
  0
ARC
  8
_0-0_計極細
  6
CONTINUOUS
 62
    2
 10
324.68344743405623
 20
1142.886785022243
 40
11.295514677412786
 50
138.39585046827571
 51
221.60414953172395
  0
ARC
  8
_0-0_計極細
  6
CONTINUOUS
 62
    2
 10
307.7910051206859
 20
1127.8867850222412
 40
11.295514677412786
 50
318.39585046827227
 51
41.60414953172549
  0
ARC
  8
_0-0_計極細
  6
CONTINUOUS
 62
    2
 10
324.68344743405623
 20
862.88678502224298
 40
11.295514677412786
 50
138.39585046827415
 51
221.60414953172548
  0
ARC
  8
_0-0_計極細
  6
CONTINUOUS
 62
    2
 10
307.7910051206859
 20
847.88678502224116
 40
11.295514677412786
 50
318.39585046827534
 51
41.604149531723962
  0
LINE
  8
_0-1_計細線
  6
CONTINUOUS
 62
    3
 10
316.23722627737016
 20
1150.386785022243
 11
1358.2372262773715
 21
1150.386785022243
  0
LINE
  8
_0-1_計細線
  6
CONTINUOUS
 62
    3
 10
1358.237226277372
 20
840.38678502224388
 11
316.23722627737106
 21
840.38678502224388
  0
ARC
  8
_0-0_計極細
  6
CONTINUOUS
 62
    2
 10
1366.6834474340571
 20
1142.886785022243
 40
11.295514677412786
 50
138.39585046827571
 51
221.60414953172395
  0
ARC
  8
_0-0_計極細
  6
CONTINUOUS
 62
    2
 10
1349.7910051206868
 20
1127.8867850222412
 40
11.295514677412786
 50
318.39585046827381
 51
41.60414953172549
  0
ARC
  8
_0-0_計極細
  6
CONTINUOUS
 62
    2
 10
1366.6834474340576
 20
862.88678502224298
 40
11.295514677412786
 50
138.39585046827415
 51
221.60414953172548
  0
ARC
  8
_0-0_計極細
  6
CONTINUOUS
 62
    2
 10
1349.7910051206868
 20
847.88678502224116
 40
11.295514677412786
 50
318.39585046827534
 51
41.604149531723962
  0
LINE
  8
_0-1_計細線
  6
CONTINUOUS
 62
    3
 10
314.32301057899758
 20
1147.386785022243
 11
1356.3230105789989
 21
1147.386785022243
  0
LINE
  8
_0-1_計細線
  6
CONTINUOUS
 62
    3
 10
1360.1514419757464
 20
843.38678502224388
 11
318.15144197574682
 21
843.38678502224388
  0
LINE
  8
_0-1_計細線
  6
CONTINUOUS
 62
    3
 10
1336.737226277372
 20
1120.386785022243
 11
1358.2372262773715
 21
1120.386785022243
  0
LINE
  8
_0-1_計細線
  6
CONTINUOUS
 62
    3
 10
1336.737226277372
 20
870.38678502224388
 11
1358.237226277372
 21
870.38678502224388
  0
LINE
  8
_0-1_計細線
  6
CONTINUOUS
 62
    3
 10
316.23722627737106
 20
870.38678502224388
 11
337.73722627737197
 21
870.38678502224388
  0
LINE
  8
_0-1_計細線
  6
CONTINUOUS
 62
    3
 10
316.23722627737016
 20
1120.386785022243
 11
337.73722627737197
 21
1120.386785022243
  0
LINE
  8
_0-0_計極細
  6
CONTINUOUS
 62
    2
 10
345.73722627737197
 20
941.58678502224416
 11
345.73722627737197
 21
947.18678502224452
  0
LINE
  8
_0-0_計極細
  6
CONTINUOUS
 62
    2
 10
358.73722627737197
 20
941.58678502224416
 11
358.73722627737197
 21
947.18678502224452
  0
LINE
  8
_0-0_計極細
  6
CONTINUOUS
 62
    2
 10
345.73722627737197
 20
958.58678502224507
 11
345.73722627737197
 21
964.18678502224498
  0
LINE
  8
_0-0_計極細
  6
CONTINUOUS
 62
    2
 10
358.73722627737197
 20
958.58678502224507
 11
358.73722627737197
 21
964.18678502224498
  0
LINE
  8
_0-0_計極細
  6
CONTINUOUS
 62
    2
 10
345.73722627737197
 20
981.18678502224088
 11
345.73722627737197
 21
975.58678502224097
  0
LINE
  8
_0-0_計極細
  6
CONTINUOUS
 62
    2
 10
358.73722627737197
 20
981.18678502224088
 11
358.73722627737197
 21
975.58678502224097
  0
LINE
  8
_0-0_計極細
  6
CONTINUOUS
 62
    2
 10
345.73722627737197
 20
998.18678502224179
 11
345.73722627737197
 21
992.58678502224143
  0
LINE
  8
_0-0_計極細
  6
CONTINUOUS
 62
    2
 10
358.73722627737197
 20
998.18678502224179
 11
358.73722627737197
 21
992.58678502224143
  0
LINE
  8
_0-0_計極細
  6
CONTINUOUS
 62
    2
 10
345.73722627737197
 20
1015.1867850222422
 11
345.73722627737197
 21
1009.5867850222423
  0
LINE
  8
_0-0_計極細
  6
CONTINUOUS
 62
    2
 10
358.73722627737197
 20
1015.1867850222422
 11
358.73722627737197
 21
1009.5867850222423
  0
LINE
  8
_0-0_計極細
  6
CONTINUOUS
 62
    2
 10
345.73722627737197
 20
1032.1867850222432
 11
345.73722627737197
 21
1026.5867850222428
  0
LINE
  8
_0-0_計極細
  6
CONTINUOUS
 62
    2
 10
358.73722627737197
 20
1032.1867850222432
 11
358.73722627737197
 21
1026.5867850222428
  0
LINE
  8
_0-0_計極細
  6
CONTINUOUS
 62
    2
 10
345.73722627737197
 20
1049.1867850222436
 11
345.73722627737197
 21
1043.5867850222437
  0
LINE
  8
_0-0_計極細
  6
CONTINUOUS
 62
    2
 10
358.73722627737197
 20
1049.1867850222436
 11
358.73722627737197
 21
1043.5867850222437
  0
LINE
  8
_0-0_計極細
  6
CONTINUOUS
 62
    2
 10
345.73722627737197
 20
1133.9867850222429
 11
345.73722627737197
 21
1128.5867850222428
  0
LINE
  8
_0-0_計極細
  6
CONTINUOUS
 62
    2
 10
358.73722627737197
 20
1133.9867850222429
 11
358.73722627737197
 21
1128.5867850222428
  0
LINE
  8
_0-0_計極細
  6
CONTINUOUS
 62
    2
 10
345.73722627737197
 20
856.78678502224307
 11
345.73722627737197
 21
862.1867850222427
  0
LINE
  8
_0-0_計極細
  6
CONTINUOUS
 62
    2
 10
358.73722627737197
 20
856.78678502224307
 11
358.73722627737197
 21
862.1867850222427
  0
LINE
  8
_0-0_計極細
  6
CENTER1
 62
    2
 10
352.23722627737197
 20
1154.1375044467052
 11
352.23722627737197
 21
837.6289612812318
  0
LINE
  8
_0-0_計極細
  6
CONTINUOUS
 62
    2
 10
345.73722627737197
 20
1066.1867850222427
 11
345.73722627737197
 21
1060.5867850222428
  0
LINE
  8
_0-0_計極細
  6
CONTINUOUS
 62
    2
 10
358.73722627737197
 20
1066.1867850222427
 11
358.73722627737197
 21
1060.5867850222428
  0
LINE
  8
_0-0_計極細
  6
CONTINUOUS
 62
    2
 10
345.73722627737197
 20
1083.1867850222418
 11
345.73722627737197
 21
1077.5867850222419
  0
LINE
  8
_0-0_計極細
  6
CONTINUOUS
 62
    2
 10
358.73722627737197
 20
1083.1867850222418
 11
358.73722627737197
 21
1077.5867850222419
  0
LINE
  8
_0-0_計極細
  6
CONTINUOUS
 62
    2
 10
345.73722627737197
 20
1100.1867850222409
 11
345.73722627737197
 21
1094.586785022241
  0
LINE
  8
_0-0_計極細
  6
CONTINUOUS
 62
    2
 10
358.73722627737197
 20
1100.1867850222409
 11
358.73722627737197
 21
1094.586785022241
  0
LINE
  8
_0-0_計極細
  6
CONTINUOUS
 62
    2
 10
345.73722627737197
 20
1117.18678502224
 11
345.73722627737197
 21
1111.5867850222401
  0
LINE
  8
_0-0_計極細
  6
CONTINUOUS
 62
    2
 10
358.73722627737197
 20
1117.18678502224
 11
358.73722627737197
 21
1111.5867850222401
  0
LINE
  8
_0-0_計極細
  6
CONTINUOUS
 62
    2
 10
345.73722627737197
 20
924.58678502224416
 11
345.73722627737197
 21
930.18678502224407
  0
LINE
  8
_0-0_計極細
  6
CONTINUOUS
 62
    2
 10
358.73722627737197
 20
924.58678502224416
 11
358.73722627737197
 21
930.18678502224407
  0
LINE
  8
_0-0_計極細
  6
CONTINUOUS
 62
    2
 10
345.73722627737197
 20
907.58678502224507
 11
345.73722627737197
 21
913.18678502224498
  0
LINE
  8
_0-0_計極細
  6
CONTINUOUS
 62
    2
 10
358.73722627737197
 20
907.58678502224507
 11
358.73722627737197
 21
913.18678502224498
  0
LINE
  8
_0-0_計極細
  6
CONTINUOUS
 62
    2
 10
345.73722627737197
 20
890.58678502224598
 11
345.73722627737197
 21
896.18678502224589
  0
LINE
  8
_0-0_計極細
  6
CONTINUOUS
 62
    2
 10
358.73722627737197
 20
890.58678502224598
 11
358.73722627737197
 21
896.18678502224589
  0
LINE
  8
_0-0_計極細
  6
CONTINUOUS
 62
    2
 10
345.73722627737197
 20
873.58678502224689
 11
345.73722627737197
 21
879.1867850222468
  0
LINE
  8
_0-0_計極細
  6
CONTINUOUS
 62
    2
 10
358.73722627737197
 20
873.58678502224689
 11
358.73722627737197
 21
879.1867850222468
  0
LINE
  8
_0-0_計極細
  6
CONTINUOUS
 62
    2
 10
1315.737226277372
 20
941.58678502224416
 11
1315.737226277372
 21
947.18678502224452
  0
LINE
  8
_0-0_計極細
  6
CONTINUOUS
 62
    2
 10
1328.737226277372
 20
941.58678502224416
 11
1328.737226277372
 21
947.18678502224452
  0
LINE
  8
_0-0_計極細
  6
CONTINUOUS
 62
    2
 10
1315.737226277372
 20
958.58678502224507
 11
1315.737226277372
 21
964.18678502224498
  0
LINE
  8
_0-0_計極細
  6
CONTINUOUS
 62
    2
 10
1328.737226277372
 20
958.58678502224507
 11
1328.737226277372
 21
964.18678502224498
  0
LINE
  8
_0-0_計極細
  6
CONTINUOUS
 62
    2
 10
1315.737226277372
 20
981.18678502224088
 11
1315.737226277372
 21
975.58678502224097
  0
LINE
  8
_0-0_計極細
  6
CONTINUOUS
 62
    2
 10
1328.737226277372
 20
981.18678502224088
 11
1328.737226277372
 21
975.58678502224097
  0
LINE
  8
_0-0_計極細
  6
CONTINUOUS
 62
    2
 10
1315.737226277372
 20
998.18678502224179
 11
1315.737226277372
 21
992.58678502224143
  0
LINE
  8
_0-0_計極細
  6
CONTINUOUS
 62
    2
 10
1328.737226277372
 20
998.18678502224179
 11
1328.737226277372
 21
992.58678502224143
  0
LINE
  8
_0-0_計極細
  6
CONTINUOUS
 62
    2
 10
1315.737226277372
 20
1015.1867850222422
 11
1315.737226277372
 21
1009.5867850222423
  0
LINE
  8
_0-0_計極細
  6
CONTINUOUS
 62
    2
 10
1328.737226277372
 20
1015.1867850222422
 11
1328.737226277372
 21
1009.5867850222423
  0
LINE
  8
_0-0_計極細
  6
CONTINUOUS
 62
    2
 10
1315.737226277372
 20
1032.1867850222432
 11
1315.737226277372
 21
1026.5867850222428
  0
LINE
  8
_0-0_計極細
  6
CONTINUOUS
 62
    2
 10
1328.737226277372
 20
1032.1867850222432
 11
1328.737226277372
 21
1026.5867850222428
  0
LINE
  8
_0-0_計極細
  6
CONTINUOUS
 62
    2
 10
1315.737226277372
 20
1049.1867850222436
 11
1315.737226277372
 21
1043.5867850222437
  0
LINE
  8
_0-0_計極細
  6
CONTINUOUS
 62
    2
 10
1328.737226277372
 20
1049.1867850222436
 11
1328.737226277372
 21
1043.5867850222437
  0
LINE
  8
_0-0_計極細
  6
CONTINUOUS
 62
    2
 10
1315.737226277372
 20
1133.9867850222429
 11
1315.737226277372
 21
1128.5867850222428
  0
LINE
  8
_0-0_計極細
  6
CONTINUOUS
 62
    2
 10
1328.737226277372
 20
1133.9867850222429
 11
1328.737226277372
 21
1128.5867850222428
  0
LINE
  8
_0-0_計極細
  6
CONTINUOUS
 62
    2
 10
1315.737226277372
 20
856.78678502224307
 11
1315.737226277372
 21
862.1867850222427
  0
LINE
  8
_0-0_計極細
  6
CONTINUOUS
 62
    2
 10
1328.737226277372
 20
856.78678502224307
 11
1328.737226277372
 21
862.1867850222427
  0
LINE
  8
_0-0_計極細
  6
CENTER1
 62
    2
 10
1322.237226277372
 20
1154.1375044467052
 11
1322.237226277372
 21
837.6289612812318
  0
LINE
  8
_0-0_計極細
  6
CONTINUOUS
 62
    2
 10
1315.737226277372
 20
1066.1867850222427
 11
1315.737226277372
 21
1060.5867850222428
  0
LINE
  8
_0-0_計極細
  6
CONTINUOUS
 62
    2
 10
1328.737226277372
 20
1066.1867850222427
 11
1328.737226277372
 21
1060.5867850222428
  0
LINE
  8
_0-0_計極細
  6
CONTINUOUS
 62
    2
 10
1315.737226277372
 20
1083.1867850222418
 11
1315.737226277372
 21
1077.5867850222419
  0
LINE
  8
_0-0_計極細
  6
CONTINUOUS
 62
    2
 10
1328.737226277372
 20
1083.1867850222418
 11
1328.737226277372
 21
1077.5867850222419
  0
LINE
  8
_0-0_計極細
  6
CONTINUOUS
 62
    2
 10
1315.737226277372
 20
1100.1867850222409
 11
1315.737226277372
 21
1094.586785022241
  0
LINE
  8
_0-0_計極細
  6
CONTINUOUS
 62
    2
 10
1328.737226277372
 20
1100.1867850222409
 11
1328.737226277372
 21
1094.586785022241
  0
LINE
  8
_0-0_計極細
  6
CONTINUOUS
 62
    2
 10
1315.737226277372
 20
1117.18678502224
 11
1315.737226277372
 21
1111.5867850222401
  0
LINE
  8
_0-0_計極細
  6
CONTINUOUS
 62
    2
 10
1328.737226277372
 20
1117.18678502224
 11
1328.737226277372
 21
1111.5867850222401
  0
LINE
  8
_0-0_計極細
  6
CONTINUOUS
 62
    2
 10
1315.737226277372
 20
924.58678502224416
 11
1315.737226277372
 21
930.18678502224407
  0
LINE
  8
_0-0_計極細
  6
CONTINUOUS
 62
    2
 10
1328.737226277372
 20
924.58678502224416
 11
1328.737226277372
 21
930.18678502224407
  0
LINE
  8
_0-0_計極細
  6
CONTINUOUS
 62
    2
 10
1315.737226277372
 20
907.58678502224507
 11
1315.737226277372
 21
913.18678502224498
  0
LINE
  8
_0-0_計極細
  6
CONTINUOUS
 62
    2
 10
1328.737226277372
 20
907.58678502224507
 11
1328.737226277372
 21
913.18678502224498
  0
LINE
  8
_0-0_計極細
  6
CONTINUOUS
 62
    2
 10
1315.737226277372
 20
890.58678502224598
 11
1315.737226277372
 21
896.18678502224589
  0
LINE
  8
_0-0_計極細
  6
CONTINUOUS
 62
    2
 10
1328.737226277372
 20
890.58678502224598
 11
1328.737226277372
 21
896.18678502224589
  0
LINE
  8
_0-0_計極細
  6
CONTINUOUS
 62
    2
 10
1315.737226277372
 20
873.58678502224689
 11
1315.737226277372
 21
879.1867850222468
  0
LINE
  8
_0-0_計極細
  6
CONTINUOUS
 62
    2
 10
1328.737226277372
 20
873.58678502224689
 11
1328.737226277372
 21
879.1867850222468
  0
LINE
  8
_0-0_計極細
  6
CENTER1
 62
    2
 10
1225.237226277372
 20
1154.1375044467052
 11
1225.237226277372
 21
837.6289612812318
  0
LINE
  8
_0-0_計極細
  6
CONTINUOUS
 62
    2
 10
1218.737226277372
 20
941.58678502224416
 11
1218.737226277372
 21
947.18678502224452
  0
LINE
  8
_0-0_計極細
  6
CONTINUOUS
 62
    2
 10
1231.737226277372
 20
941.58678502224416
 11
1231.737226277372
 21
947.18678502224452
  0
LINE
  8
_0-0_計極細
  6
CONTINUOUS
 62
    2
 10
1218.737226277372
 20
958.58678502224507
 11
1218.737226277372
 21
964.18678502224498
  0
LINE
  8
_0-0_計極細
  6
CONTINUOUS
 62
    2
 10
1231.737226277372
 20
958.58678502224507
 11
1231.737226277372
 21
964.18678502224498
  0
LINE
  8
_0-0_計極細
  6
CONTINUOUS
 62
    2
 10
1218.737226277372
 20
981.18678502224088
 11
1218.737226277372
 21
975.58678502224097
  0
LINE
  8
_0-0_計極細
  6
CONTINUOUS
 62
    2
 10
1231.737226277372
 20
981.18678502224088
 11
1231.737226277372
 21
975.58678502224097
  0
LINE
  8
_0-0_計極細
  6
CONTINUOUS
 62
    2
 10
1218.737226277372
 20
998.18678502224179
 11
1218.737226277372
 21
992.58678502224143
  0
LINE
  8
_0-0_計極細
  6
CONTINUOUS
 62
    2
 10
1231.737226277372
 20
998.18678502224179
 11
1231.737226277372
 21
992.58678502224143
  0
LINE
  8
_0-0_計極細
  6
CONTINUOUS
 62
    2
 10
1218.737226277372
 20
1015.1867850222422
 11
1218.737226277372
 21
1009.5867850222423
  0
LINE
  8
_0-0_計極細
  6
CONTINUOUS
 62
    2
 10
1231.737226277372
 20
1015.1867850222422
 11
1231.737226277372
 21
1009.5867850222423
  0
LINE
  8
_0-0_計極細
  6
CONTINUOUS
 62
    2
 10
1218.737226277372
 20
1032.1867850222432
 11
1218.737226277372
 21
1026.5867850222428
  0
LINE
  8
_0-0_計極細
  6
CONTINUOUS
 62
    2
 10
1231.737226277372
 20
1032.1867850222432
 11
1231.737226277372
 21
1026.5867850222428
  0
LINE
  8
_0-0_計極細
  6
CONTINUOUS
 62
    2
 10
1218.737226277372
 20
1049.1867850222436
 11
1218.737226277372
 21
1043.5867850222437
  0
LINE
  8
_0-0_計極細
  6
CONTINUOUS
 62
    2
 10
1231.737226277372
 20
1049.1867850222436
 11
1231.737226277372
 21
1043.5867850222437
  0
LINE
  8
_0-0_計極細
  6
CONTINUOUS
 62
    2
 10
1218.737226277372
 20
1133.9867850222429
 11
1218.737226277372
 21
1128.5867850222428
  0
LINE
  8
_0-0_計極細
  6
CONTINUOUS
 62
    2
 10
1231.737226277372
 20
1133.9867850222429
 11
1231.737226277372
 21
1128.5867850222428
  0
LINE
  8
_0-0_計極細
  6
CONTINUOUS
 62
    2
 10
1218.737226277372
 20
856.78678502224307
 11
1218.737226277372
 21
862.1867850222427
  0
LINE
  8
_0-0_計極細
  6
CONTINUOUS
 62
    2
 10
1231.737226277372
 20
856.78678502224307
 11
1231.737226277372
 21
862.1867850222427
  0
LINE
  8
_0-0_計極細
  6
CONTINUOUS
 62
    2
 10
1218.737226277372
 20
1066.1867850222427
 11
1218.737226277372
 21
1060.5867850222428
  0
LINE
  8
_0-0_計極細
  6
CONTINUOUS
 62
    2
 10
1231.737226277372
 20
1066.1867850222427
 11
1231.737226277372
 21
1060.5867850222428
  0
LINE
  8
_0-0_計極細
  6
CONTINUOUS
 62
    2
 10
1218.737226277372
 20
1083.1867850222418
 11
1218.737226277372
 21
1077.5867850222419
  0
LINE
  8
_0-0_計極細
  6
CONTINUOUS
 62
    2
 10
1231.737226277372
 20
1083.1867850222418
 11
1231.737226277372
 21
1077.5867850222419
  0
LINE
  8
_0-0_計極細
  6
CONTINUOUS
 62
    2
 10
1218.737226277372
 20
1100.1867850222409
 11
1218.737226277372
 21
1094.586785022241
  0
LINE
  8
_0-0_計極細
  6
CONTINUOUS
 62
    2
 10
1231.737226277372
 20
1100.1867850222409
 11
1231.737226277372
 21
1094.586785022241
  0
LINE
  8
_0-0_計極細
  6
CONTINUOUS
 62
    2
 10
1218.737226277372
 20
1117.18678502224
 11
1218.737226277372
 21
1111.5867850222401
  0
LINE
  8
_0-0_計極細
  6
CONTINUOUS
 62
    2
 10
1231.737226277372
 20
1117.18678502224
 11
1231.737226277372
 21
1111.5867850222401
  0
LINE
  8
_0-0_計極細
  6
CONTINUOUS
 62
    2
 10
1218.737226277372
 20
924.58678502224416
 11
1218.737226277372
 21
930.18678502224407
  0
LINE
  8
_0-0_計極細
  6
CONTINUOUS
 62
    2
 10
1231.737226277372
 20
924.58678502224416
 11
1231.737226277372
 21
930.18678502224407
  0
LINE
  8
_0-0_計極細
  6
CONTINUOUS
 62
    2
 10
1218.737226277372
 20
907.58678502224507
 11
1218.737226277372
 21
913.18678502224498
  0
LINE
  8
_0-0_計極細
  6
CONTINUOUS
 62
    2
 10
1231.737226277372
 20
907.58678502224507
 11
1231.737226277372
 21
913.18678502224498
  0
LINE
  8
_0-0_計極細
  6
CONTINUOUS
 62
    2
 10
1218.737226277372
 20
890.58678502224598
 11
1218.737226277372
 21
896.18678502224589
  0
LINE
  8
_0-0_計極細
  6
CONTINUOUS
 62
    2
 10
1231.737226277372
 20
890.58678502224598
 11
1231.737226277372
 21
896.18678502224589
  0
LINE
  8
_0-0_計極細
  6
CONTINUOUS
 62
    2
 10
1218.737226277372
 20
873.58678502224689
 11
1218.737226277372
 21
879.1867850222468
  0
LINE
  8
_0-0_計極細
  6
CONTINUOUS
 62
    2
 10
1231.737226277372
 20
873.58678502224689
 11
1231.737226277372
 21
879.1867850222468
  0
LINE
  8
_0-0_計極細
  6
CENTER1
 62
    2
 10
1128.237226277372
 20
1154.1375044467052
 11
1128.237226277372
 21
837.6289612812318
  0
LINE
  8
_0-0_計極細
  6
CONTINUOUS
 62
    2
 10
1121.737226277372
 20
941.58678502224416
 11
1121.737226277372
 21
947.18678502224452
  0
LINE
  8
_0-0_計極細
  6
CONTINUOUS
 62
    2
 10
1134.737226277372
 20
941.58678502224416
 11
1134.737226277372
 21
947.18678502224452
  0
LINE
  8
_0-0_計極細
  6
CONTINUOUS
 62
    2
 10
1121.737226277372
 20
958.58678502224507
 11
1121.737226277372
 21
964.18678502224498
  0
LINE
  8
_0-0_計極細
  6
CONTINUOUS
 62
    2
 10
1134.737226277372
 20
958.58678502224507
 11
1134.737226277372
 21
964.18678502224498
  0
LINE
  8
_0-0_計極細
  6
CONTINUOUS
 62
    2
 10
1121.737226277372
 20
981.18678502224088
 11
1121.737226277372
 21
975.58678502224097
  0
LINE
  8
_0-0_計極細
  6
CONTINUOUS
 62
    2
 10
1134.737226277372
 20
981.18678502224088
 11
1134.737226277372
 21
975.58678502224097
  0
LINE
  8
_0-0_計極細
  6
CONTINUOUS
 62
    2
 10
1121.737226277372
 20
998.18678502224179
 11
1121.737226277372
 21
992.58678502224143
  0
LINE
  8
_0-0_計極細
  6
CONTINUOUS
 62
    2
 10
1134.737226277372
 20
998.18678502224179
 11
1134.737226277372
 21
992.58678502224143
  0
LINE
  8
_0-0_計極細
  6
CONTINUOUS
 62
    2
 10
1121.737226277372
 20
1015.1867850222422
 11
1121.737226277372
 21
1009.5867850222423
  0
LINE
  8
_0-0_計極細
  6
CONTINUOUS
 62
    2
 10
1134.737226277372
 20
1015.1867850222422
 11
1134.737226277372
 21
1009.5867850222423
  0
LINE
  8
_0-0_計極細
  6
CONTINUOUS
 62
    2
 10
1121.737226277372
 20
1032.1867850222432
 11
1121.737226277372
 21
1026.5867850222428
  0
LINE
  8
_0-0_計極細
  6
CONTINUOUS
 62
    2
 10
1134.737226277372
 20
1032.1867850222432
 11
1134.737226277372
 21
1026.5867850222428
  0
LINE
  8
_0-0_計極細
  6
CONTINUOUS
 62
    2
 10
1121.737226277372
 20
1049.1867850222436
 11
1121.737226277372
 21
1043.5867850222437
  0
LINE
  8
_0-0_計極細
  6
CONTINUOUS
 62
    2
 10
1134.737226277372
 20
1049.1867850222436
 11
1134.737226277372
 21
1043.5867850222437
  0
LINE
  8
_0-0_計極細
  6
CONTINUOUS
 62
    2
 10
1121.737226277372
 20
1133.9867850222429
 11
1121.737226277372
 21
1128.5867850222428
  0
LINE
  8
_0-0_計極細
  6
CONTINUOUS
 62
    2
 10
1134.737226277372
 20
1133.9867850222429
 11
1134.737226277372
 21
1128.5867850222428
  0
LINE
  8
_0-0_計極細
  6
CONTINUOUS
 62
    2
 10
1121.737226277372
 20
856.78678502224307
 11
1121.737226277372
 21
862.1867850222427
  0
LINE
  8
_0-0_計極細
  6
CONTINUOUS
 62
    2
 10
1134.737226277372
 20
856.78678502224307
 11
1134.737226277372
 21
862.1867850222427
  0
LINE
  8
_0-0_計極細
  6
CONTINUOUS
 62
    2
 10
1121.737226277372
 20
1066.1867850222427
 11
1121.737226277372
 21
1060.5867850222428
  0
LINE
  8
_0-0_計極細
  6
CONTINUOUS
 62
    2
 10
1134.737226277372
 20
1066.1867850222427
 11
1134.737226277372
 21
1060.5867850222428
  0
LINE
  8
_0-0_計極細
  6
CONTINUOUS
 62
    2
 10
1121.737226277372
 20
1083.1867850222418
 11
1121.737226277372
 21
1077.5867850222419
  0
LINE
  8
_0-0_計極細
  6
CONTINUOUS
 62
    2
 10
1134.737226277372
 20
1083.1867850222418
 11
1134.737226277372
 21
1077.5867850222419
  0
LINE
  8
_0-0_計極細
  6
CONTINUOUS
 62
    2
 10
1121.737226277372
 20
1100.1867850222409
 11
1121.737226277372
 21
1094.586785022241
  0
LINE
  8
_0-0_計極細
  6
CONTINUOUS
 62
    2
 10
1134.737226277372
 20
1100.1867850222409
 11
1134.737226277372
 21
1094.586785022241
  0
LINE
  8
_0-0_計極細
  6
CONTINUOUS
 62
    2
 10
1121.737226277372
 20
1117.18678502224
 11
1121.737226277372
 21
1111.5867850222401
  0
LINE
  8
_0-0_計極細
  6
CONTINUOUS
 62
    2
 10
1134.737226277372
 20
1117.18678502224
 11
1134.737226277372
 21
1111.5867850222401
  0
LINE
  8
_0-0_計極細
  6
CONTINUOUS
 62
    2
 10
1121.737226277372
 20
924.58678502224416
 11
1121.737226277372
 21
930.18678502224407
  0
LINE
  8
_0-0_計極細
  6
CONTINUOUS
 62
    2
 10
1134.737226277372
 20
924.58678502224416
 11
1134.737226277372
 21
930.18678502224407
  0
LINE
  8
_0-0_計極細
  6
CONTINUOUS
 62
    2
 10
1121.737226277372
 20
907.58678502224507
 11
1121.737226277372
 21
913.18678502224498
  0
LINE
  8
_0-0_計極細
  6
CONTINUOUS
 62
    2
 10
1134.737226277372
 20
907.58678502224507
 11
1134.737226277372
 21
913.18678502224498
  0
LINE
  8
_0-0_計極細
  6
CONTINUOUS
 62
    2
 10
1121.737226277372
 20
890.58678502224598
 11
1121.737226277372
 21
896.18678502224589
  0
LINE
  8
_0-0_計極細
  6
CONTINUOUS
 62
    2
 10
1134.737226277372
 20
890.58678502224598
 11
1134.737226277372
 21
896.18678502224589
  0
LINE
  8
_0-0_計極細
  6
CONTINUOUS
 62
    2
 10
1121.737226277372
 20
873.58678502224689
 11
1121.737226277372
 21
879.1867850222468
  0
LINE
  8
_0-0_計極細
  6
CONTINUOUS
 62
    2
 10
1134.737226277372
 20
873.58678502224689
 11
1134.737226277372
 21
879.1867850222468
  0
LINE
  8
_0-0_計極細
  6
CENTER1
 62
    2
 10
1031.237226277372
 20
1154.1375044467052
 11
1031.237226277372
 21
837.6289612812318
  0
LINE
  8
_0-0_計極細
  6
CONTINUOUS
 62
    2
 10
1024.737226277372
 20
941.58678502224416
 11
1024.737226277372
 21
947.18678502224452
  0
LINE
  8
_0-0_計極細
  6
CONTINUOUS
 62
    2
 10
1037.737226277372
 20
941.58678502224416
 11
1037.737226277372
 21
947.18678502224452
  0
LINE
  8
_0-0_計極細
  6
CONTINUOUS
 62
    2
 10
1024.737226277372
 20
958.58678502224507
 11
1024.737226277372
 21
964.18678502224498
  0
LINE
  8
_0-0_計極細
  6
CONTINUOUS
 62
    2
 10
1037.737226277372
 20
958.58678502224507
 11
1037.737226277372
 21
964.18678502224498
  0
LINE
  8
_0-0_計極細
  6
CONTINUOUS
 62
    2
 10
1024.737226277372
 20
981.18678502224088
 11
1024.737226277372
 21
975.58678502224097
  0
LINE
  8
_0-0_計極細
  6
CONTINUOUS
 62
    2
 10
1037.737226277372
 20
981.18678502224088
 11
1037.737226277372
 21
975.58678502224097
  0
LINE
  8
_0-0_計極細
  6
CONTINUOUS
 62
    2
 10
1024.737226277372
 20
998.18678502224179
 11
1024.737226277372
 21
992.58678502224143
  0
LINE
  8
_0-0_計極細
  6
CONTINUOUS
 62
    2
 10
1037.737226277372
 20
998.18678502224179
 11
1037.737226277372
 21
992.58678502224143
  0
LINE
  8
_0-0_計極細
  6
CONTINUOUS
 62
    2
 10
1024.737226277372
 20
1015.1867850222422
 11
1024.737226277372
 21
1009.5867850222423
  0
LINE
  8
_0-0_計極細
  6
CONTINUOUS
 62
    2
 10
1037.737226277372
 20
1015.1867850222422
 11
1037.737226277372
 21
1009.5867850222423
  0
LINE
  8
_0-0_計極細
  6
CONTINUOUS
 62
    2
 10
1024.737226277372
 20
1032.1867850222432
 11
1024.737226277372
 21
1026.5867850222428
  0
LINE
  8
_0-0_計極細
  6
CONTINUOUS
 62
    2
 10
1037.737226277372
 20
1032.1867850222432
 11
1037.737226277372
 21
1026.5867850222428
  0
LINE
  8
_0-0_計極細
  6
CONTINUOUS
 62
    2
 10
1024.737226277372
 20
1049.1867850222436
 11
1024.737226277372
 21
1043.5867850222437
  0
LINE
  8
_0-0_計極細
  6
CONTINUOUS
 62
    2
 10
1037.737226277372
 20
1049.1867850222436
 11
1037.737226277372
 21
1043.5867850222437
  0
LINE
  8
_0-0_計極細
  6
CONTINUOUS
 62
    2
 10
1024.737226277372
 20
1133.9867850222429
 11
1024.737226277372
 21
1128.5867850222428
  0
LINE
  8
_0-0_計極細
  6
CONTINUOUS
 62
    2
 10
1037.737226277372
 20
1133.9867850222429
 11
1037.737226277372
 21
1128.5867850222428
  0
LINE
  8
_0-0_計極細
  6
CONTINUOUS
 62
    2
 10
1024.737226277372
 20
856.78678502224307
 11
1024.737226277372
 21
862.1867850222427
  0
LINE
  8
_0-0_計極細
  6
CONTINUOUS
 62
    2
 10
1037.737226277372
 20
856.78678502224307
 11
1037.737226277372
 21
862.1867850222427
  0
LINE
  8
_0-0_計極細
  6
CONTINUOUS
 62
    2
 10
1024.737226277372
 20
1066.1867850222427
 11
1024.737226277372
 21
1060.5867850222428
  0
LINE
  8
_0-0_計極細
  6
CONTINUOUS
 62
    2
 10
1037.737226277372
 20
1066.1867850222427
 11
1037.737226277372
 21
1060.5867850222428
  0
LINE
  8
_0-0_計極細
  6
CONTINUOUS
 62
    2
 10
1024.737226277372
 20
1083.1867850222418
 11
1024.737226277372
 21
1077.5867850222419
  0
LINE
  8
_0-0_計極細
  6
CONTINUOUS
 62
    2
 10
1037.737226277372
 20
1083.1867850222418
 11
1037.737226277372
 21
1077.5867850222419
  0
LINE
  8
_0-0_計極細
  6
CONTINUOUS
 62
    2
 10
1024.737226277372
 20
1100.1867850222409
 11
1024.737226277372
 21
1094.586785022241
  0
LINE
  8
_0-0_計極細
  6
CONTINUOUS
 62
    2
 10
1037.737226277372
 20
1100.1867850222409
 11
1037.737226277372
 21
1094.586785022241
  0
LINE
  8
_0-0_計極細
  6
CONTINUOUS
 62
    2
 10
1024.737226277372
 20
1117.18678502224
 11
1024.737226277372
 21
1111.5867850222401
  0
LINE
  8
_0-0_計極細
  6
CONTINUOUS
 62
    2
 10
1037.737226277372
 20
1117.18678502224
 11
1037.737226277372
 21
1111.5867850222401
  0
LINE
  8
_0-0_計極細
  6
CONTINUOUS
 62
    2
 10
1024.737226277372
 20
924.58678502224416
 11
1024.737226277372
 21
930.18678502224407
  0
LINE
  8
_0-0_計極細
  6
CONTINUOUS
 62
    2
 10
1037.737226277372
 20
924.58678502224416
 11
1037.737226277372
 21
930.18678502224407
  0
LINE
  8
_0-0_計極細
  6
CONTINUOUS
 62
    2
 10
1024.737226277372
 20
907.58678502224507
 11
1024.737226277372
 21
913.18678502224498
  0
LINE
  8
_0-0_計極細
  6
CONTINUOUS
 62
    2
 10
1037.737226277372
 20
907.58678502224507
 11
1037.737226277372
 21
913.18678502224498
  0
LINE
  8
_0-0_計極細
  6
CONTINUOUS
 62
    2
 10
1024.737226277372
 20
890.58678502224598
 11
1024.737226277372
 21
896.18678502224589
  0
LINE
  8
_0-0_計極細
  6
CONTINUOUS
 62
    2
 10
1037.737226277372
 20
890.58678502224598
 11
1037.737226277372
 21
896.18678502224589
  0
LINE
  8
_0-0_計極細
  6
CONTINUOUS
 62
    2
 10
1024.737226277372
 20
873.58678502224689
 11
1024.737226277372
 21
879.1867850222468
  0
LINE
  8
_0-0_計極細
  6
CONTINUOUS
 62
    2
 10
1037.737226277372
 20
873.58678502224689
 11
1037.737226277372
 21
879.1867850222468
  0
LINE
  8
_0-0_計極細
  6
CENTER1
 62
    2
 10
934.23722627737197
 20
1154.1375044467052
 11
934.23722627737197
 21
837.6289612812318
  0
LINE
  8
_0-0_計極細
  6
CONTINUOUS
 62
    2
 10
927.73722627737197
 20
941.58678502224416
 11
927.73722627737197
 21
947.18678502224452
  0
LINE
  8
_0-0_計極細
  6
CONTINUOUS
 62
    2
 10
940.73722627737197
 20
941.58678502224416
 11
940.73722627737197
 21
947.18678502224452
  0
LINE
  8
_0-0_計極細
  6
CONTINUOUS
 62
    2
 10
927.73722627737197
 20
958.58678502224507
 11
927.73722627737197
 21
964.18678502224498
  0
LINE
  8
_0-0_計極細
  6
CONTINUOUS
 62
    2
 10
940.73722627737197
 20
958.58678502224507
 11
940.73722627737197
 21
964.18678502224498
  0
LINE
  8
_0-0_計極細
  6
CONTINUOUS
 62
    2
 10
927.73722627737197
 20
981.18678502224088
 11
927.73722627737197
 21
975.58678502224097
  0
LINE
  8
_0-0_計極細
  6
CONTINUOUS
 62
    2
 10
940.73722627737197
 20
981.18678502224088
 11
940.73722627737197
 21
975.58678502224097
  0
LINE
  8
_0-0_計極細
  6
CONTINUOUS
 62
    2
 10
927.73722627737197
 20
998.18678502224179
 11
927.73722627737197
 21
992.58678502224143
  0
LINE
  8
_0-0_計極細
  6
CONTINUOUS
 62
    2
 10
940.73722627737197
 20
998.18678502224179
 11
940.73722627737197
 21
992.58678502224143
  0
LINE
  8
_0-0_計極細
  6
CONTINUOUS
 62
    2
 10
927.73722627737197
 20
1015.1867850222422
 11
927.73722627737197
 21
1009.5867850222423
  0
LINE
  8
_0-0_計極細
  6
CONTINUOUS
 62
    2
 10
940.73722627737197
 20
1015.1867850222422
 11
940.73722627737197
 21
1009.5867850222423
  0
LINE
  8
_0-0_計極細
  6
CONTINUOUS
 62
    2
 10
927.73722627737197
 20
1032.1867850222432
 11
927.73722627737197
 21
1026.5867850222428
  0
LINE
  8
_0-0_計極細
  6
CONTINUOUS
 62
    2
 10
940.73722627737197
 20
1032.1867850222432
 11
940.73722627737197
 21
1026.5867850222428
  0
LINE
  8
_0-0_計極細
  6
CONTINUOUS
 62
    2
 10
927.73722627737197
 20
1049.1867850222436
 11
927.73722627737197
 21
1043.5867850222437
  0
LINE
  8
_0-0_計極細
  6
CONTINUOUS
 62
    2
 10
940.73722627737197
 20
1049.1867850222436
 11
940.73722627737197
 21
1043.5867850222437
  0
LINE
  8
_0-0_計極細
  6
CONTINUOUS
 62
    2
 10
927.73722627737197
 20
1133.9867850222429
 11
927.73722627737197
 21
1128.5867850222428
  0
LINE
  8
_0-0_計極細
  6
CONTINUOUS
 62
    2
 10
940.73722627737197
 20
1133.9867850222429
 11
940.73722627737197
 21
1128.5867850222428
  0
LINE
  8
_0-0_計極細
  6
CONTINUOUS
 62
    2
 10
927.73722627737197
 20
856.78678502224307
 11
927.73722627737197
 21
862.1867850222427
  0
LINE
  8
_0-0_計極細
  6
CONTINUOUS
 62
    2
 10
940.73722627737197
 20
856.78678502224307
 11
940.73722627737197
 21
862.1867850222427
  0
LINE
  8
_0-0_計極細
  6
CONTINUOUS
 62
    2
 10
927.73722627737197
 20
1066.1867850222427
 11
927.73722627737197
 21
1060.5867850222428
  0
LINE
  8
_0-0_計極細
  6
CONTINUOUS
 62
    2
 10
940.73722627737197
 20
1066.1867850222427
 11
940.73722627737197
 21
1060.5867850222428
  0
LINE
  8
_0-0_計極細
  6
CONTINUOUS
 62
    2
 10
927.73722627737197
 20
1083.1867850222418
 11
927.73722627737197
 21
1077.5867850222419
  0
LINE
  8
_0-0_計極細
  6
CONTINUOUS
 62
    2
 10
940.73722627737197
 20
1083.1867850222418
 11
940.73722627737197
 21
1077.5867850222419
  0
LINE
  8
_0-0_計極細
  6
CONTINUOUS
 62
    2
 10
927.73722627737197
 20
1100.1867850222409
 11
927.73722627737197
 21
1094.586785022241
  0
LINE
  8
_0-0_計極細
  6
CONTINUOUS
 62
    2
 10
940.73722627737197
 20
1100.1867850222409
 11
940.73722627737197
 21
1094.586785022241
  0
LINE
  8
_0-0_計極細
  6
CONTINUOUS
 62
    2
 10
927.73722627737197
 20
1117.18678502224
 11
927.73722627737197
 21
1111.5867850222401
  0
LINE
  8
_0-0_計極細
  6
CONTINUOUS
 62
    2
 10
940.73722627737197
 20
1117.18678502224
 11
940.73722627737197
 21
1111.5867850222401
  0
LINE
  8
_0-0_計極細
  6
CONTINUOUS
 62
    2
 10
927.73722627737197
 20
924.58678502224416
 11
927.73722627737197
 21
930.18678502224407
  0
LINE
  8
_0-0_計極細
  6
CONTINUOUS
 62
    2
 10
940.73722627737197
 20
924.58678502224416
 11
940.73722627737197
 21
930.18678502224407
  0
LINE
  8
_0-0_計極細
  6
CONTINUOUS
 62
    2
 10
927.73722627737197
 20
907.58678502224507
 11
927.73722627737197
 21
913.18678502224498
  0
LINE
  8
_0-0_計極細
  6
CONTINUOUS
 62
    2
 10
940.73722627737197
 20
907.58678502224507
 11
940.73722627737197
 21
913.18678502224498
  0
LINE
  8
_0-0_計極細
  6
CONTINUOUS
 62
    2
 10
927.73722627737197
 20
890.58678502224598
 11
927.73722627737197
 21
896.18678502224589
  0
LINE
  8
_0-0_計極細
  6
CONTINUOUS
 62
    2
 10
940.73722627737197
 20
890.58678502224598
 11
940.73722627737197
 21
896.18678502224589
  0
LINE
  8
_0-0_計極細
  6
CONTINUOUS
 62
    2
 10
927.73722627737197
 20
873.58678502224689
 11
927.73722627737197
 21
879.1867850222468
  0
LINE
  8
_0-0_計極細
  6
CONTINUOUS
 62
    2
 10
940.73722627737197
 20
873.58678502224689
 11
940.73722627737197
 21
879.1867850222468
  0
LINE
  8
_0-0_計極細
  6
CENTER1
 62
    2
 10
837.23722627737197
 20
1154.1375044467052
 11
837.23722627737197
 21
837.6289612812318
  0
LINE
  8
_0-0_計極細
  6
CONTINUOUS
 62
    2
 10
830.73722627737197
 20
941.58678502224416
 11
830.73722627737197
 21
947.18678502224452
  0
LINE
  8
_0-0_計極細
  6
CONTINUOUS
 62
    2
 10
843.73722627737197
 20
941.58678502224416
 11
843.73722627737197
 21
947.18678502224452
  0
LINE
  8
_0-0_計極細
  6
CONTINUOUS
 62
    2
 10
830.73722627737197
 20
958.58678502224507
 11
830.73722627737197
 21
964.18678502224498
  0
LINE
  8
_0-0_計極細
  6
CONTINUOUS
 62
    2
 10
843.73722627737197
 20
958.58678502224507
 11
843.73722627737197
 21
964.18678502224498
  0
LINE
  8
_0-0_計極細
  6
CONTINUOUS
 62
    2
 10
830.73722627737197
 20
981.18678502224088
 11
830.73722627737197
 21
975.58678502224097
  0
LINE
  8
_0-0_計極細
  6
CONTINUOUS
 62
    2
 10
843.73722627737197
 20
981.18678502224088
 11
843.73722627737197
 21
975.58678502224097
  0
LINE
  8
_0-0_計極細
  6
CONTINUOUS
 62
    2
 10
830.73722627737197
 20
998.18678502224179
 11
830.73722627737197
 21
992.58678502224143
  0
LINE
  8
_0-0_計極細
  6
CONTINUOUS
 62
    2
 10
843.73722627737197
 20
998.18678502224179
 11
843.73722627737197
 21
992.58678502224143
  0
LINE
  8
_0-0_計極細
  6
CONTINUOUS
 62
    2
 10
830.73722627737197
 20
1015.1867850222422
 11
830.73722627737197
 21
1009.5867850222423
  0
LINE
  8
_0-0_計極細
  6
CONTINUOUS
 62
    2
 10
843.73722627737197
 20
1015.1867850222422
 11
843.73722627737197
 21
1009.5867850222423
  0
LINE
  8
_0-0_計極細
  6
CONTINUOUS
 62
    2
 10
830.73722627737197
 20
1032.1867850222432
 11
830.73722627737197
 21
1026.5867850222428
  0
LINE
  8
_0-0_計極細
  6
CONTINUOUS
 62
    2
 10
843.73722627737197
 20
1032.1867850222432
 11
843.73722627737197
 21
1026.5867850222428
  0
LINE
  8
_0-0_計極細
  6
CONTINUOUS
 62
    2
 10
830.73722627737197
 20
1049.1867850222436
 11
830.73722627737197
 21
1043.5867850222437
  0
LINE
  8
_0-0_計極細
  6
CONTINUOUS
 62
    2
 10
843.73722627737197
 20
1049.1867850222436
 11
843.73722627737197
 21
1043.5867850222437
  0
LINE
  8
_0-0_計極細
  6
CONTINUOUS
 62
    2
 10
830.73722627737197
 20
1133.9867850222429
 11
830.73722627737197
 21
1128.5867850222428
  0
LINE
  8
_0-0_計極細
  6
CONTINUOUS
 62
    2
 10
843.73722627737197
 20
1133.9867850222429
 11
843.73722627737197
 21
1128.5867850222428
  0
LINE
  8
_0-0_計極細
  6
CONTINUOUS
 62
    2
 10
830.73722627737197
 20
856.78678502224307
 11
830.73722627737197
 21
862.1867850222427
  0
LINE
  8
_0-0_計極細
  6
CONTINUOUS
 62
    2
 10
843.73722627737197
 20
856.78678502224307
 11
843.73722627737197
 21
862.1867850222427
  0
LINE
  8
_0-0_計極細
  6
CONTINUOUS
 62
    2
 10
830.73722627737197
 20
1066.1867850222427
 11
830.73722627737197
 21
1060.5867850222428
  0
LINE
  8
_0-0_計極細
  6
CONTINUOUS
 62
    2
 10
843.73722627737197
 20
1066.1867850222427
 11
843.73722627737197
 21
1060.5867850222428
  0
LINE
  8
_0-0_計極細
  6
CONTINUOUS
 62
    2
 10
830.73722627737197
 20
1083.1867850222418
 11
830.73722627737197
 21
1077.5867850222419
  0
LINE
  8
_0-0_計極細
  6
CONTINUOUS
 62
    2
 10
843.73722627737197
 20
1083.1867850222418
 11
843.73722627737197
 21
1077.5867850222419
  0
LINE
  8
_0-0_計極細
  6
CONTINUOUS
 62
    2
 10
830.73722627737197
 20
1100.1867850222409
 11
830.73722627737197
 21
1094.586785022241
  0
LINE
  8
_0-0_計極細
  6
CONTINUOUS
 62
    2
 10
843.73722627737197
 20
1100.1867850222409
 11
843.73722627737197
 21
1094.586785022241
  0
LINE
  8
_0-0_計極細
  6
CONTINUOUS
 62
    2
 10
830.73722627737197
 20
1117.18678502224
 11
830.73722627737197
 21
1111.5867850222401
  0
LINE
  8
_0-0_計極細
  6
CONTINUOUS
 62
    2
 10
843.73722627737197
 20
1117.18678502224
 11
843.73722627737197
 21
1111.5867850222401
  0
LINE
  8
_0-0_計極細
  6
CONTINUOUS
 62
    2
 10
830.73722627737197
 20
924.58678502224416
 11
830.73722627737197
 21
930.18678502224407
  0
LINE
  8
_0-0_計極細
  6
CONTINUOUS
 62
    2
 10
843.73722627737197
 20
924.58678502224416
 11
843.73722627737197
 21
930.18678502224407
  0
LINE
  8
_0-0_計極細
  6
CONTINUOUS
 62
    2
 10
830.73722627737197
 20
907.58678502224507
 11
830.73722627737197
 21
913.18678502224498
  0
LINE
  8
_0-0_計極細
  6
CONTINUOUS
 62
    2
 10
843.73722627737197
 20
907.58678502224507
 11
843.73722627737197
 21
913.18678502224498
  0
LINE
  8
_0-0_計極細
  6
CONTINUOUS
 62
    2
 10
830.73722627737197
 20
890.58678502224598
 11
830.73722627737197
 21
896.18678502224589
  0
LINE
  8
_0-0_計極細
  6
CONTINUOUS
 62
    2
 10
843.73722627737197
 20
890.58678502224598
 11
843.73722627737197
 21
896.18678502224589
  0
LINE
  8
_0-0_計極細
  6
CONTINUOUS
 62
    2
 10
830.73722627737197
 20
873.58678502224689
 11
830.73722627737197
 21
879.1867850222468
  0
LINE
  8
_0-0_計極細
  6
CONTINUOUS
 62
    2
 10
843.73722627737197
 20
873.58678502224689
 11
843.73722627737197
 21
879.1867850222468
  0
LINE
  8
_0-0_計極細
  6
CENTER1
 62
    2
 10
740.23722627737197
 20
1154.1375044467052
 11
740.23722627737197
 21
837.6289612812318
  0
LINE
  8
_0-0_計極細
  6
CONTINUOUS
 62
    2
 10
733.73722627737197
 20
941.58678502224416
 11
733.73722627737197
 21
947.18678502224452
  0
LINE
  8
_0-0_計極細
  6
CONTINUOUS
 62
    2
 10
746.73722627737197
 20
941.58678502224416
 11
746.73722627737197
 21
947.18678502224452
  0
LINE
  8
_0-0_計極細
  6
CONTINUOUS
 62
    2
 10
733.73722627737197
 20
958.58678502224507
 11
733.73722627737197
 21
964.18678502224498
  0
LINE
  8
_0-0_計極細
  6
CONTINUOUS
 62
    2
 10
746.73722627737197
 20
958.58678502224507
 11
746.73722627737197
 21
964.18678502224498
  0
LINE
  8
_0-0_計極細
  6
CONTINUOUS
 62
    2
 10
733.73722627737197
 20
981.18678502224088
 11
733.73722627737197
 21
975.58678502224097
  0
LINE
  8
_0-0_計極細
  6
CONTINUOUS
 62
    2
 10
746.73722627737197
 20
981.18678502224088
 11
746.73722627737197
 21
975.58678502224097
  0
LINE
  8
_0-0_計極細
  6
CONTINUOUS
 62
    2
 10
733.73722627737197
 20
998.18678502224179
 11
733.73722627737197
 21
992.58678502224143
  0
LINE
  8
_0-0_計極細
  6
CONTINUOUS
 62
    2
 10
746.73722627737197
 20
998.18678502224179
 11
746.73722627737197
 21
992.58678502224143
  0
LINE
  8
_0-0_計極細
  6
CONTINUOUS
 62
    2
 10
733.73722627737197
 20
1015.1867850222422
 11
733.73722627737197
 21
1009.5867850222423
  0
LINE
  8
_0-0_計極細
  6
CONTINUOUS
 62
    2
 10
746.73722627737197
 20
1015.1867850222422
 11
746.73722627737197
 21
1009.5867850222423
  0
LINE
  8
_0-0_計極細
  6
CONTINUOUS
 62
    2
 10
733.73722627737197
 20
1032.1867850222432
 11
733.73722627737197
 21
1026.5867850222428
  0
LINE
  8
_0-0_計極細
  6
CONTINUOUS
 62
    2
 10
746.73722627737197
 20
1032.1867850222432
 11
746.73722627737197
 21
1026.5867850222428
  0
LINE
  8
_0-0_計極細
  6
CONTINUOUS
 62
    2
 10
733.73722627737197
 20
1049.1867850222436
 11
733.73722627737197
 21
1043.5867850222437
  0
LINE
  8
_0-0_計極細
  6
CONTINUOUS
 62
    2
 10
746.73722627737197
 20
1049.1867850222436
 11
746.73722627737197
 21
1043.5867850222437
  0
LINE
  8
_0-0_計極細
  6
CONTINUOUS
 62
    2
 10
733.73722627737197
 20
1133.9867850222429
 11
733.73722627737197
 21
1128.5867850222428
  0
LINE
  8
_0-0_計極細
  6
CONTINUOUS
 62
    2
 10
746.73722627737197
 20
1133.9867850222429
 11
746.73722627737197
 21
1128.5867850222428
  0
LINE
  8
_0-0_計極細
  6
CONTINUOUS
 62
    2
 10
733.73722627737197
 20
856.78678502224307
 11
733.73722627737197
 21
862.1867850222427
  0
LINE
  8
_0-0_計極細
  6
CONTINUOUS
 62
    2
 10
746.73722627737197
 20
856.78678502224307
 11
746.73722627737197
 21
862.1867850222427
  0
LINE
  8
_0-0_計極細
  6
CONTINUOUS
 62
    2
 10
733.73722627737197
 20
1066.1867850222427
 11
733.73722627737197
 21
1060.5867850222428
  0
LINE
  8
_0-0_計極細
  6
CONTINUOUS
 62
    2
 10
746.73722627737197
 20
1066.1867850222427
 11
746.73722627737197
 21
1060.5867850222428
  0
LINE
  8
_0-0_計極細
  6
CONTINUOUS
 62
    2
 10
733.73722627737197
 20
1083.1867850222418
 11
733.73722627737197
 21
1077.5867850222419
  0
LINE
  8
_0-0_計極細
  6
CONTINUOUS
 62
    2
 10
746.73722627737197
 20
1083.1867850222418
 11
746.73722627737197
 21
1077.5867850222419
  0
LINE
  8
_0-0_計極細
  6
CONTINUOUS
 62
    2
 10
733.73722627737197
 20
1100.1867850222409
 11
733.73722627737197
 21
1094.586785022241
  0
LINE
  8
_0-0_計極細
  6
CONTINUOUS
 62
    2
 10
746.73722627737197
 20
1100.1867850222409
 11
746.73722627737197
 21
1094.586785022241
  0
LINE
  8
_0-0_計極細
  6
CONTINUOUS
 62
    2
 10
733.73722627737197
 20
1117.18678502224
 11
733.73722627737197
 21
1111.5867850222401
  0
LINE
  8
_0-0_計極細
  6
CONTINUOUS
 62
    2
 10
746.73722627737197
 20
1117.18678502224
 11
746.73722627737197
 21
1111.5867850222401
  0
LINE
  8
_0-0_計極細
  6
CONTINUOUS
 62
    2
 10
733.73722627737197
 20
924.58678502224416
 11
733.73722627737197
 21
930.18678502224407
  0
LINE
  8
_0-0_計極細
  6
CONTINUOUS
 62
    2
 10
746.73722627737197
 20
924.58678502224416
 11
746.73722627737197
 21
930.18678502224407
  0
LINE
  8
_0-0_計極細
  6
CONTINUOUS
 62
    2
 10
733.73722627737197
 20
907.58678502224507
 11
733.73722627737197
 21
913.18678502224498
  0
LINE
  8
_0-0_計極細
  6
CONTINUOUS
 62
    2
 10
746.73722627737197
 20
907.58678502224507
 11
746.73722627737197
 21
913.18678502224498
  0
LINE
  8
_0-0_計極細
  6
CONTINUOUS
 62
    2
 10
733.73722627737197
 20
890.58678502224598
 11
733.73722627737197
 21
896.18678502224589
  0
LINE
  8
_0-0_計極細
  6
CONTINUOUS
 62
    2
 10
746.73722627737197
 20
890.58678502224598
 11
746.73722627737197
 21
896.18678502224589
  0
LINE
  8
_0-0_計極細
  6
CONTINUOUS
 62
    2
 10
733.73722627737197
 20
873.58678502224689
 11
733.73722627737197
 21
879.1867850222468
  0
LINE
  8
_0-0_計極細
  6
CONTINUOUS
 62
    2
 10
746.73722627737197
 20
873.58678502224689
 11
746.73722627737197
 21
879.1867850222468
  0
LINE
  8
_0-0_計極細
  6
CENTER1
 62
    2
 10
643.23722627737197
 20
1154.1375044467052
 11
643.23722627737197
 21
837.6289612812318
  0
LINE
  8
_0-0_計極細
  6
CONTINUOUS
 62
    2
 10
636.73722627737197
 20
941.58678502224416
 11
636.73722627737197
 21
947.18678502224452
  0
LINE
  8
_0-0_計極細
  6
CONTINUOUS
 62
    2
 10
649.73722627737197
 20
941.58678502224416
 11
649.73722627737197
 21
947.18678502224452
  0
LINE
  8
_0-0_計極細
  6
CONTINUOUS
 62
    2
 10
636.73722627737197
 20
958.58678502224507
 11
636.73722627737197
 21
964.18678502224498
  0
LINE
  8
_0-0_計極細
  6
CONTINUOUS
 62
    2
 10
649.73722627737197
 20
958.58678502224507
 11
649.73722627737197
 21
964.18678502224498
  0
LINE
  8
_0-0_計極細
  6
CONTINUOUS
 62
    2
 10
636.73722627737197
 20
981.18678502224088
 11
636.73722627737197
 21
975.58678502224097
  0
LINE
  8
_0-0_計極細
  6
CONTINUOUS
 62
    2
 10
649.73722627737197
 20
981.18678502224088
 11
649.73722627737197
 21
975.58678502224097
  0
LINE
  8
_0-0_計極細
  6
CONTINUOUS
 62
    2
 10
636.73722627737197
 20
998.18678502224179
 11
636.73722627737197
 21
992.58678502224143
  0
LINE
  8
_0-0_計極細
  6
CONTINUOUS
 62
    2
 10
649.73722627737197
 20
998.18678502224179
 11
649.73722627737197
 21
992.58678502224143
  0
LINE
  8
_0-0_計極細
  6
CONTINUOUS
 62
    2
 10
636.73722627737197
 20
1015.1867850222422
 11
636.73722627737197
 21
1009.5867850222423
  0
LINE
  8
_0-0_計極細
  6
CONTINUOUS
 62
    2
 10
649.73722627737197
 20
1015.1867850222422
 11
649.73722627737197
 21
1009.5867850222423
  0
LINE
  8
_0-0_計極細
  6
CONTINUOUS
 62
    2
 10
636.73722627737197
 20
1032.1867850222432
 11
636.73722627737197
 21
1026.5867850222428
  0
LINE
  8
_0-0_計極細
  6
CONTINUOUS
 62
    2
 10
649.73722627737197
 20
1032.1867850222432
 11
649.73722627737197
 21
1026.5867850222428
  0
LINE
  8
_0-0_計極細
  6
CONTINUOUS
 62
    2
 10
636.73722627737197
 20
1049.1867850222436
 11
636.73722627737197
 21
1043.5867850222437
  0
LINE
  8
_0-0_計極細
  6
CONTINUOUS
 62
    2
 10
649.73722627737197
 20
1049.1867850222436
 11
649.73722627737197
 21
1043.5867850222437
  0
LINE
  8
_0-0_計極細
  6
CONTINUOUS
 62
    2
 10
636.73722627737197
 20
1133.9867850222429
 11
636.73722627737197
 21
1128.5867850222428
  0
LINE
  8
_0-0_計極細
  6
CONTINUOUS
 62
    2
 10
649.73722627737197
 20
1133.9867850222429
 11
649.73722627737197
 21
1128.5867850222428
  0
LINE
  8
_0-0_計極細
  6
CONTINUOUS
 62
    2
 10
636.73722627737197
 20
856.78678502224307
 11
636.73722627737197
 21
862.1867850222427
  0
LINE
  8
_0-0_計極細
  6
CONTINUOUS
 62
    2
 10
649.73722627737197
 20
856.78678502224307
 11
649.73722627737197
 21
862.1867850222427
  0
LINE
  8
_0-0_計極細
  6
CONTINUOUS
 62
    2
 10
636.73722627737197
 20
1066.1867850222427
 11
636.73722627737197
 21
1060.5867850222428
  0
LINE
  8
_0-0_計極細
  6
CONTINUOUS
 62
    2
 10
649.73722627737197
 20
1066.1867850222427
 11
649.73722627737197
 21
1060.5867850222428
  0
LINE
  8
_0-0_計極細
  6
CONTINUOUS
 62
    2
 10
636.73722627737197
 20
1083.1867850222418
 11
636.73722627737197
 21
1077.5867850222419
  0
LINE
  8
_0-0_計極細
  6
CONTINUOUS
 62
    2
 10
649.73722627737197
 20
1083.1867850222418
 11
649.73722627737197
 21
1077.5867850222419
  0
LINE
  8
_0-0_計極細
  6
CONTINUOUS
 62
    2
 10
636.73722627737197
 20
1100.1867850222409
 11
636.73722627737197
 21
1094.586785022241
  0
LINE
  8
_0-0_計極細
  6
CONTINUOUS
 62
    2
 10
649.73722627737197
 20
1100.1867850222409
 11
649.73722627737197
 21
1094.586785022241
  0
LINE
  8
_0-0_計極細
  6
CONTINUOUS
 62
    2
 10
636.73722627737197
 20
1117.18678502224
 11
636.73722627737197
 21
1111.5867850222401
  0
LINE
  8
_0-0_計極細
  6
CONTINUOUS
 62
    2
 10
649.73722627737197
 20
1117.18678502224
 11
649.73722627737197
 21
1111.5867850222401
  0
LINE
  8
_0-0_計極細
  6
CONTINUOUS
 62
    2
 10
636.73722627737197
 20
924.58678502224416
 11
636.73722627737197
 21
930.18678502224407
  0
LINE
  8
_0-0_計極細
  6
CONTINUOUS
 62
    2
 10
649.73722627737197
 20
924.58678502224416
 11
649.73722627737197
 21
930.18678502224407
  0
LINE
  8
_0-0_計極細
  6
CONTINUOUS
 62
    2
 10
636.73722627737197
 20
907.58678502224507
 11
636.73722627737197
 21
913.18678502224498
  0
LINE
  8
_0-0_計極細
  6
CONTINUOUS
 62
    2
 10
649.73722627737197
 20
907.58678502224507
 11
649.73722627737197
 21
913.18678502224498
  0
LINE
  8
_0-0_計極細
  6
CONTINUOUS
 62
    2
 10
636.73722627737197
 20
890.58678502224598
 11
636.73722627737197
 21
896.18678502224589
  0
LINE
  8
_0-0_計極細
  6
CONTINUOUS
 62
    2
 10
649.73722627737197
 20
890.58678502224598
 11
649.73722627737197
 21
896.18678502224589
  0
LINE
  8
_0-0_計極細
  6
CONTINUOUS
 62
    2
 10
636.73722627737197
 20
873.58678502224689
 11
636.73722627737197
 21
879.1867850222468
  0
LINE
  8
_0-0_計極細
  6
CONTINUOUS
 62
    2
 10
649.73722627737197
 20
873.58678502224689
 11
649.73722627737197
 21
879.1867850222468
  0
LINE
  8
_0-0_計極細
  6
CENTER1
 62
    2
 10
546.23722627737197
 20
1154.1375044467052
 11
546.23722627737197
 21
837.6289612812318
  0
LINE
  8
_0-0_計極細
  6
CONTINUOUS
 62
    2
 10
539.73722627737197
 20
941.58678502224416
 11
539.73722627737197
 21
947.18678502224452
  0
LINE
  8
_0-0_計極細
  6
CONTINUOUS
 62
    2
 10
552.73722627737197
 20
941.58678502224416
 11
552.73722627737197
 21
947.18678502224452
  0
LINE
  8
_0-0_計極細
  6
CONTINUOUS
 62
    2
 10
539.73722627737197
 20
958.58678502224507
 11
539.73722627737197
 21
964.18678502224498
  0
LINE
  8
_0-0_計極細
  6
CONTINUOUS
 62
    2
 10
552.73722627737197
 20
958.58678502224507
 11
552.73722627737197
 21
964.18678502224498
  0
LINE
  8
_0-0_計極細
  6
CONTINUOUS
 62
    2
 10
539.73722627737197
 20
981.18678502224088
 11
539.73722627737197
 21
975.58678502224097
  0
LINE
  8
_0-0_計極細
  6
CONTINUOUS
 62
    2
 10
552.73722627737197
 20
981.18678502224088
 11
552.73722627737197
 21
975.58678502224097
  0
LINE
  8
_0-0_計極細
  6
CONTINUOUS
 62
    2
 10
539.73722627737197
 20
998.18678502224179
 11
539.73722627737197
 21
992.58678502224143
  0
LINE
  8
_0-0_計極細
  6
CONTINUOUS
 62
    2
 10
552.73722627737197
 20
998.18678502224179
 11
552.73722627737197
 21
992.58678502224143
  0
LINE
  8
_0-0_計極細
  6
CONTINUOUS
 62
    2
 10
539.73722627737197
 20
1015.1867850222422
 11
539.73722627737197
 21
1009.5867850222423
  0
LINE
  8
_0-0_計極細
  6
CONTINUOUS
 62
    2
 10
552.73722627737197
 20
1015.1867850222422
 11
552.73722627737197
 21
1009.5867850222423
  0
LINE
  8
_0-0_計極細
  6
CONTINUOUS
 62
    2
 10
539.73722627737197
 20
1032.1867850222432
 11
539.73722627737197
 21
1026.5867850222428
  0
LINE
  8
_0-0_計極細
  6
CONTINUOUS
 62
    2
 10
552.73722627737197
 20
1032.1867850222432
 11
552.73722627737197
 21
1026.5867850222428
  0
LINE
  8
_0-0_計極細
  6
CONTINUOUS
 62
    2
 10
539.73722627737197
 20
1049.1867850222436
 11
539.73722627737197
 21
1043.5867850222437
  0
LINE
  8
_0-0_計極細
  6
CONTINUOUS
 62
    2
 10
552.73722627737197
 20
1049.1867850222436
 11
552.73722627737197
 21
1043.5867850222437
  0
LINE
  8
_0-0_計極細
  6
CONTINUOUS
 62
    2
 10
539.73722627737197
 20
1133.9867850222429
 11
539.73722627737197
 21
1128.5867850222428
  0
LINE
  8
_0-0_計極細
  6
CONTINUOUS
 62
    2
 10
552.73722627737197
 20
1133.9867850222429
 11
552.73722627737197
 21
1128.5867850222428
  0
LINE
  8
_0-0_計極細
  6
CONTINUOUS
 62
    2
 10
539.73722627737197
 20
856.78678502224307
 11
539.73722627737197
 21
862.1867850222427
  0
LINE
  8
_0-0_計極細
  6
CONTINUOUS
 62
    2
 10
552.73722627737197
 20
856.78678502224307
 11
552.73722627737197
 21
862.1867850222427
  0
LINE
  8
_0-0_計極細
  6
CONTINUOUS
 62
    2
 10
539.73722627737197
 20
1066.1867850222427
 11
539.73722627737197
 21
1060.5867850222428
  0
LINE
  8
_0-0_計極細
  6
CONTINUOUS
 62
    2
 10
552.73722627737197
 20
1066.1867850222427
 11
552.73722627737197
 21
1060.5867850222428
  0
LINE
  8
_0-0_計極細
  6
CONTINUOUS
 62
    2
 10
539.73722627737197
 20
1083.1867850222418
 11
539.73722627737197
 21
1077.5867850222419
  0
LINE
  8
_0-0_計極細
  6
CONTINUOUS
 62
    2
 10
552.73722627737197
 20
1083.1867850222418
 11
552.73722627737197
 21
1077.5867850222419
  0
LINE
  8
_0-0_計極細
  6
CONTINUOUS
 62
    2
 10
539.73722627737197
 20
1100.1867850222409
 11
539.73722627737197
 21
1094.586785022241
  0
LINE
  8
_0-0_計極細
  6
CONTINUOUS
 62
    2
 10
552.73722627737197
 20
1100.1867850222409
 11
552.73722627737197
 21
1094.586785022241
  0
LINE
  8
_0-0_計極細
  6
CONTINUOUS
 62
    2
 10
539.73722627737197
 20
1117.18678502224
 11
539.73722627737197
 21
1111.5867850222401
  0
LINE
  8
_0-0_計極細
  6
CONTINUOUS
 62
    2
 10
552.73722627737197
 20
1117.18678502224
 11
552.73722627737197
 21
1111.5867850222401
  0
LINE
  8
_0-0_計極細
  6
CONTINUOUS
 62
    2
 10
539.73722627737197
 20
924.58678502224416
 11
539.73722627737197
 21
930.18678502224407
  0
LINE
  8
_0-0_計極細
  6
CONTINUOUS
 62
    2
 10
552.73722627737197
 20
924.58678502224416
 11
552.73722627737197
 21
930.18678502224407
  0
LINE
  8
_0-0_計極細
  6
CONTINUOUS
 62
    2
 10
539.73722627737197
 20
907.58678502224507
 11
539.73722627737197
 21
913.18678502224498
  0
LINE
  8
_0-0_計極細
  6
CONTINUOUS
 62
    2
 10
552.73722627737197
 20
907.58678502224507
 11
552.73722627737197
 21
913.18678502224498
  0
LINE
  8
_0-0_計極細
  6
CONTINUOUS
 62
    2
 10
539.73722627737197
 20
890.58678502224598
 11
539.73722627737197
 21
896.18678502224589
  0
LINE
  8
_0-0_計極細
  6
CONTINUOUS
 62
    2
 10
552.73722627737197
 20
890.58678502224598
 11
552.73722627737197
 21
896.18678502224589
  0
LINE
  8
_0-0_計極細
  6
CONTINUOUS
 62
    2
 10
539.73722627737197
 20
873.58678502224689
 11
539.73722627737197
 21
879.1867850222468
  0
LINE
  8
_0-0_計極細
  6
CONTINUOUS
 62
    2
 10
552.73722627737197
 20
873.58678502224689
 11
552.73722627737197
 21
879.1867850222468
  0
LINE
  8
_0-0_計極細
  6
CENTER1
 62
    2
 10
1176.737226277372
 20
1154.1375044467052
 11
1176.737226277372
 21
837.6289612812318
  0
LINE
  8
_0-0_計極細
  6
CONTINUOUS
 62
    2
 10
1170.237226277372
 20
941.58678502224416
 11
1170.237226277372
 21
947.18678502224452
  0
LINE
  8
_0-0_計極細
  6
CONTINUOUS
 62
    2
 10
1183.237226277372
 20
941.58678502224416
 11
1183.237226277372
 21
947.18678502224452
  0
LINE
  8
_0-0_計極細
  6
CONTINUOUS
 62
    2
 10
1170.237226277372
 20
958.58678502224507
 11
1170.237226277372
 21
964.18678502224498
  0
LINE
  8
_0-0_計極細
  6
CONTINUOUS
 62
    2
 10
1183.237226277372
 20
958.58678502224507
 11
1183.237226277372
 21
964.18678502224498
  0
LINE
  8
_0-0_計極細
  6
CONTINUOUS
 62
    2
 10
1170.237226277372
 20
981.18678502224088
 11
1170.237226277372
 21
975.58678502224097
  0
LINE
  8
_0-0_計極細
  6
CONTINUOUS
 62
    2
 10
1183.237226277372
 20
981.18678502224088
 11
1183.237226277372
 21
975.58678502224097
  0
LINE
  8
_0-0_計極細
  6
CONTINUOUS
 62
    2
 10
1170.237226277372
 20
998.18678502224179
 11
1170.237226277372
 21
992.58678502224143
  0
LINE
  8
_0-0_計極細
  6
CONTINUOUS
 62
    2
 10
1183.237226277372
 20
998.18678502224179
 11
1183.237226277372
 21
992.58678502224143
  0
LINE
  8
_0-0_計極細
  6
CONTINUOUS
 62
    2
 10
1170.237226277372
 20
1015.1867850222422
 11
1170.237226277372
 21
1009.5867850222423
  0
LINE
  8
_0-0_計極細
  6
CONTINUOUS
 62
    2
 10
1183.237226277372
 20
1015.1867850222422
 11
1183.237226277372
 21
1009.5867850222423
  0
LINE
  8
_0-0_計極細
  6
CONTINUOUS
 62
    2
 10
1170.237226277372
 20
1032.1867850222432
 11
1170.237226277372
 21
1026.5867850222428
  0
LINE
  8
_0-0_計極細
  6
CONTINUOUS
 62
    2
 10
1183.237226277372
 20
1032.1867850222432
 11
1183.237226277372
 21
1026.5867850222428
  0
LINE
  8
_0-0_計極細
  6
CONTINUOUS
 62
    2
 10
1170.237226277372
 20
1049.1867850222436
 11
1170.237226277372
 21
1043.5867850222437
  0
LINE
  8
_0-0_計極細
  6
CONTINUOUS
 62
    2
 10
1183.237226277372
 20
1049.1867850222436
 11
1183.237226277372
 21
1043.5867850222437
  0
LINE
  8
_0-0_計極細
  6
CONTINUOUS
 62
    2
 10
1170.237226277372
 20
1133.9867850222429
 11
1170.237226277372
 21
1128.5867850222428
  0
LINE
  8
_0-0_計極細
  6
CONTINUOUS
 62
    2
 10
1183.237226277372
 20
1133.9867850222429
 11
1183.237226277372
 21
1128.5867850222428
  0
LINE
  8
_0-0_計極細
  6
CONTINUOUS
 62
    2
 10
1170.237226277372
 20
856.78678502224307
 11
1170.237226277372
 21
862.1867850222427
  0
LINE
  8
_0-0_計極細
  6
CONTINUOUS
 62
    2
 10
1183.237226277372
 20
856.78678502224307
 11
1183.237226277372
 21
862.1867850222427
  0
LINE
  8
_0-0_計極細
  6
CONTINUOUS
 62
    2
 10
1170.237226277372
 20
1066.1867850222427
 11
1170.237226277372
 21
1060.5867850222428
  0
LINE
  8
_0-0_計極細
  6
CONTINUOUS
 62
    2
 10
1183.237226277372
 20
1066.1867850222427
 11
1183.237226277372
 21
1060.5867850222428
  0
LINE
  8
_0-0_計極細
  6
CONTINUOUS
 62
    2
 10
1170.237226277372
 20
1083.1867850222418
 11
1170.237226277372
 21
1077.5867850222419
  0
LINE
  8
_0-0_計極細
  6
CONTINUOUS
 62
    2
 10
1183.237226277372
 20
1083.1867850222418
 11
1183.237226277372
 21
1077.5867850222419
  0
LINE
  8
_0-0_計極細
  6
CONTINUOUS
 62
    2
 10
1170.237226277372
 20
1100.1867850222409
 11
1170.237226277372
 21
1094.586785022241
  0
LINE
  8
_0-0_計極細
  6
CONTINUOUS
 62
    2
 10
1183.237226277372
 20
1100.1867850222409
 11
1183.237226277372
 21
1094.586785022241
  0
LINE
  8
_0-0_計極細
  6
CONTINUOUS
 62
    2
 10
1170.237226277372
 20
1117.18678502224
 11
1170.237226277372
 21
1111.5867850222401
  0
LINE
  8
_0-0_計極細
  6
CONTINUOUS
 62
    2
 10
1183.237226277372
 20
1117.18678502224
 11
1183.237226277372
 21
1111.5867850222401
  0
LINE
  8
_0-0_計極細
  6
CONTINUOUS
 62
    2
 10
1170.237226277372
 20
924.58678502224416
 11
1170.237226277372
 21
930.18678502224407
  0
LINE
  8
_0-0_計極細
  6
CONTINUOUS
 62
    2
 10
1183.237226277372
 20
924.58678502224416
 11
1183.237226277372
 21
930.18678502224407
  0
LINE
  8
_0-0_計極細
  6
CONTINUOUS
 62
    2
 10
1170.237226277372
 20
907.58678502224507
 11
1170.237226277372
 21
913.18678502224498
  0
LINE
  8
_0-0_計極細
  6
CONTINUOUS
 62
    2
 10
1183.237226277372
 20
907.58678502224507
 11
1183.237226277372
 21
913.18678502224498
  0
LINE
  8
_0-0_計極細
  6
CONTINUOUS
 62
    2
 10
1170.237226277372
 20
890.58678502224598
 11
1170.237226277372
 21
896.18678502224589
  0
LINE
  8
_0-0_計極細
  6
CONTINUOUS
 62
    2
 10
1183.237226277372
 20
890.58678502224598
 11
1183.237226277372
 21
896.18678502224589
  0
LINE
  8
_0-0_計極細
  6
CONTINUOUS
 62
    2
 10
1170.237226277372
 20
873.58678502224689
 11
1170.237226277372
 21
879.1867850222468
  0
LINE
  8
_0-0_計極細
  6
CONTINUOUS
 62
    2
 10
1183.237226277372
 20
873.58678502224689
 11
1183.237226277372
 21
879.1867850222468
  0
LINE
  8
_0-0_計極細
  6
CENTER1
 62
    2
 10
1079.737226277372
 20
1154.1375044467052
 11
1079.737226277372
 21
837.6289612812318
  0
LINE
  8
_0-0_計極細
  6
CONTINUOUS
 62
    2
 10
1073.237226277372
 20
941.58678502224416
 11
1073.237226277372
 21
947.18678502224452
  0
LINE
  8
_0-0_計極細
  6
CONTINUOUS
 62
    2
 10
1086.237226277372
 20
941.58678502224416
 11
1086.237226277372
 21
947.18678502224452
  0
LINE
  8
_0-0_計極細
  6
CONTINUOUS
 62
    2
 10
1073.237226277372
 20
958.58678502224507
 11
1073.237226277372
 21
964.18678502224498
  0
LINE
  8
_0-0_計極細
  6
CONTINUOUS
 62
    2
 10
1086.237226277372
 20
958.58678502224507
 11
1086.237226277372
 21
964.18678502224498
  0
LINE
  8
_0-0_計極細
  6
CONTINUOUS
 62
    2
 10
1073.237226277372
 20
981.18678502224088
 11
1073.237226277372
 21
975.58678502224097
  0
LINE
  8
_0-0_計極細
  6
CONTINUOUS
 62
    2
 10
1086.237226277372
 20
981.18678502224088
 11
1086.237226277372
 21
975.58678502224097
  0
LINE
  8
_0-0_計極細
  6
CONTINUOUS
 62
    2
 10
1073.237226277372
 20
998.18678502224179
 11
1073.237226277372
 21
992.58678502224143
  0
LINE
  8
_0-0_計極細
  6
CONTINUOUS
 62
    2
 10
1086.237226277372
 20
998.18678502224179
 11
1086.237226277372
 21
992.58678502224143
  0
LINE
  8
_0-0_計極細
  6
CONTINUOUS
 62
    2
 10
1073.237226277372
 20
1015.1867850222422
 11
1073.237226277372
 21
1009.5867850222423
  0
LINE
  8
_0-0_計極細
  6
CONTINUOUS
 62
    2
 10
1086.237226277372
 20
1015.1867850222422
 11
1086.237226277372
 21
1009.5867850222423
  0
LINE
  8
_0-0_計極細
  6
CONTINUOUS
 62
    2
 10
1073.237226277372
 20
1032.1867850222432
 11
1073.237226277372
 21
1026.5867850222428
  0
LINE
  8
_0-0_計極細
  6
CONTINUOUS
 62
    2
 10
1086.237226277372
 20
1032.1867850222432
 11
1086.237226277372
 21
1026.5867850222428
  0
LINE
  8
_0-0_計極細
  6
CONTINUOUS
 62
    2
 10
1073.237226277372
 20
1049.1867850222436
 11
1073.237226277372
 21
1043.5867850222437
  0
LINE
  8
_0-0_計極細
  6
CONTINUOUS
 62
    2
 10
1086.237226277372
 20
1049.1867850222436
 11
1086.237226277372
 21
1043.5867850222437
  0
LINE
  8
_0-0_計極細
  6
CONTINUOUS
 62
    2
 10
1073.237226277372
 20
1133.9867850222429
 11
1073.237226277372
 21
1128.5867850222428
  0
LINE
  8
_0-0_計極細
  6
CONTINUOUS
 62
    2
 10
1086.237226277372
 20
1133.9867850222429
 11
1086.237226277372
 21
1128.5867850222428
  0
LINE
  8
_0-0_計極細
  6
CONTINUOUS
 62
    2
 10
1073.237226277372
 20
856.78678502224307
 11
1073.237226277372
 21
862.1867850222427
  0
LINE
  8
_0-0_計極細
  6
CONTINUOUS
 62
    2
 10
1086.237226277372
 20
856.78678502224307
 11
1086.237226277372
 21
862.1867850222427
  0
LINE
  8
_0-0_計極細
  6
CONTINUOUS
 62
    2
 10
1073.237226277372
 20
1066.1867850222427
 11
1073.237226277372
 21
1060.5867850222428
  0
LINE
  8
_0-0_計極細
  6
CONTINUOUS
 62
    2
 10
1086.237226277372
 20
1066.1867850222427
 11
1086.237226277372
 21
1060.5867850222428
  0
LINE
  8
_0-0_計極細
  6
CONTINUOUS
 62
    2
 10
1073.237226277372
 20
1083.1867850222418
 11
1073.237226277372
 21
1077.5867850222419
  0
LINE
  8
_0-0_計極細
  6
CONTINUOUS
 62
    2
 10
1086.237226277372
 20
1083.1867850222418
 11
1086.237226277372
 21
1077.5867850222419
  0
LINE
  8
_0-0_計極細
  6
CONTINUOUS
 62
    2
 10
1073.237226277372
 20
1100.1867850222409
 11
1073.237226277372
 21
1094.586785022241
  0
LINE
  8
_0-0_計極細
  6
CONTINUOUS
 62
    2
 10
1086.237226277372
 20
1100.1867850222409
 11
1086.237226277372
 21
1094.586785022241
  0
LINE
  8
_0-0_計極細
  6
CONTINUOUS
 62
    2
 10
1073.237226277372
 20
1117.18678502224
 11
1073.237226277372
 21
1111.5867850222401
  0
LINE
  8
_0-0_計極細
  6
CONTINUOUS
 62
    2
 10
1086.237226277372
 20
1117.18678502224
 11
1086.237226277372
 21
1111.5867850222401
  0
LINE
  8
_0-0_計極細
  6
CONTINUOUS
 62
    2
 10
1073.237226277372
 20
924.58678502224416
 11
1073.237226277372
 21
930.18678502224407
  0
LINE
  8
_0-0_計極細
  6
CONTINUOUS
 62
    2
 10
1086.237226277372
 20
924.58678502224416
 11
1086.237226277372
 21
930.18678502224407
  0
LINE
  8
_0-0_計極細
  6
CONTINUOUS
 62
    2
 10
1073.237226277372
 20
907.58678502224507
 11
1073.237226277372
 21
913.18678502224498
  0
LINE
  8
_0-0_計極細
  6
CONTINUOUS
 62
    2
 10
1086.237226277372
 20
907.58678502224507
 11
1086.237226277372
 21
913.18678502224498
  0
LINE
  8
_0-0_計極細
  6
CONTINUOUS
 62
    2
 10
1073.237226277372
 20
890.58678502224598
 11
1073.237226277372
 21
896.18678502224589
  0
LINE
  8
_0-0_計極細
  6
CONTINUOUS
 62
    2
 10
1086.237226277372
 20
890.58678502224598
 11
1086.237226277372
 21
896.18678502224589
  0
LINE
  8
_0-0_計極細
  6
CONTINUOUS
 62
    2
 10
1073.237226277372
 20
873.58678502224689
 11
1073.237226277372
 21
879.1867850222468
  0
LINE
  8
_0-0_計極細
  6
CONTINUOUS
 62
    2
 10
1086.237226277372
 20
873.58678502224689
 11
1086.237226277372
 21
879.1867850222468
  0
LINE
  8
_0-0_計極細
  6
CENTER1
 62
    2
 10
982.73722627737197
 20
1154.1375044467052
 11
982.73722627737197
 21
837.6289612812318
  0
LINE
  8
_0-0_計極細
  6
CONTINUOUS
 62
    2
 10
976.23722627737197
 20
941.58678502224416
 11
976.23722627737197
 21
947.18678502224452
  0
LINE
  8
_0-0_計極細
  6
CONTINUOUS
 62
    2
 10
989.23722627737197
 20
941.58678502224416
 11
989.23722627737197
 21
947.18678502224452
  0
LINE
  8
_0-0_計極細
  6
CONTINUOUS
 62
    2
 10
976.23722627737197
 20
958.58678502224507
 11
976.23722627737197
 21
964.18678502224498
  0
LINE
  8
_0-0_計極細
  6
CONTINUOUS
 62
    2
 10
989.23722627737197
 20
958.58678502224507
 11
989.23722627737197
 21
964.18678502224498
  0
LINE
  8
_0-0_計極細
  6
CONTINUOUS
 62
    2
 10
976.23722627737197
 20
981.18678502224088
 11
976.23722627737197
 21
975.58678502224097
  0
LINE
  8
_0-0_計極細
  6
CONTINUOUS
 62
    2
 10
989.23722627737197
 20
981.18678502224088
 11
989.23722627737197
 21
975.58678502224097
  0
LINE
  8
_0-0_計極細
  6
CONTINUOUS
 62
    2
 10
976.23722627737197
 20
998.18678502224179
 11
976.23722627737197
 21
992.58678502224143
  0
LINE
  8
_0-0_計極細
  6
CONTINUOUS
 62
    2
 10
989.23722627737197
 20
998.18678502224179
 11
989.23722627737197
 21
992.58678502224143
  0
LINE
  8
_0-0_計極細
  6
CONTINUOUS
 62
    2
 10
976.23722627737197
 20
1015.1867850222422
 11
976.23722627737197
 21
1009.5867850222423
  0
LINE
  8
_0-0_計極細
  6
CONTINUOUS
 62
    2
 10
989.23722627737197
 20
1015.1867850222422
 11
989.23722627737197
 21
1009.5867850222423
  0
LINE
  8
_0-0_計極細
  6
CONTINUOUS
 62
    2
 10
976.23722627737197
 20
1032.1867850222432
 11
976.23722627737197
 21
1026.5867850222428
  0
LINE
  8
_0-0_計極細
  6
CONTINUOUS
 62
    2
 10
989.23722627737197
 20
1032.1867850222432
 11
989.23722627737197
 21
1026.5867850222428
  0
LINE
  8
_0-0_計極細
  6
CONTINUOUS
 62
    2
 10
976.23722627737197
 20
1049.1867850222436
 11
976.23722627737197
 21
1043.5867850222437
  0
LINE
  8
_0-0_計極細
  6
CONTINUOUS
 62
    2
 10
989.23722627737197
 20
1049.1867850222436
 11
989.23722627737197
 21
1043.5867850222437
  0
LINE
  8
_0-0_計極細
  6
CONTINUOUS
 62
    2
 10
976.23722627737197
 20
1133.9867850222429
 11
976.23722627737197
 21
1128.5867850222428
  0
LINE
  8
_0-0_計極細
  6
CONTINUOUS
 62
    2
 10
989.23722627737197
 20
1133.9867850222429
 11
989.23722627737197
 21
1128.5867850222428
  0
LINE
  8
_0-0_計極細
  6
CONTINUOUS
 62
    2
 10
976.23722627737197
 20
856.78678502224307
 11
976.23722627737197
 21
862.1867850222427
  0
LINE
  8
_0-0_計極細
  6
CONTINUOUS
 62
    2
 10
989.23722627737197
 20
856.78678502224307
 11
989.23722627737197
 21
862.1867850222427
  0
LINE
  8
_0-0_計極細
  6
CONTINUOUS
 62
    2
 10
976.23722627737197
 20
1066.1867850222427
 11
976.23722627737197
 21
1060.5867850222428
  0
LINE
  8
_0-0_計極細
  6
CONTINUOUS
 62
    2
 10
989.23722627737197
 20
1066.1867850222427
 11
989.23722627737197
 21
1060.5867850222428
  0
LINE
  8
_0-0_計極細
  6
CONTINUOUS
 62
    2
 10
976.23722627737197
 20
1083.1867850222418
 11
976.23722627737197
 21
1077.5867850222419
  0
LINE
  8
_0-0_計極細
  6
CONTINUOUS
 62
    2
 10
989.23722627737197
 20
1083.1867850222418
 11
989.23722627737197
 21
1077.5867850222419
  0
LINE
  8
_0-0_計極細
  6
CONTINUOUS
 62
    2
 10
976.23722627737197
 20
1100.1867850222409
 11
976.23722627737197
 21
1094.586785022241
  0
LINE
  8
_0-0_計極細
  6
CONTINUOUS
 62
    2
 10
989.23722627737197
 20
1100.1867850222409
 11
989.23722627737197
 21
1094.586785022241
  0
LINE
  8
_0-0_計極細
  6
CONTINUOUS
 62
    2
 10
976.23722627737197
 20
1117.18678502224
 11
976.23722627737197
 21
1111.5867850222401
  0
LINE
  8
_0-0_計極細
  6
CONTINUOUS
 62
    2
 10
989.23722627737197
 20
1117.18678502224
 11
989.23722627737197
 21
1111.5867850222401
  0
LINE
  8
_0-0_計極細
  6
CONTINUOUS
 62
    2
 10
976.23722627737197
 20
924.58678502224416
 11
976.23722627737197
 21
930.18678502224407
  0
LINE
  8
_0-0_計極細
  6
CONTINUOUS
 62
    2
 10
989.23722627737197
 20
924.58678502224416
 11
989.23722627737197
 21
930.18678502224407
  0
LINE
  8
_0-0_計極細
  6
CONTINUOUS
 62
    2
 10
976.23722627737197
 20
907.58678502224507
 11
976.23722627737197
 21
913.18678502224498
  0
LINE
  8
_0-0_計極細
  6
CONTINUOUS
 62
    2
 10
989.23722627737197
 20
907.58678502224507
 11
989.23722627737197
 21
913.18678502224498
  0
LINE
  8
_0-0_計極細
  6
CONTINUOUS
 62
    2
 10
976.23722627737197
 20
890.58678502224598
 11
976.23722627737197
 21
896.18678502224589
  0
LINE
  8
_0-0_計極細
  6
CONTINUOUS
 62
    2
 10
989.23722627737197
 20
890.58678502224598
 11
989.23722627737197
 21
896.18678502224589
  0
LINE
  8
_0-0_計極細
  6
CONTINUOUS
 62
    2
 10
976.23722627737197
 20
873.58678502224689
 11
976.23722627737197
 21
879.1867850222468
  0
LINE
  8
_0-0_計極細
  6
CONTINUOUS
 62
    2
 10
989.23722627737197
 20
873.58678502224689
 11
989.23722627737197
 21
879.1867850222468
  0
LINE
  8
_0-0_計極細
  6
CENTER1
 62
    2
 10
885.73722627737197
 20
1154.1375044467052
 11
885.73722627737197
 21
837.6289612812318
  0
LINE
  8
_0-0_計極細
  6
CONTINUOUS
 62
    2
 10
879.23722627737197
 20
941.58678502224416
 11
879.23722627737197
 21
947.18678502224452
  0
LINE
  8
_0-0_計極細
  6
CONTINUOUS
 62
    2
 10
892.23722627737197
 20
941.58678502224416
 11
892.23722627737197
 21
947.18678502224452
  0
LINE
  8
_0-0_計極細
  6
CONTINUOUS
 62
    2
 10
879.23722627737197
 20
958.58678502224507
 11
879.23722627737197
 21
964.18678502224498
  0
LINE
  8
_0-0_計極細
  6
CONTINUOUS
 62
    2
 10
892.23722627737197
 20
958.58678502224507
 11
892.23722627737197
 21
964.18678502224498
  0
LINE
  8
_0-0_計極細
  6
CONTINUOUS
 62
    2
 10
879.23722627737197
 20
981.18678502224088
 11
879.23722627737197
 21
975.58678502224097
  0
LINE
  8
_0-0_計極細
  6
CONTINUOUS
 62
    2
 10
892.23722627737197
 20
981.18678502224088
 11
892.23722627737197
 21
975.58678502224097
  0
LINE
  8
_0-0_計極細
  6
CONTINUOUS
 62
    2
 10
879.23722627737197
 20
998.18678502224179
 11
879.23722627737197
 21
992.58678502224143
  0
LINE
  8
_0-0_計極細
  6
CONTINUOUS
 62
    2
 10
892.23722627737197
 20
998.18678502224179
 11
892.23722627737197
 21
992.58678502224143
  0
LINE
  8
_0-0_計極細
  6
CONTINUOUS
 62
    2
 10
879.23722627737197
 20
1015.1867850222422
 11
879.23722627737197
 21
1009.5867850222423
  0
LINE
  8
_0-0_計極細
  6
CONTINUOUS
 62
    2
 10
892.23722627737197
 20
1015.1867850222422
 11
892.23722627737197
 21
1009.5867850222423
  0
LINE
  8
_0-0_計極細
  6
CONTINUOUS
 62
    2
 10
879.23722627737197
 20
1032.1867850222432
 11
879.23722627737197
 21
1026.5867850222428
  0
LINE
  8
_0-0_計極細
  6
CONTINUOUS
 62
    2
 10
892.23722627737197
 20
1032.1867850222432
 11
892.23722627737197
 21
1026.5867850222428
  0
LINE
  8
_0-0_計極細
  6
CONTINUOUS
 62
    2
 10
879.23722627737197
 20
1049.1867850222436
 11
879.23722627737197
 21
1043.5867850222437
  0
LINE
  8
_0-0_計極細
  6
CONTINUOUS
 62
    2
 10
892.23722627737197
 20
1049.1867850222436
 11
892.23722627737197
 21
1043.5867850222437
  0
LINE
  8
_0-0_計極細
  6
CONTINUOUS
 62
    2
 10
879.23722627737197
 20
1133.9867850222429
 11
879.23722627737197
 21
1128.5867850222428
  0
LINE
  8
_0-0_計極細
  6
CONTINUOUS
 62
    2
 10
892.23722627737197
 20
1133.9867850222429
 11
892.23722627737197
 21
1128.5867850222428
  0
LINE
  8
_0-0_計極細
  6
CONTINUOUS
 62
    2
 10
879.23722627737197
 20
856.78678502224307
 11
879.23722627737197
 21
862.1867850222427
  0
LINE
  8
_0-0_計極細
  6
CONTINUOUS
 62
    2
 10
892.23722627737197
 20
856.78678502224307
 11
892.23722627737197
 21
862.1867850222427
  0
LINE
  8
_0-0_計極細
  6
CONTINUOUS
 62
    2
 10
879.23722627737197
 20
1066.1867850222427
 11
879.23722627737197
 21
1060.5867850222428
  0
LINE
  8
_0-0_計極細
  6
CONTINUOUS
 62
    2
 10
892.23722627737197
 20
1066.1867850222427
 11
892.23722627737197
 21
1060.5867850222428
  0
LINE
  8
_0-0_計極細
  6
CONTINUOUS
 62
    2
 10
879.23722627737197
 20
1083.1867850222418
 11
879.23722627737197
 21
1077.5867850222419
  0
LINE
  8
_0-0_計極細
  6
CONTINUOUS
 62
    2
 10
892.23722627737197
 20
1083.1867850222418
 11
892.23722627737197
 21
1077.5867850222419
  0
LINE
  8
_0-0_計極細
  6
CONTINUOUS
 62
    2
 10
879.23722627737197
 20
1100.1867850222409
 11
879.23722627737197
 21
1094.586785022241
  0
LINE
  8
_0-0_計極細
  6
CONTINUOUS
 62
    2
 10
892.23722627737197
 20
1100.1867850222409
 11
892.23722627737197
 21
1094.586785022241
  0
LINE
  8
_0-0_計極細
  6
CONTINUOUS
 62
    2
 10
879.23722627737197
 20
1117.18678502224
 11
879.23722627737197
 21
1111.5867850222401
  0
LINE
  8
_0-0_計極細
  6
CONTINUOUS
 62
    2
 10
892.23722627737197
 20
1117.18678502224
 11
892.23722627737197
 21
1111.5867850222401
  0
LINE
  8
_0-0_計極細
  6
CONTINUOUS
 62
    2
 10
879.23722627737197
 20
924.58678502224416
 11
879.23722627737197
 21
930.18678502224407
  0
LINE
  8
_0-0_計極細
  6
CONTINUOUS
 62
    2
 10
892.23722627737197
 20
924.58678502224416
 11
892.23722627737197
 21
930.18678502224407
  0
LINE
  8
_0-0_計極細
  6
CONTINUOUS
 62
    2
 10
879.23722627737197
 20
907.58678502224507
 11
879.23722627737197
 21
913.18678502224498
  0
LINE
  8
_0-0_計極細
  6
CONTINUOUS
 62
    2
 10
892.23722627737197
 20
907.58678502224507
 11
892.23722627737197
 21
913.18678502224498
  0
LINE
  8
_0-0_計極細
  6
CONTINUOUS
 62
    2
 10
879.23722627737197
 20
890.58678502224598
 11
879.23722627737197
 21
896.18678502224589
  0
LINE
  8
_0-0_計極細
  6
CONTINUOUS
 62
    2
 10
892.23722627737197
 20
890.58678502224598
 11
892.23722627737197
 21
896.18678502224589
  0
LINE
  8
_0-0_計極細
  6
CONTINUOUS
 62
    2
 10
879.23722627737197
 20
873.58678502224689
 11
879.23722627737197
 21
879.1867850222468
  0
LINE
  8
_0-0_計極細
  6
CONTINUOUS
 62
    2
 10
892.23722627737197
 20
873.58678502224689
 11
892.23722627737197
 21
879.1867850222468
  0
LINE
  8
_0-0_計極細
  6
CENTER1
 62
    2
 10
788.73722627737197
 20
1154.1375044467052
 11
788.73722627737197
 21
837.6289612812318
  0
LINE
  8
_0-0_計極細
  6
CONTINUOUS
 62
    2
 10
782.23722627737197
 20
941.58678502224416
 11
782.23722627737197
 21
947.18678502224452
  0
LINE
  8
_0-0_計極細
  6
CONTINUOUS
 62
    2
 10
795.23722627737197
 20
941.58678502224416
 11
795.23722627737197
 21
947.18678502224452
  0
LINE
  8
_0-0_計極細
  6
CONTINUOUS
 62
    2
 10
782.23722627737197
 20
958.58678502224507
 11
782.23722627737197
 21
964.18678502224498
  0
LINE
  8
_0-0_計極細
  6
CONTINUOUS
 62
    2
 10
795.23722627737197
 20
958.58678502224507
 11
795.23722627737197
 21
964.18678502224498
  0
LINE
  8
_0-0_計極細
  6
CONTINUOUS
 62
    2
 10
782.23722627737197
 20
981.18678502224088
 11
782.23722627737197
 21
975.58678502224097
  0
LINE
  8
_0-0_計極細
  6
CONTINUOUS
 62
    2
 10
795.23722627737197
 20
981.18678502224088
 11
795.23722627737197
 21
975.58678502224097
  0
LINE
  8
_0-0_計極細
  6
CONTINUOUS
 62
    2
 10
782.23722627737197
 20
998.18678502224179
 11
782.23722627737197
 21
992.58678502224143
  0
LINE
  8
_0-0_計極細
  6
CONTINUOUS
 62
    2
 10
795.23722627737197
 20
998.18678502224179
 11
795.23722627737197
 21
992.58678502224143
  0
LINE
  8
_0-0_計極細
  6
CONTINUOUS
 62
    2
 10
782.23722627737197
 20
1015.1867850222422
 11
782.23722627737197
 21
1009.5867850222423
  0
LINE
  8
_0-0_計極細
  6
CONTINUOUS
 62
    2
 10
795.23722627737197
 20
1015.1867850222422
 11
795.23722627737197
 21
1009.5867850222423
  0
LINE
  8
_0-0_計極細
  6
CONTINUOUS
 62
    2
 10
782.23722627737197
 20
1032.1867850222432
 11
782.23722627737197
 21
1026.5867850222428
  0
LINE
  8
_0-0_計極細
  6
CONTINUOUS
 62
    2
 10
795.23722627737197
 20
1032.1867850222432
 11
795.23722627737197
 21
1026.5867850222428
  0
LINE
  8
_0-0_計極細
  6
CONTINUOUS
 62
    2
 10
782.23722627737197
 20
1049.1867850222436
 11
782.23722627737197
 21
1043.5867850222437
  0
LINE
  8
_0-0_計極細
  6
CONTINUOUS
 62
    2
 10
795.23722627737197
 20
1049.1867850222436
 11
795.23722627737197
 21
1043.5867850222437
  0
LINE
  8
_0-0_計極細
  6
CONTINUOUS
 62
    2
 10
782.23722627737197
 20
1133.9867850222429
 11
782.23722627737197
 21
1128.5867850222428
  0
LINE
  8
_0-0_計極細
  6
CONTINUOUS
 62
    2
 10
795.23722627737197
 20
1133.9867850222429
 11
795.23722627737197
 21
1128.5867850222428
  0
LINE
  8
_0-0_計極細
  6
CONTINUOUS
 62
    2
 10
782.23722627737197
 20
856.78678502224307
 11
782.23722627737197
 21
862.1867850222427
  0
LINE
  8
_0-0_計極細
  6
CONTINUOUS
 62
    2
 10
795.23722627737197
 20
856.78678502224307
 11
795.23722627737197
 21
862.1867850222427
  0
LINE
  8
_0-0_計極細
  6
CONTINUOUS
 62
    2
 10
782.23722627737197
 20
1066.1867850222427
 11
782.23722627737197
 21
1060.5867850222428
  0
LINE
  8
_0-0_計極細
  6
CONTINUOUS
 62
    2
 10
795.23722627737197
 20
1066.1867850222427
 11
795.23722627737197
 21
1060.5867850222428
  0
LINE
  8
_0-0_計極細
  6
CONTINUOUS
 62
    2
 10
782.23722627737197
 20
1083.1867850222418
 11
782.23722627737197
 21
1077.5867850222419
  0
LINE
  8
_0-0_計極細
  6
CONTINUOUS
 62
    2
 10
795.23722627737197
 20
1083.1867850222418
 11
795.23722627737197
 21
1077.5867850222419
  0
LINE
  8
_0-0_計極細
  6
CONTINUOUS
 62
    2
 10
782.23722627737197
 20
1100.1867850222409
 11
782.23722627737197
 21
1094.586785022241
  0
LINE
  8
_0-0_計極細
  6
CONTINUOUS
 62
    2
 10
795.23722627737197
 20
1100.1867850222409
 11
795.23722627737197
 21
1094.586785022241
  0
LINE
  8
_0-0_計極細
  6
CONTINUOUS
 62
    2
 10
782.23722627737197
 20
1117.18678502224
 11
782.23722627737197
 21
1111.5867850222401
  0
LINE
  8
_0-0_計極細
  6
CONTINUOUS
 62
    2
 10
795.23722627737197
 20
1117.18678502224
 11
795.23722627737197
 21
1111.5867850222401
  0
LINE
  8
_0-0_計極細
  6
CONTINUOUS
 62
    2
 10
782.23722627737197
 20
924.58678502224416
 11
782.23722627737197
 21
930.18678502224407
  0
LINE
  8
_0-0_計極細
  6
CONTINUOUS
 62
    2
 10
795.23722627737197
 20
924.58678502224416
 11
795.23722627737197
 21
930.18678502224407
  0
LINE
  8
_0-0_計極細
  6
CONTINUOUS
 62
    2
 10
782.23722627737197
 20
907.58678502224507
 11
782.23722627737197
 21
913.18678502224498
  0
LINE
  8
_0-0_計極細
  6
CONTINUOUS
 62
    2
 10
795.23722627737197
 20
907.58678502224507
 11
795.23722627737197
 21
913.18678502224498
  0
LINE
  8
_0-0_計極細
  6
CONTINUOUS
 62
    2
 10
782.23722627737197
 20
890.58678502224598
 11
782.23722627737197
 21
896.18678502224589
  0
LINE
  8
_0-0_計極細
  6
CONTINUOUS
 62
    2
 10
795.23722627737197
 20
890.58678502224598
 11
795.23722627737197
 21
896.18678502224589
  0
LINE
  8
_0-0_計極細
  6
CONTINUOUS
 62
    2
 10
782.23722627737197
 20
873.58678502224689
 11
782.23722627737197
 21
879.1867850222468
  0
LINE
  8
_0-0_計極細
  6
CONTINUOUS
 62
    2
 10
795.23722627737197
 20
873.58678502224689
 11
795.23722627737197
 21
879.1867850222468
  0
LINE
  8
_0-0_計極細
  6
CENTER1
 62
    2
 10
691.73722627737197
 20
1154.1375044467052
 11
691.73722627737197
 21
837.6289612812318
  0
LINE
  8
_0-0_計極細
  6
CONTINUOUS
 62
    2
 10
685.23722627737197
 20
941.58678502224416
 11
685.23722627737197
 21
947.18678502224452
  0
LINE
  8
_0-0_計極細
  6
CONTINUOUS
 62
    2
 10
698.23722627737197
 20
941.58678502224416
 11
698.23722627737197
 21
947.18678502224452
  0
LINE
  8
_0-0_計極細
  6
CONTINUOUS
 62
    2
 10
685.23722627737197
 20
958.58678502224507
 11
685.23722627737197
 21
964.18678502224498
  0
LINE
  8
_0-0_計極細
  6
CONTINUOUS
 62
    2
 10
698.23722627737197
 20
958.58678502224507
 11
698.23722627737197
 21
964.18678502224498
  0
LINE
  8
_0-0_計極細
  6
CONTINUOUS
 62
    2
 10
685.23722627737197
 20
981.18678502224088
 11
685.23722627737197
 21
975.58678502224097
  0
LINE
  8
_0-0_計極細
  6
CONTINUOUS
 62
    2
 10
698.23722627737197
 20
981.18678502224088
 11
698.23722627737197
 21
975.58678502224097
  0
LINE
  8
_0-0_計極細
  6
CONTINUOUS
 62
    2
 10
685.23722627737197
 20
998.18678502224179
 11
685.23722627737197
 21
992.58678502224143
  0
LINE
  8
_0-0_計極細
  6
CONTINUOUS
 62
    2
 10
698.23722627737197
 20
998.18678502224179
 11
698.23722627737197
 21
992.58678502224143
  0
LINE
  8
_0-0_計極細
  6
CONTINUOUS
 62
    2
 10
685.23722627737197
 20
1015.1867850222422
 11
685.23722627737197
 21
1009.5867850222423
  0
LINE
  8
_0-0_計極細
  6
CONTINUOUS
 62
    2
 10
698.23722627737197
 20
1015.1867850222422
 11
698.23722627737197
 21
1009.5867850222423
  0
LINE
  8
_0-0_計極細
  6
CONTINUOUS
 62
    2
 10
685.23722627737197
 20
1032.1867850222432
 11
685.23722627737197
 21
1026.5867850222428
  0
LINE
  8
_0-0_計極細
  6
CONTINUOUS
 62
    2
 10
698.23722627737197
 20
1032.1867850222432
 11
698.23722627737197
 21
1026.5867850222428
  0
LINE
  8
_0-0_計極細
  6
CONTINUOUS
 62
    2
 10
685.23722627737197
 20
1049.1867850222436
 11
685.23722627737197
 21
1043.5867850222437
  0
LINE
  8
_0-0_計極細
  6
CONTINUOUS
 62
    2
 10
698.23722627737197
 20
1049.1867850222436
 11
698.23722627737197
 21
1043.5867850222437
  0
LINE
  8
_0-0_計極細
  6
CONTINUOUS
 62
    2
 10
685.23722627737197
 20
1133.9867850222429
 11
685.23722627737197
 21
1128.5867850222428
  0
LINE
  8
_0-0_計極細
  6
CONTINUOUS
 62
    2
 10
698.23722627737197
 20
1133.9867850222429
 11
698.23722627737197
 21
1128.5867850222428
  0
LINE
  8
_0-0_計極細
  6
CONTINUOUS
 62
    2
 10
685.23722627737197
 20
856.78678502224307
 11
685.23722627737197
 21
862.1867850222427
  0
LINE
  8
_0-0_計極細
  6
CONTINUOUS
 62
    2
 10
698.23722627737197
 20
856.78678502224307
 11
698.23722627737197
 21
862.1867850222427
  0
LINE
  8
_0-0_計極細
  6
CONTINUOUS
 62
    2
 10
685.23722627737197
 20
1066.1867850222427
 11
685.23722627737197
 21
1060.5867850222428
  0
LINE
  8
_0-0_計極細
  6
CONTINUOUS
 62
    2
 10
698.23722627737197
 20
1066.1867850222427
 11
698.23722627737197
 21
1060.5867850222428
  0
LINE
  8
_0-0_計極細
  6
CONTINUOUS
 62
    2
 10
685.23722627737197
 20
1083.1867850222418
 11
685.23722627737197
 21
1077.5867850222419
  0
LINE
  8
_0-0_計極細
  6
CONTINUOUS
 62
    2
 10
698.23722627737197
 20
1083.1867850222418
 11
698.23722627737197
 21
1077.5867850222419
  0
LINE
  8
_0-0_計極細
  6
CONTINUOUS
 62
    2
 10
685.23722627737197
 20
1100.1867850222409
 11
685.23722627737197
 21
1094.586785022241
  0
LINE
  8
_0-0_計極細
  6
CONTINUOUS
 62
    2
 10
698.23722627737197
 20
1100.1867850222409
 11
698.23722627737197
 21
1094.586785022241
  0
LINE
  8
_0-0_計極細
  6
CONTINUOUS
 62
    2
 10
685.23722627737197
 20
1117.18678502224
 11
685.23722627737197
 21
1111.5867850222401
  0
LINE
  8
_0-0_計極細
  6
CONTINUOUS
 62
    2
 10
698.23722627737197
 20
1117.18678502224
 11
698.23722627737197
 21
1111.5867850222401
  0
LINE
  8
_0-0_計極細
  6
CONTINUOUS
 62
    2
 10
685.23722627737197
 20
924.58678502224416
 11
685.23722627737197
 21
930.18678502224407
  0
LINE
  8
_0-0_計極細
  6
CONTINUOUS
 62
    2
 10
698.23722627737197
 20
924.58678502224416
 11
698.23722627737197
 21
930.18678502224407
  0
LINE
  8
_0-0_計極細
  6
CONTINUOUS
 62
    2
 10
685.23722627737197
 20
907.58678502224507
 11
685.23722627737197
 21
913.18678502224498
  0
LINE
  8
_0-0_計極細
  6
CONTINUOUS
 62
    2
 10
698.23722627737197
 20
907.58678502224507
 11
698.23722627737197
 21
913.18678502224498
  0
LINE
  8
_0-0_計極細
  6
CONTINUOUS
 62
    2
 10
685.23722627737197
 20
890.58678502224598
 11
685.23722627737197
 21
896.18678502224589
  0
LINE
  8
_0-0_計極細
  6
CONTINUOUS
 62
    2
 10
698.23722627737197
 20
890.58678502224598
 11
698.23722627737197
 21
896.18678502224589
  0
LINE
  8
_0-0_計極細
  6
CONTINUOUS
 62
    2
 10
685.23722627737197
 20
873.58678502224689
 11
685.23722627737197
 21
879.1867850222468
  0
LINE
  8
_0-0_計極細
  6
CONTINUOUS
 62
    2
 10
698.23722627737197
 20
873.58678502224689
 11
698.23722627737197
 21
879.1867850222468
  0
LINE
  8
_0-0_計極細
  6
CENTER1
 62
    2
 10
594.73722627737197
 20
1154.1375044467052
 11
594.73722627737197
 21
837.6289612812318
  0
LINE
  8
_0-0_計極細
  6
CONTINUOUS
 62
    2
 10
588.23722627737197
 20
941.58678502224416
 11
588.23722627737197
 21
947.18678502224452
  0
LINE
  8
_0-0_計極細
  6
CONTINUOUS
 62
    2
 10
601.23722627737197
 20
941.58678502224416
 11
601.23722627737197
 21
947.18678502224452
  0
LINE
  8
_0-0_計極細
  6
CONTINUOUS
 62
    2
 10
588.23722627737197
 20
958.58678502224507
 11
588.23722627737197
 21
964.18678502224498
  0
LINE
  8
_0-0_計極細
  6
CONTINUOUS
 62
    2
 10
601.23722627737197
 20
958.58678502224507
 11
601.23722627737197
 21
964.18678502224498
  0
LINE
  8
_0-0_計極細
  6
CONTINUOUS
 62
    2
 10
588.23722627737197
 20
981.18678502224088
 11
588.23722627737197
 21
975.58678502224097
  0
LINE
  8
_0-0_計極細
  6
CONTINUOUS
 62
    2
 10
601.23722627737197
 20
981.18678502224088
 11
601.23722627737197
 21
975.58678502224097
  0
LINE
  8
_0-0_計極細
  6
CONTINUOUS
 62
    2
 10
588.23722627737197
 20
998.18678502224179
 11
588.23722627737197
 21
992.58678502224143
  0
LINE
  8
_0-0_計極細
  6
CONTINUOUS
 62
    2
 10
601.23722627737197
 20
998.18678502224179
 11
601.23722627737197
 21
992.58678502224143
  0
LINE
  8
_0-0_計極細
  6
CONTINUOUS
 62
    2
 10
588.23722627737197
 20
1015.1867850222422
 11
588.23722627737197
 21
1009.5867850222423
  0
LINE
  8
_0-0_計極細
  6
CONTINUOUS
 62
    2
 10
601.23722627737197
 20
1015.1867850222422
 11
601.23722627737197
 21
1009.5867850222423
  0
LINE
  8
_0-0_計極細
  6
CONTINUOUS
 62
    2
 10
588.23722627737197
 20
1032.1867850222432
 11
588.23722627737197
 21
1026.5867850222428
  0
LINE
  8
_0-0_計極細
  6
CONTINUOUS
 62
    2
 10
601.23722627737197
 20
1032.1867850222432
 11
601.23722627737197
 21
1026.5867850222428
  0
LINE
  8
_0-0_計極細
  6
CONTINUOUS
 62
    2
 10
588.23722627737197
 20
1049.1867850222436
 11
588.23722627737197
 21
1043.5867850222437
  0
LINE
  8
_0-0_計極細
  6
CONTINUOUS
 62
    2
 10
601.23722627737197
 20
1049.1867850222436
 11
601.23722627737197
 21
1043.5867850222437
  0
LINE
  8
_0-0_計極細
  6
CONTINUOUS
 62
    2
 10
588.23722627737197
 20
1133.9867850222429
 11
588.23722627737197
 21
1128.5867850222428
  0
LINE
  8
_0-0_計極細
  6
CONTINUOUS
 62
    2
 10
601.23722627737197
 20
1133.9867850222429
 11
601.23722627737197
 21
1128.5867850222428
  0
LINE
  8
_0-0_計極細
  6
CONTINUOUS
 62
    2
 10
588.23722627737197
 20
856.78678502224307
 11
588.23722627737197
 21
862.1867850222427
  0
LINE
  8
_0-0_計極細
  6
CONTINUOUS
 62
    2
 10
601.23722627737197
 20
856.78678502224307
 11
601.23722627737197
 21
862.1867850222427
  0
LINE
  8
_0-0_計極細
  6
CONTINUOUS
 62
    2
 10
588.23722627737197
 20
1066.1867850222427
 11
588.23722627737197
 21
1060.5867850222428
  0
LINE
  8
_0-0_計極細
  6
CONTINUOUS
 62
    2
 10
601.23722627737197
 20
1066.1867850222427
 11
601.23722627737197
 21
1060.5867850222428
  0
LINE
  8
_0-0_計極細
  6
CONTINUOUS
 62
    2
 10
588.23722627737197
 20
1083.1867850222418
 11
588.23722627737197
 21
1077.5867850222419
  0
LINE
  8
_0-0_計極細
  6
CONTINUOUS
 62
    2
 10
601.23722627737197
 20
1083.1867850222418
 11
601.23722627737197
 21
1077.5867850222419
  0
LINE
  8
_0-0_計極細
  6
CONTINUOUS
 62
    2
 10
588.23722627737197
 20
1100.1867850222409
 11
588.23722627737197
 21
1094.586785022241
  0
LINE
  8
_0-0_計極細
  6
CONTINUOUS
 62
    2
 10
601.23722627737197
 20
1100.1867850222409
 11
601.23722627737197
 21
1094.586785022241
  0
LINE
  8
_0-0_計極細
  6
CONTINUOUS
 62
    2
 10
588.23722627737197
 20
1117.18678502224
 11
588.23722627737197
 21
1111.5867850222401
  0
LINE
  8
_0-0_計極細
  6
CONTINUOUS
 62
    2
 10
601.23722627737197
 20
1117.18678502224
 11
601.23722627737197
 21
1111.5867850222401
  0
LINE
  8
_0-0_計極細
  6
CONTINUOUS
 62
    2
 10
588.23722627737197
 20
924.58678502224416
 11
588.23722627737197
 21
930.18678502224407
  0
LINE
  8
_0-0_計極細
  6
CONTINUOUS
 62
    2
 10
601.23722627737197
 20
924.58678502224416
 11
601.23722627737197
 21
930.18678502224407
  0
LINE
  8
_0-0_計極細
  6
CONTINUOUS
 62
    2
 10
588.23722627737197
 20
907.58678502224507
 11
588.23722627737197
 21
913.18678502224498
  0
LINE
  8
_0-0_計極細
  6
CONTINUOUS
 62
    2
 10
601.23722627737197
 20
907.58678502224507
 11
601.23722627737197
 21
913.18678502224498
  0
LINE
  8
_0-0_計極細
  6
CONTINUOUS
 62
    2
 10
588.23722627737197
 20
890.58678502224598
 11
588.23722627737197
 21
896.18678502224589
  0
LINE
  8
_0-0_計極細
  6
CONTINUOUS
 62
    2
 10
601.23722627737197
 20
890.58678502224598
 11
601.23722627737197
 21
896.18678502224589
  0
LINE
  8
_0-0_計極細
  6
CONTINUOUS
 62
    2
 10
588.23722627737197
 20
873.58678502224689
 11
588.23722627737197
 21
879.1867850222468
  0
LINE
  8
_0-0_計極細
  6
CONTINUOUS
 62
    2
 10
601.23722627737197
 20
873.58678502224689
 11
601.23722627737197
 21
879.1867850222468
  0
LINE
  8
_0-0_計極細
  6
CENTER1
 62
    2
 10
449.23722627737197
 20
1154.1375044467052
 11
449.23722627737197
 21
837.6289612812318
  0
LINE
  8
_0-0_計極細
  6
CONTINUOUS
 62
    2
 10
442.73722627737197
 20
941.58678502224416
 11
442.73722627737197
 21
947.18678502224452
  0
LINE
  8
_0-0_計極細
  6
CONTINUOUS
 62
    2
 10
455.73722627737197
 20
941.58678502224416
 11
455.73722627737197
 21
947.18678502224452
  0
LINE
  8
_0-0_計極細
  6
CONTINUOUS
 62
    2
 10
442.73722627737197
 20
958.58678502224507
 11
442.73722627737197
 21
964.18678502224498
  0
LINE
  8
_0-0_計極細
  6
CONTINUOUS
 62
    2
 10
455.73722627737197
 20
958.58678502224507
 11
455.73722627737197
 21
964.18678502224498
  0
LINE
  8
_0-0_計極細
  6
CONTINUOUS
 62
    2
 10
442.73722627737197
 20
981.18678502224088
 11
442.73722627737197
 21
975.58678502224097
  0
LINE
  8
_0-0_計極細
  6
CONTINUOUS
 62
    2
 10
455.73722627737197
 20
981.18678502224088
 11
455.73722627737197
 21
975.58678502224097
  0
LINE
  8
_0-0_計極細
  6
CONTINUOUS
 62
    2
 10
442.73722627737197
 20
1015.1867850222422
 11
442.73722627737197
 21
1009.5867850222423
  0
LINE
  8
_0-0_計極細
  6
CONTINUOUS
 62
    2
 10
455.73722627737197
 20
1015.1867850222422
 11
455.73722627737197
 21
1009.5867850222423
  0
LINE
  8
_0-0_計極細
  6
CONTINUOUS
 62
    2
 10
442.73722627737197
 20
1032.1867850222432
 11
442.73722627737197
 21
1026.5867850222428
  0
LINE
  8
_0-0_計極細
  6
CONTINUOUS
 62
    2
 10
455.73722627737197
 20
1032.1867850222432
 11
455.73722627737197
 21
1026.5867850222428
  0
LINE
  8
_0-0_計極細
  6
CONTINUOUS
 62
    2
 10
442.73722627737197
 20
1049.1867850222436
 11
442.73722627737197
 21
1043.5867850222437
  0
LINE
  8
_0-0_計極細
  6
CONTINUOUS
 62
    2
 10
455.73722627737197
 20
1049.1867850222436
 11
455.73722627737197
 21
1043.5867850222437
  0
LINE
  8
_0-0_計極細
  6
CONTINUOUS
 62
    2
 10
442.73722627737197
 20
1133.9867850222429
 11
442.73722627737197
 21
1128.5867850222428
  0
LINE
  8
_0-0_計極細
  6
CONTINUOUS
 62
    2
 10
455.73722627737197
 20
1133.9867850222429
 11
455.73722627737197
 21
1128.5867850222428
  0
LINE
  8
_0-0_計極細
  6
CONTINUOUS
 62
    2
 10
442.73722627737197
 20
856.78678502224307
 11
442.73722627737197
 21
862.1867850222427
  0
LINE
  8
_0-0_計極細
  6
CONTINUOUS
 62
    2
 10
455.73722627737197
 20
856.78678502224307
 11
455.73722627737197
 21
862.1867850222427
  0
LINE
  8
_0-0_計極細
  6
CONTINUOUS
 62
    2
 10
442.73722627737197
 20
1066.1867850222427
 11
442.73722627737197
 21
1060.5867850222428
  0
LINE
  8
_0-0_計極細
  6
CONTINUOUS
 62
    2
 10
455.73722627737197
 20
1066.1867850222427
 11
455.73722627737197
 21
1060.5867850222428
  0
LINE
  8
_0-0_計極細
  6
CONTINUOUS
 62
    2
 10
442.73722627737197
 20
1083.1867850222418
 11
442.73722627737197
 21
1077.5867850222419
  0
LINE
  8
_0-0_計極細
  6
CONTINUOUS
 62
    2
 10
455.73722627737197
 20
1083.1867850222418
 11
455.73722627737197
 21
1077.5867850222419
  0
LINE
  8
_0-0_計極細
  6
CONTINUOUS
 62
    2
 10
442.73722627737197
 20
1100.1867850222409
 11
442.73722627737197
 21
1094.586785022241
  0
LINE
  8
_0-0_計極細
  6
CONTINUOUS
 62
    2
 10
455.73722627737197
 20
1100.1867850222409
 11
455.73722627737197
 21
1094.586785022241
  0
LINE
  8
_0-0_計極細
  6
CONTINUOUS
 62
    2
 10
442.73722627737197
 20
1117.18678502224
 11
442.73722627737197
 21
1111.5867850222401
  0
LINE
  8
_0-0_計極細
  6
CONTINUOUS
 62
    2
 10
455.73722627737197
 20
1117.18678502224
 11
455.73722627737197
 21
1111.5867850222401
  0
LINE
  8
_0-0_計極細
  6
CONTINUOUS
 62
    2
 10
442.73722627737197
 20
924.58678502224416
 11
442.73722627737197
 21
930.18678502224407
  0
LINE
  8
_0-0_計極細
  6
CONTINUOUS
 62
    2
 10
455.73722627737197
 20
924.58678502224416
 11
455.73722627737197
 21
930.18678502224407
  0
LINE
  8
_0-0_計極細
  6
CONTINUOUS
 62
    2
 10
442.73722627737197
 20
907.58678502224507
 11
442.73722627737197
 21
913.18678502224498
  0
LINE
  8
_0-0_計極細
  6
CONTINUOUS
 62
    2
 10
455.73722627737197
 20
907.58678502224507
 11
455.73722627737197
 21
913.18678502224498
  0
LINE
  8
_0-0_計極細
  6
CONTINUOUS
 62
    2
 10
442.73722627737197
 20
890.58678502224598
 11
442.73722627737197
 21
896.18678502224589
  0
LINE
  8
_0-0_計極細
  6
CONTINUOUS
 62
    2
 10
455.73722627737197
 20
890.58678502224598
 11
455.73722627737197
 21
896.18678502224589
  0
LINE
  8
_0-0_計極細
  6
CONTINUOUS
 62
    2
 10
442.73722627737197
 20
873.58678502224689
 11
442.73722627737197
 21
879.1867850222468
  0
LINE
  8
_0-0_計極細
  6
CONTINUOUS
 62
    2
 10
455.73722627737197
 20
873.58678502224689
 11
455.73722627737197
 21
879.1867850222468
  0
LINE
  8
_0-0_計極細
  6
CENTER1
 62
    2
 10
497.73722627737197
 20
1154.1375044467052
 11
497.73722627737197
 21
837.6289612812318
  0
LINE
  8
_0-0_計極細
  6
CONTINUOUS
 62
    2
 10
491.23722627737197
 20
941.58678502224416
 11
491.23722627737197
 21
947.18678502224452
  0
LINE
  8
_0-0_計極細
  6
CONTINUOUS
 62
    2
 10
504.23722627737197
 20
941.58678502224416
 11
504.23722627737197
 21
947.18678502224452
  0
LINE
  8
_0-0_計極細
  6
CONTINUOUS
 62
    2
 10
491.23722627737197
 20
958.58678502224507
 11
491.23722627737197
 21
964.18678502224498
  0
LINE
  8
_0-0_計極細
  6
CONTINUOUS
 62
    2
 10
504.23722627737197
 20
958.58678502224507
 11
504.23722627737197
 21
964.18678502224498
  0
LINE
  8
_0-0_計極細
  6
CONTINUOUS
 62
    2
 10
491.23722627737197
 20
981.18678502224088
 11
491.23722627737197
 21
975.58678502224097
  0
LINE
  8
_0-0_計極細
  6
CONTINUOUS
 62
    2
 10
504.23722627737197
 20
981.18678502224088
 11
504.23722627737197
 21
975.58678502224097
  0
LINE
  8
_0-0_計極細
  6
CONTINUOUS
 62
    2
 10
491.23722627737197
 20
998.18678502224179
 11
491.23722627737197
 21
992.58678502224143
  0
LINE
  8
_0-0_計極細
  6
CONTINUOUS
 62
    2
 10
504.23722627737197
 20
998.18678502224179
 11
504.23722627737197
 21
992.58678502224143
  0
LINE
  8
_0-0_計極細
  6
CONTINUOUS
 62
    2
 10
491.23722627737197
 20
1015.1867850222422
 11
491.23722627737197
 21
1009.5867850222423
  0
LINE
  8
_0-0_計極細
  6
CONTINUOUS
 62
    2
 10
504.23722627737197
 20
1015.1867850222422
 11
504.23722627737197
 21
1009.5867850222423
  0
LINE
  8
_0-0_計極細
  6
CONTINUOUS
 62
    2
 10
491.23722627737197
 20
1032.1867850222432
 11
491.23722627737197
 21
1026.5867850222428
  0
LINE
  8
_0-0_計極細
  6
CONTINUOUS
 62
    2
 10
504.23722627737197
 20
1032.1867850222432
 11
504.23722627737197
 21
1026.5867850222428
  0
LINE
  8
_0-0_計極細
  6
CONTINUOUS
 62
    2
 10
491.23722627737197
 20
1049.1867850222436
 11
491.23722627737197
 21
1043.5867850222437
  0
LINE
  8
_0-0_計極細
  6
CONTINUOUS
 62
    2
 10
504.23722627737197
 20
1049.1867850222436
 11
504.23722627737197
 21
1043.5867850222437
  0
LINE
  8
_0-0_計極細
  6
CONTINUOUS
 62
    2
 10
491.23722627737197
 20
1133.9867850222429
 11
491.23722627737197
 21
1128.5867850222428
  0
LINE
  8
_0-0_計極細
  6
CONTINUOUS
 62
    2
 10
504.23722627737197
 20
1133.9867850222429
 11
504.23722627737197
 21
1128.5867850222428
  0
LINE
  8
_0-0_計極細
  6
CONTINUOUS
 62
    2
 10
491.23722627737197
 20
856.78678502224307
 11
491.23722627737197
 21
862.1867850222427
  0
LINE
  8
_0-0_計極細
  6
CONTINUOUS
 62
    2
 10
504.23722627737197
 20
856.78678502224307
 11
504.23722627737197
 21
862.1867850222427
  0
LINE
  8
_0-0_計極細
  6
CONTINUOUS
 62
    2
 10
491.23722627737197
 20
1066.1867850222427
 11
491.23722627737197
 21
1060.5867850222428
  0
LINE
  8
_0-0_計極細
  6
CONTINUOUS
 62
    2
 10
504.23722627737197
 20
1066.1867850222427
 11
504.23722627737197
 21
1060.5867850222428
  0
LINE
  8
_0-0_計極細
  6
CONTINUOUS
 62
    2
 10
491.23722627737197
 20
1083.1867850222418
 11
491.23722627737197
 21
1077.5867850222419
  0
LINE
  8
_0-0_計極細
  6
CONTINUOUS
 62
    2
 10
504.23722627737197
 20
1083.1867850222418
 11
504.23722627737197
 21
1077.5867850222419
  0
LINE
  8
_0-0_計極細
  6
CONTINUOUS
 62
    2
 10
491.23722627737197
 20
1100.1867850222409
 11
491.23722627737197
 21
1094.586785022241
  0
LINE
  8
_0-0_計極細
  6
CONTINUOUS
 62
    2
 10
504.23722627737197
 20
1100.1867850222409
 11
504.23722627737197
 21
1094.586785022241
  0
LINE
  8
_0-0_計極細
  6
CONTINUOUS
 62
    2
 10
491.23722627737197
 20
1117.18678502224
 11
491.23722627737197
 21
1111.5867850222401
  0
LINE
  8
_0-0_計極細
  6
CONTINUOUS
 62
    2
 10
504.23722627737197
 20
1117.18678502224
 11
504.23722627737197
 21
1111.5867850222401
  0
LINE
  8
_0-0_計極細
  6
CONTINUOUS
 62
    2
 10
491.23722627737197
 20
924.58678502224416
 11
491.23722627737197
 21
930.18678502224407
  0
LINE
  8
_0-0_計極細
  6
CONTINUOUS
 62
    2
 10
504.23722627737197
 20
924.58678502224416
 11
504.23722627737197
 21
930.18678502224407
  0
LINE
  8
_0-0_計極細
  6
CONTINUOUS
 62
    2
 10
491.23722627737197
 20
907.58678502224507
 11
491.23722627737197
 21
913.18678502224498
  0
LINE
  8
_0-0_計極細
  6
CONTINUOUS
 62
    2
 10
504.23722627737197
 20
907.58678502224507
 11
504.23722627737197
 21
913.18678502224498
  0
LINE
  8
_0-0_計極細
  6
CONTINUOUS
 62
    2
 10
491.23722627737197
 20
890.58678502224598
 11
491.23722627737197
 21
896.18678502224589
  0
LINE
  8
_0-0_計極細
  6
CONTINUOUS
 62
    2
 10
504.23722627737197
 20
890.58678502224598
 11
504.23722627737197
 21
896.18678502224589
  0
LINE
  8
_0-0_計極細
  6
CONTINUOUS
 62
    2
 10
491.23722627737197
 20
873.58678502224689
 11
491.23722627737197
 21
879.1867850222468
  0
LINE
  8
_0-0_計極細
  6
CONTINUOUS
 62
    2
 10
504.23722627737197
 20
873.58678502224689
 11
504.23722627737197
 21
879.1867850222468
  0
LINE
  8
_0-1_計細線
  6
CONTINUOUS
 62
    3
 10
337.73722627737197
 20
1009.5867850222423
 11
1336.737226277372
 21
1009.5867850222423
  0
LINE
  8
_0-1_計細線
  6
CONTINUOUS
 62
    3
 10
1336.737226277372
 20
1009.5867850222423
 11
1336.737226277372
 21
998.18678502224179
  0
LINE
  8
_0-0_計極細
  6
CONTINUOUS
 62
    2
 10
337.73722627737197
 20
1001.3867850222421
 11
1336.737226277372
 21
1001.3867850222421
  0
LINE
  8
_0-0_計極細
  6
CONTINUOUS
 62
    2
 10
337.73722627737197
 20
1006.3867850222421
 11
1336.737226277372
 21
1006.3867850222421
  0
LINE
  8
_0-1_計細線
  6
CONTINUOUS
 62
    3
 10
337.73722627737197
 20
1009.5867850222423
 11
337.73722627737197
 21
998.18678502224179
  0
LINE
  8
_0-1_計細線
  6
CONTINUOUS
 62
    3
 10
337.73722627737197
 20
998.18678502224179
 11
1336.737226277372
 21
998.18678502224179
  0
LINE
  8
_0-1_計細線
  6
CONTINUOUS
 62
    3
 10
337.73722627737197
 20
981.18678502224088
 11
1336.737226277372
 21
981.18678502224088
  0
LINE
  8
_0-1_計細線
  6
CONTINUOUS
 62
    3
 10
1336.737226277372
 20
992.58678502224143
 11
1336.737226277372
 21
981.18678502224088
  0
LINE
  8
_0-0_計極細
  6
CONTINUOUS
 62
    2
 10
337.73722627737197
 20
984.38678502224116
 11
1336.737226277372
 21
984.38678502224116
  0
LINE
  8
_0-0_計極細
  6
CONTINUOUS
 62
    2
 10
337.73722627737197
 20
989.38678502224116
 11
1336.737226277372
 21
989.38678502224116
  0
LINE
  8
_0-1_計細線
  6
CONTINUOUS
 62
    3
 10
337.73722627737197
 20
992.58678502224143
 11
1336.737226277372
 21
992.58678502224143
  0
LINE
  8
_0-1_計細線
  6
CONTINUOUS
 62
    3
 10
337.73722627737197
 20
992.58678502224143
 11
337.73722627737197
 21
981.18678502224088
  0
LINE
  8
_0-0_計極細
  6
CONTINUOUS
 62
    2
 10
442.73722627737197
 20
998.18678502224179
 11
442.73722627737197
 21
997.73678502224334
  0
LINE
  8
_0-0_計極細
  6
CONTINUOUS
 62
    2
 10
442.73722627737197
 20
993.03678502224352
 11
442.73722627737197
 21
992.58678502224188
  0
LINE
  8
_0-0_計極細
  6
CONTINUOUS
 62
    2
 10
455.73722627737197
 20
998.18678502224179
 11
455.73722627737197
 21
997.73678502224334
  0
LINE
  8
_0-0_計極細
  6
CONTINUOUS
 62
    2
 10
455.73722627737197
 20
993.03678502224352
 11
455.73722627737197
 21
992.58678502224143
  0
LINE
  8
_0-5_寸法線
  6
CONTINUOUS
 62
    7
 10
1374.2372262773715
 20
1150.386785022243
 11
1502.2372262773713
 21
1150.386785022243
  0
LINE
  8
_0-5_寸法線
  6
CONTINUOUS
 62
    7
 10
1494.2372262773713
 20
1150.386785022243
 11
1498.3783309990117
 21
1134.9319718016179
  0
LINE
  8
_0-5_寸法線
  6
CONTINUOUS
 62
    7
 10
1494.2372262773713
 20
1150.386785022243
 11
1490.0961215557311
 21
1134.9319718016179
  0
LINE
  8
_0-5_寸法線
  6
CONTINUOUS
 62
    7
 10
1374.2372262773711
 20
840.38678502223934
 11
1502.2372262773713
 21
840.38678502223956
  0
LINE
  8
_0-5_寸法線
  6
CONTINUOUS
 62
    7
 10
1494.2372262773713
 20
840.38678502223956
 11
1490.0961215557311
 21
855.84159824286462
  0
LINE
  8
_0-5_寸法線
  6
CONTINUOUS
 62
    7
 10
1494.2372262773713
 20
840.38678502223956
 11
1498.3783309990117
 21
855.84159824286462
  0
LINE
  8
_0-5_寸法線
  6
CONTINUOUS
 62
    7
 10
1494.2372262773713
 20
1150.386785022243
 11
1494.2372262773713
 21
840.38678502223956
  0
TEXT
  8
_0-5_寸法線
 62
    7
 10
1494.2372262773727
 20
977.38678502224104
 40
24
 41
1
 50
90
  1
310
  0
LINE
  8
_0-5_寸法線
  6
CONTINUOUS
 62
    7
 10
300.23722627737016
 20
1150.3867850222427
 11
228.23722627736879
 21
1150.3867850222416
  0
LINE
  8
_0-5_寸法線
  6
CONTINUOUS
 62
    7
 10
236.23722627736879
 20
1150.3867850222418
 11
240.37833099900934
 21
1134.9319718016168
  0
LINE
  8
_0-5_寸法線
  6
CONTINUOUS
 62
    7
 10
236.23722627736879
 20
1150.3867850222418
 11
232.09612155572859
 21
1134.9319718016168
  0
LINE
  8
_0-5_寸法線
  6
CONTINUOUS
 62
    7
 10
300.23722627737288
 20
1120.3867850222427
 11
228.2372262773697
 21
1120.3867850222416
  0
LINE
  8
_0-5_寸法線
  6
CONTINUOUS
 62
    7
 10
236.2372262773697
 20
1120.3867850222418
 11
232.09612155572916
 21
1135.8415982428669
  0
LINE
  8
_0-5_寸法線
  6
CONTINUOUS
 62
    7
 10
236.2372262773697
 20
1120.3867850222418
 11
240.37833099900979
 21
1135.8415982428669
  0
LINE
  8
_0-5_寸法線
  6
CONTINUOUS
 62
    7
 10
236.23722627736879
 20
1150.3867850222418
 11
236.2372262773697
 21
1120.3867850222418
  0
TEXT
  8
_0-5_寸法線
 62
    7
 10
236.23722627736902
 20
1123.3867850222418
 40
24
 41
1
 50
90.000000000000824
  1
30
  0
LINE
  8
_0-5_寸法線
  6
CONTINUOUS
 62
    7
 10
236.2372262773697
 20
1120.3867850222418
 11
240.37833099901025
 21
1104.9319718016168
  0
LINE
  8
_0-5_寸法線
  6
CONTINUOUS
 62
    7
 10
236.2372262773697
 20
1120.3867850222418
 11
232.0961215557295
 21
1104.9319718016168
  0
LINE
  8
_0-5_寸法線
  6
CONTINUOUS
 62
    7
 10
300.23722627737106
 20
870.38678502224275
 11
228.23722627737675
 21
870.38678502224172
  0
LINE
  8
_0-5_寸法線
  6
CONTINUOUS
 62
    7
 10
236.23722627737675
 20
870.38678502224184
 11
232.0961215557362
 21
885.84159824286689
  0
LINE
  8
_0-5_寸法線
  6
CONTINUOUS
 62
    7
 10
236.23722627737675
 20
870.38678502224184
 11
240.37833099901695
 21
885.84159824286701
  0
LINE
  8
_0-5_寸法線
  6
CONTINUOUS
 62
    7
 10
236.2372262773697
 20
1120.3867850222418
 11
236.23722627737675
 21
870.38678502224184
  0
TEXT
  8
_0-5_寸法線
 62
    7
 10
236.23722627737186
 20
977.38678502224184
 40
24
 41
1
 50
90.000000000000725
  1
250
  0
LINE
  8
_0-5_寸法線
  6
CONTINUOUS
 62
    7
 10
236.23722627737675
 20
870.38678502224184
 11
240.37833099901729
 21
854.93197180161678
  0
LINE
  8
_0-5_寸法線
  6
CONTINUOUS
 62
    7
 10
236.23722627737675
 20
870.38678502224184
 11
232.09612155573666
 21
854.93197180161667
  0
LINE
  8
_0-5_寸法線
  6
CONTINUOUS
 62
    7
 10
300.23722627737561
 20
840.38678502224548
 11
228.23722627737766
 21
840.38678502224445
  0
LINE
  8
_0-5_寸法線
  6
CONTINUOUS
 62
    7
 10
236.23722627737766
 20
840.38678502224457
 11
232.09612155573711
 21
855.84159824286962
  0
LINE
  8
_0-5_寸法線
  6
CONTINUOUS
 62
    7
 10
236.23722627737766
 20
840.38678502224457
 11
240.37833099901775
 21
855.84159824286974
  0
LINE
  8
_0-5_寸法線
  6
CONTINUOUS
 62
    7
 10
236.23722627737675
 20
870.38678502224184
 11
236.23722627737766
 21
840.38678502224457
  0
TEXT
  8
_0-5_寸法線
 62
    7
 10
236.2372262773772
 20
843.3867850222432
 40
24
 41
1
 50
90.000000000000824
  1
30
  0
LINE
  8
_0-5_寸法線
  6
CONTINUOUS
 62
    7
 10
1438.2372262773713
 20
1150.386785022243
 11
1434.0961215557311
 21
1165.841598242868
  0
LINE
  8
_0-5_寸法線
  6
CONTINUOUS
 62
    7
 10
1438.2372262773713
 20
1150.386785022243
 11
1442.3783309990117
 21
1165.841598242868
  0
LINE
  8
_0-5_寸法線
  6
CONTINUOUS
 62
    7
 10
1374.2372262773715
 20
1147.386785022243
 11
1446.2372262773713
 21
1147.386785022243
  0
CIRCLE
  8
_0-5_寸法線
  6
CONTINUOUS
 62
    1
 10
1438.2372262773713
 20
1147.386785022243
 40
2.3999999999999999
  0
LINE
  8
_0-5_寸法線
  6
CONTINUOUS
 62
    7
 10
1438.2372262773713
 20
1190.386785022243
 11
1438.2372262773713
 21
1147.386785022243
  0
TEXT
  8
_0-5_寸法線
 62
    7
 10
1438.2372262773713
 20
1172.150951931302
 40
24
 41
1
 50
90
  1
3
  0
LINE
  8
_0-5_寸法線
  6
CONTINUOUS
 62
    7
 10
1374.2372262773715
 20
1145.3867850222439
 11
1446.2372262773713
 21
1145.3867850222439
  0
LINE
  8
_0-5_寸法線
  6
CONTINUOUS
 62
    7
 10
1438.2372262773713
 20
1147.386785022243
 11
1438.2372262773713
 21
1145.3867850222439
  0
TEXT
  8
_0-5_寸法線
 62
    7
 10
1467.7008026111737
 20
1135.1601267819356
 40
24
 41
1
 50
90
  1
2
  0
LINE
  8
_0-5_寸法線
  6
CONTINUOUS
 62
    7
 10
1438.2372262773713
 20
1145.3867850222439
 11
1442.3783309990117
 21
1129.9319718016188
  0
LINE
  8
_0-5_寸法線
  6
CONTINUOUS
 62
    7
 10
1438.2372262773713
 20
1145.3867850222439
 11
1434.0961215557311
 21
1129.9319718016188
  0
LINE
  8
_0-5_寸法線
  6
CONTINUOUS
 62
    7
 10
1374.237226277372
 20
845.38678502224388
 11
1446.2372262773713
 21
845.38678502224388
  0
LINE
  8
_0-5_寸法線
  6
CONTINUOUS
 62
    7
 10
1438.2372262773713
 20
845.38678502224388
 11
1434.0961215557311
 21
860.84159824286894
  0
LINE
  8
_0-5_寸法線
  6
CONTINUOUS
 62
    7
 10
1438.2372262773713
 20
845.38678502224388
 11
1442.3783309990117
 21
860.84159824286894
  0
LINE
  8
_0-5_寸法線
  6
CONTINUOUS
 62
    7
 10
1438.2372262773713
 20
1145.3867850222439
 11
1438.2372262773713
 21
845.38678502224388
  0
TEXT
  8
_0-5_寸法線
 62
    7
 10
1438.2372262773724
 20
977.38678502224388
 40
24
 41
1
 50
90
  1
300
  0
LINE
  8
_0-5_寸法線
  6
CONTINUOUS
 62
    7
 10
1374.237226277372
 20
843.38678502224388
 11
1446.2372262773713
 21
843.38678502224388
  0
CIRCLE
  8
_0-5_寸法線
  6
CONTINUOUS
 62
    1
 10
1438.2372262773713
 20
843.38678502224388
 40
2.3999999999999999
  0
LINE
  8
_0-5_寸法線
  6
CONTINUOUS
 62
    7
 10
1438.2372262773713
 20
845.38678502224388
 11
1438.2372262773713
 21
843.38678502224388
  0
TEXT
  8
_0-5_寸法線
 62
    7
 10
1468.1830816930033
 20
843.98195852251501
 40
24
 41
1
 50
90
  1
2
  0
LINE
  8
_0-5_寸法線
  6
CONTINUOUS
 62
    7
 10
1438.2372262773713
 20
840.38678502223934
 11
1442.3783309990115
 21
824.93197180161428
  0
LINE
  8
_0-5_寸法線
  6
CONTINUOUS
 62
    7
 10
1438.2372262773713
 20
840.38678502223934
 11
1434.0961215557309
 21
824.93197180161428
  0
LINE
  8
_0-5_寸法線
  6
CONTINUOUS
 62
    7
 10
1438.2372262773713
 20
843.38678502224388
 11
1438.2372262773713
 21
800.38678502223934
  0
TEXT
  8
_0-5_寸法線
 62
    7
 10
1438.2372262773713
 20
806.7280720557867
 40
24
 41
1
 50
90
  1
3
  0
LINE
  8
_0-5_寸法線
  6
CONTINUOUS
 62
    7
 10
337.73722627737209
 20
1166.3867850222425
 11
337.73722627737232
 21
1294.386785022243
  0
LINE
  8
_0-5_寸法線
  6
CONTINUOUS
 62
    7
 10
337.73722627737232
 20
1286.386785022243
 11
349.32833619284111
 21
1289.4926135634732
  0
LINE
  8
_0-5_寸法線
  6
CONTINUOUS
 62
    7
 10
337.73722627737232
 20
1286.386785022243
 11
349.32833619284111
 21
1283.2809564810127
  0
LINE
  8
_0-5_寸法線
  6
CONTINUOUS
 62
    7
 10
1336.737226277372
 20
1166.3867850222425
 11
1336.7372262773722
 21
1294.386785022243
  0
LINE
  8
_0-5_寸法線
  6
CONTINUOUS
 62
    7
 10
1336.7372262773722
 20
1286.386785022243
 11
1325.1461163619033
 21
1283.2809564810127
  0
LINE
  8
_0-5_寸法線
  6
CONTINUOUS
 62
    7
 10
1336.7372262773722
 20
1286.386785022243
 11
1325.1461163619033
 21
1289.4926135634732
  0
LINE
  8
_0-5_寸法線
  6
CONTINUOUS
 62
    7
 10
337.73722627737232
 20
1286.386785022243
 11
1336.7372262773722
 21
1286.386785022243
  0
TEXT
  8
_0-5_寸法線
 62
    7
 10
825.23722627737197
 20
1286.386785022243
 40
24
 41
1
 50
0
  1
Ｌ
  0
LINE
  8
_0-5_寸法線
  6
CONTINUOUS
 62
    7
 10
837.23722627737197
 20
1166.386785022243
 11
837.2372262773722
 21
1238.386785022243
  0
LINE
  8
_0-5_寸法線
  6
CONTINUOUS
 62
    7
 10
837.2372262773722
 20
1230.386785022243
 11
852.69203949799726
 21
1234.5278897438834
  0
LINE
  8
_0-5_寸法線
  6
CONTINUOUS
 62
    7
 10
837.2372262773722
 20
1230.386785022243
 11
852.69203949799726
 21
1226.2456803006025
  0
LINE
  8
_0-5_寸法線
  6
CONTINUOUS
 62
    7
 10
885.73722627737197
 20
1166.386785022243
 11
885.7372262773722
 21
1238.386785022243
  0
LINE
  8
_0-5_寸法線
  6
CONTINUOUS
 62
    7
 10
885.7372262773722
 20
1230.386785022243
 11
870.28241305674715
 21
1226.2456803006028
  0
LINE
  8
_0-5_寸法線
  6
CONTINUOUS
 62
    7
 10
885.7372262773722
 20
1230.386785022243
 11
870.28241305674715
 21
1234.5278897438834
  0
LINE
  8
_0-5_寸法線
  6
CONTINUOUS
 62
    7
 10
837.2372262773722
 20
1230.386785022243
 11
885.7372262773722
 21
1230.386785022243
  0
TEXT
  8
_0-5_寸法線
 62
    7
 10
849.48722627737197
 20
1230.386785022243
 40
24
 41
1
 50
0
  1
Ｂ
  0
LINE
  8
_0-5_寸法線
  6
CONTINUOUS
 62
    7
 10
337.73722627737209
 20
1166.3867850222434
 11
337.73722627737243
 21
1238.386785022243
  0
LINE
  8
_0-5_寸法線
  6
CONTINUOUS
 62
    7
 10
337.73722627737232
 20
1230.386785022243
 11
353.19203949799748
 21
1234.5278897438834
  0
LINE
  8
_0-5_寸法線
  6
CONTINUOUS
 62
    7
 10
337.73722627737232
 20
1230.386785022243
 11
353.19203949799748
 21
1226.2456803006025
  0
LINE
  8
_0-5_寸法線
  6
CONTINUOUS
 62
    7
 10
352.23722627737209
 20
1166.3867850222434
 11
352.23722627737243
 21
1238.386785022243
  0
LINE
  8
_0-5_寸法線
  6
CONTINUOUS
 62
    7
 10
352.23722627737232
 20
1230.386785022243
 11
336.78241305674715
 21
1226.2456803006028
  0
LINE
  8
_0-5_寸法線
  6
CONTINUOUS
 62
    7
 10
352.23722627737232
 20
1230.386785022243
 11
336.78241305674726
 21
1234.5278897438834
  0
LINE
  8
_0-5_寸法線
  6
CONTINUOUS
 62
    7
 10
337.73722627737232
 20
1230.386785022243
 11
352.23722627737232
 21
1230.386785022243
  0
TEXT
  8
_0-5_寸法線
 62
    7
 10
332.987226277373
 20
1230.386785022243
 40
24
 41
1
 50
0
  1
Ａ
  0
LINE
  8
_0-5_寸法線
  6
CONTINUOUS
 62
    7
 10
1322.237226277372
 20
1166.3867850222434
 11
1322.237226277372
 21
1238.386785022243
  0
LINE
  8
_0-5_寸法線
  6
CONTINUOUS
 62
    7
 10
1322.237226277372
 20
1230.386785022243
 11
1337.692039497997
 21
1234.5278897438834
  0
LINE
  8
_0-5_寸法線
  6
CONTINUOUS
 62
    7
 10
1322.237226277372
 20
1230.386785022243
 11
1337.692039497997
 21
1226.2456803006025
  0
LINE
  8
_0-5_寸法線
  6
CONTINUOUS
 62
    7
 10
1336.737226277372
 20
1166.3867850222434
 11
1336.737226277372
 21
1238.386785022243
  0
LINE
  8
_0-5_寸法線
  6
CONTINUOUS
 62
    7
 10
1336.737226277372
 20
1230.386785022243
 11
1321.2824130567469
 21
1226.2456803006028
  0
LINE
  8
_0-5_寸法線
  6
CONTINUOUS
 62
    7
 10
1336.737226277372
 20
1230.386785022243
 11
1321.2824130567469
 21
1234.5278897438834
  0
LINE
  8
_0-5_寸法線
  6
CONTINUOUS
 62
    7
 10
1322.237226277372
 20
1230.386785022243
 11
1336.737226277372
 21
1230.386785022243
  0
TEXT
  8
_0-5_寸法線
 62
    7
 10
1317.487226277372
 20
1230.3867850222423
 40
24
 41
1
 50
0
  1
Ａ
  0
LINE
  8
_0-7_枠細線
  6
CONTINUOUS
 62
    5
 10
776.72936114504614
 20
1256.3957896317233
 11
764.72936114504614
 21
1280.3957896317233
  0
LINE
  8
_0-7_枠細線
  6
CONTINUOUS
 62
    5
 10
752.72936114504614
 20
1256.3957896317233
 11
776.72936114504614
 21
1256.3957896317233
  0
LINE
  8
_0-7_枠細線
  6
CONTINUOUS
 62
    5
 10
764.72936114504614
 20
1280.3957896317233
 11
752.72936114504614
 21
1256.3957896317233
  0
TEXT
  8
_0-7_枠細線
 62
    5
 10
756.5136031740833
 20
1255.9045860391143
 40
20
 41
0.8
 50
0
  1
１
  0
LINE
  8
_0-7_枠細線
  6
CONTINUOUS
 62
    5
 10
793.14584067456713
 20
1280.3957896317233
 11
781.14584067456713
 21
1256.3957896317233
  0
LINE
  8
_0-7_枠細線
  6
CONTINUOUS
 62
    5
 10
781.14584067456713
 20
1256.3957896317233
 11
805.14584067456713
 21
1256.3957896317233
  0
LINE
  8
_0-7_枠細線
  6
CONTINUOUS
 62
    5
 10
805.14584067456713
 20
1256.3957896317233
 11
793.14584067456713
 21
1280.3957896317233
  0
LINE
  8
_0-0_計極細
  6
CENTER1
 62
    2
 10
1273.737226277372
 20
1154.1375044467052
 11
1273.737226277372
 21
837.6289612812318
  0
LINE
  8
_0-0_計極細
  6
CONTINUOUS
 62
    2
 10
1267.237226277372
 20
941.58678502224416
 11
1267.237226277372
 21
947.18678502224452
  0
LINE
  8
_0-0_計極細
  6
CONTINUOUS
 62
    2
 10
1280.237226277372
 20
941.58678502224416
 11
1280.237226277372
 21
947.18678502224452
  0
LINE
  8
_0-0_計極細
  6
CONTINUOUS
 62
    2
 10
1267.237226277372
 20
958.58678502224507
 11
1267.237226277372
 21
964.18678502224498
  0
LINE
  8
_0-0_計極細
  6
CONTINUOUS
 62
    2
 10
1280.237226277372
 20
958.58678502224507
 11
1280.237226277372
 21
964.18678502224498
  0
LINE
  8
_0-0_計極細
  6
CONTINUOUS
 62
    2
 10
1267.237226277372
 20
981.18678502224088
 11
1267.237226277372
 21
975.58678502224097
  0
LINE
  8
_0-0_計極細
  6
CONTINUOUS
 62
    2
 10
1280.237226277372
 20
981.18678502224088
 11
1280.237226277372
 21
975.58678502224097
  0
LINE
  8
_0-0_計極細
  6
CONTINUOUS
 62
    2
 10
1267.237226277372
 20
998.18678502224179
 11
1267.237226277372
 21
992.58678502224143
  0
LINE
  8
_0-0_計極細
  6
CONTINUOUS
 62
    2
 10
1280.237226277372
 20
998.18678502224179
 11
1280.237226277372
 21
992.58678502224143
  0
LINE
  8
_0-0_計極細
  6
CONTINUOUS
 62
    2
 10
1267.237226277372
 20
1015.1867850222422
 11
1267.237226277372
 21
1009.5867850222423
  0
LINE
  8
_0-0_計極細
  6
CONTINUOUS
 62
    2
 10
1280.237226277372
 20
1015.1867850222422
 11
1280.237226277372
 21
1009.5867850222423
  0
LINE
  8
_0-0_計極細
  6
CONTINUOUS
 62
    2
 10
1267.237226277372
 20
1032.1867850222432
 11
1267.237226277372
 21
1026.5867850222428
  0
LINE
  8
_0-0_計極細
  6
CONTINUOUS
 62
    2
 10
1280.237226277372
 20
1032.1867850222432
 11
1280.237226277372
 21
1026.5867850222428
  0
LINE
  8
_0-0_計極細
  6
CONTINUOUS
 62
    2
 10
1267.237226277372
 20
1049.1867850222436
 11
1267.237226277372
 21
1043.5867850222437
  0
LINE
  8
_0-0_計極細
  6
CONTINUOUS
 62
    2
 10
1280.237226277372
 20
1049.1867850222436
 11
1280.237226277372
 21
1043.5867850222437
  0
LINE
  8
_0-0_計極細
  6
CONTINUOUS
 62
    2
 10
1267.237226277372
 20
1133.9867850222429
 11
1267.237226277372
 21
1128.5867850222428
  0
LINE
  8
_0-0_計極細
  6
CONTINUOUS
 62
    2
 10
1280.237226277372
 20
1133.9867850222429
 11
1280.237226277372
 21
1128.5867850222428
  0
LINE
  8
_0-0_計極細
  6
CONTINUOUS
 62
    2
 10
1267.237226277372
 20
856.78678502224307
 11
1267.237226277372
 21
862.1867850222427
  0
LINE
  8
_0-0_計極細
  6
CONTINUOUS
 62
    2
 10
1280.237226277372
 20
856.78678502224307
 11
1280.237226277372
 21
862.1867850222427
  0
LINE
  8
_0-0_計極細
  6
CONTINUOUS
 62
    2
 10
1267.237226277372
 20
1066.1867850222427
 11
1267.237226277372
 21
1060.5867850222428
  0
LINE
  8
_0-0_計極細
  6
CONTINUOUS
 62
    2
 10
1280.237226277372
 20
1066.1867850222427
 11
1280.237226277372
 21
1060.5867850222428
  0
LINE
  8
_0-0_計極細
  6
CONTINUOUS
 62
    2
 10
1267.237226277372
 20
1083.1867850222418
 11
1267.237226277372
 21
1077.5867850222419
  0
LINE
  8
_0-0_計極細
  6
CONTINUOUS
 62
    2
 10
1280.237226277372
 20
1083.1867850222418
 11
1280.237226277372
 21
1077.5867850222419
  0
LINE
  8
_0-0_計極細
  6
CONTINUOUS
 62
    2
 10
1267.237226277372
 20
1100.1867850222409
 11
1267.237226277372
 21
1094.586785022241
  0
LINE
  8
_0-0_計極細
  6
CONTINUOUS
 62
    2
 10
1280.237226277372
 20
1100.1867850222409
 11
1280.237226277372
 21
1094.586785022241
  0
LINE
  8
_0-0_計極細
  6
CONTINUOUS
 62
    2
 10
1267.237226277372
 20
1117.18678502224
 11
1267.237226277372
 21
1111.5867850222401
  0
LINE
  8
_0-0_計極細
  6
CONTINUOUS
 62
    2
 10
1280.237226277372
 20
1117.18678502224
 11
1280.237226277372
 21
1111.5867850222401
  0
LINE
  8
_0-0_計極細
  6
CONTINUOUS
 62
    2
 10
1267.237226277372
 20
924.58678502224416
 11
1267.237226277372
 21
930.18678502224407
  0
LINE
  8
_0-0_計極細
  6
CONTINUOUS
 62
    2
 10
1280.237226277372
 20
924.58678502224416
 11
1280.237226277372
 21
930.18678502224407
  0
LINE
  8
_0-0_計極細
  6
CONTINUOUS
 62
    2
 10
1267.237226277372
 20
907.58678502224507
 11
1267.237226277372
 21
913.18678502224498
  0
LINE
  8
_0-0_計極細
  6
CONTINUOUS
 62
    2
 10
1280.237226277372
 20
907.58678502224507
 11
1280.237226277372
 21
913.18678502224498
  0
LINE
  8
_0-0_計極細
  6
CONTINUOUS
 62
    2
 10
1267.237226277372
 20
890.58678502224598
 11
1267.237226277372
 21
896.18678502224589
  0
LINE
  8
_0-0_計極細
  6
CONTINUOUS
 62
    2
 10
1280.237226277372
 20
890.58678502224598
 11
1280.237226277372
 21
896.18678502224589
  0
LINE
  8
_0-0_計極細
  6
CONTINUOUS
 62
    2
 10
1267.237226277372
 20
873.58678502224689
 11
1267.237226277372
 21
879.1867850222468
  0
LINE
  8
_0-0_計極細
  6
CONTINUOUS
 62
    2
 10
1280.237226277372
 20
873.58678502224689
 11
1280.237226277372
 21
879.1867850222468
  0
LINE
  8
_0-0_計極細
  6
CENTER1
 62
    2
 10
400.73722627737197
 20
1154.1375044467052
 11
400.73722627737197
 21
837.6289612812318
  0
LINE
  8
_0-0_計極細
  6
CONTINUOUS
 62
    2
 10
394.23722627737197
 20
941.58678502224416
 11
394.23722627737197
 21
947.18678502224452
  0
LINE
  8
_0-0_計極細
  6
CONTINUOUS
 62
    2
 10
407.23722627737197
 20
941.58678502224416
 11
407.23722627737197
 21
947.18678502224452
  0
LINE
  8
_0-0_計極細
  6
CONTINUOUS
 62
    2
 10
394.23722627737197
 20
958.58678502224507
 11
394.23722627737197
 21
964.18678502224498
  0
LINE
  8
_0-0_計極細
  6
CONTINUOUS
 62
    2
 10
407.23722627737197
 20
958.58678502224507
 11
407.23722627737197
 21
964.18678502224498
  0
LINE
  8
_0-0_計極細
  6
CONTINUOUS
 62
    2
 10
394.23722627737197
 20
981.18678502224088
 11
394.23722627737197
 21
975.58678502224097
  0
LINE
  8
_0-0_計極細
  6
CONTINUOUS
 62
    2
 10
407.23722627737197
 20
981.18678502224088
 11
407.23722627737197
 21
975.58678502224097
  0
LINE
  8
_0-0_計極細
  6
CONTINUOUS
 62
    2
 10
394.23722627737197
 20
998.18678502224179
 11
394.23722627737197
 21
992.58678502224143
  0
LINE
  8
_0-0_計極細
  6
CONTINUOUS
 62
    2
 10
407.23722627737197
 20
998.18678502224179
 11
407.23722627737197
 21
992.58678502224143
  0
LINE
  8
_0-0_計極細
  6
CONTINUOUS
 62
    2
 10
394.23722627737197
 20
1015.1867850222422
 11
394.23722627737197
 21
1009.5867850222423
  0
LINE
  8
_0-0_計極細
  6
CONTINUOUS
 62
    2
 10
407.23722627737197
 20
1015.1867850222422
 11
407.23722627737197
 21
1009.5867850222423
  0
LINE
  8
_0-0_計極細
  6
CONTINUOUS
 62
    2
 10
394.23722627737197
 20
1032.1867850222432
 11
394.23722627737197
 21
1026.5867850222428
  0
LINE
  8
_0-0_計極細
  6
CONTINUOUS
 62
    2
 10
407.23722627737197
 20
1032.1867850222432
 11
407.23722627737197
 21
1026.5867850222428
  0
LINE
  8
_0-0_計極細
  6
CONTINUOUS
 62
    2
 10
394.23722627737197
 20
1049.1867850222436
 11
394.23722627737197
 21
1043.5867850222437
  0
LINE
  8
_0-0_計極細
  6
CONTINUOUS
 62
    2
 10
407.23722627737197
 20
1049.1867850222436
 11
407.23722627737197
 21
1043.5867850222437
  0
LINE
  8
_0-0_計極細
  6
CONTINUOUS
 62
    2
 10
394.23722627737197
 20
1133.9867850222429
 11
394.23722627737197
 21
1128.5867850222428
  0
LINE
  8
_0-0_計極細
  6
CONTINUOUS
 62
    2
 10
407.23722627737197
 20
1133.9867850222429
 11
407.23722627737197
 21
1128.5867850222428
  0
LINE
  8
_0-0_計極細
  6
CONTINUOUS
 62
    2
 10
394.23722627737197
 20
856.78678502224307
 11
394.23722627737197
 21
862.1867850222427
  0
LINE
  8
_0-0_計極細
  6
CONTINUOUS
 62
    2
 10
407.23722627737197
 20
856.78678502224307
 11
407.23722627737197
 21
862.1867850222427
  0
LINE
  8
_0-0_計極細
  6
CONTINUOUS
 62
    2
 10
394.23722627737197
 20
1066.1867850222427
 11
394.23722627737197
 21
1060.5867850222428
  0
LINE
  8
_0-0_計極細
  6
CONTINUOUS
 62
    2
 10
407.23722627737197
 20
1066.1867850222427
 11
407.23722627737197
 21
1060.5867850222428
  0
LINE
  8
_0-0_計極細
  6
CONTINUOUS
 62
    2
 10
394.23722627737197
 20
1083.1867850222418
 11
394.23722627737197
 21
1077.5867850222419
  0
LINE
  8
_0-0_計極細
  6
CONTINUOUS
 62
    2
 10
407.23722627737197
 20
1083.1867850222418
 11
407.23722627737197
 21
1077.5867850222419
  0
LINE
  8
_0-0_計極細
  6
CONTINUOUS
 62
    2
 10
394.23722627737197
 20
1100.1867850222409
 11
394.23722627737197
 21
1094.586785022241
  0
LINE
  8
_0-0_計極細
  6
CONTINUOUS
 62
    2
 10
407.23722627737197
 20
1100.1867850222409
 11
407.23722627737197
 21
1094.586785022241
  0
LINE
  8
_0-0_計極細
  6
CONTINUOUS
 62
    2
 10
394.23722627737197
 20
1117.18678502224
 11
394.23722627737197
 21
1111.5867850222401
  0
LINE
  8
_0-0_計極細
  6
CONTINUOUS
 62
    2
 10
407.23722627737197
 20
1117.18678502224
 11
407.23722627737197
 21
1111.5867850222401
  0
LINE
  8
_0-0_計極細
  6
CONTINUOUS
 62
    2
 10
394.23722627737197
 20
924.58678502224416
 11
394.23722627737197
 21
930.18678502224407
  0
LINE
  8
_0-0_計極細
  6
CONTINUOUS
 62
    2
 10
407.23722627737197
 20
924.58678502224416
 11
407.23722627737197
 21
930.18678502224407
  0
LINE
  8
_0-0_計極細
  6
CONTINUOUS
 62
    2
 10
394.23722627737197
 20
907.58678502224507
 11
394.23722627737197
 21
913.18678502224498
  0
LINE
  8
_0-0_計極細
  6
CONTINUOUS
 62
    2
 10
407.23722627737197
 20
907.58678502224507
 11
407.23722627737197
 21
913.18678502224498
  0
LINE
  8
_0-0_計極細
  6
CONTINUOUS
 62
    2
 10
394.23722627737197
 20
890.58678502224598
 11
394.23722627737197
 21
896.18678502224589
  0
LINE
  8
_0-0_計極細
  6
CONTINUOUS
 62
    2
 10
407.23722627737197
 20
890.58678502224598
 11
407.23722627737197
 21
896.18678502224589
  0
LINE
  8
_0-0_計極細
  6
CONTINUOUS
 62
    2
 10
394.23722627737197
 20
873.58678502224689
 11
394.23722627737197
 21
879.1867850222468
  0
LINE
  8
_0-0_計極細
  6
CONTINUOUS
 62
    2
 10
407.23722627737197
 20
873.58678502224689
 11
407.23722627737197
 21
879.1867850222468
  0
LINE
  8
_0-5_寸法線
  6
CONTINUOUS
 62
    7
 10
740.23722627737243
 20
1166.386785022243
 11
740.23722627737266
 21
1238.386785022243
  0
LINE
  8
_0-5_寸法線
  6
CONTINUOUS
 62
    7
 10
740.23722627737266
 20
1230.386785022243
 11
755.69203949799771
 21
1234.5278897438834
  0
LINE
  8
_0-5_寸法線
  6
CONTINUOUS
 62
    7
 10
740.23722627737266
 20
1230.386785022243
 11
755.69203949799771
 21
1226.2456803006025
  0
LINE
  8
_0-5_寸法線
  6
CONTINUOUS
 62
    7
 10
788.73722627737243
 20
1166.386785022243
 11
788.73722627737266
 21
1238.386785022243
  0
LINE
  8
_0-5_寸法線
  6
CONTINUOUS
 62
    7
 10
788.73722627737266
 20
1230.386785022243
 11
773.2824130567476
 21
1226.2456803006028
  0
LINE
  8
_0-5_寸法線
  6
CONTINUOUS
 62
    7
 10
788.73722627737266
 20
1230.386785022243
 11
773.2824130567476
 21
1234.5278897438834
  0
LINE
  8
_0-5_寸法線
  6
CONTINUOUS
 62
    7
 10
740.23722627737266
 20
1230.386785022243
 11
788.73722627737266
 21
1230.386785022243
  0
TEXT
  8
_0-5_寸法線
 62
    7
 10
740.48722627737243
 20
1230.386785022243
 40
24
 41
1
 50
0
  1
48.5
  0
LINE
  8
_0-5_寸法線
  6
CONTINUOUS
 62
    7
 10
788.73722627737266
 20
1230.386785022243
 11
804.19203949799783
 21
1234.5278897438832
  0
LINE
  8
_0-5_寸法線
  6
CONTINUOUS
 62
    7
 10
788.73722627737266
 20
1230.386785022243
 11
804.19203949799771
 21
1226.2456803006025
  0
LINE
  8
_0-5_寸法線
  6
CONTINUOUS
 62
    7
 10
837.23722627737243
 20
1166.386785022243
 11
837.23722627737266
 21
1238.386785022243
  0
LINE
  8
_0-5_寸法線
  6
CONTINUOUS
 62
    7
 10
837.23722627737266
 20
1230.386785022243
 11
821.7824130567476
 21
1226.2456803006028
  0
LINE
  8
_0-5_寸法線
  6
CONTINUOUS
 62
    7
 10
837.23722627737266
 20
1230.386785022243
 11
821.7824130567476
 21
1234.5278897438834
  0
LINE
  8
_0-5_寸法線
  6
CONTINUOUS
 62
    7
 10
788.73722627737266
 20
1230.386785022243
 11
837.23722627737266
 21
1230.386785022243
  0
TEXT
  8
_0-5_寸法線
 62
    7
 10
788.68802455794525
 20
1206.386785022243
 40
24
 41
1
 50
0
  1
48.5
  0
LINE
  8
_0-1_計細線
  6
CONTINUOUS
 62
    3
 10
410.23722627737152
 20
993.03678502224352
 11
463.23722627737152
 21
993.03678502224352
  0
LINE
  8
_0-1_計細線
  6
CONTINUOUS
 62
    3
 10
463.23722627737152
 20
997.73678502224334
 11
410.23722627737152
 21
997.73678502224334
  0
LINE
  8
_0-1_計細線
  6
CONTINUOUS
 62
    3
 10
410.23722627737152
 20
997.73678502224334
 11
410.23722627737152
 21
993.03678502224352
  0
LINE
  8
_0-1_計細線
  6
CONTINUOUS
 62
    3
 10
453.23722627737152
 20
997.73678502224334
 11
453.23722627737152
 21
993.03678502224352
  0
LINE
  8
_0-1_計細線
  6
CONTINUOUS
 62
    3
 10
461.23722627737152
 20
997.73678502224334
 11
461.23722627737152
 21
993.03678502224352
  0
LINE
  8
_0-1_計細線
  6
CONTINUOUS
 62
    3
 10
463.23722627737152
 20
997.73678502224334
 11
463.23722627737152
 21
993.03678502224352
  0
LINE
  8
_0-1_計細線
  6
CONTINUOUS
 62
    3
 10
459.23722627737152
 20
997.73678502224334
 11
459.23722627737152
 21
993.03678502224352
  0
LINE
  8
_0-1_計細線
  6
CONTINUOUS
 62
    3
 10
457.23722627737152
 20
997.73678502224334
 11
457.23722627737152
 21
993.03678502224352
  0
LINE
  8
_0-1_計細線
  6
CONTINUOUS
 62
    3
 10
455.23722627737152
 20
997.73678502224334
 11
455.23722627737152
 21
993.03678502224352
  0
LINE
  8
_0-a_極細3
  6
CENTER1
 62
    7
 10
818.91970803209006
 20
364.04318994438142
 11
818.91970803209006
 21
465.56318994439135
  0
LINE
  8
_0-a_極細3
  6
CONTINUOUS
 62
    7
 10
298.91970803208937
 20
371.27385045443441
 11
298.91970803208937
 21
261.94051712110013
  0
LINE
  8
_0-a_極細3
  6
CONTINUOUS
 62
    7
 10
432.25304136542309
 20
261.94051712110013
 11
298.91970803208937
 21
261.94051712110013
  0
LINE
  8
_0-a_極細3
  6
CONTINUOUS
 62
    7
 10
298.91970803208937
 20
371.27385045443441
 11
249.56864593323962
 21
371.27385045443441
  0
LINE
  8
_0-a_極細3
  6
CONTINUOUS
 62
    7
 10
432.25304136542309
 20
261.94051712110013
 11
432.25304136542309
 21
219.95395664945465
  0
LINE
  8
_0-a_極細3
  6
CONTINUOUS
 62
    7
 10
372.37788206143932
 20
219.95395683575259
 11
414.36444234678765
 21
261.94051712110013
  0
LINE
  8
_0-a_極細3
  6
CONTINUOUS
 62
    7
 10
259.24079742361323
 20
219.95395718777434
 11
301.22735735693982
 21
261.94051712110013
  0
LINE
  8
_0-a_極細3
  6
CONTINUOUS
 62
    7
 10
249.56864593323962
 20
323.41889068724777
 11
297.42360570042558
 21
371.27385045443441
  0
LINE
  8
_0-a_極細3
  6
CONTINUOUS
 62
    7
 10
361.06417359765669
 20
219.95395687095515
 11
403.05073384780235
 21
261.94051712110013
  0
LINE
  8
_0-a_極細3
  6
CONTINUOUS
 62
    7
 10
249.56864593323962
 20
221.59551419638524
 11
298.91970803208937
 21
270.94657629523567
  0
LINE
  8
_0-a_極細3
  6
CONTINUOUS
 62
    7
 10
249.56864593323962
 20
334.73259918623296
 11
286.10989720144039
 21
371.27385045443441
  0
LINE
  8
_0-a_極細3
  6
CONTINUOUS
 62
    7
 10
349.75046513387474
 20
219.95395690615771
 11
391.73702534881795
 21
261.94051712110013
  0
LINE
  8
_0-a_極細3
  6
CONTINUOUS
 62
    7
 10
249.56864593323962
 20
232.90922269537043
 11
298.91970803208937
 21
282.26028479422018
  0
LINE
  8
_0-a_極細3
  6
CONTINUOUS
 62
    7
 10
249.56864593323962
 20
346.04630768521827
 11
274.79618870245588
 21
371.27385045443441
  0
CIRCLE
  8
_0-a_極細3
  6
CONTINUOUS
 62
    7
 10
278.20206648230715
 20
395.59930712108979
 40
0.884938271604915
  0
CIRCLE
  8
_0-a_極細3
  6
CONTINUOUS
 62
    7
 10
261.67268376625839
 20
379.67041823220131
 40
0.884938271604915
  0
CIRCLE
  8
_0-a_極細3
  6
CONTINUOUS
 62
    7
 10
278.64453561811001
 20
381.37708489886791
 40
0.884938271604915
  0
CIRCLE
  8
_0-a_極細3
  6
CONTINUOUS
 62
    7
 10
298.84009117366554
 20
384.50597378775637
 40
0.884938271604915
  0
CIRCLE
  8
_0-a_極細3
  6
CONTINUOUS
 62
    7
 10
344.35120228477581
 20
403.27930712109008
 40
0.884938271604915
  0
CIRCLE
  8
_0-a_極細3
  6
CONTINUOUS
 62
    7
 10
384.17342450699766
 20
419.20819600997856
 40
0.884938271604915
  0
CIRCLE
  8
_0-a_極細3
  6
CONTINUOUS
 62
    7
 10
393.27564672921994
 20
393.32375156553388
 40
0.884938271604915
  0
CIRCLE
  8
_0-a_極細3
  6
CONTINUOUS
 62
    7
 10
353.45342450699798
 20
392.47041823220133
 40
0.884938271604915
  0
CIRCLE
  8
_0-a_極細3
  6
CONTINUOUS
 62
    7
 10
334.68009117366501
 20
416.36375156553402
 40
0.884938271604915
  0
CIRCLE
  8
_0-a_極細3
  6
CONTINUOUS
 62
    7
 10
309.95120228477651
 20
372.8970848988676
 40
0.884938271604915
  0
CIRCLE
  8
_0-a_極細3
  6
CONTINUOUS
 62
    7
 10
342.66231339588671
 20
370.90597378775635
 40
0.884938271604915
  0
CIRCLE
  8
_0-a_極細3
  6
CONTINUOUS
 62
    7
 10
382.76898006255328
 20
364.93264045442345
 40
0.884938271604915
  0
CIRCLE
  8
_0-a_極細3
  6
CONTINUOUS
 62
    7
 10
362.57342450699775
 20
355.83041823220117
 40
0.884938271604915
  0
CIRCLE
  8
_0-a_極細3
  6
CONTINUOUS
 62
    7
 10
338.96453561810972
 20
334.21264045442365
 40
0.884938271604915
  0
CIRCLE
  8
_0-a_極細3
  6
CONTINUOUS
 62
    7
 10
382.76898006255328
 20
345.87486267664571
 40
0.884938271604915
  0
CIRCLE
  8
_0-a_極細3
  6
CONTINUOUS
 62
    7
 10
316.99120228477591
 20
302.49708489886825
 40
0.884938271604915
  0
CIRCLE
  8
_0-a_極細3
  6
CONTINUOUS
 62
    7
 10
307.88898006255374
 20
273.76819600997987
 40
0.884938271604915
  0
CIRCLE
  8
_0-a_極細3
  6
CONTINUOUS
 62
    7
 10
321.82675784033177
 20
284.57708489886863
 40
0.884938271604915
  0
CIRCLE
  8
_0-a_極細3
  6
CONTINUOUS
 62
    7
 10
331.78231339588717
 20
270.92375156553533
 40
0.884938271604915
  0
CIRCLE
  8
_0-a_極細3
  6
CONTINUOUS
 62
    7
 10
394.66231339588671
 20
299.54597378775725
 40
0.884938271604915
  0
CIRCLE
  8
_0-a_極細3
  6
CONTINUOUS
 62
    7
 10
376.74231339588709
 20
290.72819600997968
 40
0.884938271604915
  0
CIRCLE
  8
_0-a_極細3
  6
CONTINUOUS
 62
    7
 10
386.69786895144262
 20
286.74597378775729
 40
0.884938271604915
  0
CIRCLE
  8
_0-a_極細3
  6
CONTINUOUS
 62
    7
 10
381.00898006255352
 20
271.95486267664603
 40
0.884938271604915
  0
CIRCLE
  8
_0-a_極細3
  6
CONTINUOUS
 62
    7
 10
412.86675784033116
 20
273.6615293433133
 40
0.884938271604915
  0
CIRCLE
  8
_0-a_極細3
  6
CONTINUOUS
 62
    7
 10
433.63120228477533
 20
278.78152934331297
 40
0.884938271604915
  0
CIRCLE
  8
_0-a_極細3
  6
CONTINUOUS
 62
    7
 10
455.53342450699756
 20
254.88819600998033
 40
0.884938271604915
  0
CIRCLE
  8
_0-a_極細3
  6
CONTINUOUS
 62
    7
 10
444.44009117366409
 20
230.9948626766469
 40
0.884938271604915
  0
CIRCLE
  8
_0-a_極細3
  6
CONTINUOUS
 62
    7
 10
417.7734245069978
 20
300.77856638035007
 40
0.884938271604915
  0
CIRCLE
  8
_0-a_極細3
  6
CONTINUOUS
 62
    7
 10
441.38231339588651
 20
355.39189971368251
 40
0.884938271604915
  0
CIRCLE
  8
_0-a_極細3
  6
CONTINUOUS
 62
    7
 10
465.56009117366386
 20
339.46301082479403
 40
0.884938271604915
  0
CIRCLE
  8
_0-a_極細3
  6
CONTINUOUS
 62
    7
 10
466.41342450699722
 20
310.73412193590548
 40
0.884938271604915
  0
CIRCLE
  8
_0-a_極細3
  6
CONTINUOUS
 62
    7
 10
410.02231339588661
 20
358.30745526923863
 40
0.884938271604915
  0
CIRCLE
  8
_0-a_極細3
  6
CONTINUOUS
 62
    7
 10
377.56009117366466
 20
393.48177625689203
 40
2.9208503562902273
  0
CIRCLE
  8
_0-a_極細3
  6
CONTINUOUS
 62
    7
 10
294.74069965136846
 20
404.56915909640884
 40
2.9208503562902273
  0
CIRCLE
  8
_0-a_極細3
  6
CONTINUOUS
 62
    7
 10
373.04453561810919
 20
340.78844292356007
 40
2.9208503562902273
  0
CIRCLE
  8
_0-a_極細3
  6
CONTINUOUS
 62
    7
 10
337.20453561810905
 20
357.00177625689321
 40
2.9208503562902273
  0
CIRCLE
  8
_0-a_極細3
  6
CONTINUOUS
 62
    7
 10
305.84453561810926
 20
296.20177625689325
 40
2.9208503562902273
  0
CIRCLE
  8
_0-a_極細3
  6
CONTINUOUS
 62
    7
 10
390.96453561810824
 20
275.72177625689369
 40
2.9208503562902273
  0
CIRCLE
  8
_0-a_極細3
  6
CONTINUOUS
 62
    7
 10
448.52898006255248
 20
269.96177625689381
 40
2.9208503562902273
  0
CIRCLE
  8
_0-a_極細3
  6
CONTINUOUS
 62
    7
 10
456.20898006255197
 20
240.09510959022805
 40
2.9208503562902273
  0
CIRCLE
  8
_0-a_極細3
  6
CONTINUOUS
 62
    7
 10
262.42537238564159
 20
405.99733181244812
 40
2.9208503562902273
  0
LINE
  8
_0-a_極細3
  6
CONTINUOUS
 62
    7
 10
484.25304136542309
 20
381.94051712110013
 11
485.58637469875657
 21
381.94051712110013
  0
LINE
  8
_0-a_極細3
  6
CONTINUOUS
 62
    7
 10
485.58637469875657
 20
381.94051712110013
 11
485.58637469875657
 21
219.95395664945465
  0
CIRCLE
  8
_0-a_極細3
  6
CONTINUOUS
 62
    7
 10
474.56648006255023
 20
356.36177625689379
 40
2.9208503562902273
  0
CIRCLE
  8
_0-a_極細3
  6
CONTINUOUS
 62
    7
 10
472.97935043292284
 20
268.82597378775756
 40
0.884938271604915
  0
CIRCLE
  8
_0-a_極細3
  6
CONTINUOUS
 62
    7
 10
475.11268376625708
 20
232.57626013468621
 40
0.884938271604915
  0
CIRCLE
  8
_0-a_極細3
  6
CONTINUOUS
 62
    7
 10
455.32009117365715
 20
325.78399847911567
 40
2.9208503562902273
  0
LINE
  8
_0-a_極細3
  6
CONTINUOUS
 62
    7
 10
392.25304136542309
 20
443.27385045443441
 11
392.25304136542309
 21
424.60718378776727
  0
LINE
  8
_0-a_極細3
  6
CONTINUOUS
 62
    7
 10
392.25304136542309
 20
443.27385045443441
 11
249.56864593323962
 21
443.27385045443441
  0
LINE
  8
_0-a_極細3
  6
CONTINUOUS
 62
    7
 10
405.58637469875657
 20
424.60718378776727
 11
249.56864593323962
 21
424.60718378776727
  0
LINE
  8
_0-a_極細3
  6
CONTINUOUS
 62
    7
 10
405.58637469875657
 20
443.27385045443441
 11
392.25304136542309
 21
443.27385045443441
  0
LINE
  8
_0-a_極細3
  6
CONTINUOUS
 62
    7
 10
405.58637469875657
 20
441.94051712110013
 11
405.58637469875657
 21
443.27385045443441
  0
LINE
  8
_0-a_極細3
  6
CONTINUOUS
 62
    7
 10
405.26943028858125
 20
424.60718378776727
 11
405.58637469875589
 21
424.92412819794197
  0
LINE
  8
_0-a_極細3
  6
CONTINUOUS
 62
    7
 10
398.48120518919063
 20
424.60718378776727
 11
405.58637469875657
 21
431.71235329733247
  0
LINE
  8
_0-a_極細3
  6
CONTINUOUS
 62
    7
 10
392.25304136542309
 20
425.16724506339017
 11
405.58637469875657
 21
438.50057839672371
  0
LINE
  8
_0-a_極細3
  6
CONTINUOUS
 62
    7
 10
392.25304136542309
 20
431.95547016278141
 11
403.57142165707523
 21
443.27385045443441
  0
LINE
  8
_0-a_極細3
  6
CONTINUOUS
 62
    7
 10
392.25304136542309
 20
438.74369526217271
 11
396.78319655768473
 21
443.27385045443441
  0
LINE
  8
_0-a_極細3
  6
CONTINUOUS
 62
    7
 10
405.58637469875657
 20
439.62430345882024
 11
401.93682770314308
 21
443.27385045443441
  0
LINE
  8
_0-a_極細3
  6
CONTINUOUS
 62
    7
 10
405.58637469875657
 20
432.83607835942894
 11
395.1486026037519
 21
443.27385045443441
  0
LINE
  8
_0-a_極細3
  6
CONTINUOUS
 62
    7
 10
392.25304136542309
 20
439.38118659337198
 11
405.58637469875657
 21
426.04785326003838
  0
LINE
  8
_0-a_極細3
  6
CONTINUOUS
 62
    7
 10
392.25304136542309
 20
432.59296149398068
 11
400.2388190716365
 21
424.60718378776727
  0
LINE
  8
_0-a_極細3
  6
CONTINUOUS
 62
    7
 10
392.25304136542309
 20
425.80473639459012
 11
393.45059397224588
 21
424.60718378776727
  0
LINE
  8
_0-a_極細3
  6
CONTINUOUS
 62
    7
 10
378.11652988121398
 20
424.60718377796366
 11
392.25304136542309
 21
438.74369526217271
  0
LINE
  8
_0-a_極細3
  6
CONTINUOUS
 62
    7
 10
344.17540436072204
 20
424.60718375442593
 11
362.84207106073052
 21
443.27385045443373
  0
LINE
  8
_0-a_極細3
  6
CONTINUOUS
 62
    7
 10
310.23427884022942
 20
424.60718373088747
 11
328.90094556377562
 21
443.27385045443441
  0
LINE
  8
_0-a_極細3
  6
CONTINUOUS
 62
    7
 10
276.2931533197368
 20
424.60718370734901
 11
294.95982006682141
 21
443.27385045443441
  0
LINE
  8
_0-a_極細3
  6
CONTINUOUS
 62
    7
 10
249.56864593323962
 20
431.8238018178061
 11
261.01869456986719
 21
443.27385045443373
  0
LINE
  8
_0-a_極細3
  6
DASHED2
 62
    7
 10
361.14596712096795
 20
424.60718376619405
 11
379.81263380920768
 21
443.27385045443441
  0
LINE
  8
_0-a_極細3
  6
DASHED2
 62
    7
 10
327.20484160047533
 20
424.60718374265633
 11
345.87150831225347
 21
443.27385045443441
  0
LINE
  8
_0-a_極細3
  6
DASHED2
 62
    7
 10
293.2637160799834
 20
424.60718371911861
 11
311.93038281529857
 21
443.27385045443441
  0
LINE
  8
_0-a_極細3
  6
DASHED2
 62
    7
 10
259.32259055949078
 20
424.60718369558089
 11
277.98925731834436
 21
443.27385045443441
  0
ARC
  8
_0-b_細線3
  6
CONTINUOUS
 62
    7
 10
413.58637469875657
 20
389.94051712110013
 40
8
 50
179.99999999999983
 51
269.99999999999977
  0
LINE
  8
_0-b_細線3
  6
CONTINUOUS
 62
    7
 10
405.58637469875657
 20
389.94051712110013
 11
405.58637469875657
 21
441.94051712110013
  0
LINE
  8
_0-b_細線3
  6
CONTINUOUS
 62
    7
 10
413.58637469875657
 20
381.94051712110013
 11
484.25304136542309
 21
381.94051712110013
  0
LINE
  8
_0-b_細線3
  6
CONTINUOUS
 62
    7
 10
485.58637469875657
 20
383.27385045443441
 11
484.25304136542309
 21
381.94051712110013
  0
LINE
  8
_0-b_細線3
  6
CONTINUOUS
 62
    7
 10
485.58637469875657
 20
388.60718378776727
 11
485.58637469875657
 21
383.27385045443441
  0
LINE
  8
_0-b_細線3
  6
CONTINUOUS
 62
    7
 10
484.25304136542309
 20
389.94051712110013
 11
485.58637469875657
 21
388.60718378776727
  0
LINE
  8
_0-b_細線3
  6
CONTINUOUS
 62
    7
 10
413.58637469875657
 20
389.94051712110013
 11
484.25304136542309
 21
389.94051712110013
  0
LINE
  8
_0-b_細線3
  6
CONTINUOUS
 62
    7
 10
406.91970803208937
 20
443.27385045443441
 11
405.58637469875657
 21
441.94051712110013
  0
LINE
  8
_0-b_細線3
  6
CONTINUOUS
 62
    7
 10
412.25304136542309
 20
443.27385045443441
 11
406.91970803208937
 21
443.27385045443441
  0
LINE
  8
_0-b_細線3
  6
CONTINUOUS
 62
    7
 10
413.58637469875657
 20
441.94051712110013
 11
412.25304136542309
 21
443.27385045443441
  0
LINE
  8
_0-b_細線3
  6
CONTINUOUS
 62
    7
 10
413.58637469875657
 20
389.94051712110013
 11
413.58637469875657
 21
441.94051712110013
  0
CIRCLE
  8
_0-a_極細3
  6
CONTINUOUS
 62
    7
 10
357.87416524773914
 20
411.89955403466809
 40
2.9208503562902273
  0
LINE
  8
_0-a_極細3
  6
CONTINUOUS
 62
    7
 10
1338.9197080320903
 20
371.27385045443441
 11
1338.9197080320903
 21
261.94051712110013
  0
LINE
  8
_0-a_極細3
  6
CONTINUOUS
 62
    7
 10
1205.5863746987573
 20
261.94051712110013
 11
1338.9197080320903
 21
261.94051712110013
  0
LINE
  8
_0-a_極細3
  6
CONTINUOUS
 62
    7
 10
1338.9197080320903
 20
371.27385045443441
 11
1388.2707701309405
 21
371.27385045443441
  0
LINE
  8
_0-a_極細3
  6
CONTINUOUS
 62
    7
 10
1205.5863746987573
 20
261.94051712110013
 11
1205.5863746987573
 21
219.95395664945465
  0
LINE
  8
_0-a_極細3
  6
CONTINUOUS
 62
    7
 10
1352.1837118954395
 20
219.95395664945465
 11
1388.2707701974055
 21
256.04101495142027
  0
LINE
  8
_0-a_極細3
  6
CONTINUOUS
 62
    7
 10
1239.0466269055917
 20
219.95395664945465
 11
1281.0331873772377
 21
261.94051712110013
  0
LINE
  8
_0-a_極細3
  6
CONTINUOUS
 62
    7
 10
1338.9197080320903
 20
319.82703777595304
 11
1388.2707701321492
 21
369.1780998760114
  0
LINE
  8
_0-a_極細3
  6
CONTINUOUS
 62
    7
 10
1340.870003396454
 20
219.95395664945465
 11
1388.2707701908798
 21
267.35472344387961
  0
LINE
  8
_0-a_極細3
  6
CONTINUOUS
 62
    7
 10
1227.7329184066061
 20
219.95395664945465
 11
1269.7194788782531
 21
261.94051712110013
  0
LINE
  8
_0-a_極細3
  6
CONTINUOUS
 62
    7
 10
1338.9197080320903
 20
331.14074627493756
 11
1379.0528119243058
 21
371.27385016715346
  0
LINE
  8
_0-a_極細3
  6
CONTINUOUS
 62
    7
 10
1329.5562948974696
 20
219.95395664945465
 11
1388.2707701843542
 21
278.66843193633895
  0
LINE
  8
_0-a_極細3
  6
CONTINUOUS
 62
    7
 10
1216.419209907622
 20
219.95395664945465
 11
1258.4057703792682
 21
261.94051712110013
  0
LINE
  8
_0-a_極細3
  6
CONTINUOUS
 62
    7
 10
1338.9197080320903
 20
342.45445477392275
 11
1367.7391035063069
 21
371.27385024813918
  0
CIRCLE
  8
_0-a_極細3
  6
CONTINUOUS
 62
    7
 10
1183.8356467292172
 20
356.10745526923859
 40
0.884938271604915
  0
CIRCLE
  8
_0-a_極細3
  6
CONTINUOUS
 62
    7
 10
1199.7645356181054
 20
363.78745526923819
 40
0.884938271604915
  0
CIRCLE
  8
_0-a_極細3
  6
CONTINUOUS
 62
    7
 10
1193.2223133958837
 20
323.82301082479466
 40
0.884938271604915
  0
CIRCLE
  8
_0-a_極細3
  6
CONTINUOUS
 62
    7
 10
1221.2756467292168
 20
296.58745526923883
 40
0.884938271604915
  0
CIRCLE
  8
_0-a_極細3
  6
CONTINUOUS
 62
    7
 10
1192.7423133958835
 20
259.30745526923931
 40
0.884938271604915
  0
CIRCLE
  8
_0-a_極細3
  6
CONTINUOUS
 62
    7
 10
1177.8089800625505
 20
230.72078860257318
 40
0.884938271604915
  0
CIRCLE
  8
_0-a_極細3
  6
CONTINUOUS
 62
    7
 10
1196.1556467292169
 20
278.50745526923924
 40
0.884938271604915
  0
CIRCLE
  8
_0-a_極細3
  6
CONTINUOUS
 62
    7
 10
1218.3423133958834
 20
270.82745526923895
 40
0.884938271604915
  0
CIRCLE
  8
_0-a_極細3
  6
CONTINUOUS
 62
    7
 10
1261.4356467292162
 20
271.25412193590603
 40
0.884938271604915
  0
CIRCLE
  8
_0-a_極細3
  6
CONTINUOUS
 62
    7
 10
1242.2356467292168
 20
285.76078860257257
 40
0.884938271604915
  0
CIRCLE
  8
_0-a_極細3
  6
CONTINUOUS
 62
    7
 10
1260.1556467292162
 20
294.72078860257238
 40
0.884938271604915
  0
CIRCLE
  8
_0-a_極細3
  6
CONTINUOUS
 62
    7
 10
1244.9734245069938
 20
413.15634415812673
 40
0.884938271604915
  0
CIRCLE
  8
_0-a_極細3
  6
CONTINUOUS
 62
    7
 10
1240.9912022847716
 20
381.58301082479375
 40
0.884938271604915
  0
CIRCLE
  8
_0-a_極細3
  6
CONTINUOUS
 62
    7
 10
1273.8445356181048
 20
380.44523304701579
 40
0.884938271604915
  0
CIRCLE
  8
_0-a_極細3
  6
CONTINUOUS
 62
    7
 10
1255.2845356181047
 20
358.0452330470165
 40
0.884938271604915
  0
CIRCLE
  8
_0-a_極細3
  6
CONTINUOUS
 62
    7
 10
1318.004535618104
 20
272.92523304701683
 40
0.884938271604915
  0
CIRCLE
  8
_0-a_極細3
  6
CONTINUOUS
 62
    7
 10
1329.5245356181042
 20
295.32523304701681
 40
0.884938271604915
  0
CIRCLE
  8
_0-a_極細3
  6
CONTINUOUS
 62
    7
 10
1326.9645356181038
 20
328.60523304701638
 40
0.884938271604915
  0
CIRCLE
  8
_0-a_極細3
  6
CONTINUOUS
 62
    7
 10
1298.1645356181045
 20
362.52523304701606
 40
0.884938271604915
  0
CIRCLE
  8
_0-a_極細3
  6
CONTINUOUS
 62
    7
 10
1325.0445356181037
 20
393.88523304701596
 40
0.884938271604915
  0
CIRCLE
  8
_0-a_極細3
  6
CONTINUOUS
 62
    7
 10
1320.5645356181042
 20
351.00523304701636
 40
0.884938271604915
  0
CIRCLE
  8
_0-a_極細3
  6
CONTINUOUS
 62
    7
 10
1367.9245356181034
 20
384.92523304701535
 40
0.884938271604915
  0
CIRCLE
  8
_0-a_極細3
  6
CONTINUOUS
 62
    7
 10
1360.2445356181031
 20
406.95733181244793
 40
2.9208503562902273
  0
CIRCLE
  8
_0-a_極細3
  6
CONTINUOUS
 62
    7
 10
1335.2134245069924
 20
382.21066514578195
 40
2.9208503562902273
  0
CIRCLE
  8
_0-a_極細3
  6
CONTINUOUS
 62
    7
 10
1246.537868951438
 20
392.73510959022605
 40
2.9208503562902273
  0
CIRCLE
  8
_0-a_極細3
  6
CONTINUOUS
 62
    7
 10
1297.7378689514373
 20
341.53510959022606
 40
2.9208503562902273
  0
CIRCLE
  8
_0-a_極細3
  6
CONTINUOUS
 62
    7
 10
1185.1067578403283
 20
270.25510959022722
 40
2.9208503562902273
  0
CIRCLE
  8
_0-a_極細3
  6
CONTINUOUS
 62
    7
 10
1201.4623133958833
 20
318.0417762568934
 40
2.9208503562902273
  0
CIRCLE
  8
_0-a_極細3
  6
CONTINUOUS
 62
    7
 10
1257.7823133958825
 20
282.20177625689394
 40
2.9208503562902273
  0
CIRCLE
  8
_0-a_極細3
  6
CONTINUOUS
 62
    7
 10
1331.8066216123364
 20
265.90249242974244
 40
2.9208503562902273
  0
CIRCLE
  8
_0-a_極細3
  6
CONTINUOUS
 62
    7
 10
1250.7423133958823
 20
351.32177625689292
 40
2.9208503562902273
  0
CIRCLE
  8
_0-a_極細3
  6
CONTINUOUS
 62
    7
 10
1174.796634383538
 20
342.64464760563499
 40
0.884938271604915
  0
CIRCLE
  8
_0-a_極細3
  6
CONTINUOUS
 62
    7
 10
1175.1166343835391
 20
304.31575871674647
 40
0.884938271604915
  0
CIRCLE
  8
_0-a_極細3
  6
CONTINUOUS
 62
    7
 10
1347.4445356181038
 20
419.69856638034906
 40
0.884938271604915
  0
CIRCLE
  8
_0-a_極細3
  6
CONTINUOUS
 62
    7
 10
1298.1645356181045
 20
411.59189971368249
 40
0.884938271604915
  0
CIRCLE
  8
_0-a_極細3
  6
CONTINUOUS
 62
    7
 10
1298.3778689514377
 20
401.48177625689203
 40
2.9208503562902273
  0
CIRCLE
  8
_0-a_極細3
  6
CONTINUOUS
 62
    7
 10
1264.2445356181045
 20
421.19189971368257
 40
0.884938271604915
  0
LINE
  8
_0-a_極細3
  6
CONTINUOUS
 62
    7
 10
1153.5863746987559
 20
381.94051712110013
 11
1152.2530413654233
 21
381.94051712110013
  0
LINE
  8
_0-a_極細3
  6
CONTINUOUS
 62
    7
 10
1152.2530413654233
 20
381.94051712110013
 11
1152.2530413654233
 21
219.95395664945465
  0
CIRCLE
  8
_0-a_極細3
  6
CONTINUOUS
 62
    7
 10
1161.8280747127567
 20
317.84967749146085
 40
0.884938271604915
  0
CIRCLE
  8
_0-a_極細3
  6
CONTINUOUS
 62
    7
 10
1163.9186096921801
 20
255.04078860257289
 40
0.884938271604915
  0
CIRCLE
  8
_0-a_極細3
  6
CONTINUOUS
 62
    7
 10
1162.8963874699568
 20
360.56622070133824
 40
2.9208503562902273
  0
CIRCLE
  8
_0-a_極細3
  6
CONTINUOUS
 62
    7
 10
1167.6134245069936
 20
244.3706651457826
 40
2.9208503562902273
  0
LINE
  8
_0-a_極細3
  6
CONTINUOUS
 62
    7
 10
1245.5863746987573
 20
443.27385045443441
 11
1245.5863746987573
 21
424.60718378776727
  0
LINE
  8
_0-a_極細3
  6
CONTINUOUS
 62
    7
 10
1245.5863746987573
 20
443.27385045443441
 11
1388.2707701309405
 21
443.27385045443441
  0
LINE
  8
_0-a_極細3
  6
CONTINUOUS
 62
    7
 10
1232.2530413654233
 20
424.60718378776727
 11
1388.2707701309405
 21
424.60718378776727
  0
LINE
  8
_0-a_極細3
  6
CONTINUOUS
 62
    7
 10
1232.2530413654233
 20
443.27385045443441
 11
1245.5863746987573
 21
443.27385045443441
  0
LINE
  8
_0-a_極細3
  6
CONTINUOUS
 62
    7
 10
1232.2530413654233
 20
441.94051712110013
 11
1232.2530413654233
 21
443.27385045443441
  0
LINE
  8
_0-a_極細3
  6
CONTINUOUS
 62
    7
 10
1245.5863746987566
 20
430.47772183692649
 11
1239.7158366495971
 21
424.60718378776727
  0
LINE
  8
_0-a_極細3
  6
CONTINUOUS
 62
    7
 10
1245.5863746987566
 20
437.26594693631705
 11
1232.9276115502064
 21
424.60718378776727
  0
LINE
  8
_0-a_極細3
  6
CONTINUOUS
 62
    7
 10
1232.2530413654233
 20
430.72083870237554
 11
1244.8060531174826
 21
443.27385045443441
  0
LINE
  8
_0-a_極細3
  6
CONTINUOUS
 62
    7
 10
1232.2530413654233
 20
437.50906380176605
 11
1238.017828018091
 21
443.27385045443373
  0
LINE
  8
_0-a_極細3
  6
CONTINUOUS
 62
    7
 10
1245.5863746987573
 20
440.85893491922542
 11
1243.171459163548
 21
443.27385045443441
  0
LINE
  8
_0-a_極細3
  6
CONTINUOUS
 62
    7
 10
1245.5863746987573
 20
434.07070981983418
 11
1236.3832340641577
 21
443.27385045443441
  0
LINE
  8
_0-a_極細3
  6
CONTINUOUS
 62
    7
 10
1245.5863746987573
 20
427.28248472044368
 11
1232.2530413654233
 21
440.61581805377716
  0
LINE
  8
_0-a_極細3
  6
CONTINUOUS
 62
    7
 10
1241.4734505320423
 20
424.60718378776727
 11
1232.2530413654233
 21
433.82759295438592
  0
LINE
  8
_0-a_極細3
  6
CONTINUOUS
 62
    7
 10
1234.6852254326516
 20
424.60718378776727
 11
1232.2530413654233
 21
427.03936785499462
  0
LINE
  8
_0-a_極細3
  6
CONTINUOUS
 62
    7
 10
1355.1156633392418
 20
424.60718378776727
 11
1373.782329003046
 21
443.27384945157172
  0
LINE
  8
_0-a_極細3
  6
CONTINUOUS
 62
    7
 10
1321.1745378422872
 20
424.60718378776727
 11
1339.8412037716096
 21
443.27384971708886
  0
LINE
  8
_0-a_極細3
  6
CONTINUOUS
 62
    7
 10
1287.2334123453331
 20
424.60718378776727
 11
1305.9000785401724
 21
443.27384998260675
  0
LINE
  8
_0-a_極細3
  6
CONTINUOUS
 62
    7
 10
1253.2922868483788
 20
424.60718378776727
 11
1271.9589533087362
 21
443.27385024812463
  0
LINE
  8
_0-a_極細3
  6
DASHED2
 62
    7
 10
1372.0862260877198
 20
424.60718378776727
 11
1388.2707701309405
 21
440.79172783098841
  0
LINE
  8
_0-a_極細3
  6
DASHED2
 62
    7
 10
1338.1451005907643
 20
424.60718378776727
 11
1356.8117663873277
 21
443.27384958433032
  0
LINE
  8
_0-a_極細3
  6
DASHED2
 62
    7
 10
1304.2039750938104
 20
424.60718378776727
 11
1322.870641155891
 21
443.27384984984747
  0
LINE
  8
_0-a_極細3
  6
DASHED2
 62
    7
 10
1270.2628495968559
 20
424.60718378776727
 11
1288.9295159244541
 21
443.27385011536535
  0
LINE
  8
_0-a_極細3
  6
DASHED2
 62
    7
 10
1245.5863746987566
 20
433.87183438662248
 11
1254.9883906930177
 21
443.27385038088323
  0
ARC
  8
_0-b_細線3
  6
CONTINUOUS
 62
    7
 10
1224.2530413654233
 20
389.94051712110013
 40
8
 50
269.99999999999977
 51
359.99999999999966
  0
LINE
  8
_0-b_細線3
  6
CONTINUOUS
 62
    7
 10
1232.2530413654233
 20
389.94051712110013
 11
1232.2530413654233
 21
441.94051712110013
  0
LINE
  8
_0-b_細線3
  6
CONTINUOUS
 62
    7
 10
1224.2530413654233
 20
381.94051712110013
 11
1153.5863746987559
 21
381.94051712110013
  0
LINE
  8
_0-b_細線3
  6
CONTINUOUS
 62
    7
 10
1152.2530413654233
 20
383.27385045443441
 11
1153.5863746987559
 21
381.94051712110013
  0
LINE
  8
_0-b_細線3
  6
CONTINUOUS
 62
    7
 10
1152.2530413654233
 20
388.60718378776727
 11
1152.2530413654233
 21
383.27385045443441
  0
LINE
  8
_0-b_細線3
  6
CONTINUOUS
 62
    7
 10
1153.5863746987559
 20
389.94051712110013
 11
1152.2530413654233
 21
388.60718378776727
  0
LINE
  8
_0-b_細線3
  6
CONTINUOUS
 62
    7
 10
1224.2530413654233
 20
389.94051712110013
 11
1153.5863746987559
 21
389.94051712110013
  0
LINE
  8
_0-b_細線3
  6
CONTINUOUS
 62
    7
 10
1230.9197080320905
 20
443.27385045443441
 11
1232.2530413654233
 21
441.94051712110013
  0
LINE
  8
_0-b_細線3
  6
CONTINUOUS
 62
    7
 10
1225.5863746987573
 20
443.27385045443441
 11
1230.9197080320905
 21
443.27385045443441
  0
LINE
  8
_0-b_細線3
  6
CONTINUOUS
 62
    7
 10
1224.2530413654233
 20
441.94051712110013
 11
1225.5863746987573
 21
443.27385045443441
  0
LINE
  8
_0-b_細線3
  6
CONTINUOUS
 62
    7
 10
1224.2530413654233
 20
389.94051712110013
 11
1224.2530413654233
 21
441.94051712110013
  0
LINE
  8
_0-d_寸法3
  6
CONTINUOUS
 62
    7
 10
405.58637469875657
 20
451.27385045443441
 11
405.58637469875657
 21
627.27384778508201
  0
LINE
  8
_0-d_寸法3
  6
CONTINUOUS
 62
    7
 10
405.58637469875657
 20
619.27384778508201
 11
421.04118791938163
 21
623.41495250672233
  0
LINE
  8
_0-d_寸法3
  6
CONTINUOUS
 62
    7
 10
405.58637469875657
 20
619.27384778508201
 11
421.04118791938163
 21
615.13274306344169
  0
LINE
  8
_0-d_寸法3
  6
CONTINUOUS
 62
    7
 10
1232.2530413654233
 20
451.27385045443441
 11
1232.2530413654238
 21
627.27384778508201
  0
LINE
  8
_0-d_寸法3
  6
CONTINUOUS
 62
    7
 10
1232.2530413654238
 20
619.27384778508201
 11
1216.7982281447987
 21
615.13274306344169
  0
LINE
  8
_0-d_寸法3
  6
CONTINUOUS
 62
    7
 10
1232.2530413654238
 20
619.27384778508201
 11
1216.7982281447987
 21
623.41495250672244
  0
LINE
  8
_0-d_寸法3
  6
CONTINUOUS
 62
    7
 10
405.58637469875657
 20
619.27384778508201
 11
1232.2530413654238
 21
619.27384778508201
  0
TEXT
  8
_0-d_寸法3
 62
    7
 10
800.91970803209006
 20
619.27384778508201
 40
24
 41
1
 50
0
  1
310
  0
ARC
  8
_0-b_細線3
  6
CONTINUOUS
 62
    7
 10
919.71970803792692
 20
437.93993311841552
 40
2.6666666666666679
 50
89.999999999999915
 51
179.99999999999983
  0
ARC
  8
_0-b_細線3
  6
CONTINUOUS
 62
    7
 10
920.96757254813394
 20
443.27326645174833
 40
2.6666666666666679
 50
269.99999999999977
 51
330.00000000000938
  0
ARC
  8
_0-b_細線3
  6
CONTINUOUS
 62
    7
 10
925.58637470165024
 20
440.60659978508266
 40
2.6666666666666679
 50
89.999999999999915
 51
150.00000000000136
  0
LINE
  8
_0-b_細線3
  6
CONTINUOUS
 62
    7
 10
919.71970803792692
 20
440.60659978508266
 11
920.96757254813394
 21
440.60659978508266
  0
ARC
  8
_0-b_細線3
  6
CONTINUOUS
 62
    7
 10
944.78637469870785
 20
437.93993311841552
 40
2.6666666666666679
 50
0
 51
89.999999999999915
  0
ARC
  8
_0-b_細線3
  6
CONTINUOUS
 62
    7
 10
943.53851018850162
 20
443.27326645174833
 40
2.6666666666666679
 50
209.9999999999911
 51
269.99999999999977
  0
ARC
  8
_0-b_細線3
  6
CONTINUOUS
 62
    7
 10
938.91970803498452
 20
440.60659978508266
 40
2.6666666666666679
 50
29.99999999998888
 51
89.999999999999901
  0
LINE
  8
_0-b_細線3
  6
CONTINUOUS
 62
    7
 10
944.78637469870785
 20
440.60659978508266
 11
943.53851018850162
 21
440.60659978508266
  0
ARC
  8
_0-b_細線3
  6
CONTINUOUS
 62
    7
 10
918.38637470459412
 20
434.20659978508263
 40
1.3333333333333339
 50
179.99999999999983
 51
269.99999999999977
  0
LINE
  8
_0-b_細線3
  6
CONTINUOUS
 62
    7
 10
917.05304137126052
 20
437.93993311841552
 11
917.05304137126052
 21
434.20659978508263
  0
ARC
  8
_0-b_細線3
  6
CONTINUOUS
 62
    7
 10
946.11970803204144
 20
434.20659978508263
 40
1.3333333333333339
 50
269.99999999999977
 51
359.99999999999966
  0
LINE
  8
_0-b_細線3
  6
CONTINUOUS
 62
    7
 10
947.45304136537504
 20
437.93993311841552
 11
947.45304136537504
 21
434.20659978508263
  0
ARC
  8
_0-b_細線3
  6
CONTINUOUS
 62
    7
 10
925.05304137126052
 20
430.20659978508263
 40
2.6666666666666679
 50
0
 51
89.999999999999915
  0
LINE
  8
_0-b_細線3
  6
CONTINUOUS
 62
    7
 10
925.05304137126052
 20
432.87326645174835
 11
918.38637470459412
 21
432.87326645174835
  0
ARC
  8
_0-b_細線3
  6
CONTINUOUS
 62
    7
 10
939.4530413712605
 20
430.20659978508263
 40
2.6666666666666679
 50
89.999999999999915
 51
179.99999999999983
  0
LINE
  8
_0-b_細線3
  6
CONTINUOUS
 62
    7
 10
939.45304136537425
 20
432.87326645174835
 11
946.11970803204144
 21
432.87326645174835
  0
LINE
  8
_0-b_細線3
  6
CONTINUOUS
 62
    7
 10
938.91970803498452
 20
443.27326645174833
 11
925.58637470165024
 21
443.27326645174833
  0
LINE
  8
_0-b_細線3
  6
CONTINUOUS
 62
    7
 10
927.71970803498471
 20
389.93993311841552
 11
927.71970803792692
 21
430.20659978508263
  0
LINE
  8
_0-b_細線3
  6
CONTINUOUS
 62
    7
 10
936.78637470165097
 20
389.93993311841552
 11
936.7863747045941
 21
430.20659978508263
  0
LINE
  8
_0-b_細線3
  6
CONTINUOUS
 62
    7
 10
936.78637470165097
 20
389.93993311841552
 11
927.71970803498471
 21
389.93993311841552
  0
ARC
  8
_0-b_細線3
  6
CONTINUOUS
 62
    7
 10
874.38637470362937
 20
437.93993311841552
 40
2.6666666666666679
 50
89.999999999999915
 51
179.99999999999983
  0
ARC
  8
_0-b_細線3
  6
CONTINUOUS
 62
    7
 10
875.6342392138356
 20
443.27326645174833
 40
2.6666666666666679
 50
269.99999999999977
 51
330.00000000000938
  0
ARC
  8
_0-b_細線3
  6
CONTINUOUS
 62
    7
 10
880.25304136735258
 20
440.60659978508266
 40
2.6666666666666679
 50
89.999999999999915
 51
150.0000000000087
  0
LINE
  8
_0-b_細線3
  6
CONTINUOUS
 62
    7
 10
874.38637470362937
 20
440.60659978508266
 11
875.6342392138356
 21
440.60659978508266
  0
ARC
  8
_0-b_細線3
  6
CONTINUOUS
 62
    7
 10
899.4530413644095
 20
437.93993311841552
 40
2.6666666666666679
 50
0
 51
89.999999999999915
  0
ARC
  8
_0-b_細線3
  6
CONTINUOUS
 62
    7
 10
898.20517685420327
 20
443.27326645174833
 40
2.6666666666666679
 50
209.99999999998136
 51
269.99999999999977
  0
ARC
  8
_0-b_細線3
  6
CONTINUOUS
 62
    7
 10
893.58637470068618
 20
440.60659978508266
 40
2.6666666666666679
 50
29.99999999999865
 51
89.999999999999901
  0
LINE
  8
_0-b_細線3
  6
CONTINUOUS
 62
    7
 10
899.4530413644095
 20
440.60659978508266
 11
898.20517685420327
 21
440.60659978508266
  0
ARC
  8
_0-b_細線3
  6
CONTINUOUS
 62
    7
 10
873.05304137029589
 20
434.20659978508263
 40
1.3333333333333339
 50
179.99999999999983
 51
269.99999999999977
  0
LINE
  8
_0-b_細線3
  6
CONTINUOUS
 62
    7
 10
871.71970803696217
 20
437.93993311841552
 11
871.71970803696217
 21
434.20659978508263
  0
ARC
  8
_0-b_細線3
  6
CONTINUOUS
 62
    7
 10
900.78637469774321
 20
434.20659978508263
 40
1.3333333333333339
 50
269.99999999999977
 51
359.99999999999966
  0
LINE
  8
_0-b_細線3
  6
CONTINUOUS
 62
    7
 10
902.1197080310767
 20
437.93993311841552
 11
902.1197080310767
 21
434.20659978508263
  0
ARC
  8
_0-b_細線3
  6
CONTINUOUS
 62
    7
 10
879.71970803696217
 20
430.20659978508263
 40
2.6666666666666679
 50
0
 51
89.999999999999915
  0
LINE
  8
_0-b_細線3
  6
CONTINUOUS
 62
    7
 10
879.71970803696217
 20
432.87326645174835
 11
873.05304137029589
 21
432.87326645174835
  0
ARC
  8
_0-b_細線3
  6
CONTINUOUS
 62
    7
 10
894.11970803696295
 20
430.20659978508263
 40
2.6666666666666679
 50
89.999999999999915
 51
179.99999999999983
  0
LINE
  8
_0-b_細線3
  6
CONTINUOUS
 62
    7
 10
894.1197080310767
 20
432.87326645174835
 11
900.78637469774321
 21
432.87326645174835
  0
LINE
  8
_0-b_細線3
  6
CONTINUOUS
 62
    7
 10
893.58637470068618
 20
443.27326645174833
 11
880.25304136735258
 21
443.27326645174833
  0
LINE
  8
_0-b_細線3
  6
CONTINUOUS
 62
    7
 10
882.38637470068625
 20
389.93993311841552
 11
882.38637470362937
 21
430.20659978508263
  0
LINE
  8
_0-b_細線3
  6
CONTINUOUS
 62
    7
 10
891.45304136735263
 20
389.93993311841552
 11
891.45304137029575
 21
430.20659978508263
  0
LINE
  8
_0-b_細線3
  6
CONTINUOUS
 62
    7
 10
891.45304136735263
 20
389.93993311841552
 11
882.38637470068625
 21
389.93993311841552
  0
ARC
  8
_0-b_細線3
  6
CONTINUOUS
 62
    7
 10
829.05304136933091
 20
437.93993311841552
 40
2.6666666666666679
 50
89.999999999999915
 51
179.99999999999983
  0
ARC
  8
_0-b_細線3
  6
CONTINUOUS
 62
    7
 10
830.30090587953782
 20
443.27326645174833
 40
2.6666666666666679
 50
269.99999999999977
 51
330.00000000001063
  0
ARC
  8
_0-b_細線3
  6
CONTINUOUS
 62
    7
 10
834.91970803305503
 20
440.60659978508266
 40
2.6666666666666679
 50
89.999999999999915
 51
150.00000000000992
  0
LINE
  8
_0-b_細線3
  6
CONTINUOUS
 62
    7
 10
829.05304136933091
 20
440.60659978508266
 11
830.30090587953782
 21
440.60659978508266
  0
ARC
  8
_0-b_細線3
  6
CONTINUOUS
 62
    7
 10
854.11970803011184
 20
437.93993311841552
 40
2.6666666666666679
 50
0
 51
89.999999999999915
  0
ARC
  8
_0-b_細線3
  6
CONTINUOUS
 62
    7
 10
852.87184351990481
 20
443.27326645174833
 40
2.6666666666666679
 50
209.99999999998988
 51
269.99999999999977
  0
ARC
  8
_0-b_細線3
  6
CONTINUOUS
 62
    7
 10
848.25304136638772
 20
440.60659978508266
 40
2.6666666666666679
 50
29.999999999990099
 51
89.999999999982904
  0
LINE
  8
_0-b_細線3
  6
CONTINUOUS
 62
    7
 10
854.11970803011184
 20
440.60659978508266
 11
852.87184351990481
 21
440.60659978508266
  0
ARC
  8
_0-b_細線3
  6
CONTINUOUS
 62
    7
 10
827.71970803599743
 20
434.20659978508263
 40
1.3333333333333339
 50
179.99999999999983
 51
269.99999999999977
  0
LINE
  8
_0-b_細線3
  6
CONTINUOUS
 62
    7
 10
826.3863747026644
 20
437.93993311841552
 11
826.3863747026644
 21
434.20659978508263
  0
ARC
  8
_0-b_細線3
  6
CONTINUOUS
 62
    7
 10
855.45304136344544
 20
434.20659978508263
 40
1.3333333333333339
 50
269.99999999999977
 51
359.99999999999966
  0
LINE
  8
_0-b_細線3
  6
CONTINUOUS
 62
    7
 10
856.78637469677824
 20
437.93993311841552
 11
856.78637469677824
 21
434.20659978508263
  0
ARC
  8
_0-b_細線3
  6
CONTINUOUS
 62
    7
 10
834.3863747026644
 20
430.20659978508263
 40
2.6666666666666679
 50
0
 51
89.999999999999915
  0
LINE
  8
_0-b_細線3
  6
CONTINUOUS
 62
    7
 10
834.3863747026644
 20
432.87326645174835
 11
827.71970803599743
 21
432.87326645174835
  0
ARC
  8
_0-b_細線3
  6
CONTINUOUS
 62
    7
 10
848.78637470266449
 20
430.20659978508263
 40
2.6666666666666679
 50
89.999999999999915
 51
179.99999999999983
  0
LINE
  8
_0-b_細線3
  6
CONTINUOUS
 62
    7
 10
848.78637469677824
 20
432.87326645174835
 11
855.45304136344544
 21
432.87326645174835
  0
LINE
  8
_0-b_細線3
  6
CONTINUOUS
 62
    7
 10
848.25304136638772
 20
443.27326645174833
 11
834.91970803305503
 21
443.27326645174833
  0
LINE
  8
_0-b_細線3
  6
CONTINUOUS
 62
    7
 10
837.05304136638779
 20
389.93993311841552
 11
837.05304136933091
 21
430.20659978508263
  0
LINE
  8
_0-b_細線3
  6
CONTINUOUS
 62
    7
 10
846.11970803305485
 20
389.93993311841552
 11
846.11970803599797
 21
430.20659978508263
  0
LINE
  8
_0-b_細線3
  6
CONTINUOUS
 62
    7
 10
846.11970803305485
 20
389.93993311841552
 11
837.05304136638779
 21
389.93993311841552
  0
ARC
  8
_0-b_細線3
  6
CONTINUOUS
 62
    7
 10
738.3863747007349
 20
437.93993311841552
 40
2.6666666666666679
 50
89.999999999999915
 51
179.99999999999983
  0
ARC
  8
_0-b_細線3
  6
CONTINUOUS
 62
    7
 10
739.63423921094181
 20
443.27326645174833
 40
2.6666666666666679
 50
269.99999999999977
 51
330.00000000001063
  0
ARC
  8
_0-b_細線3
  6
CONTINUOUS
 62
    7
 10
744.25304136445902
 20
440.60659978508266
 40
2.6666666666666679
 50
89.999999999999915
 51
150.00000000000992
  0
LINE
  8
_0-b_細線3
  6
CONTINUOUS
 62
    7
 10
738.3863747007349
 20
440.60659978508266
 11
739.63423921094181
 21
440.60659978508266
  0
ARC
  8
_0-b_細線3
  6
CONTINUOUS
 62
    7
 10
763.45304136151572
 20
437.93993311841552
 40
2.6666666666666679
 50
0
 51
89.999999999999915
  0
ARC
  8
_0-b_細線3
  6
CONTINUOUS
 62
    7
 10
762.20517685130972
 20
443.27326645174833
 40
2.6666666666666679
 50
209.99999999997891
 51
269.99999999999977
  0
ARC
  8
_0-b_細線3
  6
CONTINUOUS
 62
    7
 10
757.58637469779171
 20
440.60659978508266
 40
2.6666666666666679
 50
29.999999999991321
 51
89.999999999982904
  0
LINE
  8
_0-b_細線3
  6
CONTINUOUS
 62
    7
 10
763.45304136151572
 20
440.60659978508266
 11
762.20517685130972
 21
440.60659978508266
  0
ARC
  8
_0-b_細線3
  6
CONTINUOUS
 62
    7
 10
737.05304136740142
 20
434.20659978508263
 40
1.3333333333333339
 50
179.99999999999983
 51
269.99999999999977
  0
LINE
  8
_0-b_細線3
  6
CONTINUOUS
 62
    7
 10
735.71970803406839
 20
437.93993311841552
 11
735.71970803406839
 21
434.20659978508263
  0
ARC
  8
_0-b_細線3
  6
CONTINUOUS
 62
    7
 10
764.78637469484931
 20
434.20659978508263
 40
1.3333333333333339
 50
269.99999999999977
 51
359.99999999999966
  0
LINE
  8
_0-b_細線3
  6
CONTINUOUS
 62
    7
 10
766.11970802818314
 20
437.93993311841552
 11
766.11970802818314
 21
434.20659978508263
  0
ARC
  8
_0-b_細線3
  6
CONTINUOUS
 62
    7
 10
743.71970803406839
 20
430.20659978508263
 40
2.6666666666666679
 50
0
 51
89.999999999999915
  0
LINE
  8
_0-b_細線3
  6
CONTINUOUS
 62
    7
 10
743.71970803406839
 20
432.87326645174835
 11
737.05304136740142
 21
432.87326645174835
  0
ARC
  8
_0-b_細線3
  6
CONTINUOUS
 62
    7
 10
758.11970803406848
 20
430.20659978508263
 40
2.6666666666666679
 50
89.999999999999915
 51
179.99999999999983
  0
LINE
  8
_0-b_細線3
  6
CONTINUOUS
 62
    7
 10
758.11970802818223
 20
432.87326645174835
 11
764.78637469484931
 21
432.87326645174835
  0
LINE
  8
_0-b_細線3
  6
CONTINUOUS
 62
    7
 10
757.58637469779171
 20
443.27326645174833
 11
744.25304136445902
 21
443.27326645174833
  0
LINE
  8
_0-b_細線3
  6
CONTINUOUS
 62
    7
 10
746.38637469779269
 20
389.93993311841552
 11
746.3863747007349
 21
430.20659978508263
  0
LINE
  8
_0-b_細線3
  6
CONTINUOUS
 62
    7
 10
755.45304136445884
 20
389.93993311841552
 11
755.45304136740197
 21
430.20659978508263
  0
LINE
  8
_0-b_細線3
  6
CONTINUOUS
 62
    7
 10
755.45304136445884
 20
389.93993311841552
 11
746.38637469779269
 21
389.93993311841552
  0
ARC
  8
_0-b_細線3
  6
CONTINUOUS
 62
    7
 10
693.05304136643645
 20
437.93993311841552
 40
2.6666666666666679
 50
89.999999999999915
 51
179.99999999999983
  0
ARC
  8
_0-b_細線3
  6
CONTINUOUS
 62
    7
 10
694.30090587664347
 20
443.27326645174833
 40
2.6666666666666679
 50
269.99999999999977
 51
330.00000000000938
  0
ARC
  8
_0-b_細線3
  6
CONTINUOUS
 62
    7
 10
698.91970803016045
 20
440.60659978508266
 40
2.6666666666666679
 50
89.999999999999915
 51
150.0000000000087
  0
LINE
  8
_0-b_細線3
  6
CONTINUOUS
 62
    7
 10
693.05304136643645
 20
440.60659978508266
 11
694.30090587664347
 21
440.60659978508266
  0
ARC
  8
_0-b_細線3
  6
CONTINUOUS
 62
    7
 10
718.11970802721737
 20
437.93993311841552
 40
2.6666666666666679
 50
0
 51
89.999999999999915
  0
ARC
  8
_0-b_細線3
  6
CONTINUOUS
 62
    7
 10
716.87184351701035
 20
443.27326645174833
 40
2.6666666666666679
 50
209.99999999998988
 51
269.99999999999977
  0
ARC
  8
_0-b_細線3
  6
CONTINUOUS
 62
    7
 10
712.25304136349405
 20
440.60659978508266
 40
2.6666666666666679
 50
29.99999999999865
 51
89.999999999999901
  0
LINE
  8
_0-b_細線3
  6
CONTINUOUS
 62
    7
 10
718.11970802721737
 20
440.60659978508266
 11
716.87184351701035
 21
440.60659978508266
  0
ARC
  8
_0-b_細線3
  6
CONTINUOUS
 62
    7
 10
691.71970803310376
 20
434.20659978508263
 40
1.3333333333333339
 50
179.99999999999983
 51
269.99999999999977
  0
LINE
  8
_0-b_細線3
  6
CONTINUOUS
 62
    7
 10
690.38637469977004
 20
437.93993311841552
 11
690.38637469977004
 21
434.20659978508263
  0
ARC
  8
_0-b_細線3
  6
CONTINUOUS
 62
    7
 10
719.45304136055108
 20
434.20659978508263
 40
1.3333333333333339
 50
269.99999999999977
 51
359.99999999999966
  0
LINE
  8
_0-b_細線3
  6
CONTINUOUS
 62
    7
 10
720.78637469388377
 20
437.93993311841552
 11
720.78637469388377
 21
434.20659978508263
  0
ARC
  8
_0-b_細線3
  6
CONTINUOUS
 62
    7
 10
698.38637469977004
 20
430.20659978508263
 40
2.6666666666666679
 50
0
 51
89.999999999999915
  0
LINE
  8
_0-b_細線3
  6
CONTINUOUS
 62
    7
 10
698.38637469977004
 20
432.87326645174835
 11
691.71970803310376
 21
432.87326645174835
  0
ARC
  8
_0-b_細線3
  6
CONTINUOUS
 62
    7
 10
712.78637469977002
 20
430.20659978508263
 40
2.6666666666666679
 50
89.999999999999915
 51
179.99999999999983
  0
LINE
  8
_0-b_細線3
  6
CONTINUOUS
 62
    7
 10
712.78637469388377
 20
432.87326645174835
 11
719.45304136055108
 21
432.87326645174835
  0
LINE
  8
_0-b_細線3
  6
CONTINUOUS
 62
    7
 10
712.25304136349405
 20
443.27326645174833
 11
698.91970803016045
 21
443.27326645174833
  0
LINE
  8
_0-b_細線3
  6
CONTINUOUS
 62
    7
 10
701.05304136349332
 20
389.93993311841552
 11
701.05304136643645
 21
430.20659978508263
  0
LINE
  8
_0-b_細線3
  6
CONTINUOUS
 62
    7
 10
710.1197080301605
 20
389.93993311841552
 11
710.11970803310362
 21
430.20659978508263
  0
LINE
  8
_0-b_細線3
  6
CONTINUOUS
 62
    7
 10
710.1197080301605
 20
389.93993311841552
 11
701.05304136349332
 21
389.93993311841552
  0
ARC
  8
_0-b_細線3
  6
CONTINUOUS
 62
    7
 10
647.7197080321381
 20
437.93993311841552
 40
2.6666666666666679
 50
89.999999999999915
 51
179.99999999999983
  0
ARC
  8
_0-b_細線3
  6
CONTINUOUS
 62
    7
 10
648.96757254234524
 20
443.27326645174833
 40
2.6666666666666679
 50
269.99999999999977
 51
330.00000000000819
  0
ARC
  8
_0-b_細線3
  6
CONTINUOUS
 62
    7
 10
653.5863746958621
 20
440.60659978508266
 40
2.6666666666666679
 50
89.999999999999915
 51
150.0000000000087
  0
LINE
  8
_0-b_細線3
  6
CONTINUOUS
 62
    7
 10
647.7197080321381
 20
440.60659978508266
 11
648.96757254234524
 21
440.60659978508266
  0
ARC
  8
_0-b_細線3
  6
CONTINUOUS
 62
    7
 10
672.78637469291914
 20
437.93993311841552
 40
2.6666666666666679
 50
0
 51
89.999999999999915
  0
ARC
  8
_0-b_細線3
  6
CONTINUOUS
 62
    7
 10
671.53851018271268
 20
443.27326645174833
 40
2.6666666666666679
 50
209.99999999998377
 51
269.99999999999977
  0
ARC
  8
_0-b_細線3
  6
CONTINUOUS
 62
    7
 10
666.91970802919502
 20
440.60659978508266
 40
2.6666666666666679
 50
29.999999999990099
 51
89.999999999985349
  0
LINE
  8
_0-b_細線3
  6
CONTINUOUS
 62
    7
 10
672.78637469291914
 20
440.60659978508266
 11
671.53851018271268
 21
440.60659978508266
  0
ARC
  8
_0-b_細線3
  6
CONTINUOUS
 62
    7
 10
646.3863746988053
 20
434.20659978508263
 40
1.3333333333333339
 50
179.99999999999983
 51
269.99999999999977
  0
LINE
  8
_0-b_細線3
  6
CONTINUOUS
 62
    7
 10
645.05304136547181
 20
437.93993311841552
 11
645.05304136547181
 21
434.20659978508263
  0
ARC
  8
_0-b_細線3
  6
CONTINUOUS
 62
    7
 10
674.11970802625262
 20
434.20659978508263
 40
1.3333333333333339
 50
269.99999999999977
 51
359.99999999999966
  0
LINE
  8
_0-b_細線3
  6
CONTINUOUS
 62
    7
 10
675.45304135958611
 20
437.93993311841552
 11
675.45304135958611
 21
434.20659978508263
  0
ARC
  8
_0-b_細線3
  6
CONTINUOUS
 62
    7
 10
653.05304136547181
 20
430.20659978508263
 40
2.6666666666666679
 50
0
 51
89.999999999999915
  0
LINE
  8
_0-b_細線3
  6
CONTINUOUS
 62
    7
 10
653.05304136547181
 20
432.87326645174835
 11
646.3863746988053
 21
432.87326645174835
  0
ARC
  8
_0-b_細線3
  6
CONTINUOUS
 62
    7
 10
667.45304136547168
 20
430.20659978508263
 40
2.6666666666666679
 50
89.999999999999915
 51
179.99999999999983
  0
LINE
  8
_0-b_細線3
  6
CONTINUOUS
 62
    7
 10
667.45304135958543
 20
432.87326645174835
 11
674.11970802625262
 21
432.87326645174835
  0
LINE
  8
_0-b_細線3
  6
CONTINUOUS
 62
    7
 10
666.91970802919502
 20
443.27326645174833
 11
653.5863746958621
 21
443.27326645174833
  0
LINE
  8
_0-b_細線3
  6
CONTINUOUS
 62
    7
 10
655.71970802919566
 20
389.93993311841552
 11
655.7197080321381
 21
430.20659978508263
  0
LINE
  8
_0-b_細線3
  6
CONTINUOUS
 62
    7
 10
664.78637469586226
 20
389.93993311841552
 11
664.78637469880539
 21
430.20659978508263
  0
LINE
  8
_0-b_細線3
  6
CONTINUOUS
 62
    7
 10
664.78637469586226
 20
389.93993311841552
 11
655.71970802919566
 21
389.93993311841552
  0
ARC
  8
_0-b_細線3
  6
CONTINUOUS
 62
    7
 10
965.05304137171822
 20
437.93993311841552
 40
2.6666666666666679
 50
89.999999999999915
 51
179.99999999999983
  0
ARC
  8
_0-b_細線3
  6
CONTINUOUS
 62
    7
 10
966.30090588192445
 20
443.27326645174833
 40
2.6666666666666679
 50
269.99999999999977
 51
330.00000000000938
  0
ARC
  8
_0-b_細線3
  6
CONTINUOUS
 62
    7
 10
970.91970803544166
 20
440.60659978508266
 40
2.6666666666666679
 50
89.999999999999915
 51
150.00000000001111
  0
LINE
  8
_0-b_細線3
  6
CONTINUOUS
 62
    7
 10
965.05304137171822
 20
440.60659978508266
 11
966.30090588192445
 21
440.60659978508266
  0
ARC
  8
_0-b_細線3
  6
CONTINUOUS
 62
    7
 10
990.11970803249926
 20
437.93993311841552
 40
2.6666666666666679
 50
0
 51
89.999999999999915
  0
ARC
  8
_0-b_細線3
  6
CONTINUOUS
 62
    7
 10
988.87184352229212
 20
443.27326645174833
 40
2.6666666666666679
 50
209.9999999999911
 51
269.99999999999977
  0
ARC
  8
_0-b_細線3
  6
CONTINUOUS
 62
    7
 10
984.25304136877503
 20
440.60659978508266
 40
2.6666666666666679
 50
29.99999999998888
 51
89.999999999999901
  0
LINE
  8
_0-b_細線3
  6
CONTINUOUS
 62
    7
 10
990.11970803249926
 20
440.60659978508266
 11
988.87184352229212
 21
440.60659978508266
  0
ARC
  8
_0-b_細線3
  6
CONTINUOUS
 62
    7
 10
963.71970803838531
 20
434.20659978508263
 40
1.3333333333333339
 50
179.99999999999983
 51
269.99999999999977
  0
LINE
  8
_0-b_細線3
  6
CONTINUOUS
 62
    7
 10
962.38637470505103
 20
437.93993311841552
 11
962.38637470505103
 21
434.20659978508263
  0
ARC
  8
_0-b_細線3
  6
CONTINUOUS
 62
    7
 10
991.45304136583263
 20
434.20659978508263
 40
1.3333333333333339
 50
269.99999999999977
 51
359.99999999999966
  0
LINE
  8
_0-b_細線3
  6
CONTINUOUS
 62
    7
 10
992.78637469916555
 20
437.93993311841552
 11
992.78637469916555
 21
434.20659978508263
  0
ARC
  8
_0-b_細線3
  6
CONTINUOUS
 62
    7
 10
970.38637470505103
 20
430.20659978508263
 40
2.6666666666666679
 50
0
 51
89.999999999999915
  0
LINE
  8
_0-b_細線3
  6
CONTINUOUS
 62
    7
 10
970.38637470505103
 20
432.87326645174835
 11
963.71970803838531
 21
432.87326645174835
  0
ARC
  8
_0-b_細線3
  6
CONTINUOUS
 62
    7
 10
984.7863747050518
 20
430.20659978508263
 40
2.6666666666666679
 50
89.999999999999915
 51
179.99999999999983
  0
LINE
  8
_0-b_細線3
  6
CONTINUOUS
 62
    7
 10
984.78637469916555
 20
432.87326645174835
 11
991.45304136583263
 21
432.87326645174835
  0
LINE
  8
_0-b_細線3
  6
CONTINUOUS
 62
    7
 10
984.25304136877503
 20
443.27326645174833
 11
970.91970803544166
 21
443.27326645174833
  0
LINE
  8
_0-b_細線3
  6
CONTINUOUS
 62
    7
 10
973.05304136877578
 20
389.93993311841552
 11
973.05304137171822
 21
430.20659978508263
  0
LINE
  8
_0-b_細線3
  6
CONTINUOUS
 62
    7
 10
982.11970803544239
 20
389.93993311841552
 11
982.11970803838551
 21
430.20659978508263
  0
LINE
  8
_0-b_細線3
  6
CONTINUOUS
 62
    7
 10
982.11970803544239
 20
389.93993311841552
 11
973.05304136877578
 21
389.93993311841552
  0
ARC
  8
_0-b_細線3
  6
CONTINUOUS
 62
    7
 10
1010.3863747060162
 20
437.93993311841552
 40
2.6666666666666679
 50
89.999999999999915
 51
179.99999999999983
  0
ARC
  8
_0-b_細線3
  6
CONTINUOUS
 62
    7
 10
1011.6342392162234
 20
443.27326645174833
 40
2.6666666666666679
 50
269.99999999999977
 51
330.00000000000819
  0
ARC
  8
_0-b_細線3
  6
CONTINUOUS
 62
    7
 10
1016.2530413697399
 20
440.60659978508266
 40
2.6666666666666679
 50
89.999999999999915
 51
150.00000000000503
  0
LINE
  8
_0-b_細線3
  6
CONTINUOUS
 62
    7
 10
1010.3863747060162
 20
440.60659978508266
 11
1011.6342392162234
 21
440.60659978508266
  0
ARC
  8
_0-b_細線3
  6
CONTINUOUS
 62
    7
 10
1035.4530413667976
 20
437.93993311841552
 40
2.6666666666666679
 50
0
 51
89.999999999999915
  0
ARC
  8
_0-b_細線3
  6
CONTINUOUS
 62
    7
 10
1034.2051768565905
 20
443.27326645174833
 40
2.6666666666666679
 50
209.9999999999911
 51
269.99999999999977
  0
ARC
  8
_0-b_細線3
  6
CONTINUOUS
 62
    7
 10
1029.5863747030735
 20
440.60659978508266
 40
2.6666666666666679
 50
29.999999999990099
 51
89.999999999990223
  0
LINE
  8
_0-b_細線3
  6
CONTINUOUS
 62
    7
 10
1035.4530413667976
 20
440.60659978508266
 11
1034.2051768565905
 21
440.60659978508266
  0
ARC
  8
_0-b_細線3
  6
CONTINUOUS
 62
    7
 10
1009.053041372683
 20
434.20659978508263
 40
1.3333333333333339
 50
179.99999999999983
 51
269.99999999999977
  0
LINE
  8
_0-b_細線3
  6
CONTINUOUS
 62
    7
 10
1007.7197080393499
 20
437.93993311841552
 11
1007.7197080393499
 21
434.20659978508263
  0
ARC
  8
_0-b_細線3
  6
CONTINUOUS
 62
    7
 10
1036.7863747001306
 20
434.20659978508263
 40
1.3333333333333339
 50
269.99999999999977
 51
359.99999999999966
  0
LINE
  8
_0-b_細線3
  6
CONTINUOUS
 62
    7
 10
1038.1197080334639
 20
437.93993311841552
 11
1038.1197080334639
 21
434.20659978508263
  0
ARC
  8
_0-b_細線3
  6
CONTINUOUS
 62
    7
 10
1015.7197080393499
 20
430.20659978508263
 40
2.6666666666666679
 50
0
 51
89.999999999999915
  0
LINE
  8
_0-b_細線3
  6
CONTINUOUS
 62
    7
 10
1015.7197080393499
 20
432.87326645174835
 11
1009.053041372683
 21
432.87326645174835
  0
ARC
  8
_0-b_細線3
  6
CONTINUOUS
 62
    7
 10
1030.1197080393499
 20
430.20659978508263
 40
2.6666666666666679
 50
89.999999999999915
 51
179.99999999999983
  0
LINE
  8
_0-b_細線3
  6
CONTINUOUS
 62
    7
 10
1030.1197080334637
 20
432.87326645174835
 11
1036.7863747001306
 21
432.87326645174835
  0
LINE
  8
_0-b_細線3
  6
CONTINUOUS
 62
    7
 10
1029.5863747030735
 20
443.27326645174833
 11
1016.2530413697399
 21
443.27326645174833
  0
LINE
  8
_0-b_細線3
  6
CONTINUOUS
 62
    7
 10
1018.3863747030734
 20
389.93993311841552
 11
1018.3863747060162
 21
430.20659978508263
  0
LINE
  8
_0-b_細線3
  6
CONTINUOUS
 62
    7
 10
1027.4530413697403
 20
389.93993311841552
 11
1027.4530413726834
 21
430.20659978508263
  0
LINE
  8
_0-b_細線3
  6
CONTINUOUS
 62
    7
 10
1027.4530413697403
 20
389.93993311841552
 11
1018.3863747030734
 21
389.93993311841552
  0
ARC
  8
_0-b_細線3
  6
CONTINUOUS
 62
    7
 10
602.3863746988045
 20
437.93993311841552
 40
2.6666666666666679
 50
89.999999999999915
 51
179.99999999999983
  0
ARC
  8
_0-b_細線3
  6
CONTINUOUS
 62
    7
 10
603.63423920901153
 20
443.27326645174833
 40
2.6666666666666679
 50
269.99999999999977
 51
330.00000000000938
  0
ARC
  8
_0-b_細線3
  6
CONTINUOUS
 62
    7
 10
608.25304136252862
 20
440.60659978508266
 40
2.6666666666666679
 50
89.999999999999915
 51
150.00000000000992
  0
LINE
  8
_0-b_細線3
  6
CONTINUOUS
 62
    7
 10
602.3863746988045
 20
440.60659978508266
 11
603.63423920901153
 21
440.60659978508266
  0
ARC
  8
_0-b_細線3
  6
CONTINUOUS
 62
    7
 10
627.45304135958543
 20
437.93993311841552
 40
2.6666666666666679
 50
0
 51
89.999999999999915
  0
ARC
  8
_0-b_細線3
  6
CONTINUOUS
 62
    7
 10
626.20517684937909
 20
443.27326645174833
 40
2.6666666666666679
 50
209.99999999998255
 51
269.99999999999977
  0
ARC
  8
_0-b_細線3
  6
CONTINUOUS
 62
    7
 10
621.58637469586142
 20
440.60659978508266
 40
2.6666666666666679
 50
29.999999999991321
 51
89.999999999985349
  0
LINE
  8
_0-b_細線3
  6
CONTINUOUS
 62
    7
 10
627.45304135958543
 20
440.60659978508266
 11
626.20517684937909
 21
440.60659978508266
  0
ARC
  8
_0-b_細線3
  6
CONTINUOUS
 62
    7
 10
601.0530413654717
 20
434.20659978508263
 40
1.3333333333333339
 50
179.99999999999983
 51
269.99999999999977
  0
LINE
  8
_0-b_細線3
  6
CONTINUOUS
 62
    7
 10
599.7197080321381
 20
437.93993311841552
 11
599.7197080321381
 21
434.20659978508263
  0
ARC
  8
_0-b_細線3
  6
CONTINUOUS
 62
    7
 10
628.78637469291903
 20
434.20659978508263
 40
1.3333333333333339
 50
269.99999999999977
 51
359.99999999999966
  0
LINE
  8
_0-b_細線3
  6
CONTINUOUS
 62
    7
 10
630.11970802625251
 20
437.93993311841552
 11
630.11970802625251
 21
434.20659978508263
  0
ARC
  8
_0-b_細線3
  6
CONTINUOUS
 62
    7
 10
607.7197080321381
 20
430.20659978508263
 40
2.6666666666666679
 50
0
 51
89.999999999999915
  0
LINE
  8
_0-b_細線3
  6
CONTINUOUS
 62
    7
 10
607.7197080321381
 20
432.87326645174835
 11
601.0530413654717
 21
432.87326645174835
  0
ARC
  8
_0-b_細線3
  6
CONTINUOUS
 62
    7
 10
622.11970803213808
 20
430.20659978508263
 40
2.6666666666666679
 50
89.999999999999915
 51
179.99999999999983
  0
LINE
  8
_0-b_細線3
  6
CONTINUOUS
 62
    7
 10
622.11970802625183
 20
432.87326645174835
 11
628.78637469291903
 21
432.87326645174835
  0
LINE
  8
_0-b_細線3
  6
CONTINUOUS
 62
    7
 10
621.58637469586142
 20
443.27326645174833
 11
608.25304136252862
 21
443.27326645174833
  0
LINE
  8
_0-b_細線3
  6
CONTINUOUS
 62
    7
 10
610.38637469586206
 20
389.93993311841552
 11
610.3863746988045
 21
430.20659978508263
  0
LINE
  8
_0-b_細線3
  6
CONTINUOUS
 62
    7
 10
619.45304136252855
 20
389.93993311841552
 11
619.45304136547168
 21
430.20659978508263
  0
LINE
  8
_0-b_細線3
  6
CONTINUOUS
 62
    7
 10
619.45304136252855
 20
389.93993311841552
 11
610.38637469586206
 21
389.93993311841552
  0
ARC
  8
_0-b_細線3
  6
CONTINUOUS
 62
    7
 10
1055.7197080398078
 20
437.93993311841552
 40
2.6666666666666679
 50
89.999999999999915
 51
179.99999999999983
  0
ARC
  8
_0-b_細線3
  6
CONTINUOUS
 62
    7
 10
1056.9675725500147
 20
443.27326645174833
 40
2.6666666666666679
 50
269.99999999999977
 51
330.00000000001063
  0
ARC
  8
_0-b_細線3
  6
CONTINUOUS
 62
    7
 10
1061.586374703531
 20
440.60659978508266
 40
2.6666666666666679
 50
89.999999999999915
 51
150.00000000000014
  0
LINE
  8
_0-b_細線3
  6
CONTINUOUS
 62
    7
 10
1055.7197080398078
 20
440.60659978508266
 11
1056.9675725500147
 21
440.60659978508266
  0
ARC
  8
_0-b_細線3
  6
CONTINUOUS
 62
    7
 10
1080.7863747005886
 20
437.93993311841552
 40
2.6666666666666679
 50
0
 51
89.999999999999915
  0
ARC
  8
_0-b_細線3
  6
CONTINUOUS
 62
    7
 10
1079.5385101903817
 20
443.27326645174833
 40
2.6666666666666679
 50
209.99999999998866
 51
269.99999999999977
  0
ARC
  8
_0-b_細線3
  6
CONTINUOUS
 62
    7
 10
1074.9197080368647
 20
440.60659978508266
 40
2.6666666666666679
 50
29.999999999992543
 51
89.999999999985349
  0
LINE
  8
_0-b_細線3
  6
CONTINUOUS
 62
    7
 10
1080.7863747005886
 20
440.60659978508266
 11
1079.5385101903817
 21
440.60659978508266
  0
ARC
  8
_0-b_細線3
  6
CONTINUOUS
 62
    7
 10
1054.3863747064743
 20
434.20659978508263
 40
1.3333333333333339
 50
179.99999999999983
 51
269.99999999999977
  0
LINE
  8
_0-b_細線3
  6
CONTINUOUS
 62
    7
 10
1053.0530413731412
 20
437.93993311841552
 11
1053.0530413731412
 21
434.20659978508263
  0
ARC
  8
_0-b_細線3
  6
CONTINUOUS
 62
    7
 10
1082.1197080339223
 20
434.20659978508263
 40
1.3333333333333339
 50
269.99999999999977
 51
359.99999999999966
  0
LINE
  8
_0-b_細線3
  6
CONTINUOUS
 62
    7
 10
1083.4530413672551
 20
437.93993311841552
 11
1083.4530413672551
 21
434.20659978508263
  0
ARC
  8
_0-b_細線3
  6
CONTINUOUS
 62
    7
 10
1061.0530413731412
 20
430.20659978508263
 40
2.6666666666666679
 50
0
 51
89.999999999999915
  0
LINE
  8
_0-b_細線3
  6
CONTINUOUS
 62
    7
 10
1061.0530413731412
 20
432.87326645174835
 11
1054.3863747064743
 21
432.87326645174835
  0
ARC
  8
_0-b_細線3
  6
CONTINUOUS
 62
    7
 10
1075.4530413731413
 20
430.20659978508263
 40
2.6666666666666679
 50
89.999999999999915
 51
179.99999999999983
  0
LINE
  8
_0-b_細線3
  6
CONTINUOUS
 62
    7
 10
1075.4530413672551
 20
432.87326645174835
 11
1082.1197080339223
 21
432.87326645174835
  0
LINE
  8
_0-b_細線3
  6
CONTINUOUS
 62
    7
 10
1074.9197080368647
 20
443.27326645174833
 11
1061.586374703531
 21
443.27326645174833
  0
LINE
  8
_0-b_細線3
  6
CONTINUOUS
 62
    7
 10
1063.7197080368646
 20
389.93993311841552
 11
1063.7197080398078
 21
430.20659978508263
  0
LINE
  8
_0-b_細線3
  6
CONTINUOUS
 62
    7
 10
1072.7863747035317
 20
389.93993311841552
 11
1072.7863747064748
 21
430.20659978508263
  0
LINE
  8
_0-b_細線3
  6
CONTINUOUS
 62
    7
 10
1072.7863747035317
 20
389.93993311841552
 11
1063.7197080368646
 21
389.93993311841552
  0
ARC
  8
_0-b_細線3
  6
CONTINUOUS
 62
    7
 10
1101.0530413735992
 20
437.93993311841552
 40
2.6666666666666679
 50
89.999999999999915
 51
179.99999999999983
  0
ARC
  8
_0-b_細線3
  6
CONTINUOUS
 62
    7
 10
1102.3009058838061
 20
443.27326645174833
 40
2.6666666666666679
 50
269.99999999999977
 51
330.00000000001063
  0
ARC
  8
_0-b_細線3
  6
CONTINUOUS
 62
    7
 10
1106.9197080373228
 20
440.60659978508266
 40
2.6666666666666679
 50
89.999999999999915
 51
150.00000000000503
  0
LINE
  8
_0-b_細線3
  6
CONTINUOUS
 62
    7
 10
1101.0530413735992
 20
440.60659978508266
 11
1102.3009058838061
 21
440.60659978508266
  0
ARC
  8
_0-b_細線3
  6
CONTINUOUS
 62
    7
 10
1126.1197080343804
 20
437.93993311841552
 40
2.6666666666666679
 50
0
 51
89.999999999999915
  0
ARC
  8
_0-b_細線3
  6
CONTINUOUS
 62
    7
 10
1124.8718435241733
 20
443.27326645174833
 40
2.6666666666666679
 50
209.9999999999911
 51
269.99999999999977
  0
ARC
  8
_0-b_細線3
  6
CONTINUOUS
 62
    7
 10
1120.2530413706563
 20
440.60659978508266
 40
2.6666666666666679
 50
29.999999999990099
 51
89.999999999990223
  0
LINE
  8
_0-b_細線3
  6
CONTINUOUS
 62
    7
 10
1126.1197080343804
 20
440.60659978508266
 11
1124.8718435241733
 21
440.60659978508266
  0
ARC
  8
_0-b_細線3
  6
CONTINUOUS
 62
    7
 10
1099.7197080402657
 20
434.20659978508263
 40
1.3333333333333339
 50
179.99999999999983
 51
269.99999999999977
  0
LINE
  8
_0-b_細線3
  6
CONTINUOUS
 62
    7
 10
1098.3863747069327
 20
437.93993311841552
 11
1098.3863747069327
 21
434.20659978508263
  0
ARC
  8
_0-b_細線3
  6
CONTINUOUS
 62
    7
 10
1127.4530413677135
 20
434.20659978508263
 40
1.3333333333333339
 50
269.99999999999977
 51
359.99999999999966
  0
LINE
  8
_0-b_細線3
  6
CONTINUOUS
 62
    7
 10
1128.7863747010467
 20
437.93993311841552
 11
1128.7863747010467
 21
434.20659978508263
  0
ARC
  8
_0-b_細線3
  6
CONTINUOUS
 62
    7
 10
1106.3863747069327
 20
430.20659978508263
 40
2.6666666666666679
 50
0
 51
89.999999999999915
  0
LINE
  8
_0-b_細線3
  6
CONTINUOUS
 62
    7
 10
1106.3863747069327
 20
432.87326645174835
 11
1099.7197080402657
 21
432.87326645174835
  0
ARC
  8
_0-b_細線3
  6
CONTINUOUS
 62
    7
 10
1120.7863747069327
 20
430.20659978508263
 40
2.6666666666666679
 50
89.999999999999915
 51
179.99999999999983
  0
LINE
  8
_0-b_細線3
  6
CONTINUOUS
 62
    7
 10
1120.7863747010465
 20
432.87326645174835
 11
1127.4530413677135
 21
432.87326645174835
  0
LINE
  8
_0-b_細線3
  6
CONTINUOUS
 62
    7
 10
1120.2530413706563
 20
443.27326645174833
 11
1106.9197080373228
 21
443.27326645174833
  0
LINE
  8
_0-b_細線3
  6
CONTINUOUS
 62
    7
 10
1109.0530413706563
 20
389.93993311841552
 11
1109.0530413735992
 21
430.20659978508263
  0
LINE
  8
_0-b_細線3
  6
CONTINUOUS
 62
    7
 10
1118.1197080373231
 20
389.93993311841552
 11
1118.1197080402662
 21
430.20659978508263
  0
LINE
  8
_0-b_細線3
  6
CONTINUOUS
 62
    7
 10
1118.1197080373231
 20
389.93993311841552
 11
1109.0530413706563
 21
389.93993311841552
  0
ARC
  8
_0-b_細線3
  6
CONTINUOUS
 62
    7
 10
1146.3863747073904
 20
437.93993311841552
 40
2.6666666666666679
 50
89.999999999999915
 51
179.99999999999983
  0
ARC
  8
_0-b_細線3
  6
CONTINUOUS
 62
    7
 10
1147.6342392175973
 20
443.27326645174833
 40
2.6666666666666679
 50
269.99999999999977
 51
330.00000000001063
  0
ARC
  8
_0-b_細線3
  6
CONTINUOUS
 62
    7
 10
1152.2530413711143
 20
440.60659978508266
 40
2.6666666666666679
 50
89.999999999999915
 51
150.00000000000747
  0
LINE
  8
_0-b_細線3
  6
CONTINUOUS
 62
    7
 10
1146.3863747073904
 20
440.60659978508266
 11
1147.6342392175973
 21
440.60659978508266
  0
ARC
  8
_0-b_細線3
  6
CONTINUOUS
 62
    7
 10
1171.4530413681719
 20
437.93993311841552
 40
2.6666666666666679
 50
0
 51
89.999999999999915
  0
ARC
  8
_0-b_細線3
  6
CONTINUOUS
 62
    7
 10
1170.2051768579652
 20
443.27326645174833
 40
2.6666666666666679
 50
209.99999999998622
 51
269.99999999999977
  0
ARC
  8
_0-b_細線3
  6
CONTINUOUS
 62
    7
 10
1165.586374704448
 20
440.60659978508266
 40
2.6666666666666679
 50
29.999999999992543
 51
89.999999999999901
  0
LINE
  8
_0-b_細線3
  6
CONTINUOUS
 62
    7
 10
1171.4530413681719
 20
440.60659978508266
 11
1170.2051768579652
 21
440.60659978508266
  0
ARC
  8
_0-b_細線3
  6
CONTINUOUS
 62
    7
 10
1145.0530413740573
 20
434.20659978508263
 40
1.3333333333333339
 50
179.99999999999983
 51
269.99999999999977
  0
LINE
  8
_0-b_細線3
  6
CONTINUOUS
 62
    7
 10
1143.7197080407238
 20
437.93993311841552
 11
1143.7197080407238
 21
434.20659978508263
  0
ARC
  8
_0-b_細線3
  6
CONTINUOUS
 62
    7
 10
1172.7863747015047
 20
434.20659978508263
 40
1.3333333333333339
 50
269.99999999999977
 51
359.99999999999966
  0
LINE
  8
_0-b_細線3
  6
CONTINUOUS
 62
    7
 10
1174.1197080348386
 20
437.93993311841552
 11
1174.1197080348386
 21
434.20659978508263
  0
ARC
  8
_0-b_細線3
  6
CONTINUOUS
 62
    7
 10
1151.7197080407238
 20
430.20659978508263
 40
2.6666666666666679
 50
0
 51
89.999999999999915
  0
LINE
  8
_0-b_細線3
  6
CONTINUOUS
 62
    7
 10
1151.7197080407238
 20
432.87326645174835
 11
1145.0530413740573
 21
432.87326645174835
  0
ARC
  8
_0-b_細線3
  6
CONTINUOUS
 62
    7
 10
1166.1197080407239
 20
430.20659978508263
 40
2.6666666666666679
 50
89.999999999999915
 51
179.99999999999983
  0
LINE
  8
_0-b_細線3
  6
CONTINUOUS
 62
    7
 10
1166.1197080348377
 20
432.87326645174835
 11
1172.7863747015047
 21
432.87326645174835
  0
LINE
  8
_0-b_細線3
  6
CONTINUOUS
 62
    7
 10
1165.586374704448
 20
443.27326645174833
 11
1152.2530413711143
 21
443.27326645174833
  0
LINE
  8
_0-b_細線3
  6
CONTINUOUS
 62
    7
 10
1154.3863747044481
 20
389.93993311841552
 11
1154.3863747073904
 21
430.20659978508263
  0
LINE
  8
_0-b_細線3
  6
CONTINUOUS
 62
    7
 10
1163.4530413711143
 20
389.93993311841552
 11
1163.4530413740574
 21
430.20659978508263
  0
LINE
  8
_0-b_細線3
  6
CONTINUOUS
 62
    7
 10
1163.4530413711143
 20
389.93993311841552
 11
1154.3863747044481
 21
389.93993311841552
  0
ARC
  8
_0-b_細線3
  6
CONTINUOUS
 62
    7
 10
582.11970802437247
 20
437.93993311841552
 40
2.6666666666666679
 50
0
 51
89.999999999999915
  0
ARC
  8
_0-b_細線3
  6
CONTINUOUS
 62
    7
 10
580.87184351416545
 20
443.27326645174833
 40
2.6666666666666679
 50
209.99999999998988
 51
269.99999999999977
  0
ARC
  8
_0-b_細線3
  6
CONTINUOUS
 62
    7
 10
576.25304136064915
 20
440.60659978508266
 40
2.6666666666666679
 50
29.99999999999865
 51
89.999999999999901
  0
LINE
  8
_0-b_細線3
  6
CONTINUOUS
 62
    7
 10
582.11970802437247
 20
440.60659978508266
 11
580.87184351416545
 21
440.60659978508266
  0
ARC
  8
_0-b_細線3
  6
CONTINUOUS
 62
    7
 10
557.05304136359166
 20
437.93993311841552
 40
2.6666666666666679
 50
89.999999999999915
 51
179.99999999999983
  0
ARC
  8
_0-b_細線3
  6
CONTINUOUS
 62
    7
 10
558.30090587379868
 20
443.27326645174833
 40
2.6666666666666679
 50
269.99999999999977
 51
330.00000000000938
  0
ARC
  8
_0-b_細線3
  6
CONTINUOUS
 62
    7
 10
562.91970802731566
 20
440.60659978508266
 40
2.6666666666666679
 50
90.000000000014651
 51
150.0000000000087
  0
LINE
  8
_0-b_細線3
  6
CONTINUOUS
 62
    7
 10
557.05304136359166
 20
440.60659978508266
 11
558.30090587379868
 21
440.60659978508266
  0
ARC
  8
_0-b_細線3
  6
CONTINUOUS
 62
    7
 10
583.45304135770607
 20
434.20659978508263
 40
1.3333333333333339
 50
269.99999999999977
 51
359.99999999999966
  0
LINE
  8
_0-b_細線3
  6
CONTINUOUS
 62
    7
 10
584.78637469103887
 20
437.93993311841552
 11
584.78637469103887
 21
434.20659978508263
  0
ARC
  8
_0-b_細線3
  6
CONTINUOUS
 62
    7
 10
555.71970803025806
 20
434.20659978508263
 40
1.3333333333333339
 50
179.99999999999983
 51
269.99999999999977
  0
LINE
  8
_0-b_細線3
  6
CONTINUOUS
 62
    7
 10
554.38637469692526
 20
437.93993311841552
 11
554.38637469692526
 21
434.20659978508263
  0
ARC
  8
_0-b_細線3
  6
CONTINUOUS
 62
    7
 10
576.78637469103887
 20
430.20659978508263
 40
2.6666666666666679
 50
89.999999999999915
 51
179.99999999999983
  0
LINE
  8
_0-b_細線3
  6
CONTINUOUS
 62
    7
 10
576.78637469103887
 20
432.87326645174835
 11
583.45304135770607
 21
432.87326645174835
  0
ARC
  8
_0-b_細線3
  6
CONTINUOUS
 62
    7
 10
562.38637469103901
 20
430.20659978508263
 40
2.6666666666666679
 50
0
 51
89.999999999999915
  0
LINE
  8
_0-b_細線3
  6
CONTINUOUS
 62
    7
 10
562.38637469692526
 20
432.87326645174835
 11
555.71970803025806
 21
432.87326645174835
  0
LINE
  8
_0-b_細線3
  6
CONTINUOUS
 62
    7
 10
562.91970802731566
 20
443.27326645174833
 11
576.25304136064915
 21
443.27326645174833
  0
LINE
  8
_0-b_細線3
  6
CONTINUOUS
 62
    7
 10
574.1197080273156
 20
389.93993311841552
 11
574.11970802437247
 21
430.20659978508263
  0
LINE
  8
_0-b_細線3
  6
CONTINUOUS
 62
    7
 10
565.05304136064854
 20
389.93993311841552
 11
565.05304135770541
 21
430.20659978508263
  0
LINE
  8
_0-b_細線3
  6
CONTINUOUS
 62
    7
 10
565.05304136064854
 20
389.93993311841552
 11
574.1197080273156
 21
389.93993311841552
  0
ARC
  8
_0-b_細線3
  6
CONTINUOUS
 62
    7
 10
536.7863746905814
 20
437.93993311841552
 40
2.6666666666666679
 50
0
 51
89.999999999999915
  0
ARC
  8
_0-b_細線3
  6
CONTINUOUS
 62
    7
 10
535.53851018037426
 20
443.27326645174833
 40
2.6666666666666679
 50
209.9999999999911
 51
269.99999999999977
  0
ARC
  8
_0-b_細線3
  6
CONTINUOUS
 62
    7
 10
530.91970802685728
 20
440.60659978508266
 40
2.6666666666666679
 50
29.999999999990099
 51
89.999999999999901
  0
LINE
  8
_0-b_細線3
  6
CONTINUOUS
 62
    7
 10
536.7863746905814
 20
440.60659978508266
 11
535.53851018037426
 21
440.60659978508266
  0
ARC
  8
_0-b_細線3
  6
CONTINUOUS
 62
    7
 10
511.71970802979968
 20
437.93993311841552
 40
2.6666666666666679
 50
89.999999999999915
 51
179.99999999999983
  0
ARC
  8
_0-b_細線3
  6
CONTINUOUS
 62
    7
 10
512.9675725400075
 20
443.27326645174833
 40
2.6666666666666679
 50
269.99999999999977
 51
330.00000000000819
  0
ARC
  8
_0-b_細線3
  6
CONTINUOUS
 62
    7
 10
517.58637469352448
 20
440.60659978508266
 40
2.6666666666666679
 50
90.000000000014651
 51
150.00000000000992
  0
LINE
  8
_0-b_細線3
  6
CONTINUOUS
 62
    7
 10
511.71970802979968
 20
440.60659978508266
 11
512.9675725400075
 21
440.60659978508266
  0
ARC
  8
_0-b_細線3
  6
CONTINUOUS
 62
    7
 10
538.11970802391488
 20
434.20659978508263
 40
1.3333333333333339
 50
269.99999999999977
 51
359.99999999999966
  0
LINE
  8
_0-b_細線3
  6
CONTINUOUS
 62
    7
 10
539.45304135724768
 20
437.93993311841552
 11
539.45304135724768
 21
434.20659978508263
  0
ARC
  8
_0-b_細線3
  6
CONTINUOUS
 62
    7
 10
510.38637469646687
 20
434.20659978508263
 40
1.3333333333333339
 50
179.99999999999983
 51
269.99999999999977
  0
LINE
  8
_0-b_細線3
  6
CONTINUOUS
 62
    7
 10
509.05304136313407
 20
437.93993311841552
 11
509.05304136313407
 21
434.20659978508263
  0
ARC
  8
_0-b_細線3
  6
CONTINUOUS
 62
    7
 10
531.45304135724768
 20
430.20659978508263
 40
2.6666666666666679
 50
89.999999999999915
 51
179.99999999999983
  0
LINE
  8
_0-b_細線3
  6
CONTINUOUS
 62
    7
 10
531.45304135724768
 20
432.87326645174835
 11
538.11970802391488
 21
432.87326645174835
  0
ARC
  8
_0-b_細線3
  6
CONTINUOUS
 62
    7
 10
517.05304135724782
 20
430.20659978508263
 40
2.6666666666666679
 50
0
 51
89.999999999999915
  0
LINE
  8
_0-b_細線3
  6
CONTINUOUS
 62
    7
 10
517.05304136313407
 20
432.87326645174835
 11
510.38637469646687
 21
432.87326645174835
  0
LINE
  8
_0-b_細線3
  6
CONTINUOUS
 62
    7
 10
517.58637469352448
 20
443.27326645174833
 11
530.91970802685728
 21
443.27326645174833
  0
LINE
  8
_0-b_細線3
  6
CONTINUOUS
 62
    7
 10
528.78637469352452
 20
389.93993311841552
 11
528.7863746905814
 21
430.20659978508263
  0
LINE
  8
_0-b_細線3
  6
CONTINUOUS
 62
    7
 10
519.71970802685723
 20
389.93993311841552
 11
519.71970802391411
 21
430.20659978508263
  0
LINE
  8
_0-b_細線3
  6
CONTINUOUS
 62
    7
 10
519.71970802685723
 20
389.93993311841552
 11
528.78637469352452
 21
389.93993311841552
  0
ARC
  8
_0-b_細線3
  6
CONTINUOUS
 62
    7
 10
491.4530413567901
 20
437.93993311841552
 40
2.6666666666666679
 50
0
 51
89.999999999999915
  0
ARC
  8
_0-b_細線3
  6
CONTINUOUS
 62
    7
 10
490.20517684658307
 20
443.27326645174833
 40
2.6666666666666679
 50
209.99999999998988
 51
269.99999999999977
  0
ARC
  8
_0-b_細線3
  6
CONTINUOUS
 62
    7
 10
485.58637469306609
 20
440.60659978508266
 40
2.6666666666666679
 50
29.999999999991321
 51
89.999999999999901
  0
LINE
  8
_0-b_細線3
  6
CONTINUOUS
 62
    7
 10
491.4530413567901
 20
440.60659978508266
 11
490.20517684658307
 21
440.60659978508266
  0
ARC
  8
_0-b_細線3
  6
CONTINUOUS
 62
    7
 10
466.38637469600849
 20
437.93993311841552
 40
2.6666666666666679
 50
89.999999999999915
 51
179.99999999999983
  0
ARC
  8
_0-b_細線3
  6
CONTINUOUS
 62
    7
 10
467.6342392062154
 20
443.27326645174833
 40
2.6666666666666679
 50
269.99999999999977
 51
330.00000000001063
  0
ARC
  8
_0-b_細線3
  6
CONTINUOUS
 62
    7
 10
472.25304135973249
 20
440.60659978508266
 40
2.6666666666666679
 50
89.999999999999915
 51
150.0000000000087
  0
LINE
  8
_0-b_細線3
  6
CONTINUOUS
 62
    7
 10
466.38637469600849
 20
440.60659978508266
 11
467.6342392062154
 21
440.60659978508266
  0
ARC
  8
_0-b_細線3
  6
CONTINUOUS
 62
    7
 10
492.78637469012301
 20
434.20659978508263
 40
1.3333333333333339
 50
269.99999999999977
 51
359.99999999999966
  0
LINE
  8
_0-b_細線3
  6
CONTINUOUS
 62
    7
 10
494.1197080234565
 20
437.93993311841552
 11
494.1197080234565
 21
434.20659978508263
  0
ARC
  8
_0-b_細線3
  6
CONTINUOUS
 62
    7
 10
465.05304136267569
 20
434.20659978508263
 40
1.3333333333333339
 50
179.99999999999983
 51
269.99999999999977
  0
LINE
  8
_0-b_細線3
  6
CONTINUOUS
 62
    7
 10
463.71970802934197
 20
437.93993311841552
 11
463.71970802934197
 21
434.20659978508263
  0
ARC
  8
_0-b_細線3
  6
CONTINUOUS
 62
    7
 10
486.1197080234565
 20
430.20659978508263
 40
2.6666666666666679
 50
89.999999999999915
 51
179.99999999999983
  0
LINE
  8
_0-b_細線3
  6
CONTINUOUS
 62
    7
 10
486.1197080234565
 20
432.87326645174835
 11
492.78637469012301
 21
432.87326645174835
  0
ARC
  8
_0-b_細線3
  6
CONTINUOUS
 62
    7
 10
471.71970802345652
 20
430.20659978508263
 40
2.6666666666666679
 50
0
 51
89.999999999999915
  0
LINE
  8
_0-b_細線3
  6
CONTINUOUS
 62
    7
 10
471.71970802934277
 20
432.87326645174835
 11
465.05304136267569
 21
432.87326645174835
  0
LINE
  8
_0-b_細線3
  6
CONTINUOUS
 62
    7
 10
472.25304135973249
 20
443.27326645174833
 11
485.58637469306609
 21
443.27326645174833
  0
LINE
  8
_0-b_細線3
  6
CONTINUOUS
 62
    7
 10
483.45304135973242
 20
389.93993311841552
 11
483.4530413567901
 21
430.20659978508263
  0
LINE
  8
_0-b_細線3
  6
CONTINUOUS
 62
    7
 10
474.38637469306605
 20
389.93993311841552
 11
474.38637469012292
 21
430.20659978508263
  0
LINE
  8
_0-b_細線3
  6
CONTINUOUS
 62
    7
 10
474.38637469306605
 20
389.93993311841552
 11
483.45304135973242
 21
389.93993311841552
  0
ARC
  8
_0-b_細線3
  6
CONTINUOUS
 62
    7
 10
1191.1863747078489
 20
437.93993311841552
 40
2.6666666666666679
 50
89.999999999999915
 51
179.99999999999983
  0
ARC
  8
_0-b_細線3
  6
CONTINUOUS
 62
    7
 10
1192.4342392180556
 20
443.27326645174833
 40
2.6666666666666679
 50
269.99999999999977
 51
330.00000000001307
  0
ARC
  8
_0-b_細線3
  6
CONTINUOUS
 62
    7
 10
1197.0530413715719
 20
440.60659978508266
 40
2.6666666666666679
 50
89.999999999999915
 51
149.9999999999977
  0
LINE
  8
_0-b_細線3
  6
CONTINUOUS
 62
    7
 10
1191.1863747078489
 20
440.60659978508266
 11
1192.4342392180556
 21
440.60659978508266
  0
ARC
  8
_0-b_細線3
  6
CONTINUOUS
 62
    7
 10
1216.2530413686295
 20
437.93993311841552
 40
2.6666666666666679
 50
0
 51
89.999999999999915
  0
ARC
  8
_0-b_細線3
  6
CONTINUOUS
 62
    7
 10
1215.0051768584228
 20
443.27326645174833
 40
2.6666666666666679
 50
209.99999999998622
 51
269.99999999999977
  0
ARC
  8
_0-b_細線3
  6
CONTINUOUS
 62
    7
 10
1210.3863747049056
 20
440.60659978508266
 40
2.6666666666666679
 50
29.999999999992543
 51
89.99999999998046
  0
LINE
  8
_0-b_細線3
  6
CONTINUOUS
 62
    7
 10
1216.2530413686295
 20
440.60659978508266
 11
1215.0051768584228
 21
440.60659978508266
  0
ARC
  8
_0-b_細線3
  6
CONTINUOUS
 62
    7
 10
1189.853041374515
 20
434.20659978508263
 40
1.3333333333333339
 50
179.99999999999983
 51
269.99999999999977
  0
LINE
  8
_0-b_細線3
  6
CONTINUOUS
 62
    7
 10
1188.5197080411822
 20
437.93993311841552
 11
1188.5197080411822
 21
434.20659978508263
  0
ARC
  8
_0-b_細線3
  6
CONTINUOUS
 62
    7
 10
1217.5863747019632
 20
434.20659978508263
 40
1.3333333333333339
 50
269.99999999999977
 51
359.99999999999966
  0
LINE
  8
_0-b_細線3
  6
CONTINUOUS
 62
    7
 10
1218.9197080352963
 20
437.93993311841552
 11
1218.9197080352963
 21
434.20659978508263
  0
ARC
  8
_0-b_細線3
  6
CONTINUOUS
 62
    7
 10
1196.5197080411822
 20
430.20659978508263
 40
2.6666666666666679
 50
0
 51
89.999999999999915
  0
LINE
  8
_0-b_細線3
  6
CONTINUOUS
 62
    7
 10
1196.5197080411822
 20
432.87326645174835
 11
1189.853041374515
 21
432.87326645174835
  0
ARC
  8
_0-b_細線3
  6
CONTINUOUS
 62
    7
 10
1210.9197080411825
 20
430.20659978508263
 40
2.6666666666666679
 50
89.999999999999915
 51
179.99999999999983
  0
LINE
  8
_0-b_細線3
  6
CONTINUOUS
 62
    7
 10
1210.9197080352963
 20
432.87326645174835
 11
1217.5863747019632
 21
432.87326645174835
  0
LINE
  8
_0-b_細線3
  6
CONTINUOUS
 62
    7
 10
1210.3863747049056
 20
443.27326645174833
 11
1197.0530413715719
 21
443.27326645174833
  0
LINE
  8
_0-b_細線3
  6
CONTINUOUS
 62
    7
 10
1199.1863747049058
 20
389.93993311841552
 11
1199.1863747078489
 21
430.20659978508263
  0
LINE
  8
_0-b_細線3
  6
CONTINUOUS
 62
    7
 10
1208.2530413715726
 20
389.93993311841552
 11
1208.2530413745158
 21
430.20659978508263
  0
LINE
  8
_0-b_細線3
  6
CONTINUOUS
 62
    7
 10
1208.2530413715726
 20
389.93993311841552
 11
1199.1863747049058
 21
389.93993311841552
  0
ARC
  8
_0-b_細線3
  6
CONTINUOUS
 62
    7
 10
421.58637469784048
 20
437.93993311841552
 40
2.6666666666666679
 50
89.999999999999915
 51
179.99999999999983
  0
ARC
  8
_0-b_細線3
  6
CONTINUOUS
 62
    7
 10
422.83423920804682
 20
443.27326645174833
 40
2.6666666666666679
 50
269.99999999999977
 51
330.00000000000938
  0
ARC
  8
_0-b_細線3
  6
CONTINUOUS
 62
    7
 10
427.45304136156392
 20
440.60659978508266
 40
2.6666666666666679
 50
89.999999999999915
 51
150.00000000000992
  0
LINE
  8
_0-b_細線3
  6
CONTINUOUS
 62
    7
 10
421.58637469784048
 20
440.60659978508266
 11
422.83423920804682
 21
440.60659978508266
  0
ARC
  8
_0-b_細線3
  6
CONTINUOUS
 62
    7
 10
446.65304135862152
 20
437.93993311841552
 40
2.6666666666666679
 50
0
 51
89.999999999999915
  0
ARC
  8
_0-b_細線3
  6
CONTINUOUS
 62
    7
 10
445.40517684841518
 20
443.27326645174833
 40
2.6666666666666679
 50
209.99999999998988
 51
269.99999999999977
  0
ARC
  8
_0-b_細線3
  6
CONTINUOUS
 62
    7
 10
440.78637469489809
 20
440.60659978508266
 40
2.6666666666666679
 50
29.999999999990099
 51
89.999999999999901
  0
LINE
  8
_0-b_細線3
  6
CONTINUOUS
 62
    7
 10
446.65304135862152
 20
440.60659978508266
 11
445.40517684841518
 21
440.60659978508266
  0
ARC
  8
_0-b_細線3
  6
CONTINUOUS
 62
    7
 10
420.25304136450768
 20
434.20659978508263
 40
1.3333333333333339
 50
179.99999999999983
 51
269.99999999999977
  0
LINE
  8
_0-b_細線3
  6
CONTINUOUS
 62
    7
 10
418.9197080311734
 20
437.93993311841552
 11
418.9197080311734
 21
434.20659978508263
  0
ARC
  8
_0-b_細線3
  6
CONTINUOUS
 62
    7
 10
447.98637469195569
 20
434.20659978508263
 40
1.3333333333333339
 50
269.99999999999977
 51
359.99999999999966
  0
LINE
  8
_0-b_細線3
  6
CONTINUOUS
 62
    7
 10
449.31970802528861
 20
437.93993311841552
 11
449.31970802528861
 21
434.20659978508263
  0
ARC
  8
_0-b_細線3
  6
CONTINUOUS
 62
    7
 10
426.9197080311734
 20
430.20659978508263
 40
2.6666666666666679
 50
0
 51
89.999999999999915
  0
LINE
  8
_0-b_細線3
  6
CONTINUOUS
 62
    7
 10
426.9197080311734
 20
432.87326645174835
 11
420.25304136450768
 21
432.87326645174835
  0
ARC
  8
_0-b_細線3
  6
CONTINUOUS
 62
    7
 10
441.31970803117486
 20
430.20659978508263
 40
2.6666666666666679
 50
89.999999999999915
 51
179.99999999999983
  0
LINE
  8
_0-b_細線3
  6
CONTINUOUS
 62
    7
 10
441.31970802528861
 20
432.87326645174835
 11
447.98637469195569
 21
432.87326645174835
  0
LINE
  8
_0-b_細線3
  6
CONTINUOUS
 62
    7
 10
440.78637469489809
 20
443.27326645174833
 11
427.45304136156392
 21
443.27326645174833
  0
LINE
  8
_0-b_細線3
  6
CONTINUOUS
 62
    7
 10
429.58637469489815
 20
389.93993311841552
 11
429.58637469784048
 21
430.20659978508263
  0
LINE
  8
_0-b_細線3
  6
CONTINUOUS
 62
    7
 10
438.65304136156385
 20
389.93993311841552
 11
438.65304136450777
 21
430.20659978508263
  0
LINE
  8
_0-b_細線3
  6
CONTINUOUS
 62
    7
 10
438.65304136156385
 20
389.93993311841552
 11
429.58637469489815
 21
389.93993311841552
  0
LINE
  8
_0-d_寸法3
  6
CONTINUOUS
 62
    7
 10
932.25304136831755
 20
459.27326645174833
 11
932.25304136831755
 21
525.93993311841552
  0
LINE
  8
_0-d_寸法3
  6
CONTINUOUS
 62
    7
 10
932.25304136831755
 20
517.93993311841552
 11
947.70785458894261
 21
522.08103784005584
  0
LINE
  8
_0-d_寸法3
  6
CONTINUOUS
 62
    7
 10
932.25304136831755
 20
517.93993311841552
 11
947.70785458894261
 21
513.79882839677521
  0
LINE
  8
_0-d_寸法3
  6
CONTINUOUS
 62
    7
 10
977.58637470261579
 20
459.27326645174833
 11
977.58637470261579
 21
525.93993311841552
  0
LINE
  8
_0-d_寸法3
  6
CONTINUOUS
 62
    7
 10
977.58637470261579
 20
517.93993311841552
 11
962.13156148199073
 21
513.79882839677521
  0
LINE
  8
_0-d_寸法3
  6
CONTINUOUS
 62
    7
 10
977.58637470261579
 20
517.93993311841552
 11
962.13156148199073
 21
522.08103784005596
  0
LINE
  8
_0-d_寸法3
  6
CONTINUOUS
 62
    7
 10
932.25304136831755
 20
517.93993311841552
 11
977.58637470261579
 21
517.93993311841552
  0
TEXT
  8
_0-d_寸法3
 62
    7
 10
929.07014436729855
 20
493.93993311841552
 40
24
 41
1
 50
0
  1
(17)
  0
LINE
  8
_0-d_寸法3
  6
CONTINUOUS
 62
    7
 10
977.58637470261579
 20
517.93993311841552
 11
993.04118792324095
 21
522.08103784005573
  0
LINE
  8
_0-d_寸法3
  6
CONTINUOUS
 62
    7
 10
977.58637470261579
 20
517.93993311841552
 11
993.04118792324084
 21
513.79882839677509
  0
LINE
  8
_0-d_寸法3
  6
CONTINUOUS
 62
    7
 10
1022.9197080369138
 20
459.27326645174833
 11
1022.9197080369138
 21
525.93993311841552
  0
LINE
  8
_0-d_寸法3
  6
CONTINUOUS
 62
    7
 10
1022.9197080369138
 20
517.93993311841552
 11
1007.4648948162887
 21
513.79882839677521
  0
LINE
  8
_0-d_寸法3
  6
CONTINUOUS
 62
    7
 10
1022.9197080369138
 20
517.93993311841552
 11
1007.4648948162887
 21
522.08103784005596
  0
LINE
  8
_0-d_寸法3
  6
CONTINUOUS
 62
    7
 10
977.58637470261579
 20
517.93993311841552
 11
1022.9197080369138
 21
517.93993311841552
  0
TEXT
  8
_0-d_寸法3
 62
    7
 10
977.71014436729865
 20
517.93993311841552
 40
24
 41
1
 50
0
  1
(17)
  0
LINE
  8
_0-d_寸法3
  6
CONTINUOUS
 62
    7
 10
630.11970802528845
 20
453.93993311841552
 11
630.11970802528845
 21
525.93993311841552
  0
LINE
  8
_0-d_寸法3
  6
CONTINUOUS
 62
    7
 10
630.11970802528845
 20
517.93993311841552
 11
614.66489480466339
 21
513.79882839677521
  0
LINE
  8
_0-d_寸法3
  6
CONTINUOUS
 62
    7
 10
630.11970802528845
 20
517.93993311841552
 11
614.66489480466339
 21
522.08103784005596
  0
LINE
  8
_0-d_寸法3
  6
CONTINUOUS
 62
    7
 10
645.05304136547238
 20
453.93993311841552
 11
645.05304136547238
 21
525.93993311841552
  0
LINE
  8
_0-d_寸法3
  6
CONTINUOUS
 62
    7
 10
567.12137893222132
 20
517.93993311841552
 11
645.05304136547238
 21
517.93993311841552
  0
TEXT
  8
_0-d_寸法3
 62
    7
 10
567.12137893222143
 20
493.93993311841552
 40
24
 41
1
 50
0
  1
(5.6)
  0
LINE
  8
_0-d_寸法3
  6
CONTINUOUS
 62
    7
 10
645.05304136547238
 20
517.93993311841552
 11
660.50785458609744
 21
522.08103784005584
  0
LINE
  8
_0-d_寸法3
  6
CONTINUOUS
 62
    7
 10
645.05304136547238
 20
517.93993311841552
 11
660.50785458609744
 21
513.79882839677521
  0
LINE
  8
_0-d_寸法3
  6
CONTINUOUS
 62
    7
 10
675.45304135958611
 20
453.93993311841552
 11
675.45304135958611
 21
525.93993311841552
  0
LINE
  8
_0-d_寸法3
  6
CONTINUOUS
 62
    7
 10
675.45304135958611
 20
517.93993311841552
 11
659.99822813896105
 21
513.79882839677521
  0
LINE
  8
_0-d_寸法3
  6
CONTINUOUS
 62
    7
 10
675.45304135958611
 20
517.93993311841552
 11
659.99822813896105
 21
522.08103784005596
  0
LINE
  8
_0-d_寸法3
  6
CONTINUOUS
 62
    7
 10
645.05304136547238
 20
517.93993311841552
 11
675.45304135958611
 21
517.93993311841552
  0
TEXT
  8
_0-d_寸法3
 62
    7
 10
630.22952708036939
 20
517.93993311841552
 40
24
 41
1
 50
0
  1
11.4
  0
LINE
  8
_0-d_寸法3
  6
CONTINUOUS
 62
    7
 10
783.14660865679912
 20
399.11715610003216
 11
726.58286189570219
 21
438.72351797153669
  0
LINE
  8
_0-d_寸法3
  6
CONTINUOUS
 62
    7
 10
733.13607825001418
 20
434.13490648072838
 11
728.99497352837386
 21
449.58971970135349
  0
LINE
  8
_0-d_寸法3
  6
CONTINUOUS
 62
    7
 10
733.13607825001418
 20
434.13490648072838
 11
737.2771829716545
 21
449.58971970135349
  0
LINE
  8
_0-d_寸法3
  6
CONTINUOUS
 62
    7
 10
783.14660865679934
 20
452.45048943336519
 11
726.58286189570231
 21
492.05685130487115
  0
LINE
  8
_0-d_寸法3
  6
CONTINUOUS
 62
    7
 10
733.13607825001418
 20
487.46823981406271
 11
737.27718297165438
 21
472.0134265934376
  0
LINE
  8
_0-d_寸法3
  6
CONTINUOUS
 62
    7
 10
733.13607825001418
 20
487.46823981406271
 11
728.99497352837375
 21
472.01342659343766
  0
LINE
  8
_0-d_寸法3
  6
CONTINUOUS
 62
    7
 10
733.13607825001418
 20
434.13490648072838
 11
733.13607825001418
 21
487.46823981406271
  0
TEXT
  8
_0-d_寸法3
 62
    7
 10
733.13607825001418
 20
448.80157314739552
 40
24
 41
1
 50
90
  1
20
  0
LINE
  8
_0-d_寸法3
  6
CONTINUOUS
 62
    7
 10
485.58637469875657
 20
373.94051712110013
 11
485.58637469875657
 21
277.17567674631869
  0
LINE
  8
_0-d_寸法3
  6
CONTINUOUS
 62
    7
 10
485.58637469875657
 20
285.17567674631869
 11
501.04118791938163
 21
289.31678146795889
  0
LINE
  8
_0-d_寸法3
  6
CONTINUOUS
 62
    7
 10
485.58637469875657
 20
285.17567674631869
 11
501.04118791938163
 21
281.03457202467825
  0
LINE
  8
_0-d_寸法3
  6
CONTINUOUS
 62
    7
 10
1152.2530413654233
 20
373.94051712110013
 11
1152.2530413654233
 21
277.17567674631869
  0
LINE
  8
_0-d_寸法3
  6
CONTINUOUS
 62
    7
 10
1152.2530413654233
 20
285.17567674631869
 11
1136.7982281447983
 21
281.03457202467837
  0
LINE
  8
_0-d_寸法3
  6
CONTINUOUS
 62
    7
 10
1152.2530413654233
 20
285.17567674631869
 11
1136.7982281447983
 21
289.316781467959
  0
LINE
  8
_0-d_寸法3
  6
CONTINUOUS
 62
    7
 10
485.58637469875657
 20
285.17567674631869
 11
1152.2530413654233
 21
285.17567674631869
  0
TEXT
  8
_0-d_寸法3
 62
    7
 10
800.91970803209006
 20
285.17567674631869
 40
24
 41
1
 50
0
  1
250
  0
LINE
  8
_0-a_極細3
  6
CONTINUOUS
 62
    7
 10
335.7622655459802
 20
301.75123898110542
 11
327.55378210616379
 21
324.30386187996771
  0
LINE
  8
_0-a_極細3
  6
CONTINUOUS
 62
    7
 10
415.75273382405453
 20
356.40565499876175
 11
423.96121726387014
 21
333.85303209989945
  0
LINE
  8
_0-a_極細3
  6
CONTINUOUS
 62
    7
 10
327.55378210616379
 20
324.30386187996771
 11
415.75273382405453
 21
356.40565499876175
  0
LINE
  8
_0-a_極細3
  6
CONTINUOUS
 62
    7
 10
335.7622655459802
 20
301.75123898110542
 11
423.96121726387014
 21
333.85303209989945
  0
LINE
  8
_0-a_極細3
  6
CENTER1
 62
    7
 10
323.72933039888358
 20
310.1417423664891
 11
426.17896317098894
 21
347.43035914254506
  0
LINE
  8
_0-a_極細3
  6
CONTINUOUS
 62
    7
 10
365.58637469875669
 20
261.94051712110013
 11
365.58637469875669
 21
332.4774152784056
  0
LINE
  8
_0-a_極細3
  6
CONTINUOUS
 62
    7
 10
365.58637469875669
 20
332.4774152784056
 11
341.58637469875669
 21
332.4774152784056
  0
LINE
  8
_0-a_極細3
  6
CONTINUOUS
 62
    7
 10
341.58637469875669
 20
332.4774152784056
 11
341.58637469875669
 21
261.94051712110013
  0
LINE
  8
_0-a_極細3
  6
CENTER1
 62
    7
 10
353.58637469875669
 20
248.69773266597554
 11
353.58637469875669
 21
339.31856754178079
  0
LINE
  8
_0-d_寸法3
  6
CONTINUOUS
 62
    7
 10
389.5863746987568
 20
381.94051712110019
 11
316.06632497301371
 21
381.94051712110013
  0
LINE
  8
_0-d_寸法3
  6
CONTINUOUS
 62
    7
 10
324.06632497301371
 20
381.94051712110013
 11
328.20742969465391
 21
366.48570390047502
  0
LINE
  8
_0-d_寸法3
  6
CONTINUOUS
 62
    7
 10
324.06632497301371
 20
381.94051712110013
 11
319.92522025137328
 21
366.48570390047507
  0
LINE
  8
_0-d_寸法3
  6
CONTINUOUS
 62
    7
 10
386.38637469875675
 20
320.60718378776664
 11
316.06632497301393
 21
320.60718378776653
  0
LINE
  8
_0-d_寸法3
  6
CONTINUOUS
 62
    7
 10
324.06632497301393
 20
320.60718378776653
 11
319.9252202513735
 21
336.06199700839159
  0
LINE
  8
_0-d_寸法3
  6
CONTINUOUS
 62
    7
 10
324.06632497301393
 20
320.60718378776653
 11
328.20742969465414
 21
336.06199700839164
  0
LINE
  8
_0-d_寸法3
  6
CONTINUOUS
 62
    7
 10
324.06632497301371
 20
381.94051712110013
 11
324.06632497301393
 21
320.60718378776653
  0
TEXT
  8
_0-d_寸法3
 62
    7
 10
324.06632497301382
 20
339.27385045443305
 40
24
 41
1
 50
90
  1
23
  0
LINE
  8
_0-d_寸法3
  6
CONTINUOUS
 62
    7
 10
405.58637469875634
 20
304.60718378776733
 11
405.58637469875612
 21
277.17567674631789
  0
LINE
  8
_0-d_寸法3
  6
CONTINUOUS
 62
    7
 10
405.58637469875623
 20
285.17567674631789
 11
421.0411879193814
 21
289.31678146795821
  0
LINE
  8
_0-d_寸法3
  6
CONTINUOUS
 62
    7
 10
405.58637469875623
 20
285.17567674631789
 11
421.0411879193814
 21
281.03457202467757
  0
LINE
  8
_0-d_寸法3
  6
CONTINUOUS
 62
    7
 10
485.58637469875634
 20
365.94051712110013
 11
485.58637469875566
 21
277.17567674631789
  0
LINE
  8
_0-d_寸法3
  6
CONTINUOUS
 62
    7
 10
485.58637469875566
 20
285.17567674631789
 11
470.13156147813061
 21
281.03457202467757
  0
LINE
  8
_0-d_寸法3
  6
CONTINUOUS
 62
    7
 10
485.58637469875566
 20
285.17567674631789
 11
470.13156147813061
 21
289.31678146795821
  0
LINE
  8
_0-d_寸法3
  6
CONTINUOUS
 62
    7
 10
405.58637469875623
 20
285.17567674631789
 11
485.58637469875566
 21
285.17567674631789
  0
TEXT
  8
_0-d_寸法3
 62
    7
 10
433.58637469875589
 20
285.17567674631789
 40
24
 41
1
 50
0
  1
30
  0
LINE
  8
_0-d_寸法3
  6
CONTINUOUS
 62
    7
 10
389.58637469875657
 20
443.27385045443378
 11
316.06632497301348
 21
443.27385045443373
  0
LINE
  8
_0-d_寸法3
  6
CONTINUOUS
 62
    7
 10
324.06632497301348
 20
443.27385045443373
 11
328.20742969465368
 21
427.81903723380861
  0
LINE
  8
_0-d_寸法3
  6
CONTINUOUS
 62
    7
 10
324.06632497301348
 20
443.27385045443373
 11
319.92522025137305
 21
427.81903723380867
  0
LINE
  8
_0-d_寸法3
  6
CONTINUOUS
 62
    7
 10
386.38637469875653
 20
381.94051712110019
 11
316.06632497301371
 21
381.94051712110013
  0
LINE
  8
_0-d_寸法3
  6
CONTINUOUS
 62
    7
 10
324.06632497301371
 20
381.94051712110013
 11
319.92522025137328
 21
397.39533034172518
  0
LINE
  8
_0-d_寸法3
  6
CONTINUOUS
 62
    7
 10
324.06632497301371
 20
381.94051712110013
 11
328.20742969465391
 21
397.39533034172524
  0
LINE
  8
_0-d_寸法3
  6
CONTINUOUS
 62
    7
 10
324.06632497301348
 20
443.27385045443373
 11
324.06632497301371
 21
381.94051712110013
  0
TEXT
  8
_0-d_寸法3
 62
    7
 10
324.06632497301359
 20
400.60718378776653
 40
24
 41
1
 50
90
  1
23
  0
LINE
  8
_0-a_極細3
  6
CONTINUOUS
 62
    7
 10
1302.0771505182001
 20
301.75123898110542
 11
1310.2856339580164
 21
324.30386187996771
  0
LINE
  8
_0-a_極細3
  6
CONTINUOUS
 62
    7
 10
1222.0866822401258
 20
356.40565499876175
 11
1213.8781988003102
 21
333.85303209989945
  0
LINE
  8
_0-a_極細3
  6
CONTINUOUS
 62
    7
 10
1310.2856339580164
 20
324.30386187996771
 11
1222.0866822401258
 21
356.40565499876175
  0
LINE
  8
_0-a_極細3
  6
CONTINUOUS
 62
    7
 10
1302.0771505182001
 20
301.75123898110542
 11
1213.8781988003102
 21
333.85303209989945
  0
LINE
  8
_0-a_極細3
  6
CENTER1
 62
    7
 10
1314.1100856652968
 20
310.1417423664891
 11
1211.6604528931914
 21
347.43035914254506
  0
LINE
  8
_0-a_極細3
  6
CONTINUOUS
 62
    7
 10
1272.2530413654235
 20
261.94051712110013
 11
1272.2530413654235
 21
332.4774152784056
  0
LINE
  8
_0-a_極細3
  6
CONTINUOUS
 62
    7
 10
1296.2530413654235
 20
332.4774152784056
 11
1296.2530413654235
 21
261.94051712110013
  0
LINE
  8
_0-a_極細3
  6
CENTER1
 62
    7
 10
1284.2530413654235
 20
248.69773266597554
 11
1284.2530413654235
 21
339.31856754178079
  0
LINE
  8
_0-d_寸法3
  6
CONTINUOUS
 62
    7
 10
1232.253041365424
 20
304.60718378776733
 11
1232.2530413654242
 21
277.17567674631789
  0
LINE
  8
_0-d_寸法3
  6
CONTINUOUS
 62
    7
 10
1232.2530413654242
 20
285.17567674631789
 11
1216.7982281447992
 21
281.03457202467757
  0
LINE
  8
_0-d_寸法3
  6
CONTINUOUS
 62
    7
 10
1232.2530413654242
 20
285.17567674631789
 11
1216.7982281447992
 21
289.31678146795821
  0
LINE
  8
_0-d_寸法3
  6
CONTINUOUS
 62
    7
 10
1152.2530413654238
 20
365.94051712110013
 11
1152.2530413654245
 21
277.17567674631789
  0
LINE
  8
_0-d_寸法3
  6
CONTINUOUS
 62
    7
 10
1152.2530413654245
 20
285.17567674631789
 11
1167.7078545860495
 21
289.31678146795821
  0
LINE
  8
_0-d_寸法3
  6
CONTINUOUS
 62
    7
 10
1152.2530413654245
 20
285.17567674631789
 11
1167.7078545860495
 21
281.03457202467757
  0
LINE
  8
_0-d_寸法3
  6
CONTINUOUS
 62
    7
 10
1232.2530413654242
 20
285.17567674631789
 11
1152.2530413654245
 21
285.17567674631789
  0
TEXT
  8
_0-d_寸法3
 62
    7
 10
1180.2530413654242
 20
285.17567674631778
 40
24
 41
1
 50
0.0000000000005428
  1
30
  0
LINE
  8
_0-a_極細3
  6
CONTINUOUS
 62
    7
 10
1272.2530413654235
 20
332.4774152784056
 11
1296.2530413654235
 21
332.4774152784056
  0
CIRCLE
  8
_0-a_極細3
  6
CONTINUOUS
 62
    7
 10
1307.3378689514382
 20
341.27881329392915
 40
0.884938271604915
  0
CIRCLE
  8
_0-a_極細3
  6
CONTINUOUS
 62
    7
 10
1275.9778689514387
 20
350.2388132939297
 40
0.884938271604915
  0
TEXT
  8
_0-7_枠細線
 62
    5
 10
739.04443180931594
 20
149.93993311841552
 40
40
 41
0.8
 50
0
  1
断面詳細図
  0
LINE
  8
_0-a_極細3
  6
CENTER1
 62
    7
 10
1229.2454807713868
 20
413.40659978508165
 11
402.93998678749244
 21
413.40659978508165
  0
LINE
  8
_0-b_細線3
  6
CONTINUOUS
 62
    7
 10
891.45304136882487
 20
396.07326645174805
 11
927.71970803549061
 21
396.07326645174805
  0
LINE
  8
_0-b_細線3
  6
CONTINUOUS
 62
    7
 10
846.11970803452596
 20
396.07326645174805
 11
882.38637470119295
 21
396.07326645174805
  0
LINE
  8
_0-b_細線3
  6
CONTINUOUS
 62
    7
 10
755.45304136592995
 20
396.07326645174805
 11
791.71970803259637
 21
396.07326645174805
  0
LINE
  8
_0-b_細線3
  6
CONTINUOUS
 62
    7
 10
710.11970803163217
 20
396.07326645174805
 11
746.3863746982986
 21
396.07326645174805
  0
LINE
  8
_0-b_細線3
  6
CONTINUOUS
 62
    7
 10
664.78637469733303
 20
396.07326645174805
 11
701.05304136400025
 21
396.07326645174805
  0
LINE
  8
_0-b_細線3
  6
CONTINUOUS
 62
    7
 10
936.78637470261469
 20
396.07326645174805
 11
973.0530413692818
 21
396.07326645174805
  0
LINE
  8
_0-b_細線3
  6
CONTINUOUS
 62
    7
 10
982.11970803691395
 20
396.07326645174805
 11
1018.3863747035809
 21
396.07326645174805
  0
LINE
  8
_0-b_細線3
  6
CONTINUOUS
 62
    7
 10
619.45304136399955
 20
396.07326645174805
 11
655.71970803066665
 21
396.07326645174805
  0
LINE
  8
_0-b_細線3
  6
CONTINUOUS
 62
    7
 10
1027.453041370705
 20
396.07326645174805
 11
1063.7197080373721
 21
396.07326645174805
  0
LINE
  8
_0-b_細線3
  6
CONTINUOUS
 62
    7
 10
1072.7863747044962
 20
396.07326645174805
 11
1109.0530413711635
 21
396.07326645174805
  0
LINE
  8
_0-b_細線3
  6
CONTINUOUS
 62
    7
 10
1118.1197080382876
 20
396.07326645174805
 11
1154.3863747049547
 21
396.07326645174805
  0
LINE
  8
_0-b_細線3
  6
CONTINUOUS
 62
    7
 10
610.38637469347464
 20
396.07326645174805
 11
574.11970802680821
 21
396.07326645174805
  0
LINE
  8
_0-b_細線3
  6
CONTINUOUS
 62
    7
 10
565.05304135968345
 20
396.07326645174805
 11
528.78637469301623
 21
396.07326645174805
  0
LINE
  8
_0-b_細線3
  6
CONTINUOUS
 62
    7
 10
519.71970802589215
 20
396.07326645174805
 11
483.45304135922493
 21
396.07326645174805
  0
LINE
  8
_0-b_細線3
  6
CONTINUOUS
 62
    7
 10
1163.4530413720788
 20
396.07326645174805
 11
1199.1863747054133
 21
396.07326645174805
  0
LINE
  8
_0-b_細線3
  6
CONTINUOUS
 62
    7
 10
474.38637469210084
 20
396.07326645174805
 11
438.65304135876806
 21
396.07326645174805
  0
LINE
  8
_0-b_細線3
  6
CONTINUOUS
 62
    7
 10
891.45304136882453
 20
430.73993311841457
 11
927.71970803549095
 21
430.73993311841457
  0
LINE
  8
_0-b_細線3
  6
CONTINUOUS
 62
    7
 10
846.11970803452607
 20
430.73993311841457
 11
882.38637470119261
 21
430.73993311841457
  0
LINE
  8
_0-b_細線3
  6
CONTINUOUS
 62
    7
 10
755.45304136593006
 20
430.73993311841457
 11
791.71970803259649
 21
430.73993311841457
  0
LINE
  8
_0-b_細線3
  6
CONTINUOUS
 62
    7
 10
710.1197080316324
 20
430.73993311841457
 11
746.38637469829882
 21
430.73993311841457
  0
LINE
  8
_0-b_細線3
  6
CONTINUOUS
 62
    7
 10
664.78637469733337
 20
430.73993311841457
 11
701.05304136400048
 21
430.73993311841457
  0
LINE
  8
_0-b_細線3
  6
CONTINUOUS
 62
    7
 10
936.78637470261503
 20
430.73993311841457
 11
973.05304136928237
 21
430.73993311841457
  0
LINE
  8
_0-b_細線3
  6
CONTINUOUS
 62
    7
 10
982.11970803691338
 20
430.73993311841457
 11
1018.3863747035806
 21
430.73993311841457
  0
LINE
  8
_0-b_細線3
  6
CONTINUOUS
 62
    7
 10
619.45304136399977
 20
430.73993311841457
 11
655.71970803066688
 21
430.73993311841457
  0
LINE
  8
_0-b_細線3
  6
CONTINUOUS
 62
    7
 10
1027.453041370705
 20
430.73993311841457
 11
1063.7197080373717
 21
430.73993311841457
  0
LINE
  8
_0-b_細線3
  6
CONTINUOUS
 62
    7
 10
1072.7863747044967
 20
430.73993311841457
 11
1109.0530413711635
 21
430.73993311841457
  0
LINE
  8
_0-b_細線3
  6
CONTINUOUS
 62
    7
 10
1118.1197080382879
 20
430.73993311841457
 11
1154.386374704955
 21
430.73993311841457
  0
LINE
  8
_0-b_細線3
  6
CONTINUOUS
 62
    7
 10
610.38637469347486
 20
430.73993311841457
 11
574.11970802680855
 21
430.73993311841457
  0
LINE
  8
_0-b_細線3
  6
CONTINUOUS
 62
    7
 10
565.05304135968368
 20
430.73993311841457
 11
528.78637469301657
 21
430.73993311841457
  0
LINE
  8
_0-b_細線3
  6
CONTINUOUS
 62
    7
 10
519.71970802589249
 20
430.73993311841457
 11
483.45304135922538
 21
430.73993311841457
  0
LINE
  8
_0-b_細線3
  6
CONTINUOUS
 62
    7
 10
1163.453041372079
 20
430.73993311841457
 11
1199.1863747054126
 21
430.73993311841457
  0
LINE
  8
_0-b_細線3
  6
CONTINUOUS
 62
    7
 10
474.3863746921013
 20
430.73993311841457
 11
438.65304135876772
 21
430.73993311841457
  0
ARC
  8
_0-b_細線3
  6
CONTINUOUS
 62
    7
 10
426.12838002675926
 20
396.60659978508232
 40
0.5333333333333335
 50
179.99999999999983
 51
269.99999999999977
  0
LINE
  8
_0-b_細線3
  6
CONTINUOUS
 62
    7
 10
429.58637469342648
 20
396.07326645174874
 11
426.12838002675926
 21
396.07326645174874
  0
ARC
  8
_0-b_細線3
  6
CONTINUOUS
 62
    7
 10
426.12838002675926
 20
430.20659978508172
 40
0.5333333333333335
 50
89.999999999999915
 51
179.99999999999983
  0
LINE
  8
_0-b_細線3
  6
CONTINUOUS
 62
    7
 10
429.58637469342648
 20
430.73993311841593
 11
426.12838002675926
 21
430.73993311841593
  0
LINE
  8
_0-b_細線3
  6
CONTINUOUS
 62
    7
 10
425.59504669342527
 20
412.07326645174879
 11
425.59504669342527
 21
396.60659978508232
  0
LINE
  8
_0-b_細線3
  6
CONTINUOUS
 62
    7
 10
425.59504669342527
 20
430.20659978508172
 11
425.59504669342527
 21
412.07326645174879
  0
LINE
  8
_0-b_細線3
  6
CONTINUOUS
 62
    7
 10
425.59504669342527
 20
413.40659978508165
 11
417.58300402675843
 21
413.40659978508165
  0
LINE
  8
_0-b_細線3
  6
CONTINUOUS
 62
    7
 10
425.59504669342527
 20
404.07326645174953
 11
417.58297202675999
 21
404.07326645174953
  0
ARC
  8
_0-b_細線3
  6
CONTINUOUS
 62
    7
 10
417.58297202675999
 20
404.60659978508238
 40
0.5333333333333335
 50
179.99999999999983
 51
269.99999999999977
  0
ARC
  8
_0-b_細線3
  6
CONTINUOUS
 62
    7
 10
437.73758536009223
 20
408.73954378508324
 40
20.687882666666667
 50
166.96197800000505
 51
193.03566999999961
  0
ARC
  8
_0-b_細線3
  6
CONTINUOUS
 62
    7
 10
417.58297202675999
 20
422.20659978508309
 40
0.5333333333333335
 50
89.999999999999915
 51
179.99999999999983
  0
ARC
  8
_0-b_細線3
  6
CONTINUOUS
 62
    7
 10
437.73758536009223
 20
418.07365045174856
 40
20.687882666666667
 50
166.96433000000002
 51
193.03802199999856
  0
LINE
  8
_0-b_細線3
  6
CONTINUOUS
 62
    7
 10
425.59504669342527
 20
422.73993311841593
 11
417.58297202675999
 21
422.73993311841593
  0
LINE
  8
_0-b_細線3
  6
CONTINUOUS
 62
    7
 10
417.04963869342566
 20
404.60659978508238
 11
417.04963869342566
 21
422.20659978508309
  0
ARC
  8
_0-b_細線3
  6
CONTINUOUS
 62
    7
 10
1211.7110360374211
 20
396.60659978508232
 40
0.5333333333333335
 50
269.99999999999977
 51
359.99999999999966
  0
LINE
  8
_0-b_細線3
  6
CONTINUOUS
 62
    7
 10
1208.2530413707539
 20
396.07326645174874
 11
1211.7110360374211
 21
396.07326645174874
  0
ARC
  8
_0-b_細線3
  6
CONTINUOUS
 62
    7
 10
1211.7110360374211
 20
430.20659978508172
 40
0.5333333333333335
 50
0
 51
89.999999999999915
  0
LINE
  8
_0-b_細線3
  6
CONTINUOUS
 62
    7
 10
1208.2530413707539
 20
430.73993311841593
 11
1211.7110360374211
 21
430.73993311841593
  0
LINE
  8
_0-b_細線3
  6
CONTINUOUS
 62
    7
 10
1212.2443693707548
 20
412.07326645174879
 11
1212.2443693707548
 21
396.60659978508232
  0
LINE
  8
_0-b_細線3
  6
CONTINUOUS
 62
    7
 10
1212.2443693707548
 20
430.20659978508172
 11
1212.2443693707548
 21
412.07326645174879
  0
LINE
  8
_0-b_細線3
  6
CONTINUOUS
 62
    7
 10
1212.2443693707548
 20
413.40659978508165
 11
1220.256412037422
 21
413.40659978508165
  0
LINE
  8
_0-b_細線3
  6
CONTINUOUS
 62
    7
 10
1212.2443693707548
 20
404.07326645174953
 11
1220.2564440374201
 21
404.07326645174953
  0
ARC
  8
_0-b_細線3
  6
CONTINUOUS
 62
    7
 10
1220.2564440374201
 20
404.60659978508238
 40
0.5333333333333335
 50
269.99999999999977
 51
359.99999999999966
  0
ARC
  8
_0-b_細線3
  6
CONTINUOUS
 62
    7
 10
1200.1018307040879
 20
408.73954378508324
 40
20.687882666666667
 50
346.96432999999968
 51
13.038021999994573
  0
ARC
  8
_0-b_細線3
  6
CONTINUOUS
 62
    7
 10
1220.2564440374201
 20
422.20659978508309
 40
0.5333333333333335
 50
0
 51
89.999999999999915
  0
ARC
  8
_0-b_細線3
  6
CONTINUOUS
 62
    7
 10
1200.1018307040879
 20
418.07365045174856
 40
20.687882666666667
 50
346.96197800000067
 51
13.035669999999625
  0
LINE
  8
_0-b_細線3
  6
CONTINUOUS
 62
    7
 10
1212.2443693707548
 20
422.73993311841593
 11
1220.2564440374201
 21
422.73993311841593
  0
LINE
  8
_0-b_細線3
  6
CONTINUOUS
 62
    7
 10
1220.7897773707548
 20
404.60659978508238
 11
1220.7897773707548
 21
422.20659978508309
  0
ARC
  8
_0-b_細線3
  6
CONTINUOUS
 62
    7
 10
783.71970803503245
 20
437.93993311841552
 40
2.6666666666666679
 50
89.999999999999915
 51
179.99999999999983
  0
ARC
  8
_0-b_細線3
  6
CONTINUOUS
 62
    7
 10
784.96757254523948
 20
443.27326645174833
 40
2.6666666666666679
 50
269.99999999999977
 51
330.00000000000938
  0
ARC
  8
_0-b_細線3
  6
CONTINUOUS
 62
    7
 10
789.58637469875657
 20
440.60659978508266
 40
2.6666666666666679
 50
89.999999999999915
 51
150.00000000000992
  0
LINE
  8
_0-b_細線3
  6
CONTINUOUS
 62
    7
 10
783.71970803503245
 20
440.60659978508266
 11
784.96757254523948
 21
440.60659978508266
  0
ARC
  8
_0-b_細線3
  6
CONTINUOUS
 62
    7
 10
808.78637469581417
 20
437.93993311841552
 40
2.6666666666666679
 50
0
 51
89.999999999999915
  0
ARC
  8
_0-b_細線3
  6
CONTINUOUS
 62
    7
 10
807.53851018560727
 20
443.27326645174833
 40
2.6666666666666679
 50
209.99999999998866
 51
269.99999999999977
  0
ARC
  8
_0-b_細線3
  6
CONTINUOUS
 62
    7
 10
802.91970803209006
 20
440.60659978508266
 40
2.6666666666666679
 50
29.999999999990099
 51
89.999999999999901
  0
LINE
  8
_0-b_細線3
  6
CONTINUOUS
 62
    7
 10
808.78637469581417
 20
440.60659978508266
 11
807.53851018560727
 21
440.60659978508266
  0
ARC
  8
_0-b_細線3
  6
CONTINUOUS
 62
    7
 10
782.38637470169988
 20
434.20659978508263
 40
1.3333333333333339
 50
179.99999999999983
 51
269.99999999999977
  0
LINE
  8
_0-b_細線3
  6
CONTINUOUS
 62
    7
 10
781.05304136836605
 20
437.93993311841552
 11
781.05304136836605
 21
434.20659978508263
  0
ARC
  8
_0-b_細線3
  6
CONTINUOUS
 62
    7
 10
810.11970802914766
 20
434.20659978508263
 40
1.3333333333333339
 50
269.99999999999977
 51
359.99999999999966
  0
LINE
  8
_0-b_細線3
  6
CONTINUOUS
 62
    7
 10
811.45304136248069
 20
437.93993311841552
 11
811.45304136248069
 21
434.20659978508263
  0
ARC
  8
_0-b_細線3
  6
CONTINUOUS
 62
    7
 10
789.05304136836605
 20
430.20659978508263
 40
2.6666666666666679
 50
0
 51
89.999999999999915
  0
LINE
  8
_0-b_細線3
  6
CONTINUOUS
 62
    7
 10
789.05304136836605
 20
432.87326645174835
 11
782.38637470169988
 21
432.87326645174835
  0
ARC
  8
_0-b_細線3
  6
CONTINUOUS
 62
    7
 10
803.45304136836603
 20
430.20659978508263
 40
2.6666666666666679
 50
89.999999999999915
 51
179.99999999999983
  0
LINE
  8
_0-b_細線3
  6
CONTINUOUS
 62
    7
 10
803.45304136247978
 20
432.87326645174835
 11
810.11970802914766
 21
432.87326645174835
  0
LINE
  8
_0-b_細線3
  6
CONTINUOUS
 62
    7
 10
802.91970803209006
 20
443.27326645174833
 11
789.58637469875657
 21
443.27326645174833
  0
LINE
  8
_0-b_細線3
  6
CONTINUOUS
 62
    7
 10
791.71970803209024
 20
389.93993311841552
 11
791.71970803503245
 21
430.20659978508263
  0
LINE
  8
_0-b_細線3
  6
CONTINUOUS
 62
    7
 10
800.7863746987565
 20
389.93993311841552
 11
800.78637470169963
 21
430.20659978508263
  0
LINE
  8
_0-b_細線3
  6
CONTINUOUS
 62
    7
 10
800.7863746987565
 20
389.93993311841552
 11
791.71970803209024
 21
389.93993311841552
  0
LINE
  8
_0-b_細線3
  6
CONTINUOUS
 62
    7
 10
825.18637469875739
 20
443.80724314456836
 11
825.18637469875739
 21
390.47390981123402
  0
LINE
  8
_0-b_細線3
  6
CONTINUOUS
 62
    7
 10
812.65304136542318
 20
390.47390981123402
 11
812.65304136542318
 21
443.80724314456836
  0
LINE
  8
_0-b_細線3
  6
CONTINUOUS
 62
    7
 10
825.18637469875739
 20
390.47390981123402
 11
812.65304136542318
 21
390.47390981123402
  0
LINE
  8
_0-b_細線3
  6
CONTINUOUS
 62
    7
 10
812.65304136542318
 20
443.80724314456836
 11
825.18637469875739
 21
443.80724314456836
  0
LINE
  8
_0-b_細線3
  6
DASHED2
 62
    7
 10
812.65304136542318
 20
398.47390981123402
 11
825.18637469875739
 21
398.47390981123402
  0
LINE
  8
_0-b_細線3
  6
DASHED2
 62
    7
 10
812.65304136542318
 20
435.80724314456836
 11
825.18637469875739
 21
435.80724314456836
  0
LINE
  8
_0-b_細線3
  6
CONTINUOUS
 62
    7
 10
800.78637470173862
 20
430.73993311841457
 11
812.65304136542318
 21
430.73993311841457
  0
LINE
  8
_0-b_細線3
  6
CONTINUOUS
 62
    7
 10
825.18637469875739
 20
430.73993311841457
 11
837.05304136689483
 21
430.73993311841457
  0
LINE
  8
_0-b_細線3
  6
CONTINUOUS
 62
    7
 10
800.78637470022818
 20
396.07326645174805
 11
812.65304136542318
 21
396.07326645174805
  0
LINE
  8
_0-b_細線3
  6
CONTINUOUS
 62
    7
 10
825.18637469875739
 20
396.07326645174805
 11
837.05304136679706
 21
396.07326645174805
  0
LINE
  8
_0-b_細線3
  6
CONTINUOUS
 62
    7
 10
405.58637469875657
 20
413.94051712110019
 11
405.58637469875657
 21
320.60718378776687
  0
LINE
  8
_0-b_細線3
  6
CONTINUOUS
 62
    7
 10
405.58637469875657
 20
320.60718378776687
 11
399.45304136542325
 21
320.60718378776687
  0
LINE
  8
_0-b_細線3
  6
CONTINUOUS
 62
    7
 10
399.45304136542325
 20
320.60718378776687
 11
399.45304136542325
 21
413.94051712110019
  0
LINE
  8
_0-b_細線3
  6
CONTINUOUS
 62
    7
 10
399.45304136542325
 20
413.94051712110019
 11
405.58637469875657
 21
413.94051712110019
  0
LINE
  8
_0-a_極細3
  6
CONTINUOUS
 62
    7
 10
399.45304136542325
 20
371.2738504544335
 11
405.58637469875657
 21
371.2738504544335
  0
LINE
  8
_0-a_極細3
  6
CONTINUOUS
 62
    7
 10
399.45304136542325
 20
376.60718378776693
 11
405.58637469875657
 21
376.60718378776693
  0
LINE
  8
_0-a_極細3
  6
CONTINUOUS
 62
    7
 10
399.45304136542325
 20
365.94051712110013
 11
405.58637469875657
 21
365.94051712110013
  0
LINE
  8
_0-a_極細3
  6
CONTINUOUS
 62
    7
 10
399.45304136542325
 20
381.94051712110013
 11
405.58637469875657
 21
381.94051712110013
  0
LINE
  8
_0-a_極細3
  6
CONTINUOUS
 62
    7
 10
405.58637469875657
 20
328.60718378776693
 11
399.45304136542325
 21
328.60718378776693
  0
LINE
  8
_0-a_極細3
  6
CONTINUOUS
 62
    7
 10
399.45304136542325
 20
408.60718378776693
 11
405.58637469875657
 21
408.60718378776693
  0
LINE
  8
_0-b_細線3
  6
CONTINUOUS
 62
    7
 10
1232.2530413654238
 20
413.94051712110019
 11
1232.2530413654238
 21
320.60718378776687
  0
LINE
  8
_0-b_細線3
  6
CONTINUOUS
 62
    7
 10
1232.2530413654238
 20
320.60718378776687
 11
1238.386374698757
 21
320.60718378776687
  0
LINE
  8
_0-b_細線3
  6
CONTINUOUS
 62
    7
 10
1238.386374698757
 20
320.60718378776687
 11
1238.386374698757
 21
413.94051712110019
  0
LINE
  8
_0-b_細線3
  6
CONTINUOUS
 62
    7
 10
1238.386374698757
 20
413.94051712110019
 11
1232.2530413654238
 21
413.94051712110019
  0
LINE
  8
_0-a_極細3
  6
CONTINUOUS
 62
    7
 10
1238.386374698757
 20
371.2738504544335
 11
1232.2530413654238
 21
371.2738504544335
  0
LINE
  8
_0-a_極細3
  6
CONTINUOUS
 62
    7
 10
1238.386374698757
 20
376.60718378776693
 11
1232.2530413654238
 21
376.60718378776693
  0
LINE
  8
_0-a_極細3
  6
CONTINUOUS
 62
    7
 10
1238.386374698757
 20
365.94051712110013
 11
1232.2530413654238
 21
365.94051712110013
  0
LINE
  8
_0-a_極細3
  6
CONTINUOUS
 62
    7
 10
1238.386374698757
 20
381.94051712110013
 11
1232.2530413654238
 21
381.94051712110013
  0
LINE
  8
_0-a_極細3
  6
CONTINUOUS
 62
    7
 10
1232.2530413654238
 20
328.60718378776693
 11
1238.386374698757
 21
328.60718378776693
  0
LINE
  8
_0-a_極細3
  6
CONTINUOUS
 62
    7
 10
1238.386374698757
 20
408.60718378776693
 11
1232.2530413654238
 21
408.60718378776693
  0
LINE
  8
_0-7_枠細線
  6
CONTINUOUS
 62
    5
 10
1267.0755216437526
 20
396.87383200100396
 11
1255.0755216437526
 21
420.87383200100396
  0
LINE
  8
_0-7_枠細線
  6
CONTINUOUS
 62
    5
 10
1243.0755216437526
 20
396.87383200100396
 11
1267.0755216437526
 21
396.87383200100396
  0
LINE
  8
_0-7_枠細線
  6
CONTINUOUS
 62
    5
 10
1255.0755216437526
 20
420.87383200100396
 11
1243.0755216437526
 21
396.87383200100396
  0
TEXT
  8
_0-7_枠細線
 62
    5
 10
1246.8597636727898
 20
395.35572005724413
 40
20
 41
0.8
 50
0
  1
５
  0
LINE
  8
_0-d_寸法3
  6
CONTINUOUS
 62
    7
 10
405.58637469875657
 20
563.27384778508281
 11
390.13156147813152
 21
559.13274306344249
  0
LINE
  8
_0-d_寸法3
  6
CONTINUOUS
 62
    7
 10
405.58637469875657
 20
563.27384778508281
 11
390.13156147813152
 21
567.41495250672324
  0
LINE
  8
_0-d_寸法3
  6
CONTINUOUS
 62
    7
 10
413.58637469875657
 20
449.94051712110013
 11
413.58637469875657
 21
571.27384778508281
  0
CIRCLE
  8
_0-d_寸法3
  6
CONTINUOUS
 62
    1
 10
413.58637469875657
 20
563.27384778508281
 40
2.4000000000000004
  0
LINE
  8
_0-d_寸法3
  6
CONTINUOUS
 62
    7
 10
365.58637469875657
 20
563.27384778508281
 11
413.58637469875657
 21
563.27384778508281
  0
TEXT
  8
_0-d_寸法3
 62
    7
 10
371.75490598847955
 20
563.27384778508281
 40
24
 41
1
 50
0
  1
3
  0
LINE
  8
_0-d_寸法3
  6
CONTINUOUS
 62
    7
 10
418.91970803208937
 20
445.94051445174921
 11
418.91970803209028
 21
571.27384778508281
  0
LINE
  8
_0-d_寸法3
  6
CONTINUOUS
 62
    7
 10
413.58637469875657
 20
563.27384778508281
 11
418.91970803209017
 21
563.27384778508281
  0
TEXT
  8
_0-d_寸法3
 62
    7
 10
410.25304136542309
 20
563.27384778508281
 40
24
 41
1
 50
0
  1
2
  0
LINE
  8
_0-d_寸法3
  6
CONTINUOUS
 62
    7
 10
418.91970803209017
 20
563.27384778508281
 11
434.37452125271534
 21
567.41495250672313
  0
LINE
  8
_0-d_寸法3
  6
CONTINUOUS
 62
    7
 10
418.91970803209017
 20
563.27384778508281
 11
434.37452125271534
 21
559.13274306344249
  0
LINE
  8
_0-d_寸法3
  6
CONTINUOUS
 62
    7
 10
1218.9197080320905
 20
445.94051445174921
 11
1218.9197080320905
 21
571.27384778508281
  0
LINE
  8
_0-d_寸法3
  6
CONTINUOUS
 62
    7
 10
1218.9197080320905
 20
563.27384778508281
 11
1203.4648948114655
 21
559.13274306344249
  0
LINE
  8
_0-d_寸法3
  6
CONTINUOUS
 62
    7
 10
1218.9197080320905
 20
563.27384778508281
 11
1203.4648948114655
 21
567.41495250672324
  0
LINE
  8
_0-d_寸法3
  6
CONTINUOUS
 62
    7
 10
418.91970803209017
 20
563.27384778508281
 11
1218.9197080320905
 21
563.27384778508281
  0
TEXT
  8
_0-d_寸法3
 62
    7
 10
800.91970803209006
 20
563.27384778508281
 40
24
 41
1
 50
0
  1
300
  0
LINE
  8
_0-d_寸法3
  6
CONTINUOUS
 62
    7
 10
1224.2530413654233
 20
449.94051712110013
 11
1224.2530413654238
 21
571.27384778508281
  0
CIRCLE
  8
_0-d_寸法3
  6
CONTINUOUS
 62
    1
 10
1224.2530413654238
 20
563.27384778508281
 40
2.4000000000000004
  0
LINE
  8
_0-d_寸法3
  6
CONTINUOUS
 62
    7
 10
1218.9197080320905
 20
563.27384778508281
 11
1224.2530413654238
 21
563.27384778508281
  0
TEXT
  8
_0-d_寸法3
 62
    7
 10
1215.5863746987573
 20
563.27384778508281
 40
24
 41
1
 50
0
  1
2
  0
LINE
  8
_0-d_寸法3
  6
CONTINUOUS
 62
    7
 10
1232.2530413654238
 20
563.27384778508281
 11
1247.7078545860488
 21
567.41495250672301
  0
LINE
  8
_0-d_寸法3
  6
CONTINUOUS
 62
    7
 10
1232.2530413654238
 20
563.27384778508281
 11
1247.7078545860488
 21
559.13274306344238
  0
LINE
  8
_0-d_寸法3
  6
CONTINUOUS
 62
    7
 10
1224.2530413654238
 20
563.27384778508281
 11
1272.2530413654238
 21
563.27384778508281
  0
TEXT
  8
_0-d_寸法3
 62
    7
 10
1254.3172623707519
 20
563.27384778508281
 40
24
 41
1
 50
0
  1
3
  0
TEXT
  8
_0-7_枠細線
 62
    5
 10
922.96278340798483
 20
153.65455575992496
 40
32
 41
0.6
 50
0
  1
Ｓ＝１：３
  0
TEXT
  8
_0-5_寸法線
 62
    7
 10
881.87712727496682
 20
754.75614043660869
 40
24
 41
0.7999999999999999
 50
0
  1
ＧＲＳＫ－２０Ｗ３００
  0
LINE
  8
_0-5_寸法線
  6
CONTINUOUS
 62
    7
 10
851.02585347471631
 20
884.25647508788995
 11
859.02585347471631
 21
870.4000686273389
  0
LINE
  8
_0-5_寸法線
  6
CONTINUOUS
 62
    7
 10
851.02585347471631
 20
884.25647508788995
 11
851.02585347471631
 21
868.25647508788995
  0
LINE
  8
_0-5_寸法線
  6
CONTINUOUS
 62
    7
 10
851.02585347471631
 20
884.25647508788995
 11
878.9327462261449
 21
780.10653345818253
  0
LINE
  8
_0-5_寸法線
  6
CONTINUOUS
 62
    7
 10
878.9327462261449
 20
780.10653345818253
 11
1166.9327462261449
 21
780.10653345818253
  0
TEXT
  8
_0-5_寸法線
 62
    7
 10
878.9327462261449
 20
780.10653345818253
 40
24
 41
0.8000000000000001
 50
0
  1
セーフティグレーチング補強仕様
  0
TEXT
  8
_0-5_寸法線
 62
    7
 10
492.9503804859819
 20
752.98773822963938
 40
24
 41
0.7999999999999999
 50
0
  1
(標準付属)
  0
TEXT
  8
_0-7_枠細線
 62
    5
 10
499.51733871269857
 20
808.04586043965844
 40
20
 41
0.8
 50
0
  1
２
  0
LINE
  8
_0-7_枠細線
  6
CONTINUOUS
 62
    5
 10
519.73309668366232
 20
808.53706403226715
 11
507.73309668366232
 21
832.53706403226715
  0
LINE
  8
_0-7_枠細線
  6
CONTINUOUS
 62
    5
 10
495.73309668366232
 20
808.53706403226715
 11
519.73309668366232
 21
808.53706403226715
  0
LINE
  8
_0-7_枠細線
  6
CONTINUOUS
 62
    5
 10
507.73309668366232
 20
832.53706403226715
 11
495.73309668366232
 21
808.53706403226715
  0
LINE
  8
_0-7_枠細線
  6
CONTINUOUS
 62
    5
 10
549.67547094717577
 20
808.53706403226715
 11
537.67547094717577
 21
832.53706403226715
  0
LINE
  8
_0-7_枠細線
  6
CONTINUOUS
 62
    5
 10
525.67547094717577
 20
808.53706403226715
 11
549.67547094717577
 21
808.53706403226715
  0
LINE
  8
_0-7_枠細線
  6
CONTINUOUS
 62
    5
 10
537.67547094717577
 20
832.53706403226715
 11
525.67547094717577
 21
808.53706403226715
  0
TEXT
  8
_0-7_枠細線
 62
    5
 10
529.45971297621293
 20
807.66076980797698
 40
20
 41
0.8
 50
0
  1
３
  0
LINE
  8
_0-7_枠細線
  6
CONTINUOUS
 62
    5
 10
566.09195047669675
 20
832.53706403226715
 11
554.09195047669675
 21
808.53706403226715
  0
LINE
  8
_0-7_枠細線
  6
CONTINUOUS
 62
    5
 10
554.09195047669675
 20
808.53706403226715
 11
578.09195047669675
 21
808.53706403226715
  0
LINE
  8
_0-7_枠細線
  6
CONTINUOUS
 62
    5
 10
578.09195047669675
 20
808.53706403226715
 11
566.09195047669675
 21
832.53706403226715
  0
LINE
  8
_0-5_寸法線
  6
CONTINUOUS
 62
    7
 10
432.66174617567458
 20
994.72445561973234
 11
440.66174617567447
 21
980.86804915918128
  0
LINE
  8
_0-5_寸法線
  6
CONTINUOUS
 62
    7
 10
432.66174617567458
 20
994.72445561973234
 11
432.66174617567447
 21
978.72445561973234
  0
LINE
  8
_0-5_寸法線
  6
CONTINUOUS
 62
    7
 10
432.66174617567458
 20
994.72445561973234
 11
490.16844510010606
 21
780.10653345818253
  0
LINE
  8
_0-5_寸法線
  6
CONTINUOUS
 62
    7
 10
490.16844510010606
 20
780.10653345818253
 11
586.16844510010617
 21
780.10653345818253
  0
TEXT
  8
_0-5_寸法線
 62
    7
 10
490.16844510010606
 20
780.10653345818253
 40
24
 41
0.8000000000000001
 50
0
  1
取　外　具
  0
TEXT
  8
_0-5_寸法線
 62
    7
 10
638.70946531563118
 20
754.75614043660869
 40
24
 41
0.7999999999999999
 50
0
  1
ＧＳＬ－２０
  0
LINE
  8
_0-5_寸法線
  6
CONTINUOUS
 62
    7
 10
619.6132309768534
 20
842.21941105105202
 11
627.63031448440495
 21
828.37288180965209
  0
LINE
  8
_0-5_寸法線
  6
CONTINUOUS
 62
    7
 10
619.6132309768534
 20
842.21941105105202
 11
619.63296433795438
 21
826.21942321997983
  0
LINE
  8
_0-5_寸法線
  6
CONTINUOUS
 62
    7
 10
619.6132309768534
 20
842.21941105105202
 11
636.33845962536907
 21
780.10653345818253
  0
LINE
  8
_0-5_寸法線
  6
CONTINUOUS
 62
    7
 10
636.33845962536907
 20
780.10653345818253
 11
809.13845962536891
 21
780.10653345818253
  0
TEXT
  8
_0-5_寸法線
 62
    7
 10
636.33845962536907
 20
781.06653345818233
 40
24
 41
0.8000000000000001
 50
0
  1
ＳＵＳアングル受枠
  0
TEXT
  8
_0-7_枠細線
 62
    5
 10
1502.1605925925933
 20
1316
 40
20
 41
1
 50
0
  1
クロスバーピッチ変更
  0
TEXT
  8
_0-7_枠細線
 62
    5
 10
1502.1605925925933
 20
1288
 40
20
 41
1
 50
0
  1
取外具形状変更
  0
TEXT
  8
_0-7_枠細線
 62
    5
 10
1888.0000000000009
 20
1316
 40
20
 41
0.7199999999999999
 50
0
  1
２０２０．０９．０１
  0
TEXT
  8
_0-7_枠細線
 62
    5
 10
1888.0000000000009
 20
1288
 40
20
 41
0.7199999999999999
 50
0
  1
２０２０．１０．０１
  0
TEXT
  8
_0-7_枠細線
 62
    5
 10
557.87619250573391
 20
807.66076980797698
 40
20
 41
0.8
 50
0
  1
７
  0
TEXT
  8
_0-7_枠細線
 62
    5
 10
784.93008270360428
 20
1255.5194954074332
 40
20
 41
0.8
 50
0
  1
６
  0
ENDSEC
  0
EOF
