  0
SECTION
  2
HEADER
  9
$ACADVER
  1
AC1009
  9
$INSBASE
 10
0
 20
0
 30
0
  9
$EXTMIN
 10
0
 20
0
  9
$EXTMAX
 10
2376
 20
1680
  9
$LIMMIN
 10
0
 20
0
  9
$LIMMAX
 10
2376
 20
1680
  9
$LTSCALE
 40
8
  0
ENDSEC
  0
SECTION
  2
TABLES
  0
TABLE
  2
LTYPE
 70
     9
  0
LTYPE
  2
CONTINUOUS
 70
    64
  3
実線
 72
    65
 73
     0
 40
0.0
  0
LTYPE
  2
DASHED1
 70
    64
  3
--  --  --  --  --  --  --  --  
 72
    65
 73
     2
 40
2.5
 49
1.25
 49
-1.25
  0
LTYPE
  2
DASHED2
 70
    64
  3
----    ----    ----    ----    
 72
    65
 73
     2
 40
5.0
 49
2.5
 49
-2.5
  0
LTYPE
  2
DASHED3
 70
    64
  3
------  ------  ------  ------  
 72
    65
 73
     2
 40
5.0
 49
3.75
 49
-1.25
  0
LTYPE
  2
CENTER1
 70
    64
  3
----- - ----- - ----- - ----- - 
 72
    65
 73
     4
 40
10.0
 49
6.25
 49
-1.25
 49
1.25
 49
-1.25
  0
LTYPE
  2
CENTER2
 70
    64
  3
----------  --  ----------  --  
 72
    65
 73
     4
 40
20.0
 49
12.5
 49
-2.5
 49
2.5
 49
-2.5
  0
LTYPE
  2
PHANTOM1
 70
    64
  3
--- - - --- - - --- - - --- - - 
 72
    65
 73
     6
 40
10.0
 49
3.25
 49
-1.25
 49
1.25
 49
-1.25
 49
1.25
 49
-1.25
  0
LTYPE
  2
PHANTOM2
 70
    64
  3
--------  -  -  --------  -  -  
 72
    65
 73
     6
 40
20.0
 49
10.0
 49
-2.5
 49
1.25
 49
-2.5
 49
1.25
 49
-2.5
  0
LTYPE
  2
DOT
 70
    64
  3
-   -   -   -   -   -   -   -   
 72
    65
 73
     2
 40
2.5
 49
0.625
 49
-1.875
  0
LTYPE
  2
DUMMY
 70
    64
  3
ダミー
 72
    65
 73
     0
 40
0.0
  0
LTYPE
  2
RAND1
 70
    64
  3
ランダム線1
 72
    65
 73
     4
 40
10.0
 49
1.0
 49
-2.0
 49
3.0
 49
-4.0
  0
LTYPE
  2
RAND2
 70
    64
  3
ランダム線2
 72
    65
 73
     4
 40
14.0
 49
2.0
 49
-3.0
 49
4.0
 49
-5.0
  0
LTYPE
  2
RAND3
 70
    64
  3
ランダム線3
 72
    65
 73
     4
 40
18.0
 49
3.0
 49
-4.0
 49
5.0
 49
-6.0
  0
LTYPE
  2
RAND4
 70
    64
  3
ランダム線4
 72
    65
 73
     4
 40
22.0
 49
4.0
 49
-5.0
 49
6.0
 49
-7.0
  0
LTYPE
  2
RAND5
 70
    64
  3
ランダム線5
 72
    65
 73
     4
 40
26.0
 49
5.0
 49
-6.0
 49
7.0
 49
-8.0
  0
LTYPE
  2
LONG1
 70
    64
  3
----------  --  ----------  --  
 72
    65
 73
     4
 40
40.0
 49
32.5
 49
-2.5
 49
2.5
 49
-2.5
  0
LTYPE
  2
LONG2
 70
    64
  3
--------  -  -  --------  -  -  
 72
    65
 73
     6
 40
40.0
 49
30.0
 49
-2.5
 49
1.25
 49
-2.5
 49
1.25
 49
-2.5
  0
LTYPE
  2
LONG3
 70
    64
  3
+++++++++++++++..+++++++++++++++
 72
    65
 73
     2
 40
40.0
 49
37.5
 49
-2.5
  0
LTYPE
  2
LONG4
 70
    64
  3
+++++++++++++++..+++++++++++++++
 72
    65
 73
     2
 40
80.0
 49
75.0
 49
-5.0
  0
LTYPE
  2
LONG5
 70
    64
  3
----------  --  ----------  --  
 72
    65
 73
     4
 40
60.0
 49
37.5
 49
-7.5
 49
7.5
 49
-7.5
  0
LTYPE
  2
dashed
 70
   64
  3
-------   -------------   ------
 72
   65
 73
    2
 40
7.5
 49
6
 49
-1.5
  0
LTYPE
  2
dashed_spaced
 70
   64
  3
----        --------        ----
 72
   65
 73
    2
 40
12
 49
6
 49
-6
  0
LTYPE
  2
long_dashed_dotted
 70
   64
  3
------------- --- --------------
 72
   65
 73
    4
 40
15.25
 49
12
 49
-1.5
 49
0.25
 49
-1.5
  0
LTYPE
  2
long_dashed_double-dotted
 70
   64
  3
----------- --- --- ------------
 72
   65
 73
    6
 40
17
 49
12
 49
-1.5
 49
0.25
 49
-1.5
 49
0.25
 49
-1.5
  0
LTYPE
  2
long_dashed_triplicate-dotted
 70
   64
  3
--------- --- --- --- ----------
 72
   65
 73
    8
 40
18.75
 49
12
 49
-1.5
 49
0.25
 49
-1.5
 49
0.25
 49
-1.5
 49
0.25
 49
-1.5
  0
LTYPE
  2
dotted
 70
   64
  3
   -       -       -       -    
 72
   65
 73
    2
 40
1.75
 49
0.25
 49
-1.5
  0
LTYPE
  2
chain
 70
   64
  3
-------------- -- --------------
 72
   65
 73
    4
 40
18.5
 49
12
 49
-1.5
 49
3.5
 49
-1.5
  0
LTYPE
  2
chain_double_dash
 70
   64
  3
------------ -- -- -------------
 72
   65
 73
    6
 40
23.5
 49
12
 49
-1.5
 49
3.5
 49
-1.5
 49
3.5
 49
-1.5
  0
LTYPE
  2
dashed_dotted
 70
   64
  3
-----------     -     ----------
 72
   65
 73
    4
 40
9.25
 49
6
 49
-1.5
 49
0.25
 49
-1.5
  0
LTYPE
  2
double-dashed_dotted
 70
   64
  3
------   -----------   -   -----
 72
   65
 73
    6
 40
16.75
 49
6
 49
-1.5
 49
6
 49
-1.5
 49
0.25
 49
-1.5
  0
LTYPE
  2
dashed_double-dotted
 70
   64
  3
---------    -    -    ---------
 72
   65
 73
    6
 40
11
 49
6
 49
-1.5
 49
0.25
 49
-1.5
 49
0.25
 49
-1.5
  0
LTYPE
  2
double-dashed_double-dotted
 70
   64
  3
-----   ---------   -   -   ----
 72
   65
 73
    8
 40
18.5
 49
6
 49
-1.5
 49
6
 49
-1.5
 49
0.25
 49
-1.5
 49
0.25
 49
-1.5
  0
LTYPE
  2
dashed_triplicate-dotted
 70
   64
  3
-------    -    -    -    ------
 72
   65
 73
    8
 40
12.75
 49
6
 49
-1.5
 49
0.25
 49
-1.5
 49
0.25
 49
-1.5
 49
0.25
 49
-1.5
  0
LTYPE
  2
double-dashed_triplicate-dotted
 70
   64
  3
-----  ---------  -  -  -  -----
 72
   65
 73
   10
 40
20.25
 49
6
 49
-1.5
 49
6
 49
-1.5
 49
0.25
 49
-1.5
 49
0.25
 49
-1.5
 49
0.25
 49
-1.5
  0
LTYPE
  2
undefined
 70
   64
  3
--------------------------------
 72
   65
 73
    0
 40
0
  0
ENDTAB
  0
TABLE
  2
STYLE
  5
3
100
AcDbSymbolTable
 70
     1
  0
STYLE
  5
10
100
AcDbSymbolTableRecord
100
AcDbTextStyleTableRecord
  2
STANDARD
 70
     0
 40
0.0
 41
1.0
 50
0.0
 71
     0
 42
0.2
  3
txt
  4
bigfont.shx
  0
STYLE
  5
26
100
AcDbSymbolTableRecord
100
AcDbTextStyleTableRecord
  2
TATEGAKI
 70
    68
 40
0.0
 41
1.0
 50
0.0
 71
     0
 42
1.0
  3
txt
  4
bigfont.shx
  0
ENDTAB
  0
TABLE
  2
LAYER
 70
   10
  0
LAYER
  2
_0-0_計極細
 70
   64
 62
    7
  6
CONTINUOUS
  0
LAYER
  2
_0-1_計細線
 70
   64
 62
    7
  6
CONTINUOUS
  0
LAYER
  2
_0-5_寸法線
 70
   64
 62
    7
  6
CONTINUOUS
  0
LAYER
  2
_0-7_枠細線
 70
   64
 62
    7
  6
CONTINUOUS
  0
LAYER
  2
_0-8_枠中線
 70
   64
 62
    7
  6
CONTINUOUS
  0
LAYER
  2
_0-9_枠極太
 70
   64
 62
    7
  6
CONTINUOUS
  0
LAYER
  2
_0-a_極細3
 70
   64
 62
    7
  6
CONTINUOUS
  0
LAYER
  2
_0-b_細線3
 70
   64
 62
    7
  6
CONTINUOUS
  0
LAYER
  2
_0-d_寸法3
 70
   64
 62
    7
  6
CONTINUOUS
  0
LAYER
  2
ADD_LINE
 70
   64
 62
    7
  6
CONTINUOUS
  0
ENDTAB
  0
ENDSEC
  0
SECTION
  2
BLOCKS
  0
ENDSEC
  0
SECTION
  2
ENTITIES
  0
LINE
  8
_0-7_枠細線
  6
CONTINUOUS
 62
    5
 10
1896
 20
288
 11
1896
 21
160
  0
TEXT
  8
_0-7_枠細線
 62
    5
 10
1500
 20
156
 40
28
 41
1
 50
0
  1
備考
  7
TATEGAKI
  0
TEXT
  8
_0-7_枠細線
 62
    5
 10
1500
 20
220
 40
28
 41
1
 50
0
  1
品番
  7
TATEGAKI
  0
TEXT
  8
_0-7_枠細線
 62
    5
 10
1500
 20
284
 40
28
 41
1
 50
0
  1
品名
  7
TATEGAKI
  0
LINE
  8
_0-7_枠細線
  6
CONTINUOUS
 62
    5
 10
1896
 20
224
 11
1480
 21
224
  0
LINE
  8
_0-7_枠細線
  6
CONTINUOUS
 62
    5
 10
1520
 20
288
 11
1520
 21
96
  0
LINE
  8
_0-8_枠中線
  6
CONTINUOUS
 62
    5
 10
2280
 20
288
 11
1480
 21
288
  0
LINE
  8
_0-8_枠中線
  6
CONTINUOUS
 62
    5
 10
1480
 20
288
 11
1480
 21
96
  0
LINE
  8
_0-7_枠細線
  6
CONTINUOUS
 62
    5
 10
1992
 20
288
 11
1992
 21
96
  0
TEXT
  8
_0-7_枠細線
 62
    5
 10
1908
 20
256
 40
24
 41
1
 50
0
  1
縮　尺
  0
LINE
  8
_0-7_枠細線
  6
CONTINUOUS
 62
    5
 10
1896
 20
248
 11
1992
 21
248
  0
LINE
  8
_0-7_枠細線
  6
CONTINUOUS
 62
    5
 10
1992
 20
160
 11
1480
 21
160
  0
LINE
  8
_0-7_枠細線
  6
CONTINUOUS
 62
    5
 10
2280
 20
144
 11
1992
 21
144
  0
LINE
  8
_0-7_枠細線
  6
CONTINUOUS
 62
    5
 10
1992
 20
192
 11
2280
 21
192
  0
LINE
  8
_0-7_枠細線
  6
CONTINUOUS
 62
    5
 10
2280
 20
224
 11
1992
 21
224
  0
TEXT
  8
_0-7_枠細線
 62
    5
 10
2008
 20
236
 40
40
 41
0.8
 50
0
  1
株式会社シマブン
  0
TEXT
  8
_0-7_枠細線
 62
    5
 10
2004
 20
96
 40
24
 41
1
 50
0
  1
年月日
  0
TEXT
  8
_0-7_枠細線
 62
    5
 10
2004
 20
120
 40
24
 41
1
 50
0
  1
作　成
  0
TEXT
  8
_0-7_枠細線
 62
    5
 10
2010
 20
196
 40
24
 41
1
 50
0
  1
承 認
  0
LINE
  8
_0-7_枠細線
  6
CONTINUOUS
 62
    5
 10
2088
 20
224
 11
2088
 21
96
  0
TEXT
  8
_0-7_枠細線
 62
    5
 10
2106
 20
196
 40
24
 41
1
 50
0
  1
検 図
  0
LINE
  8
_0-7_枠細線
  6
CONTINUOUS
 62
    5
 10
2184
 20
224
 11
2184
 21
144
  0
TEXT
  8
_0-7_枠細線
 62
    5
 10
2200
 20
152
 40
32
 41
1
 50
0
  1
藤戸
  0
TEXT
  8
_0-7_枠細線
 62
    5
 10
2202
 20
196
 40
24
 41
1
 50
0
  1
設 計
  0
TEXT
  8
_0-7_枠細線
 62
    5
 10
2008
 20
152
 40
32
 41
1
 50
0
  1
隠塚
  0
TEXT
  8
_0-7_枠細線
 62
    5
 10
2104
 20
152
 40
32
 41
1
 50
0
  1
渋田
  0
TEXT
  8
_0-7_枠細線
 62
    5
 10
1536.8000000000002
 20
240
 40
32
 41
0.5
 50
0
  1
セーフティグレーチング補強仕様Ｈ２５タイプ
  0
TEXT
  8
_0-7_枠細線
 62
    5
 10
2096
 20
108
 40
24
 41
0.6666666666666666
 50
0
  1
２０１０年０３月０１日
  0
TEXT
  8
_0-7_枠細線
 62
    5
 10
1536.8000000000002
 20
112
 40
32
 41
0.5999999999999998
 50
0
  1
色については品番表参照のこと
  0
TEXT
  8
_0-7_枠細線
 62
    5
 10
1536.8000000000002
 20
176
 40
32
 41
0.6
 50
0
  1
ＧＲＳＫ－２５Ｗ１５０　ＳＥＴ
  0
LINE
  8
_0-9_枠極太
  6
CONTINUOUS
 62
    5
 10
96
 20
96
 11
96
 21
1536
  0
LINE
  8
_0-9_枠極太
  6
CONTINUOUS
 62
    5
 10
96
 20
1536
 11
2280
 21
1536
  0
LINE
  8
_0-9_枠極太
  6
CONTINUOUS
 62
    5
 10
2280
 20
1536
 11
2280
 21
96
  0
LINE
  8
_0-9_枠極太
  6
CONTINUOUS
 62
    5
 10
2280
 20
96
 11
96
 21
96
  0
LINE
  8
_0-7_枠細線
  6
CONTINUOUS
 62
    5
 10
2280
 20
1508
 11
1424
 21
1508
  0
TEXT
  8
_0-7_枠細線
 62
    5
 10
1432
 20
1512
 40
20
 41
1
 50
0
  1
記号
  0
TEXT
  8
_0-7_枠細線
 62
    5
 10
1595
 20
1512
 40
20
 41
1
 50
0
  1
訂　 正　 記　 事
  0
TEXT
  8
_0-7_枠細線
 62
    5
 10
1890
 20
1512
 40
20
 41
1
 50
0
  1
訂 正 年 月 日
  0
TEXT
  8
_0-7_枠細線
 62
    5
 10
2090
 20
1512
 40
20
 41
1
 50
0
  1
備　　　　　考
  0
LINE
  8
_0-7_枠細線
  6
CONTINUOUS
 62
    5
 10
2280
 20
1480
 11
1424
 21
1480
  0
TEXT
  8
_0-7_枠細線
 62
    5
 10
1502.1605925925924
 20
1484
 40
20
 41
1
 50
0
  1
品番・色記号変更
  0
TEXT
  8
_0-7_枠細線
 62
    5
 10
1888
 20
1484
 40
20
 41
0.7199999999999999
 50
0
  1
２０１３．０３．１３
  0
LINE
  8
_0-7_枠細線
  6
CONTINUOUS
 62
    5
 10
2280
 20
1452
 11
1424
 21
1452
  0
LINE
  8
_0-7_枠細線
  6
CONTINUOUS
 62
    5
 10
2280
 20
1424
 11
1424
 21
1424
  0
TEXT
  8
_0-7_枠細線
 62
    5
 10
1502.1605925925924
 20
1456
 40
20
 41
1
 50
0
  1
クロスバーピッチ変更
  0
TEXT
  8
_0-7_枠細線
 62
    5
 10
1502.1605925925924
 20
1428
 40
20
 41
1
 50
0
  1
取外具形状変更
  0
TEXT
  8
_0-7_枠細線
 62
    5
 10
1888
 20
1456
 40
20
 41
0.7199999999999999
 50
0
  1
２０１５．１１．２０
  0
LINE
  8
_0-7_枠細線
  6
CONTINUOUS
 62
    5
 10
1464
 20
1454.307734354795
 11
1452
 21
1478.307734354795
  0
LINE
  8
_0-7_枠細線
  6
CONTINUOUS
 62
    5
 10
1440
 20
1454.307734354795
 11
1464
 21
1454.307734354795
  0
LINE
  8
_0-7_枠細線
  6
CONTINUOUS
 62
    5
 10
1452
 20
1478.307734354795
 11
1440
 21
1454.307734354795
  0
TEXT
  8
_0-7_枠細線
 62
    5
 10
1443.7842420290372
 20
1453.8165307621866
 40
20
 41
0.8
 50
0
  1
１
  0
TEXT
  8
_0-7_枠細線
 62
    5
 10
1443.7842420290372
 20
1425.8165307621866
 40
20
 41
0.8
 50
0
  1
２
  0
LINE
  8
_0-7_枠細線
  6
CONTINUOUS
 62
    5
 10
2280
 20
1396
 11
1424
 21
1396
  0
LINE
  8
_0-7_枠細線
  6
CONTINUOUS
 62
    5
 10
1452
 20
1450.307734354795
 11
1440
 21
1426.307734354795
  0
LINE
  8
_0-7_枠細線
  6
CONTINUOUS
 62
    5
 10
1440
 20
1426.307734354795
 11
1464
 21
1426.307734354795
  0
LINE
  8
_0-7_枠細線
  6
CONTINUOUS
 62
    5
 10
1464
 20
1426.307734354795
 11
1452
 21
1450.307734354795
  0
TEXT
  8
_0-7_枠細線
 62
    5
 10
1443.7842420290372
 20
1397.4314401305048
 40
20
 41
0.8
 50
0
  1
３
  0
TEXT
  8
_0-7_枠細線
 62
    5
 10
1888
 20
1400
 40
20
 41
0.7199999999999999
 50
0
  1
２０１７．０４．０１
  0
LINE
  8
_0-7_枠細線
  6
CONTINUOUS
 62
    5
 10
1464
 20
1370.307734354795
 11
1452
 21
1394.307734354795
  0
LINE
  8
_0-7_枠細線
  6
CONTINUOUS
 62
    5
 10
1440
 20
1370.307734354795
 11
1464
 21
1370.307734354795
  0
LINE
  8
_0-7_枠細線
  6
CONTINUOUS
 62
    5
 10
1452
 20
1394.307734354795
 11
1440
 21
1370.307734354795
  0
TEXT
  8
_0-7_枠細線
 62
    5
 10
1888
 20
1372
 40
20
 41
0.7199999999999999
 50
0
  1
２０１７．０４．０１
  0
TEXT
  8
_0-7_枠細線
 62
    5
 10
1502.1605925925924
 20
1372
 40
20
 41
1
 50
0
  1
ブラウン色（Ｃ）追加
  0
LINE
  8
_0-7_枠細線
  6
CONTINUOUS
 62
    5
 10
2280
 20
1368
 11
1424
 21
1368
  0
LINE
  8
_0-7_枠細線
  6
CONTINUOUS
 62
    5
 10
1452
 20
1422.307734354795
 11
1440
 21
1398.307734354795
  0
LINE
  8
_0-7_枠細線
  6
CONTINUOUS
 62
    5
 10
1440
 20
1398.307734354795
 11
1464
 21
1398.307734354795
  0
LINE
  8
_0-7_枠細線
  6
CONTINUOUS
 62
    5
 10
1464
 20
1398.307734354795
 11
1452
 21
1422.307734354795
  0
TEXT
  8
_0-7_枠細線
 62
    5
 10
1443.7842420290372
 20
1368.7896224110355
 40
20
 41
0.8
 50
0
  1
４
  0
TEXT
  8
_0-7_枠細線
 62
    5
 10
1502.1605925925924
 20
1400
 40
20
 41
1
 50
0
  1
取外具形状変更
  0
TEXT
  8
_0-7_枠細線
 62
    5
 10
1888
 20
1428
 40
20
 41
0.7199999999999999
 50
0
  1
２０１５．１１．２０
  0
LINE
  8
_0-7_枠細線
  6
CONTINUOUS
 62
    5
 10
1464
 20
1342.307734354795
 11
1452
 21
1366.307734354795
  0
LINE
  8
_0-7_枠細線
  6
CONTINUOUS
 62
    5
 10
1440
 20
1342.307734354795
 11
1464
 21
1342.307734354795
  0
LINE
  8
_0-7_枠細線
  6
CONTINUOUS
 62
    5
 10
1452
 20
1366.307734354795
 11
1440
 21
1342.307734354795
  0
LINE
  8
_0-7_枠細線
  6
CONTINUOUS
 62
    5
 10
2280
 20
1340
 11
1424
 21
1340
  0
TEXT
  8
_0-7_枠細線
 62
    5
 10
1888
 20
1344
 40
20
 41
0.7199999999999999
 50
0
  1
２０１９．０９．０１
  0
TEXT
  8
_0-7_枠細線
 62
    5
 10
1443.7842420290372
 20
1340.7896224110355
 40
20
 41
0.8
 50
0
  1
５
  0
TEXT
  8
_0-7_枠細線
 62
    5
 10
1502.1605925925924
 20
1344
 40
20
 41
1
 50
0
  1
アンカー材質･厚み変更
  0
TEXT
  8
_0-7_枠細線
 62
    5
 10
1910.4000000000001
 20
188
 40
32
 41
0.7000000000000001
 50
0
  1
１：８
  0
LINE
  8
_0-7_枠細線
  6
CONTINUOUS
 62
    5
 10
1668.4453960905371
 20
768.00000000000011
 11
1668.4453960905371
 21
896
  0
TEXT
  8
_0-7_枠細線
 62
    5
 10
1704.4453960905371
 20
860.00000000000011
 40
24
 41
1
 50
0
  1
耐荷重
  0
TEXT
  8
_0-7_枠細線
 62
    5
 10
1680.4453960905371
 20
780.00000000000011
 40
24
 41
1
 50
0
  1
（歩道用）
  0
LINE
  8
_0-7_枠細線
  6
CONTINUOUS
 62
    5
 10
1812.4453960905371
 20
768.00000000000011
 11
1812.4453960905371
 21
896
  0
TEXT
  8
_0-7_枠細線
 62
    5
 10
1848.4453960905371
 20
860.00000000000011
 40
24
 41
1
 50
0
  1
蓋重量
  0
LINE
  8
_0-7_枠細線
  6
CONTINUOUS
 62
    5
 10
1956.4453960905371
 20
768.00000000000011
 11
1956.4453960905371
 21
896
  0
TEXT
  8
_0-7_枠細線
 62
    5
 10
1992.4453960905371
 20
860.00000000000011
 40
24
 41
1
 50
0
  1
枠重量
  0
LINE
  8
_0-7_枠細線
  6
CONTINUOUS
 62
    5
 10
1668.4453960905371
 20
848.00000000000011
 11
2100.4453960905371
 21
848.00000000000011
  0
LINE
  8
_0-7_枠細線
  6
CONTINUOUS
 62
    5
 10
1668.4453960905371
 20
896
 11
2100.4453960905371
 21
896
  0
LINE
  8
_0-7_枠細線
  6
CONTINUOUS
 62
    5
 10
1668.4453960905371
 20
768.00000000000011
 11
2100.4453960905371
 21
768.00000000000011
  0
LINE
  8
_0-7_枠細線
  6
CONTINUOUS
 62
    5
 10
2100.4453960905371
 20
768.00000000000011
 11
2100.4453960905371
 21
896
  0
TEXT
  8
_0-7_枠細線
 62
    5
 10
1692.4453960905371
 20
812.00000000000011
 40
24
 41
1
 50
0
  1
5.0kN/㎡
  0
TEXT
  8
_0-7_枠細線
 62
    5
 10
1980.4453960905371
 20
798.00000000000011
 40
24
 41
0.8000000000000001
 50
0
  1
2.6kg/ｍ組
  0
TEXT
  8
_0-7_枠細線
 62
    5
 10
1846.0453960905375
 20
798.00000000000011
 40
24
 41
0.8000000000000001
 50
0
  1
2.5kg/ｍ
  0
TEXT
  8
_0-7_枠細線
 62
    5
 10
1726.0453960905375
 20
688.00000000000023
 40
24
 41
0.8000000000000001
 50
0
  1
品　　番
  0
LINE
  8
_0-7_枠細線
  6
CONTINUOUS
 62
    5
 10
1668.4453960905371
 20
600
 11
2180.4453960905375
 21
600
  0
LINE
  8
_0-7_枠細線
  6
CONTINUOUS
 62
    5
 10
1668.4453960905371
 20
640.00000000000023
 11
2180.4453960905375
 21
640.00000000000023
  0
LINE
  8
_0-7_枠細線
  6
CONTINUOUS
 62
    5
 10
1668.4453960905371
 20
680.00000000000023
 11
2180.4453960905375
 21
680.00000000000023
  0
TEXT
  8
_0-7_枠細線
 62
    5
 10
1930.8453960905379
 20
688.00000000000023
 40
24
 41
0.8000000000000001
 50
0
  1
色
  0
TEXT
  8
_0-7_枠細線
 62
    5
 10
2062.0453960905384
 20
688.00000000000023
 40
24
 41
0.8000000000000001
 50
0
  1
備　　考
  0
LINE
  8
_0-7_枠細線
  6
CONTINUOUS
 62
    5
 10
1668.4453960905371
 20
720.00000000000023
 11
2180.4453960905375
 21
720.00000000000023
  0
LINE
  8
_0-7_枠細線
  6
CONTINUOUS
 62
    5
 10
1668.4453960905371
 20
360
 11
2180.4453960905375
 21
360
  0
LINE
  8
_0-7_枠細線
  6
CONTINUOUS
 62
    5
 10
1668.4453960905371
 20
560
 11
2180.4453960905375
 21
560
  0
LINE
  8
_0-7_枠細線
  6
CONTINUOUS
 62
    5
 10
1668.4453960905371
 20
520
 11
2180.4453960905375
 21
520
  0
LINE
  8
_0-7_枠細線
  6
CONTINUOUS
 62
    5
 10
1668.4453960905371
 20
480
 11
2180.4453960905375
 21
480
  0
LINE
  8
_0-7_枠細線
  6
CONTINUOUS
 62
    5
 10
1668.4453960905371
 20
440
 11
2180.4453960905375
 21
440
  0
LINE
  8
_0-7_枠細線
  6
CONTINUOUS
 62
    5
 10
1668.4453960905371
 20
400
 11
2180.4453960905375
 21
400
  0
TEXT
  8
_0-7_枠細線
 62
    5
 10
1826.4453960905371
 20
728.00000000000023
 40
28
 41
1
 50
0
  1
品番表
  0
LINE
  8
_0-7_枠細線
  6
CONTINUOUS
 62
    5
 10
1668.4453960905371
 20
320
 11
2180.4453960905375
 21
320
  0
LINE
  8
_0-7_枠細線
  6
CONTINUOUS
 62
    5
 10
2180.4453960905375
 20
720.00000000000023
 11
2180.4453960905375
 21
320
  0
LINE
  8
_0-7_枠細線
  6
CONTINUOUS
 62
    5
 10
2020.4453960905371
 20
720.00000000000023
 11
2020.4453960905371
 21
320
  0
LINE
  8
_0-7_枠細線
  6
CONTINUOUS
 62
    5
 10
1860.4453960905378
 20
720.00000000000023
 11
1860.4453960905378
 21
320
  0
LINE
  8
_0-7_枠細線
  6
CONTINUOUS
 62
    5
 10
1668.4453960905371
 20
720.00000000000023
 11
1668.4453960905371
 21
320
  0
TEXT
  8
_0-7_枠細線
 62
    5
 10
1676.0453960905381
 20
648.00000000000023
 40
24
 41
0.5666666666666667
 50
0
  1
ＧＲＳＫ－２５Ｗ１５０－Ｂ
  0
TEXT
  8
_0-7_枠細線
 62
    5
 10
1676.0453960905381
 20
608
 40
24
 41
0.5666666666666667
 50
0
  1
ＧＲＳＫ－２５Ｗ１５０－Ｇ
  0
TEXT
  8
_0-7_枠細線
 62
    5
 10
1676.0453960905381
 20
568
 40
24
 41
0.5666666666666667
 50
0
  1
ＧＲＳＫ－２５Ｗ１５０－Ｓ
  0
TEXT
  8
_0-7_枠細線
 62
    5
 10
1676.0453960905381
 20
528
 40
24
 41
0.5666666666666667
 50
0
  1
ＧＲＳＫ－２５Ｗ１５０－Ｐ
  0
TEXT
  8
_0-7_枠細線
 62
    5
 10
1676.0453960905381
 20
488
 40
24
 41
0.5666666666666667
 50
0
  1
ＧＲＳＫ－２５Ｗ１５０－Ａ
  0
TEXT
  8
_0-7_枠細線
 62
    5
 10
1676.0453960905381
 20
448
 40
24
 41
0.5666666666666667
 50
0
  1
ＧＲＳＫ－２５Ｗ１５０－Ｄ
  0
TEXT
  8
_0-7_枠細線
 62
    5
 10
1676.0453960905381
 20
408
 40
24
 41
0.5666666666666667
 50
0
  1
ＧＲＳＫ－２５Ｗ１５０－Ｍ
  0
TEXT
  8
_0-7_枠細線
 62
    5
 10
1676.0453960905381
 20
368
 40
24
 41
0.5666666666666667
 50
0
  1
ＧＲＳＫ－２５Ｗ１５０－Ｃ
  0
TEXT
  8
_0-7_枠細線
 62
    5
 10
1676.0453960905381
 20
328
 40
24
 41
0.5666666666666667
 50
0
  1
ＧＲＳＫ－２５Ｗ１５０－Ｋ
  0
LINE
  8
_0-7_枠細線
  6
CONTINUOUS
 62
    5
 10
1661.6656491420349
 20
368.532854836659
 11
1649.6656491420349
 21
392.532854836659
  0
LINE
  8
_0-7_枠細線
  6
CONTINUOUS
 62
    5
 10
1637.6656491420349
 20
368.532854836659
 11
1661.6656491420349
 21
368.532854836659
  0
LINE
  8
_0-7_枠細線
  6
CONTINUOUS
 62
    5
 10
1649.6656491420349
 20
392.532854836659
 11
1637.6656491420349
 21
368.532854836659
  0
TEXT
  8
_0-7_枠細線
 62
    5
 10
1641.4498911710718
 20
367.01474289289905
 40
20
 41
0.8
 50
0
  1
４
  0
LINE
  8
_0-1_計細線
  6
CONTINUOUS
 62
    3
 10
280.2490100871031
 20
1130.8467153284603
 11
1279.249010087103
 21
1130.8467153284603
  0
LINE
  8
_0-1_計細線
  6
CONTINUOUS
 62
    3
 10
280.2490100871031
 20
1119.4467153284597
 11
1279.249010087103
 21
1119.4467153284597
  0
LINE
  8
_0-1_計細線
  6
CONTINUOUS
 62
    3
 10
280.2490100871031
 20
1130.8467153284603
 11
280.2490100871031
 21
1119.4467153284597
  0
LINE
  8
_0-1_計細線
  6
CONTINUOUS
 62
    3
 10
1279.249010087103
 20
1130.8467153284603
 11
1279.249010087103
 21
1119.4467153284597
  0
LINE
  8
_0-0_計極細
  6
CONTINUOUS
 62
    2
 10
280.2490100871031
 20
1122.64671532846
 11
1279.249010087103
 21
1122.64671532846
  0
LINE
  8
_0-0_計極細
  6
CONTINUOUS
 62
    2
 10
280.2490100871031
 20
1127.64671532846
 11
1279.249010087103
 21
1127.64671532846
  0
LINE
  8
_0-1_計細線
  6
CONTINUOUS
 62
    3
 10
280.2490100871031
 20
1113.7467153284604
 11
1279.249010087103
 21
1113.7467153284604
  0
LINE
  8
_0-1_計細線
  6
CONTINUOUS
 62
    3
 10
280.2490100871031
 20
1102.3467153284598
 11
1279.249010087103
 21
1102.3467153284598
  0
LINE
  8
_0-1_計細線
  6
CONTINUOUS
 62
    3
 10
280.2490100871031
 20
1113.7467153284604
 11
280.2490100871031
 21
1102.3467153284598
  0
LINE
  8
_0-1_計細線
  6
CONTINUOUS
 62
    3
 10
1279.249010087103
 20
1113.7467153284604
 11
1279.249010087103
 21
1102.3467153284598
  0
LINE
  8
_0-0_計極細
  6
CONTINUOUS
 62
    2
 10
280.2490100871031
 20
1105.5467153284601
 11
1279.249010087103
 21
1105.5467153284601
  0
LINE
  8
_0-0_計極細
  6
CONTINUOUS
 62
    2
 10
280.2490100871031
 20
1110.5467153284601
 11
1279.249010087103
 21
1110.5467153284601
  0
LINE
  8
_0-1_計細線
  6
CONTINUOUS
 62
    3
 10
280.2490100871031
 20
1096.3467153284594
 11
1279.249010087103
 21
1096.3467153284594
  0
LINE
  8
_0-1_計細線
  6
CONTINUOUS
 62
    3
 10
280.2490100871031
 20
1084.9467153284588
 11
1279.249010087103
 21
1084.9467153284588
  0
LINE
  8
_0-1_計細線
  6
CONTINUOUS
 62
    3
 10
280.2490100871031
 20
1096.3467153284594
 11
280.2490100871031
 21
1084.9467153284588
  0
LINE
  8
_0-1_計細線
  6
CONTINUOUS
 62
    3
 10
1279.249010087103
 20
1096.3467153284594
 11
1279.249010087103
 21
1084.9467153284588
  0
LINE
  8
_0-0_計極細
  6
CONTINUOUS
 62
    2
 10
280.2490100871031
 20
1088.1467153284595
 11
1279.249010087103
 21
1088.1467153284595
  0
LINE
  8
_0-0_計極細
  6
CONTINUOUS
 62
    2
 10
280.2490100871031
 20
1093.1467153284595
 11
1279.249010087103
 21
1093.1467153284595
  0
LINE
  8
_0-1_計細線
  6
CONTINUOUS
 62
    3
 10
280.2490100871031
 20
980.84671532846028
 11
1279.249010087103
 21
980.84671532846028
  0
LINE
  8
_0-1_計細線
  6
CONTINUOUS
 62
    3
 10
280.2490100871031
 20
992.24671532846082
 11
1279.249010087103
 21
992.24671532846082
  0
LINE
  8
_0-1_計細線
  6
CONTINUOUS
 62
    3
 10
280.2490100871031
 20
980.84671532846028
 11
280.2490100871031
 21
992.24671532846082
  0
LINE
  8
_0-1_計細線
  6
CONTINUOUS
 62
    3
 10
1279.249010087103
 20
980.84671532846028
 11
1279.249010087103
 21
992.24671532846082
  0
LINE
  8
_0-0_計極細
  6
CONTINUOUS
 62
    2
 10
280.2490100871031
 20
989.04671532846055
 11
1279.249010087103
 21
989.04671532846055
  0
LINE
  8
_0-0_計極細
  6
CONTINUOUS
 62
    2
 10
280.2490100871031
 20
984.04671532846055
 11
1279.249010087103
 21
984.04671532846055
  0
LINE
  8
_0-1_計細線
  6
CONTINUOUS
 62
    3
 10
280.2490100871031
 20
997.94671532846019
 11
1279.249010087103
 21
997.94671532846019
  0
LINE
  8
_0-1_計細線
  6
CONTINUOUS
 62
    3
 10
280.2490100871031
 20
1009.3467153284607
 11
1279.249010087103
 21
1009.3467153284607
  0
LINE
  8
_0-1_計細線
  6
CONTINUOUS
 62
    3
 10
280.2490100871031
 20
997.94671532846019
 11
280.2490100871031
 21
1009.3467153284607
  0
LINE
  8
_0-1_計細線
  6
CONTINUOUS
 62
    3
 10
1279.249010087103
 20
997.94671532846019
 11
1279.249010087103
 21
1009.3467153284607
  0
LINE
  8
_0-0_計極細
  6
CONTINUOUS
 62
    2
 10
280.2490100871031
 20
1006.1467153284605
 11
1279.249010087103
 21
1006.1467153284605
  0
LINE
  8
_0-0_計極細
  6
CONTINUOUS
 62
    2
 10
280.2490100871031
 20
1001.1467153284605
 11
1279.249010087103
 21
1001.1467153284605
  0
LINE
  8
_0-1_計細線
  6
CONTINUOUS
 62
    3
 10
280.2490100871031
 20
1015.3467153284612
 11
1279.249010087103
 21
1015.3467153284612
  0
LINE
  8
_0-1_計細線
  6
CONTINUOUS
 62
    3
 10
280.2490100871031
 20
1026.7467153284617
 11
1279.249010087103
 21
1026.7467153284617
  0
LINE
  8
_0-1_計細線
  6
CONTINUOUS
 62
    3
 10
280.2490100871031
 20
1015.3467153284612
 11
280.2490100871031
 21
1026.7467153284617
  0
LINE
  8
_0-1_計細線
  6
CONTINUOUS
 62
    3
 10
1279.249010087103
 20
1015.3467153284612
 11
1279.249010087103
 21
1026.7467153284617
  0
LINE
  8
_0-0_計極細
  6
CONTINUOUS
 62
    2
 10
280.2490100871031
 20
1023.546715328461
 11
1279.249010087103
 21
1023.546715328461
  0
LINE
  8
_0-0_計極細
  6
CONTINUOUS
 62
    2
 10
280.2490100871031
 20
1018.546715328461
 11
1279.249010087103
 21
1018.546715328461
  0
LINE
  8
_0-1_計細線
  6
CONTINUOUS
 62
    3
 10
280.2490100871031
 20
1032.7467153284617
 11
1279.249010087103
 21
1032.7467153284617
  0
LINE
  8
_0-1_計細線
  6
CONTINUOUS
 62
    3
 10
280.2490100871031
 20
1044.1467153284623
 11
1279.249010087103
 21
1044.1467153284623
  0
LINE
  8
_0-1_計細線
  6
CONTINUOUS
 62
    3
 10
280.2490100871031
 20
1032.7467153284617
 11
280.2490100871031
 21
1044.1467153284623
  0
LINE
  8
_0-1_計細線
  6
CONTINUOUS
 62
    3
 10
1279.249010087103
 20
1032.7467153284617
 11
1279.249010087103
 21
1044.1467153284623
  0
LINE
  8
_0-0_計極細
  6
CONTINUOUS
 62
    2
 10
280.2490100871031
 20
1040.946715328462
 11
1279.249010087103
 21
1040.946715328462
  0
LINE
  8
_0-0_計極細
  6
CONTINUOUS
 62
    2
 10
280.2490100871031
 20
1035.946715328462
 11
1279.249010087103
 21
1035.946715328462
  0
LINE
  8
_0-0_計極細
  6
CENTER2
 62
    2
 10
264.36041055008388
 20
1055.8467153284603
 11
1295.2937438834613
 21
1055.8467153284603
  0
ARC
  8
_0-0_計極細
  6
CONTINUOUS
 62
    2
 10
267.19523124378736
 20
1128.3467153284603
 40
11.295514677412786
 50
138.39585046827571
 51
221.60414953172395
  0
ARC
  8
_0-0_計極細
  6
CONTINUOUS
 62
    2
 10
250.30278893041702
 20
1113.3467153284589
 40
11.295514677412786
 50
318.39585046827381
 51
41.604149531723962
  0
ARC
  8
_0-0_計極細
  6
CONTINUOUS
 62
    2
 10
267.19523124378736
 20
998.34671532845891
 40
11.295514677412786
 50
138.39585046827571
 51
221.60414953172395
  0
ARC
  8
_0-0_計極細
  6
CONTINUOUS
 62
    2
 10
250.30278893041702
 20
983.34671532845755
 40
11.295514677412786
 50
318.39585046827381
 51
41.604149531723962
  0
LINE
  8
_0-1_計細線
  6
CONTINUOUS
 62
    3
 10
258.74901008710174
 20
1135.8467153284603
 11
1300.749010087103
 21
1135.8467153284603
  0
LINE
  8
_0-1_計細線
  6
CONTINUOUS
 62
    3
 10
1300.749010087103
 20
975.84671532846028
 11
258.74901008710174
 21
975.84671532846028
  0
ARC
  8
_0-0_計極細
  6
CONTINUOUS
 62
    2
 10
1309.1952312437886
 20
1128.3467153284603
 40
11.295514677412786
 50
138.39585046827571
 51
221.60414953172395
  0
ARC
  8
_0-0_計極細
  6
CONTINUOUS
 62
    2
 10
1292.3027889304178
 20
1113.3467153284589
 40
11.295514677412786
 50
318.39585046827534
 51
41.604149531723962
  0
ARC
  8
_0-0_計極細
  6
CONTINUOUS
 62
    2
 10
1309.1952312437886
 20
998.34671532845891
 40
11.295514677412786
 50
138.39585046827571
 51
221.60414953172395
  0
ARC
  8
_0-0_計極細
  6
CONTINUOUS
 62
    2
 10
1292.3027889304178
 20
983.34671532845755
 40
11.295514677412786
 50
318.39585046827534
 51
41.604149531723962
  0
LINE
  8
_0-1_計細線
  6
CONTINUOUS
 62
    3
 10
256.83479438872916
 20
1132.8467153284603
 11
1298.8347943887304
 21
1132.8467153284603
  0
LINE
  8
_0-1_計細線
  6
CONTINUOUS
 62
    3
 10
1302.6632257854774
 20
978.84671532846028
 11
260.66322578547749
 21
978.84671532846028
  0
LINE
  8
_0-1_計細線
  6
CONTINUOUS
 62
    3
 10
1279.249010087103
 20
1005.8467153284603
 11
1300.749010087103
 21
1005.8467153284603
  0
LINE
  8
_0-1_計細線
  6
CONTINUOUS
 62
    3
 10
1279.249010087103
 20
1105.8467153284603
 11
1300.749010087103
 21
1105.8467153284603
  0
LINE
  8
_0-1_計細線
  6
CONTINUOUS
 62
    3
 10
258.74901008710174
 20
1105.8467153284603
 11
280.2490100871031
 21
1105.8467153284603
  0
LINE
  8
_0-1_計細線
  6
CONTINUOUS
 62
    3
 10
258.74901008710174
 20
1005.8467153284603
 11
280.2490100871031
 21
1005.8467153284603
  0
LINE
  8
_0-0_計極細
  6
CONTINUOUS
 62
    2
 10
288.24901008710287
 20
1119.4467153284597
 11
288.24901008710287
 21
1113.7467153284595
  0
LINE
  8
_0-0_計極細
  6
CONTINUOUS
 62
    2
 10
301.24901008710287
 20
1119.4467153284597
 11
301.24901008710287
 21
1113.7467153284595
  0
LINE
  8
_0-0_計極細
  6
CONTINUOUS
 62
    2
 10
288.24901008710287
 20
1102.3467153284598
 11
288.24901008710287
 21
1096.3467153284594
  0
LINE
  8
_0-0_計極細
  6
CONTINUOUS
 62
    2
 10
301.24901008710287
 20
1102.3467153284598
 11
301.24901008710287
 21
1096.3467153284594
  0
LINE
  8
_0-0_計極細
  6
CONTINUOUS
 62
    2
 10
288.24901008710287
 20
1084.9467153284588
 11
288.24901008710287
 21
1078.9467153284588
  0
LINE
  8
_0-0_計極細
  6
CONTINUOUS
 62
    2
 10
301.24901008710287
 20
1084.9467153284588
 11
301.24901008710287
 21
1078.9467153284588
  0
LINE
  8
_0-0_計極細
  6
CONTINUOUS
 62
    2
 10
288.24901008710287
 20
1067.5467153284583
 11
288.24901008710287
 21
1061.5467153284583
  0
LINE
  8
_0-0_計極細
  6
CONTINUOUS
 62
    2
 10
301.24901008710287
 20
1067.5467153284583
 11
301.24901008710287
 21
1061.5467153284583
  0
LINE
  8
_0-0_計極細
  6
CONTINUOUS
 62
    2
 10
288.24901008710287
 20
1050.1467153284577
 11
288.24901008710287
 21
1044.1467153284577
  0
LINE
  8
_0-0_計極細
  6
CONTINUOUS
 62
    2
 10
301.24901008710287
 20
1050.1467153284577
 11
301.24901008710287
 21
1044.1467153284577
  0
LINE
  8
_0-0_計極細
  6
CONTINUOUS
 62
    2
 10
288.24901008710287
 20
992.24671532846082
 11
288.24901008710287
 21
997.9467153284611
  0
LINE
  8
_0-0_計極細
  6
CONTINUOUS
 62
    2
 10
301.24901008710287
 20
992.24671532846082
 11
301.24901008710287
 21
997.9467153284611
  0
LINE
  8
_0-0_計極細
  6
CONTINUOUS
 62
    2
 10
288.24901008710287
 20
1009.3467153284607
 11
288.24901008710287
 21
1015.3467153284612
  0
LINE
  8
_0-0_計極細
  6
CONTINUOUS
 62
    2
 10
301.24901008710287
 20
1009.3467153284607
 11
301.24901008710287
 21
1015.3467153284612
  0
LINE
  8
_0-0_計極細
  6
CONTINUOUS
 62
    2
 10
288.24901008710287
 20
1026.7467153284617
 11
288.24901008710287
 21
1032.7467153284617
  0
LINE
  8
_0-0_計極細
  6
CONTINUOUS
 62
    2
 10
301.24901008710287
 20
1026.7467153284617
 11
301.24901008710287
 21
1032.7467153284617
  0
LINE
  8
_0-0_計極細
  6
CENTER1
 62
    2
 10
294.74901008710287
 20
1139.5974347529225
 11
294.74901008710287
 21
973.08889158744773
  0
LINE
  8
_0-0_計極細
  6
CONTINUOUS
 62
    2
 10
1258.249010087103
 20
1119.4467153284597
 11
1258.249010087103
 21
1113.7467153284595
  0
LINE
  8
_0-0_計極細
  6
CONTINUOUS
 62
    2
 10
1271.249010087103
 20
1119.4467153284597
 11
1271.249010087103
 21
1113.7467153284595
  0
LINE
  8
_0-0_計極細
  6
CONTINUOUS
 62
    2
 10
1258.249010087103
 20
1102.3467153284598
 11
1258.249010087103
 21
1096.3467153284594
  0
LINE
  8
_0-0_計極細
  6
CONTINUOUS
 62
    2
 10
1271.249010087103
 20
1102.3467153284598
 11
1271.249010087103
 21
1096.3467153284594
  0
LINE
  8
_0-0_計極細
  6
CONTINUOUS
 62
    2
 10
1258.249010087103
 20
1084.9467153284588
 11
1258.249010087103
 21
1078.9467153284588
  0
LINE
  8
_0-0_計極細
  6
CONTINUOUS
 62
    2
 10
1271.249010087103
 20
1084.9467153284588
 11
1271.249010087103
 21
1078.9467153284588
  0
LINE
  8
_0-0_計極細
  6
CONTINUOUS
 62
    2
 10
1258.249010087103
 20
1067.5467153284583
 11
1258.249010087103
 21
1061.5467153284583
  0
LINE
  8
_0-0_計極細
  6
CONTINUOUS
 62
    2
 10
1271.249010087103
 20
1067.5467153284583
 11
1271.249010087103
 21
1061.5467153284583
  0
LINE
  8
_0-0_計極細
  6
CONTINUOUS
 62
    2
 10
1258.249010087103
 20
1050.1467153284577
 11
1258.249010087103
 21
1044.1467153284577
  0
LINE
  8
_0-0_計極細
  6
CONTINUOUS
 62
    2
 10
1271.249010087103
 20
1050.1467153284577
 11
1271.249010087103
 21
1044.1467153284577
  0
LINE
  8
_0-0_計極細
  6
CONTINUOUS
 62
    2
 10
1258.249010087103
 20
992.24671532846082
 11
1258.249010087103
 21
997.9467153284611
  0
LINE
  8
_0-0_計極細
  6
CONTINUOUS
 62
    2
 10
1271.249010087103
 20
992.24671532846082
 11
1271.249010087103
 21
997.9467153284611
  0
LINE
  8
_0-0_計極細
  6
CONTINUOUS
 62
    2
 10
1258.249010087103
 20
1009.3467153284607
 11
1258.249010087103
 21
1015.3467153284612
  0
LINE
  8
_0-0_計極細
  6
CONTINUOUS
 62
    2
 10
1271.249010087103
 20
1009.3467153284607
 11
1271.249010087103
 21
1015.3467153284612
  0
LINE
  8
_0-0_計極細
  6
CONTINUOUS
 62
    2
 10
1258.249010087103
 20
1026.7467153284617
 11
1258.249010087103
 21
1032.7467153284617
  0
LINE
  8
_0-0_計極細
  6
CONTINUOUS
 62
    2
 10
1271.249010087103
 20
1026.7467153284617
 11
1271.249010087103
 21
1032.7467153284617
  0
LINE
  8
_0-0_計極細
  6
CENTER1
 62
    2
 10
1264.749010087103
 20
1139.5974347529225
 11
1264.749010087103
 21
973.08889158744773
  0
LINE
  8
_0-0_計極細
  6
CONTINUOUS
 62
    2
 10
385.24901008710287
 20
1119.4467153284597
 11
385.24901008710287
 21
1113.7467153284595
  0
LINE
  8
_0-0_計極細
  6
CONTINUOUS
 62
    2
 10
398.24901008710287
 20
1119.4467153284597
 11
398.24901008710287
 21
1113.7467153284595
  0
LINE
  8
_0-0_計極細
  6
CONTINUOUS
 62
    2
 10
385.24901008710287
 20
1102.3467153284598
 11
385.24901008710287
 21
1096.3467153284594
  0
LINE
  8
_0-0_計極細
  6
CONTINUOUS
 62
    2
 10
398.24901008710287
 20
1102.3467153284598
 11
398.24901008710287
 21
1096.3467153284594
  0
LINE
  8
_0-0_計極細
  6
CONTINUOUS
 62
    2
 10
385.24901008710287
 20
1084.9467153284588
 11
385.24901008710287
 21
1078.9467153284588
  0
LINE
  8
_0-0_計極細
  6
CONTINUOUS
 62
    2
 10
398.24901008710287
 20
1084.9467153284588
 11
398.24901008710287
 21
1078.9467153284588
  0
LINE
  8
_0-0_計極細
  6
CONTINUOUS
 62
    2
 10
385.24901008710287
 20
1050.1467153284577
 11
385.24901008710287
 21
1044.1467153284577
  0
LINE
  8
_0-0_計極細
  6
CONTINUOUS
 62
    2
 10
398.24901008710287
 20
1050.1467153284577
 11
398.24901008710287
 21
1044.1467153284577
  0
LINE
  8
_0-0_計極細
  6
CONTINUOUS
 62
    2
 10
385.24901008710287
 20
992.24671532846082
 11
385.24901008710287
 21
997.9467153284611
  0
LINE
  8
_0-0_計極細
  6
CONTINUOUS
 62
    2
 10
398.24901008710287
 20
992.24671532846082
 11
398.24901008710287
 21
997.9467153284611
  0
LINE
  8
_0-0_計極細
  6
CONTINUOUS
 62
    2
 10
385.24901008710287
 20
1009.3467153284607
 11
385.24901008710287
 21
1015.3467153284612
  0
LINE
  8
_0-0_計極細
  6
CONTINUOUS
 62
    2
 10
398.24901008710287
 20
1009.3467153284607
 11
398.24901008710287
 21
1015.3467153284612
  0
LINE
  8
_0-0_計極細
  6
CONTINUOUS
 62
    2
 10
385.24901008710287
 20
1026.7467153284617
 11
385.24901008710287
 21
1032.7467153284617
  0
LINE
  8
_0-0_計極細
  6
CONTINUOUS
 62
    2
 10
398.24901008710287
 20
1026.7467153284617
 11
398.24901008710287
 21
1032.7467153284617
  0
LINE
  8
_0-0_計極細
  6
CENTER1
 62
    2
 10
391.74901008710287
 20
1139.5974347529225
 11
391.74901008710287
 21
973.08889158744773
  0
LINE
  8
_0-0_計極細
  6
CONTINUOUS
 62
    2
 10
1161.249010087103
 20
1119.4467153284597
 11
1161.249010087103
 21
1113.7467153284595
  0
LINE
  8
_0-0_計極細
  6
CONTINUOUS
 62
    2
 10
1174.249010087103
 20
1119.4467153284597
 11
1174.249010087103
 21
1113.7467153284595
  0
LINE
  8
_0-0_計極細
  6
CONTINUOUS
 62
    2
 10
1161.249010087103
 20
1102.3467153284598
 11
1161.249010087103
 21
1096.3467153284594
  0
LINE
  8
_0-0_計極細
  6
CONTINUOUS
 62
    2
 10
1174.249010087103
 20
1102.3467153284598
 11
1174.249010087103
 21
1096.3467153284594
  0
LINE
  8
_0-0_計極細
  6
CONTINUOUS
 62
    2
 10
1161.249010087103
 20
1084.9467153284588
 11
1161.249010087103
 21
1078.9467153284588
  0
LINE
  8
_0-0_計極細
  6
CONTINUOUS
 62
    2
 10
1174.249010087103
 20
1084.9467153284588
 11
1174.249010087103
 21
1078.9467153284588
  0
LINE
  8
_0-0_計極細
  6
CONTINUOUS
 62
    2
 10
1161.249010087103
 20
1067.5467153284583
 11
1161.249010087103
 21
1061.5467153284583
  0
LINE
  8
_0-0_計極細
  6
CONTINUOUS
 62
    2
 10
1174.249010087103
 20
1067.5467153284583
 11
1174.249010087103
 21
1061.5467153284583
  0
LINE
  8
_0-0_計極細
  6
CONTINUOUS
 62
    2
 10
1161.249010087103
 20
1050.1467153284577
 11
1161.249010087103
 21
1044.1467153284577
  0
LINE
  8
_0-0_計極細
  6
CONTINUOUS
 62
    2
 10
1174.249010087103
 20
1050.1467153284577
 11
1174.249010087103
 21
1044.1467153284577
  0
LINE
  8
_0-0_計極細
  6
CONTINUOUS
 62
    2
 10
1161.249010087103
 20
992.24671532846082
 11
1161.249010087103
 21
997.9467153284611
  0
LINE
  8
_0-0_計極細
  6
CONTINUOUS
 62
    2
 10
1174.249010087103
 20
992.24671532846082
 11
1174.249010087103
 21
997.9467153284611
  0
LINE
  8
_0-0_計極細
  6
CONTINUOUS
 62
    2
 10
1161.249010087103
 20
1009.3467153284607
 11
1161.249010087103
 21
1015.3467153284612
  0
LINE
  8
_0-0_計極細
  6
CONTINUOUS
 62
    2
 10
1174.249010087103
 20
1009.3467153284607
 11
1174.249010087103
 21
1015.3467153284612
  0
LINE
  8
_0-0_計極細
  6
CONTINUOUS
 62
    2
 10
1161.249010087103
 20
1026.7467153284617
 11
1161.249010087103
 21
1032.7467153284617
  0
LINE
  8
_0-0_計極細
  6
CONTINUOUS
 62
    2
 10
1174.249010087103
 20
1026.7467153284617
 11
1174.249010087103
 21
1032.7467153284617
  0
LINE
  8
_0-0_計極細
  6
CENTER1
 62
    2
 10
1167.749010087103
 20
1139.5974347529225
 11
1167.749010087103
 21
973.08889158744773
  0
LINE
  8
_0-0_計極細
  6
CONTINUOUS
 62
    2
 10
433.74901008710287
 20
1119.4467153284597
 11
433.74901008710287
 21
1113.7467153284595
  0
LINE
  8
_0-0_計極細
  6
CONTINUOUS
 62
    2
 10
446.74901008710287
 20
1119.4467153284597
 11
446.74901008710287
 21
1113.7467153284595
  0
LINE
  8
_0-0_計極細
  6
CONTINUOUS
 62
    2
 10
433.74901008710287
 20
1102.3467153284598
 11
433.74901008710287
 21
1096.3467153284594
  0
LINE
  8
_0-0_計極細
  6
CONTINUOUS
 62
    2
 10
446.74901008710287
 20
1102.3467153284598
 11
446.74901008710287
 21
1096.3467153284594
  0
LINE
  8
_0-0_計極細
  6
CONTINUOUS
 62
    2
 10
433.74901008710287
 20
1084.9467153284588
 11
433.74901008710287
 21
1078.9467153284588
  0
LINE
  8
_0-0_計極細
  6
CONTINUOUS
 62
    2
 10
446.74901008710287
 20
1084.9467153284588
 11
446.74901008710287
 21
1078.9467153284588
  0
LINE
  8
_0-0_計極細
  6
CONTINUOUS
 62
    2
 10
433.74901008710287
 20
1067.5467153284583
 11
433.74901008710287
 21
1061.5467153284583
  0
LINE
  8
_0-0_計極細
  6
CONTINUOUS
 62
    2
 10
446.74901008710287
 20
1067.5467153284583
 11
446.74901008710287
 21
1061.5467153284583
  0
LINE
  8
_0-0_計極細
  6
CONTINUOUS
 62
    2
 10
433.74901008710287
 20
1050.1467153284577
 11
433.74901008710287
 21
1044.1467153284577
  0
LINE
  8
_0-0_計極細
  6
CONTINUOUS
 62
    2
 10
446.74901008710287
 20
1050.1467153284577
 11
446.74901008710287
 21
1044.1467153284577
  0
LINE
  8
_0-0_計極細
  6
CONTINUOUS
 62
    2
 10
433.74901008710287
 20
992.24671532846082
 11
433.74901008710287
 21
997.9467153284611
  0
LINE
  8
_0-0_計極細
  6
CONTINUOUS
 62
    2
 10
446.74901008710287
 20
992.24671532846082
 11
446.74901008710287
 21
997.9467153284611
  0
LINE
  8
_0-0_計極細
  6
CONTINUOUS
 62
    2
 10
433.74901008710287
 20
1009.3467153284607
 11
433.74901008710287
 21
1015.3467153284612
  0
LINE
  8
_0-0_計極細
  6
CONTINUOUS
 62
    2
 10
446.74901008710287
 20
1009.3467153284607
 11
446.74901008710287
 21
1015.3467153284612
  0
LINE
  8
_0-0_計極細
  6
CONTINUOUS
 62
    2
 10
433.74901008710287
 20
1026.7467153284617
 11
433.74901008710287
 21
1032.7467153284617
  0
LINE
  8
_0-0_計極細
  6
CONTINUOUS
 62
    2
 10
446.74901008710287
 20
1026.7467153284617
 11
446.74901008710287
 21
1032.7467153284617
  0
LINE
  8
_0-0_計極細
  6
CENTER1
 62
    2
 10
440.24901008710287
 20
1139.5974347529225
 11
440.24901008710287
 21
973.08889158744773
  0
LINE
  8
_0-0_計極細
  6
CONTINUOUS
 62
    2
 10
482.24901008710287
 20
1119.4467153284597
 11
482.24901008710287
 21
1113.7467153284595
  0
LINE
  8
_0-0_計極細
  6
CONTINUOUS
 62
    2
 10
495.24901008710287
 20
1119.4467153284597
 11
495.24901008710287
 21
1113.7467153284595
  0
LINE
  8
_0-0_計極細
  6
CONTINUOUS
 62
    2
 10
482.24901008710287
 20
1102.3467153284598
 11
482.24901008710287
 21
1096.3467153284594
  0
LINE
  8
_0-0_計極細
  6
CONTINUOUS
 62
    2
 10
495.24901008710287
 20
1102.3467153284598
 11
495.24901008710287
 21
1096.3467153284594
  0
LINE
  8
_0-0_計極細
  6
CONTINUOUS
 62
    2
 10
482.24901008710287
 20
1084.9467153284588
 11
482.24901008710287
 21
1078.9467153284588
  0
LINE
  8
_0-0_計極細
  6
CONTINUOUS
 62
    2
 10
495.24901008710287
 20
1084.9467153284588
 11
495.24901008710287
 21
1078.9467153284588
  0
LINE
  8
_0-0_計極細
  6
CONTINUOUS
 62
    2
 10
482.24901008710287
 20
1067.5467153284583
 11
482.24901008710287
 21
1061.5467153284583
  0
LINE
  8
_0-0_計極細
  6
CONTINUOUS
 62
    2
 10
495.24901008710287
 20
1067.5467153284583
 11
495.24901008710287
 21
1061.5467153284583
  0
LINE
  8
_0-0_計極細
  6
CONTINUOUS
 62
    2
 10
482.24901008710287
 20
1050.1467153284577
 11
482.24901008710287
 21
1044.1467153284577
  0
LINE
  8
_0-0_計極細
  6
CONTINUOUS
 62
    2
 10
495.24901008710287
 20
1050.1467153284577
 11
495.24901008710287
 21
1044.1467153284577
  0
LINE
  8
_0-0_計極細
  6
CONTINUOUS
 62
    2
 10
482.24901008710287
 20
992.24671532846082
 11
482.24901008710287
 21
997.9467153284611
  0
LINE
  8
_0-0_計極細
  6
CONTINUOUS
 62
    2
 10
495.24901008710287
 20
992.24671532846082
 11
495.24901008710287
 21
997.9467153284611
  0
LINE
  8
_0-0_計極細
  6
CONTINUOUS
 62
    2
 10
482.24901008710287
 20
1009.3467153284607
 11
482.24901008710287
 21
1015.3467153284612
  0
LINE
  8
_0-0_計極細
  6
CONTINUOUS
 62
    2
 10
495.24901008710287
 20
1009.3467153284607
 11
495.24901008710287
 21
1015.3467153284612
  0
LINE
  8
_0-0_計極細
  6
CONTINUOUS
 62
    2
 10
482.24901008710287
 20
1026.7467153284617
 11
482.24901008710287
 21
1032.7467153284617
  0
LINE
  8
_0-0_計極細
  6
CONTINUOUS
 62
    2
 10
495.24901008710287
 20
1026.7467153284617
 11
495.24901008710287
 21
1032.7467153284617
  0
LINE
  8
_0-0_計極細
  6
CENTER1
 62
    2
 10
488.74901008710287
 20
1139.5974347529225
 11
488.74901008710287
 21
973.08889158744773
  0
LINE
  8
_0-0_計極細
  6
CONTINUOUS
 62
    2
 10
530.74901008710299
 20
1119.4467153284597
 11
530.74901008710299
 21
1113.7467153284595
  0
LINE
  8
_0-0_計極細
  6
CONTINUOUS
 62
    2
 10
543.74901008710299
 20
1119.4467153284597
 11
543.74901008710299
 21
1113.7467153284595
  0
LINE
  8
_0-0_計極細
  6
CONTINUOUS
 62
    2
 10
530.74901008710299
 20
1102.3467153284598
 11
530.74901008710299
 21
1096.3467153284594
  0
LINE
  8
_0-0_計極細
  6
CONTINUOUS
 62
    2
 10
543.74901008710299
 20
1102.3467153284598
 11
543.74901008710299
 21
1096.3467153284594
  0
LINE
  8
_0-0_計極細
  6
CONTINUOUS
 62
    2
 10
530.74901008710299
 20
1084.9467153284588
 11
530.74901008710299
 21
1078.9467153284588
  0
LINE
  8
_0-0_計極細
  6
CONTINUOUS
 62
    2
 10
543.74901008710299
 20
1084.9467153284588
 11
543.74901008710299
 21
1078.9467153284588
  0
LINE
  8
_0-0_計極細
  6
CONTINUOUS
 62
    2
 10
530.74901008710299
 20
1067.5467153284583
 11
530.74901008710299
 21
1061.5467153284583
  0
LINE
  8
_0-0_計極細
  6
CONTINUOUS
 62
    2
 10
543.74901008710299
 20
1067.5467153284583
 11
543.74901008710299
 21
1061.5467153284583
  0
LINE
  8
_0-0_計極細
  6
CONTINUOUS
 62
    2
 10
530.74901008710299
 20
1050.1467153284577
 11
530.74901008710299
 21
1044.1467153284577
  0
LINE
  8
_0-0_計極細
  6
CONTINUOUS
 62
    2
 10
543.74901008710299
 20
1050.1467153284577
 11
543.74901008710299
 21
1044.1467153284577
  0
LINE
  8
_0-0_計極細
  6
CONTINUOUS
 62
    2
 10
530.74901008710299
 20
992.24671532846082
 11
530.74901008710299
 21
997.9467153284611
  0
LINE
  8
_0-0_計極細
  6
CONTINUOUS
 62
    2
 10
543.74901008710299
 20
992.24671532846082
 11
543.74901008710299
 21
997.9467153284611
  0
LINE
  8
_0-0_計極細
  6
CONTINUOUS
 62
    2
 10
530.74901008710299
 20
1009.3467153284607
 11
530.74901008710299
 21
1015.3467153284612
  0
LINE
  8
_0-0_計極細
  6
CONTINUOUS
 62
    2
 10
543.74901008710299
 20
1009.3467153284607
 11
543.74901008710299
 21
1015.3467153284612
  0
LINE
  8
_0-0_計極細
  6
CONTINUOUS
 62
    2
 10
530.74901008710299
 20
1026.7467153284617
 11
530.74901008710299
 21
1032.7467153284617
  0
LINE
  8
_0-0_計極細
  6
CONTINUOUS
 62
    2
 10
543.74901008710299
 20
1026.7467153284617
 11
543.74901008710299
 21
1032.7467153284617
  0
LINE
  8
_0-0_計極細
  6
CENTER1
 62
    2
 10
537.24901008710299
 20
1139.5974347529225
 11
537.24901008710299
 21
973.08889158744773
  0
LINE
  8
_0-0_計極細
  6
CONTINUOUS
 62
    2
 10
579.24901008710299
 20
1119.4467153284597
 11
579.24901008710299
 21
1113.7467153284595
  0
LINE
  8
_0-0_計極細
  6
CONTINUOUS
 62
    2
 10
592.24901008710299
 20
1119.4467153284597
 11
592.24901008710299
 21
1113.7467153284595
  0
LINE
  8
_0-0_計極細
  6
CONTINUOUS
 62
    2
 10
579.24901008710299
 20
1102.3467153284598
 11
579.24901008710299
 21
1096.3467153284594
  0
LINE
  8
_0-0_計極細
  6
CONTINUOUS
 62
    2
 10
592.24901008710299
 20
1102.3467153284598
 11
592.24901008710299
 21
1096.3467153284594
  0
LINE
  8
_0-0_計極細
  6
CONTINUOUS
 62
    2
 10
579.24901008710299
 20
1084.9467153284588
 11
579.24901008710299
 21
1078.9467153284588
  0
LINE
  8
_0-0_計極細
  6
CONTINUOUS
 62
    2
 10
592.24901008710299
 20
1084.9467153284588
 11
592.24901008710299
 21
1078.9467153284588
  0
LINE
  8
_0-0_計極細
  6
CONTINUOUS
 62
    2
 10
579.24901008710299
 20
1067.5467153284583
 11
579.24901008710299
 21
1061.5467153284583
  0
LINE
  8
_0-0_計極細
  6
CONTINUOUS
 62
    2
 10
592.24901008710299
 20
1067.5467153284583
 11
592.24901008710299
 21
1061.5467153284583
  0
LINE
  8
_0-0_計極細
  6
CONTINUOUS
 62
    2
 10
579.24901008710299
 20
1050.1467153284577
 11
579.24901008710299
 21
1044.1467153284577
  0
LINE
  8
_0-0_計極細
  6
CONTINUOUS
 62
    2
 10
592.24901008710299
 20
1050.1467153284577
 11
592.24901008710299
 21
1044.1467153284577
  0
LINE
  8
_0-0_計極細
  6
CONTINUOUS
 62
    2
 10
579.24901008710299
 20
992.24671532846082
 11
579.24901008710299
 21
997.9467153284611
  0
LINE
  8
_0-0_計極細
  6
CONTINUOUS
 62
    2
 10
592.24901008710299
 20
992.24671532846082
 11
592.24901008710299
 21
997.9467153284611
  0
LINE
  8
_0-0_計極細
  6
CONTINUOUS
 62
    2
 10
579.24901008710299
 20
1009.3467153284607
 11
579.24901008710299
 21
1015.3467153284612
  0
LINE
  8
_0-0_計極細
  6
CONTINUOUS
 62
    2
 10
592.24901008710299
 20
1009.3467153284607
 11
592.24901008710299
 21
1015.3467153284612
  0
LINE
  8
_0-0_計極細
  6
CONTINUOUS
 62
    2
 10
579.24901008710299
 20
1026.7467153284617
 11
579.24901008710299
 21
1032.7467153284617
  0
LINE
  8
_0-0_計極細
  6
CONTINUOUS
 62
    2
 10
592.24901008710299
 20
1026.7467153284617
 11
592.24901008710299
 21
1032.7467153284617
  0
LINE
  8
_0-0_計極細
  6
CENTER1
 62
    2
 10
585.74901008710299
 20
1139.5974347529225
 11
585.74901008710299
 21
973.08889158744773
  0
LINE
  8
_0-0_計極細
  6
CONTINUOUS
 62
    2
 10
627.74901008710299
 20
1119.4467153284597
 11
627.74901008710299
 21
1113.7467153284595
  0
LINE
  8
_0-0_計極細
  6
CONTINUOUS
 62
    2
 10
640.74901008710299
 20
1119.4467153284597
 11
640.74901008710299
 21
1113.7467153284595
  0
LINE
  8
_0-0_計極細
  6
CONTINUOUS
 62
    2
 10
627.74901008710299
 20
1102.3467153284598
 11
627.74901008710299
 21
1096.3467153284594
  0
LINE
  8
_0-0_計極細
  6
CONTINUOUS
 62
    2
 10
640.74901008710299
 20
1102.3467153284598
 11
640.74901008710299
 21
1096.3467153284594
  0
LINE
  8
_0-0_計極細
  6
CONTINUOUS
 62
    2
 10
627.74901008710299
 20
1084.9467153284588
 11
627.74901008710299
 21
1078.9467153284588
  0
LINE
  8
_0-0_計極細
  6
CONTINUOUS
 62
    2
 10
640.74901008710299
 20
1084.9467153284588
 11
640.74901008710299
 21
1078.9467153284588
  0
LINE
  8
_0-0_計極細
  6
CONTINUOUS
 62
    2
 10
627.74901008710299
 20
1067.5467153284583
 11
627.74901008710299
 21
1061.5467153284583
  0
LINE
  8
_0-0_計極細
  6
CONTINUOUS
 62
    2
 10
640.74901008710299
 20
1067.5467153284583
 11
640.74901008710299
 21
1061.5467153284583
  0
LINE
  8
_0-0_計極細
  6
CONTINUOUS
 62
    2
 10
627.74901008710299
 20
1050.1467153284577
 11
627.74901008710299
 21
1044.1467153284577
  0
LINE
  8
_0-0_計極細
  6
CONTINUOUS
 62
    2
 10
640.74901008710299
 20
1050.1467153284577
 11
640.74901008710299
 21
1044.1467153284577
  0
LINE
  8
_0-0_計極細
  6
CONTINUOUS
 62
    2
 10
627.74901008710299
 20
992.24671532846082
 11
627.74901008710299
 21
997.9467153284611
  0
LINE
  8
_0-0_計極細
  6
CONTINUOUS
 62
    2
 10
640.74901008710299
 20
992.24671532846082
 11
640.74901008710299
 21
997.9467153284611
  0
LINE
  8
_0-0_計極細
  6
CONTINUOUS
 62
    2
 10
627.74901008710299
 20
1009.3467153284607
 11
627.74901008710299
 21
1015.3467153284612
  0
LINE
  8
_0-0_計極細
  6
CONTINUOUS
 62
    2
 10
640.74901008710299
 20
1009.3467153284607
 11
640.74901008710299
 21
1015.3467153284612
  0
LINE
  8
_0-0_計極細
  6
CONTINUOUS
 62
    2
 10
627.74901008710299
 20
1026.7467153284617
 11
627.74901008710299
 21
1032.7467153284617
  0
LINE
  8
_0-0_計極細
  6
CONTINUOUS
 62
    2
 10
640.74901008710299
 20
1026.7467153284617
 11
640.74901008710299
 21
1032.7467153284617
  0
LINE
  8
_0-0_計極細
  6
CENTER1
 62
    2
 10
634.24901008710299
 20
1139.5974347529225
 11
634.24901008710299
 21
973.08889158744773
  0
LINE
  8
_0-0_計極細
  6
CONTINUOUS
 62
    2
 10
676.24901008710299
 20
1119.4467153284597
 11
676.24901008710299
 21
1113.7467153284595
  0
LINE
  8
_0-0_計極細
  6
CONTINUOUS
 62
    2
 10
689.24901008710299
 20
1119.4467153284597
 11
689.24901008710299
 21
1113.7467153284595
  0
LINE
  8
_0-0_計極細
  6
CONTINUOUS
 62
    2
 10
676.24901008710299
 20
1102.3467153284598
 11
676.24901008710299
 21
1096.3467153284594
  0
LINE
  8
_0-0_計極細
  6
CONTINUOUS
 62
    2
 10
689.24901008710299
 20
1102.3467153284598
 11
689.24901008710299
 21
1096.3467153284594
  0
LINE
  8
_0-0_計極細
  6
CONTINUOUS
 62
    2
 10
676.24901008710299
 20
1084.9467153284588
 11
676.24901008710299
 21
1078.9467153284588
  0
LINE
  8
_0-0_計極細
  6
CONTINUOUS
 62
    2
 10
689.24901008710299
 20
1084.9467153284588
 11
689.24901008710299
 21
1078.9467153284588
  0
LINE
  8
_0-0_計極細
  6
CONTINUOUS
 62
    2
 10
676.24901008710299
 20
1067.5467153284583
 11
676.24901008710299
 21
1061.5467153284583
  0
LINE
  8
_0-0_計極細
  6
CONTINUOUS
 62
    2
 10
689.24901008710299
 20
1067.5467153284583
 11
689.24901008710299
 21
1061.5467153284583
  0
LINE
  8
_0-0_計極細
  6
CONTINUOUS
 62
    2
 10
676.24901008710299
 20
1050.1467153284577
 11
676.24901008710299
 21
1044.1467153284577
  0
LINE
  8
_0-0_計極細
  6
CONTINUOUS
 62
    2
 10
689.24901008710299
 20
1050.1467153284577
 11
689.24901008710299
 21
1044.1467153284577
  0
LINE
  8
_0-0_計極細
  6
CONTINUOUS
 62
    2
 10
676.24901008710299
 20
992.24671532846082
 11
676.24901008710299
 21
997.9467153284611
  0
LINE
  8
_0-0_計極細
  6
CONTINUOUS
 62
    2
 10
689.24901008710299
 20
992.24671532846082
 11
689.24901008710299
 21
997.9467153284611
  0
LINE
  8
_0-0_計極細
  6
CONTINUOUS
 62
    2
 10
676.24901008710299
 20
1009.3467153284607
 11
676.24901008710299
 21
1015.3467153284612
  0
LINE
  8
_0-0_計極細
  6
CONTINUOUS
 62
    2
 10
689.24901008710299
 20
1009.3467153284607
 11
689.24901008710299
 21
1015.3467153284612
  0
LINE
  8
_0-0_計極細
  6
CONTINUOUS
 62
    2
 10
676.24901008710299
 20
1026.7467153284617
 11
676.24901008710299
 21
1032.7467153284617
  0
LINE
  8
_0-0_計極細
  6
CONTINUOUS
 62
    2
 10
689.24901008710299
 20
1026.7467153284617
 11
689.24901008710299
 21
1032.7467153284617
  0
LINE
  8
_0-0_計極細
  6
CENTER1
 62
    2
 10
682.74901008710299
 20
1139.5974347529225
 11
682.74901008710299
 21
973.08889158744773
  0
LINE
  8
_0-0_計極細
  6
CONTINUOUS
 62
    2
 10
724.74901008710299
 20
1119.4467153284597
 11
724.74901008710299
 21
1113.7467153284595
  0
LINE
  8
_0-0_計極細
  6
CONTINUOUS
 62
    2
 10
737.74901008710299
 20
1119.4467153284597
 11
737.74901008710299
 21
1113.7467153284595
  0
LINE
  8
_0-0_計極細
  6
CONTINUOUS
 62
    2
 10
724.74901008710299
 20
1102.3467153284598
 11
724.74901008710299
 21
1096.3467153284594
  0
LINE
  8
_0-0_計極細
  6
CONTINUOUS
 62
    2
 10
737.74901008710299
 20
1102.3467153284598
 11
737.74901008710299
 21
1096.3467153284594
  0
LINE
  8
_0-0_計極細
  6
CONTINUOUS
 62
    2
 10
724.74901008710299
 20
1084.9467153284588
 11
724.74901008710299
 21
1078.9467153284588
  0
LINE
  8
_0-0_計極細
  6
CONTINUOUS
 62
    2
 10
737.74901008710299
 20
1084.9467153284588
 11
737.74901008710299
 21
1078.9467153284588
  0
LINE
  8
_0-0_計極細
  6
CONTINUOUS
 62
    2
 10
724.74901008710299
 20
1067.5467153284583
 11
724.74901008710299
 21
1061.5467153284583
  0
LINE
  8
_0-0_計極細
  6
CONTINUOUS
 62
    2
 10
737.74901008710299
 20
1067.5467153284583
 11
737.74901008710299
 21
1061.5467153284583
  0
LINE
  8
_0-0_計極細
  6
CONTINUOUS
 62
    2
 10
724.74901008710299
 20
1050.1467153284577
 11
724.74901008710299
 21
1044.1467153284577
  0
LINE
  8
_0-0_計極細
  6
CONTINUOUS
 62
    2
 10
737.74901008710299
 20
1050.1467153284577
 11
737.74901008710299
 21
1044.1467153284577
  0
LINE
  8
_0-0_計極細
  6
CONTINUOUS
 62
    2
 10
724.74901008710299
 20
992.24671532846082
 11
724.74901008710299
 21
997.9467153284611
  0
LINE
  8
_0-0_計極細
  6
CONTINUOUS
 62
    2
 10
737.74901008710299
 20
992.24671532846082
 11
737.74901008710299
 21
997.9467153284611
  0
LINE
  8
_0-0_計極細
  6
CONTINUOUS
 62
    2
 10
724.74901008710299
 20
1009.3467153284607
 11
724.74901008710299
 21
1015.3467153284612
  0
LINE
  8
_0-0_計極細
  6
CONTINUOUS
 62
    2
 10
737.74901008710299
 20
1009.3467153284607
 11
737.74901008710299
 21
1015.3467153284612
  0
LINE
  8
_0-0_計極細
  6
CONTINUOUS
 62
    2
 10
724.74901008710299
 20
1026.7467153284617
 11
724.74901008710299
 21
1032.7467153284617
  0
LINE
  8
_0-0_計極細
  6
CONTINUOUS
 62
    2
 10
737.74901008710299
 20
1026.7467153284617
 11
737.74901008710299
 21
1032.7467153284617
  0
LINE
  8
_0-0_計極細
  6
CENTER1
 62
    2
 10
731.24901008710299
 20
1139.5974347529225
 11
731.24901008710299
 21
973.08889158744773
  0
LINE
  8
_0-0_計極細
  6
CONTINUOUS
 62
    2
 10
773.24901008710299
 20
1119.4467153284597
 11
773.24901008710299
 21
1113.7467153284595
  0
LINE
  8
_0-0_計極細
  6
CONTINUOUS
 62
    2
 10
786.24901008710299
 20
1119.4467153284597
 11
786.24901008710299
 21
1113.7467153284595
  0
LINE
  8
_0-0_計極細
  6
CONTINUOUS
 62
    2
 10
773.24901008710299
 20
1102.3467153284598
 11
773.24901008710299
 21
1096.3467153284594
  0
LINE
  8
_0-0_計極細
  6
CONTINUOUS
 62
    2
 10
786.24901008710299
 20
1102.3467153284598
 11
786.24901008710299
 21
1096.3467153284594
  0
LINE
  8
_0-0_計極細
  6
CONTINUOUS
 62
    2
 10
773.24901008710299
 20
1084.9467153284588
 11
773.24901008710299
 21
1078.9467153284588
  0
LINE
  8
_0-0_計極細
  6
CONTINUOUS
 62
    2
 10
786.24901008710299
 20
1084.9467153284588
 11
786.24901008710299
 21
1078.9467153284588
  0
LINE
  8
_0-0_計極細
  6
CONTINUOUS
 62
    2
 10
773.24901008710299
 20
1067.5467153284583
 11
773.24901008710299
 21
1061.5467153284583
  0
LINE
  8
_0-0_計極細
  6
CONTINUOUS
 62
    2
 10
786.24901008710299
 20
1067.5467153284583
 11
786.24901008710299
 21
1061.5467153284583
  0
LINE
  8
_0-0_計極細
  6
CONTINUOUS
 62
    2
 10
773.24901008710299
 20
1050.1467153284577
 11
773.24901008710299
 21
1044.1467153284577
  0
LINE
  8
_0-0_計極細
  6
CONTINUOUS
 62
    2
 10
786.24901008710299
 20
1050.1467153284577
 11
786.24901008710299
 21
1044.1467153284577
  0
LINE
  8
_0-0_計極細
  6
CONTINUOUS
 62
    2
 10
773.24901008710299
 20
992.24671532846082
 11
773.24901008710299
 21
997.9467153284611
  0
LINE
  8
_0-0_計極細
  6
CONTINUOUS
 62
    2
 10
786.24901008710299
 20
992.24671532846082
 11
786.24901008710299
 21
997.9467153284611
  0
LINE
  8
_0-0_計極細
  6
CONTINUOUS
 62
    2
 10
773.24901008710299
 20
1009.3467153284607
 11
773.24901008710299
 21
1015.3467153284612
  0
LINE
  8
_0-0_計極細
  6
CONTINUOUS
 62
    2
 10
786.24901008710299
 20
1009.3467153284607
 11
786.24901008710299
 21
1015.3467153284612
  0
LINE
  8
_0-0_計極細
  6
CONTINUOUS
 62
    2
 10
773.24901008710299
 20
1026.7467153284617
 11
773.24901008710299
 21
1032.7467153284617
  0
LINE
  8
_0-0_計極細
  6
CONTINUOUS
 62
    2
 10
786.24901008710299
 20
1026.7467153284617
 11
786.24901008710299
 21
1032.7467153284617
  0
LINE
  8
_0-0_計極細
  6
CENTER1
 62
    2
 10
779.74901008710299
 20
1139.5974347529225
 11
779.74901008710299
 21
973.08889158744773
  0
LINE
  8
_0-0_計極細
  6
CONTINUOUS
 62
    2
 10
821.74901008710299
 20
1119.4467153284597
 11
821.74901008710299
 21
1113.7467153284595
  0
LINE
  8
_0-0_計極細
  6
CONTINUOUS
 62
    2
 10
834.74901008710299
 20
1119.4467153284597
 11
834.74901008710299
 21
1113.7467153284595
  0
LINE
  8
_0-0_計極細
  6
CONTINUOUS
 62
    2
 10
821.74901008710299
 20
1102.3467153284598
 11
821.74901008710299
 21
1096.3467153284594
  0
LINE
  8
_0-0_計極細
  6
CONTINUOUS
 62
    2
 10
834.74901008710299
 20
1102.3467153284598
 11
834.74901008710299
 21
1096.3467153284594
  0
LINE
  8
_0-0_計極細
  6
CONTINUOUS
 62
    2
 10
821.74901008710299
 20
1084.9467153284588
 11
821.74901008710299
 21
1078.9467153284588
  0
LINE
  8
_0-0_計極細
  6
CONTINUOUS
 62
    2
 10
834.74901008710299
 20
1084.9467153284588
 11
834.74901008710299
 21
1078.9467153284588
  0
LINE
  8
_0-0_計極細
  6
CONTINUOUS
 62
    2
 10
821.74901008710299
 20
1067.5467153284583
 11
821.74901008710299
 21
1061.5467153284583
  0
LINE
  8
_0-0_計極細
  6
CONTINUOUS
 62
    2
 10
834.74901008710299
 20
1067.5467153284583
 11
834.74901008710299
 21
1061.5467153284583
  0
LINE
  8
_0-0_計極細
  6
CONTINUOUS
 62
    2
 10
821.74901008710299
 20
1050.1467153284577
 11
821.74901008710299
 21
1044.1467153284577
  0
LINE
  8
_0-0_計極細
  6
CONTINUOUS
 62
    2
 10
834.74901008710299
 20
1050.1467153284577
 11
834.74901008710299
 21
1044.1467153284577
  0
LINE
  8
_0-0_計極細
  6
CONTINUOUS
 62
    2
 10
821.74901008710299
 20
992.24671532846082
 11
821.74901008710299
 21
997.9467153284611
  0
LINE
  8
_0-0_計極細
  6
CONTINUOUS
 62
    2
 10
834.74901008710299
 20
992.24671532846082
 11
834.74901008710299
 21
997.9467153284611
  0
LINE
  8
_0-0_計極細
  6
CONTINUOUS
 62
    2
 10
821.74901008710299
 20
1009.3467153284607
 11
821.74901008710299
 21
1015.3467153284612
  0
LINE
  8
_0-0_計極細
  6
CONTINUOUS
 62
    2
 10
834.74901008710299
 20
1009.3467153284607
 11
834.74901008710299
 21
1015.3467153284612
  0
LINE
  8
_0-0_計極細
  6
CONTINUOUS
 62
    2
 10
821.74901008710299
 20
1026.7467153284617
 11
821.74901008710299
 21
1032.7467153284617
  0
LINE
  8
_0-0_計極細
  6
CONTINUOUS
 62
    2
 10
834.74901008710299
 20
1026.7467153284617
 11
834.74901008710299
 21
1032.7467153284617
  0
LINE
  8
_0-0_計極細
  6
CENTER1
 62
    2
 10
828.24901008710299
 20
1139.5974347529225
 11
828.24901008710299
 21
973.08889158744773
  0
LINE
  8
_0-0_計極細
  6
CONTINUOUS
 62
    2
 10
870.24901008710299
 20
1119.4467153284597
 11
870.24901008710299
 21
1113.7467153284595
  0
LINE
  8
_0-0_計極細
  6
CONTINUOUS
 62
    2
 10
883.24901008710299
 20
1119.4467153284597
 11
883.24901008710299
 21
1113.7467153284595
  0
LINE
  8
_0-0_計極細
  6
CONTINUOUS
 62
    2
 10
870.24901008710299
 20
1102.3467153284598
 11
870.24901008710299
 21
1096.3467153284594
  0
LINE
  8
_0-0_計極細
  6
CONTINUOUS
 62
    2
 10
883.24901008710299
 20
1102.3467153284598
 11
883.24901008710299
 21
1096.3467153284594
  0
LINE
  8
_0-0_計極細
  6
CONTINUOUS
 62
    2
 10
870.24901008710299
 20
1084.9467153284588
 11
870.24901008710299
 21
1078.9467153284588
  0
LINE
  8
_0-0_計極細
  6
CONTINUOUS
 62
    2
 10
883.24901008710299
 20
1084.9467153284588
 11
883.24901008710299
 21
1078.9467153284588
  0
LINE
  8
_0-0_計極細
  6
CONTINUOUS
 62
    2
 10
870.24901008710299
 20
1067.5467153284583
 11
870.24901008710299
 21
1061.5467153284583
  0
LINE
  8
_0-0_計極細
  6
CONTINUOUS
 62
    2
 10
883.24901008710299
 20
1067.5467153284583
 11
883.24901008710299
 21
1061.5467153284583
  0
LINE
  8
_0-0_計極細
  6
CONTINUOUS
 62
    2
 10
870.24901008710299
 20
1050.1467153284577
 11
870.24901008710299
 21
1044.1467153284577
  0
LINE
  8
_0-0_計極細
  6
CONTINUOUS
 62
    2
 10
883.24901008710299
 20
1050.1467153284577
 11
883.24901008710299
 21
1044.1467153284577
  0
LINE
  8
_0-0_計極細
  6
CONTINUOUS
 62
    2
 10
870.24901008710299
 20
992.24671532846082
 11
870.24901008710299
 21
997.9467153284611
  0
LINE
  8
_0-0_計極細
  6
CONTINUOUS
 62
    2
 10
883.24901008710299
 20
992.24671532846082
 11
883.24901008710299
 21
997.9467153284611
  0
LINE
  8
_0-0_計極細
  6
CONTINUOUS
 62
    2
 10
870.24901008710299
 20
1009.3467153284607
 11
870.24901008710299
 21
1015.3467153284612
  0
LINE
  8
_0-0_計極細
  6
CONTINUOUS
 62
    2
 10
883.24901008710299
 20
1009.3467153284607
 11
883.24901008710299
 21
1015.3467153284612
  0
LINE
  8
_0-0_計極細
  6
CONTINUOUS
 62
    2
 10
870.24901008710299
 20
1026.7467153284617
 11
870.24901008710299
 21
1032.7467153284617
  0
LINE
  8
_0-0_計極細
  6
CONTINUOUS
 62
    2
 10
883.24901008710299
 20
1026.7467153284617
 11
883.24901008710299
 21
1032.7467153284617
  0
LINE
  8
_0-0_計極細
  6
CENTER1
 62
    2
 10
876.74901008710299
 20
1139.5974347529225
 11
876.74901008710299
 21
973.08889158744773
  0
LINE
  8
_0-0_計極細
  6
CONTINUOUS
 62
    2
 10
918.74901008710299
 20
1119.4467153284597
 11
918.74901008710299
 21
1113.7467153284595
  0
LINE
  8
_0-0_計極細
  6
CONTINUOUS
 62
    2
 10
931.74901008710299
 20
1119.4467153284597
 11
931.74901008710299
 21
1113.7467153284595
  0
LINE
  8
_0-0_計極細
  6
CONTINUOUS
 62
    2
 10
918.74901008710299
 20
1102.3467153284598
 11
918.74901008710299
 21
1096.3467153284594
  0
LINE
  8
_0-0_計極細
  6
CONTINUOUS
 62
    2
 10
931.74901008710299
 20
1102.3467153284598
 11
931.74901008710299
 21
1096.3467153284594
  0
LINE
  8
_0-0_計極細
  6
CONTINUOUS
 62
    2
 10
918.74901008710299
 20
1084.9467153284588
 11
918.74901008710299
 21
1078.9467153284588
  0
LINE
  8
_0-0_計極細
  6
CONTINUOUS
 62
    2
 10
931.74901008710299
 20
1084.9467153284588
 11
931.74901008710299
 21
1078.9467153284588
  0
LINE
  8
_0-0_計極細
  6
CONTINUOUS
 62
    2
 10
918.74901008710299
 20
1067.5467153284583
 11
918.74901008710299
 21
1061.5467153284583
  0
LINE
  8
_0-0_計極細
  6
CONTINUOUS
 62
    2
 10
931.74901008710299
 20
1067.5467153284583
 11
931.74901008710299
 21
1061.5467153284583
  0
LINE
  8
_0-0_計極細
  6
CONTINUOUS
 62
    2
 10
918.74901008710299
 20
1050.1467153284577
 11
918.74901008710299
 21
1044.1467153284577
  0
LINE
  8
_0-0_計極細
  6
CONTINUOUS
 62
    2
 10
931.74901008710299
 20
1050.1467153284577
 11
931.74901008710299
 21
1044.1467153284577
  0
LINE
  8
_0-0_計極細
  6
CONTINUOUS
 62
    2
 10
918.74901008710299
 20
992.24671532846082
 11
918.74901008710299
 21
997.9467153284611
  0
LINE
  8
_0-0_計極細
  6
CONTINUOUS
 62
    2
 10
931.74901008710299
 20
992.24671532846082
 11
931.74901008710299
 21
997.9467153284611
  0
LINE
  8
_0-0_計極細
  6
CONTINUOUS
 62
    2
 10
918.74901008710299
 20
1009.3467153284607
 11
918.74901008710299
 21
1015.3467153284612
  0
LINE
  8
_0-0_計極細
  6
CONTINUOUS
 62
    2
 10
931.74901008710299
 20
1009.3467153284607
 11
931.74901008710299
 21
1015.3467153284612
  0
LINE
  8
_0-0_計極細
  6
CONTINUOUS
 62
    2
 10
918.74901008710299
 20
1026.7467153284617
 11
918.74901008710299
 21
1032.7467153284617
  0
LINE
  8
_0-0_計極細
  6
CONTINUOUS
 62
    2
 10
931.74901008710299
 20
1026.7467153284617
 11
931.74901008710299
 21
1032.7467153284617
  0
LINE
  8
_0-0_計極細
  6
CENTER1
 62
    2
 10
925.24901008710299
 20
1139.5974347529225
 11
925.24901008710299
 21
973.08889158744773
  0
LINE
  8
_0-0_計極細
  6
CONTINUOUS
 62
    2
 10
967.24901008710299
 20
1119.4467153284597
 11
967.24901008710299
 21
1113.7467153284595
  0
LINE
  8
_0-0_計極細
  6
CONTINUOUS
 62
    2
 10
980.24901008710299
 20
1119.4467153284597
 11
980.24901008710299
 21
1113.7467153284595
  0
LINE
  8
_0-0_計極細
  6
CONTINUOUS
 62
    2
 10
967.24901008710299
 20
1102.3467153284598
 11
967.24901008710299
 21
1096.3467153284594
  0
LINE
  8
_0-0_計極細
  6
CONTINUOUS
 62
    2
 10
980.24901008710299
 20
1102.3467153284598
 11
980.24901008710299
 21
1096.3467153284594
  0
LINE
  8
_0-0_計極細
  6
CONTINUOUS
 62
    2
 10
967.24901008710299
 20
1084.9467153284588
 11
967.24901008710299
 21
1078.9467153284588
  0
LINE
  8
_0-0_計極細
  6
CONTINUOUS
 62
    2
 10
980.24901008710299
 20
1084.9467153284588
 11
980.24901008710299
 21
1078.9467153284588
  0
LINE
  8
_0-0_計極細
  6
CONTINUOUS
 62
    2
 10
967.24901008710299
 20
1067.5467153284583
 11
967.24901008710299
 21
1061.5467153284583
  0
LINE
  8
_0-0_計極細
  6
CONTINUOUS
 62
    2
 10
980.24901008710299
 20
1067.5467153284583
 11
980.24901008710299
 21
1061.5467153284583
  0
LINE
  8
_0-0_計極細
  6
CONTINUOUS
 62
    2
 10
967.24901008710299
 20
1050.1467153284577
 11
967.24901008710299
 21
1044.1467153284577
  0
LINE
  8
_0-0_計極細
  6
CONTINUOUS
 62
    2
 10
980.24901008710299
 20
1050.1467153284577
 11
980.24901008710299
 21
1044.1467153284577
  0
LINE
  8
_0-0_計極細
  6
CONTINUOUS
 62
    2
 10
967.24901008710299
 20
992.24671532846082
 11
967.24901008710299
 21
997.9467153284611
  0
LINE
  8
_0-0_計極細
  6
CONTINUOUS
 62
    2
 10
980.24901008710299
 20
992.24671532846082
 11
980.24901008710299
 21
997.9467153284611
  0
LINE
  8
_0-0_計極細
  6
CONTINUOUS
 62
    2
 10
967.24901008710299
 20
1009.3467153284607
 11
967.24901008710299
 21
1015.3467153284612
  0
LINE
  8
_0-0_計極細
  6
CONTINUOUS
 62
    2
 10
980.24901008710299
 20
1009.3467153284607
 11
980.24901008710299
 21
1015.3467153284612
  0
LINE
  8
_0-0_計極細
  6
CONTINUOUS
 62
    2
 10
967.24901008710299
 20
1026.7467153284617
 11
967.24901008710299
 21
1032.7467153284617
  0
LINE
  8
_0-0_計極細
  6
CONTINUOUS
 62
    2
 10
980.24901008710299
 20
1026.7467153284617
 11
980.24901008710299
 21
1032.7467153284617
  0
LINE
  8
_0-0_計極細
  6
CENTER1
 62
    2
 10
973.74901008710299
 20
1139.5974347529225
 11
973.74901008710299
 21
973.08889158744773
  0
LINE
  8
_0-0_計極細
  6
CONTINUOUS
 62
    2
 10
1015.749010087103
 20
1119.4467153284597
 11
1015.749010087103
 21
1113.7467153284595
  0
LINE
  8
_0-0_計極細
  6
CONTINUOUS
 62
    2
 10
1028.749010087103
 20
1119.4467153284597
 11
1028.749010087103
 21
1113.7467153284595
  0
LINE
  8
_0-0_計極細
  6
CONTINUOUS
 62
    2
 10
1015.749010087103
 20
1102.3467153284598
 11
1015.749010087103
 21
1096.3467153284594
  0
LINE
  8
_0-0_計極細
  6
CONTINUOUS
 62
    2
 10
1028.749010087103
 20
1102.3467153284598
 11
1028.749010087103
 21
1096.3467153284594
  0
LINE
  8
_0-0_計極細
  6
CONTINUOUS
 62
    2
 10
1015.749010087103
 20
1084.9467153284588
 11
1015.749010087103
 21
1078.9467153284588
  0
LINE
  8
_0-0_計極細
  6
CONTINUOUS
 62
    2
 10
1028.749010087103
 20
1084.9467153284588
 11
1028.749010087103
 21
1078.9467153284588
  0
LINE
  8
_0-0_計極細
  6
CONTINUOUS
 62
    2
 10
1015.749010087103
 20
1067.5467153284583
 11
1015.749010087103
 21
1061.5467153284583
  0
LINE
  8
_0-0_計極細
  6
CONTINUOUS
 62
    2
 10
1028.749010087103
 20
1067.5467153284583
 11
1028.749010087103
 21
1061.5467153284583
  0
LINE
  8
_0-0_計極細
  6
CONTINUOUS
 62
    2
 10
1015.749010087103
 20
1050.1467153284577
 11
1015.749010087103
 21
1044.1467153284577
  0
LINE
  8
_0-0_計極細
  6
CONTINUOUS
 62
    2
 10
1028.749010087103
 20
1050.1467153284577
 11
1028.749010087103
 21
1044.1467153284577
  0
LINE
  8
_0-0_計極細
  6
CONTINUOUS
 62
    2
 10
1015.749010087103
 20
992.24671532846082
 11
1015.749010087103
 21
997.9467153284611
  0
LINE
  8
_0-0_計極細
  6
CONTINUOUS
 62
    2
 10
1028.749010087103
 20
992.24671532846082
 11
1028.749010087103
 21
997.9467153284611
  0
LINE
  8
_0-0_計極細
  6
CONTINUOUS
 62
    2
 10
1015.749010087103
 20
1009.3467153284607
 11
1015.749010087103
 21
1015.3467153284612
  0
LINE
  8
_0-0_計極細
  6
CONTINUOUS
 62
    2
 10
1028.749010087103
 20
1009.3467153284607
 11
1028.749010087103
 21
1015.3467153284612
  0
LINE
  8
_0-0_計極細
  6
CONTINUOUS
 62
    2
 10
1015.749010087103
 20
1026.7467153284617
 11
1015.749010087103
 21
1032.7467153284617
  0
LINE
  8
_0-0_計極細
  6
CONTINUOUS
 62
    2
 10
1028.749010087103
 20
1026.7467153284617
 11
1028.749010087103
 21
1032.7467153284617
  0
LINE
  8
_0-0_計極細
  6
CENTER1
 62
    2
 10
1022.249010087103
 20
1139.5974347529225
 11
1022.249010087103
 21
973.08889158744773
  0
LINE
  8
_0-0_計極細
  6
CONTINUOUS
 62
    2
 10
1064.249010087103
 20
1119.4467153284597
 11
1064.249010087103
 21
1113.7467153284595
  0
LINE
  8
_0-0_計極細
  6
CONTINUOUS
 62
    2
 10
1077.249010087103
 20
1119.4467153284597
 11
1077.249010087103
 21
1113.7467153284595
  0
LINE
  8
_0-0_計極細
  6
CONTINUOUS
 62
    2
 10
1064.249010087103
 20
1102.3467153284598
 11
1064.249010087103
 21
1096.3467153284594
  0
LINE
  8
_0-0_計極細
  6
CONTINUOUS
 62
    2
 10
1077.249010087103
 20
1102.3467153284598
 11
1077.249010087103
 21
1096.3467153284594
  0
LINE
  8
_0-0_計極細
  6
CONTINUOUS
 62
    2
 10
1064.249010087103
 20
1084.9467153284588
 11
1064.249010087103
 21
1078.9467153284588
  0
LINE
  8
_0-0_計極細
  6
CONTINUOUS
 62
    2
 10
1077.249010087103
 20
1084.9467153284588
 11
1077.249010087103
 21
1078.9467153284588
  0
LINE
  8
_0-0_計極細
  6
CONTINUOUS
 62
    2
 10
1064.249010087103
 20
1067.5467153284583
 11
1064.249010087103
 21
1061.5467153284583
  0
LINE
  8
_0-0_計極細
  6
CONTINUOUS
 62
    2
 10
1077.249010087103
 20
1067.5467153284583
 11
1077.249010087103
 21
1061.5467153284583
  0
LINE
  8
_0-0_計極細
  6
CONTINUOUS
 62
    2
 10
1064.249010087103
 20
1050.1467153284577
 11
1064.249010087103
 21
1044.1467153284577
  0
LINE
  8
_0-0_計極細
  6
CONTINUOUS
 62
    2
 10
1077.249010087103
 20
1050.1467153284577
 11
1077.249010087103
 21
1044.1467153284577
  0
LINE
  8
_0-0_計極細
  6
CONTINUOUS
 62
    2
 10
1064.249010087103
 20
992.24671532846082
 11
1064.249010087103
 21
997.9467153284611
  0
LINE
  8
_0-0_計極細
  6
CONTINUOUS
 62
    2
 10
1077.249010087103
 20
992.24671532846082
 11
1077.249010087103
 21
997.9467153284611
  0
LINE
  8
_0-0_計極細
  6
CONTINUOUS
 62
    2
 10
1064.249010087103
 20
1009.3467153284607
 11
1064.249010087103
 21
1015.3467153284612
  0
LINE
  8
_0-0_計極細
  6
CONTINUOUS
 62
    2
 10
1077.249010087103
 20
1009.3467153284607
 11
1077.249010087103
 21
1015.3467153284612
  0
LINE
  8
_0-0_計極細
  6
CONTINUOUS
 62
    2
 10
1064.249010087103
 20
1026.7467153284617
 11
1064.249010087103
 21
1032.7467153284617
  0
LINE
  8
_0-0_計極細
  6
CONTINUOUS
 62
    2
 10
1077.249010087103
 20
1026.7467153284617
 11
1077.249010087103
 21
1032.7467153284617
  0
LINE
  8
_0-0_計極細
  6
CENTER1
 62
    2
 10
1070.749010087103
 20
1139.5974347529225
 11
1070.749010087103
 21
973.08889158744773
  0
LINE
  8
_0-0_計極細
  6
CONTINUOUS
 62
    2
 10
1112.749010087103
 20
1119.4467153284597
 11
1112.749010087103
 21
1113.7467153284595
  0
LINE
  8
_0-0_計極細
  6
CONTINUOUS
 62
    2
 10
1125.749010087103
 20
1119.4467153284597
 11
1125.749010087103
 21
1113.7467153284595
  0
LINE
  8
_0-0_計極細
  6
CONTINUOUS
 62
    2
 10
1112.749010087103
 20
1102.3467153284598
 11
1112.749010087103
 21
1096.3467153284594
  0
LINE
  8
_0-0_計極細
  6
CONTINUOUS
 62
    2
 10
1125.749010087103
 20
1102.3467153284598
 11
1125.749010087103
 21
1096.3467153284594
  0
LINE
  8
_0-0_計極細
  6
CONTINUOUS
 62
    2
 10
1112.749010087103
 20
1084.9467153284588
 11
1112.749010087103
 21
1078.9467153284588
  0
LINE
  8
_0-0_計極細
  6
CONTINUOUS
 62
    2
 10
1125.749010087103
 20
1084.9467153284588
 11
1125.749010087103
 21
1078.9467153284588
  0
LINE
  8
_0-0_計極細
  6
CONTINUOUS
 62
    2
 10
1112.749010087103
 20
1067.5467153284583
 11
1112.749010087103
 21
1061.5467153284583
  0
LINE
  8
_0-0_計極細
  6
CONTINUOUS
 62
    2
 10
1125.749010087103
 20
1067.5467153284583
 11
1125.749010087103
 21
1061.5467153284583
  0
LINE
  8
_0-0_計極細
  6
CONTINUOUS
 62
    2
 10
1112.749010087103
 20
1050.1467153284577
 11
1112.749010087103
 21
1044.1467153284577
  0
LINE
  8
_0-0_計極細
  6
CONTINUOUS
 62
    2
 10
1125.749010087103
 20
1050.1467153284577
 11
1125.749010087103
 21
1044.1467153284577
  0
LINE
  8
_0-0_計極細
  6
CONTINUOUS
 62
    2
 10
1112.749010087103
 20
992.24671532846082
 11
1112.749010087103
 21
997.9467153284611
  0
LINE
  8
_0-0_計極細
  6
CONTINUOUS
 62
    2
 10
1125.749010087103
 20
992.24671532846082
 11
1125.749010087103
 21
997.9467153284611
  0
LINE
  8
_0-0_計極細
  6
CONTINUOUS
 62
    2
 10
1112.749010087103
 20
1009.3467153284607
 11
1112.749010087103
 21
1015.3467153284612
  0
LINE
  8
_0-0_計極細
  6
CONTINUOUS
 62
    2
 10
1125.749010087103
 20
1009.3467153284607
 11
1125.749010087103
 21
1015.3467153284612
  0
LINE
  8
_0-0_計極細
  6
CONTINUOUS
 62
    2
 10
1112.749010087103
 20
1026.7467153284617
 11
1112.749010087103
 21
1032.7467153284617
  0
LINE
  8
_0-0_計極細
  6
CONTINUOUS
 62
    2
 10
1125.749010087103
 20
1026.7467153284617
 11
1125.749010087103
 21
1032.7467153284617
  0
LINE
  8
_0-0_計極細
  6
CENTER1
 62
    2
 10
1119.249010087103
 20
1139.5974347529225
 11
1119.249010087103
 21
973.08889158744773
  0
LINE
  8
_0-1_計細線
  6
CONTINUOUS
 62
    3
 10
280.2490100871031
 20
1078.9467153284588
 11
1279.249010087103
 21
1078.9467153284588
  0
LINE
  8
_0-1_計細線
  6
CONTINUOUS
 62
    3
 10
1279.249010087103
 20
1078.9467153284588
 11
1279.249010087103
 21
1067.5467153284583
  0
LINE
  8
_0-0_計極細
  6
CONTINUOUS
 62
    2
 10
280.2490100871031
 20
1070.7467153284585
 11
1279.249010087103
 21
1070.7467153284585
  0
LINE
  8
_0-0_計極細
  6
CONTINUOUS
 62
    2
 10
280.2490100871031
 20
1075.7467153284585
 11
1279.249010087103
 21
1075.7467153284585
  0
LINE
  8
_0-1_計細線
  6
CONTINUOUS
 62
    3
 10
280.2490100871031
 20
1078.9467153284588
 11
280.2490100871031
 21
1067.5467153284583
  0
LINE
  8
_0-1_計細線
  6
CONTINUOUS
 62
    3
 10
280.2490100871031
 20
1067.5467153284583
 11
1279.249010087103
 21
1067.5467153284583
  0
LINE
  8
_0-1_計細線
  6
CONTINUOUS
 62
    3
 10
280.2490100871031
 20
1050.1467153284577
 11
1279.249010087103
 21
1050.1467153284577
  0
LINE
  8
_0-1_計細線
  6
CONTINUOUS
 62
    3
 10
1279.249010087103
 20
1061.5467153284583
 11
1279.249010087103
 21
1050.1467153284577
  0
LINE
  8
_0-0_計極細
  6
CONTINUOUS
 62
    2
 10
280.2490100871031
 20
1053.346715328458
 11
1279.249010087103
 21
1053.346715328458
  0
LINE
  8
_0-0_計極細
  6
CONTINUOUS
 62
    2
 10
280.2490100871031
 20
1058.346715328458
 11
1279.249010087103
 21
1058.346715328458
  0
LINE
  8
_0-1_計細線
  6
CONTINUOUS
 62
    3
 10
280.2490100871031
 20
1061.5467153284583
 11
1279.249010087103
 21
1061.5467153284583
  0
LINE
  8
_0-1_計細線
  6
CONTINUOUS
 62
    3
 10
280.2490100871031
 20
1061.5467153284583
 11
280.2490100871031
 21
1050.1467153284577
  0
LINE
  8
_0-0_計極細
  6
CONTINUOUS
 62
    2
 10
385.24901008710287
 20
1067.5467153284583
 11
385.24901008710287
 21
1066.8967153284605
  0
LINE
  8
_0-0_計極細
  6
CONTINUOUS
 62
    2
 10
385.24901008710287
 20
1062.1967153284606
 11
385.24901008710287
 21
1061.5467153284583
  0
LINE
  8
_0-0_計極細
  6
CONTINUOUS
 62
    2
 10
398.24901008710287
 20
1067.5467153284583
 11
398.24901008710287
 21
1066.8967153284605
  0
LINE
  8
_0-0_計極細
  6
CONTINUOUS
 62
    2
 10
398.24901008710287
 20
1062.1967153284606
 11
398.24901008710287
 21
1061.5467153284583
  0
LINE
  8
_0-5_寸法線
  6
CONTINUOUS
 62
    7
 10
1316.749010087103
 20
1135.8467153284603
 11
1423.249010087103
 21
1135.8467153284603
  0
LINE
  8
_0-5_寸法線
  6
CONTINUOUS
 62
    7
 10
1415.249010087103
 20
1135.8467153284603
 11
1419.3901148087432
 21
1120.3919021078352
  0
LINE
  8
_0-5_寸法線
  6
CONTINUOUS
 62
    7
 10
1415.249010087103
 20
1135.8467153284603
 11
1411.1079053654626
 21
1120.3919021078352
  0
LINE
  8
_0-5_寸法線
  6
CONTINUOUS
 62
    7
 10
1316.7490100871021
 20
975.84671532845528
 11
1423.2490100871034
 21
975.84671532845528
  0
LINE
  8
_0-5_寸法線
  6
CONTINUOUS
 62
    7
 10
1415.2490100871034
 20
975.84671532845528
 11
1411.107905365463
 21
991.30152854908033
  0
LINE
  8
_0-5_寸法線
  6
CONTINUOUS
 62
    7
 10
1415.2490100871034
 20
975.84671532845528
 11
1419.3901148087436
 21
991.30152854908033
  0
LINE
  8
_0-5_寸法線
  6
CONTINUOUS
 62
    7
 10
1415.249010087103
 20
1135.8467153284603
 11
1415.2490100871034
 21
975.84671532845528
  0
TEXT
  8
_0-5_寸法線
 62
    7
 10
1415.2490100871034
 20
1037.8467153284582
 40
24
 41
1
 50
90
  1
160
  0
LINE
  8
_0-5_寸法線
  6
CONTINUOUS
 62
    7
 10
242.74901008710128
 20
1135.8467153284603
 11
192.2490100871031
 21
1135.8467153284603
  0
LINE
  8
_0-5_寸法線
  6
CONTINUOUS
 62
    7
 10
200.2490100871031
 20
1135.8467153284603
 11
204.39011480874342
 21
1120.3919021078352
  0
LINE
  8
_0-5_寸法線
  6
CONTINUOUS
 62
    7
 10
200.2490100871031
 20
1135.8467153284603
 11
196.10790536546267
 21
1120.3919021078352
  0
LINE
  8
_0-5_寸法線
  6
CONTINUOUS
 62
    7
 10
242.74901008710401
 20
1105.8467153284603
 11
192.2490100871031
 21
1105.8467153284603
  0
LINE
  8
_0-5_寸法線
  6
CONTINUOUS
 62
    7
 10
200.2490100871031
 20
1105.8467153284603
 11
196.10790536546278
 21
1121.3015285490853
  0
LINE
  8
_0-5_寸法線
  6
CONTINUOUS
 62
    7
 10
200.2490100871031
 20
1105.8467153284603
 11
204.39011480874342
 21
1121.3015285490853
  0
LINE
  8
_0-5_寸法線
  6
CONTINUOUS
 62
    7
 10
200.2490100871031
 20
1135.8467153284603
 11
200.2490100871031
 21
1105.8467153284603
  0
TEXT
  8
_0-5_寸法線
 62
    7
 10
200.2490100871031
 20
1108.8467153284603
 40
24
 41
1
 50
90
  1
30
  0
LINE
  8
_0-5_寸法線
  6
CONTINUOUS
 62
    7
 10
200.2490100871031
 20
1105.8467153284603
 11
204.39011480874342
 21
1090.3919021078352
  0
LINE
  8
_0-5_寸法線
  6
CONTINUOUS
 62
    7
 10
200.2490100871031
 20
1105.8467153284603
 11
196.10790536546278
 21
1090.3919021078352
  0
LINE
  8
_0-5_寸法線
  6
CONTINUOUS
 62
    7
 10
242.74901008710174
 20
1005.8467153284589
 11
192.2490100871031
 21
1005.8467153284589
  0
LINE
  8
_0-5_寸法線
  6
CONTINUOUS
 62
    7
 10
200.2490100871031
 20
1005.8467153284589
 11
196.10790536546278
 21
1021.301528549084
  0
LINE
  8
_0-5_寸法線
  6
CONTINUOUS
 62
    7
 10
200.2490100871031
 20
1005.8467153284589
 11
204.39011480874342
 21
1021.301528549084
  0
LINE
  8
_0-5_寸法線
  6
CONTINUOUS
 62
    7
 10
200.2490100871031
 20
1105.8467153284603
 11
200.2490100871031
 21
1005.8467153284589
  0
TEXT
  8
_0-5_寸法線
 62
    7
 10
200.2490100871031
 20
1037.84671532846
 40
24
 41
1
 50
90
  1
100
  0
LINE
  8
_0-5_寸法線
  6
CONTINUOUS
 62
    7
 10
200.2490100871031
 20
1005.8467153284589
 11
204.39011480874342
 21
990.39190210783386
  0
LINE
  8
_0-5_寸法線
  6
CONTINUOUS
 62
    7
 10
200.2490100871031
 20
1005.8467153284589
 11
196.10790536546278
 21
990.39190210783386
  0
LINE
  8
_0-5_寸法線
  6
CONTINUOUS
 62
    7
 10
242.74901008710674
 20
975.8467153284621
 11
192.2490100871031
 21
975.8467153284621
  0
LINE
  8
_0-5_寸法線
  6
CONTINUOUS
 62
    7
 10
200.2490100871031
 20
975.8467153284621
 11
196.10790536546278
 21
991.30152854908715
  0
LINE
  8
_0-5_寸法線
  6
CONTINUOUS
 62
    7
 10
200.2490100871031
 20
975.8467153284621
 11
204.39011480874342
 21
991.30152854908715
  0
LINE
  8
_0-5_寸法線
  6
CONTINUOUS
 62
    7
 10
200.2490100871031
 20
1005.8467153284589
 11
200.2490100871031
 21
975.8467153284621
  0
TEXT
  8
_0-5_寸法線
 62
    7
 10
200.2490100871031
 20
978.84671532846016
 40
24
 41
1
 50
90
  1
30
  0
LINE
  8
_0-a_極細3
  6
CENTER1
 62
    7
 10
779.74901008710287
 20
348.63828227066574
 11
779.74901008710287
 21
463.49161560400904
  0
LINE
  8
_0-a_極細3
  6
CONTINUOUS
 62
    7
 10
459.74901008710196
 20
355.86894278071873
 11
459.74901008710196
 21
246.53560944738501
  0
LINE
  8
_0-a_極細3
  6
CONTINUOUS
 62
    7
 10
593.08234342043556
 20
246.53560944738501
 11
459.74901008710196
 21
246.53560944738501
  0
LINE
  8
_0-a_極細3
  6
CONTINUOUS
 62
    7
 10
459.74901008710196
 20
355.86894278071873
 11
410.39794798825221
 21
355.86894278071873
  0
LINE
  8
_0-a_極細3
  6
CONTINUOUS
 62
    7
 10
593.08234342043556
 20
246.53560944738501
 11
593.08234342043556
 21
204.54904897573874
  0
LINE
  8
_0-a_極細3
  6
CONTINUOUS
 62
    7
 10
533.20718411645191
 20
204.54904916203748
 11
575.19374440180013
 21
246.53560944738501
  0
LINE
  8
_0-a_極細3
  6
CONTINUOUS
 62
    7
 10
420.07009947862582
 20
204.54904951405854
 11
462.05665941195241
 21
246.53560944738501
  0
LINE
  8
_0-a_極細3
  6
CONTINUOUS
 62
    7
 10
410.39794798825221
 20
308.01398301353265
 11
458.25290775543817
 21
355.86894278071873
  0
LINE
  8
_0-a_極細3
  6
CONTINUOUS
 62
    7
 10
521.89347565266917
 20
204.54904919724004
 11
563.88003590281494
 21
246.53560944738501
  0
LINE
  8
_0-a_極細3
  6
CONTINUOUS
 62
    7
 10
410.39794798825221
 20
206.19060652267012
 11
459.74901008710196
 21
255.54166862151988
  0
LINE
  8
_0-a_極細3
  6
CONTINUOUS
 62
    7
 10
410.39794798825221
 20
319.32769151251796
 11
446.93919925645298
 21
355.86894278071873
  0
LINE
  8
_0-a_極細3
  6
CONTINUOUS
 62
    7
 10
510.57976718888722
 20
204.5490492324418
 11
552.56632740383043
 21
246.53560944738501
  0
LINE
  8
_0-a_極細3
  6
CONTINUOUS
 62
    7
 10
410.39794798825221
 20
217.50431502165452
 11
459.74901008710196
 21
266.85537712050518
  0
LINE
  8
_0-a_極細3
  6
CONTINUOUS
 62
    7
 10
410.39794798825221
 20
330.64140001150236
 11
435.62549075746847
 21
355.86894278071873
  0
CIRCLE
  8
_0-a_極細3
  6
CONTINUOUS
 62
    7
 10
439.03136853731974
 20
380.19439944737434
 40
0.884938271604915
  0
CIRCLE
  8
_0-a_極細3
  6
CONTINUOUS
 62
    7
 10
422.50198582127098
 20
364.26551055848586
 40
0.884938271604915
  0
CIRCLE
  8
_0-a_極細3
  6
CONTINUOUS
 62
    7
 10
439.4738376731226
 20
365.97217722515256
 40
0.884938271604915
  0
CIRCLE
  8
_0-a_極細3
  6
CONTINUOUS
 62
    7
 10
459.66939322867813
 20
369.10106611404126
 40
0.884938271604915
  0
CIRCLE
  8
_0-a_極細3
  6
CONTINUOUS
 62
    7
 10
505.1805043397884
 20
387.87439944737434
 40
0.884938271604915
  0
CIRCLE
  8
_0-a_極細3
  6
CONTINUOUS
 62
    7
 10
545.00272656201025
 20
403.80328833626305
 40
0.884938271604915
  0
CIRCLE
  8
_0-a_極細3
  6
CONTINUOUS
 62
    7
 10
554.10494878423242
 20
377.91884389181882
 40
0.884938271604915
  0
CIRCLE
  8
_0-a_極細3
  6
CONTINUOUS
 62
    7
 10
514.28272656201057
 20
377.06551055848558
 40
0.884938271604915
  0
CIRCLE
  8
_0-a_極細3
  6
CONTINUOUS
 62
    7
 10
495.5093932286776
 20
400.95884389181856
 40
0.884938271604915
  0
CIRCLE
  8
_0-a_極細3
  6
CONTINUOUS
 62
    7
 10
470.7805043397891
 20
357.49217722515215
 40
0.884938271604915
  0
CIRCLE
  8
_0-a_極細3
  6
CONTINUOUS
 62
    7
 10
503.4916154508993
 20
355.50106611404135
 40
0.884938271604915
  0
CIRCLE
  8
_0-a_極細3
  6
CONTINUOUS
 62
    7
 10
543.59828211756587
 20
349.52773278070799
 40
0.884938271604915
  0
CIRCLE
  8
_0-a_極細3
  6
CONTINUOUS
 62
    7
 10
523.40272656201023
 20
340.42551055848571
 40
0.884938271604915
  0
CIRCLE
  8
_0-a_極細3
  6
CONTINUOUS
 62
    7
 10
499.7938376731222
 20
318.80773278070797
 40
0.884938271604915
  0
CIRCLE
  8
_0-a_極細3
  6
CONTINUOUS
 62
    7
 10
543.59828211756587
 20
330.46995500293065
 40
0.884938271604915
  0
CIRCLE
  8
_0-a_極細3
  6
CONTINUOUS
 62
    7
 10
477.8205043397885
 20
287.09217722515336
 40
0.884938271604915
  0
CIRCLE
  8
_0-a_極細3
  6
CONTINUOUS
 62
    7
 10
468.71828211756633
 20
258.36328833626408
 40
0.884938271604915
  0
CIRCLE
  8
_0-a_極細3
  6
CONTINUOUS
 62
    7
 10
482.65605989534436
 20
269.17217722515284
 40
0.884938271604915
  0
CIRCLE
  8
_0-a_極細3
  6
CONTINUOUS
 62
    7
 10
492.61161545089976
 20
255.51884389181964
 40
0.884938271604915
  0
CIRCLE
  8
_0-a_極細3
  6
CONTINUOUS
 62
    7
 10
555.4916154508993
 20
284.14106611404213
 40
0.884938271604915
  0
CIRCLE
  8
_0-a_極細3
  6
CONTINUOUS
 62
    7
 10
537.57161545089957
 20
275.32328833626389
 40
0.884938271604915
  0
CIRCLE
  8
_0-a_極細3
  6
CONTINUOUS
 62
    7
 10
547.52717100645509
 20
271.34106611404218
 40
0.884938271604915
  0
CIRCLE
  8
_0-a_極細3
  6
CONTINUOUS
 62
    7
 10
541.838282117566
 20
256.54995500293103
 40
0.884938271604915
  0
CIRCLE
  8
_0-a_極細3
  6
CONTINUOUS
 62
    7
 10
573.69605989534375
 20
258.25662166959751
 40
0.884938271604915
  0
CIRCLE
  8
_0-a_極細3
  6
CONTINUOUS
 62
    7
 10
594.46050433978792
 20
263.37662166959785
 40
0.884938271604915
  0
CIRCLE
  8
_0-a_極細3
  6
CONTINUOUS
 62
    7
 10
616.36272656201015
 20
239.48328833626442
 40
0.884938271604915
  0
CIRCLE
  8
_0-a_極細3
  6
CONTINUOUS
 62
    7
 10
605.26939322867668
 20
215.58995500293099
 40
0.884938271604915
  0
CIRCLE
  8
_0-a_極細3
  6
CONTINUOUS
 62
    7
 10
578.60272656201028
 20
285.37365870663439
 40
0.884938271604915
  0
CIRCLE
  8
_0-a_極細3
  6
CONTINUOUS
 62
    7
 10
602.21161545089899
 20
339.98699203996739
 40
0.884938271604915
  0
CIRCLE
  8
_0-a_極細3
  6
CONTINUOUS
 62
    7
 10
626.38939322867645
 20
324.05810315107897
 40
0.884938271604915
  0
CIRCLE
  8
_0-a_極細3
  6
CONTINUOUS
 62
    7
 10
627.24272656200969
 20
295.32921426218968
 40
0.884938271604915
  0
CIRCLE
  8
_0-a_極細3
  6
CONTINUOUS
 62
    7
 10
570.8516154508992
 20
342.90254759552317
 40
0.884938271604915
  0
CIRCLE
  8
_0-a_極細3
  6
CONTINUOUS
 62
    7
 10
538.38939322867714
 20
378.07686858317697
 40
2.9208503562902273
  0
CIRCLE
  8
_0-a_極細3
  6
CONTINUOUS
 62
    7
 10
455.57000170638105
 20
389.16425142269372
 40
2.9208503562902273
  0
CIRCLE
  8
_0-a_極細3
  6
CONTINUOUS
 62
    7
 10
533.87383767312178
 20
325.38353524984427
 40
2.9208503562902273
  0
CIRCLE
  8
_0-a_極細3
  6
CONTINUOUS
 62
    7
 10
498.03383767312164
 20
341.59686858317741
 40
2.9208503562902273
  0
CIRCLE
  8
_0-a_極細3
  6
CONTINUOUS
 62
    7
 10
466.67383767312185
 20
280.79686858317814
 40
2.9208503562902273
  0
CIRCLE
  8
_0-a_極細3
  6
CONTINUOUS
 62
    7
 10
551.79383767312083
 20
260.31686858317858
 40
2.9208503562902273
  0
CIRCLE
  8
_0-a_極細3
  6
CONTINUOUS
 62
    7
 10
609.35828211756507
 20
254.55686858317881
 40
2.9208503562902273
  0
CIRCLE
  8
_0-a_極細3
  6
CONTINUOUS
 62
    7
 10
617.03828211756456
 20
224.69020191651225
 40
2.9208503562902273
  0
LINE
  8
_0-a_極細3
  6
CONTINUOUS
 62
    7
 10
553.08234342043556
 20
441.20227611405176
 11
553.08234342043556
 21
422.53560944738501
  0
LINE
  8
_0-a_極細3
  6
CONTINUOUS
 62
    7
 10
553.08234342043556
 20
441.20227611405176
 11
410.39794798825221
 21
441.20227611405176
  0
LINE
  8
_0-a_極細3
  6
CONTINUOUS
 62
    7
 10
566.41567675376916
 20
422.53560944738501
 11
410.39794798825221
 21
422.53560944738501
  0
LINE
  8
_0-a_極細3
  6
CONTINUOUS
 62
    7
 10
566.41567675376916
 20
441.20227611405176
 11
553.08234342043556
 21
441.20227611405176
  0
LINE
  8
_0-a_極細3
  6
CONTINUOUS
 62
    7
 10
566.41567675376916
 20
439.86894278071856
 11
566.41567675376916
 21
441.20227611405176
  0
LINE
  8
_0-a_極細3
  6
CONTINUOUS
 62
    7
 10
566.09873234359384
 20
422.53560944738501
 11
566.41567675376837
 21
422.85255385756
  0
LINE
  8
_0-a_極細3
  6
CONTINUOUS
 62
    7
 10
559.31050724420322
 20
422.53560944738501
 11
566.41567675376916
 21
429.6407789569509
  0
LINE
  8
_0-a_極細3
  6
CONTINUOUS
 62
    7
 10
553.08234342043556
 20
423.0956707230086
 11
566.41567675376916
 21
436.4290040563418
  0
LINE
  8
_0-a_極細3
  6
CONTINUOUS
 62
    7
 10
553.08234342043556
 20
429.88389582239915
 11
564.40072371208782
 21
441.20227611405176
  0
LINE
  8
_0-a_極細3
  6
CONTINUOUS
 62
    7
 10
553.08234342043556
 20
436.67212092179005
 11
557.61249861269732
 21
441.20227611405176
  0
LINE
  8
_0-a_極細3
  6
CONTINUOUS
 62
    7
 10
566.41567675376916
 20
437.55272911843826
 11
562.76612975815567
 21
441.20227611405176
  0
LINE
  8
_0-a_極細3
  6
CONTINUOUS
 62
    7
 10
566.41567675376916
 20
430.76450401904737
 11
555.97790465876437
 21
441.20227611405176
  0
LINE
  8
_0-a_極細3
  6
CONTINUOUS
 62
    7
 10
553.08234342043556
 20
437.30961225299006
 11
566.41567675376916
 21
423.97627891965647
  0
LINE
  8
_0-a_極細3
  6
CONTINUOUS
 62
    7
 10
553.08234342043556
 20
430.52138715359911
 11
561.06812112664898
 21
422.53560944738501
  0
LINE
  8
_0-a_極細3
  6
CONTINUOUS
 62
    7
 10
553.08234342043556
 20
423.73316205420821
 11
554.27989602725847
 21
422.53560944738501
  0
LINE
  8
_0-a_極細3
  6
CONTINUOUS
 62
    7
 10
538.94583193622657
 20
422.53560943758134
 11
553.08234342043556
 21
436.67212092179005
  0
LINE
  8
_0-a_極細3
  6
CONTINUOUS
 62
    7
 10
505.00470641573463
 20
422.53560941404328
 11
523.67137311574311
 21
441.20227611405176
  0
LINE
  8
_0-a_極細3
  6
CONTINUOUS
 62
    7
 10
471.06358089524201
 20
422.53560939050521
 11
489.73024761878821
 21
441.20227611405176
  0
LINE
  8
_0-a_極細3
  6
CONTINUOUS
 62
    7
 10
437.12245537474939
 20
422.53560936696709
 11
455.789122121834
 21
441.20227611405176
  0
LINE
  8
_0-a_極細3
  6
CONTINUOUS
 62
    7
 10
410.39794798825221
 20
429.75222747742379
 11
421.84799662487978
 21
441.20227611405176
  0
LINE
  8
_0-a_極細3
  6
DASHED2
 62
    7
 10
521.97526917598054
 20
422.53560942581248
 11
540.64193586422016
 21
441.20227611405215
  0
LINE
  8
_0-a_極細3
  6
DASHED2
 62
    7
 10
488.03414365548792
 20
422.53560940227442
 11
506.70081036726606
 21
441.20227611405176
  0
LINE
  8
_0-a_極細3
  6
DASHED2
 62
    7
 10
454.09301813499599
 20
422.53560937873635
 11
472.75968487031116
 21
441.20227611405176
  0
LINE
  8
_0-a_極細3
  6
DASHED2
 62
    7
 10
420.15189261450337
 20
422.53560935519823
 11
438.81855937335695
 21
441.20227611405176
  0
CIRCLE
  8
_0-a_極細3
  6
CONTINUOUS
 62
    7
 10
422.50198582127098
 20
411.65711549675694
 40
0.884938271604915
  0
CIRCLE
  8
_0-a_極細3
  6
CONTINUOUS
 62
    7
 10
446.58494878423346
 20
410.77217722515206
 40
0.884938271604915
  0
CIRCLE
  8
_0-a_極細3
  6
CONTINUOUS
 62
    7
 10
519.11828211756631
 20
401.24328833626322
 40
0.884938271604915
  0
CIRCLE
  8
_0-a_極細3
  6
CONTINUOUS
 62
    7
 10
517.90939322867757
 20
408.15686858317684
 40
2.9208503562902273
  0
CIRCLE
  8
_0-a_極細3
  6
CONTINUOUS
 62
    7
 10
423.25467444065418
 20
390.59242413873267
 40
2.9208503562902273
  0
LINE
  8
_0-a_極細3
  6
CONTINUOUS
 62
    7
 10
645.08234342043556
 20
366.53560944738501
 11
646.41567675376916
 21
366.53560944738501
  0
LINE
  8
_0-a_極細3
  6
CONTINUOUS
 62
    7
 10
646.41567675376916
 20
366.53560944738501
 11
646.41567675376916
 21
204.54904897573874
  0
ARC
  8
_0-b_細線3
  6
CONTINUOUS
 62
    7
 10
574.41567675376916
 20
374.53560944738501
 40
8
 50
179.99999999999983
 51
269.99999999999977
  0
LINE
  8
_0-b_細線3
  6
CONTINUOUS
 62
    7
 10
566.41567675376916
 20
374.53560944738501
 11
566.41567675376916
 21
439.86894278071856
  0
LINE
  8
_0-b_細線3
  6
CONTINUOUS
 62
    7
 10
574.41567675376916
 20
366.53560944738501
 11
645.08234342043556
 21
366.53560944738501
  0
LINE
  8
_0-b_細線3
  6
CONTINUOUS
 62
    7
 10
646.41567675376916
 20
367.86894278071873
 11
645.08234342043556
 21
366.53560944738501
  0
LINE
  8
_0-b_細線3
  6
CONTINUOUS
 62
    7
 10
646.41567675376916
 20
373.20227611405181
 11
646.41567675376916
 21
367.86894278071873
  0
LINE
  8
_0-b_細線3
  6
CONTINUOUS
 62
    7
 10
645.08234342043556
 20
374.53560944738501
 11
646.41567675376916
 21
373.20227611405181
  0
LINE
  8
_0-b_細線3
  6
CONTINUOUS
 62
    7
 10
574.41567675376916
 20
374.53560944738501
 11
645.08234342043556
 21
374.53560944738501
  0
LINE
  8
_0-b_細線3
  6
CONTINUOUS
 62
    7
 10
567.74901008710196
 20
441.20227611405176
 11
566.41567675376916
 21
439.86894278071856
  0
LINE
  8
_0-b_細線3
  6
CONTINUOUS
 62
    7
 10
573.08234342043556
 20
441.20227611405176
 11
567.74901008710196
 21
441.20227611405176
  0
LINE
  8
_0-b_細線3
  6
CONTINUOUS
 62
    7
 10
574.41567675376916
 20
439.86894278071856
 11
573.08234342043556
 21
441.20227611405176
  0
LINE
  8
_0-b_細線3
  6
CONTINUOUS
 62
    7
 10
574.41567675376916
 20
374.53560944738501
 11
574.41567675376916
 21
439.86894278071856
  0
CIRCLE
  8
_0-a_極細3
  6
CONTINUOUS
 62
    7
 10
635.39578211756282
 20
340.95686858317799
 40
2.9208503562902273
  0
CIRCLE
  8
_0-a_極細3
  6
CONTINUOUS
 62
    7
 10
633.80865248793543
 20
253.42106611404256
 40
0.884938271604915
  0
CIRCLE
  8
_0-a_極細3
  6
CONTINUOUS
 62
    7
 10
635.94198582126967
 20
217.1713524609703
 40
0.884938271604915
  0
CIRCLE
  8
_0-a_極細3
  6
CONTINUOUS
 62
    7
 10
616.14939322866974
 20
310.37909080540066
 40
2.9208503562902273
  0
LINE
  8
_0-a_極細3
  6
CONTINUOUS
 62
    7
 10
1099.7490100871032
 20
355.86894278071873
 11
1099.7490100871032
 21
246.53560944738501
  0
LINE
  8
_0-a_極細3
  6
CONTINUOUS
 62
    7
 10
966.4156767537695
 20
246.53560944738501
 11
1099.7490100871032
 21
246.53560944738501
  0
LINE
  8
_0-a_極細3
  6
CONTINUOUS
 62
    7
 10
1099.7490100871032
 20
355.86894278071873
 11
1149.1000721859527
 21
355.86894278071873
  0
LINE
  8
_0-a_極細3
  6
CONTINUOUS
 62
    7
 10
966.4156767537695
 20
246.53560944738501
 11
966.4156767537695
 21
204.54904897573874
  0
LINE
  8
_0-a_極細3
  6
CONTINUOUS
 62
    7
 10
1113.0130139504518
 20
204.54904897573874
 11
1149.1000722524182
 21
240.63610727770515
  0
LINE
  8
_0-a_極細3
  6
CONTINUOUS
 62
    7
 10
999.87592896060391
 20
204.54904897573874
 11
1041.8624894322502
 21
246.53560944738501
  0
LINE
  8
_0-a_極細3
  6
CONTINUOUS
 62
    7
 10
1099.7490100871032
 20
304.42213010223736
 11
1149.1000721871624
 21
353.77319220229629
  0
LINE
  8
_0-a_極細3
  6
CONTINUOUS
 62
    7
 10
1101.6993054514664
 20
204.54904897573874
 11
1149.1000722458921
 21
251.94981577016461
  0
LINE
  8
_0-a_極細3
  6
CONTINUOUS
 62
    7
 10
988.56222046161872
 20
204.54904897573874
 11
1030.5487809332658
 21
246.53560944738501
  0
LINE
  8
_0-a_極細3
  6
CONTINUOUS
 62
    7
 10
1099.7490100871032
 20
315.73583860122244
 11
1139.8821139793181
 21
355.868942493438
  0
LINE
  8
_0-a_極細3
  6
CONTINUOUS
 62
    7
 10
1090.385596952482
 20
204.54904897573874
 11
1149.1000722393665
 21
263.26352426262315
  0
LINE
  8
_0-a_極細3
  6
CONTINUOUS
 62
    7
 10
977.24851196263421
 20
204.54904897573874
 11
1019.2350724342805
 21
246.53560944738501
  0
LINE
  8
_0-a_極細3
  6
CONTINUOUS
 62
    7
 10
1099.7490100871032
 20
327.04954710020706
 11
1128.5684055613197
 21
355.86894257442373
  0
CIRCLE
  8
_0-a_極細3
  6
CONTINUOUS
 62
    7
 10
944.66494878422975
 20
340.70254759552313
 40
0.884938271604915
  0
CIRCLE
  8
_0-a_極細3
  6
CONTINUOUS
 62
    7
 10
960.59383767311829
 20
348.38254759552302
 40
0.884938271604915
  0
CIRCLE
  8
_0-a_極細3
  6
CONTINUOUS
 62
    7
 10
954.05161545089663
 20
308.41810315107887
 40
0.884938271604915
  0
CIRCLE
  8
_0-a_極細3
  6
CONTINUOUS
 62
    7
 10
982.10494878422924
 20
281.18254759552383
 40
0.884938271604915
  0
CIRCLE
  8
_0-a_極細3
  6
CONTINUOUS
 62
    7
 10
953.57161545089639
 20
243.90254759552431
 40
0.884938271604915
  0
CIRCLE
  8
_0-a_極細3
  6
CONTINUOUS
 62
    7
 10
938.63828211756356
 20
215.31588092885727
 40
0.884938271604915
  0
CIRCLE
  8
_0-a_極細3
  6
CONTINUOUS
 62
    7
 10
956.98494878422946
 20
263.10254759552345
 40
0.884938271604915
  0
CIRCLE
  8
_0-a_極細3
  6
CONTINUOUS
 62
    7
 10
979.17161545089562
 20
255.42254759552384
 40
0.884938271604915
  0
CIRCLE
  8
_0-a_極細3
  6
CONTINUOUS
 62
    7
 10
1022.2649487842283
 20
255.84921426219012
 40
0.884938271604915
  0
CIRCLE
  8
_0-a_極細3
  6
CONTINUOUS
 62
    7
 10
1003.064948784229
 20
270.35588092885678
 40
0.884938271604915
  0
CIRCLE
  8
_0-a_極細3
  6
CONTINUOUS
 62
    7
 10
1020.9849487842288
 20
279.31588092885659
 40
0.884938271604915
  0
CIRCLE
  8
_0-a_極細3
  6
CONTINUOUS
 62
    7
 10
1005.8027265620063
 20
397.75143648441122
 40
0.884938271604915
  0
CIRCLE
  8
_0-a_極細3
  6
CONTINUOUS
 62
    7
 10
1001.8205043397845
 20
366.1781031510784
 40
0.884938271604915
  0
CIRCLE
  8
_0-a_極細3
  6
CONTINUOUS
 62
    7
 10
1034.6738376731171
 20
365.04032537330045
 40
0.884938271604915
  0
CIRCLE
  8
_0-a_極細3
  6
CONTINUOUS
 62
    7
 10
1016.1138376731172
 20
342.64032537330081
 40
0.884938271604915
  0
CIRCLE
  8
_0-a_極細3
  6
CONTINUOUS
 62
    7
 10
1078.8338376731162
 20
257.52032537330183
 40
0.884938271604915
  0
CIRCLE
  8
_0-a_極細3
  6
CONTINUOUS
 62
    7
 10
1090.3538376731167
 20
279.92032537330169
 40
0.884938271604915
  0
CIRCLE
  8
_0-a_極細3
  6
CONTINUOUS
 62
    7
 10
1087.7938376731167
 20
313.20032537330121
 40
0.884938271604915
  0
CIRCLE
  8
_0-a_極細3
  6
CONTINUOUS
 62
    7
 10
1058.9938376731168
 20
347.1203253733006
 40
0.884938271604915
  0
CIRCLE
  8
_0-a_極細3
  6
CONTINUOUS
 62
    7
 10
1085.8738376731162
 20
378.4803253733001
 40
0.884938271604915
  0
CIRCLE
  8
_0-a_極細3
  6
CONTINUOUS
 62
    7
 10
1081.3938376731166
 20
335.6003253733009
 40
0.884938271604915
  0
CIRCLE
  8
_0-a_極細3
  6
CONTINUOUS
 62
    7
 10
1128.7538376731159
 20
369.52032537330024
 40
0.884938271604915
  0
CIRCLE
  8
_0-a_極細3
  6
CONTINUOUS
 62
    7
 10
1121.0738376731156
 20
391.55242413873248
 40
2.9208503562902273
  0
CIRCLE
  8
_0-a_極細3
  6
CONTINUOUS
 62
    7
 10
1096.0427265620051
 20
366.80575747206626
 40
2.9208503562902273
  0
CIRCLE
  8
_0-a_極細3
  6
CONTINUOUS
 62
    7
 10
1007.3671710064506
 20
377.3302019165103
 40
2.9208503562902273
  0
CIRCLE
  8
_0-a_極細3
  6
CONTINUOUS
 62
    7
 10
1058.5671710064498
 20
326.13020191651094
 40
2.9208503562902273
  0
CIRCLE
  8
_0-a_極細3
  6
CONTINUOUS
 62
    7
 10
945.93605989534137
 20
254.85020191651142
 40
2.9208503562902273
  0
CIRCLE
  8
_0-a_極細3
  6
CONTINUOUS
 62
    7
 10
962.29161545089607
 20
302.63686858317828
 40
2.9208503562902273
  0
CIRCLE
  8
_0-a_極細3
  6
CONTINUOUS
 62
    7
 10
1018.6116154508951
 20
266.79686858317814
 40
2.9208503562902273
  0
CIRCLE
  8
_0-a_極細3
  6
CONTINUOUS
 62
    7
 10
1092.6359236673488
 20
250.49758475602744
 40
2.9208503562902273
  0
CIRCLE
  8
_0-a_極細3
  6
CONTINUOUS
 62
    7
 10
1011.5716154508949
 20
335.91686858317757
 40
2.9208503562902273
  0
CIRCLE
  8
_0-a_極細3
  6
CONTINUOUS
 62
    7
 10
935.62593643855087
 20
327.23973993191908
 40
0.884938271604915
  0
CIRCLE
  8
_0-a_極細3
  6
CONTINUOUS
 62
    7
 10
935.94593643855205
 20
288.91085104303079
 40
0.884938271604915
  0
LINE
  8
_0-a_極細3
  6
CONTINUOUS
 62
    7
 10
1006.4156767537695
 20
441.20227611405176
 11
1006.4156767537695
 21
422.53560944738501
  0
LINE
  8
_0-a_極細3
  6
CONTINUOUS
 62
    7
 10
1006.4156767537695
 20
441.20227611405176
 11
1149.1000721859527
 21
441.20227611405176
  0
LINE
  8
_0-a_極細3
  6
CONTINUOUS
 62
    7
 10
993.0823434204359
 20
422.53560944738501
 11
1149.1000721859527
 21
422.53560944738501
  0
LINE
  8
_0-a_極細3
  6
CONTINUOUS
 62
    7
 10
993.0823434204359
 20
441.20227611405176
 11
1006.4156767537695
 21
441.20227611405176
  0
LINE
  8
_0-a_極細3
  6
CONTINUOUS
 62
    7
 10
993.0823434204359
 20
439.86894278071856
 11
993.0823434204359
 21
441.20227611405176
  0
LINE
  8
_0-a_極細3
  6
CONTINUOUS
 62
    7
 10
1006.4156767537688
 20
428.40614749654458
 11
1000.5451387046096
 21
422.53560944738501
  0
LINE
  8
_0-a_極細3
  6
CONTINUOUS
 62
    7
 10
1006.4156767537688
 20
435.19437259593548
 11
993.75691360521898
 21
422.53560944738501
  0
LINE
  8
_0-a_極細3
  6
CONTINUOUS
 62
    7
 10
993.0823434204359
 20
428.64926436199318
 11
1005.6353551724949
 21
441.20227611405176
  0
LINE
  8
_0-a_極細3
  6
CONTINUOUS
 62
    7
 10
993.0823434204359
 20
435.43748946138408
 11
998.84713007310359
 21
441.20227611405176
  0
LINE
  8
_0-a_極細3
  6
CONTINUOUS
 62
    7
 10
1006.4156767537695
 20
438.78736057884316
 11
1004.0007612185606
 21
441.20227611405176
  0
LINE
  8
_0-a_極細3
  6
CONTINUOUS
 62
    7
 10
1006.4156767537695
 20
431.99913547945221
 11
997.21253611916995
 21
441.20227611405176
  0
LINE
  8
_0-a_極細3
  6
CONTINUOUS
 62
    7
 10
1006.4156767537695
 20
425.21091038006131
 11
993.0823434204359
 21
438.54424371339451
  0
LINE
  8
_0-a_極細3
  6
CONTINUOUS
 62
    7
 10
1002.3027525870546
 20
422.53560944738501
 11
993.0823434204359
 21
431.75601861400401
  0
LINE
  8
_0-a_極細3
  6
CONTINUOUS
 62
    7
 10
995.51452748766405
 20
422.53560944738501
 11
993.0823434204359
 21
424.96779351461305
  0
LINE
  8
_0-a_極細3
  6
CONTINUOUS
 62
    7
 10
1115.9449653942547
 20
422.53560944738501
 11
1134.6116310580583
 21
441.20227511118946
  0
LINE
  8
_0-a_極細3
  6
CONTINUOUS
 62
    7
 10
1082.0038398972997
 20
422.53560944738535
 11
1100.670505826622
 21
441.20227537670695
  0
LINE
  8
_0-a_極細3
  6
CONTINUOUS
 62
    7
 10
1048.0627144003456
 20
422.53560944738501
 11
1066.7293805951849
 21
441.20227564222449
  0
LINE
  8
_0-a_極細3
  6
CONTINUOUS
 62
    7
 10
1014.1215889033914
 20
422.53560944738501
 11
1032.7882553637487
 21
441.20227590774238
  0
LINE
  8
_0-a_極細3
  6
DASHED2
 62
    7
 10
1132.915528142732
 20
422.53560944738535
 11
1149.1000721859527
 21
438.72015349060644
  0
LINE
  8
_0-a_極細3
  6
DASHED2
 62
    7
 10
1098.974402645777
 20
422.53560944738501
 11
1117.6410684423408
 21
441.20227524394801
  0
LINE
  8
_0-a_極細3
  6
DASHED2
 62
    7
 10
1065.0332771488227
 20
422.53560944738501
 11
1083.6999432109037
 21
441.20227550946589
  0
LINE
  8
_0-a_極細3
  6
DASHED2
 62
    7
 10
1031.0921516518683
 20
422.53560944738501
 11
1049.7588179794666
 21
441.20227577498343
  0
LINE
  8
_0-a_極細3
  6
DASHED2
 62
    7
 10
1006.4156767537688
 20
431.80026004623983
 11
1015.8176927480303
 21
441.20227604050092
  0
CIRCLE
  8
_0-a_極細3
  6
CONTINUOUS
 62
    7
 10
1135.153837673116
 20
404.29365870663321
 40
0.884938271604915
  0
CIRCLE
  8
_0-a_極細3
  6
CONTINUOUS
 62
    7
 10
1108.2738376731163
 20
404.29365870663321
 40
0.884938271604915
  0
CIRCLE
  8
_0-a_極細3
  6
CONTINUOUS
 62
    7
 10
1065.3938376731166
 20
408.77365870663311
 40
0.884938271604915
  0
CIRCLE
  8
_0-a_極細3
  6
CONTINUOUS
 62
    7
 10
1083.5271710064496
 20
405.70353524984318
 40
2.9208503562902273
  0
CIRCLE
  8
_0-a_極細3
  6
CONTINUOUS
 62
    7
 10
1058.9938376731168
 20
396.18699203996698
 40
0.884938271604915
  0
CIRCLE
  8
_0-a_極細3
  6
CONTINUOUS
 62
    7
 10
1059.2071710064499
 20
386.07686858317697
 40
2.9208503562902273
  0
CIRCLE
  8
_0-a_極細3
  6
CONTINUOUS
 62
    7
 10
1025.0738376731169
 20
405.78699203996666
 40
0.884938271604915
  0
LINE
  8
_0-a_極細3
  6
CONTINUOUS
 62
    7
 10
914.41567675376882
 20
366.53560944738501
 11
913.0823434204359
 21
366.53560944738501
  0
LINE
  8
_0-a_極細3
  6
CONTINUOUS
 62
    7
 10
913.0823434204359
 20
366.53560944738501
 11
913.0823434204359
 21
204.54904897573874
  0
ARC
  8
_0-b_細線3
  6
CONTINUOUS
 62
    7
 10
985.0823434204359
 20
374.53560944738501
 40
8
 50
269.99999999999977
 51
359.99999999999966
  0
LINE
  8
_0-b_細線3
  6
CONTINUOUS
 62
    7
 10
993.0823434204359
 20
374.53560944738501
 11
993.0823434204359
 21
439.86894278071856
  0
LINE
  8
_0-b_細線3
  6
CONTINUOUS
 62
    7
 10
985.0823434204359
 20
366.53560944738501
 11
914.41567675376882
 21
366.53560944738501
  0
LINE
  8
_0-b_細線3
  6
CONTINUOUS
 62
    7
 10
913.0823434204359
 20
367.86894278071873
 11
914.41567675376882
 21
366.53560944738501
  0
LINE
  8
_0-b_細線3
  6
CONTINUOUS
 62
    7
 10
913.0823434204359
 20
373.20227611405181
 11
913.0823434204359
 21
367.86894278071873
  0
LINE
  8
_0-b_細線3
  6
CONTINUOUS
 62
    7
 10
914.41567675376882
 20
374.53560944738501
 11
913.0823434204359
 21
373.20227611405181
  0
LINE
  8
_0-b_細線3
  6
CONTINUOUS
 62
    7
 10
985.0823434204359
 20
374.53560944738501
 11
914.41567675376882
 21
374.53560944738501
  0
LINE
  8
_0-b_細線3
  6
CONTINUOUS
 62
    7
 10
991.7490100871031
 20
441.20227611405176
 11
993.0823434204359
 21
439.86894278071856
  0
LINE
  8
_0-b_細線3
  6
CONTINUOUS
 62
    7
 10
986.4156767537695
 20
441.20227611405176
 11
991.7490100871031
 21
441.20227611405176
  0
LINE
  8
_0-b_細線3
  6
CONTINUOUS
 62
    7
 10
985.0823434204359
 20
439.86894278071856
 11
986.4156767537695
 21
441.20227611405176
  0
LINE
  8
_0-b_細線3
  6
CONTINUOUS
 62
    7
 10
985.0823434204359
 20
374.53560944738501
 11
985.0823434204359
 21
439.86894278071856
  0
CIRCLE
  8
_0-a_極細3
  6
CONTINUOUS
 62
    7
 10
922.65737676776928
 20
302.44476981774574
 40
0.884938271604915
  0
CIRCLE
  8
_0-a_極細3
  6
CONTINUOUS
 62
    7
 10
924.74791174719303
 20
239.63588092885698
 40
0.884938271604915
  0
CIRCLE
  8
_0-a_極細3
  6
CONTINUOUS
 62
    7
 10
923.72568952496965
 20
345.16131302762278
 40
2.9208503562902273
  0
CIRCLE
  8
_0-a_極細3
  6
CONTINUOUS
 62
    7
 10
928.44272656200644
 20
228.96575747206668
 40
2.9208503562902273
  0
ARC
  8
_0-b_細線3
  6
CONTINUOUS
 62
    7
 10
582.41567675285307
 20
435.86894278071821
 40
2.6666666666666679
 50
89.999999999999915
 51
179.99999999999983
  0
ARC
  8
_0-b_細線3
  6
CONTINUOUS
 62
    7
 10
583.66354126305976
 20
441.20227611405176
 40
2.6666666666666679
 50
269.99999999999977
 51
329.99999999999568
  0
ARC
  8
_0-b_細線3
  6
CONTINUOUS
 62
    7
 10
588.28234341657674
 20
438.53560944738535
 40
2.6666666666666679
 50
89.999999999999915
 51
150.0000000000087
  0
LINE
  8
_0-b_細線3
  6
CONTINUOUS
 62
    7
 10
582.41567675285307
 20
438.53560944738535
 11
583.66354126305976
 21
438.53560944738535
  0
ARC
  8
_0-b_細線3
  6
CONTINUOUS
 62
    7
 10
607.482343413634
 20
435.86894278071821
 40
2.6666666666666679
 50
0
 51
89.999999999999915
  0
ARC
  8
_0-b_細線3
  6
CONTINUOUS
 62
    7
 10
606.23447890342732
 20
441.20227611405176
 40
2.6666666666666679
 50
210
 51
269.99999999999977
  0
ARC
  8
_0-b_細線3
  6
CONTINUOUS
 62
    7
 10
601.61567674990999
 20
438.53560944738535
 40
2.6666666666666679
 50
29.999999999991321
 51
89.999999999992667
  0
LINE
  8
_0-b_細線3
  6
CONTINUOUS
 62
    7
 10
607.482343413634
 20
438.53560944738535
 11
606.23447890342732
 21
438.53560944738535
  0
ARC
  8
_0-b_細線3
  6
CONTINUOUS
 62
    7
 10
581.08234341951993
 20
432.13560944738538
 40
1.3333333333333339
 50
179.99999999999983
 51
269.99999999999977
  0
LINE
  8
_0-b_細線3
  6
CONTINUOUS
 62
    7
 10
579.74901008618633
 20
435.86894278071821
 11
579.74901008618633
 21
432.13560944738538
  0
ARC
  8
_0-b_細線3
  6
CONTINUOUS
 62
    7
 10
608.8156767469676
 20
432.13560944738538
 40
1.3333333333333339
 50
269.99999999999977
 51
359.99999999999966
  0
LINE
  8
_0-b_細線3
  6
CONTINUOUS
 62
    7
 10
610.14901008030074
 20
435.86894278071821
 11
610.14901008030074
 21
432.13560944738538
  0
ARC
  8
_0-b_細線3
  6
CONTINUOUS
 62
    7
 10
587.74901008618633
 20
428.13560944738538
 40
2.6666666666666679
 50
0
 51
89.999999999999915
  0
LINE
  8
_0-b_細線3
  6
CONTINUOUS
 62
    7
 10
587.74901008618633
 20
430.80227611405178
 11
581.08234341951993
 21
430.80227611405178
  0
ARC
  8
_0-b_細線3
  6
CONTINUOUS
 62
    7
 10
602.14901008618665
 20
428.13560944738538
 40
2.6666666666666679
 50
89.999999999999915
 51
179.99999999999983
  0
LINE
  8
_0-b_細線3
  6
CONTINUOUS
 62
    7
 10
602.1490100803004
 20
430.80227611405178
 11
608.8156767469676
 21
430.80227611405178
  0
LINE
  8
_0-b_細線3
  6
CONTINUOUS
 62
    7
 10
601.61567674990999
 20
441.20227611405176
 11
588.28234341657674
 21
441.20227611405176
  0
LINE
  8
_0-b_細線3
  6
CONTINUOUS
 62
    7
 10
590.41567674991029
 20
374.53560944738501
 11
590.41567675285307
 21
428.13560944738538
  0
LINE
  8
_0-b_細線3
  6
CONTINUOUS
 62
    7
 10
599.48234341657678
 20
374.53560944738501
 11
599.48234341951991
 21
428.13560944738538
  0
LINE
  8
_0-b_細線3
  6
CONTINUOUS
 62
    7
 10
599.48234341657678
 20
374.53560944738501
 11
590.41567674991029
 21
374.53560944738501
  0
ARC
  8
_0-b_細線3
  6
CONTINUOUS
 62
    7
 10
628.01567675381784
 20
435.86894278071821
 40
2.6666666666666679
 50
89.999999999999915
 51
179.99999999999983
  0
ARC
  8
_0-b_細線3
  6
CONTINUOUS
 62
    7
 10
629.26354126402452
 20
441.20227611405176
 40
2.6666666666666679
 50
269.99999999999977
 51
329.99999999999932
  0
ARC
  8
_0-b_細線3
  6
CONTINUOUS
 62
    7
 10
633.88234341754151
 20
438.53560944738535
 40
2.6666666666666679
 50
89.999999999999915
 51
150.00000000000503
  0
LINE
  8
_0-b_細線3
  6
CONTINUOUS
 62
    7
 10
628.01567675381784
 20
438.53560944738535
 11
629.26354126402452
 21
438.53560944738535
  0
ARC
  8
_0-b_細線3
  6
CONTINUOUS
 62
    7
 10
653.08234341459877
 20
435.86894278071821
 40
2.6666666666666679
 50
0
 51
89.999999999999915
  0
ARC
  8
_0-b_細線3
  6
CONTINUOUS
 62
    7
 10
651.8344789043922
 20
441.20227611405176
 40
2.6666666666666679
 50
209.99999999999878
 51
269.99999999999977
  0
ARC
  8
_0-b_細線3
  6
CONTINUOUS
 62
    7
 10
647.21567675087476
 20
438.53560944738535
 40
2.6666666666666679
 50
29.999999999991321
 51
89.999999999992667
  0
LINE
  8
_0-b_細線3
  6
CONTINUOUS
 62
    7
 10
653.08234341459877
 20
438.53560944738535
 11
651.8344789043922
 21
438.53560944738535
  0
ARC
  8
_0-b_細線3
  6
CONTINUOUS
 62
    7
 10
626.6823434204847
 20
432.13560944738538
 40
1.3333333333333339
 50
179.99999999999983
 51
269.99999999999977
  0
LINE
  8
_0-b_細線3
  6
CONTINUOUS
 62
    7
 10
625.3490100871511
 20
435.86894278071821
 11
625.3490100871511
 21
432.13560944738538
  0
ARC
  8
_0-b_細線3
  6
CONTINUOUS
 62
    7
 10
654.41567674793203
 20
432.13560944738538
 40
1.3333333333333339
 50
269.99999999999977
 51
359.99999999999966
  0
LINE
  8
_0-b_細線3
  6
CONTINUOUS
 62
    7
 10
655.74901008126562
 20
435.86894278071821
 11
655.74901008126562
 21
432.13560944738538
  0
ARC
  8
_0-b_細線3
  6
CONTINUOUS
 62
    7
 10
633.3490100871511
 20
428.13560944738538
 40
2.6666666666666679
 50
0
 51
89.999999999999915
  0
LINE
  8
_0-b_細線3
  6
CONTINUOUS
 62
    7
 10
633.3490100871511
 20
430.80227611405178
 11
626.6823434204847
 21
430.80227611405178
  0
ARC
  8
_0-b_細線3
  6
CONTINUOUS
 62
    7
 10
647.74901008715142
 20
428.13560944738538
 40
2.6666666666666679
 50
89.999999999999915
 51
179.99999999999983
  0
LINE
  8
_0-b_細線3
  6
CONTINUOUS
 62
    7
 10
647.74901008126517
 20
430.80227611405178
 11
654.41567674793203
 21
430.80227611405178
  0
LINE
  8
_0-b_細線3
  6
CONTINUOUS
 62
    7
 10
647.21567675087476
 20
441.20227611405176
 11
633.88234341754151
 21
441.20227611405176
  0
LINE
  8
_0-b_細線3
  6
CONTINUOUS
 62
    7
 10
636.01567675087517
 20
374.53560944738501
 11
636.01567675381784
 21
428.13560944738538
  0
LINE
  8
_0-b_細線3
  6
CONTINUOUS
 62
    7
 10
645.08234341754155
 20
374.53560944738501
 11
645.08234342048468
 21
428.13560944738538
  0
LINE
  8
_0-b_細線3
  6
CONTINUOUS
 62
    7
 10
645.08234341754155
 20
374.53560944738501
 11
636.01567675087517
 21
374.53560944738501
  0
ARC
  8
_0-b_細線3
  6
CONTINUOUS
 62
    7
 10
674.41567675478268
 20
435.86894278071821
 40
2.6666666666666679
 50
89.999999999999915
 51
179.99999999999983
  0
ARC
  8
_0-b_細線3
  6
CONTINUOUS
 62
    7
 10
675.6635412649897
 20
441.20227611405176
 40
2.6666666666666679
 50
269.99999999999977
 51
329.99999999999199
  0
ARC
  8
_0-b_細線3
  6
CONTINUOUS
 62
    7
 10
680.28234341850634
 20
438.53560944738535
 40
2.6666666666666679
 50
89.999999999999915
 51
150.0000000000087
  0
LINE
  8
_0-b_細線3
  6
CONTINUOUS
 62
    7
 10
674.41567675478268
 20
438.53560944738535
 11
675.6635412649897
 21
438.53560944738535
  0
ARC
  8
_0-b_細線3
  6
CONTINUOUS
 62
    7
 10
699.48234341556361
 20
435.86894278071821
 40
2.6666666666666679
 50
0
 51
89.999999999999915
  0
ARC
  8
_0-b_細線3
  6
CONTINUOUS
 62
    7
 10
698.23447890535658
 20
441.20227611405176
 40
2.6666666666666679
 50
210.00000000000367
 51
269.99999999999977
  0
ARC
  8
_0-b_細線3
  6
CONTINUOUS
 62
    7
 10
693.61567675183994
 20
438.53560944738535
 40
2.6666666666666679
 50
29.999999999994984
 51
89.999999999999901
  0
LINE
  8
_0-b_細線3
  6
CONTINUOUS
 62
    7
 10
699.48234341556361
 20
438.53560944738535
 11
698.23447890535658
 21
438.53560944738535
  0
ARC
  8
_0-b_細線3
  6
CONTINUOUS
 62
    7
 10
673.08234342144942
 20
432.13560944738538
 40
1.3333333333333339
 50
179.99999999999983
 51
269.99999999999977
  0
LINE
  8
_0-b_細線3
  6
CONTINUOUS
 62
    7
 10
671.74901008811628
 20
435.86894278071821
 11
671.74901008811628
 21
432.13560944738538
  0
ARC
  8
_0-b_細線3
  6
CONTINUOUS
 62
    7
 10
700.81567674889675
 20
432.13560944738538
 40
1.3333333333333339
 50
269.99999999999977
 51
359.99999999999966
  0
LINE
  8
_0-b_細線3
  6
CONTINUOUS
 62
    7
 10
702.14901008223001
 20
435.86894278071821
 11
702.14901008223001
 21
432.13560944738538
  0
ARC
  8
_0-b_細線3
  6
CONTINUOUS
 62
    7
 10
679.74901008811628
 20
428.13560944738538
 40
2.6666666666666679
 50
0
 51
89.999999999999915
  0
LINE
  8
_0-b_細線3
  6
CONTINUOUS
 62
    7
 10
679.74901008811628
 20
430.80227611405178
 11
673.08234342144942
 21
430.80227611405178
  0
ARC
  8
_0-b_細線3
  6
CONTINUOUS
 62
    7
 10
694.14901008811626
 20
428.13560944738538
 40
2.6666666666666679
 50
89.999999999999915
 51
179.99999999999983
  0
LINE
  8
_0-b_細線3
  6
CONTINUOUS
 62
    7
 10
694.14901008223001
 20
430.80227611405178
 11
700.81567674889675
 21
430.80227611405178
  0
LINE
  8
_0-b_細線3
  6
CONTINUOUS
 62
    7
 10
693.61567675183994
 20
441.20227611405176
 11
680.28234341850634
 21
441.20227611405176
  0
LINE
  8
_0-b_細線3
  6
CONTINUOUS
 62
    7
 10
682.41567675183956
 20
374.53560944738501
 11
682.41567675478268
 21
428.13560944738538
  0
LINE
  8
_0-b_細線3
  6
CONTINUOUS
 62
    7
 10
691.48234341850673
 20
374.53560944738501
 11
691.48234342144985
 21
428.13560944738538
  0
LINE
  8
_0-b_細線3
  6
CONTINUOUS
 62
    7
 10
691.48234341850673
 20
374.53560944738501
 11
682.41567675183956
 21
374.53560944738501
  0
ARC
  8
_0-b_細線3
  6
CONTINUOUS
 62
    7
 10
720.81567675574763
 20
435.86894278071821
 40
2.6666666666666679
 50
89.999999999999915
 51
179.99999999999983
  0
ARC
  8
_0-b_細線3
  6
CONTINUOUS
 62
    7
 10
722.06354126595409
 20
441.20227611405176
 40
2.6666666666666679
 50
269.99999999999977
 51
329.99999999999687
  0
ARC
  8
_0-b_細線3
  6
CONTINUOUS
 62
    7
 10
726.68234341947129
 20
438.53560944738535
 40
2.6666666666666679
 50
89.999999999999915
 51
150.00000000000992
  0
LINE
  8
_0-b_細線3
  6
CONTINUOUS
 62
    7
 10
720.81567675574763
 20
438.53560944738535
 11
722.06354126595409
 21
438.53560944738535
  0
ARC
  8
_0-b_細線3
  6
CONTINUOUS
 62
    7
 10
745.88234341652844
 20
435.86894278071821
 40
2.6666666666666679
 50
0
 51
89.999999999999915
  0
ARC
  8
_0-b_細線3
  6
CONTINUOUS
 62
    7
 10
744.63447890632176
 20
441.20227611405176
 40
2.6666666666666679
 50
210
 51
269.99999999999977
  0
ARC
  8
_0-b_細線3
  6
CONTINUOUS
 62
    7
 10
740.01567675280432
 20
438.53560944738535
 40
2.6666666666666679
 50
29.999999999990099
 51
89.999999999990223
  0
LINE
  8
_0-b_細線3
  6
CONTINUOUS
 62
    7
 10
745.88234341652844
 20
438.53560944738535
 11
744.63447890632176
 21
438.53560944738535
  0
ARC
  8
_0-b_細線3
  6
CONTINUOUS
 62
    7
 10
719.48234342241392
 20
432.13560944738538
 40
1.3333333333333339
 50
179.99999999999983
 51
269.99999999999977
  0
LINE
  8
_0-b_細線3
  6
CONTINUOUS
 62
    7
 10
718.14901008908066
 20
435.86894278071821
 11
718.14901008908066
 21
432.13560944738538
  0
ARC
  8
_0-b_細線3
  6
CONTINUOUS
 62
    7
 10
747.21567674986159
 20
432.13560944738538
 40
1.3333333333333339
 50
269.99999999999977
 51
359.99999999999966
  0
LINE
  8
_0-b_細線3
  6
CONTINUOUS
 62
    7
 10
748.54901008319518
 20
435.86894278071821
 11
748.54901008319518
 21
432.13560944738538
  0
ARC
  8
_0-b_細線3
  6
CONTINUOUS
 62
    7
 10
726.14901008908066
 20
428.13560944738538
 40
2.6666666666666679
 50
0
 51
89.999999999999915
  0
LINE
  8
_0-b_細線3
  6
CONTINUOUS
 62
    7
 10
726.14901008908066
 20
430.80227611405178
 11
719.48234342241392
 21
430.80227611405178
  0
ARC
  8
_0-b_細線3
  6
CONTINUOUS
 62
    7
 10
740.54901008908121
 20
428.13560944738538
 40
2.6666666666666679
 50
89.999999999999915
 51
179.99999999999983
  0
LINE
  8
_0-b_細線3
  6
CONTINUOUS
 62
    7
 10
740.54901008319496
 20
430.80227611405178
 11
747.21567674986159
 21
430.80227611405178
  0
LINE
  8
_0-b_細線3
  6
CONTINUOUS
 62
    7
 10
740.01567675280432
 20
441.20227611405176
 11
726.68234341947129
 21
441.20227611405176
  0
LINE
  8
_0-b_細線3
  6
CONTINUOUS
 62
    7
 10
728.81567675280473
 20
374.53560944738501
 11
728.81567675574763
 21
428.13560944738538
  0
LINE
  8
_0-b_細線3
  6
CONTINUOUS
 62
    7
 10
737.88234341947111
 20
374.53560944738501
 11
737.88234342241424
 21
428.13560944738538
  0
LINE
  8
_0-b_細線3
  6
CONTINUOUS
 62
    7
 10
737.88234341947111
 20
374.53560944738501
 11
728.81567675280473
 21
374.53560944738501
  0
ARC
  8
_0-b_細線3
  6
CONTINUOUS
 62
    7
 10
860.01567675864192
 20
435.86894278071821
 40
2.6666666666666679
 50
89.999999999999915
 51
179.99999999999983
  0
ARC
  8
_0-b_細線3
  6
CONTINUOUS
 62
    7
 10
861.26354126884848
 20
441.20227611405176
 40
2.6666666666666679
 50
269.99999999999977
 51
329.99999999999568
  0
ARC
  8
_0-b_細線3
  6
CONTINUOUS
 62
    7
 10
865.88234342236558
 20
438.53560944738535
 40
2.6666666666666679
 50
89.999999999999915
 51
150.00000000000992
  0
LINE
  8
_0-b_細線3
  6
CONTINUOUS
 62
    7
 10
860.01567675864192
 20
438.53560944738535
 11
861.26354126884848
 21
438.53560944738535
  0
ARC
  8
_0-b_細線3
  6
CONTINUOUS
 62
    7
 10
885.08234341942239
 20
435.86894278071821
 40
2.6666666666666679
 50
0
 51
89.999999999999915
  0
ARC
  8
_0-b_細線3
  6
CONTINUOUS
 62
    7
 10
883.83447890921582
 20
441.20227611405176
 40
2.6666666666666679
 50
209.99999999999878
 51
269.99999999999977
  0
ARC
  8
_0-b_細線3
  6
CONTINUOUS
 62
    7
 10
879.21567675569872
 20
438.53560944738535
 40
2.6666666666666679
 50
29.999999999994984
 51
89.999999999999901
  0
LINE
  8
_0-b_細線3
  6
CONTINUOUS
 62
    7
 10
885.08234341942239
 20
438.53560944738535
 11
883.83447890921582
 21
438.53560944738535
  0
ARC
  8
_0-b_細線3
  6
CONTINUOUS
 62
    7
 10
858.68234342530866
 20
432.13560944738538
 40
1.3333333333333339
 50
179.99999999999983
 51
269.99999999999977
  0
LINE
  8
_0-b_細線3
  6
CONTINUOUS
 62
    7
 10
857.34901009197506
 20
435.86894278071821
 11
857.34901009197506
 21
432.13560944738538
  0
ARC
  8
_0-b_細線3
  6
CONTINUOUS
 62
    7
 10
886.41567675275599
 20
432.13560944738538
 40
1.3333333333333339
 50
269.99999999999977
 51
359.99999999999966
  0
LINE
  8
_0-b_細線3
  6
CONTINUOUS
 62
    7
 10
887.74901008608924
 20
435.86894278071821
 11
887.74901008608924
 21
432.13560944738538
  0
ARC
  8
_0-b_細線3
  6
CONTINUOUS
 62
    7
 10
865.34901009197506
 20
428.13560944738538
 40
2.6666666666666679
 50
0
 51
89.999999999999915
  0
LINE
  8
_0-b_細線3
  6
CONTINUOUS
 62
    7
 10
865.34901009197506
 20
430.80227611405178
 11
858.68234342530866
 21
430.80227611405178
  0
ARC
  8
_0-b_細線3
  6
CONTINUOUS
 62
    7
 10
879.74901009197549
 20
428.13560944738538
 40
2.6666666666666679
 50
89.999999999999915
 51
179.99999999999983
  0
LINE
  8
_0-b_細線3
  6
CONTINUOUS
 62
    7
 10
879.74901008608924
 20
430.80227611405178
 11
886.41567675275599
 21
430.80227611405178
  0
LINE
  8
_0-b_細線3
  6
CONTINUOUS
 62
    7
 10
879.21567675569872
 20
441.20227611405176
 11
865.88234342236558
 21
441.20227611405176
  0
LINE
  8
_0-b_細線3
  6
CONTINUOUS
 62
    7
 10
868.01567675569879
 20
374.53560944738501
 11
868.01567675864192
 21
428.13560944738538
  0
LINE
  8
_0-b_細線3
  6
CONTINUOUS
 62
    7
 10
877.08234342236551
 20
374.53560944738501
 11
877.08234342530864
 21
428.13560944738538
  0
LINE
  8
_0-b_細線3
  6
CONTINUOUS
 62
    7
 10
877.08234342236551
 20
374.53560944738501
 11
868.01567675569879
 21
374.53560944738501
  0
ARC
  8
_0-b_細線3
  6
CONTINUOUS
 62
    7
 10
906.41567675960698
 20
435.86894278071821
 40
2.6666666666666679
 50
89.999999999999915
 51
179.99999999999983
  0
ARC
  8
_0-b_細線3
  6
CONTINUOUS
 62
    7
 10
907.66354126981332
 20
441.20227611405176
 40
2.6666666666666679
 50
269.99999999999977
 51
329.99999999999568
  0
ARC
  8
_0-b_細線3
  6
CONTINUOUS
 62
    7
 10
912.2823434233303
 20
438.53560944738535
 40
2.6666666666666679
 50
89.999999999999915
 51
150.0000000000087
  0
LINE
  8
_0-b_細線3
  6
CONTINUOUS
 62
    7
 10
906.41567675960698
 20
438.53560944738535
 11
907.66354126981332
 21
438.53560944738535
  0
ARC
  8
_0-b_細線3
  6
CONTINUOUS
 62
    7
 10
931.48234342038791
 20
435.86894278071821
 40
2.6666666666666679
 50
0
 51
89.999999999999915
  0
ARC
  8
_0-b_細線3
  6
CONTINUOUS
 62
    7
 10
930.2344789101802
 20
441.20227611405176
 40
2.6666666666666679
 50
210.00000000000367
 51
269.99999999999977
  0
ARC
  8
_0-b_細線3
  6
CONTINUOUS
 62
    7
 10
925.61567675666322
 20
438.53560944738535
 40
2.6666666666666679
 50
29.999999999991321
 51
89.999999999970683
  0
LINE
  8
_0-b_細線3
  6
CONTINUOUS
 62
    7
 10
931.48234342038791
 20
438.53560944738535
 11
930.2344789101802
 21
438.53560944738535
  0
ARC
  8
_0-b_細線3
  6
CONTINUOUS
 62
    7
 10
905.0823434262727
 20
432.13560944738538
 40
1.3333333333333339
 50
179.99999999999983
 51
269.99999999999977
  0
LINE
  8
_0-b_細線3
  6
CONTINUOUS
 62
    7
 10
903.74901009294001
 20
435.86894278071821
 11
903.74901009294001
 21
432.13560944738538
  0
ARC
  8
_0-b_細線3
  6
CONTINUOUS
 62
    7
 10
932.81567675372082
 20
432.13560944738538
 40
1.3333333333333339
 50
269.99999999999977
 51
359.99999999999966
  0
LINE
  8
_0-b_細線3
  6
CONTINUOUS
 62
    7
 10
934.14901008705363
 20
435.86894278071821
 11
934.14901008705363
 21
432.13560944738538
  0
ARC
  8
_0-b_細線3
  6
CONTINUOUS
 62
    7
 10
911.7490100929399
 20
428.13560944738538
 40
2.6666666666666679
 50
0
 51
89.999999999999915
  0
LINE
  8
_0-b_細線3
  6
CONTINUOUS
 62
    7
 10
911.7490100929399
 20
430.80227611405178
 11
905.0823434262727
 21
430.80227611405178
  0
ARC
  8
_0-b_細線3
  6
CONTINUOUS
 62
    7
 10
926.14901009293987
 20
428.13560944738538
 40
2.6666666666666679
 50
89.999999999999915
 51
179.99999999999983
  0
LINE
  8
_0-b_細線3
  6
CONTINUOUS
 62
    7
 10
926.14901008705363
 20
430.80227611405178
 11
932.81567675372082
 21
430.80227611405178
  0
LINE
  8
_0-b_細線3
  6
CONTINUOUS
 62
    7
 10
925.61567675666322
 20
441.20227611405176
 11
912.2823434233303
 21
441.20227611405176
  0
LINE
  8
_0-b_細線3
  6
CONTINUOUS
 62
    7
 10
914.41567675666317
 20
374.53560944738501
 11
914.41567675960698
 21
428.13560944738538
  0
LINE
  8
_0-b_細線3
  6
CONTINUOUS
 62
    7
 10
923.48234342333035
 20
374.53560944738501
 11
923.48234342627416
 21
428.13560944738538
  0
LINE
  8
_0-b_細線3
  6
CONTINUOUS
 62
    7
 10
923.48234342333035
 20
374.53560944738501
 11
914.41567675666317
 21
374.53560944738501
  0
ARC
  8
_0-b_細線3
  6
CONTINUOUS
 62
    7
 10
952.01567676057186
 20
435.86894278071821
 40
2.6666666666666679
 50
89.999999999999915
 51
179.99999999999983
  0
ARC
  8
_0-b_細線3
  6
CONTINUOUS
 62
    7
 10
953.26354127077809
 20
441.20227611405176
 40
2.6666666666666679
 50
269.99999999999977
 51
329.99999999999568
  0
ARC
  8
_0-b_細線3
  6
CONTINUOUS
 62
    7
 10
957.88234342429507
 20
438.53560944738535
 40
2.6666666666666679
 50
89.999999999999915
 51
150.0000000000087
  0
LINE
  8
_0-b_細線3
  6
CONTINUOUS
 62
    7
 10
952.01567676057186
 20
438.53560944738535
 11
953.26354127077809
 21
438.53560944738535
  0
ARC
  8
_0-b_細線3
  6
CONTINUOUS
 62
    7
 10
977.08234342135268
 20
435.86894278071821
 40
2.6666666666666679
 50
0
 51
89.999999999999915
  0
ARC
  8
_0-b_細線3
  6
CONTINUOUS
 62
    7
 10
975.83447891114497
 20
441.20227611405176
 40
2.6666666666666679
 50
210.00000000000367
 51
269.99999999999977
  0
ARC
  8
_0-b_細線3
  6
CONTINUOUS
 62
    7
 10
971.21567675762799
 20
438.53560944738535
 40
2.6666666666666679
 50
29.999999999991321
 51
89.999999999999901
  0
LINE
  8
_0-b_細線3
  6
CONTINUOUS
 62
    7
 10
977.08234342135268
 20
438.53560944738535
 11
975.83447891114497
 21
438.53560944738535
  0
ARC
  8
_0-b_細線3
  6
CONTINUOUS
 62
    7
 10
950.68234342723747
 20
432.13560944738538
 40
1.3333333333333339
 50
179.99999999999983
 51
269.99999999999977
  0
LINE
  8
_0-b_細線3
  6
CONTINUOUS
 62
    7
 10
949.34901009390467
 20
435.86894278071821
 11
949.34901009390467
 21
432.13560944738538
  0
ARC
  8
_0-b_細線3
  6
CONTINUOUS
 62
    7
 10
978.41567675468559
 20
432.13560944738538
 40
1.3333333333333339
 50
269.99999999999977
 51
359.99999999999966
  0
LINE
  8
_0-b_細線3
  6
CONTINUOUS
 62
    7
 10
979.74901008801839
 20
435.86894278071821
 11
979.74901008801839
 21
432.13560944738538
  0
ARC
  8
_0-b_細線3
  6
CONTINUOUS
 62
    7
 10
957.34901009390467
 20
428.13560944738538
 40
2.6666666666666679
 50
0
 51
89.999999999999915
  0
LINE
  8
_0-b_細線3
  6
CONTINUOUS
 62
    7
 10
957.34901009390467
 20
430.80227611405178
 11
950.68234342723747
 21
430.80227611405178
  0
ARC
  8
_0-b_細線3
  6
CONTINUOUS
 62
    7
 10
971.74901009390464
 20
428.13560944738538
 40
2.6666666666666679
 50
89.999999999999915
 51
179.99999999999983
  0
LINE
  8
_0-b_細線3
  6
CONTINUOUS
 62
    7
 10
971.74901008801839
 20
430.80227611405178
 11
978.41567675468559
 21
430.80227611405178
  0
LINE
  8
_0-b_細線3
  6
CONTINUOUS
 62
    7
 10
971.21567675762799
 20
441.20227611405176
 11
957.88234342429507
 21
441.20227611405176
  0
LINE
  8
_0-b_細線3
  6
CONTINUOUS
 62
    7
 10
960.01567675762794
 20
374.53560944738501
 11
960.01567676057186
 21
428.13560944738538
  0
LINE
  8
_0-b_細線3
  6
CONTINUOUS
 62
    7
 10
969.08234342429512
 20
374.53560944738501
 11
969.08234342723892
 21
428.13560944738538
  0
LINE
  8
_0-b_細線3
  6
CONTINUOUS
 62
    7
 10
969.08234342429512
 20
374.53560944738501
 11
960.01567675762794
 21
374.53560944738501
  0
LINE
  8
_0-d_寸法3
  6
CONTINUOUS
 62
    7
 10
766.64257737847902
 20
383.71283242900176
 11
710.41808987655793
 21
423.08164240982484
  0
LINE
  8
_0-d_寸法3
  6
CONTINUOUS
 62
    7
 10
716.9713062308698
 20
418.49303091901646
 11
712.83020150922948
 21
433.94784413964157
  0
LINE
  8
_0-d_寸法3
  6
CONTINUOUS
 62
    7
 10
716.9713062308698
 20
418.49303091901646
 11
721.11241095251012
 21
433.94784413964157
  0
LINE
  8
_0-d_寸法3
  6
CONTINUOUS
 62
    7
 10
766.64257737847902
 20
450.37949909566851
 11
710.41808987655781
 21
489.74830907649141
  0
LINE
  8
_0-d_寸法3
  6
CONTINUOUS
 62
    7
 10
716.9713062308698
 20
485.15969758568303
 11
721.11241095251
 21
469.70488436505792
  0
LINE
  8
_0-d_寸法3
  6
CONTINUOUS
 62
    7
 10
716.9713062308698
 20
485.15969758568303
 11
712.83020150922937
 21
469.70488436505798
  0
LINE
  8
_0-d_寸法3
  6
CONTINUOUS
 62
    7
 10
716.9713062308698
 20
418.49303091901646
 11
716.9713062308698
 21
485.15969758568303
  0
TEXT
  8
_0-d_寸法3
 62
    7
 10
716.9713062308698
 20
439.82636425234966
 40
24
 41
1
 50
90
  1
25
  0
LINE
  8
_0-a_極細3
  6
CONTINUOUS
 62
    7
 10
496.59156760099268
 20
286.34633130739076
 11
488.38308416117627
 21
308.89895420625248
  0
LINE
  8
_0-a_極細3
  6
CONTINUOUS
 62
    7
 10
576.58203587906701
 20
341.0007473250464
 11
584.79051931888262
 21
318.44812442618468
  0
LINE
  8
_0-a_極細3
  6
CONTINUOUS
 62
    7
 10
488.38308416117627
 20
308.89895420625248
 11
576.58203587906701
 21
341.00074732504646
  0
LINE
  8
_0-a_極細3
  6
CONTINUOUS
 62
    7
 10
496.59156760099268
 20
286.34633130739076
 11
584.79051931888262
 21
318.44812442618468
  0
LINE
  8
_0-a_極細3
  6
CENTER1
 62
    7
 10
484.55863245389605
 20
294.73683469277375
 11
587.00826522600119
 21
332.0254514688304
  0
LINE
  8
_0-a_極細3
  6
CONTINUOUS
 62
    7
 10
526.41567675376916
 20
246.53560944738501
 11
526.41567675376916
 21
317.07250760469083
  0
LINE
  8
_0-a_極細3
  6
CONTINUOUS
 62
    7
 10
526.41567675376916
 20
317.07250760469083
 11
502.41567675376916
 21
317.07250760469083
  0
LINE
  8
_0-a_極細3
  6
CONTINUOUS
 62
    7
 10
502.41567675376916
 20
317.07250760469083
 11
502.41567675376916
 21
246.53560944738501
  0
LINE
  8
_0-a_極細3
  6
CENTER1
 62
    7
 10
514.41567675376916
 20
233.29282499226053
 11
514.41567675376916
 21
323.91365986806602
  0
LINE
  8
_0-a_極細3
  6
CONTINUOUS
 62
    7
 10
1062.9064525732124
 20
286.34633130739076
 11
1071.1149360130289
 21
308.89895420625248
  0
LINE
  8
_0-a_極細3
  6
CONTINUOUS
 62
    7
 10
982.91598429513851
 20
341.0007473250464
 11
974.70750085532291
 21
318.44812442618468
  0
LINE
  8
_0-a_極細3
  6
CONTINUOUS
 62
    7
 10
1071.1149360130289
 20
308.89895420625248
 11
982.91598429513851
 21
341.00074732504646
  0
LINE
  8
_0-a_極細3
  6
CONTINUOUS
 62
    7
 10
1062.9064525732124
 20
286.34633130739076
 11
974.70750085532291
 21
318.44812442618468
  0
LINE
  8
_0-a_極細3
  6
CENTER1
 62
    7
 10
1074.939387720309
 20
294.73683469277375
 11
972.48975494820354
 21
332.0254514688304
  0
LINE
  8
_0-a_極細3
  6
CONTINUOUS
 62
    7
 10
1033.0823434204358
 20
246.53560944738501
 11
1033.0823434204358
 21
317.07250760469083
  0
LINE
  8
_0-a_極細3
  6
CONTINUOUS
 62
    7
 10
1057.0823434204358
 20
317.07250760469083
 11
1057.0823434204358
 21
246.53560944738501
  0
LINE
  8
_0-a_極細3
  6
CENTER1
 62
    7
 10
1045.0823434204358
 20
233.29282499226053
 11
1045.0823434204358
 21
323.91365986806602
  0
LINE
  8
_0-a_極細3
  6
CONTINUOUS
 62
    7
 10
1033.0823434204358
 20
317.07250760469083
 11
1057.0823434204358
 21
317.07250760469083
  0
CIRCLE
  8
_0-a_極細3
  6
CONTINUOUS
 62
    7
 10
1068.5464302657115
 20
327.13810315108049
 40
0.884938271604915
  0
CIRCLE
  8
_0-a_極細3
  6
CONTINUOUS
 62
    7
 10
1037.1864302657123
 20
336.09810315108041
 40
0.884938271604915
  0
TEXT
  8
_0-7_枠細線
 62
    5
 10
699.87373386432864
 20
134.53502544470041
 40
40
 41
0.8
 50
0
  1
断面詳細図
  0
ARC
  8
_0-b_細線3
  6
CONTINUOUS
 62
    7
 10
586.95768208177151
 20
394.5356094473857
 40
0.5333333333333335
 50
179.99999999999983
 51
269.99999999999977
  0
LINE
  8
_0-b_細線3
  6
CONTINUOUS
 62
    7
 10
590.41567674843873
 20
394.00227611405217
 11
586.95768208177151
 21
394.00227611405217
  0
ARC
  8
_0-b_細線3
  6
CONTINUOUS
 62
    7
 10
586.95768208177151
 20
428.13560944738509
 40
0.5333333333333335
 50
89.999999999999915
 51
179.99999999999983
  0
LINE
  8
_0-b_細線3
  6
CONTINUOUS
 62
    7
 10
590.41567674843873
 20
428.66894278071936
 11
586.95768208177151
 21
428.66894278071936
  0
LINE
  8
_0-b_細線3
  6
CONTINUOUS
 62
    7
 10
586.42434874843764
 20
410.00227611405222
 11
586.42434874843764
 21
394.5356094473857
  0
LINE
  8
_0-b_細線3
  6
CONTINUOUS
 62
    7
 10
586.42434874843764
 20
428.13560944738509
 11
586.42434874843764
 21
410.00227611405222
  0
ARC
  8
_0-b_細線3
  6
CONTINUOUS
 62
    7
 10
972.54033809243424
 20
394.5356094473857
 40
0.5333333333333335
 50
269.99999999999977
 51
359.99999999999966
  0
LINE
  8
_0-b_細線3
  6
CONTINUOUS
 62
    7
 10
969.08234342576634
 20
394.00227611405217
 11
972.54033809243424
 21
394.00227611405217
  0
ARC
  8
_0-b_細線3
  6
CONTINUOUS
 62
    7
 10
972.54033809243424
 20
428.13560944738509
 40
0.5333333333333335
 50
0
 51
89.999999999999915
  0
LINE
  8
_0-b_細線3
  6
CONTINUOUS
 62
    7
 10
969.08234342576634
 20
428.66894278071936
 11
972.54033809243424
 21
428.66894278071936
  0
LINE
  8
_0-b_細線3
  6
CONTINUOUS
 62
    7
 10
973.07367142576857
 20
410.00227611405222
 11
973.07367142576857
 21
394.5356094473857
  0
LINE
  8
_0-b_細線3
  6
CONTINUOUS
 62
    7
 10
973.07367142576857
 20
428.13560944738509
 11
973.07367142576857
 21
410.00227611405222
  0
LINE
  8
_0-a_極細3
  6
CENTER1
 62
    7
 10
990.07478282639943
 20
411.33560944738508
 11
563.76928884250424
 21
411.33560944738508
  0
LINE
  8
_0-b_細線3
  6
CONTINUOUS
 62
    7
 10
973.07367142576857
 20
411.33560944738508
 11
981.08571409243461
 21
411.33560944738508
  0
LINE
  8
_0-b_細線3
  6
CONTINUOUS
 62
    7
 10
973.07367142576857
 20
402.00227611405296
 11
981.08574609243385
 21
402.00227611405296
  0
ARC
  8
_0-b_細線3
  6
CONTINUOUS
 62
    7
 10
981.08574609243385
 20
402.53560944738581
 40
0.5333333333333335
 50
269.99999999999977
 51
359.99999999999966
  0
ARC
  8
_0-b_細線3
  6
CONTINUOUS
 62
    7
 10
960.93113275910162
 20
406.66855344738667
 40
20.687882666666667
 50
346.96432999999928
 51
13.038021999995031
  0
ARC
  8
_0-b_細線3
  6
CONTINUOUS
 62
    7
 10
981.08574609243385
 20
420.13560944738651
 40
0.5333333333333335
 50
0
 51
89.999999999999915
  0
ARC
  8
_0-b_細線3
  6
CONTINUOUS
 62
    7
 10
960.93113275910162
 20
416.00266011405199
 40
20.687882666666667
 50
346.96197800000027
 51
13.035670000000032
  0
LINE
  8
_0-b_細線3
  6
CONTINUOUS
 62
    7
 10
973.07367142576857
 20
420.66894278071936
 11
981.08574609243385
 21
420.66894278071936
  0
LINE
  8
_0-b_細線3
  6
CONTINUOUS
 62
    7
 10
981.6190794257667
 20
402.53560944738581
 11
981.6190794257667
 21
420.13560944738651
  0
LINE
  8
_0-b_細線3
  6
CONTINUOUS
 62
    7
 10
586.42434874843764
 20
411.33560944738508
 11
578.41230608177079
 21
411.33560944738508
  0
LINE
  8
_0-b_細線3
  6
CONTINUOUS
 62
    7
 10
586.42434874843764
 20
402.00227611405296
 11
578.41227408177235
 21
402.00227611405296
  0
ARC
  8
_0-b_細線3
  6
CONTINUOUS
 62
    7
 10
578.41227408177235
 20
402.53560944738581
 40
0.5333333333333335
 50
179.99999999999983
 51
269.99999999999977
  0
ARC
  8
_0-b_細線3
  6
CONTINUOUS
 62
    7
 10
598.56688741510459
 20
406.66855344738667
 40
20.687882666666667
 50
166.96197800000505
 51
193.03566999999961
  0
ARC
  8
_0-b_細線3
  6
CONTINUOUS
 62
    7
 10
578.41227408177235
 20
420.13560944738651
 40
0.5333333333333335
 50
89.999999999999915
 51
179.99999999999983
  0
ARC
  8
_0-b_細線3
  6
CONTINUOUS
 62
    7
 10
598.56688741510459
 20
416.00266011405199
 40
20.687882666666667
 50
166.96433000000002
 51
193.03802199999856
  0
LINE
  8
_0-b_細線3
  6
CONTINUOUS
 62
    7
 10
586.42434874843764
 20
420.66894278071936
 11
578.41227408177235
 21
420.66894278071936
  0
LINE
  8
_0-b_細線3
  6
CONTINUOUS
 62
    7
 10
577.87894074843803
 20
402.53560944738581
 11
577.87894074843803
 21
420.13560944738651
  0
LINE
  8
_0-b_細線3
  6
CONTINUOUS
 62
    7
 10
599.48234341804834
 20
394.00227611405205
 11
636.01567675138153
 21
394.00227611405205
  0
LINE
  8
_0-b_細線3
  6
CONTINUOUS
 62
    7
 10
923.48234342480157
 20
394.00227611405205
 11
960.01567675813578
 21
394.00227611405205
  0
LINE
  8
_0-b_細線3
  6
CONTINUOUS
 62
    7
 10
645.08234341901311
 20
394.00227611405205
 11
682.41567675234671
 21
394.00227611405205
  0
LINE
  8
_0-b_細線3
  6
CONTINUOUS
 62
    7
 10
691.48234341997829
 20
394.00227611405205
 11
728.81567675331155
 21
394.00227611405205
  0
LINE
  8
_0-b_細線3
  6
CONTINUOUS
 62
    7
 10
737.88234342094268
 20
394.00227611405205
 11
775.21567675427593
 21
394.00227611405205
  0
LINE
  8
_0-b_細線3
  6
CONTINUOUS
 62
    7
 10
830.68234342287235
 20
394.00227611405205
 11
868.01567675620549
 21
394.00227611405205
  0
LINE
  8
_0-b_細線3
  6
CONTINUOUS
 62
    7
 10
877.08234342383707
 20
394.00227611405205
 11
914.41567675717101
 21
394.00227611405205
  0
LINE
  8
_0-b_細線3
  6
CONTINUOUS
 62
    7
 10
599.48234341804834
 20
428.66894278071885
 11
636.01567675138153
 21
428.66894278071885
  0
LINE
  8
_0-b_細線3
  6
CONTINUOUS
 62
    7
 10
923.48234342480157
 20
428.66894278071885
 11
960.01567675813578
 21
428.66894278071885
  0
LINE
  8
_0-b_細線3
  6
CONTINUOUS
 62
    7
 10
645.08234341901311
 20
428.66894278071885
 11
682.41567675234671
 21
428.66894278071885
  0
LINE
  8
_0-b_細線3
  6
CONTINUOUS
 62
    7
 10
691.48234341997829
 20
428.66894278071885
 11
728.81567675331155
 21
428.66894278071885
  0
LINE
  8
_0-b_細線3
  6
CONTINUOUS
 62
    7
 10
737.88234342094268
 20
428.66894278071885
 11
775.21567675427593
 21
428.66894278071885
  0
LINE
  8
_0-b_細線3
  6
CONTINUOUS
 62
    7
 10
830.68234342287235
 20
428.66894278071885
 11
868.01567675620549
 21
428.66894278071885
  0
LINE
  8
_0-b_細線3
  6
CONTINUOUS
 62
    7
 10
877.08234342383707
 20
428.66894278071885
 11
914.41567675717101
 21
428.66894278071885
  0
ARC
  8
_0-b_細線3
  6
CONTINUOUS
 62
    7
 10
813.61567675767708
 20
435.86894278071821
 40
2.6666666666666679
 50
89.999999999999915
 51
179.99999999999983
  0
ARC
  8
_0-b_細線3
  6
CONTINUOUS
 62
    7
 10
814.86354126788376
 20
441.20227611405176
 40
2.6666666666666679
 50
269.99999999999977
 51
329.99999999999932
  0
ARC
  8
_0-b_細線3
  6
CONTINUOUS
 62
    7
 10
819.48234342140074
 20
438.53560944738535
 40
2.6666666666666679
 50
89.999999999999915
 51
150.00000000000503
  0
LINE
  8
_0-b_細線3
  6
CONTINUOUS
 62
    7
 10
813.61567675767708
 20
438.53560944738535
 11
814.86354126788376
 21
438.53560944738535
  0
ARC
  8
_0-b_細線3
  6
CONTINUOUS
 62
    7
 10
838.68234341845812
 20
435.86894278071821
 40
2.6666666666666679
 50
0
 51
89.999999999999915
  0
ARC
  8
_0-b_細線3
  6
CONTINUOUS
 62
    7
 10
837.43447890825098
 20
441.20227611405176
 40
2.6666666666666679
 50
210.00000000000489
 51
269.99999999999977
  0
ARC
  8
_0-b_細線3
  6
CONTINUOUS
 62
    7
 10
832.815676754734
 20
438.53560944738535
 40
2.6666666666666679
 50
29.999999999990099
 51
89.999999999990223
  0
LINE
  8
_0-b_細線3
  6
CONTINUOUS
 62
    7
 10
838.68234341845812
 20
438.53560944738535
 11
837.43447890825098
 21
438.53560944738535
  0
ARC
  8
_0-b_細線3
  6
CONTINUOUS
 62
    7
 10
812.28234342434348
 20
432.13560944738538
 40
1.3333333333333339
 50
179.99999999999983
 51
269.99999999999977
  0
LINE
  8
_0-b_細線3
  6
CONTINUOUS
 62
    7
 10
810.94901009101034
 20
435.86894278071821
 11
810.94901009101034
 21
432.13560944738538
  0
ARC
  8
_0-b_細線3
  6
CONTINUOUS
 62
    7
 10
840.01567675179115
 20
432.13560944738538
 40
1.3333333333333339
 50
269.99999999999977
 51
359.99999999999966
  0
LINE
  8
_0-b_細線3
  6
CONTINUOUS
 62
    7
 10
841.34901008512441
 20
435.86894278071821
 11
841.34901008512441
 21
432.13560944738538
  0
ARC
  8
_0-b_細線3
  6
CONTINUOUS
 62
    7
 10
818.94901009101034
 20
428.13560944738538
 40
2.6666666666666679
 50
0
 51
89.999999999999915
  0
LINE
  8
_0-b_細線3
  6
CONTINUOUS
 62
    7
 10
818.94901009101034
 20
430.80227611405178
 11
812.28234342434348
 21
430.80227611405178
  0
ARC
  8
_0-b_細線3
  6
CONTINUOUS
 62
    7
 10
833.34901009101065
 20
428.13560944738538
 40
2.6666666666666679
 50
89.999999999999915
 51
179.99999999999983
  0
LINE
  8
_0-b_細線3
  6
CONTINUOUS
 62
    7
 10
833.34901008512441
 20
430.80227611405178
 11
840.01567675179115
 21
430.80227611405178
  0
LINE
  8
_0-b_細線3
  6
CONTINUOUS
 62
    7
 10
832.815676754734
 20
441.20227611405176
 11
819.48234342140074
 21
441.20227611405176
  0
LINE
  8
_0-b_細線3
  6
CONTINUOUS
 62
    7
 10
821.61567675473395
 20
374.53560944738501
 11
821.61567675767708
 21
428.13560944738538
  0
LINE
  8
_0-b_細線3
  6
CONTINUOUS
 62
    7
 10
830.68234342140079
 20
374.53560944738501
 11
830.68234342434391
 21
428.13560944738538
  0
LINE
  8
_0-b_細線3
  6
CONTINUOUS
 62
    7
 10
830.68234342140079
 20
374.53560944738501
 11
821.61567675473395
 21
374.53560944738501
  0
ARC
  8
_0-b_細線3
  6
CONTINUOUS
 62
    7
 10
767.2156767567119
 20
435.86894278071821
 40
2.6666666666666679
 50
89.999999999999915
 51
179.99999999999983
  0
ARC
  8
_0-b_細線3
  6
CONTINUOUS
 62
    7
 10
768.46354126691892
 20
441.20227611405176
 40
2.6666666666666679
 50
269.99999999999977
 51
329.99999999999568
  0
ARC
  8
_0-b_細線3
  6
CONTINUOUS
 62
    7
 10
773.08234342043556
 20
438.53560944738535
 40
2.6666666666666679
 50
89.999999999999915
 51
150.00000000000503
  0
LINE
  8
_0-b_細線3
  6
CONTINUOUS
 62
    7
 10
767.2156767567119
 20
438.53560944738535
 11
768.46354126691892
 21
438.53560944738535
  0
ARC
  8
_0-b_細線3
  6
CONTINUOUS
 62
    7
 10
792.28234341749317
 20
435.86894278071821
 40
2.6666666666666679
 50
0
 51
89.999999999999915
  0
ARC
  8
_0-b_細線3
  6
CONTINUOUS
 62
    7
 10
791.0344789072866
 20
441.20227611405176
 40
2.6666666666666679
 50
209.99999999999878
 51
269.99999999999977
  0
ARC
  8
_0-b_細線3
  6
CONTINUOUS
 62
    7
 10
786.41567675376916
 20
438.53560944738535
 40
2.6666666666666679
 50
29.999999999991321
 51
89.999999999992667
  0
LINE
  8
_0-b_細線3
  6
CONTINUOUS
 62
    7
 10
792.28234341749317
 20
438.53560944738535
 11
791.0344789072866
 21
438.53560944738535
  0
ARC
  8
_0-b_細線3
  6
CONTINUOUS
 62
    7
 10
765.88234342337876
 20
432.13560944738538
 40
1.3333333333333339
 50
179.99999999999983
 51
269.99999999999977
  0
LINE
  8
_0-b_細線3
  6
CONTINUOUS
 62
    7
 10
764.5490100900455
 20
435.86894278071821
 11
764.5490100900455
 21
432.13560944738538
  0
ARC
  8
_0-b_細線3
  6
CONTINUOUS
 62
    7
 10
793.61567675082676
 20
432.13560944738538
 40
1.3333333333333339
 50
269.99999999999977
 51
359.99999999999966
  0
LINE
  8
_0-b_細線3
  6
CONTINUOUS
 62
    7
 10
794.94901008416002
 20
435.86894278071821
 11
794.94901008416002
 21
432.13560944738538
  0
ARC
  8
_0-b_細線3
  6
CONTINUOUS
 62
    7
 10
772.5490100900455
 20
428.13560944738538
 40
2.6666666666666679
 50
0
 51
89.999999999999915
  0
LINE
  8
_0-b_細線3
  6
CONTINUOUS
 62
    7
 10
772.5490100900455
 20
430.80227611405178
 11
765.88234342337876
 21
430.80227611405178
  0
ARC
  8
_0-b_細線3
  6
CONTINUOUS
 62
    7
 10
786.94901009004548
 20
428.13560944738538
 40
2.6666666666666679
 50
89.999999999999915
 51
179.99999999999983
  0
LINE
  8
_0-b_細線3
  6
CONTINUOUS
 62
    7
 10
786.94901008415923
 20
430.80227611405178
 11
793.61567675082676
 21
430.80227611405178
  0
LINE
  8
_0-b_細線3
  6
CONTINUOUS
 62
    7
 10
786.41567675376916
 20
441.20227611405176
 11
773.08234342043556
 21
441.20227611405176
  0
LINE
  8
_0-b_細線3
  6
CONTINUOUS
 62
    7
 10
775.21567675376957
 20
374.53560944738501
 11
775.2156767567119
 21
428.13560944738538
  0
LINE
  8
_0-b_細線3
  6
CONTINUOUS
 62
    7
 10
784.28234342043595
 20
374.53560944738501
 11
784.28234342337907
 21
428.13560944738538
  0
LINE
  8
_0-b_細線3
  6
CONTINUOUS
 62
    7
 10
784.28234342043595
 20
374.53560944738501
 11
775.21567675376957
 21
374.53560944738501
  0
LINE
  8
_0-b_細線3
  6
CONTINUOUS
 62
    7
 10
809.26955436194896
 20
442.26958614000984
 11
809.26955436194896
 21
388.93625280667561
  0
LINE
  8
_0-b_細線3
  6
CONTINUOUS
 62
    7
 10
796.73622102861475
 20
388.93625280667561
 11
796.73622102861475
 21
442.26958614000984
  0
LINE
  8
_0-b_細線3
  6
CONTINUOUS
 62
    7
 10
809.26955436194896
 20
388.93625280667561
 11
796.73622102861475
 21
388.93625280667561
  0
LINE
  8
_0-b_細線3
  6
CONTINUOUS
 62
    7
 10
796.73622102861475
 20
442.26958614000984
 11
809.26955436194896
 21
442.26958614000984
  0
LINE
  8
_0-b_細線3
  6
DASHED2
 62
    7
 10
796.73622102861475
 20
396.93625280667555
 11
809.26955436194896
 21
396.93625280667555
  0
LINE
  8
_0-b_細線3
  6
DASHED2
 62
    7
 10
796.73622102861475
 20
434.26958614000984
 11
809.26955436194896
 21
434.26958614000984
  0
LINE
  8
_0-b_細線3
  6
CONTINUOUS
 62
    7
 10
784.28234342340841
 20
428.66894278071885
 11
796.73622102861475
 21
428.66894278071885
  0
LINE
  8
_0-b_細線3
  6
CONTINUOUS
 62
    7
 10
809.26955436194896
 20
428.66894278071885
 11
821.61567675524077
 21
428.66894278071885
  0
LINE
  8
_0-b_細線3
  6
CONTINUOUS
 62
    7
 10
784.28234342147573
 20
394.00227611405205
 11
796.73622102861475
 21
394.00227611405205
  0
LINE
  8
_0-b_細線3
  6
CONTINUOUS
 62
    7
 10
809.26955436194896
 20
394.00227611405205
 11
821.61567675524077
 21
394.00227611405205
  0
LINE
  8
_0-b_細線3
  6
CONTINUOUS
 62
    7
 10
566.41567675376916
 20
398.53560944738507
 11
566.41567675376916
 21
305.20227611405176
  0
LINE
  8
_0-b_細線3
  6
CONTINUOUS
 62
    7
 10
566.41567675376916
 20
305.20227611405176
 11
560.28234342043584
 21
305.20227611405176
  0
LINE
  8
_0-b_細線3
  6
CONTINUOUS
 62
    7
 10
560.28234342043584
 20
305.20227611405176
 11
560.28234342043584
 21
398.53560944738507
  0
LINE
  8
_0-b_細線3
  6
CONTINUOUS
 62
    7
 10
560.28234342043584
 20
398.53560944738507
 11
566.41567675376916
 21
398.53560944738507
  0
LINE
  8
_0-a_極細3
  6
CONTINUOUS
 62
    7
 10
560.28234342043584
 20
355.8689427807185
 11
566.41567675376916
 21
355.8689427807185
  0
LINE
  8
_0-a_極細3
  6
CONTINUOUS
 62
    7
 10
560.28234342043584
 20
361.20227611405181
 11
566.41567675376916
 21
361.20227611405181
  0
LINE
  8
_0-a_極細3
  6
CONTINUOUS
 62
    7
 10
560.28234342043584
 20
350.53560944738501
 11
566.41567675376916
 21
350.53560944738501
  0
LINE
  8
_0-a_極細3
  6
CONTINUOUS
 62
    7
 10
560.28234342043584
 20
366.53560944738501
 11
566.41567675376916
 21
366.53560944738501
  0
LINE
  8
_0-a_極細3
  6
CONTINUOUS
 62
    7
 10
566.41567675376916
 20
313.20227611405176
 11
560.28234342043584
 21
313.20227611405176
  0
LINE
  8
_0-a_極細3
  6
CONTINUOUS
 62
    7
 10
560.28234342043584
 20
393.20227611405181
 11
566.41567675376916
 21
393.20227611405181
  0
LINE
  8
_0-b_細線3
  6
CONTINUOUS
 62
    7
 10
993.08234342043636
 20
398.53560944738507
 11
993.08234342043636
 21
305.20227611405176
  0
LINE
  8
_0-b_細線3
  6
CONTINUOUS
 62
    7
 10
993.08234342043636
 20
305.20227611405176
 11
999.21567675376969
 21
305.20227611405176
  0
LINE
  8
_0-b_細線3
  6
CONTINUOUS
 62
    7
 10
999.21567675376969
 20
305.20227611405176
 11
999.21567675376969
 21
398.53560944738507
  0
LINE
  8
_0-b_細線3
  6
CONTINUOUS
 62
    7
 10
999.21567675376969
 20
398.53560944738507
 11
993.08234342043636
 21
398.53560944738507
  0
LINE
  8
_0-a_極細3
  6
CONTINUOUS
 62
    7
 10
999.21567675376969
 20
355.8689427807185
 11
993.08234342043636
 21
355.8689427807185
  0
LINE
  8
_0-a_極細3
  6
CONTINUOUS
 62
    7
 10
999.21567675376969
 20
361.20227611405181
 11
993.08234342043636
 21
361.20227611405181
  0
LINE
  8
_0-a_極細3
  6
CONTINUOUS
 62
    7
 10
999.21567675376969
 20
350.53560944738501
 11
993.08234342043636
 21
350.53560944738501
  0
LINE
  8
_0-a_極細3
  6
CONTINUOUS
 62
    7
 10
999.21567675376969
 20
366.53560944738501
 11
993.08234342043636
 21
366.53560944738501
  0
LINE
  8
_0-a_極細3
  6
CONTINUOUS
 62
    7
 10
993.08234342043636
 20
313.20227611405176
 11
999.21567675376969
 21
313.20227611405176
  0
LINE
  8
_0-a_極細3
  6
CONTINUOUS
 62
    7
 10
999.21567675376969
 20
393.20227611405181
 11
993.08234342043636
 21
393.20227611405181
  0
LINE
  8
_0-7_枠細線
  6
CONTINUOUS
 62
    5
 10
1027.9048236987653
 20
381.46892432728896
 11
1015.9048236987653
 21
405.4689243272889
  0
LINE
  8
_0-7_枠細線
  6
CONTINUOUS
 62
    5
 10
1003.9048236987653
 20
381.46892432728896
 11
1027.9048236987653
 21
381.46892432728896
  0
LINE
  8
_0-7_枠細線
  6
CONTINUOUS
 62
    5
 10
1015.9048236987653
 20
405.4689243272889
 11
1003.9048236987653
 21
381.46892432728896
  0
TEXT
  8
_0-7_枠細線
 62
    5
 10
1007.6890657278024
 20
379.95081238352901
 40
20
 41
0.8
 50
0
  1
５
  0
LINE
  8
_0-d_寸法3
  6
CONTINUOUS
 62
    7
 10
655.74901008126562
 20
451.86894278071821
 11
655.74901008126562
 21
529.20227590774232
  0
LINE
  8
_0-d_寸法3
  6
CONTINUOUS
 62
    7
 10
655.74901008126562
 20
521.20227590774232
 11
640.29419686064057
 21
517.061171186102
  0
LINE
  8
_0-d_寸法3
  6
CONTINUOUS
 62
    7
 10
655.74901008126562
 20
521.20227590774232
 11
640.29419686064057
 21
525.34338062938275
  0
LINE
  8
_0-d_寸法3
  6
CONTINUOUS
 62
    7
 10
671.74901008811628
 20
451.86894278071821
 11
671.74901008811628
 21
529.20227590774232
  0
LINE
  8
_0-d_寸法3
  6
CONTINUOUS
 62
    7
 10
616.75068098819827
 20
521.20227590774232
 11
671.74901008811628
 21
521.20227590774232
  0
TEXT
  8
_0-d_寸法3
 62
    7
 10
616.75068098819838
 20
497.20227590774232
 40
24
 41
1
 50
0
  1
(6)
  0
LINE
  8
_0-d_寸法3
  6
CONTINUOUS
 62
    7
 10
671.74901008811628
 20
521.20227590774232
 11
687.20382330874133
 21
525.34338062938264
  0
LINE
  8
_0-d_寸法3
  6
CONTINUOUS
 62
    7
 10
671.74901008811628
 20
521.20227590774232
 11
687.20382330874133
 21
517.061171186102
  0
LINE
  8
_0-d_寸法3
  6
CONTINUOUS
 62
    7
 10
702.14901008223001
 20
451.86894278071821
 11
702.14901008223001
 21
529.20227590774232
  0
LINE
  8
_0-d_寸法3
  6
CONTINUOUS
 62
    7
 10
702.14901008223001
 20
521.20227590774232
 11
686.69419686160495
 21
517.061171186102
  0
LINE
  8
_0-d_寸法3
  6
CONTINUOUS
 62
    7
 10
702.14901008223001
 20
521.20227590774232
 11
686.69419686160495
 21
525.34338062938275
  0
LINE
  8
_0-d_寸法3
  6
CONTINUOUS
 62
    7
 10
671.74901008811628
 20
521.20227590774232
 11
702.14901008223001
 21
521.20227590774232
  0
TEXT
  8
_0-d_寸法3
 62
    7
 10
656.92549580301329
 20
521.20227590774232
 40
24
 41
1
 50
0
  1
11.4
  0
LINE
  8
_0-d_寸法3
  6
CONTINUOUS
 62
    7
 10
826.14901008806748
 20
457.20227611405176
 11
826.14901008806748
 21
529.20227590774232
  0
LINE
  8
_0-d_寸法3
  6
CONTINUOUS
 62
    7
 10
826.14901008806748
 20
521.20227590774232
 11
841.60382330869254
 21
525.34338062938264
  0
LINE
  8
_0-d_寸法3
  6
CONTINUOUS
 62
    7
 10
826.14901008806748
 20
521.20227590774232
 11
841.60382330869254
 21
517.061171186102
  0
LINE
  8
_0-d_寸法3
  6
CONTINUOUS
 62
    7
 10
872.54901008903232
 20
457.20227611405176
 11
872.54901008903232
 21
529.20227590774232
  0
LINE
  8
_0-d_寸法3
  6
CONTINUOUS
 62
    7
 10
872.54901008903232
 20
521.20227590774232
 11
857.09419686840727
 21
517.061171186102
  0
LINE
  8
_0-d_寸法3
  6
CONTINUOUS
 62
    7
 10
872.54901008903232
 20
521.20227590774232
 11
857.09419686840727
 21
525.34338062938275
  0
LINE
  8
_0-d_寸法3
  6
CONTINUOUS
 62
    7
 10
826.14901008806748
 20
521.20227590774232
 11
872.54901008903232
 21
521.20227590774232
  0
TEXT
  8
_0-d_寸法3
 62
    7
 10
807.67512543264195
 20
497.20227590774232
 40
24
 41
1
 50
0
  1
(17.4)
  0
LINE
  8
_0-d_寸法3
  6
CONTINUOUS
 62
    7
 10
872.54901008903232
 20
521.20227590774232
 11
888.00382330965749
 21
525.34338062938252
  0
LINE
  8
_0-d_寸法3
  6
CONTINUOUS
 62
    7
 10
872.54901008903232
 20
521.20227590774232
 11
888.00382330965738
 21
517.06117118610189
  0
LINE
  8
_0-d_寸法3
  6
CONTINUOUS
 62
    7
 10
918.9490100899975
 20
457.20227611405176
 11
918.9490100899975
 21
529.20227590774232
  0
LINE
  8
_0-d_寸法3
  6
CONTINUOUS
 62
    7
 10
918.9490100899975
 20
521.20227590774232
 11
903.49419686937244
 21
517.061171186102
  0
LINE
  8
_0-d_寸法3
  6
CONTINUOUS
 62
    7
 10
918.9490100899975
 20
521.20227590774232
 11
903.49419686937244
 21
525.34338062938275
  0
LINE
  8
_0-d_寸法3
  6
CONTINUOUS
 62
    7
 10
872.54901008903232
 20
521.20227590774232
 11
918.9490100899975
 21
521.20227590774232
  0
TEXT
  8
_0-d_寸法3
 62
    7
 10
866.98179209930834
 20
521.20227590774232
 40
24
 41
1
 50
0
  1
(17.4)
  0
LINE
  8
_0-d_寸法3
  6
CONTINUOUS
 62
    7
 10
566.41567675376916
 20
449.20227611405176
 11
566.41567675376916
 21
641.20227590774232
  0
LINE
  8
_0-d_寸法3
  6
CONTINUOUS
 62
    7
 10
566.41567675376916
 20
633.20227590774232
 11
581.87048997439422
 21
637.34338062938264
  0
LINE
  8
_0-d_寸法3
  6
CONTINUOUS
 62
    7
 10
566.41567675376916
 20
633.20227590774232
 11
581.87048997439422
 21
629.061171186102
  0
LINE
  8
_0-d_寸法3
  6
CONTINUOUS
 62
    7
 10
993.0823434204359
 20
449.20227611405176
 11
993.0823434204359
 21
641.20227590774232
  0
LINE
  8
_0-d_寸法3
  6
CONTINUOUS
 62
    7
 10
993.0823434204359
 20
633.20227590774232
 11
977.62753019981085
 21
629.061171186102
  0
LINE
  8
_0-d_寸法3
  6
CONTINUOUS
 62
    7
 10
993.0823434204359
 20
633.20227590774232
 11
977.62753019981085
 21
637.34338062938275
  0
LINE
  8
_0-d_寸法3
  6
CONTINUOUS
 62
    7
 10
566.41567675376916
 20
633.20227590774232
 11
993.0823434204359
 21
633.20227590774232
  0
TEXT
  8
_0-d_寸法3
 62
    7
 10
761.74901008710287
 20
633.20227590774232
 40
24
 41
1
 50
0
  1
160
  0
LINE
  8
_0-d_寸法3
  6
CONTINUOUS
 62
    7
 10
550.4156767537695
 20
366.5356094473849
 11
472.28234342043584
 21
366.53560944738484
  0
LINE
  8
_0-d_寸法3
  6
CONTINUOUS
 62
    7
 10
480.28234342043584
 20
366.53560944738484
 11
484.42344814207615
 21
351.08079622675973
  0
LINE
  8
_0-d_寸法3
  6
CONTINUOUS
 62
    7
 10
480.28234342043584
 20
366.53560944738484
 11
476.14123869879552
 21
351.08079622675979
  0
LINE
  8
_0-d_寸法3
  6
CONTINUOUS
 62
    7
 10
547.21567675376946
 20
305.20227611405153
 11
472.28234342043629
 21
305.20227611405141
  0
LINE
  8
_0-d_寸法3
  6
CONTINUOUS
 62
    7
 10
480.28234342043629
 20
305.20227611405141
 11
476.14123869879586
 21
320.65708933467647
  0
LINE
  8
_0-d_寸法3
  6
CONTINUOUS
 62
    7
 10
480.28234342043629
 20
305.20227611405141
 11
484.4234481420765
 21
320.65708933467658
  0
LINE
  8
_0-d_寸法3
  6
CONTINUOUS
 62
    7
 10
480.28234342043584
 20
366.53560944738484
 11
480.28234342043629
 21
305.20227611405141
  0
TEXT
  8
_0-d_寸法3
 62
    7
 10
480.28234342043584
 20
323.86894278071827
 40
24
 41
1
 50
90
  1
23
  0
LINE
  8
_0-d_寸法3
  6
CONTINUOUS
 62
    7
 10
550.41567675376916
 20
441.20227611405181
 11
472.28234342043584
 21
441.20227611405198
  0
LINE
  8
_0-d_寸法3
  6
CONTINUOUS
 62
    7
 10
480.28234342043584
 20
441.20227611405198
 11
484.42344814207627
 21
425.74746289342687
  0
LINE
  8
_0-d_寸法3
  6
CONTINUOUS
 62
    7
 10
480.28234342043584
 20
441.20227611405198
 11
476.14123869879563
 21
425.74746289342687
  0
LINE
  8
_0-d_寸法3
  6
CONTINUOUS
 62
    7
 10
547.21567675376912
 20
366.53560944738524
 11
472.28234342043584
 21
366.53560944738535
  0
LINE
  8
_0-d_寸法3
  6
CONTINUOUS
 62
    7
 10
480.28234342043584
 20
366.53560944738535
 11
476.14123869879563
 21
381.99042266801047
  0
LINE
  8
_0-d_寸法3
  6
CONTINUOUS
 62
    7
 10
480.28234342043584
 20
366.53560944738535
 11
484.42344814207627
 21
381.99042266801047
  0
LINE
  8
_0-d_寸法3
  6
CONTINUOUS
 62
    7
 10
480.28234342043584
 20
441.20227611405198
 11
480.28234342043584
 21
366.53560944738535
  0
TEXT
  8
_0-d_寸法3
 62
    7
 10
480.28234342043584
 20
391.86894278071867
 40
24
 41
1
 50
90
  1
28
  0
LINE
  8
_0-d_寸法3
  6
CONTINUOUS
 62
    7
 10
646.41567675376916
 20
358.53560944738501
 11
646.41567675376916
 21
217.20227611405187
  0
LINE
  8
_0-d_寸法3
  6
CONTINUOUS
 62
    7
 10
646.41567675376916
 20
225.20227611405187
 11
661.87048997439422
 21
229.34338083569219
  0
LINE
  8
_0-d_寸法3
  6
CONTINUOUS
 62
    7
 10
646.41567675376916
 20
225.20227611405187
 11
661.87048997439422
 21
221.06117139241155
  0
LINE
  8
_0-d_寸法3
  6
CONTINUOUS
 62
    7
 10
913.0823434204359
 20
358.53560944738501
 11
913.0823434204359
 21
217.20227611405187
  0
LINE
  8
_0-d_寸法3
  6
CONTINUOUS
 62
    7
 10
913.0823434204359
 20
225.20227611405187
 11
897.62753019981085
 21
221.06117139241155
  0
LINE
  8
_0-d_寸法3
  6
CONTINUOUS
 62
    7
 10
913.0823434204359
 20
225.20227611405187
 11
897.62753019981085
 21
229.34338083569219
  0
LINE
  8
_0-d_寸法3
  6
CONTINUOUS
 62
    7
 10
646.41567675376916
 20
225.20227611405187
 11
913.0823434204359
 21
225.20227611405187
  0
TEXT
  8
_0-d_寸法3
 62
    7
 10
761.74901008710287
 20
225.20227611405187
 40
24
 41
1
 50
0
  1
100
  0
LINE
  8
_0-d_寸法3
  6
CONTINUOUS
 62
    7
 10
566.41567675376893
 20
289.20227611405176
 11
566.41567675376814
 21
217.20227611405153
  0
LINE
  8
_0-d_寸法3
  6
CONTINUOUS
 62
    7
 10
566.41567675376825
 20
225.20227611405153
 11
581.87048997439331
 21
229.34338083569185
  0
LINE
  8
_0-d_寸法3
  6
CONTINUOUS
 62
    7
 10
566.41567675376825
 20
225.20227611405153
 11
581.87048997439331
 21
221.06117139241121
  0
LINE
  8
_0-d_寸法3
  6
CONTINUOUS
 62
    7
 10
646.41567675376893
 20
350.53560944738501
 11
646.41567675376734
 21
217.20227611405153
  0
LINE
  8
_0-d_寸法3
  6
CONTINUOUS
 62
    7
 10
646.41567675376746
 20
225.20227611405153
 11
630.9608635331424
 21
221.06117139241121
  0
LINE
  8
_0-d_寸法3
  6
CONTINUOUS
 62
    7
 10
646.41567675376746
 20
225.20227611405153
 11
630.9608635331424
 21
229.34338083569185
  0
LINE
  8
_0-d_寸法3
  6
CONTINUOUS
 62
    7
 10
566.41567675376825
 20
225.20227611405153
 11
646.41567675376746
 21
225.20227611405153
  0
TEXT
  8
_0-d_寸法3
 62
    7
 10
594.4156767537678
 20
225.20227611405153
 40
24
 41
1
 50
0
  1
30
  0
LINE
  8
_0-d_寸法3
  6
CONTINUOUS
 62
    7
 10
993.08234342043625
 20
289.20227611405176
 11
993.08234342043795
 21
217.20227611405153
  0
LINE
  8
_0-d_寸法3
  6
CONTINUOUS
 62
    7
 10
993.08234342043772
 20
225.20227611405153
 11
977.62753019981267
 21
221.06117139241121
  0
LINE
  8
_0-d_寸法3
  6
CONTINUOUS
 62
    7
 10
993.08234342043772
 20
225.20227611405153
 11
977.62753019981267
 21
229.34338083569185
  0
LINE
  8
_0-d_寸法3
  6
CONTINUOUS
 62
    7
 10
913.08234342043613
 20
350.53560944738501
 11
913.08234342043818
 21
217.20227611405153
  0
LINE
  8
_0-d_寸法3
  6
CONTINUOUS
 62
    7
 10
913.08234342043806
 20
225.20227611405153
 11
928.53715664106312
 21
229.34338083569185
  0
LINE
  8
_0-d_寸法3
  6
CONTINUOUS
 62
    7
 10
913.08234342043806
 20
225.20227611405153
 11
928.53715664106312
 21
221.06117139241121
  0
LINE
  8
_0-d_寸法3
  6
CONTINUOUS
 62
    7
 10
993.08234342043772
 20
225.20227611405153
 11
913.08234342043806
 21
225.20227611405153
  0
TEXT
  8
_0-d_寸法3
 62
    7
 10
941.08234342043761
 20
225.20227611405153
 40
24
 41
1
 50
0
  1
30
  0
LINE
  8
_0-5_寸法線
  6
CONTINUOUS
 62
    7
 10
1359.249010087103
 20
1135.8467153284603
 11
1355.1079053654628
 21
1151.3015285490853
  0
LINE
  8
_0-5_寸法線
  6
CONTINUOUS
 62
    7
 10
1359.249010087103
 20
1135.8467153284603
 11
1363.3901148087434
 21
1151.3015285490853
  0
LINE
  8
_0-5_寸法線
  6
CONTINUOUS
 62
    7
 10
1316.749010087103
 20
1132.8467153284603
 11
1367.249010087103
 21
1132.8467153284603
  0
CIRCLE
  8
_0-5_寸法線
  6
CONTINUOUS
 62
    1
 10
1359.249010087103
 20
1132.8467153284603
 40
2.4000000000000004
  0
LINE
  8
_0-5_寸法線
  6
CONTINUOUS
 62
    7
 10
1359.249010087103
 20
1175.8467153284603
 11
1359.249010087103
 21
1132.8467153284603
  0
TEXT
  8
_0-5_寸法線
 62
    7
 10
1359.249010087103
 20
1157.1409697450126
 40
24
 41
1
 50
90
  1
3
  0
LINE
  8
_0-5_寸法線
  6
CONTINUOUS
 62
    7
 10
1316.749010087103
 20
1130.8467153284612
 11
1367.249010087103
 21
1130.8467153284612
  0
LINE
  8
_0-5_寸法線
  6
CONTINUOUS
 62
    7
 10
1359.249010087103
 20
1132.8467153284603
 11
1359.249010087103
 21
1130.8467153284612
  0
TEXT
  8
_0-5_寸法線
 62
    7
 10
1389.3912303107707
 20
1118.8467153284612
 40
24
 41
1
 50
90
  1
2
  0
LINE
  8
_0-5_寸法線
  6
CONTINUOUS
 62
    7
 10
1359.249010087103
 20
1130.8467153284612
 11
1363.3901148087432
 21
1115.3919021078361
  0
LINE
  8
_0-5_寸法線
  6
CONTINUOUS
 62
    7
 10
1359.249010087103
 20
1130.8467153284612
 11
1355.1079053654626
 21
1115.3919021078361
  0
LINE
  8
_0-5_寸法線
  6
CONTINUOUS
 62
    7
 10
1316.749010087103
 20
980.84671532845937
 11
1367.2490100871034
 21
980.84671532845937
  0
LINE
  8
_0-5_寸法線
  6
CONTINUOUS
 62
    7
 10
1359.2490100871034
 20
980.84671532845937
 11
1355.107905365463
 21
996.30152854908442
  0
LINE
  8
_0-5_寸法線
  6
CONTINUOUS
 62
    7
 10
1359.2490100871034
 20
980.84671532845937
 11
1363.3901148087436
 21
996.30152854908442
  0
LINE
  8
_0-5_寸法線
  6
CONTINUOUS
 62
    7
 10
1359.249010087103
 20
1130.8467153284612
 11
1359.2490100871034
 21
980.84671532845937
  0
TEXT
  8
_0-5_寸法線
 62
    7
 10
1359.2490100871034
 20
1037.8467153284603
 40
24
 41
1
 50
90
  1
150
  0
LINE
  8
_0-5_寸法線
  6
CONTINUOUS
 62
    7
 10
1316.749010087103
 20
978.84671532846028
 11
1367.2490100871034
 21
978.84671532846028
  0
CIRCLE
  8
_0-5_寸法線
  6
CONTINUOUS
 62
    1
 10
1359.2490100871034
 20
978.84671532846028
 40
2.4000000000000004
  0
LINE
  8
_0-5_寸法線
  6
CONTINUOUS
 62
    7
 10
1359.2490100871034
 20
980.84671532845937
 11
1359.2490100871034
 21
978.84671532846028
  0
TEXT
  8
_0-5_寸法線
 62
    7
 10
1389.6542916281323
 20
978.84671532846028
 40
24
 41
1
 50
90
  1
2
  0
LINE
  8
_0-5_寸法線
  6
CONTINUOUS
 62
    7
 10
1359.2490100871034
 20
975.84671532845528
 11
1363.3901148087436
 21
960.39190210783022
  0
LINE
  8
_0-5_寸法線
  6
CONTINUOUS
 62
    7
 10
1359.2490100871034
 20
975.84671532845528
 11
1355.107905365463
 21
960.39190210783022
  0
LINE
  8
_0-5_寸法線
  6
CONTINUOUS
 62
    7
 10
1359.2490100871034
 20
978.84671532846028
 11
1359.2490100871034
 21
935.84671532845528
  0
TEXT
  8
_0-5_寸法線
 62
    7
 10
1359.2490100871034
 20
939.78872887949342
 40
24
 41
1
 50
90
  1
3
  0
LINE
  8
_0-d_寸法3
  6
CONTINUOUS
 62
    7
 10
566.41567675376916
 20
577.20227590774232
 11
550.96086353314411
 21
573.061171186102
  0
LINE
  8
_0-d_寸法3
  6
CONTINUOUS
 62
    7
 10
566.41567675376916
 20
577.20227590774232
 11
550.96086353314411
 21
581.34338062938275
  0
LINE
  8
_0-d_寸法3
  6
CONTINUOUS
 62
    7
 10
574.41567675376916
 20
447.86894278071856
 11
574.41567675376916
 21
585.20227590774232
  0
CIRCLE
  8
_0-d_寸法3
  6
CONTINUOUS
 62
    1
 10
574.41567675376916
 20
577.20227590774232
 40
2.4000000000000004
  0
LINE
  8
_0-d_寸法3
  6
CONTINUOUS
 62
    7
 10
526.41567675376916
 20
577.20227590774232
 11
574.41567675376916
 21
577.20227590774232
  0
TEXT
  8
_0-d_寸法3
 62
    7
 10
530.8366191531735
 20
577.20227590774232
 40
24
 41
1
 50
0
  1
3
  0
LINE
  8
_0-d_寸法3
  6
CONTINUOUS
 62
    7
 10
579.74901008710196
 20
443.86894011136724
 11
579.74901008710276
 21
585.20227590774232
  0
LINE
  8
_0-d_寸法3
  6
CONTINUOUS
 62
    7
 10
574.41567675376916
 20
577.20227590774232
 11
579.74901008710276
 21
577.20227590774232
  0
TEXT
  8
_0-d_寸法3
 62
    7
 10
571.08234342043568
 20
577.20227590774232
 40
24
 41
1
 50
0
  1
2
  0
LINE
  8
_0-d_寸法3
  6
CONTINUOUS
 62
    7
 10
579.74901008710276
 20
577.20227590774232
 11
595.20382330772782
 21
581.34338062938264
  0
LINE
  8
_0-d_寸法3
  6
CONTINUOUS
 62
    7
 10
579.74901008710276
 20
577.20227590774232
 11
595.20382330772782
 21
573.061171186102
  0
LINE
  8
_0-d_寸法3
  6
CONTINUOUS
 62
    7
 10
979.7490100871031
 20
443.86894011136724
 11
979.7490100871031
 21
585.20227590774232
  0
LINE
  8
_0-d_寸法3
  6
CONTINUOUS
 62
    7
 10
979.7490100871031
 20
577.20227590774232
 11
964.29419686647805
 21
573.061171186102
  0
LINE
  8
_0-d_寸法3
  6
CONTINUOUS
 62
    7
 10
979.7490100871031
 20
577.20227590774232
 11
964.29419686647805
 21
581.34338062938275
  0
LINE
  8
_0-d_寸法3
  6
CONTINUOUS
 62
    7
 10
579.74901008710276
 20
577.20227590774232
 11
979.7490100871031
 21
577.20227590774232
  0
TEXT
  8
_0-d_寸法3
 62
    7
 10
761.74901008710299
 20
577.20227590774232
 40
24
 41
1
 50
0
  1
150
  0
LINE
  8
_0-d_寸法3
  6
CONTINUOUS
 62
    7
 10
985.0823434204359
 20
447.86894278071856
 11
985.0823434204359
 21
585.20227590774232
  0
CIRCLE
  8
_0-d_寸法3
  6
CONTINUOUS
 62
    1
 10
985.0823434204359
 20
577.20227590774232
 40
2.4000000000000004
  0
LINE
  8
_0-d_寸法3
  6
CONTINUOUS
 62
    7
 10
979.7490100871031
 20
577.20227590774232
 11
985.0823434204359
 21
577.20227590774232
  0
TEXT
  8
_0-d_寸法3
 62
    7
 10
976.4156767537703
 20
577.20227590774232
 40
24
 41
1
 50
0
  1
2
  0
LINE
  8
_0-d_寸法3
  6
CONTINUOUS
 62
    7
 10
993.0823434204359
 20
577.20227590774232
 11
1008.5371566410611
 21
581.34338062938252
  0
LINE
  8
_0-d_寸法3
  6
CONTINUOUS
 62
    7
 10
993.0823434204359
 20
577.20227590774232
 11
1008.537156641061
 21
573.06117118610189
  0
LINE
  8
_0-d_寸法3
  6
CONTINUOUS
 62
    7
 10
985.0823434204359
 20
577.20227590774232
 11
1033.0823434204358
 21
577.20227590774232
  0
TEXT
  8
_0-d_寸法3
 62
    7
 10
1015.716739331484
 20
577.20227590774232
 40
24
 41
1
 50
0
  1
3
  0
LINE
  8
_0-7_枠細線
  6
CONTINUOUS
 62
    5
 10
1464
 20
1314.307734354795
 11
1452
 21
1338.307734354795
  0
LINE
  8
_0-7_枠細線
  6
CONTINUOUS
 62
    5
 10
1440
 20
1314.307734354795
 11
1464
 21
1314.307734354795
  0
LINE
  8
_0-7_枠細線
  6
CONTINUOUS
 62
    5
 10
1452
 20
1338.307734354795
 11
1440
 21
1314.307734354795
  0
LINE
  8
_0-7_枠細線
  6
CONTINUOUS
 62
    5
 10
2280
 20
1312
 11
1424
 21
1312
  0
LINE
  8
_0-7_枠細線
  6
CONTINUOUS
 62
    5
 10
1464
 20
1286.307734354795
 11
1452
 21
1310.307734354795
  0
LINE
  8
_0-7_枠細線
  6
CONTINUOUS
 62
    5
 10
1440
 20
1286.307734354795
 11
1464
 21
1286.307734354795
  0
LINE
  8
_0-7_枠細線
  6
CONTINUOUS
 62
    5
 10
1452
 20
1310.307734354795
 11
1440
 21
1286.307734354795
  0
LINE
  8
_0-7_枠細線
  6
CONTINUOUS
 62
    5
 10
2280
 20
1284
 11
1424
 21
1284
  0
TEXT
  8
_0-7_枠細線
 62
    5
 10
1443.7842420290372
 20
1312.7896224110355
 40
20
 41
0.8
 50
0
  1
６
  0
TEXT
  8
_0-7_枠細線
 62
    5
 10
1443.7842420290372
 20
1284.7896224110352
 40
20
 41
0.8
 50
0
  1
７
  0
LINE
  8
_0-7_枠細線
  6
CONTINUOUS
 62
    5
 10
1424
 20
1284
 11
1424
 21
1535.9999999999986
  0
LINE
  8
_0-7_枠細線
  6
CONTINUOUS
 62
    5
 10
1480
 20
1284
 11
1480
 21
1535.9999999999986
  0
LINE
  8
_0-7_枠細線
  6
CONTINUOUS
 62
    5
 10
1880
 20
1284
 11
1880
 21
1535.9999999999986
  0
LINE
  8
_0-7_枠細線
  6
CONTINUOUS
 62
    5
 10
2040
 20
1284
 11
2040
 21
1535.9999999999986
  0
LINE
  8
_0-7_枠細線
  6
CONTINUOUS
 62
    5
 10
1668.4453960905371
 20
1133.8946910356817
 11
1668.4453960905371
 21
1013.8946910356817
  0
TEXT
  8
_0-7_枠細線
 62
    5
 10
1671.722525961929
 20
980.73377816458571
 40
24
 41
0.8000000000000001
 50
0
  1
※ 特寸品はAが20以下となるようBにて調整
  0
TEXT
  8
_0-7_枠細線
 62
    5
 10
1671.722525961929
 20
949.54143699835424
 40
24
 41
0.8000000000000001
 50
0
  1
※ 角型の場合は、集水マス補強仕様による
  0
TEXT
  8
_0-7_枠細線
 62
    5
 10
1709.6453960905392
 20
1101.8946910356817
 40
24
 41
0.8000000000000001
 50
0
  1
種　別
  0
TEXT
  8
_0-7_枠細線
 62
    5
 10
1709.6453960905385
 20
1061.8946910356817
 40
24
 41
0.8000000000000001
 50
0
  1
定尺品
  0
TEXT
  8
_0-7_枠細線
 62
    5
 10
1709.6453960905385
 20
1021.8946910356817
 40
24
 41
0.8000000000000001
 50
0
  1
特寸品
  0
LINE
  8
_0-7_枠細線
  6
CONTINUOUS
 62
    5
 10
1808.4453960905394
 20
1133.8946910356817
 11
1808.4453960905394
 21
1013.8946910356817
  0
TEXT
  8
_0-7_枠細線
 62
    5
 10
1856.8453960905415
 20
1061.8946910356817
 40
24
 41
0.5999999999999999
 50
0
  1
９９９
  0
TEXT
  8
_0-7_枠細線
 62
    5
 10
1868.8453960905415
 20
1101.8946910356817
 40
24
 41
0.8000000000000001
 50
0
  1
Ｌ
  0
TEXT
  8
_0-7_枠細線
 62
    5
 10
1820.8453960905399
 20
1021.8946910356817
 40
24
 41
0.5999999999999999
 50
0
  1
３０５～１３０５
  0
LINE
  8
_0-7_枠細線
  6
CONTINUOUS
 62
    5
 10
1948.4453960905394
 20
1133.8946910356817
 11
1948.4453960905394
 21
1013.8946910356817
  0
TEXT
  8
_0-7_枠細線
 62
    5
 10
1849.2540219487701
 20
1141.8946910356817
 40
28
 41
1
 50
0
  1
寸法表
  0
LINE
  8
_0-7_枠細線
  6
CONTINUOUS
 62
    5
 10
2228.4453960905407
 20
1133.8946910356817
 11
2228.4453960905407
 21
1013.8946910356817
  0
LINE
  8
_0-7_枠細線
  6
CONTINUOUS
 62
    5
 10
1668.4453960905371
 20
1133.8946910356817
 11
2228.4453960905407
 21
1133.8946910356817
  0
LINE
  8
_0-7_枠細線
  6
CONTINUOUS
 62
    5
 10
1668.4453960905371
 20
1093.8946910356817
 11
2228.4453960905407
 21
1093.8946910356817
  0
LINE
  8
_0-7_枠細線
  6
CONTINUOUS
 62
    5
 10
1668.4453960905371
 20
1053.8946910356817
 11
2228.4453960905407
 21
1053.8946910356817
  0
LINE
  8
_0-7_枠細線
  6
CONTINUOUS
 62
    5
 10
1668.4453960905371
 20
1013.8946910356817
 11
2228.4453960905407
 21
1013.8946910356817
  0
LINE
  8
_0-7_枠細線
  6
CONTINUOUS
 62
    5
 10
2088.4453960905403
 20
1133.8946910356817
 11
2088.4453960905403
 21
1013.8946910356817
  0
TEXT
  8
_0-7_枠細線
 62
    5
 10
1989.6453960905437
 20
1021.8946910356817
 40
24
 41
0.5999999999999999
 50
0
  1
７～２０
  0
TEXT
  8
_0-7_枠細線
 62
    5
 10
2008.8453960905449
 20
1101.8946910356817
 40
24
 41
0.8000000000000001
 50
0
  1
Ａ
  0
TEXT
  8
_0-7_枠細線
 62
    5
 10
2148.8453960905422
 20
1101.8946910356817
 40
24
 41
0.8000000000000001
 50
0
  1
Ｂ
  0
TEXT
  8
_0-7_枠細線
 62
    5
 10
2129.6453960905387
 20
1061.8946910356817
 40
24
 41
0.5999999999999999
 50
0
  1
４８．５
  0
TEXT
  8
_0-7_枠細線
 62
    5
 10
1989.6453960905396
 20
1061.8946910356817
 40
24
 41
0.5999999999999999
 50
0
  1
１４．５
  0
TEXT
  8
_0-7_枠細線
 62
    5
 10
2093.6453960905405
 20
1021.8946910356817
 40
24
 41
0.5999999999999999
 50
0
  1
２６．５～４８．５
  0
LINE
  8
_0-5_寸法線
  6
CONTINUOUS
 62
    7
 10
779.74901008710299
 20
1151.8467153284603
 11
779.74901008710299
 21
1223.8467153284603
  0
LINE
  8
_0-5_寸法線
  6
CONTINUOUS
 62
    7
 10
779.74901008710299
 20
1215.8467153284603
 11
795.20382330772804
 21
1219.9878200501007
  0
LINE
  8
_0-5_寸法線
  6
CONTINUOUS
 62
    7
 10
779.74901008710299
 20
1215.8467153284603
 11
795.20382330772804
 21
1211.7056106068198
  0
LINE
  8
_0-5_寸法線
  6
CONTINUOUS
 62
    7
 10
828.24901008710299
 20
1151.8467153284603
 11
828.24901008710299
 21
1223.8467153284603
  0
LINE
  8
_0-5_寸法線
  6
CONTINUOUS
 62
    7
 10
828.24901008710299
 20
1215.8467153284603
 11
812.79419686647793
 21
1211.7056106068201
  0
LINE
  8
_0-5_寸法線
  6
CONTINUOUS
 62
    7
 10
828.24901008710299
 20
1215.8467153284603
 11
812.79419686647793
 21
1219.9878200501007
  0
LINE
  8
_0-5_寸法線
  6
CONTINUOUS
 62
    7
 10
779.74901008710299
 20
1215.8467153284603
 11
828.24901008710299
 21
1215.8467153284603
  0
TEXT
  8
_0-5_寸法線
 62
    7
 10
791.9990100871039
 20
1215.8467153284603
 40
24
 41
1
 50
0
  1
Ｂ
  0
LINE
  8
_0-5_寸法線
  6
CONTINUOUS
 62
    7
 10
280.24901008710299
 20
1151.8467153284603
 11
280.24901008710299
 21
1223.8467153284603
  0
LINE
  8
_0-5_寸法線
  6
CONTINUOUS
 62
    7
 10
280.24901008710299
 20
1215.8467153284603
 11
295.70382330772804
 21
1219.9878200501007
  0
LINE
  8
_0-5_寸法線
  6
CONTINUOUS
 62
    7
 10
280.24901008710299
 20
1215.8467153284603
 11
295.70382330772804
 21
1211.7056106068198
  0
LINE
  8
_0-5_寸法線
  6
CONTINUOUS
 62
    7
 10
294.74901008710299
 20
1151.8467153284603
 11
294.74901008710299
 21
1223.8467153284603
  0
LINE
  8
_0-5_寸法線
  6
CONTINUOUS
 62
    7
 10
294.74901008710299
 20
1215.8467153284603
 11
279.29419686647793
 21
1211.7056106068201
  0
LINE
  8
_0-5_寸法線
  6
CONTINUOUS
 62
    7
 10
294.74901008710299
 20
1215.8467153284603
 11
279.29419686647793
 21
1219.9878200501007
  0
LINE
  8
_0-5_寸法線
  6
CONTINUOUS
 62
    7
 10
280.24901008710299
 20
1215.8467153284603
 11
294.74901008710299
 21
1215.8467153284603
  0
TEXT
  8
_0-5_寸法線
 62
    7
 10
275.49901008710299
 20
1215.8467153284603
 40
24
 41
1
 50
0
  1
Ａ
  0
LINE
  8
_0-5_寸法線
  6
CONTINUOUS
 62
    7
 10
1264.749010087103
 20
1151.8467153284603
 11
1264.749010087103
 21
1223.8467153284603
  0
LINE
  8
_0-5_寸法線
  6
CONTINUOUS
 62
    7
 10
1264.749010087103
 20
1215.8467153284603
 11
1280.203823307728
 21
1219.9878200501007
  0
LINE
  8
_0-5_寸法線
  6
CONTINUOUS
 62
    7
 10
1264.749010087103
 20
1215.8467153284603
 11
1280.203823307728
 21
1211.7056106068198
  0
LINE
  8
_0-5_寸法線
  6
CONTINUOUS
 62
    7
 10
1279.249010087103
 20
1151.8467153284603
 11
1279.249010087103
 21
1223.8467153284603
  0
LINE
  8
_0-5_寸法線
  6
CONTINUOUS
 62
    7
 10
1279.249010087103
 20
1215.8467153284603
 11
1263.7941968664779
 21
1211.7056106068201
  0
LINE
  8
_0-5_寸法線
  6
CONTINUOUS
 62
    7
 10
1279.249010087103
 20
1215.8467153284603
 11
1263.7941968664779
 21
1219.9878200501007
  0
LINE
  8
_0-5_寸法線
  6
CONTINUOUS
 62
    7
 10
1264.749010087103
 20
1215.8467153284603
 11
1279.249010087103
 21
1215.8467153284603
  0
TEXT
  8
_0-5_寸法線
 62
    7
 10
1259.999010087103
 20
1215.8467153284603
 40
24
 41
1
 50
0
  1
Ａ
  0
LINE
  8
_0-5_寸法線
  6
CONTINUOUS
 62
    7
 10
280.24901008710299
 20
1151.8467153284594
 11
280.24901008710367
 21
1279.8467153284603
  0
LINE
  8
_0-5_寸法線
  6
CONTINUOUS
 62
    7
 10
280.24901008710367
 20
1271.8467153284603
 11
291.84012000257246
 21
1274.9525438696905
  0
LINE
  8
_0-5_寸法線
  6
CONTINUOUS
 62
    7
 10
280.24901008710367
 20
1271.8467153284603
 11
291.84012000257246
 21
1268.74088678723
  0
LINE
  8
_0-5_寸法線
  6
CONTINUOUS
 62
    7
 10
1279.249010087103
 20
1151.8467153284594
 11
1279.249010087103
 21
1279.8467153284603
  0
LINE
  8
_0-5_寸法線
  6
CONTINUOUS
 62
    7
 10
1279.249010087103
 20
1271.8467153284603
 11
1267.6579001716341
 21
1268.74088678723
  0
LINE
  8
_0-5_寸法線
  6
CONTINUOUS
 62
    7
 10
1279.249010087103
 20
1271.8467153284603
 11
1267.6579001716341
 21
1274.9525438696905
  0
LINE
  8
_0-5_寸法線
  6
CONTINUOUS
 62
    7
 10
280.24901008710367
 20
1271.8467153284603
 11
1279.249010087103
 21
1271.8467153284603
  0
TEXT
  8
_0-5_寸法線
 62
    7
 10
767.74901008710378
 20
1271.8467153284603
 40
24
 41
1
 50
0
  1
Ｌ
  0
LINE
  8
_0-5_寸法線
  6
CONTINUOUS
 62
    7
 10
682.7490100871039
 20
1151.8467153284603
 11
682.7490100871039
 21
1223.8467153284603
  0
LINE
  8
_0-5_寸法線
  6
CONTINUOUS
 62
    7
 10
682.7490100871039
 20
1215.8467153284603
 11
698.20382330772895
 21
1219.9878200501007
  0
LINE
  8
_0-5_寸法線
  6
CONTINUOUS
 62
    7
 10
682.7490100871039
 20
1215.8467153284603
 11
698.20382330772895
 21
1211.7056106068198
  0
LINE
  8
_0-5_寸法線
  6
CONTINUOUS
 62
    7
 10
731.2490100871039
 20
1151.8467153284603
 11
731.2490100871039
 21
1223.8467153284603
  0
LINE
  8
_0-5_寸法線
  6
CONTINUOUS
 62
    7
 10
731.2490100871039
 20
1215.8467153284603
 11
715.79419686647884
 21
1211.7056106068201
  0
LINE
  8
_0-5_寸法線
  6
CONTINUOUS
 62
    7
 10
731.2490100871039
 20
1215.8467153284603
 11
715.79419686647884
 21
1219.9878200501007
  0
LINE
  8
_0-5_寸法線
  6
CONTINUOUS
 62
    7
 10
682.7490100871039
 20
1215.8467153284603
 11
731.2490100871039
 21
1215.8467153284603
  0
TEXT
  8
_0-5_寸法線
 62
    7
 10
682.9990100871039
 20
1215.8467153284603
 40
24
 41
1
 50
0
  1
48.5
  0
LINE
  8
_0-5_寸法線
  6
CONTINUOUS
 62
    7
 10
731.2490100871039
 20
1215.8467153284603
 11
746.70382330772907
 21
1219.9878200501005
  0
LINE
  8
_0-5_寸法線
  6
CONTINUOUS
 62
    7
 10
731.2490100871039
 20
1215.8467153284603
 11
746.70382330772895
 21
1211.7056106068198
  0
LINE
  8
_0-5_寸法線
  6
CONTINUOUS
 62
    7
 10
779.7490100871039
 20
1151.8467153284603
 11
779.7490100871039
 21
1223.8467153284603
  0
LINE
  8
_0-5_寸法線
  6
CONTINUOUS
 62
    7
 10
779.7490100871039
 20
1215.8467153284603
 11
764.29419686647884
 21
1211.7056106068201
  0
LINE
  8
_0-5_寸法線
  6
CONTINUOUS
 62
    7
 10
779.7490100871039
 20
1215.8467153284603
 11
764.29419686647884
 21
1219.9878200501007
  0
LINE
  8
_0-5_寸法線
  6
CONTINUOUS
 62
    7
 10
731.2490100871039
 20
1215.8467153284603
 11
779.7490100871039
 21
1215.8467153284603
  0
TEXT
  8
_0-5_寸法線
 62
    7
 10
732.37554281369034
 20
1191.8467153284603
 40
24
 41
1
 50
0
  1
48.5
  0
LINE
  8
_0-7_枠細線
  6
CONTINUOUS
 62
    5
 10
720.78316326915069
 20
1244.331053546055
 11
708.78316326915069
 21
1268.331053546055
  0
LINE
  8
_0-7_枠細線
  6
CONTINUOUS
 62
    5
 10
696.78316326915069
 20
1244.331053546055
 11
720.78316326915069
 21
1244.331053546055
  0
LINE
  8
_0-7_枠細線
  6
CONTINUOUS
 62
    5
 10
708.78316326915069
 20
1268.331053546055
 11
696.78316326915069
 21
1244.331053546055
  0
TEXT
  8
_0-7_枠細線
 62
    5
 10
700.56740529818762
 20
1243.8398499534462
 40
20
 41
0.8
 50
0
  1
１
  0
LINE
  8
_0-7_枠細線
  6
CONTINUOUS
 62
    5
 10
737.19964279867168
 20
1268.331053546055
 11
725.19964279867168
 21
1244.331053546055
  0
LINE
  8
_0-7_枠細線
  6
CONTINUOUS
 62
    5
 10
725.19964279867168
 20
1244.331053546055
 11
749.19964279867168
 21
1244.331053546055
  0
LINE
  8
_0-7_枠細線
  6
CONTINUOUS
 62
    5
 10
749.19964279867168
 20
1244.331053546055
 11
737.19964279867168
 21
1268.331053546055
  0
TEXT
  8
_0-7_枠細線
 62
    5
 10
1882.8453960905379
 20
608.00000000000023
 40
24
 41
0.7999999999999999
 50
0
  1
ライトグレー
  0
TEXT
  8
_0-7_枠細線
 62
    5
 10
1902.0453960905377
 20
648.00000000000023
 40
24
 41
0.7999999999999999
 50
0
  1
ベージュ
  0
TEXT
  8
_0-7_枠細線
 62
    5
 10
1902.0453960905377
 20
568
 40
24
 41
0.7999999999999999
 50
0
  1
ホワイト
  0
TEXT
  8
_0-7_枠細線
 62
    5
 10
1911.6453960905378
 20
528
 40
24
 41
0.7999999999999999
 50
0
  1
ピンク
  0
TEXT
  8
_0-7_枠細線
 62
    5
 10
1911.6453960905378
 20
488
 40
24
 41
0.7999999999999999
 50
0
  1
ブルー
  0
TEXT
  8
_0-7_枠細線
 62
    5
 10
1882.8453960905379
 20
448
 40
24
 41
0.7999999999999999
 50
0
  1
ダークグレー
  0
TEXT
  8
_0-7_枠細線
 62
    5
 10
1911.6453960905378
 20
408
 40
24
 41
0.7999999999999999
 50
0
  1
ウッド
  0
TEXT
  8
_0-7_枠細線
 62
    5
 10
1902.0453960905377
 20
328
 40
24
 41
0.7999999999999999
 50
0
  1
ブラック
  0
TEXT
  8
_0-7_枠細線
 62
    5
 10
1902.0453960905377
 20
368
 40
24
 41
0.7999999999999999
 50
0
  1
ブラウン
  0
LINE
  8
_0-0_計極細
  6
CONTINUOUS
 62
    2
 10
336.74901008710287
 20
1119.4467153284597
 11
336.74901008710287
 21
1113.7467153284595
  0
LINE
  8
_0-0_計極細
  6
CONTINUOUS
 62
    2
 10
349.74901008710287
 20
1119.4467153284597
 11
349.74901008710287
 21
1113.7467153284595
  0
LINE
  8
_0-0_計極細
  6
CONTINUOUS
 62
    2
 10
336.74901008710287
 20
1102.3467153284598
 11
336.74901008710287
 21
1096.3467153284594
  0
LINE
  8
_0-0_計極細
  6
CONTINUOUS
 62
    2
 10
349.74901008710287
 20
1102.3467153284598
 11
349.74901008710287
 21
1096.3467153284594
  0
LINE
  8
_0-0_計極細
  6
CONTINUOUS
 62
    2
 10
336.74901008710287
 20
1084.9467153284588
 11
336.74901008710287
 21
1078.9467153284588
  0
LINE
  8
_0-0_計極細
  6
CONTINUOUS
 62
    2
 10
349.74901008710287
 20
1084.9467153284588
 11
349.74901008710287
 21
1078.9467153284588
  0
LINE
  8
_0-0_計極細
  6
CONTINUOUS
 62
    2
 10
336.74901008710287
 20
1067.5467153284583
 11
336.74901008710287
 21
1061.5467153284583
  0
LINE
  8
_0-0_計極細
  6
CONTINUOUS
 62
    2
 10
349.74901008710287
 20
1067.5467153284583
 11
349.74901008710287
 21
1061.5467153284583
  0
LINE
  8
_0-0_計極細
  6
CONTINUOUS
 62
    2
 10
336.74901008710287
 20
1050.1467153284577
 11
336.74901008710287
 21
1044.1467153284577
  0
LINE
  8
_0-0_計極細
  6
CONTINUOUS
 62
    2
 10
349.74901008710287
 20
1050.1467153284577
 11
349.74901008710287
 21
1044.1467153284577
  0
LINE
  8
_0-0_計極細
  6
CONTINUOUS
 62
    2
 10
336.74901008710287
 20
992.24671532846082
 11
336.74901008710287
 21
997.9467153284611
  0
LINE
  8
_0-0_計極細
  6
CONTINUOUS
 62
    2
 10
349.74901008710287
 20
992.24671532846082
 11
349.74901008710287
 21
997.9467153284611
  0
LINE
  8
_0-0_計極細
  6
CONTINUOUS
 62
    2
 10
336.74901008710287
 20
1009.3467153284607
 11
336.74901008710287
 21
1015.3467153284612
  0
LINE
  8
_0-0_計極細
  6
CONTINUOUS
 62
    2
 10
349.74901008710287
 20
1009.3467153284607
 11
349.74901008710287
 21
1015.3467153284612
  0
LINE
  8
_0-0_計極細
  6
CONTINUOUS
 62
    2
 10
336.74901008710287
 20
1026.7467153284617
 11
336.74901008710287
 21
1032.7467153284617
  0
LINE
  8
_0-0_計極細
  6
CONTINUOUS
 62
    2
 10
349.74901008710287
 20
1026.7467153284617
 11
349.74901008710287
 21
1032.7467153284617
  0
LINE
  8
_0-0_計極細
  6
CENTER1
 62
    2
 10
343.24901008710287
 20
1139.5974347529225
 11
343.24901008710287
 21
973.08889158744773
  0
LINE
  8
_0-0_計極細
  6
CONTINUOUS
 62
    2
 10
1209.749010087103
 20
1119.4467153284597
 11
1209.749010087103
 21
1113.7467153284595
  0
LINE
  8
_0-0_計極細
  6
CONTINUOUS
 62
    2
 10
1222.749010087103
 20
1119.4467153284597
 11
1222.749010087103
 21
1113.7467153284595
  0
LINE
  8
_0-0_計極細
  6
CONTINUOUS
 62
    2
 10
1209.749010087103
 20
1102.3467153284598
 11
1209.749010087103
 21
1096.3467153284594
  0
LINE
  8
_0-0_計極細
  6
CONTINUOUS
 62
    2
 10
1222.749010087103
 20
1102.3467153284598
 11
1222.749010087103
 21
1096.3467153284594
  0
LINE
  8
_0-0_計極細
  6
CONTINUOUS
 62
    2
 10
1209.749010087103
 20
1084.9467153284588
 11
1209.749010087103
 21
1078.9467153284588
  0
LINE
  8
_0-0_計極細
  6
CONTINUOUS
 62
    2
 10
1222.749010087103
 20
1084.9467153284588
 11
1222.749010087103
 21
1078.9467153284588
  0
LINE
  8
_0-0_計極細
  6
CONTINUOUS
 62
    2
 10
1209.749010087103
 20
1067.5467153284583
 11
1209.749010087103
 21
1061.5467153284583
  0
LINE
  8
_0-0_計極細
  6
CONTINUOUS
 62
    2
 10
1222.749010087103
 20
1067.5467153284583
 11
1222.749010087103
 21
1061.5467153284583
  0
LINE
  8
_0-0_計極細
  6
CONTINUOUS
 62
    2
 10
1209.749010087103
 20
1050.1467153284577
 11
1209.749010087103
 21
1044.1467153284577
  0
LINE
  8
_0-0_計極細
  6
CONTINUOUS
 62
    2
 10
1222.749010087103
 20
1050.1467153284577
 11
1222.749010087103
 21
1044.1467153284577
  0
LINE
  8
_0-0_計極細
  6
CONTINUOUS
 62
    2
 10
1209.749010087103
 20
992.24671532846082
 11
1209.749010087103
 21
997.9467153284611
  0
LINE
  8
_0-0_計極細
  6
CONTINUOUS
 62
    2
 10
1222.749010087103
 20
992.24671532846082
 11
1222.749010087103
 21
997.9467153284611
  0
LINE
  8
_0-0_計極細
  6
CONTINUOUS
 62
    2
 10
1209.749010087103
 20
1009.3467153284607
 11
1209.749010087103
 21
1015.3467153284612
  0
LINE
  8
_0-0_計極細
  6
CONTINUOUS
 62
    2
 10
1222.749010087103
 20
1009.3467153284607
 11
1222.749010087103
 21
1015.3467153284612
  0
LINE
  8
_0-0_計極細
  6
CONTINUOUS
 62
    2
 10
1209.749010087103
 20
1026.7467153284617
 11
1209.749010087103
 21
1032.7467153284617
  0
LINE
  8
_0-0_計極細
  6
CONTINUOUS
 62
    2
 10
1222.749010087103
 20
1026.7467153284617
 11
1222.749010087103
 21
1032.7467153284617
  0
LINE
  8
_0-0_計極細
  6
CENTER1
 62
    2
 10
1216.249010087103
 20
1139.5974347529225
 11
1216.249010087103
 21
973.08889158744773
  0
TEXT
  8
_0-7_枠細線
 62
    5
 10
883.79208546299753
 20
138.52824478432308
 40
32
 41
0.6
 50
0
  1
Ｓ＝１：３
  0
LINE
  8
_0-1_計細線
  6
CONTINUOUS
 62
    3
 10
352.74901008710242
 20
1062.1967153284606
 11
405.74901008710242
 21
1062.1967153284606
  0
LINE
  8
_0-1_計細線
  6
CONTINUOUS
 62
    3
 10
405.74901008710242
 20
1066.8967153284605
 11
352.74901008710242
 21
1066.8967153284605
  0
LINE
  8
_0-1_計細線
  6
CONTINUOUS
 62
    3
 10
352.74901008710242
 20
1066.8967153284605
 11
352.74901008710242
 21
1062.1967153284606
  0
LINE
  8
_0-1_計細線
  6
CONTINUOUS
 62
    3
 10
395.74901008710242
 20
1066.8967153284605
 11
395.74901008710242
 21
1062.1967153284606
  0
LINE
  8
_0-1_計細線
  6
CONTINUOUS
 62
    3
 10
403.74901008710242
 20
1066.8967153284605
 11
403.74901008710242
 21
1062.1967153284606
  0
LINE
  8
_0-1_計細線
  6
CONTINUOUS
 62
    3
 10
405.74901008710242
 20
1066.8967153284605
 11
405.74901008710242
 21
1062.1967153284606
  0
LINE
  8
_0-1_計細線
  6
CONTINUOUS
 62
    3
 10
401.74901008710242
 20
1066.8967153284605
 11
401.74901008710242
 21
1062.1967153284606
  0
LINE
  8
_0-1_計細線
  6
CONTINUOUS
 62
    3
 10
399.74901008710242
 20
1066.8967153284605
 11
399.74901008710242
 21
1062.1967153284606
  0
LINE
  8
_0-1_計細線
  6
CONTINUOUS
 62
    3
 10
397.74901008710242
 20
1066.8967153284605
 11
397.74901008710242
 21
1062.1967153284606
  0
TEXT
  8
_0-5_寸法線
 62
    7
 10
419.92644799527091
 20
871.22263794698847
 40
24
 41
0.7999999999999999
 50
0
  1
(標準付属)
  0
TEXT
  8
_0-7_枠細線
 62
    5
 10
421.56194547200573
 20
923.55184604855322
 40
20
 41
0.8
 50
0
  1
２
  0
LINE
  8
_0-7_枠細線
  6
CONTINUOUS
 62
    5
 10
441.7777034429688
 20
924.04304964116204
 11
429.7777034429688
 21
948.04304964116204
  0
LINE
  8
_0-7_枠細線
  6
CONTINUOUS
 62
    5
 10
417.7777034429688
 20
924.04304964116204
 11
441.7777034429688
 21
924.04304964116204
  0
LINE
  8
_0-7_枠細線
  6
CONTINUOUS
 62
    5
 10
429.7777034429688
 20
948.04304964116204
 11
417.7777034429688
 21
924.04304964116204
  0
LINE
  8
_0-7_枠細線
  6
CONTINUOUS
 62
    5
 10
471.72007770648236
 20
924.04304964116204
 11
459.72007770648236
 21
948.04304964116204
  0
LINE
  8
_0-7_枠細線
  6
CONTINUOUS
 62
    5
 10
447.72007770648236
 20
924.04304964116204
 11
471.72007770648236
 21
924.04304964116204
  0
LINE
  8
_0-7_枠細線
  6
CONTINUOUS
 62
    5
 10
459.72007770648236
 20
948.04304964116204
 11
447.72007770648236
 21
924.04304964116204
  0
TEXT
  8
_0-7_枠細線
 62
    5
 10
451.50431973551952
 20
923.16675541687187
 40
20
 41
0.8
 50
0
  1
３
  0
LINE
  8
_0-7_枠細線
  6
CONTINUOUS
 62
    5
 10
488.13655723600334
 20
948.04304964116204
 11
476.13655723600334
 21
924.04304964116204
  0
LINE
  8
_0-7_枠細線
  6
CONTINUOUS
 62
    5
 10
476.13655723600334
 20
924.04304964116204
 11
500.13655723600334
 21
924.04304964116204
  0
LINE
  8
_0-7_枠細線
  6
CONTINUOUS
 62
    5
 10
500.13655723600334
 20
924.04304964116204
 11
488.13655723600334
 21
948.04304964116204
  0
LINE
  8
_0-5_寸法線
  6
CONTINUOUS
 62
    7
 10
374.51247203355399
 20
1064.7099036098302
 11
382.51247203355388
 21
1050.8534971492793
  0
LINE
  8
_0-5_寸法線
  6
CONTINUOUS
 62
    7
 10
374.51247203355399
 20
1064.7099036098302
 11
374.51247203355388
 21
1048.7099036098302
  0
LINE
  8
_0-5_寸法線
  6
CONTINUOUS
 62
    7
 10
374.51247203355399
 20
1064.7099036098302
 11
419.92644799527091
 21
895.22263794698847
  0
LINE
  8
_0-5_寸法線
  6
CONTINUOUS
 62
    7
 10
419.92644799527091
 20
895.22263794698847
 11
515.92644799527079
 21
895.22263794698847
  0
TEXT
  8
_0-5_寸法線
 62
    7
 10
419.92644799527091
 20
895.22263794698847
 40
24
 41
0.8000000000000001
 50
0
  1
取　外　具
  0
TEXT
  8
_0-5_寸法線
 62
    7
 10
574.91869129411873
 20
871.22263794698847
 40
24
 41
0.7999999999999999
 50
0
  1
ＧＳＬ－２５
  0
LINE
  8
_0-5_寸法線
  6
CONTINUOUS
 62
    7
 10
552.99170523518217
 20
977.05526397579661
 11
560.99170523518205
 21
963.19885751524555
  0
LINE
  8
_0-5_寸法線
  6
CONTINUOUS
 62
    7
 10
552.99170523518217
 20
977.05526397579661
 11
552.99170523518205
 21
961.05526397579661
  0
LINE
  8
_0-5_寸法線
  6
CONTINUOUS
 62
    7
 10
552.99170523518217
 20
977.05526397579661
 11
574.91869129411873
 21
895.22263794698847
  0
LINE
  8
_0-5_寸法線
  6
CONTINUOUS
 62
    7
 10
574.91869129411873
 20
895.22263794698847
 11
749.03902663058921
 21
895.22263794698847
  0
TEXT
  8
_0-5_寸法線
 62
    7
 10
576.23902663058914
 20
896.18263794698851
 40
24
 41
0.8000000000000001
 50
0
  1
ＳＵＳアングル受枠
  0
TEXT
  8
_0-5_寸法線
 62
    7
 10
837.60498823810315
 20
871.22263794698847
 40
24
 41
0.7999999999999999
 50
0
  1
ＧＲＳＫ－２５Ｗ１５０
  0
LINE
  8
_0-5_寸法線
  6
CONTINUOUS
 62
    7
 10
804.06987821252608
 20
1020.0339851241788
 11
812.06987821252596
 21
1006.1775786636277
  0
LINE
  8
_0-5_寸法線
  6
CONTINUOUS
 62
    7
 10
804.06987821252608
 20
1020.0339851241788
 11
804.06987821252596
 21
1004.0339851241788
  0
LINE
  8
_0-5_寸法線
  6
CONTINUOUS
 62
    7
 10
804.06987821252608
 20
1020.0339851241788
 11
837.51297789489411
 21
895.22263794698847
  0
LINE
  8
_0-5_寸法線
  6
CONTINUOUS
 62
    7
 10
837.51297789489411
 20
895.22263794698847
 11
1125.512977894894
 21
895.22263794698847
  0
TEXT
  8
_0-5_寸法線
 62
    7
 10
837.51297789489411
 20
895.22263794698847
 40
24
 41
0.8000000000000001
 50
0
  1
セーフティグレーチング補強仕様
  0
TEXT
  8
_0-7_枠細線
 62
    5
 10
1502.1605925925924
 20
1316
 40
20
 41
1
 50
0
  1
クロスバーピッチ変更
  0
TEXT
  8
_0-7_枠細線
 62
    5
 10
1502.1605925925924
 20
1288
 40
20
 41
1
 50
0
  1
取外具形状変更
  0
TEXT
  8
_0-7_枠細線
 62
    5
 10
1888
 20
1316
 40
20
 41
0.7199999999999999
 50
0
  1
２０２０．０９．０１
  0
TEXT
  8
_0-7_枠細線
 62
    5
 10
1888
 20
1288
 40
20
 41
0.7199999999999999
 50
0
  1
２０２０．１０．０１
  0
TEXT
  8
_0-7_枠細線
 62
    5
 10
728.98388482770883
 20
1243.4547593217649
 40
20
 41
0.8
 50
0
  1
６
  0
TEXT
  8
_0-7_枠細線
 62
    5
 10
479.9207992650405
 20
923.16675541687187
 40
20
 41
0.8
 50
0
  1
７
  0
ENDSEC
  0
EOF
