  0
SECTION
  2
HEADER
  9
$ACADVER
  1
AC1009
  9
$INSBASE
 10
0
 20
0
 30
0
  9
$EXTMIN
 10
0
 20
0
  9
$EXTMAX
 10
2376
 20
1680
  9
$LIMMIN
 10
0
 20
0
  9
$LIMMAX
 10
2376
 20
1680
  9
$LTSCALE
 40
8
  0
ENDSEC
  0
SECTION
  2
TABLES
  0
TABLE
  2
LTYPE
 70
     9
  0
LTYPE
  2
CONTINUOUS
 70
    64
  3
実線
 72
    65
 73
     0
 40
0.0
  0
LTYPE
  2
DASHED1
 70
    64
  3
--  --  --  --  --  --  --  --  
 72
    65
 73
     2
 40
2.5
 49
1.25
 49
-1.25
  0
LTYPE
  2
DASHED2
 70
    64
  3
----    ----    ----    ----    
 72
    65
 73
     2
 40
5.0
 49
2.5
 49
-2.5
  0
LTYPE
  2
DASHED3
 70
    64
  3
------  ------  ------  ------  
 72
    65
 73
     2
 40
5.0
 49
3.75
 49
-1.25
  0
LTYPE
  2
CENTER1
 70
    64
  3
----- - ----- - ----- - ----- - 
 72
    65
 73
     4
 40
10.0
 49
6.25
 49
-1.25
 49
1.25
 49
-1.25
  0
LTYPE
  2
CENTER2
 70
    64
  3
----------  --  ----------  --  
 72
    65
 73
     4
 40
20.0
 49
12.5
 49
-2.5
 49
2.5
 49
-2.5
  0
LTYPE
  2
PHANTOM1
 70
    64
  3
--- - - --- - - --- - - --- - - 
 72
    65
 73
     6
 40
10.0
 49
3.25
 49
-1.25
 49
1.25
 49
-1.25
 49
1.25
 49
-1.25
  0
LTYPE
  2
PHANTOM2
 70
    64
  3
--------  -  -  --------  -  -  
 72
    65
 73
     6
 40
20.0
 49
10.0
 49
-2.5
 49
1.25
 49
-2.5
 49
1.25
 49
-2.5
  0
LTYPE
  2
DOT
 70
    64
  3
-   -   -   -   -   -   -   -   
 72
    65
 73
     2
 40
2.5
 49
0.625
 49
-1.875
  0
LTYPE
  2
DUMMY
 70
    64
  3
ダミー
 72
    65
 73
     0
 40
0.0
  0
LTYPE
  2
RAND1
 70
    64
  3
ランダム線1
 72
    65
 73
     4
 40
10.0
 49
1.0
 49
-2.0
 49
3.0
 49
-4.0
  0
LTYPE
  2
RAND2
 70
    64
  3
ランダム線2
 72
    65
 73
     4
 40
14.0
 49
2.0
 49
-3.0
 49
4.0
 49
-5.0
  0
LTYPE
  2
RAND3
 70
    64
  3
ランダム線3
 72
    65
 73
     4
 40
18.0
 49
3.0
 49
-4.0
 49
5.0
 49
-6.0
  0
LTYPE
  2
RAND4
 70
    64
  3
ランダム線4
 72
    65
 73
     4
 40
22.0
 49
4.0
 49
-5.0
 49
6.0
 49
-7.0
  0
LTYPE
  2
RAND5
 70
    64
  3
ランダム線5
 72
    65
 73
     4
 40
26.0
 49
5.0
 49
-6.0
 49
7.0
 49
-8.0
  0
LTYPE
  2
LONG1
 70
    64
  3
----------  --  ----------  --  
 72
    65
 73
     4
 40
40.0
 49
32.5
 49
-2.5
 49
2.5
 49
-2.5
  0
LTYPE
  2
LONG2
 70
    64
  3
--------  -  -  --------  -  -  
 72
    65
 73
     6
 40
40.0
 49
30.0
 49
-2.5
 49
1.25
 49
-2.5
 49
1.25
 49
-2.5
  0
LTYPE
  2
LONG3
 70
    64
  3
+++++++++++++++..+++++++++++++++
 72
    65
 73
     2
 40
40.0
 49
37.5
 49
-2.5
  0
LTYPE
  2
LONG4
 70
    64
  3
+++++++++++++++..+++++++++++++++
 72
    65
 73
     2
 40
80.0
 49
75.0
 49
-5.0
  0
LTYPE
  2
LONG5
 70
    64
  3
----------  --  ----------  --  
 72
    65
 73
     4
 40
60.0
 49
37.5
 49
-7.5
 49
7.5
 49
-7.5
  0
LTYPE
  2
dashed
 70
   64
  3
-------   -------------   ------
 72
   65
 73
    2
 40
7.5
 49
6
 49
-1.5
  0
LTYPE
  2
dashed_spaced
 70
   64
  3
----        --------        ----
 72
   65
 73
    2
 40
12
 49
6
 49
-6
  0
LTYPE
  2
long_dashed_dotted
 70
   64
  3
------------- --- --------------
 72
   65
 73
    4
 40
15.25
 49
12
 49
-1.5
 49
0.25
 49
-1.5
  0
LTYPE
  2
long_dashed_double-dotted
 70
   64
  3
----------- --- --- ------------
 72
   65
 73
    6
 40
17
 49
12
 49
-1.5
 49
0.25
 49
-1.5
 49
0.25
 49
-1.5
  0
LTYPE
  2
long_dashed_triplicate-dotted
 70
   64
  3
--------- --- --- --- ----------
 72
   65
 73
    8
 40
18.75
 49
12
 49
-1.5
 49
0.25
 49
-1.5
 49
0.25
 49
-1.5
 49
0.25
 49
-1.5
  0
LTYPE
  2
dotted
 70
   64
  3
   -       -       -       -    
 72
   65
 73
    2
 40
1.75
 49
0.25
 49
-1.5
  0
LTYPE
  2
chain
 70
   64
  3
-------------- -- --------------
 72
   65
 73
    4
 40
18.5
 49
12
 49
-1.5
 49
3.5
 49
-1.5
  0
LTYPE
  2
chain_double_dash
 70
   64
  3
------------ -- -- -------------
 72
   65
 73
    6
 40
23.5
 49
12
 49
-1.5
 49
3.5
 49
-1.5
 49
3.5
 49
-1.5
  0
LTYPE
  2
dashed_dotted
 70
   64
  3
-----------     -     ----------
 72
   65
 73
    4
 40
9.25
 49
6
 49
-1.5
 49
0.25
 49
-1.5
  0
LTYPE
  2
double-dashed_dotted
 70
   64
  3
------   -----------   -   -----
 72
   65
 73
    6
 40
16.75
 49
6
 49
-1.5
 49
6
 49
-1.5
 49
0.25
 49
-1.5
  0
LTYPE
  2
dashed_double-dotted
 70
   64
  3
---------    -    -    ---------
 72
   65
 73
    6
 40
11
 49
6
 49
-1.5
 49
0.25
 49
-1.5
 49
0.25
 49
-1.5
  0
LTYPE
  2
double-dashed_double-dotted
 70
   64
  3
-----   ---------   -   -   ----
 72
   65
 73
    8
 40
18.5
 49
6
 49
-1.5
 49
6
 49
-1.5
 49
0.25
 49
-1.5
 49
0.25
 49
-1.5
  0
LTYPE
  2
dashed_triplicate-dotted
 70
   64
  3
-------    -    -    -    ------
 72
   65
 73
    8
 40
12.75
 49
6
 49
-1.5
 49
0.25
 49
-1.5
 49
0.25
 49
-1.5
 49
0.25
 49
-1.5
  0
LTYPE
  2
double-dashed_triplicate-dotted
 70
   64
  3
-----  ---------  -  -  -  -----
 72
   65
 73
   10
 40
20.25
 49
6
 49
-1.5
 49
6
 49
-1.5
 49
0.25
 49
-1.5
 49
0.25
 49
-1.5
 49
0.25
 49
-1.5
  0
LTYPE
  2
undefined
 70
   64
  3
--------------------------------
 72
   65
 73
    0
 40
0
  0
ENDTAB
  0
TABLE
  2
STYLE
  5
3
100
AcDbSymbolTable
 70
     1
  0
STYLE
  5
10
100
AcDbSymbolTableRecord
100
AcDbTextStyleTableRecord
  2
STANDARD
 70
     0
 40
0.0
 41
1.0
 50
0.0
 71
     0
 42
0.2
  3
txt
  4
bigfont.shx
  0
STYLE
  5
26
100
AcDbSymbolTableRecord
100
AcDbTextStyleTableRecord
  2
TATEGAKI
 70
    68
 40
0.0
 41
1.0
 50
0.0
 71
     0
 42
1.0
  3
txt
  4
bigfont.shx
  0
ENDTAB
  0
TABLE
  2
LAYER
 70
   10
  0
LAYER
  2
_0-0_計極細
 70
   64
 62
    7
  6
CONTINUOUS
  0
LAYER
  2
_0-1_計細線
 70
   64
 62
    7
  6
CONTINUOUS
  0
LAYER
  2
_0-5_寸法線
 70
   64
 62
    7
  6
CONTINUOUS
  0
LAYER
  2
_0-7_枠細線
 70
   64
 62
    7
  6
CONTINUOUS
  0
LAYER
  2
_0-8_枠中線
 70
   64
 62
    7
  6
CONTINUOUS
  0
LAYER
  2
_0-9_枠極太
 70
   64
 62
    7
  6
CONTINUOUS
  0
LAYER
  2
_0-a_極細3
 70
   64
 62
    7
  6
CONTINUOUS
  0
LAYER
  2
_0-b_細線3
 70
   64
 62
    7
  6
CONTINUOUS
  0
LAYER
  2
_0-d_寸法3
 70
   64
 62
    7
  6
CONTINUOUS
  0
LAYER
  2
ADD_LINE
 70
   64
 62
    7
  6
CONTINUOUS
  0
ENDTAB
  0
ENDSEC
  0
SECTION
  2
BLOCKS
  0
ENDSEC
  0
SECTION
  2
ENTITIES
  0
LINE
  8
_0-7_枠細線
  6
CONTINUOUS
 62
    5
 10
1896
 20
288
 11
1896
 21
160
  0
TEXT
  8
_0-7_枠細線
 62
    5
 10
1500
 20
156
 40
28
 41
1
 50
0
  1
備考
  7
TATEGAKI
  0
TEXT
  8
_0-7_枠細線
 62
    5
 10
1500
 20
220
 40
28
 41
1
 50
0
  1
品番
  7
TATEGAKI
  0
TEXT
  8
_0-7_枠細線
 62
    5
 10
1500
 20
284
 40
28
 41
1
 50
0
  1
品名
  7
TATEGAKI
  0
LINE
  8
_0-7_枠細線
  6
CONTINUOUS
 62
    5
 10
1896
 20
224
 11
1480
 21
224
  0
LINE
  8
_0-7_枠細線
  6
CONTINUOUS
 62
    5
 10
1520
 20
288
 11
1520
 21
96
  0
LINE
  8
_0-8_枠中線
  6
CONTINUOUS
 62
    5
 10
2280
 20
288
 11
1480
 21
288
  0
LINE
  8
_0-8_枠中線
  6
CONTINUOUS
 62
    5
 10
1480
 20
288
 11
1480
 21
96
  0
LINE
  8
_0-7_枠細線
  6
CONTINUOUS
 62
    5
 10
1992
 20
288
 11
1992
 21
96
  0
TEXT
  8
_0-7_枠細線
 62
    5
 10
1908
 20
256
 40
24
 41
1
 50
0
  1
縮　尺
  0
LINE
  8
_0-7_枠細線
  6
CONTINUOUS
 62
    5
 10
1896
 20
248
 11
1992
 21
248
  0
LINE
  8
_0-7_枠細線
  6
CONTINUOUS
 62
    5
 10
1992
 20
160
 11
1480
 21
160
  0
LINE
  8
_0-7_枠細線
  6
CONTINUOUS
 62
    5
 10
2280
 20
144
 11
1992
 21
144
  0
LINE
  8
_0-7_枠細線
  6
CONTINUOUS
 62
    5
 10
1992
 20
192
 11
2280
 21
192
  0
LINE
  8
_0-7_枠細線
  6
CONTINUOUS
 62
    5
 10
2280
 20
224
 11
1992
 21
224
  0
TEXT
  8
_0-7_枠細線
 62
    5
 10
2008
 20
236
 40
40
 41
0.8
 50
0
  1
株式会社シマブン
  0
TEXT
  8
_0-7_枠細線
 62
    5
 10
2004
 20
96
 40
24
 41
1
 50
0
  1
年月日
  0
TEXT
  8
_0-7_枠細線
 62
    5
 10
2004
 20
120
 40
24
 41
1
 50
0
  1
作　成
  0
TEXT
  8
_0-7_枠細線
 62
    5
 10
2010
 20
196
 40
24
 41
1
 50
0
  1
承 認
  0
LINE
  8
_0-7_枠細線
  6
CONTINUOUS
 62
    5
 10
2088
 20
224
 11
2088
 21
96
  0
TEXT
  8
_0-7_枠細線
 62
    5
 10
2106
 20
196
 40
24
 41
1
 50
0
  1
検 図
  0
LINE
  8
_0-7_枠細線
  6
CONTINUOUS
 62
    5
 10
2184
 20
224
 11
2184
 21
144
  0
TEXT
  8
_0-7_枠細線
 62
    5
 10
2200
 20
152
 40
32
 41
1
 50
0
  1
藤戸
  0
TEXT
  8
_0-7_枠細線
 62
    5
 10
2202
 20
196
 40
24
 41
1
 50
0
  1
設 計
  0
TEXT
  8
_0-7_枠細線
 62
    5
 10
2008
 20
152
 40
32
 41
1
 50
0
  1
隠塚
  0
TEXT
  8
_0-7_枠細線
 62
    5
 10
2104
 20
152
 40
32
 41
1
 50
0
  1
渋田
  0
TEXT
  8
_0-7_枠細線
 62
    5
 10
1536.8000000000002
 20
240
 40
32
 41
0.5
 50
0
  1
セーフティグレーチング補強仕様Ｈ２５タイプ
  0
TEXT
  8
_0-7_枠細線
 62
    5
 10
2096
 20
108
 40
24
 41
0.6666666666666666
 50
0
  1
２０１０年０３月０１日
  0
TEXT
  8
_0-7_枠細線
 62
    5
 10
1536.8000000000002
 20
112
 40
32
 41
0.5999999999999998
 50
0
  1
色については品番表参照のこと
  0
TEXT
  8
_0-7_枠細線
 62
    5
 10
1536.8000000000002
 20
176
 40
32
 41
0.6
 50
0
  1
ＧＲＳＫ－２５Ｗ２００　ＳＥＴ
  0
LINE
  8
_0-7_枠細線
  6
CONTINUOUS
 62
    5
 10
2280
 20
1508
 11
1424
 21
1508
  0
TEXT
  8
_0-7_枠細線
 62
    5
 10
1432
 20
1512
 40
20
 41
1
 50
0
  1
記号
  0
TEXT
  8
_0-7_枠細線
 62
    5
 10
1595
 20
1512
 40
20
 41
1
 50
0
  1
訂　 正　 記　 事
  0
TEXT
  8
_0-7_枠細線
 62
    5
 10
1890
 20
1512
 40
20
 41
1
 50
0
  1
訂 正 年 月 日
  0
TEXT
  8
_0-7_枠細線
 62
    5
 10
2090
 20
1512
 40
20
 41
1
 50
0
  1
備　　　　　考
  0
LINE
  8
_0-7_枠細線
  6
CONTINUOUS
 62
    5
 10
2280
 20
1480
 11
1424
 21
1480
  0
TEXT
  8
_0-7_枠細線
 62
    5
 10
1502.1605925925924
 20
1484
 40
20
 41
1
 50
0
  1
品番・色記号変更
  0
TEXT
  8
_0-7_枠細線
 62
    5
 10
1888
 20
1484
 40
20
 41
0.7199999999999999
 50
0
  1
２０１３．０３．１３
  0
LINE
  8
_0-7_枠細線
  6
CONTINUOUS
 62
    5
 10
2280
 20
1452
 11
1424
 21
1452
  0
LINE
  8
_0-7_枠細線
  6
CONTINUOUS
 62
    5
 10
2280
 20
1424
 11
1424
 21
1424
  0
TEXT
  8
_0-7_枠細線
 62
    5
 10
1502.1605925925924
 20
1456
 40
20
 41
1
 50
0
  1
クロスバーピッチ変更
  0
TEXT
  8
_0-7_枠細線
 62
    5
 10
1502.1605925925924
 20
1428
 40
20
 41
1
 50
0
  1
取外具形状変更
  0
TEXT
  8
_0-7_枠細線
 62
    5
 10
1888
 20
1456
 40
20
 41
0.7199999999999999
 50
0
  1
２０１５．１１．２０
  0
LINE
  8
_0-7_枠細線
  6
CONTINUOUS
 62
    5
 10
1464
 20
1454.307734354795
 11
1452
 21
1478.307734354795
  0
LINE
  8
_0-7_枠細線
  6
CONTINUOUS
 62
    5
 10
1440
 20
1454.307734354795
 11
1464
 21
1454.307734354795
  0
LINE
  8
_0-7_枠細線
  6
CONTINUOUS
 62
    5
 10
1452
 20
1478.307734354795
 11
1440
 21
1454.307734354795
  0
TEXT
  8
_0-7_枠細線
 62
    5
 10
1443.7842420290372
 20
1453.8165307621866
 40
20
 41
0.8
 50
0
  1
１
  0
TEXT
  8
_0-7_枠細線
 62
    5
 10
1443.7842420290372
 20
1425.8165307621866
 40
20
 41
0.8
 50
0
  1
２
  0
LINE
  8
_0-7_枠細線
  6
CONTINUOUS
 62
    5
 10
2280
 20
1396
 11
1424
 21
1396
  0
LINE
  8
_0-7_枠細線
  6
CONTINUOUS
 62
    5
 10
1452
 20
1450.307734354795
 11
1440
 21
1426.307734354795
  0
LINE
  8
_0-7_枠細線
  6
CONTINUOUS
 62
    5
 10
1440
 20
1426.307734354795
 11
1464
 21
1426.307734354795
  0
LINE
  8
_0-7_枠細線
  6
CONTINUOUS
 62
    5
 10
1464
 20
1426.307734354795
 11
1452
 21
1450.307734354795
  0
TEXT
  8
_0-7_枠細線
 62
    5
 10
1443.7842420290372
 20
1397.4314401305048
 40
20
 41
0.8
 50
0
  1
３
  0
TEXT
  8
_0-7_枠細線
 62
    5
 10
1888
 20
1400
 40
20
 41
0.7199999999999999
 50
0
  1
２０１７．０４．０１
  0
LINE
  8
_0-7_枠細線
  6
CONTINUOUS
 62
    5
 10
1464
 20
1370.307734354795
 11
1452
 21
1394.307734354795
  0
LINE
  8
_0-7_枠細線
  6
CONTINUOUS
 62
    5
 10
1440
 20
1370.307734354795
 11
1464
 21
1370.307734354795
  0
LINE
  8
_0-7_枠細線
  6
CONTINUOUS
 62
    5
 10
1452
 20
1394.307734354795
 11
1440
 21
1370.307734354795
  0
TEXT
  8
_0-7_枠細線
 62
    5
 10
1888
 20
1372
 40
20
 41
0.7199999999999999
 50
0
  1
２０１７．０４．０１
  0
TEXT
  8
_0-7_枠細線
 62
    5
 10
1502.1605925925924
 20
1372
 40
20
 41
1
 50
0
  1
ブラウン色（Ｃ）追加
  0
LINE
  8
_0-7_枠細線
  6
CONTINUOUS
 62
    5
 10
2280
 20
1368
 11
1424
 21
1368
  0
LINE
  8
_0-7_枠細線
  6
CONTINUOUS
 62
    5
 10
1452
 20
1422.307734354795
 11
1440
 21
1398.307734354795
  0
LINE
  8
_0-7_枠細線
  6
CONTINUOUS
 62
    5
 10
1440
 20
1398.307734354795
 11
1464
 21
1398.307734354795
  0
LINE
  8
_0-7_枠細線
  6
CONTINUOUS
 62
    5
 10
1464
 20
1398.307734354795
 11
1452
 21
1422.307734354795
  0
TEXT
  8
_0-7_枠細線
 62
    5
 10
1443.7842420290372
 20
1368.7896224110352
 40
20
 41
0.8
 50
0
  1
４
  0
TEXT
  8
_0-7_枠細線
 62
    5
 10
1502.1605925925924
 20
1400
 40
20
 41
1
 50
0
  1
取外具形状変更
  0
TEXT
  8
_0-7_枠細線
 62
    5
 10
1888
 20
1428
 40
20
 41
0.7199999999999999
 50
0
  1
２０１５．１１．２０
  0
LINE
  8
_0-9_枠極太
  6
CONTINUOUS
 62
    5
 10
96
 20
96
 11
96
 21
1536
  0
LINE
  8
_0-9_枠極太
  6
CONTINUOUS
 62
    5
 10
96
 20
1536
 11
2280
 21
1536
  0
LINE
  8
_0-9_枠極太
  6
CONTINUOUS
 62
    5
 10
2280
 20
1536
 11
2280
 21
96
  0
LINE
  8
_0-9_枠極太
  6
CONTINUOUS
 62
    5
 10
2280
 20
96
 11
96
 21
96
  0
LINE
  8
_0-7_枠細線
  6
CONTINUOUS
 62
    5
 10
1464
 20
1342.307734354795
 11
1452
 21
1366.307734354795
  0
LINE
  8
_0-7_枠細線
  6
CONTINUOUS
 62
    5
 10
1440
 20
1342.307734354795
 11
1464
 21
1342.307734354795
  0
LINE
  8
_0-7_枠細線
  6
CONTINUOUS
 62
    5
 10
1452
 20
1366.307734354795
 11
1440
 21
1342.307734354795
  0
LINE
  8
_0-7_枠細線
  6
CONTINUOUS
 62
    5
 10
2280
 20
1340
 11
1424
 21
1340
  0
TEXT
  8
_0-7_枠細線
 62
    5
 10
1888
 20
1344
 40
20
 41
0.7199999999999999
 50
0
  1
２０１９．０９．０１
  0
TEXT
  8
_0-7_枠細線
 62
    5
 10
1443.7842420290372
 20
1340.7896224110352
 40
20
 41
0.8
 50
0
  1
５
  0
TEXT
  8
_0-7_枠細線
 62
    5
 10
1502.1605925925924
 20
1344
 40
20
 41
1
 50
0
  1
アンカー材質･厚み変更
  0
LINE
  8
_0-7_枠細線
  6
CONTINUOUS
 62
    5
 10
1668.4453960905373
 20
768
 11
1668.4453960905373
 21
896
  0
TEXT
  8
_0-7_枠細線
 62
    5
 10
1704.4453960905373
 20
860
 40
24
 41
1
 50
0
  1
耐荷重
  0
TEXT
  8
_0-7_枠細線
 62
    5
 10
1680.4453960905373
 20
780
 40
24
 41
1
 50
0
  1
（歩道用）
  0
LINE
  8
_0-7_枠細線
  6
CONTINUOUS
 62
    5
 10
1812.4453960905373
 20
768
 11
1812.4453960905373
 21
896
  0
TEXT
  8
_0-7_枠細線
 62
    5
 10
1848.4453960905373
 20
860
 40
24
 41
1
 50
0
  1
蓋重量
  0
LINE
  8
_0-7_枠細線
  6
CONTINUOUS
 62
    5
 10
1956.4453960905373
 20
768
 11
1956.4453960905373
 21
896
  0
TEXT
  8
_0-7_枠細線
 62
    5
 10
1992.4453960905373
 20
860
 40
24
 41
1
 50
0
  1
枠重量
  0
LINE
  8
_0-7_枠細線
  6
CONTINUOUS
 62
    5
 10
1668.4453960905373
 20
848
 11
2100.4453960905371
 21
848
  0
LINE
  8
_0-7_枠細線
  6
CONTINUOUS
 62
    5
 10
1668.4453960905373
 20
896
 11
2100.4453960905371
 21
896
  0
LINE
  8
_0-7_枠細線
  6
CONTINUOUS
 62
    5
 10
1668.4453960905373
 20
768
 11
2100.4453960905371
 21
768
  0
LINE
  8
_0-7_枠細線
  6
CONTINUOUS
 62
    5
 10
2100.4453960905371
 20
768
 11
2100.4453960905371
 21
896
  0
TEXT
  8
_0-7_枠細線
 62
    5
 10
1692.4453960905373
 20
812
 40
24
 41
1
 50
0
  1
5.0kN/㎡
  0
TEXT
  8
_0-7_枠細線
 62
    5
 10
1980.4453960905373
 20
798
 40
24
 41
0.8000000000000001
 50
0
  1
2.6kg/ｍ組
  0
TEXT
  8
_0-7_枠細線
 62
    5
 10
1846.0453960905372
 20
798
 40
24
 41
0.8000000000000001
 50
0
  1
3.4kg/ｍ
  0
TEXT
  8
_0-7_枠細線
 62
    5
 10
1726.0453960905377
 20
688
 40
24
 41
0.8000000000000001
 50
0
  1
品　　番
  0
LINE
  8
_0-7_枠細線
  6
CONTINUOUS
 62
    5
 10
1668.4453960905373
 20
600
 11
2180.4453960905375
 21
600
  0
LINE
  8
_0-7_枠細線
  6
CONTINUOUS
 62
    5
 10
1668.4453960905373
 20
640
 11
2180.4453960905375
 21
640
  0
LINE
  8
_0-7_枠細線
  6
CONTINUOUS
 62
    5
 10
1668.4453960905373
 20
680
 11
2180.4453960905375
 21
680
  0
TEXT
  8
_0-7_枠細線
 62
    5
 10
1930.8453960905381
 20
688
 40
24
 41
0.8000000000000001
 50
0
  1
色
  0
TEXT
  8
_0-7_枠細線
 62
    5
 10
2062.0453960905379
 20
688
 40
24
 41
0.8000000000000001
 50
0
  1
備　　考
  0
LINE
  8
_0-7_枠細線
  6
CONTINUOUS
 62
    5
 10
1668.4453960905373
 20
720
 11
2180.4453960905375
 21
720
  0
LINE
  8
_0-7_枠細線
  6
CONTINUOUS
 62
    5
 10
1668.4453960905373
 20
360
 11
2180.4453960905375
 21
360
  0
LINE
  8
_0-7_枠細線
  6
CONTINUOUS
 62
    5
 10
1668.4453960905373
 20
560
 11
2180.4453960905375
 21
560
  0
LINE
  8
_0-7_枠細線
  6
CONTINUOUS
 62
    5
 10
1668.4453960905373
 20
520
 11
2180.4453960905375
 21
520
  0
LINE
  8
_0-7_枠細線
  6
CONTINUOUS
 62
    5
 10
1668.4453960905373
 20
480
 11
2180.4453960905375
 21
480
  0
LINE
  8
_0-7_枠細線
  6
CONTINUOUS
 62
    5
 10
1668.4453960905373
 20
440
 11
2180.4453960905375
 21
440
  0
LINE
  8
_0-7_枠細線
  6
CONTINUOUS
 62
    5
 10
1668.4453960905373
 20
400
 11
2180.4453960905375
 21
400
  0
TEXT
  8
_0-7_枠細線
 62
    5
 10
1826.4453960905373
 20
728
 40
28
 41
1
 50
0
  1
品番表
  0
LINE
  8
_0-7_枠細線
  6
CONTINUOUS
 62
    5
 10
1668.4453960905373
 20
320
 11
2180.4453960905375
 21
320
  0
LINE
  8
_0-7_枠細線
  6
CONTINUOUS
 62
    5
 10
2180.4453960905375
 20
720
 11
2180.4453960905375
 21
320
  0
LINE
  8
_0-7_枠細線
  6
CONTINUOUS
 62
    5
 10
2020.4453960905373
 20
720
 11
2020.4453960905373
 21
320
  0
LINE
  8
_0-7_枠細線
  6
CONTINUOUS
 62
    5
 10
1860.445396090538
 20
720
 11
1860.445396090538
 21
320
  0
LINE
  8
_0-7_枠細線
  6
CONTINUOUS
 62
    5
 10
1668.4453960905373
 20
720
 11
1668.4453960905373
 21
320
  0
TEXT
  8
_0-7_枠細線
 62
    5
 10
1676.0453960905379
 20
648
 40
24
 41
0.5666666666666667
 50
0
  1
ＧＲＳＫ－２５Ｗ２００－Ｂ
  0
TEXT
  8
_0-7_枠細線
 62
    5
 10
1676.0453960905379
 20
608
 40
24
 41
0.5666666666666667
 50
0
  1
ＧＲＳＫ－２５Ｗ２００－Ｇ
  0
TEXT
  8
_0-7_枠細線
 62
    5
 10
1676.0453960905379
 20
568
 40
24
 41
0.5666666666666667
 50
0
  1
ＧＲＳＫ－２５Ｗ２００－Ｓ
  0
TEXT
  8
_0-7_枠細線
 62
    5
 10
1676.0453960905379
 20
528
 40
24
 41
0.5666666666666667
 50
0
  1
ＧＲＳＫ－２５Ｗ２００－Ｐ
  0
TEXT
  8
_0-7_枠細線
 62
    5
 10
1676.0453960905379
 20
488
 40
24
 41
0.5666666666666667
 50
0
  1
ＧＲＳＫ－２５Ｗ２００－Ａ
  0
TEXT
  8
_0-7_枠細線
 62
    5
 10
1676.0453960905379
 20
448
 40
24
 41
0.5666666666666667
 50
0
  1
ＧＲＳＫ－２５Ｗ２００－Ｄ
  0
TEXT
  8
_0-7_枠細線
 62
    5
 10
1676.0453960905379
 20
408
 40
24
 41
0.5666666666666667
 50
0
  1
ＧＲＳＫ－２５Ｗ２００－Ｍ
  0
TEXT
  8
_0-7_枠細線
 62
    5
 10
1676.0453960905379
 20
368
 40
24
 41
0.5666666666666667
 50
0
  1
ＧＲＳＫ－２５Ｗ２００－Ｃ
  0
TEXT
  8
_0-7_枠細線
 62
    5
 10
1676.0453960905379
 20
328
 40
24
 41
0.5666666666666667
 50
0
  1
ＧＲＳＫ－２５Ｗ２００－Ｋ
  0
LINE
  8
_0-7_枠細線
  6
CONTINUOUS
 62
    5
 10
1661.6656491420349
 20
368.532854836659
 11
1649.6656491420349
 21
392.532854836659
  0
LINE
  8
_0-7_枠細線
  6
CONTINUOUS
 62
    5
 10
1637.6656491420349
 20
368.532854836659
 11
1661.6656491420349
 21
368.532854836659
  0
LINE
  8
_0-7_枠細線
  6
CONTINUOUS
 62
    5
 10
1649.6656491420349
 20
392.532854836659
 11
1637.6656491420349
 21
368.532854836659
  0
TEXT
  8
_0-7_枠細線
 62
    5
 10
1641.4498911710718
 20
367.01474289289916
 40
20
 41
0.8
 50
0
  1
４
  0
TEXT
  8
_0-7_枠細線
 62
    5
 10
1910.4000000000001
 20
188
 40
32
 41
0.7
 50
0
  1
１：８
  0
LINE
  8
_0-a_極細3
  6
CENTER1
 62
    7
 10
779.74901008710299
 20
348.10430557784656
 11
779.74901008710299
 21
462.95763891119003
  0
LINE
  8
_0-a_極細3
  6
CONTINUOUS
 62
    7
 10
393.08234342043545
 20
355.33496608789955
 11
393.08234342043545
 21
246.00163275456589
  0
LINE
  8
_0-a_極細3
  6
CONTINUOUS
 62
    7
 10
526.41567675376905
 20
246.00163275456589
 11
393.08234342043545
 21
246.00163275456589
  0
LINE
  8
_0-a_極細3
  6
CONTINUOUS
 62
    7
 10
393.08234342043545
 20
355.33496608789955
 11
343.73128132158558
 21
355.33496608789955
  0
LINE
  8
_0-a_極細3
  6
CONTINUOUS
 62
    7
 10
526.41567675376905
 20
246.00163275456589
 11
526.41567675376905
 21
204.01507228291973
  0
LINE
  8
_0-a_極細3
  6
CONTINUOUS
 62
    7
 10
466.54051744978528
 20
204.01507246921847
 11
508.52707773513362
 21
246.00163275456589
  0
LINE
  8
_0-a_極細3
  6
CONTINUOUS
 62
    7
 10
353.40343281195919
 20
204.01507282123976
 11
395.38999274528578
 21
246.00163275456589
  0
LINE
  8
_0-a_極細3
  6
CONTINUOUS
 62
    7
 10
343.73128132158558
 20
307.48000632071353
 11
391.58624108877154
 21
355.33496608789955
  0
LINE
  8
_0-a_極細3
  6
CONTINUOUS
 62
    7
 10
455.22680898600265
 20
204.01507250442069
 11
497.21336923614831
 21
246.00163275456589
  0
LINE
  8
_0-a_極細3
  6
CONTINUOUS
 62
    7
 10
343.73128132158558
 20
205.656629829851
 11
393.08234342043545
 21
255.00769192870155
  0
LINE
  8
_0-a_極細3
  6
CONTINUOUS
 62
    7
 10
343.73128132158558
 20
318.79371481969883
 11
380.27253258978635
 21
355.33496608789955
  0
LINE
  8
_0-a_極細3
  6
CONTINUOUS
 62
    7
 10
443.9131005222207
 20
204.01507253962279
 11
485.89966073716391
 21
246.00163275456589
  0
LINE
  8
_0-a_極細3
  6
CONTINUOUS
 62
    7
 10
343.73128132158558
 20
216.97033832883551
 11
393.08234342043545
 21
266.32140042768606
  0
LINE
  8
_0-a_極細3
  6
CONTINUOUS
 62
    7
 10
343.73128132158558
 20
330.10742331868329
 11
368.95882409080184
 21
355.33496608789955
  0
CIRCLE
  8
_0-a_極細3
  6
CONTINUOUS
 62
    7
 10
372.36470187065311
 20
379.66042275455567
 40
0.884938271604915
  0
CIRCLE
  8
_0-a_極細3
  6
CONTINUOUS
 62
    7
 10
355.83531915460435
 20
363.73153386566719
 40
0.884938271604915
  0
CIRCLE
  8
_0-a_極細3
  6
CONTINUOUS
 62
    7
 10
372.80717100645597
 20
365.43820053233372
 40
0.884938271604915
  0
CIRCLE
  8
_0-a_極細3
  6
CONTINUOUS
 62
    7
 10
393.00272656201162
 20
368.56708942122219
 40
0.884938271604915
  0
CIRCLE
  8
_0-a_極細3
  6
CONTINUOUS
 62
    7
 10
438.51383767312177
 20
387.34042275455522
 40
0.884938271604915
  0
CIRCLE
  8
_0-a_極細3
  6
CONTINUOUS
 62
    7
 10
478.33605989534374
 20
403.26931164344438
 40
0.884938271604915
  0
CIRCLE
  8
_0-a_極細3
  6
CONTINUOUS
 62
    7
 10
487.4382821175659
 20
377.38486719899976
 40
0.884938271604915
  0
CIRCLE
  8
_0-a_極細3
  6
CONTINUOUS
 62
    7
 10
447.61605989534405
 20
376.53153386566646
 40
0.884938271604915
  0
CIRCLE
  8
_0-a_極細3
  6
CONTINUOUS
 62
    7
 10
428.84272656201097
 20
400.42486719899989
 40
0.884938271604915
  0
CIRCLE
  8
_0-a_極細3
  6
CONTINUOUS
 62
    7
 10
404.11383767312259
 20
356.95820053233348
 40
0.884938271604915
  0
CIRCLE
  8
_0-a_極細3
  6
CONTINUOUS
 62
    7
 10
436.82494878423279
 20
354.96708942122223
 40
0.884938271604915
  0
CIRCLE
  8
_0-a_極細3
  6
CONTINUOUS
 62
    7
 10
476.93161545089936
 20
348.99375608788921
 40
0.884938271604915
  0
CIRCLE
  8
_0-a_極細3
  6
CONTINUOUS
 62
    7
 10
456.73605989534371
 20
339.89153386566704
 40
0.884938271604915
  0
CIRCLE
  8
_0-a_極細3
  6
CONTINUOUS
 62
    7
 10
433.12717100645568
 20
318.27375608788952
 40
0.884938271604915
  0
CIRCLE
  8
_0-a_極細3
  6
CONTINUOUS
 62
    7
 10
476.93161545089936
 20
329.93597831011158
 40
0.884938271604915
  0
CIRCLE
  8
_0-a_極細3
  6
CONTINUOUS
 62
    7
 10
411.15383767312198
 20
286.55820053233424
 40
0.884938271604915
  0
CIRCLE
  8
_0-a_極細3
  6
CONTINUOUS
 62
    7
 10
402.05161545089982
 20
257.82931164344564
 40
0.884938271604915
  0
CIRCLE
  8
_0-a_極細3
  6
CONTINUOUS
 62
    7
 10
415.98939322867773
 20
268.63820053233439
 40
0.884938271604915
  0
CIRCLE
  8
_0-a_極細3
  6
CONTINUOUS
 62
    7
 10
425.94494878423325
 20
254.9848671990012
 40
0.884938271604915
  0
CIRCLE
  8
_0-a_極細3
  6
CONTINUOUS
 62
    7
 10
488.82494878423279
 20
283.60708942122301
 40
0.884938271604915
  0
CIRCLE
  8
_0-a_極細3
  6
CONTINUOUS
 62
    7
 10
470.90494878423306
 20
274.78931164344556
 40
0.884938271604915
  0
CIRCLE
  8
_0-a_極細3
  6
CONTINUOUS
 62
    7
 10
480.86050433978858
 20
270.80708942122305
 40
0.884938271604915
  0
CIRCLE
  8
_0-a_極細3
  6
CONTINUOUS
 62
    7
 10
475.17161545089948
 20
256.0159783101119
 40
0.884938271604915
  0
CIRCLE
  8
_0-a_極細3
  6
CONTINUOUS
 62
    7
 10
507.02939322867712
 20
257.72264497677907
 40
0.884938271604915
  0
CIRCLE
  8
_0-a_極細3
  6
CONTINUOUS
 62
    7
 10
527.7938376731214
 20
262.84264497677884
 40
0.884938271604915
  0
CIRCLE
  8
_0-a_極細3
  6
CONTINUOUS
 62
    7
 10
549.69605989534352
 20
238.94931164344541
 40
0.884938271604915
  0
CIRCLE
  8
_0-a_極細3
  6
CONTINUOUS
 62
    7
 10
538.60272656201016
 20
215.05597831011232
 40
0.884938271604915
  0
CIRCLE
  8
_0-a_極細3
  6
CONTINUOUS
 62
    7
 10
511.93605989534376
 20
284.83968201381595
 40
0.884938271604915
  0
CIRCLE
  8
_0-a_極細3
  6
CONTINUOUS
 62
    7
 10
535.54494878423247
 20
339.45301534714832
 40
0.884938271604915
  0
CIRCLE
  8
_0-a_極細3
  6
CONTINUOUS
 62
    7
 10
559.72272656200983
 20
323.52412645825984
 40
0.884938271604915
  0
CIRCLE
  8
_0-a_極細3
  6
CONTINUOUS
 62
    7
 10
560.57605989534318
 20
294.79523756937147
 40
0.884938271604915
  0
CIRCLE
  8
_0-a_極細3
  6
CONTINUOUS
 62
    7
 10
504.18494878423257
 20
342.36857090270439
 40
0.884938271604915
  0
CIRCLE
  8
_0-a_極細3
  6
CONTINUOUS
 62
    7
 10
471.72272656201062
 20
377.54289189035791
 40
2.9208503562902273
  0
CIRCLE
  8
_0-a_極細3
  6
CONTINUOUS
 62
    7
 10
388.90333503971453
 20
388.63027472987466
 40
2.9208503562902273
  0
CIRCLE
  8
_0-a_極細3
  6
CONTINUOUS
 62
    7
 10
467.20717100645527
 20
324.84955855702515
 40
2.9208503562902273
  0
CIRCLE
  8
_0-a_極細3
  6
CONTINUOUS
 62
    7
 10
431.36717100645512
 20
341.06289189035834
 40
2.9208503562902273
  0
CIRCLE
  8
_0-a_極細3
  6
CONTINUOUS
 62
    7
 10
400.00717100645522
 20
280.26289189035901
 40
2.9208503562902273
  0
CIRCLE
  8
_0-a_極細3
  6
CONTINUOUS
 62
    7
 10
485.1271710064542
 20
259.78289189035945
 40
2.9208503562902273
  0
CIRCLE
  8
_0-a_極細3
  6
CONTINUOUS
 62
    7
 10
542.69161545089844
 20
254.02289189035969
 40
2.9208503562902273
  0
CIRCLE
  8
_0-a_極細3
  6
CONTINUOUS
 62
    7
 10
550.37161545089805
 20
224.15622522369313
 40
2.9208503562902273
  0
LINE
  8
_0-a_極細3
  6
CONTINUOUS
 62
    7
 10
486.41567675376905
 20
440.66829942123314
 11
486.41567675376905
 21
422.00163275456595
  0
LINE
  8
_0-a_極細3
  6
CONTINUOUS
 62
    7
 10
486.41567675376905
 20
440.66829942123314
 11
343.73128132158558
 21
440.66829942123314
  0
LINE
  8
_0-a_極細3
  6
CONTINUOUS
 62
    7
 10
499.74901008710253
 20
422.00163275456595
 11
343.73128132158558
 21
422.00163275456595
  0
LINE
  8
_0-a_極細3
  6
CONTINUOUS
 62
    7
 10
499.74901008710253
 20
440.66829942123314
 11
486.41567675376905
 21
440.66829942123314
  0
LINE
  8
_0-a_極細3
  6
CONTINUOUS
 62
    7
 10
499.74901008710253
 20
439.33496608789955
 11
499.74901008710253
 21
440.66829942123314
  0
LINE
  8
_0-a_極細3
  6
CONTINUOUS
 62
    7
 10
499.43206567692721
 20
422.00163275456595
 11
499.74901008710185
 21
422.31857716474133
  0
LINE
  8
_0-a_極細3
  6
CONTINUOUS
 62
    7
 10
492.64384057753671
 20
422.00163275456595
 11
499.74901008710253
 21
429.10680226413189
  0
LINE
  8
_0-a_極細3
  6
CONTINUOUS
 62
    7
 10
486.41567675376905
 20
422.56169403018959
 11
499.74901008710253
 21
435.89502736352313
  0
LINE
  8
_0-a_極細3
  6
CONTINUOUS
 62
    7
 10
486.41567675376905
 20
429.34991912958009
 11
497.73405704542131
 21
440.66829942123314
  0
LINE
  8
_0-a_極細3
  6
CONTINUOUS
 62
    7
 10
486.41567675376905
 20
436.13814422897138
 11
490.94583194603069
 21
440.66829942123314
  0
LINE
  8
_0-a_極細3
  6
CONTINUOUS
 62
    7
 10
499.74901008710253
 20
437.01875242561965
 11
496.09946309148904
 21
440.66829942123314
  0
LINE
  8
_0-a_極細3
  6
CONTINUOUS
 62
    7
 10
499.74901008710253
 20
430.23052732622835
 11
489.31123799209786
 21
440.66829942123314
  0
LINE
  8
_0-a_極細3
  6
CONTINUOUS
 62
    7
 10
486.41567675376905
 20
436.77563556017139
 11
499.74901008710253
 21
423.4423022268378
  0
LINE
  8
_0-a_極細3
  6
CONTINUOUS
 62
    7
 10
486.41567675376905
 20
429.9874104607801
 11
494.40145445998246
 21
422.00163275456595
  0
LINE
  8
_0-a_極細3
  6
CONTINUOUS
 62
    7
 10
486.41567675376905
 20
423.19918536138954
 11
487.61322936059184
 21
422.00163275456595
  0
LINE
  8
_0-a_極細3
  6
CONTINUOUS
 62
    7
 10
472.27916526955994
 20
422.00163274476233
 11
486.41567675376905
 21
436.13814422897138
  0
LINE
  8
_0-a_極細3
  6
CONTINUOUS
 62
    7
 10
438.338039749068
 20
422.00163272122461
 11
457.00470644907659
 21
440.66829942123314
  0
LINE
  8
_0-a_極細3
  6
CONTINUOUS
 62
    7
 10
404.39691422857538
 20
422.00163269768615
 11
423.06358095212158
 21
440.66829942123314
  0
LINE
  8
_0-a_極細3
  6
CONTINUOUS
 62
    7
 10
370.45578870808276
 20
422.00163267414842
 11
389.12245545516748
 21
440.66829942123314
  0
LINE
  8
_0-a_極細3
  6
CONTINUOUS
 62
    7
 10
343.73128132158558
 20
429.21825078460478
 11
355.18132995821315
 21
440.66829942123314
  0
LINE
  8
_0-a_極細3
  6
DASHED2
 62
    7
 10
455.30860250931403
 20
422.00163273299347
 11
473.97526919755364
 21
440.66829942123314
  0
LINE
  8
_0-a_極細3
  6
DASHED2
 62
    7
 10
421.36747698882141
 20
422.00163270945575
 11
440.03414370059943
 21
440.66829942123314
  0
LINE
  8
_0-a_極細3
  6
DASHED2
 62
    7
 10
387.42635146832947
 20
422.00163268591729
 11
406.09301820364453
 21
440.66829942123314
  0
LINE
  8
_0-a_極細3
  6
DASHED2
 62
    7
 10
353.48522594783685
 20
422.00163266237956
 11
372.15189270669032
 21
440.66829942123314
  0
CIRCLE
  8
_0-a_極細3
  6
CONTINUOUS
 62
    7
 10
355.83531915460435
 20
411.12313880393793
 40
0.884938271604915
  0
CIRCLE
  8
_0-a_極細3
  6
CONTINUOUS
 62
    7
 10
379.91828211756695
 20
410.238200532333
 40
0.884938271604915
  0
CIRCLE
  8
_0-a_極細3
  6
CONTINUOUS
 62
    7
 10
452.45161545089979
 20
400.70931164344455
 40
0.884938271604915
  0
CIRCLE
  8
_0-a_極細3
  6
CONTINUOUS
 62
    7
 10
451.24272656201106
 20
407.62289189035818
 40
2.9208503562902273
  0
CIRCLE
  8
_0-a_極細3
  6
CONTINUOUS
 62
    7
 10
356.58800777398756
 20
390.05844744591394
 40
2.9208503562902273
  0
LINE
  8
_0-a_極細3
  6
CONTINUOUS
 62
    7
 10
578.41567675376905
 20
366.00163275456595
 11
579.74901008710253
 21
366.00163275456595
  0
LINE
  8
_0-a_極細3
  6
CONTINUOUS
 62
    7
 10
579.74901008710253
 20
366.00163275456595
 11
579.74901008710253
 21
204.01507228291973
  0
ARC
  8
_0-b_細線3
  6
CONTINUOUS
 62
    7
 10
507.74901008710253
 20
374.00163275456595
 40
8
 50
179.99999999999983
 51
269.99999999999977
  0
LINE
  8
_0-b_細線3
  6
CONTINUOUS
 62
    7
 10
499.74901008710253
 20
374.00163275456595
 11
499.74901008710253
 21
439.33496608789955
  0
LINE
  8
_0-b_細線3
  6
CONTINUOUS
 62
    7
 10
507.74901008710253
 20
366.00163275456595
 11
578.41567675376905
 21
366.00163275456595
  0
LINE
  8
_0-b_細線3
  6
CONTINUOUS
 62
    7
 10
579.74901008710253
 20
367.33496608789955
 11
578.41567675376905
 21
366.00163275456595
  0
LINE
  8
_0-b_細線3
  6
CONTINUOUS
 62
    7
 10
579.74901008710253
 20
372.66829942123314
 11
579.74901008710253
 21
367.33496608789955
  0
LINE
  8
_0-b_細線3
  6
CONTINUOUS
 62
    7
 10
578.41567675376905
 20
374.00163275456595
 11
579.74901008710253
 21
372.66829942123314
  0
LINE
  8
_0-b_細線3
  6
CONTINUOUS
 62
    7
 10
507.74901008710253
 20
374.00163275456595
 11
578.41567675376905
 21
374.00163275456595
  0
LINE
  8
_0-b_細線3
  6
CONTINUOUS
 62
    7
 10
501.08234342043545
 20
440.66829942123314
 11
499.74901008710253
 21
439.33496608789955
  0
LINE
  8
_0-b_細線3
  6
CONTINUOUS
 62
    7
 10
506.41567675376905
 20
440.66829942123314
 11
501.08234342043545
 21
440.66829942123314
  0
LINE
  8
_0-b_細線3
  6
CONTINUOUS
 62
    7
 10
507.74901008710253
 20
439.33496608789955
 11
506.41567675376905
 21
440.66829942123314
  0
LINE
  8
_0-b_細線3
  6
CONTINUOUS
 62
    7
 10
507.74901008710253
 20
374.00163275456595
 11
507.74901008710253
 21
439.33496608789955
  0
CIRCLE
  8
_0-a_極細3
  6
CONTINUOUS
 62
    7
 10
568.7291154508963
 20
340.42289189035893
 40
2.9208503562902273
  0
CIRCLE
  8
_0-a_極細3
  6
CONTINUOUS
 62
    7
 10
567.1419858212688
 20
252.88708942122344
 40
0.884938271604915
  0
CIRCLE
  8
_0-a_極細3
  6
CONTINUOUS
 62
    7
 10
569.27531915460315
 20
216.63737576815129
 40
0.884938271604915
  0
CIRCLE
  8
_0-a_極細3
  6
CONTINUOUS
 62
    7
 10
549.48272656200311
 20
309.84511411258154
 40
2.9208503562902273
  0
LINE
  8
_0-a_極細3
  6
CONTINUOUS
 62
    7
 10
1166.4156767537688
 20
355.33496608789955
 11
1166.4156767537688
 21
246.00163275456589
  0
LINE
  8
_0-a_極細3
  6
CONTINUOUS
 62
    7
 10
1033.0823434204362
 20
246.00163275456589
 11
1166.4156767537688
 21
246.00163275456589
  0
LINE
  8
_0-a_極細3
  6
CONTINUOUS
 62
    7
 10
1166.4156767537688
 20
355.33496608789955
 11
1215.7667388526197
 21
355.33496608789955
  0
LINE
  8
_0-a_極細3
  6
CONTINUOUS
 62
    7
 10
1033.0823434204362
 20
246.00163275456589
 11
1033.0823434204362
 21
204.01507228291973
  0
LINE
  8
_0-a_極細3
  6
CONTINUOUS
 62
    7
 10
1179.6796806171183
 20
204.01507228291973
 11
1215.7667389190847
 21
240.10213058488603
  0
LINE
  8
_0-a_極細3
  6
CONTINUOUS
 62
    7
 10
1066.5425956272707
 20
204.01507228291973
 11
1108.5291560989167
 21
246.00163275456589
  0
LINE
  8
_0-a_極細3
  6
CONTINUOUS
 62
    7
 10
1166.4156767537688
 20
303.88815340941892
 11
1215.766738853828
 21
353.23921550947722
  0
LINE
  8
_0-a_極細3
  6
CONTINUOUS
 62
    7
 10
1168.365972118133
 20
204.01507228291973
 11
1215.766738912559
 21
251.41583907734548
  0
LINE
  8
_0-a_極細3
  6
CONTINUOUS
 62
    7
 10
1055.2288871282854
 20
204.01507228291973
 11
1097.2154475999323
 21
246.00163275456589
  0
LINE
  8
_0-a_極細3
  6
CONTINUOUS
 62
    7
 10
1166.4156767537688
 20
315.20186190840332
 11
1206.5487806459851
 21
355.33496580061927
  0
LINE
  8
_0-a_極細3
  6
CONTINUOUS
 62
    7
 10
1157.0522636191486
 20
204.01507228291973
 11
1215.766738906033
 21
262.72954756980414
  0
LINE
  8
_0-a_極細3
  6
CONTINUOUS
 62
    7
 10
1043.915178629301
 20
204.01507228291973
 11
1085.9017391009479
 21
246.00163275456589
  0
LINE
  8
_0-a_極細3
  6
CONTINUOUS
 62
    7
 10
1166.4156767537688
 20
326.51557040738794
 11
1195.2350722279862
 21
355.33496588160506
  0
CIRCLE
  8
_0-a_極細3
  6
CONTINUOUS
 62
    7
 10
1011.3316154508957
 20
340.1685709027044
 40
0.884938271604915
  0
CIRCLE
  8
_0-a_極細3
  6
CONTINUOUS
 62
    7
 10
1027.2605043397843
 20
347.84857090270395
 40
0.884938271604915
  0
CIRCLE
  8
_0-a_極細3
  6
CONTINUOUS
 62
    7
 10
1020.7182821175626
 20
307.88412645825974
 40
0.884938271604915
  0
CIRCLE
  8
_0-a_極細3
  6
CONTINUOUS
 62
    7
 10
1048.7716154508958
 20
280.64857090270471
 40
0.884938271604915
  0
CIRCLE
  8
_0-a_極細3
  6
CONTINUOUS
 62
    7
 10
1020.2382821175623
 20
243.36857090270519
 40
0.884938271604915
  0
CIRCLE
  8
_0-a_極細3
  6
CONTINUOUS
 62
    7
 10
1005.3049487842294
 20
214.7819042360386
 40
0.884938271604915
  0
CIRCLE
  8
_0-a_極細3
  6
CONTINUOUS
 62
    7
 10
1023.6516154508954
 20
262.56857090270512
 40
0.884938271604915
  0
CIRCLE
  8
_0-a_極細3
  6
CONTINUOUS
 62
    7
 10
1045.8382821175624
 20
254.88857090270483
 40
0.884938271604915
  0
CIRCLE
  8
_0-a_極細3
  6
CONTINUOUS
 62
    7
 10
1088.9316154508956
 20
255.3152375693719
 40
0.884938271604915
  0
CIRCLE
  8
_0-a_極細3
  6
CONTINUOUS
 62
    7
 10
1069.7316154508958
 20
269.82190423603834
 40
0.884938271604915
  0
CIRCLE
  8
_0-a_極細3
  6
CONTINUOUS
 62
    7
 10
1087.6516154508954
 20
278.78190423603826
 40
0.884938271604915
  0
CIRCLE
  8
_0-a_極細3
  6
CONTINUOUS
 62
    7
 10
1072.469393228673
 20
397.2174597915926
 40
0.884938271604915
  0
CIRCLE
  8
_0-a_極細3
  6
CONTINUOUS
 62
    7
 10
1068.4871710064504
 20
365.64412645825956
 40
0.884938271604915
  0
CIRCLE
  8
_0-a_極細3
  6
CONTINUOUS
 62
    7
 10
1101.3405043397838
 20
364.50634868048161
 40
0.884938271604915
  0
CIRCLE
  8
_0-a_極細3
  6
CONTINUOUS
 62
    7
 10
1082.7805043397839
 20
342.10634868048163
 40
0.884938271604915
  0
CIRCLE
  8
_0-a_極細3
  6
CONTINUOUS
 62
    7
 10
1145.5005043397837
 20
256.98634868048271
 40
0.884938271604915
  0
CIRCLE
  8
_0-a_極細3
  6
CONTINUOUS
 62
    7
 10
1157.0205043397832
 20
279.38634868048257
 40
0.884938271604915
  0
CIRCLE
  8
_0-a_極細3
  6
CONTINUOUS
 62
    7
 10
1154.4605043397828
 20
312.6663486804822
 40
0.884938271604915
  0
CIRCLE
  8
_0-a_極細3
  6
CONTINUOUS
 62
    7
 10
1125.6605043397835
 20
346.58634868048193
 40
0.884938271604915
  0
CIRCLE
  8
_0-a_極細3
  6
CONTINUOUS
 62
    7
 10
1152.5405043397832
 20
377.94634868048104
 40
0.884938271604915
  0
CIRCLE
  8
_0-a_極細3
  6
CONTINUOUS
 62
    7
 10
1148.0605043397827
 20
335.06634868048224
 40
0.884938271604915
  0
CIRCLE
  8
_0-a_極細3
  6
CONTINUOUS
 62
    7
 10
1195.4205043397824
 20
368.98634868048117
 40
0.884938271604915
  0
CIRCLE
  8
_0-a_極細3
  6
CONTINUOUS
 62
    7
 10
1187.7405043397821
 20
391.01844744591381
 40
2.9208503562902273
  0
CIRCLE
  8
_0-a_極細3
  6
CONTINUOUS
 62
    7
 10
1162.7093932286716
 20
366.27178077924708
 40
2.9208503562902273
  0
CIRCLE
  8
_0-a_極細3
  6
CONTINUOUS
 62
    7
 10
1074.0338376731172
 20
376.79622522369118
 40
2.9208503562902273
  0
CIRCLE
  8
_0-a_極細3
  6
CONTINUOUS
 62
    7
 10
1125.2338376731163
 20
325.59622522369182
 40
2.9208503562902273
  0
CIRCLE
  8
_0-a_極細3
  6
CONTINUOUS
 62
    7
 10
1012.6027265620072
 20
254.31622522369298
 40
2.9208503562902273
  0
CIRCLE
  8
_0-a_極細3
  6
CONTINUOUS
 62
    7
 10
1028.958282117562
 20
302.10289189035916
 40
2.9208503562902273
  0
CIRCLE
  8
_0-a_極細3
  6
CONTINUOUS
 62
    7
 10
1085.2782821175617
 20
266.2628918903597
 40
2.9208503562902273
  0
CIRCLE
  8
_0-a_極細3
  6
CONTINUOUS
 62
    7
 10
1159.3025903340158
 20
249.96360806320831
 40
2.9208503562902273
  0
CIRCLE
  8
_0-a_極細3
  6
CONTINUOUS
 62
    7
 10
1078.2382821175615
 20
335.38289189035874
 40
2.9208503562902273
  0
CIRCLE
  8
_0-a_極細3
  6
CONTINUOUS
 62
    7
 10
1002.2926031052168
 20
326.70576323910086
 40
0.884938271604915
  0
CIRCLE
  8
_0-a_極細3
  6
CONTINUOUS
 62
    7
 10
1002.612603105218
 20
288.37687435021166
 40
0.884938271604915
  0
LINE
  8
_0-a_極細3
  6
CONTINUOUS
 62
    7
 10
1073.0823434204362
 20
440.66829942123314
 11
1073.0823434204362
 21
422.00163275456595
  0
LINE
  8
_0-a_極細3
  6
CONTINUOUS
 62
    7
 10
1073.0823434204362
 20
440.66829942123314
 11
1215.7667388526197
 21
440.66829942123314
  0
LINE
  8
_0-a_極細3
  6
CONTINUOUS
 62
    7
 10
1059.7490100871028
 20
422.00163275456595
 11
1215.7667388526197
 21
422.00163275456595
  0
LINE
  8
_0-a_極細3
  6
CONTINUOUS
 62
    7
 10
1059.7490100871028
 20
440.66829942123314
 11
1073.0823434204362
 21
440.66829942123314
  0
LINE
  8
_0-a_極細3
  6
CONTINUOUS
 62
    7
 10
1059.7490100871028
 20
439.33496608789955
 11
1059.7490100871028
 21
440.66829942123314
  0
LINE
  8
_0-a_極細3
  6
CONTINUOUS
 62
    7
 10
1073.0823434204362
 20
427.87217080372591
 11
1067.2118053712761
 21
422.00163275456595
  0
LINE
  8
_0-a_極細3
  6
CONTINUOUS
 62
    7
 10
1073.0823434204362
 20
434.66039590311647
 11
1060.4235802718858
 21
422.00163275456595
  0
LINE
  8
_0-a_極細3
  6
CONTINUOUS
 62
    7
 10
1059.7490100871028
 20
428.11528766917417
 11
1072.3020218391616
 21
440.66829942123314
  0
LINE
  8
_0-a_極細3
  6
CONTINUOUS
 62
    7
 10
1059.7490100871028
 20
434.90351276856546
 11
1065.5137967397704
 21
440.66829942123314
  0
LINE
  8
_0-a_極細3
  6
CONTINUOUS
 62
    7
 10
1073.0823434204362
 20
438.2533838860241
 11
1070.6674278852272
 21
440.66829942123314
  0
LINE
  8
_0-a_極細3
  6
CONTINUOUS
 62
    7
 10
1073.0823434204362
 20
431.46515878663359
 11
1063.8792027858367
 21
440.66829942123314
  0
LINE
  8
_0-a_極細3
  6
CONTINUOUS
 62
    7
 10
1073.0823434204362
 20
424.6769336872423
 11
1059.7490100871028
 21
438.0102670205759
  0
LINE
  8
_0-a_極細3
  6
CONTINUOUS
 62
    7
 10
1068.9694192537213
 20
422.00163275456595
 11
1059.7490100871028
 21
431.22204192118534
  0
LINE
  8
_0-a_極細3
  6
CONTINUOUS
 62
    7
 10
1062.1811941543306
 20
422.00163275456595
 11
1059.7490100871028
 21
424.43381682179404
  0
LINE
  8
_0-a_極細3
  6
CONTINUOUS
 62
    7
 10
1182.6116320609208
 20
422.00163275456595
 11
1201.2782977247252
 21
440.6682984183704
  0
LINE
  8
_0-a_極細3
  6
CONTINUOUS
 62
    7
 10
1148.6705065639662
 20
422.00163275456669
 11
1167.3371724932886
 21
440.66829868388828
  0
LINE
  8
_0-a_極細3
  6
CONTINUOUS
 62
    7
 10
1114.7293810670121
 20
422.00163275456595
 11
1133.3960472618519
 21
440.66829894940548
  0
LINE
  8
_0-a_極細3
  6
CONTINUOUS
 62
    7
 10
1080.788255570058
 20
422.00163275456595
 11
1099.4549220304152
 21
440.66829921492337
  0
LINE
  8
_0-a_極細3
  6
DASHED2
 62
    7
 10
1199.5821948093985
 20
422.00163275456669
 11
1215.7667388526197
 21
438.18617679778782
  0
LINE
  8
_0-a_極細3
  6
DASHED2
 62
    7
 10
1165.6410693124435
 20
422.00163275456595
 11
1184.3077351090064
 21
440.668298551129
  0
LINE
  8
_0-a_極細3
  6
DASHED2
 62
    7
 10
1131.6999438154894
 20
422.00163275456595
 11
1150.3666098775702
 21
440.66829881664688
  0
LINE
  8
_0-a_極細3
  6
DASHED2
 62
    7
 10
1097.7588183185353
 20
422.00163275456595
 11
1116.4254846461331
 21
440.66829908216476
  0
LINE
  8
_0-a_極細3
  6
DASHED2
 62
    7
 10
1073.0823434204362
 20
431.26628335342122
 11
1082.4843594146969
 21
440.66829934768191
  0
CIRCLE
  8
_0-a_極細3
  6
CONTINUOUS
 62
    7
 10
1201.8205043397825
 20
403.7596820138142
 40
0.884938271604915
  0
CIRCLE
  8
_0-a_極細3
  6
CONTINUOUS
 62
    7
 10
1174.9405043397828
 20
403.7596820138142
 40
0.884938271604915
  0
CIRCLE
  8
_0-a_極細3
  6
CONTINUOUS
 62
    7
 10
1132.0605043397836
 20
408.2396820138145
 40
0.884938271604915
  0
CIRCLE
  8
_0-a_極細3
  6
CONTINUOUS
 62
    7
 10
1150.1938376731164
 20
405.16955855702417
 40
2.9208503562902273
  0
CIRCLE
  8
_0-a_極細3
  6
CONTINUOUS
 62
    7
 10
1125.6605043397835
 20
395.65301534714837
 40
0.884938271604915
  0
CIRCLE
  8
_0-a_極細3
  6
CONTINUOUS
 62
    7
 10
1125.8738376731167
 20
385.54289189035791
 40
2.9208503562902273
  0
CIRCLE
  8
_0-a_極細3
  6
CONTINUOUS
 62
    7
 10
1091.7405043397839
 20
405.2530153471476
 40
0.884938271604915
  0
LINE
  8
_0-a_極細3
  6
CONTINUOUS
 62
    7
 10
981.08234342043477
 20
366.00163275456595
 11
979.74901008710185
 21
366.00163275456595
  0
LINE
  8
_0-a_極細3
  6
CONTINUOUS
 62
    7
 10
979.74901008710185
 20
366.00163275456595
 11
979.74901008710185
 21
204.01507228291973
  0
ARC
  8
_0-b_細線3
  6
CONTINUOUS
 62
    7
 10
1051.7490100871028
 20
374.00163275456595
 40
8
 50
269.99999999999977
 51
359.99999999999966
  0
LINE
  8
_0-b_細線3
  6
CONTINUOUS
 62
    7
 10
1059.7490100871028
 20
374.00163275456595
 11
1059.7490100871028
 21
439.33496608789955
  0
LINE
  8
_0-b_細線3
  6
CONTINUOUS
 62
    7
 10
1051.7490100871028
 20
366.00163275456595
 11
981.08234342043477
 21
366.00163275456595
  0
LINE
  8
_0-b_細線3
  6
CONTINUOUS
 62
    7
 10
979.74901008710185
 20
367.33496608789955
 11
981.08234342043477
 21
366.00163275456595
  0
LINE
  8
_0-b_細線3
  6
CONTINUOUS
 62
    7
 10
979.74901008710185
 20
372.66829942123314
 11
979.74901008710185
 21
367.33496608789955
  0
LINE
  8
_0-b_細線3
  6
CONTINUOUS
 62
    7
 10
981.08234342043477
 20
374.00163275456595
 11
979.74901008710185
 21
372.66829942123314
  0
LINE
  8
_0-b_細線3
  6
CONTINUOUS
 62
    7
 10
1051.7490100871028
 20
374.00163275456595
 11
981.08234342043477
 21
374.00163275456595
  0
LINE
  8
_0-b_細線3
  6
CONTINUOUS
 62
    7
 10
1058.4156767537697
 20
440.66829942123314
 11
1059.7490100871028
 21
439.33496608789955
  0
LINE
  8
_0-b_細線3
  6
CONTINUOUS
 62
    7
 10
1053.0823434204362
 20
440.66829942123314
 11
1058.4156767537697
 21
440.66829942123314
  0
LINE
  8
_0-b_細線3
  6
CONTINUOUS
 62
    7
 10
1051.7490100871028
 20
439.33496608789955
 11
1053.0823434204362
 21
440.66829942123314
  0
LINE
  8
_0-b_細線3
  6
CONTINUOUS
 62
    7
 10
1051.7490100871028
 20
374.00163275456595
 11
1051.7490100871028
 21
439.33496608789955
  0
CIRCLE
  8
_0-a_極細3
  6
CONTINUOUS
 62
    7
 10
989.32404343443523
 20
301.91079312492673
 40
0.884938271604915
  0
CIRCLE
  8
_0-a_極細3
  6
CONTINUOUS
 62
    7
 10
991.41457841385898
 20
239.10190423603876
 40
0.884938271604915
  0
CIRCLE
  8
_0-a_極細3
  6
CONTINUOUS
 62
    7
 10
990.3923561916356
 20
344.627336334804
 40
2.9208503562902273
  0
CIRCLE
  8
_0-a_極細3
  6
CONTINUOUS
 62
    7
 10
995.10939322867239
 20
228.43178077924767
 40
2.9208503562902273
  0
ARC
  8
_0-b_細線3
  6
CONTINUOUS
 62
    7
 10
880.54901009293974
 20
435.33496608789881
 40
2.666666666666667
 50
89.999999999999915
 51
179.99999999999983
  0
ARC
  8
_0-b_細線3
  6
CONTINUOUS
 62
    7
 10
881.79687460314676
 20
440.6682994212324
 40
2.666666666666667
 50
269.99999999999977
 51
329.9999999999946
  0
ARC
  8
_0-b_細線3
  6
CONTINUOUS
 62
    7
 10
886.4156767566634
 20
438.00163275456595
 40
2.666666666666667
 50
89.999999999999915
 51
150.00000000000503
  0
LINE
  8
_0-b_細線3
  6
CONTINUOUS
 62
    7
 10
880.54901009293974
 20
438.00163275456595
 11
881.79687460314676
 21
438.00163275456595
  0
ARC
  8
_0-b_細線3
  6
CONTINUOUS
 62
    7
 10
905.615676753721
 20
435.33496608789881
 40
2.666666666666667
 50
0
 51
89.999999999999915
  0
ARC
  8
_0-b_細線3
  6
CONTINUOUS
 62
    7
 10
904.36781224351478
 20
440.6682994212324
 40
2.666666666666667
 50
210.00000000000347
 51
269.99999999999977
  0
ARC
  8
_0-b_細線3
  6
CONTINUOUS
 62
    7
 10
899.74901008999768
 20
438.00163275456595
 40
2.666666666666667
 50
29.999999999991321
 51
89.999999999999901
  0
LINE
  8
_0-b_細線3
  6
CONTINUOUS
 62
    7
 10
905.615676753721
 20
438.00163275456595
 11
904.36781224351478
 21
438.00163275456595
  0
ARC
  8
_0-b_細線3
  6
CONTINUOUS
 62
    7
 10
879.21567675960648
 20
431.60163275456597
 40
1.3333333333333335
 50
179.99999999999983
 51
269.99999999999977
  0
LINE
  8
_0-b_細線3
  6
CONTINUOUS
 62
    7
 10
877.88234342627334
 20
435.33496608789881
 11
877.88234342627334
 21
431.60163275456597
  0
ARC
  8
_0-b_細線3
  6
CONTINUOUS
 62
    7
 10
906.94901008705381
 20
431.60163275456597
 40
1.3333333333333335
 50
269.99999999999977
 51
359.99999999999966
  0
LINE
  8
_0-b_細線3
  6
CONTINUOUS
 62
    7
 10
908.2823434203882
 20
435.33496608789881
 11
908.2823434203882
 21
431.60163275456597
  0
ARC
  8
_0-b_細線3
  6
CONTINUOUS
 62
    7
 10
885.88234342627334
 20
427.60163275456597
 40
2.666666666666667
 50
0
 51
89.999999999999915
  0
LINE
  8
_0-b_細線3
  6
CONTINUOUS
 62
    7
 10
885.88234342627334
 20
430.26829942123237
 11
879.21567675960648
 21
430.26829942123237
  0
ARC
  8
_0-b_細線3
  6
CONTINUOUS
 62
    7
 10
900.28234342627297
 20
427.60163275456597
 40
2.666666666666667
 50
89.999999999999915
 51
179.99999999999983
  0
LINE
  8
_0-b_細線3
  6
CONTINUOUS
 62
    7
 10
900.28234342038672
 20
430.26829942123237
 11
906.94901008705381
 21
430.26829942123237
  0
LINE
  8
_0-b_細線3
  6
CONTINUOUS
 62
    7
 10
899.74901008999768
 20
440.6682994212324
 11
886.4156767566634
 21
440.6682994212324
  0
LINE
  8
_0-b_細線3
  6
CONTINUOUS
 62
    7
 10
888.54901008999695
 20
374.00163275456595
 11
888.54901009293974
 21
427.60163275456597
  0
LINE
  8
_0-b_細線3
  6
CONTINUOUS
 62
    7
 10
897.61567675666345
 20
374.00163275456595
 11
897.61567675960725
 21
427.60163275456597
  0
LINE
  8
_0-b_細線3
  6
CONTINUOUS
 62
    7
 10
897.61567675666345
 20
374.00163275456595
 11
888.54901008999695
 21
374.00163275456595
  0
ARC
  8
_0-b_細線3
  6
CONTINUOUS
 62
    7
 10
835.21567675864208
 20
435.33496608789881
 40
2.666666666666667
 50
89.999999999999915
 51
179.99999999999983
  0
ARC
  8
_0-b_細線3
  6
CONTINUOUS
 62
    7
 10
836.46354126884842
 20
440.6682994212324
 40
2.666666666666667
 50
269.99999999999977
 51
329.9999999999946
  0
ARC
  8
_0-b_細線3
  6
CONTINUOUS
 62
    7
 10
841.0823434223654
 20
438.00163275456595
 40
2.666666666666667
 50
89.999999999999915
 51
150.0000000000087
  0
LINE
  8
_0-b_細線3
  6
CONTINUOUS
 62
    7
 10
835.21567675864208
 20
438.00163275456595
 11
836.46354126884842
 21
438.00163275456595
  0
ARC
  8
_0-b_細線3
  6
CONTINUOUS
 62
    7
 10
860.28234341942232
 20
435.33496608789881
 40
2.666666666666667
 50
0
 51
89.999999999999915
  0
ARC
  8
_0-b_細線3
  6
CONTINUOUS
 62
    7
 10
859.03447890921598
 20
440.6682994212324
 40
2.666666666666667
 50
209.99999999999739
 51
269.99999999999977
  0
ARC
  8
_0-b_細線3
  6
CONTINUOUS
 62
    7
 10
854.415676755699
 20
438.00163275456595
 40
2.666666666666667
 50
29.99999999999865
 51
89.999999999999901
  0
LINE
  8
_0-b_細線3
  6
CONTINUOUS
 62
    7
 10
860.28234341942232
 20
438.00163275456595
 11
859.03447890921598
 21
438.00163275456595
  0
ARC
  8
_0-b_細線3
  6
CONTINUOUS
 62
    7
 10
833.88234342530848
 20
431.60163275456597
 40
1.3333333333333335
 50
179.99999999999983
 51
269.99999999999977
  0
LINE
  8
_0-b_細線3
  6
CONTINUOUS
 62
    7
 10
832.54901009197499
 20
435.33496608789881
 11
832.54901009197499
 21
431.60163275456597
  0
ARC
  8
_0-b_細線3
  6
CONTINUOUS
 62
    7
 10
861.6156767527558
 20
431.60163275456597
 40
1.3333333333333335
 50
269.99999999999977
 51
359.99999999999966
  0
LINE
  8
_0-b_細線3
  6
CONTINUOUS
 62
    7
 10
862.9490100860894
 20
435.33496608789881
 11
862.9490100860894
 21
431.60163275456597
  0
ARC
  8
_0-b_細線3
  6
CONTINUOUS
 62
    7
 10
840.54901009197499
 20
427.60163275456597
 40
2.666666666666667
 50
0
 51
89.999999999999915
  0
LINE
  8
_0-b_細線3
  6
CONTINUOUS
 62
    7
 10
840.54901009197499
 20
430.26829942123237
 11
833.88234342530848
 21
430.26829942123237
  0
ARC
  8
_0-b_細線3
  6
CONTINUOUS
 62
    7
 10
854.94901009197565
 20
427.60163275456597
 40
2.666666666666667
 50
89.999999999999915
 51
179.99999999999983
  0
LINE
  8
_0-b_細線3
  6
CONTINUOUS
 62
    7
 10
854.9490100860894
 20
430.26829942123237
 11
861.6156767527558
 21
430.26829942123237
  0
LINE
  8
_0-b_細線3
  6
CONTINUOUS
 62
    7
 10
854.415676755699
 20
440.6682994212324
 11
841.0823434223654
 21
440.6682994212324
  0
LINE
  8
_0-b_細線3
  6
CONTINUOUS
 62
    7
 10
843.21567675569895
 20
374.00163275456595
 11
843.21567675864208
 21
427.60163275456597
  0
LINE
  8
_0-b_細線3
  6
CONTINUOUS
 62
    7
 10
852.28234342236544
 20
374.00163275456595
 11
852.28234342530857
 21
427.60163275456597
  0
LINE
  8
_0-b_細線3
  6
CONTINUOUS
 62
    7
 10
852.28234342236544
 20
374.00163275456595
 11
843.21567675569895
 21
374.00163275456595
  0
ARC
  8
_0-b_細線3
  6
CONTINUOUS
 62
    7
 10
789.88234342434373
 20
435.33496608789881
 40
2.666666666666667
 50
89.999999999999915
 51
179.99999999999983
  0
ARC
  8
_0-b_細線3
  6
CONTINUOUS
 62
    7
 10
791.13020793455075
 20
440.6682994212324
 40
2.666666666666667
 50
269.99999999999977
 51
329.9999999999946
  0
ARC
  8
_0-b_細線3
  6
CONTINUOUS
 62
    7
 10
795.74901008806773
 20
438.00163275456595
 40
2.666666666666667
 50
89.999999999999915
 51
150.0000000000087
  0
LINE
  8
_0-b_細線3
  6
CONTINUOUS
 62
    7
 10
789.88234342434373
 20
438.00163275456595
 11
791.13020793455075
 21
438.00163275456595
  0
ARC
  8
_0-b_細線3
  6
CONTINUOUS
 62
    7
 10
814.94901008512466
 20
435.33496608789881
 40
2.666666666666667
 50
0
 51
89.999999999999915
  0
ARC
  8
_0-b_細線3
  6
CONTINUOUS
 62
    7
 10
813.70114557491763
 20
440.6682994212324
 40
2.666666666666667
 50
210.00000000000469
 51
269.99999999999977
  0
ARC
  8
_0-b_細線3
  6
CONTINUOUS
 62
    7
 10
809.08234342140065
 20
438.00163275456595
 40
2.666666666666667
 50
29.999999999991321
 51
89.999999999985349
  0
LINE
  8
_0-b_細線3
  6
CONTINUOUS
 62
    7
 10
814.94901008512466
 20
438.00163275456595
 11
813.70114557491763
 21
438.00163275456595
  0
ARC
  8
_0-b_細線3
  6
CONTINUOUS
 62
    7
 10
788.54901009101013
 20
431.60163275456597
 40
1.3333333333333335
 50
179.99999999999983
 51
269.99999999999977
  0
LINE
  8
_0-b_細線3
  6
CONTINUOUS
 62
    7
 10
787.21567675767733
 20
435.33496608789881
 11
787.21567675767733
 21
431.60163275456597
  0
ARC
  8
_0-b_細線3
  6
CONTINUOUS
 62
    7
 10
816.28234341845825
 20
431.60163275456597
 40
1.3333333333333335
 50
269.99999999999977
 51
359.99999999999966
  0
LINE
  8
_0-b_細線3
  6
CONTINUOUS
 62
    7
 10
817.61567675179106
 20
435.33496608789881
 11
817.61567675179106
 21
431.60163275456597
  0
ARC
  8
_0-b_細線3
  6
CONTINUOUS
 62
    7
 10
795.21567675767733
 20
427.60163275456597
 40
2.666666666666667
 50
0
 51
89.999999999999915
  0
LINE
  8
_0-b_細線3
  6
CONTINUOUS
 62
    7
 10
795.21567675767733
 20
430.26829942123237
 11
788.54901009101013
 21
430.26829942123237
  0
ARC
  8
_0-b_細線3
  6
CONTINUOUS
 62
    7
 10
809.61567675767731
 20
427.60163275456597
 40
2.666666666666667
 50
89.999999999999915
 51
179.99999999999983
  0
LINE
  8
_0-b_細線3
  6
CONTINUOUS
 62
    7
 10
809.61567675179106
 20
430.26829942123237
 11
816.28234341845825
 21
430.26829942123237
  0
LINE
  8
_0-b_細線3
  6
CONTINUOUS
 62
    7
 10
809.08234342140065
 20
440.6682994212324
 11
795.74901008806773
 21
440.6682994212324
  0
LINE
  8
_0-b_細線3
  6
CONTINUOUS
 62
    7
 10
797.88234342140061
 20
374.00163275456595
 11
797.88234342434373
 21
427.60163275456597
  0
LINE
  8
_0-b_細線3
  6
CONTINUOUS
 62
    7
 10
806.94901008806778
 20
374.00163275456595
 11
806.9490100910109
 21
427.60163275456597
  0
LINE
  8
_0-b_細線3
  6
CONTINUOUS
 62
    7
 10
806.94901008806778
 20
374.00163275456595
 11
797.88234342140061
 21
374.00163275456595
  0
ARC
  8
_0-b_細線3
  6
CONTINUOUS
 62
    7
 10
699.21567675574772
 20
435.33496608789881
 40
2.666666666666667
 50
89.999999999999915
 51
179.99999999999983
  0
ARC
  8
_0-b_細線3
  6
CONTINUOUS
 62
    7
 10
700.46354126595475
 20
440.6682994212324
 40
2.666666666666667
 50
269.99999999999977
 51
329.9999999999946
  0
ARC
  8
_0-b_細線3
  6
CONTINUOUS
 62
    7
 10
705.08234341947173
 20
438.00163275456595
 40
2.666666666666667
 50
89.999999999999915
 51
150.0000000000087
  0
LINE
  8
_0-b_細線3
  6
CONTINUOUS
 62
    7
 10
699.21567675574772
 20
438.00163275456595
 11
700.46354126595475
 21
438.00163275456595
  0
ARC
  8
_0-b_細線3
  6
CONTINUOUS
 62
    7
 10
724.28234341652865
 20
435.33496608789881
 40
2.666666666666667
 50
0
 51
89.999999999999915
  0
ARC
  8
_0-b_細線3
  6
CONTINUOUS
 62
    7
 10
723.03447890632231
 20
440.6682994212324
 40
2.666666666666667
 50
209.99999999999739
 51
269.99999999999977
  0
ARC
  8
_0-b_細線3
  6
CONTINUOUS
 62
    7
 10
718.41567675280464
 20
438.00163275456595
 40
2.666666666666667
 50
29.999999999991321
 51
89.999999999985349
  0
LINE
  8
_0-b_細線3
  6
CONTINUOUS
 62
    7
 10
724.28234341652865
 20
438.00163275456595
 11
723.03447890632231
 21
438.00163275456595
  0
ARC
  8
_0-b_細線3
  6
CONTINUOUS
 62
    7
 10
697.88234342241412
 20
431.60163275456597
 40
1.3333333333333335
 50
179.99999999999983
 51
269.99999999999977
  0
LINE
  8
_0-b_細線3
  6
CONTINUOUS
 62
    7
 10
696.54901008908132
 20
435.33496608789881
 11
696.54901008908132
 21
431.60163275456597
  0
ARC
  8
_0-b_細線3
  6
CONTINUOUS
 62
    7
 10
725.61567674986225
 20
431.60163275456597
 40
1.3333333333333335
 50
269.99999999999977
 51
359.99999999999966
  0
LINE
  8
_0-b_細線3
  6
CONTINUOUS
 62
    7
 10
726.94901008319573
 20
435.33496608789881
 11
726.94901008319573
 21
431.60163275456597
  0
ARC
  8
_0-b_細線3
  6
CONTINUOUS
 62
    7
 10
704.54901008908132
 20
427.60163275456597
 40
2.666666666666667
 50
0
 51
89.999999999999915
  0
LINE
  8
_0-b_細線3
  6
CONTINUOUS
 62
    7
 10
704.54901008908132
 20
430.26829942123237
 11
697.88234342241412
 21
430.26829942123237
  0
ARC
  8
_0-b_細線3
  6
CONTINUOUS
 62
    7
 10
718.9490100890813
 20
427.60163275456597
 40
2.666666666666667
 50
89.999999999999915
 51
179.99999999999983
  0
LINE
  8
_0-b_細線3
  6
CONTINUOUS
 62
    7
 10
718.94901008319505
 20
430.26829942123237
 11
725.61567674986225
 21
430.26829942123237
  0
LINE
  8
_0-b_細線3
  6
CONTINUOUS
 62
    7
 10
718.41567675280464
 20
440.6682994212324
 11
705.08234341947173
 21
440.6682994212324
  0
LINE
  8
_0-b_細線3
  6
CONTINUOUS
 62
    7
 10
707.21567675280528
 20
374.00163275456595
 11
707.21567675574772
 21
427.60163275456597
  0
LINE
  8
_0-b_細線3
  6
CONTINUOUS
 62
    7
 10
716.28234341947177
 20
374.00163275456595
 11
716.2823434224149
 21
427.60163275456597
  0
LINE
  8
_0-b_細線3
  6
CONTINUOUS
 62
    7
 10
716.28234341947177
 20
374.00163275456595
 11
707.21567675280528
 21
374.00163275456595
  0
ARC
  8
_0-b_細線3
  6
CONTINUOUS
 62
    7
 10
653.88234342144938
 20
435.33496608789881
 40
2.666666666666667
 50
89.999999999999915
 51
179.99999999999983
  0
ARC
  8
_0-b_細線3
  6
CONTINUOUS
 62
    7
 10
655.13020793165629
 20
440.6682994212324
 40
2.666666666666667
 50
269.99999999999977
 51
329.99999999999579
  0
ARC
  8
_0-b_細線3
  6
CONTINUOUS
 62
    7
 10
659.74901008517338
 20
438.00163275456595
 40
2.666666666666667
 50
89.999999999999915
 51
150.0000000000087
  0
LINE
  8
_0-b_細線3
  6
CONTINUOUS
 62
    7
 10
653.88234342144938
 20
438.00163275456595
 11
655.13020793165629
 21
438.00163275456595
  0
ARC
  8
_0-b_細線3
  6
CONTINUOUS
 62
    7
 10
678.94901008223019
 20
435.33496608789881
 40
2.666666666666667
 50
0
 51
89.999999999999915
  0
ARC
  8
_0-b_細線3
  6
CONTINUOUS
 62
    7
 10
677.70114557202328
 20
440.6682994212324
 40
2.666666666666667
 50
210.00000000000347
 51
269.99999999999977
  0
ARC
  8
_0-b_細線3
  6
CONTINUOUS
 62
    7
 10
673.08234341850698
 20
438.00163275456595
 40
2.666666666666667
 50
29.999999999999872
 51
89.999999999999901
  0
LINE
  8
_0-b_細線3
  6
CONTINUOUS
 62
    7
 10
678.94901008223019
 20
438.00163275456595
 11
677.70114557202328
 21
438.00163275456595
  0
ARC
  8
_0-b_細線3
  6
CONTINUOUS
 62
    7
 10
652.54901008811646
 20
431.60163275456597
 40
1.3333333333333335
 50
179.99999999999983
 51
269.99999999999977
  0
LINE
  8
_0-b_細線3
  6
CONTINUOUS
 62
    7
 10
651.21567675478286
 20
435.33496608789881
 11
651.21567675478286
 21
431.60163275456597
  0
ARC
  8
_0-b_細線3
  6
CONTINUOUS
 62
    7
 10
680.28234341556379
 20
431.60163275456597
 40
1.3333333333333335
 50
269.99999999999977
 51
359.99999999999966
  0
LINE
  8
_0-b_細線3
  6
CONTINUOUS
 62
    7
 10
681.6156767488967
 20
435.33496608789881
 11
681.6156767488967
 21
431.60163275456597
  0
ARC
  8
_0-b_細線3
  6
CONTINUOUS
 62
    7
 10
659.21567675478286
 20
427.60163275456597
 40
2.666666666666667
 50
0
 51
89.999999999999915
  0
LINE
  8
_0-b_細線3
  6
CONTINUOUS
 62
    7
 10
659.21567675478286
 20
430.26829942123237
 11
652.54901008811646
 21
430.26829942123237
  0
ARC
  8
_0-b_細線3
  6
CONTINUOUS
 62
    7
 10
673.61567675478295
 20
427.60163275456597
 40
2.666666666666667
 50
89.999999999999915
 51
179.99999999999983
  0
LINE
  8
_0-b_細線3
  6
CONTINUOUS
 62
    7
 10
673.6156767488967
 20
430.26829942123237
 11
680.28234341556379
 21
430.26829942123237
  0
LINE
  8
_0-b_細線3
  6
CONTINUOUS
 62
    7
 10
673.08234341850698
 20
440.6682994212324
 11
659.74901008517338
 21
440.6682994212324
  0
LINE
  8
_0-b_細線3
  6
CONTINUOUS
 62
    7
 10
661.88234341850625
 20
374.00163275456595
 11
661.88234342144938
 21
427.60163275456597
  0
LINE
  8
_0-b_細線3
  6
CONTINUOUS
 62
    7
 10
670.94901008517331
 20
374.00163275456595
 11
670.94901008811644
 21
427.60163275456597
  0
LINE
  8
_0-b_細線3
  6
CONTINUOUS
 62
    7
 10
670.94901008517331
 20
374.00163275456595
 11
661.88234341850625
 21
374.00163275456595
  0
ARC
  8
_0-b_細線3
  6
CONTINUOUS
 62
    7
 10
608.54901008715092
 20
435.33496608789881
 40
2.666666666666667
 50
89.999999999999915
 51
179.99999999999983
  0
ARC
  8
_0-b_細線3
  6
CONTINUOUS
 62
    7
 10
609.79687459735794
 20
440.6682994212324
 40
2.666666666666667
 50
269.99999999999977
 51
329.9999999999946
  0
ARC
  8
_0-b_細線3
  6
CONTINUOUS
 62
    7
 10
614.41567675087504
 20
438.00163275456595
 40
2.666666666666667
 50
89.999999999999915
 51
150.00000000000992
  0
LINE
  8
_0-b_細線3
  6
CONTINUOUS
 62
    7
 10
608.54901008715092
 20
438.00163275456595
 11
609.79687459735794
 21
438.00163275456595
  0
ARC
  8
_0-b_細線3
  6
CONTINUOUS
 62
    7
 10
633.61567674793184
 20
435.33496608789881
 40
2.666666666666667
 50
0
 51
89.999999999999915
  0
ARC
  8
_0-b_細線3
  6
CONTINUOUS
 62
    7
 10
632.36781223772562
 20
440.6682994212324
 40
2.666666666666667
 50
209.99999999999616
 51
269.99999999999977
  0
ARC
  8
_0-b_細線3
  6
CONTINUOUS
 62
    7
 10
627.74901008420784
 20
438.00163275456595
 40
2.666666666666667
 50
29.999999999991321
 51
89.999999999985349
  0
LINE
  8
_0-b_細線3
  6
CONTINUOUS
 62
    7
 10
633.61567674793184
 20
438.00163275456595
 11
632.36781223772562
 21
438.00163275456595
  0
ARC
  8
_0-b_細線3
  6
CONTINUOUS
 62
    7
 10
607.21567675381812
 20
431.60163275456597
 40
1.3333333333333335
 50
179.99999999999983
 51
269.99999999999977
  0
LINE
  8
_0-b_細線3
  6
CONTINUOUS
 62
    7
 10
605.88234342048452
 20
435.33496608789881
 11
605.88234342048452
 21
431.60163275456597
  0
ARC
  8
_0-b_細線3
  6
CONTINUOUS
 62
    7
 10
634.94901008126544
 20
431.60163275456597
 40
1.3333333333333335
 50
269.99999999999977
 51
359.99999999999966
  0
LINE
  8
_0-b_細線3
  6
CONTINUOUS
 62
    7
 10
636.28234341459904
 20
435.33496608789881
 11
636.28234341459904
 21
431.60163275456597
  0
ARC
  8
_0-b_細線3
  6
CONTINUOUS
 62
    7
 10
613.88234342048452
 20
427.60163275456597
 40
2.666666666666667
 50
0
 51
89.999999999999915
  0
LINE
  8
_0-b_細線3
  6
CONTINUOUS
 62
    7
 10
613.88234342048452
 20
430.26829942123237
 11
607.21567675381812
 21
430.26829942123237
  0
ARC
  8
_0-b_細線3
  6
CONTINUOUS
 62
    7
 10
628.28234342048449
 20
427.60163275456597
 40
2.666666666666667
 50
89.999999999999915
 51
179.99999999999983
  0
LINE
  8
_0-b_細線3
  6
CONTINUOUS
 62
    7
 10
628.28234341459824
 20
430.26829942123237
 11
634.94901008126544
 21
430.26829942123237
  0
LINE
  8
_0-b_細線3
  6
CONTINUOUS
 62
    7
 10
627.74901008420784
 20
440.6682994212324
 11
614.41567675087504
 21
440.6682994212324
  0
LINE
  8
_0-b_細線3
  6
CONTINUOUS
 62
    7
 10
616.54901008420859
 20
374.00163275456595
 11
616.54901008715092
 21
427.60163275456597
  0
LINE
  8
_0-b_細線3
  6
CONTINUOUS
 62
    7
 10
625.61567675087497
 20
374.00163275456595
 11
625.61567675381809
 21
427.60163275456597
  0
LINE
  8
_0-b_細線3
  6
CONTINUOUS
 62
    7
 10
625.61567675087497
 20
374.00163275456595
 11
616.54901008420859
 21
374.00163275456595
  0
ARC
  8
_0-b_細線3
  6
CONTINUOUS
 62
    7
 10
925.88234342673138
 20
435.33496608789881
 40
2.666666666666667
 50
89.999999999999915
 51
179.99999999999983
  0
ARC
  8
_0-b_細線3
  6
CONTINUOUS
 62
    7
 10
927.13020793693761
 20
440.6682994212324
 40
2.666666666666667
 50
269.99999999999977
 51
329.9999999999946
  0
ARC
  8
_0-b_細線3
  6
CONTINUOUS
 62
    7
 10
931.74901009045459
 20
438.00163275456595
 40
2.666666666666667
 50
89.999999999999915
 51
150.0000000000087
  0
LINE
  8
_0-b_細線3
  6
CONTINUOUS
 62
    7
 10
925.88234342673138
 20
438.00163275456595
 11
927.13020793693761
 21
438.00163275456595
  0
ARC
  8
_0-b_細線3
  6
CONTINUOUS
 62
    7
 10
950.94901008751219
 20
435.33496608789881
 40
2.666666666666667
 50
0
 51
89.999999999999915
  0
ARC
  8
_0-b_細線3
  6
CONTINUOUS
 62
    7
 10
949.70114557730449
 20
440.6682994212324
 40
2.666666666666667
 50
210.00000000000469
 51
269.99999999999977
  0
ARC
  8
_0-b_細線3
  6
CONTINUOUS
 62
    7
 10
945.08234342378751
 20
438.00163275456595
 40
2.666666666666667
 50
29.999999999991321
 51
89.999999999999901
  0
LINE
  8
_0-b_細線3
  6
CONTINUOUS
 62
    7
 10
950.94901008751219
 20
438.00163275456595
 11
949.70114557730449
 21
438.00163275456595
  0
ARC
  8
_0-b_細線3
  6
CONTINUOUS
 62
    7
 10
924.54901009339846
 20
431.60163275456597
 40
1.3333333333333335
 50
179.99999999999983
 51
269.99999999999977
  0
LINE
  8
_0-b_細線3
  6
CONTINUOUS
 62
    7
 10
923.21567676006418
 20
435.33496608789881
 11
923.21567676006418
 21
431.60163275456597
  0
ARC
  8
_0-b_細線3
  6
CONTINUOUS
 62
    7
 10
952.28234342084511
 20
431.60163275456597
 40
1.3333333333333335
 50
269.99999999999977
 51
359.99999999999966
  0
LINE
  8
_0-b_細線3
  6
CONTINUOUS
 62
    7
 10
953.61567675417791
 20
435.33496608789881
 11
953.61567675417791
 21
431.60163275456597
  0
ARC
  8
_0-b_細線3
  6
CONTINUOUS
 62
    7
 10
931.21567676006418
 20
427.60163275456597
 40
2.666666666666667
 50
0
 51
89.999999999999915
  0
LINE
  8
_0-b_細線3
  6
CONTINUOUS
 62
    7
 10
931.21567676006418
 20
430.26829942123237
 11
924.54901009339846
 21
430.26829942123237
  0
ARC
  8
_0-b_細線3
  6
CONTINUOUS
 62
    7
 10
945.61567676006416
 20
427.60163275456597
 40
2.666666666666667
 50
89.999999999999915
 51
179.99999999999983
  0
LINE
  8
_0-b_細線3
  6
CONTINUOUS
 62
    7
 10
945.61567675417791
 20
430.26829942123237
 11
952.28234342084511
 21
430.26829942123237
  0
LINE
  8
_0-b_細線3
  6
CONTINUOUS
 62
    7
 10
945.08234342378751
 20
440.6682994212324
 11
931.74901009045459
 21
440.6682994212324
  0
LINE
  8
_0-b_細線3
  6
CONTINUOUS
 62
    7
 10
933.88234342378894
 20
374.00163275456595
 11
933.88234342673138
 21
427.60163275456597
  0
LINE
  8
_0-b_細線3
  6
CONTINUOUS
 62
    7
 10
942.94901009045464
 20
374.00163275456595
 11
942.94901009339844
 21
427.60163275456597
  0
LINE
  8
_0-b_細線3
  6
CONTINUOUS
 62
    7
 10
942.94901009045464
 20
374.00163275456595
 11
933.88234342378894
 21
374.00163275456595
  0
ARC
  8
_0-b_細線3
  6
CONTINUOUS
 62
    7
 10
562.14901008715094
 20
435.33496608789881
 40
2.666666666666667
 50
89.999999999999915
 51
179.99999999999983
  0
ARC
  8
_0-b_細線3
  6
CONTINUOUS
 62
    7
 10
563.39687459735796
 20
440.6682994212324
 40
2.666666666666667
 50
269.99999999999977
 51
329.9999999999946
  0
ARC
  8
_0-b_細線3
  6
CONTINUOUS
 62
    7
 10
568.01567675087495
 20
438.00163275456595
 40
2.666666666666667
 50
89.999999999999915
 51
150.0000000000087
  0
LINE
  8
_0-b_細線3
  6
CONTINUOUS
 62
    7
 10
562.14901008715094
 20
438.00163275456595
 11
563.39687459735796
 21
438.00163275456595
  0
ARC
  8
_0-b_細線3
  6
CONTINUOUS
 62
    7
 10
587.21567674793187
 20
435.33496608789881
 40
2.666666666666667
 50
0
 51
89.999999999999915
  0
ARC
  8
_0-b_細線3
  6
CONTINUOUS
 62
    7
 10
585.96781223772564
 20
440.6682994212324
 40
2.666666666666667
 50
209.99999999999616
 51
269.99999999999977
  0
ARC
  8
_0-b_細線3
  6
CONTINUOUS
 62
    7
 10
581.34901008420786
 20
438.00163275456595
 40
2.666666666666667
 50
29.999999999991321
 51
89.999999999985349
  0
LINE
  8
_0-b_細線3
  6
CONTINUOUS
 62
    7
 10
587.21567674793187
 20
438.00163275456595
 11
585.96781223772564
 21
438.00163275456595
  0
ARC
  8
_0-b_細線3
  6
CONTINUOUS
 62
    7
 10
560.81567675381814
 20
431.60163275456597
 40
1.3333333333333335
 50
179.99999999999983
 51
269.99999999999977
  0
LINE
  8
_0-b_細線3
  6
CONTINUOUS
 62
    7
 10
559.48234342048454
 20
435.33496608789881
 11
559.48234342048454
 21
431.60163275456597
  0
ARC
  8
_0-b_細線3
  6
CONTINUOUS
 62
    7
 10
588.54901008126546
 20
431.60163275456597
 40
1.3333333333333335
 50
269.99999999999977
 51
359.99999999999966
  0
LINE
  8
_0-b_細線3
  6
CONTINUOUS
 62
    7
 10
589.88234341459906
 20
435.33496608789881
 11
589.88234341459906
 21
431.60163275456597
  0
ARC
  8
_0-b_細線3
  6
CONTINUOUS
 62
    7
 10
567.48234342048454
 20
427.60163275456597
 40
2.666666666666667
 50
0
 51
89.999999999999915
  0
LINE
  8
_0-b_細線3
  6
CONTINUOUS
 62
    7
 10
567.48234342048454
 20
430.26829942123237
 11
560.81567675381814
 21
430.26829942123237
  0
ARC
  8
_0-b_細線3
  6
CONTINUOUS
 62
    7
 10
581.88234342048452
 20
427.60163275456597
 40
2.666666666666667
 50
89.999999999999915
 51
179.99999999999983
  0
LINE
  8
_0-b_細線3
  6
CONTINUOUS
 62
    7
 10
581.88234341459827
 20
430.26829942123237
 11
588.54901008126546
 21
430.26829942123237
  0
LINE
  8
_0-b_細線3
  6
CONTINUOUS
 62
    7
 10
581.34901008420786
 20
440.6682994212324
 11
568.01567675087495
 21
440.6682994212324
  0
LINE
  8
_0-b_細線3
  6
CONTINUOUS
 62
    7
 10
570.14901008420861
 20
374.00163275456595
 11
570.14901008715094
 21
427.60163275456597
  0
LINE
  8
_0-b_細線3
  6
CONTINUOUS
 62
    7
 10
579.21567675087499
 20
374.00163275456595
 11
579.21567675381812
 21
427.60163275456597
  0
LINE
  8
_0-b_細線3
  6
CONTINUOUS
 62
    7
 10
579.21567675087499
 20
374.00163275456595
 11
570.14901008420861
 21
374.00163275456595
  0
ARC
  8
_0-b_細線3
  6
CONTINUOUS
 62
    7
 10
515.7490100861869
 20
435.33496608789881
 40
2.666666666666667
 50
89.999999999999915
 51
179.99999999999983
  0
ARC
  8
_0-b_細線3
  6
CONTINUOUS
 62
    7
 10
516.99687459639313
 20
440.6682994212324
 40
2.666666666666667
 50
269.99999999999977
 51
329.99999999999579
  0
ARC
  8
_0-b_細線3
  6
CONTINUOUS
 62
    7
 10
521.61567674991022
 20
438.00163275456595
 40
2.666666666666667
 50
89.999999999999915
 51
150.0000000000087
  0
LINE
  8
_0-b_細線3
  6
CONTINUOUS
 62
    7
 10
515.7490100861869
 20
438.00163275456595
 11
516.99687459639313
 21
438.00163275456595
  0
ARC
  8
_0-b_細線3
  6
CONTINUOUS
 62
    7
 10
540.81567674696782
 20
435.33496608789881
 40
2.666666666666667
 50
0
 51
89.999999999999915
  0
ARC
  8
_0-b_細線3
  6
CONTINUOUS
 62
    7
 10
539.5678122367608
 20
440.6682994212324
 40
2.666666666666667
 50
210.00000000000469
 51
269.99999999999977
  0
ARC
  8
_0-b_細線3
  6
CONTINUOUS
 62
    7
 10
534.94901008324382
 20
438.00163275456595
 40
2.666666666666667
 50
29.999999999991321
 51
89.999999999999901
  0
LINE
  8
_0-b_細線3
  6
CONTINUOUS
 62
    7
 10
540.81567674696782
 20
438.00163275456595
 11
539.5678122367608
 21
438.00163275456595
  0
ARC
  8
_0-b_細線3
  6
CONTINUOUS
 62
    7
 10
514.4156767528533
 20
431.60163275456597
 40
1.3333333333333335
 50
179.99999999999983
 51
269.99999999999977
  0
LINE
  8
_0-b_細線3
  6
CONTINUOUS
 62
    7
 10
513.0823434195197
 20
435.33496608789881
 11
513.0823434195197
 21
431.60163275456597
  0
ARC
  8
_0-b_細線3
  6
CONTINUOUS
 62
    7
 10
542.14901008030142
 20
431.60163275456597
 40
1.3333333333333335
 50
269.99999999999977
 51
359.99999999999966
  0
LINE
  8
_0-b_細線3
  6
CONTINUOUS
 62
    7
 10
543.48234341363423
 20
435.33496608789881
 11
543.48234341363423
 21
431.60163275456597
  0
ARC
  8
_0-b_細線3
  6
CONTINUOUS
 62
    7
 10
521.0823434195197
 20
427.60163275456597
 40
2.666666666666667
 50
0
 51
89.999999999999915
  0
LINE
  8
_0-b_細線3
  6
CONTINUOUS
 62
    7
 10
521.0823434195197
 20
430.26829942123237
 11
514.4156767528533
 21
430.26829942123237
  0
ARC
  8
_0-b_細線3
  6
CONTINUOUS
 62
    7
 10
535.48234341952048
 20
427.60163275456597
 40
2.666666666666667
 50
89.999999999999915
 51
179.99999999999983
  0
LINE
  8
_0-b_細線3
  6
CONTINUOUS
 62
    7
 10
535.48234341363423
 20
430.26829942123237
 11
542.14901008030142
 21
430.26829942123237
  0
LINE
  8
_0-b_細線3
  6
CONTINUOUS
 62
    7
 10
534.94901008324382
 20
440.6682994212324
 11
521.61567674991022
 21
440.6682994212324
  0
LINE
  8
_0-b_細線3
  6
CONTINUOUS
 62
    7
 10
523.74901008324377
 20
374.00163275456595
 11
523.7490100861869
 21
427.60163275456597
  0
LINE
  8
_0-b_細線3
  6
CONTINUOUS
 62
    7
 10
532.81567674991015
 20
374.00163275456595
 11
532.81567675285328
 21
427.60163275456597
  0
LINE
  8
_0-b_細線3
  6
CONTINUOUS
 62
    7
 10
532.81567674991015
 20
374.00163275456595
 11
523.74901008324377
 21
374.00163275456595
  0
ARC
  8
_0-b_細線3
  6
CONTINUOUS
 62
    7
 10
972.28234342769611
 20
435.33496608789881
 40
2.666666666666667
 50
89.999999999999915
 51
179.99999999999983
  0
ARC
  8
_0-b_細線3
  6
CONTINUOUS
 62
    7
 10
973.53020793790245
 20
440.6682994212324
 40
2.666666666666667
 50
269.99999999999977
 51
329.9999999999946
  0
ARC
  8
_0-b_細線3
  6
CONTINUOUS
 62
    7
 10
978.14901009141943
 20
438.00163275456595
 40
2.666666666666667
 50
89.999999999999915
 51
150.0000000000087
  0
LINE
  8
_0-b_細線3
  6
CONTINUOUS
 62
    7
 10
972.28234342769611
 20
438.00163275456595
 11
973.53020793790245
 21
438.00163275456595
  0
ARC
  8
_0-b_細線3
  6
CONTINUOUS
 62
    7
 10
997.34901008847703
 20
435.33496608789881
 40
2.666666666666667
 50
0
 51
89.999999999999915
  0
ARC
  8
_0-b_細線3
  6
CONTINUOUS
 62
    7
 10
996.10114557826932
 20
440.6682994212324
 40
2.666666666666667
 50
210.00000000000469
 51
269.99999999999977
  0
ARC
  8
_0-b_細線3
  6
CONTINUOUS
 62
    7
 10
991.48234342475223
 20
438.00163275456595
 40
2.666666666666667
 50
29.999999999990099
 51
89.999999999968239
  0
LINE
  8
_0-b_細線3
  6
CONTINUOUS
 62
    7
 10
997.34901008847703
 20
438.00163275456595
 11
996.10114557826932
 21
438.00163275456595
  0
ARC
  8
_0-b_細線3
  6
CONTINUOUS
 62
    7
 10
970.94901009436182
 20
431.60163275456597
 40
1.3333333333333335
 50
179.99999999999983
 51
269.99999999999977
  0
LINE
  8
_0-b_細線3
  6
CONTINUOUS
 62
    7
 10
969.61567676102902
 20
435.33496608789881
 11
969.61567676102902
 21
431.60163275456597
  0
ARC
  8
_0-b_細線3
  6
CONTINUOUS
 62
    7
 10
998.68234342180983
 20
431.60163275456597
 40
1.3333333333333335
 50
269.99999999999977
 51
359.99999999999966
  0
LINE
  8
_0-b_細線3
  6
CONTINUOUS
 62
    7
 10
1000.0156767551427
 20
435.33496608789881
 11
1000.0156767551427
 21
431.60163275456597
  0
ARC
  8
_0-b_細線3
  6
CONTINUOUS
 62
    7
 10
977.61567676102902
 20
427.60163275456597
 40
2.666666666666667
 50
0
 51
89.999999999999915
  0
LINE
  8
_0-b_細線3
  6
CONTINUOUS
 62
    7
 10
977.61567676102902
 20
430.26829942123237
 11
970.94901009436182
 21
430.26829942123237
  0
ARC
  8
_0-b_細線3
  6
CONTINUOUS
 62
    7
 10
992.015676761029
 20
427.60163275456597
 40
2.666666666666667
 50
89.999999999999915
 51
179.99999999999983
  0
LINE
  8
_0-b_細線3
  6
CONTINUOUS
 62
    7
 10
992.01567675514275
 20
430.26829942123237
 11
998.68234342180983
 21
430.26829942123237
  0
LINE
  8
_0-b_細線3
  6
CONTINUOUS
 62
    7
 10
991.48234342475223
 20
440.6682994212324
 11
978.14901009141943
 21
440.6682994212324
  0
LINE
  8
_0-b_細線3
  6
CONTINUOUS
 62
    7
 10
980.2823434247523
 20
374.00163275456595
 11
980.28234342769611
 21
427.60163275456597
  0
LINE
  8
_0-b_細線3
  6
CONTINUOUS
 62
    7
 10
989.34901009141947
 20
374.00163275456595
 11
989.34901009436328
 21
427.60163275456597
  0
LINE
  8
_0-b_細線3
  6
CONTINUOUS
 62
    7
 10
989.34901009141947
 20
374.00163275456595
 11
980.2823434247523
 21
374.00163275456595
  0
ARC
  8
_0-b_細線3
  6
CONTINUOUS
 62
    7
 10
1018.6823434272377
 20
435.33496608789881
 40
2.666666666666667
 50
89.999999999999915
 51
179.99999999999983
  0
ARC
  8
_0-b_細線3
  6
CONTINUOUS
 62
    7
 10
1019.930207937444
 20
440.6682994212324
 40
2.666666666666667
 50
269.99999999999977
 51
329.9999999999946
  0
ARC
  8
_0-b_細線3
  6
CONTINUOUS
 62
    7
 10
1024.549010090961
 20
438.00163275456595
 40
2.666666666666667
 50
89.999999999999915
 51
150.0000000000087
  0
LINE
  8
_0-b_細線3
  6
CONTINUOUS
 62
    7
 10
1018.6823434272377
 20
438.00163275456595
 11
1019.930207937444
 21
438.00163275456595
  0
ARC
  8
_0-b_細線3
  6
CONTINUOUS
 62
    7
 10
1043.7490100880186
 20
435.33496608789881
 40
2.666666666666667
 50
0
 51
89.999999999999915
  0
ARC
  8
_0-b_細線3
  6
CONTINUOUS
 62
    7
 10
1042.5011455778124
 20
440.6682994212324
 40
2.666666666666667
 50
209.99999999998883
 51
269.99999999999977
  0
ARC
  8
_0-b_細線3
  6
CONTINUOUS
 62
    7
 10
1037.8823434242954
 20
438.00163275456595
 40
2.666666666666667
 50
30.000000000007198
 51
89.999999999999901
  0
LINE
  8
_0-b_細線3
  6
CONTINUOUS
 62
    7
 10
1043.7490100880186
 20
438.00163275456595
 11
1042.5011455778124
 21
438.00163275456595
  0
ARC
  8
_0-b_細線3
  6
CONTINUOUS
 62
    7
 10
1017.3490100939049
 20
431.60163275456597
 40
1.3333333333333335
 50
179.99999999999983
 51
269.99999999999977
  0
LINE
  8
_0-b_細線3
  6
CONTINUOUS
 62
    7
 10
1016.0156767605706
 20
435.33496608789881
 11
1016.0156767605706
 21
431.60163275456597
  0
ARC
  8
_0-b_細線3
  6
CONTINUOUS
 62
    7
 10
1045.0823434213517
 20
431.60163275456597
 40
1.3333333333333335
 50
269.99999999999977
 51
359.99999999999966
  0
LINE
  8
_0-b_細線3
  6
CONTINUOUS
 62
    7
 10
1046.4156767546858
 20
435.33496608789881
 11
1046.4156767546858
 21
431.60163275456597
  0
ARC
  8
_0-b_細線3
  6
CONTINUOUS
 62
    7
 10
1024.0156767605706
 20
427.60163275456597
 40
2.666666666666667
 50
0
 51
89.999999999999915
  0
LINE
  8
_0-b_細線3
  6
CONTINUOUS
 62
    7
 10
1024.0156767605706
 20
430.26829942123237
 11
1017.3490100939049
 21
430.26829942123237
  0
ARC
  8
_0-b_細線3
  6
CONTINUOUS
 62
    7
 10
1038.4156767605705
 20
427.60163275456597
 40
2.666666666666667
 50
89.999999999999915
 51
179.99999999999983
  0
LINE
  8
_0-b_細線3
  6
CONTINUOUS
 62
    7
 10
1038.4156767546842
 20
430.26829942123237
 11
1045.0823434213517
 21
430.26829942123237
  0
LINE
  8
_0-b_細線3
  6
CONTINUOUS
 62
    7
 10
1037.8823434242954
 20
440.6682994212324
 11
1024.549010090961
 21
440.6682994212324
  0
LINE
  8
_0-b_細線3
  6
CONTINUOUS
 62
    7
 10
1026.6823434242954
 20
374.00163275456595
 11
1026.6823434272378
 21
427.60163275456597
  0
LINE
  8
_0-b_細線3
  6
CONTINUOUS
 62
    7
 10
1035.7490100909611
 20
374.00163275456595
 11
1035.7490100939049
 21
427.60163275456597
  0
LINE
  8
_0-b_細線3
  6
CONTINUOUS
 62
    7
 10
1035.7490100909611
 20
374.00163275456595
 11
1026.6823434242954
 21
374.00163275456595
  0
LINE
  8
_0-d_寸法3
  6
CONTINUOUS
 62
    7
 10
743.97591071181239
 20
383.17885573618281
 11
687.7514232098913
 21
422.54766571700623
  0
LINE
  8
_0-d_寸法3
  6
CONTINUOUS
 62
    7
 10
694.30463956420317
 20
417.95905422619779
 11
690.16353484256285
 21
433.41386744682291
  0
LINE
  8
_0-d_寸法3
  6
CONTINUOUS
 62
    7
 10
694.30463956420317
 20
417.95905422619779
 11
698.44574428584349
 21
433.41386744682291
  0
LINE
  8
_0-d_寸法3
  6
CONTINUOUS
 62
    7
 10
743.97591071181228
 20
449.84552240284989
 11
687.75142320989119
 21
489.21433238367257
  0
LINE
  8
_0-d_寸法3
  6
CONTINUOUS
 62
    7
 10
694.30463956420317
 20
484.62572089286419
 11
698.44574428584338
 21
469.17090767223908
  0
LINE
  8
_0-d_寸法3
  6
CONTINUOUS
 62
    7
 10
694.30463956420317
 20
484.62572089286419
 11
690.16353484256274
 21
469.17090767223914
  0
LINE
  8
_0-d_寸法3
  6
CONTINUOUS
 62
    7
 10
694.30463956420317
 20
417.95905422619779
 11
694.30463956420317
 21
484.62572089286419
  0
TEXT
  8
_0-d_寸法3
 62
    7
 10
694.30463956420317
 20
439.29238755953065
 40
24
 41
1
 50
90
  1
25
  0
LINE
  8
_0-a_極細3
  6
CONTINUOUS
 62
    7
 10
429.92490093432605
 20
285.81235461457163
 11
421.71641749450976
 21
308.36497751343359
  0
LINE
  8
_0-a_極細3
  6
CONTINUOUS
 62
    7
 10
509.91536921240038
 20
340.46677063222722
 11
518.12385265221599
 21
317.91414773336555
  0
LINE
  8
_0-a_極細3
  6
CONTINUOUS
 62
    7
 10
421.71641749450976
 20
308.36497751343359
 11
509.91536921240038
 21
340.46677063222756
  0
LINE
  8
_0-a_極細3
  6
CONTINUOUS
 62
    7
 10
429.92490093432605
 20
285.81235461457163
 11
518.12385265221599
 21
317.91414773336555
  0
LINE
  8
_0-a_極細3
  6
CENTER1
 62
    7
 10
417.89196578722954
 20
294.20285799995486
 11
520.34159855933501
 21
331.49147477601127
  0
LINE
  8
_0-a_極細3
  6
CONTINUOUS
 62
    7
 10
459.74901008710253
 20
246.00163275456589
 11
459.74901008710253
 21
316.5385309118717
  0
LINE
  8
_0-a_極細3
  6
CONTINUOUS
 62
    7
 10
459.74901008710253
 20
316.5385309118717
 11
435.74901008710253
 21
316.5385309118717
  0
LINE
  8
_0-a_極細3
  6
CONTINUOUS
 62
    7
 10
435.74901008710253
 20
316.5385309118717
 11
435.74901008710253
 21
246.00163275456589
  0
LINE
  8
_0-a_極細3
  6
CENTER1
 62
    7
 10
447.74901008710253
 20
232.7588482994413
 11
447.74901008710253
 21
323.37968317524701
  0
LINE
  8
_0-a_極細3
  6
CONTINUOUS
 62
    7
 10
1129.5731192398789
 20
285.81235461457163
 11
1137.7816026796954
 21
308.36497751343359
  0
LINE
  8
_0-a_極細3
  6
CONTINUOUS
 62
    7
 10
1049.582650961805
 20
340.46677063222722
 11
1041.3741675219894
 21
317.91414773336555
  0
LINE
  8
_0-a_極細3
  6
CONTINUOUS
 62
    7
 10
1137.7816026796954
 20
308.36497751343359
 11
1049.582650961805
 21
340.46677063222756
  0
LINE
  8
_0-a_極細3
  6
CONTINUOUS
 62
    7
 10
1129.5731192398789
 20
285.81235461457163
 11
1041.3741675219894
 21
317.91414773336555
  0
LINE
  8
_0-a_極細3
  6
CENTER1
 62
    7
 10
1141.6060543869758
 20
294.20285799995486
 11
1039.1564216148709
 21
331.49147477601127
  0
LINE
  8
_0-a_極細3
  6
CONTINUOUS
 62
    7
 10
1099.7490100871028
 20
246.00163275456589
 11
1099.7490100871028
 21
316.5385309118717
  0
LINE
  8
_0-a_極細3
  6
CONTINUOUS
 62
    7
 10
1123.7490100871028
 20
316.5385309118717
 11
1123.7490100871028
 21
246.00163275456589
  0
LINE
  8
_0-a_極細3
  6
CENTER1
 62
    7
 10
1111.7490100871028
 20
232.7588482994413
 11
1111.7490100871028
 21
323.37968317524701
  0
LINE
  8
_0-a_極細3
  6
CONTINUOUS
 62
    7
 10
1099.7490100871028
 20
316.5385309118717
 11
1123.7490100871028
 21
316.5385309118717
  0
CIRCLE
  8
_0-a_極細3
  6
CONTINUOUS
 62
    7
 10
1136.2244549570705
 20
324.45499065579179
 40
0.884938271604915
  0
CIRCLE
  8
_0-a_極細3
  6
CONTINUOUS
 62
    7
 10
1104.8644549570704
 20
333.41499065579171
 40
0.884938271604915
  0
TEXT
  8
_0-7_枠細線
 62
    5
 10
699.87373386432887
 20
134.0010487518814
 40
40
 41
0.8
 50
0
  1
断面詳細図
  0
ARC
  8
_0-b_細線3
  6
CONTINUOUS
 62
    7
 10
520.29101541510533
 20
394.0016327545664
 40
0.5333333333333335
 50
179.99999999999983
 51
269.99999999999977
  0
LINE
  8
_0-b_細線3
  6
CONTINUOUS
 62
    7
 10
523.74901008177255
 20
393.46829942123287
 11
520.29101541510533
 21
393.46829942123287
  0
ARC
  8
_0-b_細線3
  6
CONTINUOUS
 62
    7
 10
520.29101541510533
 20
427.60163275456568
 40
0.5333333333333335
 50
89.999999999999915
 51
179.99999999999983
  0
LINE
  8
_0-b_細線3
  6
CONTINUOUS
 62
    7
 10
523.74901008177255
 20
428.13496608790001
 11
520.29101541510533
 21
428.13496608790001
  0
LINE
  8
_0-b_細線3
  6
CONTINUOUS
 62
    7
 10
519.75768208177101
 20
409.46829942123287
 11
519.75768208177101
 21
394.0016327545664
  0
LINE
  8
_0-b_細線3
  6
CONTINUOUS
 62
    7
 10
519.75768208177101
 20
427.60163275456568
 11
519.75768208177101
 21
409.46829942123287
  0
LINE
  8
_0-b_細線3
  6
CONTINUOUS
 62
    7
 10
519.75768208177101
 20
410.80163275456567
 11
511.74563941510428
 21
410.80163275456567
  0
LINE
  8
_0-b_細線3
  6
CONTINUOUS
 62
    7
 10
519.75768208177101
 20
401.46829942123355
 11
511.74560741510572
 21
401.46829942123355
  0
ARC
  8
_0-b_細線3
  6
CONTINUOUS
 62
    7
 10
511.74560741510572
 20
402.0016327545664
 40
0.5333333333333335
 50
179.99999999999983
 51
269.99999999999977
  0
ARC
  8
_0-b_細線3
  6
CONTINUOUS
 62
    7
 10
531.90022074843796
 20
406.13457675456726
 40
20.687882666666667
 50
166.96197800000502
 51
193.03566999999964
  0
ARC
  8
_0-b_細線3
  6
CONTINUOUS
 62
    7
 10
511.74560741510572
 20
419.60163275456716
 40
0.5333333333333335
 50
89.999999999999915
 51
179.99999999999983
  0
ARC
  8
_0-b_細線3
  6
CONTINUOUS
 62
    7
 10
531.90022074843796
 20
415.46868342123258
 40
20.687882666666667
 50
166.96432999999999
 51
193.03802199999848
  0
LINE
  8
_0-b_細線3
  6
CONTINUOUS
 62
    7
 10
519.75768208177101
 20
420.13496608790001
 11
511.74560741510572
 21
420.13496608790001
  0
LINE
  8
_0-b_細線3
  6
CONTINUOUS
 62
    7
 10
511.21227408177151
 20
402.0016327545664
 11
511.21227408177151
 21
419.60163275456716
  0
ARC
  8
_0-b_細線3
  6
CONTINUOUS
 62
    7
 10
1039.2070047591001
 20
394.0016327545664
 40
0.5333333333333335
 50
269.99999999999977
 51
359.99999999999966
  0
LINE
  8
_0-b_細線3
  6
CONTINUOUS
 62
    7
 10
1035.7490100924338
 20
393.46829942123287
 11
1039.2070047591001
 21
393.46829942123287
  0
ARC
  8
_0-b_細線3
  6
CONTINUOUS
 62
    7
 10
1039.2070047591001
 20
427.60163275456568
 40
0.5333333333333335
 50
0
 51
89.999999999999915
  0
LINE
  8
_0-b_細線3
  6
CONTINUOUS
 62
    7
 10
1035.7490100924338
 20
428.13496608790001
 11
1039.2070047591001
 21
428.13496608790001
  0
LINE
  8
_0-b_細線3
  6
CONTINUOUS
 62
    7
 10
1039.7403380924345
 20
409.46829942123287
 11
1039.7403380924345
 21
394.0016327545664
  0
LINE
  8
_0-b_細線3
  6
CONTINUOUS
 62
    7
 10
1039.7403380924345
 20
427.60163275456568
 11
1039.7403380924345
 21
409.46829942123287
  0
LINE
  8
_0-b_細線3
  6
CONTINUOUS
 62
    7
 10
1039.7403380924345
 20
410.80163275456567
 11
1047.7523807591006
 21
410.80163275456567
  0
LINE
  8
_0-b_細線3
  6
CONTINUOUS
 62
    7
 10
1039.7403380924345
 20
401.46829942123355
 11
1047.7524127590998
 21
401.46829942123355
  0
ARC
  8
_0-b_細線3
  6
CONTINUOUS
 62
    7
 10
1047.7524127590998
 20
402.0016327545664
 40
0.5333333333333335
 50
269.99999999999977
 51
359.99999999999966
  0
ARC
  8
_0-b_細線3
  6
CONTINUOUS
 62
    7
 10
1027.5977994257676
 20
406.13457675456726
 40
20.687882666666667
 50
346.96432999999928
 51
13.038021999995031
  0
ARC
  8
_0-b_細線3
  6
CONTINUOUS
 62
    7
 10
1047.7524127590998
 20
419.60163275456716
 40
0.5333333333333335
 50
0
 51
89.999999999999915
  0
ARC
  8
_0-b_細線3
  6
CONTINUOUS
 62
    7
 10
1027.5977994257676
 20
415.46868342123258
 40
20.687882666666667
 50
346.96197800000044
 51
13.035670000000032
  0
LINE
  8
_0-b_細線3
  6
CONTINUOUS
 62
    7
 10
1039.7403380924345
 20
420.13496608790001
 11
1047.7524127590998
 21
420.13496608790001
  0
LINE
  8
_0-b_細線3
  6
CONTINUOUS
 62
    7
 10
1048.2857460924342
 20
402.0016327545664
 11
1048.2857460924342
 21
419.60163275456716
  0
LINE
  8
_0-b_細線3
  6
CONTINUOUS
 62
    7
 10
852.28234342383735
 20
393.46829942123247
 11
888.54901009050411
 21
393.46829942123247
  0
LINE
  8
_0-b_細線3
  6
CONTINUOUS
 62
    7
 10
806.949010089539
 20
393.46829942123247
 11
843.21567675620543
 21
393.46829942123247
  0
LINE
  8
_0-b_細線3
  6
CONTINUOUS
 62
    7
 10
716.28234342094299
 20
393.46829942123247
 11
752.54901008760942
 21
393.46829942123247
  0
LINE
  8
_0-b_細線3
  6
CONTINUOUS
 62
    7
 10
670.94901008664533
 20
393.46829942123247
 11
707.21567675331175
 21
393.46829942123247
  0
LINE
  8
_0-b_細線3
  6
CONTINUOUS
 62
    7
 10
625.61567675234619
 20
393.46829942123247
 11
661.8823434190133
 21
393.46829942123247
  0
LINE
  8
_0-b_細線3
  6
CONTINUOUS
 62
    7
 10
897.61567675762819
 20
393.46829942123247
 11
933.8823434242953
 21
393.46829942123247
  0
LINE
  8
_0-b_細線3
  6
CONTINUOUS
 62
    7
 10
579.21567675234621
 20
393.46829942123247
 11
616.54901008568015
 21
393.46829942123247
  0
LINE
  8
_0-b_細線3
  6
CONTINUOUS
 62
    7
 10
532.81567675138217
 20
393.46829942123247
 11
570.14901008567972
 21
393.46829942123247
  0
LINE
  8
_0-b_細線3
  6
CONTINUOUS
 62
    7
 10
942.94901009192586
 20
393.46829942123247
 11
980.28234342526014
 21
393.46829942123247
  0
LINE
  8
_0-b_細線3
  6
CONTINUOUS
 62
    7
 10
989.34901009238422
 20
393.46829942123247
 11
1026.6823434257185
 21
393.46829942123247
  0
LINE
  8
_0-b_細線3
  6
CONTINUOUS
 62
    7
 10
852.28234342383735
 20
428.13496608789927
 11
888.54901009050411
 21
428.13496608789927
  0
LINE
  8
_0-b_細線3
  6
CONTINUOUS
 62
    7
 10
806.949010089539
 20
428.13496608789927
 11
843.21567675620543
 21
428.13496608789927
  0
LINE
  8
_0-b_細線3
  6
CONTINUOUS
 62
    7
 10
716.28234342094299
 20
428.13496608789927
 11
752.54901008760942
 21
428.13496608789927
  0
LINE
  8
_0-b_細線3
  6
CONTINUOUS
 62
    7
 10
670.94901008664533
 20
428.13496608789927
 11
707.21567675331175
 21
428.13496608789927
  0
LINE
  8
_0-b_細線3
  6
CONTINUOUS
 62
    7
 10
625.61567675234619
 20
428.13496608789927
 11
661.8823434190133
 21
428.13496608789927
  0
LINE
  8
_0-b_細線3
  6
CONTINUOUS
 62
    7
 10
897.61567675762819
 20
428.13496608789927
 11
933.8823434242953
 21
428.13496608789927
  0
LINE
  8
_0-b_細線3
  6
CONTINUOUS
 62
    7
 10
579.21567675234621
 20
428.13496608789927
 11
616.54901008568015
 21
428.13496608789927
  0
LINE
  8
_0-b_細線3
  6
CONTINUOUS
 62
    7
 10
532.81567675138217
 20
428.13496608789927
 11
570.14901008567972
 21
428.13496608789927
  0
LINE
  8
_0-b_細線3
  6
CONTINUOUS
 62
    7
 10
942.94901009192586
 20
428.13496608789927
 11
980.28234342526014
 21
428.13496608789927
  0
LINE
  8
_0-b_細線3
  6
CONTINUOUS
 62
    7
 10
989.34901009238422
 20
428.13496608789927
 11
1026.6823434257185
 21
428.13496608789927
  0
LINE
  8
_0-a_極細3
  6
CENTER1
 62
    7
 10
1062.9490100871035
 20
410.80163275456567
 11
497.10262217583806
 21
410.80163275456567
  0
LINE
  8
_0-b_細線3
  6
CONTINUOUS
 62
    7
 10
761.61567675524134
 20
428.13496608789927
 11
773.48234342043577
 21
428.13496608789927
  0
LINE
  8
_0-b_細線3
  6
CONTINUOUS
 62
    7
 10
786.01567675376998
 20
428.13496608789927
 11
797.88234342190776
 21
428.13496608789927
  0
LINE
  8
_0-b_細線3
  6
DASHED2
 62
    7
 10
761.61567675521189
 20
409.73496608789975
 11
773.48234342043577
 21
409.73496608789975
  0
ARC
  8
_0-b_細線3
  6
CONTINUOUS
 62
    7
 10
744.54901009004539
 20
435.33496608789881
 40
2.666666666666667
 50
89.999999999999915
 51
179.99999999999983
  0
ARC
  8
_0-b_細線3
  6
CONTINUOUS
 62
    7
 10
745.79687460025241
 20
440.6682994212324
 40
2.666666666666667
 50
269.99999999999977
 51
329.9999999999946
  0
ARC
  8
_0-b_細線3
  6
CONTINUOUS
 62
    7
 10
750.41567675376939
 20
438.00163275456595
 40
2.666666666666667
 50
89.999999999999915
 51
150.0000000000087
  0
LINE
  8
_0-b_細線3
  6
CONTINUOUS
 62
    7
 10
744.54901009004539
 20
438.00163275456595
 11
745.79687460025241
 21
438.00163275456595
  0
ARC
  8
_0-b_細線3
  6
CONTINUOUS
 62
    7
 10
769.61567675082699
 20
435.33496608789881
 40
2.666666666666667
 50
0
 51
89.999999999999915
  0
ARC
  8
_0-b_細線3
  6
CONTINUOUS
 62
    7
 10
768.36781224061997
 20
440.6682994212324
 40
2.666666666666667
 50
210.00000000000469
 51
269.99999999999977
  0
ARC
  8
_0-b_細線3
  6
CONTINUOUS
 62
    7
 10
763.74901008710299
 20
438.00163275456595
 40
2.666666666666667
 50
29.999999999991321
 51
89.999999999999901
  0
LINE
  8
_0-b_細線3
  6
CONTINUOUS
 62
    7
 10
769.61567675082699
 20
438.00163275456595
 11
768.36781224061997
 21
438.00163275456595
  0
ARC
  8
_0-b_細線3
  6
CONTINUOUS
 62
    7
 10
743.21567675671247
 20
431.60163275456597
 40
1.3333333333333335
 50
179.99999999999983
 51
269.99999999999977
  0
LINE
  8
_0-b_細線3
  6
CONTINUOUS
 62
    7
 10
741.88234342337898
 20
435.33496608789881
 11
741.88234342337898
 21
431.60163275456597
  0
ARC
  8
_0-b_細線3
  6
CONTINUOUS
 62
    7
 10
770.94901008416059
 20
431.60163275456597
 40
1.3333333333333335
 50
269.99999999999977
 51
359.99999999999966
  0
LINE
  8
_0-b_細線3
  6
CONTINUOUS
 62
    7
 10
772.28234341749339
 20
435.33496608789881
 11
772.28234341749339
 21
431.60163275456597
  0
ARC
  8
_0-b_細線3
  6
CONTINUOUS
 62
    7
 10
749.88234342337898
 20
427.60163275456597
 40
2.666666666666667
 50
0
 51
89.999999999999915
  0
LINE
  8
_0-b_細線3
  6
CONTINUOUS
 62
    7
 10
749.88234342337898
 20
430.26829942123237
 11
743.21567675671247
 21
430.26829942123237
  0
ARC
  8
_0-b_細線3
  6
CONTINUOUS
 62
    7
 10
764.28234342337896
 20
427.60163275456597
 40
2.666666666666667
 50
89.999999999999915
 51
179.99999999999983
  0
LINE
  8
_0-b_細線3
  6
CONTINUOUS
 62
    7
 10
764.28234341749271
 20
430.26829942123237
 11
770.94901008416059
 21
430.26829942123237
  0
LINE
  8
_0-b_細線3
  6
CONTINUOUS
 62
    7
 10
763.74901008710299
 20
440.6682994212324
 11
750.41567675376939
 21
440.6682994212324
  0
LINE
  8
_0-b_細線3
  6
CONTINUOUS
 62
    7
 10
752.54901008710294
 20
374.00163275456595
 11
752.54901009004539
 21
427.60163275456597
  0
LINE
  8
_0-b_細線3
  6
CONTINUOUS
 62
    7
 10
761.61567675376943
 20
374.00163275456595
 11
761.61567675671256
 21
427.60163275456597
  0
LINE
  8
_0-b_細線3
  6
CONTINUOUS
 62
    7
 10
761.61567675376943
 20
374.00163275456595
 11
752.54901008710294
 21
374.00163275456595
  0
LINE
  8
_0-b_細線3
  6
CONTINUOUS
 62
    7
 10
786.01567675377009
 20
441.2022761140517
 11
786.01567675377009
 21
387.86894278071736
  0
LINE
  8
_0-b_細線3
  6
CONTINUOUS
 62
    7
 10
773.48234342043577
 20
387.86894278071736
 11
773.48234342043577
 21
441.2022761140517
  0
LINE
  8
_0-b_細線3
  6
CONTINUOUS
 62
    7
 10
786.01567675377009
 20
387.86894278071736
 11
773.48234342043577
 21
387.86894278071736
  0
LINE
  8
_0-b_細線3
  6
CONTINUOUS
 62
    7
 10
773.48234342043577
 20
441.2022761140517
 11
786.01567675377009
 21
441.2022761140517
  0
LINE
  8
_0-b_細線3
  6
DASHED2
 62
    7
 10
773.48234342043577
 20
395.86894278071742
 11
786.01567675377009
 21
395.86894278071742
  0
LINE
  8
_0-b_細線3
  6
DASHED2
 62
    7
 10
773.48234342043577
 20
433.2022761140517
 11
786.01567675377009
 21
433.2022761140517
  0
LINE
  8
_0-b_細線3
  6
CONTINUOUS
 62
    7
 10
761.6156767548091
 20
393.46829942123247
 11
773.48234342043577
 21
393.46829942123247
  0
LINE
  8
_0-b_細線3
  6
CONTINUOUS
 62
    7
 10
786.01567675377009
 20
393.46829942123247
 11
797.88234342190776
 21
393.46829942123247
  0
LINE
  8
_0-b_細線3
  6
CONTINUOUS
 62
    7
 10
499.74901008710253
 20
398.00163275456595
 11
499.74901008710253
 21
304.66829942123275
  0
LINE
  8
_0-b_細線3
  6
CONTINUOUS
 62
    7
 10
499.74901008710253
 20
304.66829942123275
 11
493.61567675376932
 21
304.66829942123275
  0
LINE
  8
_0-b_細線3
  6
CONTINUOUS
 62
    7
 10
493.61567675376932
 20
304.66829942123275
 11
493.61567675376932
 21
398.00163275456595
  0
LINE
  8
_0-b_細線3
  6
CONTINUOUS
 62
    7
 10
493.61567675376932
 20
398.00163275456595
 11
499.74901008710253
 21
398.00163275456595
  0
LINE
  8
_0-a_極細3
  6
CONTINUOUS
 62
    7
 10
493.61567675376932
 20
355.33496608789937
 11
499.74901008710253
 21
355.33496608789937
  0
LINE
  8
_0-a_極細3
  6
CONTINUOUS
 62
    7
 10
493.61567675376932
 20
360.66829942123275
 11
499.74901008710253
 21
360.66829942123275
  0
LINE
  8
_0-a_極細3
  6
CONTINUOUS
 62
    7
 10
493.61567675376932
 20
350.00163275456595
 11
499.74901008710253
 21
350.00163275456595
  0
LINE
  8
_0-a_極細3
  6
CONTINUOUS
 62
    7
 10
493.61567675376932
 20
366.00163275456595
 11
499.74901008710253
 21
366.00163275456595
  0
LINE
  8
_0-a_極細3
  6
CONTINUOUS
 62
    7
 10
499.74901008710253
 20
312.66829942123275
 11
493.61567675376932
 21
312.66829942123275
  0
LINE
  8
_0-a_極細3
  6
CONTINUOUS
 62
    7
 10
493.61567675376932
 20
392.66829942123275
 11
499.74901008710253
 21
392.66829942123275
  0
LINE
  8
_0-b_細線3
  6
CONTINUOUS
 62
    7
 10
1059.749010087103
 20
398.00163275456595
 11
1059.749010087103
 21
304.66829942123275
  0
LINE
  8
_0-b_細線3
  6
CONTINUOUS
 62
    7
 10
1059.749010087103
 20
304.66829942123275
 11
1065.8823434204364
 21
304.66829942123275
  0
LINE
  8
_0-b_細線3
  6
CONTINUOUS
 62
    7
 10
1065.8823434204364
 20
304.66829942123275
 11
1065.8823434204364
 21
398.00163275456595
  0
LINE
  8
_0-b_細線3
  6
CONTINUOUS
 62
    7
 10
1065.8823434204364
 20
398.00163275456595
 11
1059.749010087103
 21
398.00163275456595
  0
LINE
  8
_0-a_極細3
  6
CONTINUOUS
 62
    7
 10
1065.8823434204364
 20
355.33496608789937
 11
1059.749010087103
 21
355.33496608789937
  0
LINE
  8
_0-a_極細3
  6
CONTINUOUS
 62
    7
 10
1065.8823434204364
 20
360.66829942123275
 11
1059.749010087103
 21
360.66829942123275
  0
LINE
  8
_0-a_極細3
  6
CONTINUOUS
 62
    7
 10
1065.8823434204364
 20
350.00163275456595
 11
1059.749010087103
 21
350.00163275456595
  0
LINE
  8
_0-a_極細3
  6
CONTINUOUS
 62
    7
 10
1065.8823434204364
 20
366.00163275456595
 11
1059.749010087103
 21
366.00163275456595
  0
LINE
  8
_0-a_極細3
  6
CONTINUOUS
 62
    7
 10
1059.749010087103
 20
312.66829942123275
 11
1065.8823434204364
 21
312.66829942123275
  0
LINE
  8
_0-a_極細3
  6
CONTINUOUS
 62
    7
 10
1065.8823434204364
 20
392.66829942123275
 11
1059.749010087103
 21
392.66829942123275
  0
LINE
  8
_0-7_枠細線
  6
CONTINUOUS
 62
    5
 10
1094.5714903654321
 20
380.93494763446984
 11
1082.5714903654321
 21
404.93494763446978
  0
LINE
  8
_0-7_枠細線
  6
CONTINUOUS
 62
    5
 10
1070.5714903654321
 20
380.93494763446984
 11
1094.5714903654321
 21
380.93494763446984
  0
LINE
  8
_0-7_枠細線
  6
CONTINUOUS
 62
    5
 10
1082.5714903654321
 20
404.93494763446978
 11
1070.5714903654321
 21
380.93494763446984
  0
TEXT
  8
_0-7_枠細線
 62
    5
 10
1074.355732394469
 20
379.41683569070995
 40
20
 41
0.8
 50
0
  1
５
  0
LINE
  8
_0-d_寸法3
  6
CONTINUOUS
 62
    7
 10
636.28234341459904
 20
451.33496608789881
 11
636.28234341459904
 21
528.6682994212324
  0
LINE
  8
_0-d_寸法3
  6
CONTINUOUS
 62
    7
 10
636.28234341459904
 20
520.6682994212324
 11
620.82753019397398
 21
516.52719469959209
  0
LINE
  8
_0-d_寸法3
  6
CONTINUOUS
 62
    7
 10
636.28234341459904
 20
520.6682994212324
 11
620.82753019397398
 21
524.80940414287284
  0
LINE
  8
_0-d_寸法3
  6
CONTINUOUS
 62
    7
 10
651.21567675478286
 20
451.33496608789881
 11
651.21567675478286
 21
528.6682994212324
  0
LINE
  8
_0-d_寸法3
  6
CONTINUOUS
 62
    7
 10
573.28401432153191
 20
520.6682994212324
 11
651.21567675478286
 21
520.6682994212324
  0
TEXT
  8
_0-d_寸法3
 62
    7
 10
573.28401432153191
 20
496.6682994212324
 40
24
 41
1
 50
0
  1
(5.6)
  0
LINE
  8
_0-d_寸法3
  6
CONTINUOUS
 62
    7
 10
651.21567675478286
 20
520.6682994212324
 11
666.67048997540792
 21
524.80940414287272
  0
LINE
  8
_0-d_寸法3
  6
CONTINUOUS
 62
    7
 10
651.21567675478286
 20
520.6682994212324
 11
666.67048997540792
 21
516.52719469959209
  0
LINE
  8
_0-d_寸法3
  6
CONTINUOUS
 62
    7
 10
681.6156767488967
 20
451.33496608789881
 11
681.6156767488967
 21
528.6682994212324
  0
LINE
  8
_0-d_寸法3
  6
CONTINUOUS
 62
    7
 10
681.6156767488967
 20
520.6682994212324
 11
666.16086352827165
 21
516.52719469959209
  0
LINE
  8
_0-d_寸法3
  6
CONTINUOUS
 62
    7
 10
681.6156767488967
 20
520.6682994212324
 11
666.16086352827165
 21
524.80940414287284
  0
LINE
  8
_0-d_寸法3
  6
CONTINUOUS
 62
    7
 10
651.21567675478286
 20
520.6682994212324
 11
681.6156767488967
 21
520.6682994212324
  0
TEXT
  8
_0-d_寸法3
 62
    7
 10
636.39216246967987
 20
520.6682994212324
 40
24
 41
1
 50
0
  1
11.4
  0
LINE
  8
_0-d_寸法3
  6
CONTINUOUS
 62
    7
 10
847.7490100890318
 20
456.6682994212324
 11
847.7490100890318
 21
528.6682994212324
  0
LINE
  8
_0-d_寸法3
  6
CONTINUOUS
 62
    7
 10
847.7490100890318
 20
520.6682994212324
 11
863.20382330965685
 21
524.80940414287272
  0
LINE
  8
_0-d_寸法3
  6
CONTINUOUS
 62
    7
 10
847.7490100890318
 20
520.6682994212324
 11
863.20382330965685
 21
516.52719469959209
  0
LINE
  8
_0-d_寸法3
  6
CONTINUOUS
 62
    7
 10
893.0823434233306
 20
456.6682994212324
 11
893.0823434233306
 21
528.6682994212324
  0
LINE
  8
_0-d_寸法3
  6
CONTINUOUS
 62
    7
 10
893.0823434233306
 20
520.6682994212324
 11
877.62753020270554
 21
516.52719469959209
  0
LINE
  8
_0-d_寸法3
  6
CONTINUOUS
 62
    7
 10
893.0823434233306
 20
520.6682994212324
 11
877.62753020270554
 21
524.80940414287284
  0
LINE
  8
_0-d_寸法3
  6
CONTINUOUS
 62
    7
 10
847.7490100890318
 20
520.6682994212324
 11
893.0823434233306
 21
520.6682994212324
  0
TEXT
  8
_0-d_寸法3
 62
    7
 10
844.56611308801291
 20
496.6682994212324
 40
24
 41
1
 50
0
  1
(17)
  0
LINE
  8
_0-d_寸法3
  6
CONTINUOUS
 62
    7
 10
893.0823434233306
 20
520.6682994212324
 11
908.53715664395577
 21
524.80940414287261
  0
LINE
  8
_0-d_寸法3
  6
CONTINUOUS
 62
    7
 10
893.0823434233306
 20
520.6682994212324
 11
908.53715664395565
 21
516.52719469959197
  0
LINE
  8
_0-d_寸法3
  6
CONTINUOUS
 62
    7
 10
938.41567675762815
 20
456.6682994212324
 11
938.41567675762815
 21
528.6682994212324
  0
LINE
  8
_0-d_寸法3
  6
CONTINUOUS
 62
    7
 10
938.41567675762815
 20
520.6682994212324
 11
922.96086353700309
 21
516.52719469959209
  0
LINE
  8
_0-d_寸法3
  6
CONTINUOUS
 62
    7
 10
938.41567675762815
 20
520.6682994212324
 11
922.96086353700309
 21
524.80940414287284
  0
LINE
  8
_0-d_寸法3
  6
CONTINUOUS
 62
    7
 10
893.0823434233306
 20
520.6682994212324
 11
938.41567675762815
 21
520.6682994212324
  0
TEXT
  8
_0-d_寸法3
 62
    7
 10
893.20611308801347
 20
520.6682994212324
 40
24
 41
1
 50
0
  1
(17)
  0
LINE
  8
_0-d_寸法3
  6
CONTINUOUS
 62
    7
 10
499.74901008710253
 20
448.66829942123314
 11
499.74901008710253
 21
640.6682994212324
  0
LINE
  8
_0-d_寸法3
  6
CONTINUOUS
 62
    7
 10
499.74901008710253
 20
632.6682994212324
 11
515.2038233077277
 21
636.80940414287272
  0
LINE
  8
_0-d_寸法3
  6
CONTINUOUS
 62
    7
 10
499.74901008710253
 20
632.6682994212324
 11
515.2038233077277
 21
628.52719469959209
  0
LINE
  8
_0-d_寸法3
  6
CONTINUOUS
 62
    7
 10
1059.7490100871028
 20
448.66829942123314
 11
1059.7490100871032
 21
640.6682994212324
  0
LINE
  8
_0-d_寸法3
  6
CONTINUOUS
 62
    7
 10
1059.7490100871032
 20
632.6682994212324
 11
1044.2941968664782
 21
628.52719469959209
  0
LINE
  8
_0-d_寸法3
  6
CONTINUOUS
 62
    7
 10
1059.7490100871032
 20
632.6682994212324
 11
1044.2941968664782
 21
636.80940414287284
  0
LINE
  8
_0-d_寸法3
  6
CONTINUOUS
 62
    7
 10
499.74901008710253
 20
632.6682994212324
 11
1059.7490100871032
 21
632.6682994212324
  0
TEXT
  8
_0-d_寸法3
 62
    7
 10
761.74901008710299
 20
632.6682994212324
 40
24
 41
1
 50
0
  1
210
  0
LINE
  8
_0-d_寸法3
  6
CONTINUOUS
 62
    7
 10
579.74901008710253
 20
358.00163275456595
 11
579.74901008710253
 21
216.66829942123286
  0
LINE
  8
_0-d_寸法3
  6
CONTINUOUS
 62
    7
 10
579.74901008710253
 20
224.66829942123286
 11
595.20382330772759
 21
228.80940414287306
  0
LINE
  8
_0-d_寸法3
  6
CONTINUOUS
 62
    7
 10
579.74901008710253
 20
224.66829942123286
 11
595.20382330772759
 21
220.52719469959243
  0
LINE
  8
_0-d_寸法3
  6
CONTINUOUS
 62
    7
 10
979.74901008710185
 20
358.00163275456595
 11
979.74901008710185
 21
216.66829942123286
  0
LINE
  8
_0-d_寸法3
  6
CONTINUOUS
 62
    7
 10
979.74901008710185
 20
224.66829942123286
 11
964.2941968664768
 21
220.52719469959254
  0
LINE
  8
_0-d_寸法3
  6
CONTINUOUS
 62
    7
 10
979.74901008710185
 20
224.66829942123286
 11
964.2941968664768
 21
228.80940414287318
  0
LINE
  8
_0-d_寸法3
  6
CONTINUOUS
 62
    7
 10
579.74901008710253
 20
224.66829942123286
 11
979.74901008710185
 21
224.66829942123286
  0
TEXT
  8
_0-d_寸法3
 62
    7
 10
761.74901008710265
 20
224.66829942123286
 40
24
 41
1
 50
0
  1
150
  0
LINE
  8
_0-d_寸法3
  6
CONTINUOUS
 62
    7
 10
499.74901008710242
 20
288.66829942123275
 11
499.74901008710162
 21
216.6682994212324
  0
LINE
  8
_0-d_寸法3
  6
CONTINUOUS
 62
    7
 10
499.74901008710162
 20
224.6682994212324
 11
515.20382330772679
 21
228.80940414287272
  0
LINE
  8
_0-d_寸法3
  6
CONTINUOUS
 62
    7
 10
499.74901008710162
 20
224.6682994212324
 11
515.20382330772679
 21
220.52719469959209
  0
LINE
  8
_0-d_寸法3
  6
CONTINUOUS
 62
    7
 10
579.74901008710242
 20
350.00163275456595
 11
579.7490100871014
 21
216.6682994212324
  0
LINE
  8
_0-d_寸法3
  6
CONTINUOUS
 62
    7
 10
579.74901008710151
 20
224.6682994212324
 11
564.29419686647645
 21
220.5271946995922
  0
LINE
  8
_0-d_寸法3
  6
CONTINUOUS
 62
    7
 10
579.74901008710151
 20
224.6682994212324
 11
564.29419686647645
 21
228.80940414287284
  0
LINE
  8
_0-d_寸法3
  6
CONTINUOUS
 62
    7
 10
499.74901008710162
 20
224.6682994212324
 11
579.74901008710151
 21
224.6682994212324
  0
TEXT
  8
_0-d_寸法3
 62
    7
 10
527.7490100871014
 20
224.6682994212324
 40
24
 41
1
 50
0
  1
30
  0
LINE
  8
_0-d_寸法3
  6
CONTINUOUS
 62
    7
 10
1059.7490100871032
 20
288.66829942123275
 11
1059.7490100871032
 21
216.6682994212324
  0
LINE
  8
_0-d_寸法3
  6
CONTINUOUS
 62
    7
 10
1059.7490100871032
 20
224.6682994212324
 11
1044.2941968664782
 21
220.52719469959209
  0
LINE
  8
_0-d_寸法3
  6
CONTINUOUS
 62
    7
 10
1059.7490100871032
 20
224.6682994212324
 11
1044.2941968664782
 21
228.80940414287272
  0
LINE
  8
_0-d_寸法3
  6
CONTINUOUS
 62
    7
 10
979.74901008710333
 20
350.00163275456595
 11
979.74901008710333
 21
216.6682994212324
  0
LINE
  8
_0-d_寸法3
  6
CONTINUOUS
 62
    7
 10
979.74901008710333
 20
224.6682994212324
 11
995.20382330772838
 21
228.80940414287284
  0
LINE
  8
_0-d_寸法3
  6
CONTINUOUS
 62
    7
 10
979.74901008710333
 20
224.6682994212324
 11
995.20382330772838
 21
220.5271946995922
  0
LINE
  8
_0-d_寸法3
  6
CONTINUOUS
 62
    7
 10
1059.7490100871032
 20
224.6682994212324
 11
979.74901008710333
 21
224.6682994212324
  0
TEXT
  8
_0-d_寸法3
 62
    7
 10
1007.7490100871033
 20
224.6682994212324
 40
24
 41
1
 50
0.0000000000002714
  1
30
  0
LINE
  8
_0-1_計細線
  6
CONTINUOUS
 62
    3
 10
280.24901008710299
 20
990.64671532846
 11
1279.249010087103
 21
990.64671532846
  0
LINE
  8
_0-1_計細線
  6
CONTINUOUS
 62
    3
 10
280.24901008710299
 20
1002.0467153284606
 11
1279.249010087103
 21
1002.0467153284606
  0
LINE
  8
_0-1_計細線
  6
CONTINUOUS
 62
    3
 10
280.24901008710299
 20
990.64671532846
 11
280.24901008710299
 21
1002.0467153284606
  0
LINE
  8
_0-1_計細線
  6
CONTINUOUS
 62
    3
 10
1279.249010087103
 20
990.64671532846
 11
1279.249010087103
 21
1002.0467153284606
  0
LINE
  8
_0-0_計極細
  6
CONTINUOUS
 62
    2
 10
280.24901008710299
 20
998.84671532846073
 11
1279.249010087103
 21
998.84671532846073
  0
LINE
  8
_0-0_計極細
  6
CONTINUOUS
 62
    2
 10
280.24901008710299
 20
993.84671532846073
 11
1279.249010087103
 21
993.84671532846073
  0
LINE
  8
_0-1_計細線
  6
CONTINUOUS
 62
    3
 10
280.24901008710299
 20
1007.6467153284609
 11
1279.249010087103
 21
1007.6467153284609
  0
LINE
  8
_0-1_計細線
  6
CONTINUOUS
 62
    3
 10
280.24901008710299
 20
1019.0467153284615
 11
1279.249010087103
 21
1019.0467153284615
  0
LINE
  8
_0-1_計細線
  6
CONTINUOUS
 62
    3
 10
280.24901008710299
 20
1007.6467153284609
 11
280.24901008710299
 21
1019.0467153284615
  0
LINE
  8
_0-1_計細線
  6
CONTINUOUS
 62
    3
 10
1279.249010087103
 20
1007.6467153284609
 11
1279.249010087103
 21
1019.0467153284615
  0
LINE
  8
_0-0_計極細
  6
CONTINUOUS
 62
    2
 10
280.24901008710299
 20
1015.8467153284612
 11
1279.249010087103
 21
1015.8467153284612
  0
LINE
  8
_0-0_計極細
  6
CONTINUOUS
 62
    2
 10
280.24901008710299
 20
1010.8467153284612
 11
1279.249010087103
 21
1010.8467153284612
  0
LINE
  8
_0-1_計細線
  6
CONTINUOUS
 62
    3
 10
280.24901008710299
 20
1024.6467153284618
 11
1279.249010087103
 21
1024.6467153284618
  0
LINE
  8
_0-1_計細線
  6
CONTINUOUS
 62
    3
 10
280.24901008710299
 20
1036.0467153284624
 11
1279.249010087103
 21
1036.0467153284624
  0
LINE
  8
_0-1_計細線
  6
CONTINUOUS
 62
    3
 10
280.24901008710299
 20
1024.6467153284618
 11
280.24901008710299
 21
1036.0467153284624
  0
LINE
  8
_0-1_計細線
  6
CONTINUOUS
 62
    3
 10
1279.249010087103
 20
1024.6467153284618
 11
1279.249010087103
 21
1036.0467153284624
  0
LINE
  8
_0-0_計極細
  6
CONTINUOUS
 62
    2
 10
280.24901008710299
 20
1032.8467153284616
 11
1279.249010087103
 21
1032.8467153284616
  0
LINE
  8
_0-0_計極細
  6
CONTINUOUS
 62
    2
 10
280.24901008710299
 20
1027.8467153284616
 11
1279.249010087103
 21
1027.8467153284616
  0
LINE
  8
_0-0_計極細
  6
CENTER2
 62
    2
 10
264.36041055008377
 20
1055.8467153284603
 11
1295.293743883461
 21
1055.8467153284603
  0
LINE
  8
_0-1_計細線
  6
CONTINUOUS
 62
    3
 10
280.24901008710299
 20
1121.0467153284596
 11
1279.249010087103
 21
1121.0467153284596
  0
LINE
  8
_0-1_計細線
  6
CONTINUOUS
 62
    3
 10
280.24901008710299
 20
1109.6467153284591
 11
1279.249010087103
 21
1109.6467153284591
  0
LINE
  8
_0-1_計細線
  6
CONTINUOUS
 62
    3
 10
280.24901008710299
 20
1121.0467153284596
 11
280.24901008710299
 21
1109.6467153284591
  0
LINE
  8
_0-1_計細線
  6
CONTINUOUS
 62
    3
 10
1279.249010087103
 20
1121.0467153284596
 11
1279.249010087103
 21
1109.6467153284591
  0
LINE
  8
_0-0_計極細
  6
CONTINUOUS
 62
    2
 10
280.24901008710299
 20
1112.8467153284594
 11
1279.249010087103
 21
1112.8467153284594
  0
LINE
  8
_0-0_計極細
  6
CONTINUOUS
 62
    2
 10
280.24901008710299
 20
1117.8467153284594
 11
1279.249010087103
 21
1117.8467153284594
  0
LINE
  8
_0-1_計細線
  6
CONTINUOUS
 62
    3
 10
280.24901008710299
 20
1138.4467153284602
 11
1279.249010087103
 21
1138.4467153284602
  0
LINE
  8
_0-1_計細線
  6
CONTINUOUS
 62
    3
 10
280.24901008710299
 20
1127.0467153284596
 11
1279.249010087103
 21
1127.0467153284596
  0
LINE
  8
_0-1_計細線
  6
CONTINUOUS
 62
    3
 10
280.24901008710299
 20
1138.4467153284602
 11
280.24901008710299
 21
1127.0467153284596
  0
LINE
  8
_0-1_計細線
  6
CONTINUOUS
 62
    3
 10
1279.249010087103
 20
1138.4467153284602
 11
1279.249010087103
 21
1127.0467153284596
  0
LINE
  8
_0-0_計極細
  6
CONTINUOUS
 62
    2
 10
280.24901008710299
 20
1130.2467153284599
 11
1279.249010087103
 21
1130.2467153284599
  0
LINE
  8
_0-0_計極細
  6
CONTINUOUS
 62
    2
 10
280.24901008710299
 20
1135.2467153284599
 11
1279.249010087103
 21
1135.2467153284599
  0
LINE
  8
_0-1_計細線
  6
CONTINUOUS
 62
    3
 10
280.24901008710299
 20
1155.8467153284603
 11
1279.249010087103
 21
1155.8467153284603
  0
LINE
  8
_0-1_計細線
  6
CONTINUOUS
 62
    3
 10
280.24901008710299
 20
1144.4467153284597
 11
1279.249010087103
 21
1144.4467153284597
  0
LINE
  8
_0-1_計細線
  6
CONTINUOUS
 62
    3
 10
280.24901008710299
 20
1155.8467153284603
 11
280.24901008710299
 21
1144.4467153284597
  0
LINE
  8
_0-1_計細線
  6
CONTINUOUS
 62
    3
 10
1279.249010087103
 20
1155.8467153284603
 11
1279.249010087103
 21
1144.4467153284597
  0
LINE
  8
_0-0_計極細
  6
CONTINUOUS
 62
    2
 10
280.24901008710299
 20
1147.64671532846
 11
1279.249010087103
 21
1147.64671532846
  0
LINE
  8
_0-0_計極細
  6
CONTINUOUS
 62
    2
 10
280.24901008710299
 20
1152.64671532846
 11
1279.249010087103
 21
1152.64671532846
  0
LINE
  8
_0-1_計細線
  6
CONTINUOUS
 62
    3
 10
280.24901008710299
 20
1087.0467153284596
 11
1279.249010087103
 21
1087.0467153284596
  0
LINE
  8
_0-1_計細線
  6
CONTINUOUS
 62
    3
 10
280.24901008710299
 20
1075.6467153284591
 11
1279.249010087103
 21
1075.6467153284591
  0
LINE
  8
_0-1_計細線
  6
CONTINUOUS
 62
    3
 10
280.24901008710299
 20
1087.0467153284596
 11
280.24901008710299
 21
1075.6467153284591
  0
LINE
  8
_0-1_計細線
  6
CONTINUOUS
 62
    3
 10
1279.249010087103
 20
1087.0467153284596
 11
1279.249010087103
 21
1075.6467153284591
  0
LINE
  8
_0-0_計極細
  6
CONTINUOUS
 62
    2
 10
280.24901008710299
 20
1078.8467153284594
 11
1279.249010087103
 21
1078.8467153284594
  0
LINE
  8
_0-0_計極細
  6
CONTINUOUS
 62
    2
 10
280.24901008710299
 20
1083.8467153284594
 11
1279.249010087103
 21
1083.8467153284594
  0
LINE
  8
_0-1_計細線
  6
CONTINUOUS
 62
    3
 10
280.24901008710299
 20
1104.0467153284606
 11
1279.249010087103
 21
1104.0467153284606
  0
LINE
  8
_0-1_計細線
  6
CONTINUOUS
 62
    3
 10
280.24901008710299
 20
1092.64671532846
 11
1279.249010087103
 21
1092.64671532846
  0
LINE
  8
_0-1_計細線
  6
CONTINUOUS
 62
    3
 10
280.24901008710299
 20
1104.0467153284606
 11
280.24901008710299
 21
1092.64671532846
  0
LINE
  8
_0-1_計細線
  6
CONTINUOUS
 62
    3
 10
1279.249010087103
 20
1104.0467153284606
 11
1279.249010087103
 21
1092.64671532846
  0
LINE
  8
_0-0_計極細
  6
CONTINUOUS
 62
    2
 10
280.24901008710299
 20
1095.8467153284598
 11
1279.249010087103
 21
1095.8467153284598
  0
LINE
  8
_0-0_計極細
  6
CONTINUOUS
 62
    2
 10
280.24901008710299
 20
1100.8467153284598
 11
1279.249010087103
 21
1100.8467153284598
  0
LINE
  8
_0-1_計細線
  6
CONTINUOUS
 62
    3
 10
280.24901008710299
 20
973.24671532845946
 11
1279.249010087103
 21
973.24671532845946
  0
LINE
  8
_0-1_計細線
  6
CONTINUOUS
 62
    3
 10
280.24901008710299
 20
984.64671532846
 11
1279.249010087103
 21
984.64671532846
  0
LINE
  8
_0-1_計細線
  6
CONTINUOUS
 62
    3
 10
280.24901008710299
 20
973.24671532845946
 11
280.24901008710299
 21
984.64671532846
  0
LINE
  8
_0-1_計細線
  6
CONTINUOUS
 62
    3
 10
1279.249010087103
 20
973.24671532845946
 11
1279.249010087103
 21
984.64671532846
  0
LINE
  8
_0-0_計極細
  6
CONTINUOUS
 62
    2
 10
280.24901008710299
 20
981.44671532846019
 11
1279.249010087103
 21
981.44671532846019
  0
LINE
  8
_0-0_計極細
  6
CONTINUOUS
 62
    2
 10
280.24901008710299
 20
976.44671532846019
 11
1279.249010087103
 21
976.44671532846019
  0
LINE
  8
_0-1_計細線
  6
CONTINUOUS
 62
    3
 10
280.24901008710299
 20
955.84671532846028
 11
1279.249010087103
 21
955.84671532846028
  0
LINE
  8
_0-1_計細線
  6
CONTINUOUS
 62
    3
 10
280.24901008710299
 20
967.24671532846082
 11
1279.249010087103
 21
967.24671532846082
  0
LINE
  8
_0-1_計細線
  6
CONTINUOUS
 62
    3
 10
280.24901008710299
 20
955.84671532846028
 11
280.24901008710299
 21
967.24671532846082
  0
LINE
  8
_0-1_計細線
  6
CONTINUOUS
 62
    3
 10
1279.249010087103
 20
955.84671532846028
 11
1279.249010087103
 21
967.24671532846082
  0
LINE
  8
_0-0_計極細
  6
CONTINUOUS
 62
    2
 10
280.24901008710299
 20
964.04671532846055
 11
1279.249010087103
 21
964.04671532846055
  0
LINE
  8
_0-0_計極細
  6
CONTINUOUS
 62
    2
 10
280.24901008710299
 20
959.04671532846055
 11
1279.249010087103
 21
959.04671532846055
  0
ARC
  8
_0-0_計極細
  6
CONTINUOUS
 62
    2
 10
267.19523124378725
 20
1153.3467153284594
 40
11.295514677412786
 50
138.39585046827571
 51
221.60414953172395
  0
ARC
  8
_0-0_計極細
  6
CONTINUOUS
 62
    2
 10
250.30278893041691
 20
1138.346715328458
 40
11.295514677412786
 50
318.39585046827381
 51
41.604149531723962
  0
ARC
  8
_0-0_計極細
  6
CONTINUOUS
 62
    2
 10
267.19523124378725
 20
973.34671532845937
 40
11.295514677412786
 50
138.39585046827571
 51
221.60414953172395
  0
ARC
  8
_0-0_計極細
  6
CONTINUOUS
 62
    2
 10
250.30278893041691
 20
958.346715328458
 40
11.295514677412786
 50
318.39585046827534
 51
41.604149531723962
  0
LINE
  8
_0-1_計細線
  6
CONTINUOUS
 62
    3
 10
258.74901008710117
 20
1160.8467153284594
 11
1300.7490100871028
 21
1160.8467153284594
  0
LINE
  8
_0-1_計細線
  6
CONTINUOUS
 62
    3
 10
1300.7490100871028
 20
950.84671532846073
 11
258.74901008710162
 21
950.84671532846073
  0
ARC
  8
_0-0_計極細
  6
CONTINUOUS
 62
    2
 10
1309.1952312437884
 20
1153.3467153284594
 40
11.295514677412786
 50
138.39585046827494
 51
221.60414953172469
  0
ARC
  8
_0-0_計極細
  6
CONTINUOUS
 62
    2
 10
1292.3027889304178
 20
1138.346715328458
 40
11.295514677412786
 50
318.39585046827455
 51
41.604149531724723
  0
ARC
  8
_0-0_計極細
  6
CONTINUOUS
 62
    2
 10
1309.1952312437884
 20
973.34671532845937
 40
11.295514677412786
 50
138.39585046827494
 51
221.60414953172469
  0
ARC
  8
_0-0_計極細
  6
CONTINUOUS
 62
    2
 10
1292.3027889304178
 20
958.346715328458
 40
11.295514677412786
 50
318.39585046827455
 51
41.604149531724723
  0
LINE
  8
_0-1_計細線
  6
CONTINUOUS
 62
    3
 10
256.83479438872905
 20
1157.8467153284594
 11
1298.8347943887302
 21
1157.8467153284594
  0
LINE
  8
_0-1_計細線
  6
CONTINUOUS
 62
    3
 10
1302.6632257854774
 20
953.84671532846073
 11
260.66322578547738
 21
953.84671532846073
  0
LINE
  8
_0-1_計細線
  6
CONTINUOUS
 62
    3
 10
258.74901008710162
 20
980.84671532846073
 11
280.24901008710299
 21
980.84671532846073
  0
LINE
  8
_0-1_計細線
  6
CONTINUOUS
 62
    3
 10
1279.249010087103
 20
980.84671532846073
 11
1300.7490100871028
 21
980.84671532846073
  0
LINE
  8
_0-1_計細線
  6
CONTINUOUS
 62
    3
 10
1279.249010087103
 20
1130.8467153284594
 11
1300.7490100871028
 21
1130.8467153284594
  0
LINE
  8
_0-1_計細線
  6
CONTINUOUS
 62
    3
 10
258.74901008710117
 20
1130.8467153284594
 11
280.24901008710299
 21
1130.8467153284594
  0
LINE
  8
_0-0_計極細
  6
CONTINUOUS
 62
    2
 10
288.24901008710299
 20
1002.0467153284606
 11
288.24901008710299
 21
1007.6467153284609
  0
LINE
  8
_0-0_計極細
  6
CONTINUOUS
 62
    2
 10
301.24901008710299
 20
1002.0467153284606
 11
301.24901008710299
 21
1007.6467153284609
  0
LINE
  8
_0-0_計極細
  6
CONTINUOUS
 62
    2
 10
288.24901008710299
 20
1019.0467153284615
 11
288.24901008710299
 21
1024.6467153284618
  0
LINE
  8
_0-0_計極細
  6
CONTINUOUS
 62
    2
 10
301.24901008710299
 20
1019.0467153284615
 11
301.24901008710299
 21
1024.6467153284618
  0
LINE
  8
_0-0_計極細
  6
CONTINUOUS
 62
    2
 10
288.24901008710299
 20
1041.6467153284577
 11
288.24901008710299
 21
1036.0467153284578
  0
LINE
  8
_0-0_計極細
  6
CONTINUOUS
 62
    2
 10
301.24901008710299
 20
1041.6467153284577
 11
301.24901008710299
 21
1036.0467153284578
  0
LINE
  8
_0-0_計極細
  6
CONTINUOUS
 62
    2
 10
288.24901008710299
 20
1058.6467153284582
 11
288.24901008710299
 21
1053.0467153284583
  0
LINE
  8
_0-0_計極細
  6
CONTINUOUS
 62
    2
 10
301.24901008710299
 20
1058.6467153284582
 11
301.24901008710299
 21
1053.0467153284583
  0
LINE
  8
_0-0_計極細
  6
CONTINUOUS
 62
    2
 10
288.24901008710299
 20
1127.0467153284596
 11
288.24901008710299
 21
1121.0467153284596
  0
LINE
  8
_0-0_計極細
  6
CONTINUOUS
 62
    2
 10
301.24901008710299
 20
1127.0467153284596
 11
301.24901008710299
 21
1121.0467153284596
  0
LINE
  8
_0-0_計極細
  6
CONTINUOUS
 62
    2
 10
288.24901008710299
 20
1144.4467153284597
 11
288.24901008710299
 21
1138.4467153284593
  0
LINE
  8
_0-0_計極細
  6
CONTINUOUS
 62
    2
 10
301.24901008710299
 20
1144.4467153284597
 11
301.24901008710299
 21
1138.4467153284593
  0
LINE
  8
_0-0_計極細
  6
CONTINUOUS
 62
    2
 10
288.24901008710299
 20
1075.6467153284591
 11
288.24901008710299
 21
1070.0467153284587
  0
LINE
  8
_0-0_計極細
  6
CONTINUOUS
 62
    2
 10
301.24901008710299
 20
1075.6467153284591
 11
301.24901008710299
 21
1070.0467153284587
  0
LINE
  8
_0-0_計極細
  6
CONTINUOUS
 62
    2
 10
288.24901008710299
 20
1092.64671532846
 11
288.24901008710299
 21
1087.0467153284596
  0
LINE
  8
_0-0_計極細
  6
CONTINUOUS
 62
    2
 10
301.24901008710299
 20
1092.64671532846
 11
301.24901008710299
 21
1087.0467153284596
  0
LINE
  8
_0-0_計極細
  6
CONTINUOUS
 62
    2
 10
288.24901008710299
 20
1109.6467153284605
 11
288.24901008710299
 21
1104.0467153284606
  0
LINE
  8
_0-0_計極細
  6
CONTINUOUS
 62
    2
 10
301.24901008710299
 20
1109.6467153284605
 11
301.24901008710299
 21
1104.0467153284606
  0
LINE
  8
_0-0_計極細
  6
CONTINUOUS
 62
    2
 10
288.24901008710299
 20
984.64671532846
 11
288.24901008710299
 21
990.64671532846
  0
LINE
  8
_0-0_計極細
  6
CONTINUOUS
 62
    2
 10
301.24901008710299
 20
984.64671532846
 11
301.24901008710299
 21
990.64671532846
  0
LINE
  8
_0-0_計極細
  6
CENTER1
 62
    2
 10
294.74901008710299
 20
1164.5974347529225
 11
294.74901008710299
 21
948.08889158744819
  0
LINE
  8
_0-0_計極細
  6
CONTINUOUS
 62
    2
 10
288.24901008710299
 20
967.24671532845946
 11
288.24901008710299
 21
973.24671532845946
  0
LINE
  8
_0-0_計極細
  6
CONTINUOUS
 62
    2
 10
301.24901008710299
 20
967.24671532845946
 11
301.24901008710299
 21
973.24671532845946
  0
LINE
  8
_0-0_計極細
  6
CONTINUOUS
 62
    2
 10
1258.249010087103
 20
1002.0467153284606
 11
1258.249010087103
 21
1007.6467153284609
  0
LINE
  8
_0-0_計極細
  6
CONTINUOUS
 62
    2
 10
1271.249010087103
 20
1002.0467153284606
 11
1271.249010087103
 21
1007.6467153284609
  0
LINE
  8
_0-0_計極細
  6
CONTINUOUS
 62
    2
 10
1258.249010087103
 20
1019.0467153284615
 11
1258.249010087103
 21
1024.6467153284618
  0
LINE
  8
_0-0_計極細
  6
CONTINUOUS
 62
    2
 10
1271.249010087103
 20
1019.0467153284615
 11
1271.249010087103
 21
1024.6467153284618
  0
LINE
  8
_0-0_計極細
  6
CONTINUOUS
 62
    2
 10
1258.249010087103
 20
1041.6467153284577
 11
1258.249010087103
 21
1036.0467153284578
  0
LINE
  8
_0-0_計極細
  6
CONTINUOUS
 62
    2
 10
1271.249010087103
 20
1041.6467153284577
 11
1271.249010087103
 21
1036.0467153284578
  0
LINE
  8
_0-0_計極細
  6
CONTINUOUS
 62
    2
 10
1258.249010087103
 20
1058.6467153284582
 11
1258.249010087103
 21
1053.0467153284583
  0
LINE
  8
_0-0_計極細
  6
CONTINUOUS
 62
    2
 10
1271.249010087103
 20
1058.6467153284582
 11
1271.249010087103
 21
1053.0467153284583
  0
LINE
  8
_0-0_計極細
  6
CONTINUOUS
 62
    2
 10
1258.249010087103
 20
1127.0467153284596
 11
1258.249010087103
 21
1121.0467153284596
  0
LINE
  8
_0-0_計極細
  6
CONTINUOUS
 62
    2
 10
1271.249010087103
 20
1127.0467153284596
 11
1271.249010087103
 21
1121.0467153284596
  0
LINE
  8
_0-0_計極細
  6
CONTINUOUS
 62
    2
 10
1258.249010087103
 20
1144.4467153284597
 11
1258.249010087103
 21
1138.4467153284593
  0
LINE
  8
_0-0_計極細
  6
CONTINUOUS
 62
    2
 10
1271.249010087103
 20
1144.4467153284597
 11
1271.249010087103
 21
1138.4467153284593
  0
LINE
  8
_0-0_計極細
  6
CONTINUOUS
 62
    2
 10
1258.249010087103
 20
1075.6467153284591
 11
1258.249010087103
 21
1070.0467153284587
  0
LINE
  8
_0-0_計極細
  6
CONTINUOUS
 62
    2
 10
1271.249010087103
 20
1075.6467153284591
 11
1271.249010087103
 21
1070.0467153284587
  0
LINE
  8
_0-0_計極細
  6
CONTINUOUS
 62
    2
 10
1258.249010087103
 20
1092.64671532846
 11
1258.249010087103
 21
1087.0467153284596
  0
LINE
  8
_0-0_計極細
  6
CONTINUOUS
 62
    2
 10
1271.249010087103
 20
1092.64671532846
 11
1271.249010087103
 21
1087.0467153284596
  0
LINE
  8
_0-0_計極細
  6
CONTINUOUS
 62
    2
 10
1258.249010087103
 20
1109.6467153284605
 11
1258.249010087103
 21
1104.0467153284606
  0
LINE
  8
_0-0_計極細
  6
CONTINUOUS
 62
    2
 10
1271.249010087103
 20
1109.6467153284605
 11
1271.249010087103
 21
1104.0467153284606
  0
LINE
  8
_0-0_計極細
  6
CONTINUOUS
 62
    2
 10
1258.249010087103
 20
984.64671532846
 11
1258.249010087103
 21
990.64671532846
  0
LINE
  8
_0-0_計極細
  6
CONTINUOUS
 62
    2
 10
1271.249010087103
 20
984.64671532846
 11
1271.249010087103
 21
990.64671532846
  0
LINE
  8
_0-0_計極細
  6
CENTER1
 62
    2
 10
1264.749010087103
 20
1164.5974347529225
 11
1264.749010087103
 21
948.08889158744819
  0
LINE
  8
_0-0_計極細
  6
CONTINUOUS
 62
    2
 10
1258.249010087103
 20
967.24671532845946
 11
1258.249010087103
 21
973.24671532845946
  0
LINE
  8
_0-0_計極細
  6
CONTINUOUS
 62
    2
 10
1271.249010087103
 20
967.24671532845946
 11
1271.249010087103
 21
973.24671532845946
  0
LINE
  8
_0-0_計極細
  6
CONTINUOUS
 62
    2
 10
385.24901008710299
 20
1002.0467153284606
 11
385.24901008710299
 21
1007.6467153284609
  0
LINE
  8
_0-0_計極細
  6
CONTINUOUS
 62
    2
 10
398.24901008710299
 20
1002.0467153284606
 11
398.24901008710299
 21
1007.6467153284609
  0
LINE
  8
_0-0_計極細
  6
CONTINUOUS
 62
    2
 10
385.24901008710299
 20
1019.0467153284615
 11
385.24901008710299
 21
1024.6467153284618
  0
LINE
  8
_0-0_計極細
  6
CONTINUOUS
 62
    2
 10
398.24901008710299
 20
1019.0467153284615
 11
398.24901008710299
 21
1024.6467153284618
  0
LINE
  8
_0-0_計極細
  6
CONTINUOUS
 62
    2
 10
385.24901008710299
 20
1041.6467153284577
 11
385.24901008710299
 21
1036.0467153284578
  0
LINE
  8
_0-0_計極細
  6
CONTINUOUS
 62
    2
 10
398.24901008710299
 20
1041.6467153284577
 11
398.24901008710299
 21
1036.0467153284578
  0
LINE
  8
_0-0_計極細
  6
CONTINUOUS
 62
    2
 10
385.24901008710299
 20
1127.0467153284596
 11
385.24901008710299
 21
1121.0467153284596
  0
LINE
  8
_0-0_計極細
  6
CONTINUOUS
 62
    2
 10
398.24901008710299
 20
1127.0467153284596
 11
398.24901008710299
 21
1121.0467153284596
  0
LINE
  8
_0-0_計極細
  6
CONTINUOUS
 62
    2
 10
385.24901008710299
 20
1144.4467153284597
 11
385.24901008710299
 21
1138.4467153284593
  0
LINE
  8
_0-0_計極細
  6
CONTINUOUS
 62
    2
 10
398.24901008710299
 20
1144.4467153284597
 11
398.24901008710299
 21
1138.4467153284593
  0
LINE
  8
_0-0_計極細
  6
CONTINUOUS
 62
    2
 10
385.24901008710299
 20
1075.6467153284591
 11
385.24901008710299
 21
1070.0467153284587
  0
LINE
  8
_0-0_計極細
  6
CONTINUOUS
 62
    2
 10
398.24901008710299
 20
1075.6467153284591
 11
398.24901008710299
 21
1070.0467153284587
  0
LINE
  8
_0-0_計極細
  6
CONTINUOUS
 62
    2
 10
385.24901008710299
 20
1092.64671532846
 11
385.24901008710299
 21
1087.0467153284596
  0
LINE
  8
_0-0_計極細
  6
CONTINUOUS
 62
    2
 10
398.24901008710299
 20
1092.64671532846
 11
398.24901008710299
 21
1087.0467153284596
  0
LINE
  8
_0-0_計極細
  6
CONTINUOUS
 62
    2
 10
385.24901008710299
 20
1109.6467153284605
 11
385.24901008710299
 21
1104.0467153284606
  0
LINE
  8
_0-0_計極細
  6
CONTINUOUS
 62
    2
 10
398.24901008710299
 20
1109.6467153284605
 11
398.24901008710299
 21
1104.0467153284606
  0
LINE
  8
_0-0_計極細
  6
CONTINUOUS
 62
    2
 10
385.24901008710299
 20
984.64671532846
 11
385.24901008710299
 21
990.64671532846
  0
LINE
  8
_0-0_計極細
  6
CONTINUOUS
 62
    2
 10
398.24901008710299
 20
984.64671532846
 11
398.24901008710299
 21
990.64671532846
  0
LINE
  8
_0-0_計極細
  6
CENTER1
 62
    2
 10
391.74901008710299
 20
1164.5974347529225
 11
391.74901008710299
 21
948.08889158744819
  0
LINE
  8
_0-0_計極細
  6
CONTINUOUS
 62
    2
 10
385.24901008710299
 20
967.24671532845946
 11
385.24901008710299
 21
973.24671532845946
  0
LINE
  8
_0-0_計極細
  6
CONTINUOUS
 62
    2
 10
398.24901008710299
 20
967.24671532845946
 11
398.24901008710299
 21
973.24671532845946
  0
LINE
  8
_0-0_計極細
  6
CONTINUOUS
 62
    2
 10
1161.249010087103
 20
1002.0467153284606
 11
1161.249010087103
 21
1007.6467153284609
  0
LINE
  8
_0-0_計極細
  6
CONTINUOUS
 62
    2
 10
1174.249010087103
 20
1002.0467153284606
 11
1174.249010087103
 21
1007.6467153284609
  0
LINE
  8
_0-0_計極細
  6
CONTINUOUS
 62
    2
 10
1161.249010087103
 20
1019.0467153284615
 11
1161.249010087103
 21
1024.6467153284618
  0
LINE
  8
_0-0_計極細
  6
CONTINUOUS
 62
    2
 10
1174.249010087103
 20
1019.0467153284615
 11
1174.249010087103
 21
1024.6467153284618
  0
LINE
  8
_0-0_計極細
  6
CONTINUOUS
 62
    2
 10
1161.249010087103
 20
1041.6467153284577
 11
1161.249010087103
 21
1036.0467153284578
  0
LINE
  8
_0-0_計極細
  6
CONTINUOUS
 62
    2
 10
1174.249010087103
 20
1041.6467153284577
 11
1174.249010087103
 21
1036.0467153284578
  0
LINE
  8
_0-0_計極細
  6
CONTINUOUS
 62
    2
 10
1161.249010087103
 20
1058.6467153284582
 11
1161.249010087103
 21
1053.0467153284583
  0
LINE
  8
_0-0_計極細
  6
CONTINUOUS
 62
    2
 10
1174.249010087103
 20
1058.6467153284582
 11
1174.249010087103
 21
1053.0467153284583
  0
LINE
  8
_0-0_計極細
  6
CONTINUOUS
 62
    2
 10
1161.249010087103
 20
1127.0467153284596
 11
1161.249010087103
 21
1121.0467153284596
  0
LINE
  8
_0-0_計極細
  6
CONTINUOUS
 62
    2
 10
1174.249010087103
 20
1127.0467153284596
 11
1174.249010087103
 21
1121.0467153284596
  0
LINE
  8
_0-0_計極細
  6
CONTINUOUS
 62
    2
 10
1161.249010087103
 20
1144.4467153284597
 11
1161.249010087103
 21
1138.4467153284593
  0
LINE
  8
_0-0_計極細
  6
CONTINUOUS
 62
    2
 10
1174.249010087103
 20
1144.4467153284597
 11
1174.249010087103
 21
1138.4467153284593
  0
LINE
  8
_0-0_計極細
  6
CONTINUOUS
 62
    2
 10
1161.249010087103
 20
1075.6467153284591
 11
1161.249010087103
 21
1070.0467153284587
  0
LINE
  8
_0-0_計極細
  6
CONTINUOUS
 62
    2
 10
1174.249010087103
 20
1075.6467153284591
 11
1174.249010087103
 21
1070.0467153284587
  0
LINE
  8
_0-0_計極細
  6
CONTINUOUS
 62
    2
 10
1161.249010087103
 20
1092.64671532846
 11
1161.249010087103
 21
1087.0467153284596
  0
LINE
  8
_0-0_計極細
  6
CONTINUOUS
 62
    2
 10
1174.249010087103
 20
1092.64671532846
 11
1174.249010087103
 21
1087.0467153284596
  0
LINE
  8
_0-0_計極細
  6
CONTINUOUS
 62
    2
 10
1161.249010087103
 20
1109.6467153284605
 11
1161.249010087103
 21
1104.0467153284606
  0
LINE
  8
_0-0_計極細
  6
CONTINUOUS
 62
    2
 10
1174.249010087103
 20
1109.6467153284605
 11
1174.249010087103
 21
1104.0467153284606
  0
LINE
  8
_0-0_計極細
  6
CONTINUOUS
 62
    2
 10
1161.249010087103
 20
984.64671532846
 11
1161.249010087103
 21
990.64671532846
  0
LINE
  8
_0-0_計極細
  6
CONTINUOUS
 62
    2
 10
1174.249010087103
 20
984.64671532846
 11
1174.249010087103
 21
990.64671532846
  0
LINE
  8
_0-0_計極細
  6
CENTER1
 62
    2
 10
1167.749010087103
 20
1164.5974347529225
 11
1167.749010087103
 21
948.08889158744819
  0
LINE
  8
_0-0_計極細
  6
CONTINUOUS
 62
    2
 10
1161.249010087103
 20
967.24671532845946
 11
1161.249010087103
 21
973.24671532845946
  0
LINE
  8
_0-0_計極細
  6
CONTINUOUS
 62
    2
 10
1174.249010087103
 20
967.24671532845946
 11
1174.249010087103
 21
973.24671532845946
  0
LINE
  8
_0-0_計極細
  6
CONTINUOUS
 62
    2
 10
433.74901008710299
 20
1002.0467153284606
 11
433.74901008710299
 21
1007.6467153284609
  0
LINE
  8
_0-0_計極細
  6
CONTINUOUS
 62
    2
 10
446.74901008710299
 20
1002.0467153284606
 11
446.74901008710299
 21
1007.6467153284609
  0
LINE
  8
_0-0_計極細
  6
CONTINUOUS
 62
    2
 10
433.74901008710299
 20
1019.0467153284615
 11
433.74901008710299
 21
1024.6467153284618
  0
LINE
  8
_0-0_計極細
  6
CONTINUOUS
 62
    2
 10
446.74901008710299
 20
1019.0467153284615
 11
446.74901008710299
 21
1024.6467153284618
  0
LINE
  8
_0-0_計極細
  6
CONTINUOUS
 62
    2
 10
433.74901008710299
 20
1041.6467153284577
 11
433.74901008710299
 21
1036.0467153284578
  0
LINE
  8
_0-0_計極細
  6
CONTINUOUS
 62
    2
 10
446.74901008710299
 20
1041.6467153284577
 11
446.74901008710299
 21
1036.0467153284578
  0
LINE
  8
_0-0_計極細
  6
CONTINUOUS
 62
    2
 10
433.74901008710299
 20
1058.6467153284582
 11
433.74901008710299
 21
1053.0467153284583
  0
LINE
  8
_0-0_計極細
  6
CONTINUOUS
 62
    2
 10
446.74901008710299
 20
1058.6467153284582
 11
446.74901008710299
 21
1053.0467153284583
  0
LINE
  8
_0-0_計極細
  6
CONTINUOUS
 62
    2
 10
433.74901008710299
 20
1127.0467153284596
 11
433.74901008710299
 21
1121.0467153284596
  0
LINE
  8
_0-0_計極細
  6
CONTINUOUS
 62
    2
 10
446.74901008710299
 20
1127.0467153284596
 11
446.74901008710299
 21
1121.0467153284596
  0
LINE
  8
_0-0_計極細
  6
CONTINUOUS
 62
    2
 10
433.74901008710299
 20
1144.4467153284597
 11
433.74901008710299
 21
1138.4467153284593
  0
LINE
  8
_0-0_計極細
  6
CONTINUOUS
 62
    2
 10
446.74901008710299
 20
1144.4467153284597
 11
446.74901008710299
 21
1138.4467153284593
  0
LINE
  8
_0-0_計極細
  6
CONTINUOUS
 62
    2
 10
433.74901008710299
 20
1075.6467153284591
 11
433.74901008710299
 21
1070.0467153284587
  0
LINE
  8
_0-0_計極細
  6
CONTINUOUS
 62
    2
 10
446.74901008710299
 20
1075.6467153284591
 11
446.74901008710299
 21
1070.0467153284587
  0
LINE
  8
_0-0_計極細
  6
CONTINUOUS
 62
    2
 10
433.74901008710299
 20
1092.64671532846
 11
433.74901008710299
 21
1087.0467153284596
  0
LINE
  8
_0-0_計極細
  6
CONTINUOUS
 62
    2
 10
446.74901008710299
 20
1092.64671532846
 11
446.74901008710299
 21
1087.0467153284596
  0
LINE
  8
_0-0_計極細
  6
CONTINUOUS
 62
    2
 10
433.74901008710299
 20
1109.6467153284605
 11
433.74901008710299
 21
1104.0467153284606
  0
LINE
  8
_0-0_計極細
  6
CONTINUOUS
 62
    2
 10
446.74901008710299
 20
1109.6467153284605
 11
446.74901008710299
 21
1104.0467153284606
  0
LINE
  8
_0-0_計極細
  6
CONTINUOUS
 62
    2
 10
433.74901008710299
 20
984.64671532846
 11
433.74901008710299
 21
990.64671532846
  0
LINE
  8
_0-0_計極細
  6
CONTINUOUS
 62
    2
 10
446.74901008710299
 20
984.64671532846
 11
446.74901008710299
 21
990.64671532846
  0
LINE
  8
_0-0_計極細
  6
CENTER1
 62
    2
 10
440.24901008710299
 20
1164.5974347529225
 11
440.24901008710299
 21
948.08889158744819
  0
LINE
  8
_0-0_計極細
  6
CONTINUOUS
 62
    2
 10
433.74901008710299
 20
967.24671532845946
 11
433.74901008710299
 21
973.24671532845946
  0
LINE
  8
_0-0_計極細
  6
CONTINUOUS
 62
    2
 10
446.74901008710299
 20
967.24671532845946
 11
446.74901008710299
 21
973.24671532845946
  0
LINE
  8
_0-0_計極細
  6
CONTINUOUS
 62
    2
 10
482.24901008710299
 20
1002.0467153284606
 11
482.24901008710299
 21
1007.6467153284609
  0
LINE
  8
_0-0_計極細
  6
CONTINUOUS
 62
    2
 10
495.24901008710299
 20
1002.0467153284606
 11
495.24901008710299
 21
1007.6467153284609
  0
LINE
  8
_0-0_計極細
  6
CONTINUOUS
 62
    2
 10
482.24901008710299
 20
1019.0467153284615
 11
482.24901008710299
 21
1024.6467153284618
  0
LINE
  8
_0-0_計極細
  6
CONTINUOUS
 62
    2
 10
495.24901008710299
 20
1019.0467153284615
 11
495.24901008710299
 21
1024.6467153284618
  0
LINE
  8
_0-0_計極細
  6
CONTINUOUS
 62
    2
 10
482.24901008710299
 20
1041.6467153284577
 11
482.24901008710299
 21
1036.0467153284578
  0
LINE
  8
_0-0_計極細
  6
CONTINUOUS
 62
    2
 10
495.24901008710299
 20
1041.6467153284577
 11
495.24901008710299
 21
1036.0467153284578
  0
LINE
  8
_0-0_計極細
  6
CONTINUOUS
 62
    2
 10
482.24901008710299
 20
1058.6467153284582
 11
482.24901008710299
 21
1053.0467153284583
  0
LINE
  8
_0-0_計極細
  6
CONTINUOUS
 62
    2
 10
495.24901008710299
 20
1058.6467153284582
 11
495.24901008710299
 21
1053.0467153284583
  0
LINE
  8
_0-0_計極細
  6
CONTINUOUS
 62
    2
 10
482.24901008710299
 20
1127.0467153284596
 11
482.24901008710299
 21
1121.0467153284596
  0
LINE
  8
_0-0_計極細
  6
CONTINUOUS
 62
    2
 10
495.24901008710299
 20
1127.0467153284596
 11
495.24901008710299
 21
1121.0467153284596
  0
LINE
  8
_0-0_計極細
  6
CONTINUOUS
 62
    2
 10
482.24901008710299
 20
1144.4467153284597
 11
482.24901008710299
 21
1138.4467153284593
  0
LINE
  8
_0-0_計極細
  6
CONTINUOUS
 62
    2
 10
495.24901008710299
 20
1144.4467153284597
 11
495.24901008710299
 21
1138.4467153284593
  0
LINE
  8
_0-0_計極細
  6
CONTINUOUS
 62
    2
 10
482.24901008710299
 20
1075.6467153284591
 11
482.24901008710299
 21
1070.0467153284587
  0
LINE
  8
_0-0_計極細
  6
CONTINUOUS
 62
    2
 10
495.24901008710299
 20
1075.6467153284591
 11
495.24901008710299
 21
1070.0467153284587
  0
LINE
  8
_0-0_計極細
  6
CONTINUOUS
 62
    2
 10
482.24901008710299
 20
1092.64671532846
 11
482.24901008710299
 21
1087.0467153284596
  0
LINE
  8
_0-0_計極細
  6
CONTINUOUS
 62
    2
 10
495.24901008710299
 20
1092.64671532846
 11
495.24901008710299
 21
1087.0467153284596
  0
LINE
  8
_0-0_計極細
  6
CONTINUOUS
 62
    2
 10
482.24901008710299
 20
1109.6467153284605
 11
482.24901008710299
 21
1104.0467153284606
  0
LINE
  8
_0-0_計極細
  6
CONTINUOUS
 62
    2
 10
495.24901008710299
 20
1109.6467153284605
 11
495.24901008710299
 21
1104.0467153284606
  0
LINE
  8
_0-0_計極細
  6
CONTINUOUS
 62
    2
 10
482.24901008710299
 20
984.64671532846
 11
482.24901008710299
 21
990.64671532846
  0
LINE
  8
_0-0_計極細
  6
CONTINUOUS
 62
    2
 10
495.24901008710299
 20
984.64671532846
 11
495.24901008710299
 21
990.64671532846
  0
LINE
  8
_0-0_計極細
  6
CENTER1
 62
    2
 10
488.74901008710299
 20
1164.5974347529225
 11
488.74901008710299
 21
948.08889158744819
  0
LINE
  8
_0-0_計極細
  6
CONTINUOUS
 62
    2
 10
482.24901008710299
 20
967.24671532845946
 11
482.24901008710299
 21
973.24671532845946
  0
LINE
  8
_0-0_計極細
  6
CONTINUOUS
 62
    2
 10
495.24901008710299
 20
967.24671532845946
 11
495.24901008710299
 21
973.24671532845946
  0
LINE
  8
_0-0_計極細
  6
CONTINUOUS
 62
    2
 10
530.74901008710299
 20
1002.0467153284606
 11
530.74901008710299
 21
1007.6467153284609
  0
LINE
  8
_0-0_計極細
  6
CONTINUOUS
 62
    2
 10
543.74901008710299
 20
1002.0467153284606
 11
543.74901008710299
 21
1007.6467153284609
  0
LINE
  8
_0-0_計極細
  6
CONTINUOUS
 62
    2
 10
530.74901008710299
 20
1019.0467153284615
 11
530.74901008710299
 21
1024.6467153284618
  0
LINE
  8
_0-0_計極細
  6
CONTINUOUS
 62
    2
 10
543.74901008710299
 20
1019.0467153284615
 11
543.74901008710299
 21
1024.6467153284618
  0
LINE
  8
_0-0_計極細
  6
CONTINUOUS
 62
    2
 10
530.74901008710299
 20
1041.6467153284577
 11
530.74901008710299
 21
1036.0467153284578
  0
LINE
  8
_0-0_計極細
  6
CONTINUOUS
 62
    2
 10
543.74901008710299
 20
1041.6467153284577
 11
543.74901008710299
 21
1036.0467153284578
  0
LINE
  8
_0-0_計極細
  6
CONTINUOUS
 62
    2
 10
530.74901008710299
 20
1058.6467153284582
 11
530.74901008710299
 21
1053.0467153284583
  0
LINE
  8
_0-0_計極細
  6
CONTINUOUS
 62
    2
 10
543.74901008710299
 20
1058.6467153284582
 11
543.74901008710299
 21
1053.0467153284583
  0
LINE
  8
_0-0_計極細
  6
CONTINUOUS
 62
    2
 10
530.74901008710299
 20
1127.0467153284596
 11
530.74901008710299
 21
1121.0467153284596
  0
LINE
  8
_0-0_計極細
  6
CONTINUOUS
 62
    2
 10
543.74901008710299
 20
1127.0467153284596
 11
543.74901008710299
 21
1121.0467153284596
  0
LINE
  8
_0-0_計極細
  6
CONTINUOUS
 62
    2
 10
530.74901008710299
 20
1144.4467153284597
 11
530.74901008710299
 21
1138.4467153284593
  0
LINE
  8
_0-0_計極細
  6
CONTINUOUS
 62
    2
 10
543.74901008710299
 20
1144.4467153284597
 11
543.74901008710299
 21
1138.4467153284593
  0
LINE
  8
_0-0_計極細
  6
CONTINUOUS
 62
    2
 10
530.74901008710299
 20
1075.6467153284591
 11
530.74901008710299
 21
1070.0467153284587
  0
LINE
  8
_0-0_計極細
  6
CONTINUOUS
 62
    2
 10
543.74901008710299
 20
1075.6467153284591
 11
543.74901008710299
 21
1070.0467153284587
  0
LINE
  8
_0-0_計極細
  6
CONTINUOUS
 62
    2
 10
530.74901008710299
 20
1092.64671532846
 11
530.74901008710299
 21
1087.0467153284596
  0
LINE
  8
_0-0_計極細
  6
CONTINUOUS
 62
    2
 10
543.74901008710299
 20
1092.64671532846
 11
543.74901008710299
 21
1087.0467153284596
  0
LINE
  8
_0-0_計極細
  6
CONTINUOUS
 62
    2
 10
530.74901008710299
 20
1109.6467153284605
 11
530.74901008710299
 21
1104.0467153284606
  0
LINE
  8
_0-0_計極細
  6
CONTINUOUS
 62
    2
 10
543.74901008710299
 20
1109.6467153284605
 11
543.74901008710299
 21
1104.0467153284606
  0
LINE
  8
_0-0_計極細
  6
CONTINUOUS
 62
    2
 10
530.74901008710299
 20
984.64671532846
 11
530.74901008710299
 21
990.64671532846
  0
LINE
  8
_0-0_計極細
  6
CONTINUOUS
 62
    2
 10
543.74901008710299
 20
984.64671532846
 11
543.74901008710299
 21
990.64671532846
  0
LINE
  8
_0-0_計極細
  6
CENTER1
 62
    2
 10
537.24901008710299
 20
1164.5974347529225
 11
537.24901008710299
 21
948.08889158744819
  0
LINE
  8
_0-0_計極細
  6
CONTINUOUS
 62
    2
 10
530.74901008710299
 20
967.24671532845946
 11
530.74901008710299
 21
973.24671532845946
  0
LINE
  8
_0-0_計極細
  6
CONTINUOUS
 62
    2
 10
543.74901008710299
 20
967.24671532845946
 11
543.74901008710299
 21
973.24671532845946
  0
LINE
  8
_0-0_計極細
  6
CONTINUOUS
 62
    2
 10
579.24901008710299
 20
1002.0467153284606
 11
579.24901008710299
 21
1007.6467153284609
  0
LINE
  8
_0-0_計極細
  6
CONTINUOUS
 62
    2
 10
592.24901008710299
 20
1002.0467153284606
 11
592.24901008710299
 21
1007.6467153284609
  0
LINE
  8
_0-0_計極細
  6
CONTINUOUS
 62
    2
 10
579.24901008710299
 20
1019.0467153284615
 11
579.24901008710299
 21
1024.6467153284618
  0
LINE
  8
_0-0_計極細
  6
CONTINUOUS
 62
    2
 10
592.24901008710299
 20
1019.0467153284615
 11
592.24901008710299
 21
1024.6467153284618
  0
LINE
  8
_0-0_計極細
  6
CONTINUOUS
 62
    2
 10
579.24901008710299
 20
1041.6467153284577
 11
579.24901008710299
 21
1036.0467153284578
  0
LINE
  8
_0-0_計極細
  6
CONTINUOUS
 62
    2
 10
592.24901008710299
 20
1041.6467153284577
 11
592.24901008710299
 21
1036.0467153284578
  0
LINE
  8
_0-0_計極細
  6
CONTINUOUS
 62
    2
 10
579.24901008710299
 20
1058.6467153284582
 11
579.24901008710299
 21
1053.0467153284583
  0
LINE
  8
_0-0_計極細
  6
CONTINUOUS
 62
    2
 10
592.24901008710299
 20
1058.6467153284582
 11
592.24901008710299
 21
1053.0467153284583
  0
LINE
  8
_0-0_計極細
  6
CONTINUOUS
 62
    2
 10
579.24901008710299
 20
1127.0467153284596
 11
579.24901008710299
 21
1121.0467153284596
  0
LINE
  8
_0-0_計極細
  6
CONTINUOUS
 62
    2
 10
592.24901008710299
 20
1127.0467153284596
 11
592.24901008710299
 21
1121.0467153284596
  0
LINE
  8
_0-0_計極細
  6
CONTINUOUS
 62
    2
 10
579.24901008710299
 20
1144.4467153284597
 11
579.24901008710299
 21
1138.4467153284593
  0
LINE
  8
_0-0_計極細
  6
CONTINUOUS
 62
    2
 10
592.24901008710299
 20
1144.4467153284597
 11
592.24901008710299
 21
1138.4467153284593
  0
LINE
  8
_0-0_計極細
  6
CONTINUOUS
 62
    2
 10
579.24901008710299
 20
1075.6467153284591
 11
579.24901008710299
 21
1070.0467153284587
  0
LINE
  8
_0-0_計極細
  6
CONTINUOUS
 62
    2
 10
592.24901008710299
 20
1075.6467153284591
 11
592.24901008710299
 21
1070.0467153284587
  0
LINE
  8
_0-0_計極細
  6
CONTINUOUS
 62
    2
 10
579.24901008710299
 20
1092.64671532846
 11
579.24901008710299
 21
1087.0467153284596
  0
LINE
  8
_0-0_計極細
  6
CONTINUOUS
 62
    2
 10
592.24901008710299
 20
1092.64671532846
 11
592.24901008710299
 21
1087.0467153284596
  0
LINE
  8
_0-0_計極細
  6
CONTINUOUS
 62
    2
 10
579.24901008710299
 20
1109.6467153284605
 11
579.24901008710299
 21
1104.0467153284606
  0
LINE
  8
_0-0_計極細
  6
CONTINUOUS
 62
    2
 10
592.24901008710299
 20
1109.6467153284605
 11
592.24901008710299
 21
1104.0467153284606
  0
LINE
  8
_0-0_計極細
  6
CONTINUOUS
 62
    2
 10
579.24901008710299
 20
984.64671532846
 11
579.24901008710299
 21
990.64671532846
  0
LINE
  8
_0-0_計極細
  6
CONTINUOUS
 62
    2
 10
592.24901008710299
 20
984.64671532846
 11
592.24901008710299
 21
990.64671532846
  0
LINE
  8
_0-0_計極細
  6
CENTER1
 62
    2
 10
585.74901008710299
 20
1164.5974347529225
 11
585.74901008710299
 21
948.08889158744819
  0
LINE
  8
_0-0_計極細
  6
CONTINUOUS
 62
    2
 10
579.24901008710299
 20
967.24671532845946
 11
579.24901008710299
 21
973.24671532845946
  0
LINE
  8
_0-0_計極細
  6
CONTINUOUS
 62
    2
 10
592.24901008710299
 20
967.24671532845946
 11
592.24901008710299
 21
973.24671532845946
  0
LINE
  8
_0-0_計極細
  6
CONTINUOUS
 62
    2
 10
627.74901008710299
 20
1002.0467153284606
 11
627.74901008710299
 21
1007.6467153284609
  0
LINE
  8
_0-0_計極細
  6
CONTINUOUS
 62
    2
 10
640.74901008710299
 20
1002.0467153284606
 11
640.74901008710299
 21
1007.6467153284609
  0
LINE
  8
_0-0_計極細
  6
CONTINUOUS
 62
    2
 10
627.74901008710299
 20
1019.0467153284615
 11
627.74901008710299
 21
1024.6467153284618
  0
LINE
  8
_0-0_計極細
  6
CONTINUOUS
 62
    2
 10
640.74901008710299
 20
1019.0467153284615
 11
640.74901008710299
 21
1024.6467153284618
  0
LINE
  8
_0-0_計極細
  6
CONTINUOUS
 62
    2
 10
627.74901008710299
 20
1041.6467153284577
 11
627.74901008710299
 21
1036.0467153284578
  0
LINE
  8
_0-0_計極細
  6
CONTINUOUS
 62
    2
 10
640.74901008710299
 20
1041.6467153284577
 11
640.74901008710299
 21
1036.0467153284578
  0
LINE
  8
_0-0_計極細
  6
CONTINUOUS
 62
    2
 10
627.74901008710299
 20
1058.6467153284582
 11
627.74901008710299
 21
1053.0467153284583
  0
LINE
  8
_0-0_計極細
  6
CONTINUOUS
 62
    2
 10
640.74901008710299
 20
1058.6467153284582
 11
640.74901008710299
 21
1053.0467153284583
  0
LINE
  8
_0-0_計極細
  6
CONTINUOUS
 62
    2
 10
627.74901008710299
 20
1127.0467153284596
 11
627.74901008710299
 21
1121.0467153284596
  0
LINE
  8
_0-0_計極細
  6
CONTINUOUS
 62
    2
 10
640.74901008710299
 20
1127.0467153284596
 11
640.74901008710299
 21
1121.0467153284596
  0
LINE
  8
_0-0_計極細
  6
CONTINUOUS
 62
    2
 10
627.74901008710299
 20
1144.4467153284597
 11
627.74901008710299
 21
1138.4467153284593
  0
LINE
  8
_0-0_計極細
  6
CONTINUOUS
 62
    2
 10
640.74901008710299
 20
1144.4467153284597
 11
640.74901008710299
 21
1138.4467153284593
  0
LINE
  8
_0-0_計極細
  6
CONTINUOUS
 62
    2
 10
627.74901008710299
 20
1075.6467153284591
 11
627.74901008710299
 21
1070.0467153284587
  0
LINE
  8
_0-0_計極細
  6
CONTINUOUS
 62
    2
 10
640.74901008710299
 20
1075.6467153284591
 11
640.74901008710299
 21
1070.0467153284587
  0
LINE
  8
_0-0_計極細
  6
CONTINUOUS
 62
    2
 10
627.74901008710299
 20
1092.64671532846
 11
627.74901008710299
 21
1087.0467153284596
  0
LINE
  8
_0-0_計極細
  6
CONTINUOUS
 62
    2
 10
640.74901008710299
 20
1092.64671532846
 11
640.74901008710299
 21
1087.0467153284596
  0
LINE
  8
_0-0_計極細
  6
CONTINUOUS
 62
    2
 10
627.74901008710299
 20
1109.6467153284605
 11
627.74901008710299
 21
1104.0467153284606
  0
LINE
  8
_0-0_計極細
  6
CONTINUOUS
 62
    2
 10
640.74901008710299
 20
1109.6467153284605
 11
640.74901008710299
 21
1104.0467153284606
  0
LINE
  8
_0-0_計極細
  6
CONTINUOUS
 62
    2
 10
627.74901008710299
 20
984.64671532846
 11
627.74901008710299
 21
990.64671532846
  0
LINE
  8
_0-0_計極細
  6
CONTINUOUS
 62
    2
 10
640.74901008710299
 20
984.64671532846
 11
640.74901008710299
 21
990.64671532846
  0
LINE
  8
_0-0_計極細
  6
CENTER1
 62
    2
 10
634.24901008710299
 20
1164.5974347529225
 11
634.24901008710299
 21
948.08889158744819
  0
LINE
  8
_0-0_計極細
  6
CONTINUOUS
 62
    2
 10
627.74901008710299
 20
967.24671532845946
 11
627.74901008710299
 21
973.24671532845946
  0
LINE
  8
_0-0_計極細
  6
CONTINUOUS
 62
    2
 10
640.74901008710299
 20
967.24671532845946
 11
640.74901008710299
 21
973.24671532845946
  0
LINE
  8
_0-0_計極細
  6
CONTINUOUS
 62
    2
 10
676.24901008710299
 20
1002.0467153284606
 11
676.24901008710299
 21
1007.6467153284609
  0
LINE
  8
_0-0_計極細
  6
CONTINUOUS
 62
    2
 10
689.24901008710299
 20
1002.0467153284606
 11
689.24901008710299
 21
1007.6467153284609
  0
LINE
  8
_0-0_計極細
  6
CONTINUOUS
 62
    2
 10
676.24901008710299
 20
1019.0467153284615
 11
676.24901008710299
 21
1024.6467153284618
  0
LINE
  8
_0-0_計極細
  6
CONTINUOUS
 62
    2
 10
689.24901008710299
 20
1019.0467153284615
 11
689.24901008710299
 21
1024.6467153284618
  0
LINE
  8
_0-0_計極細
  6
CONTINUOUS
 62
    2
 10
676.24901008710299
 20
1041.6467153284577
 11
676.24901008710299
 21
1036.0467153284578
  0
LINE
  8
_0-0_計極細
  6
CONTINUOUS
 62
    2
 10
689.24901008710299
 20
1041.6467153284577
 11
689.24901008710299
 21
1036.0467153284578
  0
LINE
  8
_0-0_計極細
  6
CONTINUOUS
 62
    2
 10
676.24901008710299
 20
1058.6467153284582
 11
676.24901008710299
 21
1053.0467153284583
  0
LINE
  8
_0-0_計極細
  6
CONTINUOUS
 62
    2
 10
689.24901008710299
 20
1058.6467153284582
 11
689.24901008710299
 21
1053.0467153284583
  0
LINE
  8
_0-0_計極細
  6
CONTINUOUS
 62
    2
 10
676.24901008710299
 20
1127.0467153284596
 11
676.24901008710299
 21
1121.0467153284596
  0
LINE
  8
_0-0_計極細
  6
CONTINUOUS
 62
    2
 10
689.24901008710299
 20
1127.0467153284596
 11
689.24901008710299
 21
1121.0467153284596
  0
LINE
  8
_0-0_計極細
  6
CONTINUOUS
 62
    2
 10
676.24901008710299
 20
1144.4467153284597
 11
676.24901008710299
 21
1138.4467153284593
  0
LINE
  8
_0-0_計極細
  6
CONTINUOUS
 62
    2
 10
689.24901008710299
 20
1144.4467153284597
 11
689.24901008710299
 21
1138.4467153284593
  0
LINE
  8
_0-0_計極細
  6
CONTINUOUS
 62
    2
 10
676.24901008710299
 20
1075.6467153284591
 11
676.24901008710299
 21
1070.0467153284587
  0
LINE
  8
_0-0_計極細
  6
CONTINUOUS
 62
    2
 10
689.24901008710299
 20
1075.6467153284591
 11
689.24901008710299
 21
1070.0467153284587
  0
LINE
  8
_0-0_計極細
  6
CONTINUOUS
 62
    2
 10
676.24901008710299
 20
1092.64671532846
 11
676.24901008710299
 21
1087.0467153284596
  0
LINE
  8
_0-0_計極細
  6
CONTINUOUS
 62
    2
 10
689.24901008710299
 20
1092.64671532846
 11
689.24901008710299
 21
1087.0467153284596
  0
LINE
  8
_0-0_計極細
  6
CONTINUOUS
 62
    2
 10
676.24901008710299
 20
1109.6467153284605
 11
676.24901008710299
 21
1104.0467153284606
  0
LINE
  8
_0-0_計極細
  6
CONTINUOUS
 62
    2
 10
689.24901008710299
 20
1109.6467153284605
 11
689.24901008710299
 21
1104.0467153284606
  0
LINE
  8
_0-0_計極細
  6
CONTINUOUS
 62
    2
 10
676.24901008710299
 20
984.64671532846
 11
676.24901008710299
 21
990.64671532846
  0
LINE
  8
_0-0_計極細
  6
CONTINUOUS
 62
    2
 10
689.24901008710299
 20
984.64671532846
 11
689.24901008710299
 21
990.64671532846
  0
LINE
  8
_0-0_計極細
  6
CENTER1
 62
    2
 10
682.74901008710299
 20
1164.5974347529225
 11
682.74901008710299
 21
948.08889158744819
  0
LINE
  8
_0-0_計極細
  6
CONTINUOUS
 62
    2
 10
676.24901008710299
 20
967.24671532845946
 11
676.24901008710299
 21
973.24671532845946
  0
LINE
  8
_0-0_計極細
  6
CONTINUOUS
 62
    2
 10
689.24901008710299
 20
967.24671532845946
 11
689.24901008710299
 21
973.24671532845946
  0
LINE
  8
_0-0_計極細
  6
CONTINUOUS
 62
    2
 10
724.74901008710299
 20
1002.0467153284606
 11
724.74901008710299
 21
1007.6467153284609
  0
LINE
  8
_0-0_計極細
  6
CONTINUOUS
 62
    2
 10
737.74901008710299
 20
1002.0467153284606
 11
737.74901008710299
 21
1007.6467153284609
  0
LINE
  8
_0-0_計極細
  6
CONTINUOUS
 62
    2
 10
724.74901008710299
 20
1019.0467153284615
 11
724.74901008710299
 21
1024.6467153284618
  0
LINE
  8
_0-0_計極細
  6
CONTINUOUS
 62
    2
 10
737.74901008710299
 20
1019.0467153284615
 11
737.74901008710299
 21
1024.6467153284618
  0
LINE
  8
_0-0_計極細
  6
CONTINUOUS
 62
    2
 10
724.74901008710299
 20
1041.6467153284577
 11
724.74901008710299
 21
1036.0467153284578
  0
LINE
  8
_0-0_計極細
  6
CONTINUOUS
 62
    2
 10
737.74901008710299
 20
1041.6467153284577
 11
737.74901008710299
 21
1036.0467153284578
  0
LINE
  8
_0-0_計極細
  6
CONTINUOUS
 62
    2
 10
724.74901008710299
 20
1058.6467153284582
 11
724.74901008710299
 21
1053.0467153284583
  0
LINE
  8
_0-0_計極細
  6
CONTINUOUS
 62
    2
 10
737.74901008710299
 20
1058.6467153284582
 11
737.74901008710299
 21
1053.0467153284583
  0
LINE
  8
_0-0_計極細
  6
CONTINUOUS
 62
    2
 10
724.74901008710299
 20
1127.0467153284596
 11
724.74901008710299
 21
1121.0467153284596
  0
LINE
  8
_0-0_計極細
  6
CONTINUOUS
 62
    2
 10
737.74901008710299
 20
1127.0467153284596
 11
737.74901008710299
 21
1121.0467153284596
  0
LINE
  8
_0-0_計極細
  6
CONTINUOUS
 62
    2
 10
724.74901008710299
 20
1144.4467153284597
 11
724.74901008710299
 21
1138.4467153284593
  0
LINE
  8
_0-0_計極細
  6
CONTINUOUS
 62
    2
 10
737.74901008710299
 20
1144.4467153284597
 11
737.74901008710299
 21
1138.4467153284593
  0
LINE
  8
_0-0_計極細
  6
CONTINUOUS
 62
    2
 10
724.74901008710299
 20
1075.6467153284591
 11
724.74901008710299
 21
1070.0467153284587
  0
LINE
  8
_0-0_計極細
  6
CONTINUOUS
 62
    2
 10
737.74901008710299
 20
1075.6467153284591
 11
737.74901008710299
 21
1070.0467153284587
  0
LINE
  8
_0-0_計極細
  6
CONTINUOUS
 62
    2
 10
724.74901008710299
 20
1092.64671532846
 11
724.74901008710299
 21
1087.0467153284596
  0
LINE
  8
_0-0_計極細
  6
CONTINUOUS
 62
    2
 10
737.74901008710299
 20
1092.64671532846
 11
737.74901008710299
 21
1087.0467153284596
  0
LINE
  8
_0-0_計極細
  6
CONTINUOUS
 62
    2
 10
724.74901008710299
 20
1109.6467153284605
 11
724.74901008710299
 21
1104.0467153284606
  0
LINE
  8
_0-0_計極細
  6
CONTINUOUS
 62
    2
 10
737.74901008710299
 20
1109.6467153284605
 11
737.74901008710299
 21
1104.0467153284606
  0
LINE
  8
_0-0_計極細
  6
CONTINUOUS
 62
    2
 10
724.74901008710299
 20
984.64671532846
 11
724.74901008710299
 21
990.64671532846
  0
LINE
  8
_0-0_計極細
  6
CONTINUOUS
 62
    2
 10
737.74901008710299
 20
984.64671532846
 11
737.74901008710299
 21
990.64671532846
  0
LINE
  8
_0-0_計極細
  6
CENTER1
 62
    2
 10
731.24901008710299
 20
1164.5974347529225
 11
731.24901008710299
 21
948.08889158744819
  0
LINE
  8
_0-0_計極細
  6
CONTINUOUS
 62
    2
 10
724.74901008710299
 20
967.24671532845946
 11
724.74901008710299
 21
973.24671532845946
  0
LINE
  8
_0-0_計極細
  6
CONTINUOUS
 62
    2
 10
737.74901008710299
 20
967.24671532845946
 11
737.74901008710299
 21
973.24671532845946
  0
LINE
  8
_0-0_計極細
  6
CONTINUOUS
 62
    2
 10
773.24901008710299
 20
1002.0467153284606
 11
773.24901008710299
 21
1007.6467153284609
  0
LINE
  8
_0-0_計極細
  6
CONTINUOUS
 62
    2
 10
786.24901008710299
 20
1002.0467153284606
 11
786.24901008710299
 21
1007.6467153284609
  0
LINE
  8
_0-0_計極細
  6
CONTINUOUS
 62
    2
 10
773.24901008710299
 20
1019.0467153284615
 11
773.24901008710299
 21
1024.6467153284618
  0
LINE
  8
_0-0_計極細
  6
CONTINUOUS
 62
    2
 10
786.24901008710299
 20
1019.0467153284615
 11
786.24901008710299
 21
1024.6467153284618
  0
LINE
  8
_0-0_計極細
  6
CONTINUOUS
 62
    2
 10
773.24901008710299
 20
1041.6467153284577
 11
773.24901008710299
 21
1036.0467153284578
  0
LINE
  8
_0-0_計極細
  6
CONTINUOUS
 62
    2
 10
786.24901008710299
 20
1041.6467153284577
 11
786.24901008710299
 21
1036.0467153284578
  0
LINE
  8
_0-0_計極細
  6
CONTINUOUS
 62
    2
 10
773.24901008710299
 20
1058.6467153284582
 11
773.24901008710299
 21
1053.0467153284583
  0
LINE
  8
_0-0_計極細
  6
CONTINUOUS
 62
    2
 10
786.24901008710299
 20
1058.6467153284582
 11
786.24901008710299
 21
1053.0467153284583
  0
LINE
  8
_0-0_計極細
  6
CONTINUOUS
 62
    2
 10
773.24901008710299
 20
1127.0467153284596
 11
773.24901008710299
 21
1121.0467153284596
  0
LINE
  8
_0-0_計極細
  6
CONTINUOUS
 62
    2
 10
786.24901008710299
 20
1127.0467153284596
 11
786.24901008710299
 21
1121.0467153284596
  0
LINE
  8
_0-0_計極細
  6
CONTINUOUS
 62
    2
 10
773.24901008710299
 20
1144.4467153284597
 11
773.24901008710299
 21
1138.4467153284593
  0
LINE
  8
_0-0_計極細
  6
CONTINUOUS
 62
    2
 10
786.24901008710299
 20
1144.4467153284597
 11
786.24901008710299
 21
1138.4467153284593
  0
LINE
  8
_0-0_計極細
  6
CONTINUOUS
 62
    2
 10
773.24901008710299
 20
1075.6467153284591
 11
773.24901008710299
 21
1070.0467153284587
  0
LINE
  8
_0-0_計極細
  6
CONTINUOUS
 62
    2
 10
786.24901008710299
 20
1075.6467153284591
 11
786.24901008710299
 21
1070.0467153284587
  0
LINE
  8
_0-0_計極細
  6
CONTINUOUS
 62
    2
 10
773.24901008710299
 20
1092.64671532846
 11
773.24901008710299
 21
1087.0467153284596
  0
LINE
  8
_0-0_計極細
  6
CONTINUOUS
 62
    2
 10
786.24901008710299
 20
1092.64671532846
 11
786.24901008710299
 21
1087.0467153284596
  0
LINE
  8
_0-0_計極細
  6
CONTINUOUS
 62
    2
 10
773.24901008710299
 20
1109.6467153284605
 11
773.24901008710299
 21
1104.0467153284606
  0
LINE
  8
_0-0_計極細
  6
CONTINUOUS
 62
    2
 10
786.24901008710299
 20
1109.6467153284605
 11
786.24901008710299
 21
1104.0467153284606
  0
LINE
  8
_0-0_計極細
  6
CONTINUOUS
 62
    2
 10
773.24901008710299
 20
984.64671532846
 11
773.24901008710299
 21
990.64671532846
  0
LINE
  8
_0-0_計極細
  6
CONTINUOUS
 62
    2
 10
786.24901008710299
 20
984.64671532846
 11
786.24901008710299
 21
990.64671532846
  0
LINE
  8
_0-0_計極細
  6
CENTER1
 62
    2
 10
779.74901008710299
 20
1164.5974347529225
 11
779.74901008710299
 21
948.08889158744819
  0
LINE
  8
_0-0_計極細
  6
CONTINUOUS
 62
    2
 10
773.24901008710299
 20
967.24671532845946
 11
773.24901008710299
 21
973.24671532845946
  0
LINE
  8
_0-0_計極細
  6
CONTINUOUS
 62
    2
 10
786.24901008710299
 20
967.24671532845946
 11
786.24901008710299
 21
973.24671532845946
  0
LINE
  8
_0-0_計極細
  6
CONTINUOUS
 62
    2
 10
821.74901008710299
 20
1002.0467153284606
 11
821.74901008710299
 21
1007.6467153284609
  0
LINE
  8
_0-0_計極細
  6
CONTINUOUS
 62
    2
 10
834.74901008710299
 20
1002.0467153284606
 11
834.74901008710299
 21
1007.6467153284609
  0
LINE
  8
_0-0_計極細
  6
CONTINUOUS
 62
    2
 10
821.74901008710299
 20
1019.0467153284615
 11
821.74901008710299
 21
1024.6467153284618
  0
LINE
  8
_0-0_計極細
  6
CONTINUOUS
 62
    2
 10
834.74901008710299
 20
1019.0467153284615
 11
834.74901008710299
 21
1024.6467153284618
  0
LINE
  8
_0-0_計極細
  6
CONTINUOUS
 62
    2
 10
821.74901008710299
 20
1041.6467153284577
 11
821.74901008710299
 21
1036.0467153284578
  0
LINE
  8
_0-0_計極細
  6
CONTINUOUS
 62
    2
 10
834.74901008710299
 20
1041.6467153284577
 11
834.74901008710299
 21
1036.0467153284578
  0
LINE
  8
_0-0_計極細
  6
CONTINUOUS
 62
    2
 10
821.74901008710299
 20
1058.6467153284582
 11
821.74901008710299
 21
1053.0467153284583
  0
LINE
  8
_0-0_計極細
  6
CONTINUOUS
 62
    2
 10
834.74901008710299
 20
1058.6467153284582
 11
834.74901008710299
 21
1053.0467153284583
  0
LINE
  8
_0-0_計極細
  6
CONTINUOUS
 62
    2
 10
821.74901008710299
 20
1127.0467153284596
 11
821.74901008710299
 21
1121.0467153284596
  0
LINE
  8
_0-0_計極細
  6
CONTINUOUS
 62
    2
 10
834.74901008710299
 20
1127.0467153284596
 11
834.74901008710299
 21
1121.0467153284596
  0
LINE
  8
_0-0_計極細
  6
CONTINUOUS
 62
    2
 10
821.74901008710299
 20
1144.4467153284597
 11
821.74901008710299
 21
1138.4467153284593
  0
LINE
  8
_0-0_計極細
  6
CONTINUOUS
 62
    2
 10
834.74901008710299
 20
1144.4467153284597
 11
834.74901008710299
 21
1138.4467153284593
  0
LINE
  8
_0-0_計極細
  6
CONTINUOUS
 62
    2
 10
821.74901008710299
 20
1075.6467153284591
 11
821.74901008710299
 21
1070.0467153284587
  0
LINE
  8
_0-0_計極細
  6
CONTINUOUS
 62
    2
 10
834.74901008710299
 20
1075.6467153284591
 11
834.74901008710299
 21
1070.0467153284587
  0
LINE
  8
_0-0_計極細
  6
CONTINUOUS
 62
    2
 10
821.74901008710299
 20
1092.64671532846
 11
821.74901008710299
 21
1087.0467153284596
  0
LINE
  8
_0-0_計極細
  6
CONTINUOUS
 62
    2
 10
834.74901008710299
 20
1092.64671532846
 11
834.74901008710299
 21
1087.0467153284596
  0
LINE
  8
_0-0_計極細
  6
CONTINUOUS
 62
    2
 10
821.74901008710299
 20
1109.6467153284605
 11
821.74901008710299
 21
1104.0467153284606
  0
LINE
  8
_0-0_計極細
  6
CONTINUOUS
 62
    2
 10
834.74901008710299
 20
1109.6467153284605
 11
834.74901008710299
 21
1104.0467153284606
  0
LINE
  8
_0-0_計極細
  6
CONTINUOUS
 62
    2
 10
821.74901008710299
 20
984.64671532846
 11
821.74901008710299
 21
990.64671532846
  0
LINE
  8
_0-0_計極細
  6
CONTINUOUS
 62
    2
 10
834.74901008710299
 20
984.64671532846
 11
834.74901008710299
 21
990.64671532846
  0
LINE
  8
_0-0_計極細
  6
CENTER1
 62
    2
 10
828.24901008710299
 20
1164.5974347529225
 11
828.24901008710299
 21
948.08889158744819
  0
LINE
  8
_0-0_計極細
  6
CONTINUOUS
 62
    2
 10
821.74901008710299
 20
967.24671532845946
 11
821.74901008710299
 21
973.24671532845946
  0
LINE
  8
_0-0_計極細
  6
CONTINUOUS
 62
    2
 10
834.74901008710299
 20
967.24671532845946
 11
834.74901008710299
 21
973.24671532845946
  0
LINE
  8
_0-0_計極細
  6
CONTINUOUS
 62
    2
 10
918.74901008710299
 20
1002.0467153284606
 11
918.74901008710299
 21
1007.6467153284609
  0
LINE
  8
_0-0_計極細
  6
CONTINUOUS
 62
    2
 10
931.74901008710299
 20
1002.0467153284606
 11
931.74901008710299
 21
1007.6467153284609
  0
LINE
  8
_0-0_計極細
  6
CONTINUOUS
 62
    2
 10
918.74901008710299
 20
1019.0467153284615
 11
918.74901008710299
 21
1024.6467153284618
  0
LINE
  8
_0-0_計極細
  6
CONTINUOUS
 62
    2
 10
931.74901008710299
 20
1019.0467153284615
 11
931.74901008710299
 21
1024.6467153284618
  0
LINE
  8
_0-0_計極細
  6
CONTINUOUS
 62
    2
 10
918.74901008710299
 20
1041.6467153284577
 11
918.74901008710299
 21
1036.0467153284578
  0
LINE
  8
_0-0_計極細
  6
CONTINUOUS
 62
    2
 10
931.74901008710299
 20
1041.6467153284577
 11
931.74901008710299
 21
1036.0467153284578
  0
LINE
  8
_0-0_計極細
  6
CONTINUOUS
 62
    2
 10
918.74901008710299
 20
1058.6467153284582
 11
918.74901008710299
 21
1053.0467153284583
  0
LINE
  8
_0-0_計極細
  6
CONTINUOUS
 62
    2
 10
931.74901008710299
 20
1058.6467153284582
 11
931.74901008710299
 21
1053.0467153284583
  0
LINE
  8
_0-0_計極細
  6
CONTINUOUS
 62
    2
 10
918.74901008710299
 20
1127.0467153284596
 11
918.74901008710299
 21
1121.0467153284596
  0
LINE
  8
_0-0_計極細
  6
CONTINUOUS
 62
    2
 10
931.74901008710299
 20
1127.0467153284596
 11
931.74901008710299
 21
1121.0467153284596
  0
LINE
  8
_0-0_計極細
  6
CONTINUOUS
 62
    2
 10
918.74901008710299
 20
1144.4467153284597
 11
918.74901008710299
 21
1138.4467153284593
  0
LINE
  8
_0-0_計極細
  6
CONTINUOUS
 62
    2
 10
931.74901008710299
 20
1144.4467153284597
 11
931.74901008710299
 21
1138.4467153284593
  0
LINE
  8
_0-0_計極細
  6
CONTINUOUS
 62
    2
 10
918.74901008710299
 20
1075.6467153284591
 11
918.74901008710299
 21
1070.0467153284587
  0
LINE
  8
_0-0_計極細
  6
CONTINUOUS
 62
    2
 10
931.74901008710299
 20
1075.6467153284591
 11
931.74901008710299
 21
1070.0467153284587
  0
LINE
  8
_0-0_計極細
  6
CONTINUOUS
 62
    2
 10
918.74901008710299
 20
1092.64671532846
 11
918.74901008710299
 21
1087.0467153284596
  0
LINE
  8
_0-0_計極細
  6
CONTINUOUS
 62
    2
 10
931.74901008710299
 20
1092.64671532846
 11
931.74901008710299
 21
1087.0467153284596
  0
LINE
  8
_0-0_計極細
  6
CONTINUOUS
 62
    2
 10
918.74901008710299
 20
1109.6467153284605
 11
918.74901008710299
 21
1104.0467153284606
  0
LINE
  8
_0-0_計極細
  6
CONTINUOUS
 62
    2
 10
931.74901008710299
 20
1109.6467153284605
 11
931.74901008710299
 21
1104.0467153284606
  0
LINE
  8
_0-0_計極細
  6
CONTINUOUS
 62
    2
 10
918.74901008710299
 20
984.64671532846
 11
918.74901008710299
 21
990.64671532846
  0
LINE
  8
_0-0_計極細
  6
CONTINUOUS
 62
    2
 10
931.74901008710299
 20
984.64671532846
 11
931.74901008710299
 21
990.64671532846
  0
LINE
  8
_0-0_計極細
  6
CENTER1
 62
    2
 10
925.24901008710299
 20
1164.5974347529225
 11
925.24901008710299
 21
948.08889158744819
  0
LINE
  8
_0-0_計極細
  6
CONTINUOUS
 62
    2
 10
918.74901008710299
 20
967.24671532845946
 11
918.74901008710299
 21
973.24671532845946
  0
LINE
  8
_0-0_計極細
  6
CONTINUOUS
 62
    2
 10
931.74901008710299
 20
967.24671532845946
 11
931.74901008710299
 21
973.24671532845946
  0
LINE
  8
_0-0_計極細
  6
CONTINUOUS
 62
    2
 10
870.24901008710299
 20
1002.0467153284606
 11
870.24901008710299
 21
1007.6467153284609
  0
LINE
  8
_0-0_計極細
  6
CONTINUOUS
 62
    2
 10
883.24901008710299
 20
1002.0467153284606
 11
883.24901008710299
 21
1007.6467153284609
  0
LINE
  8
_0-0_計極細
  6
CONTINUOUS
 62
    2
 10
870.24901008710299
 20
1019.0467153284615
 11
870.24901008710299
 21
1024.6467153284618
  0
LINE
  8
_0-0_計極細
  6
CONTINUOUS
 62
    2
 10
883.24901008710299
 20
1019.0467153284615
 11
883.24901008710299
 21
1024.6467153284618
  0
LINE
  8
_0-0_計極細
  6
CONTINUOUS
 62
    2
 10
870.24901008710299
 20
1041.6467153284577
 11
870.24901008710299
 21
1036.0467153284578
  0
LINE
  8
_0-0_計極細
  6
CONTINUOUS
 62
    2
 10
883.24901008710299
 20
1041.6467153284577
 11
883.24901008710299
 21
1036.0467153284578
  0
LINE
  8
_0-0_計極細
  6
CONTINUOUS
 62
    2
 10
870.24901008710299
 20
1058.6467153284582
 11
870.24901008710299
 21
1053.0467153284583
  0
LINE
  8
_0-0_計極細
  6
CONTINUOUS
 62
    2
 10
883.24901008710299
 20
1058.6467153284582
 11
883.24901008710299
 21
1053.0467153284583
  0
LINE
  8
_0-0_計極細
  6
CONTINUOUS
 62
    2
 10
870.24901008710299
 20
1127.0467153284596
 11
870.24901008710299
 21
1121.0467153284596
  0
LINE
  8
_0-0_計極細
  6
CONTINUOUS
 62
    2
 10
883.24901008710299
 20
1127.0467153284596
 11
883.24901008710299
 21
1121.0467153284596
  0
LINE
  8
_0-0_計極細
  6
CONTINUOUS
 62
    2
 10
870.24901008710299
 20
1144.4467153284597
 11
870.24901008710299
 21
1138.4467153284593
  0
LINE
  8
_0-0_計極細
  6
CONTINUOUS
 62
    2
 10
883.24901008710299
 20
1144.4467153284597
 11
883.24901008710299
 21
1138.4467153284593
  0
LINE
  8
_0-0_計極細
  6
CONTINUOUS
 62
    2
 10
870.24901008710299
 20
1075.6467153284591
 11
870.24901008710299
 21
1070.0467153284587
  0
LINE
  8
_0-0_計極細
  6
CONTINUOUS
 62
    2
 10
883.24901008710299
 20
1075.6467153284591
 11
883.24901008710299
 21
1070.0467153284587
  0
LINE
  8
_0-0_計極細
  6
CONTINUOUS
 62
    2
 10
870.24901008710299
 20
1092.64671532846
 11
870.24901008710299
 21
1087.0467153284596
  0
LINE
  8
_0-0_計極細
  6
CONTINUOUS
 62
    2
 10
883.24901008710299
 20
1092.64671532846
 11
883.24901008710299
 21
1087.0467153284596
  0
LINE
  8
_0-0_計極細
  6
CONTINUOUS
 62
    2
 10
870.24901008710299
 20
1109.6467153284605
 11
870.24901008710299
 21
1104.0467153284606
  0
LINE
  8
_0-0_計極細
  6
CONTINUOUS
 62
    2
 10
883.24901008710299
 20
1109.6467153284605
 11
883.24901008710299
 21
1104.0467153284606
  0
LINE
  8
_0-0_計極細
  6
CONTINUOUS
 62
    2
 10
870.24901008710299
 20
984.64671532846
 11
870.24901008710299
 21
990.64671532846
  0
LINE
  8
_0-0_計極細
  6
CONTINUOUS
 62
    2
 10
883.24901008710299
 20
984.64671532846
 11
883.24901008710299
 21
990.64671532846
  0
LINE
  8
_0-0_計極細
  6
CENTER1
 62
    2
 10
876.74901008710299
 20
1164.5974347529225
 11
876.74901008710299
 21
948.08889158744819
  0
LINE
  8
_0-0_計極細
  6
CONTINUOUS
 62
    2
 10
870.24901008710299
 20
967.24671532845946
 11
870.24901008710299
 21
973.24671532845946
  0
LINE
  8
_0-0_計極細
  6
CONTINUOUS
 62
    2
 10
883.24901008710299
 20
967.24671532845946
 11
883.24901008710299
 21
973.24671532845946
  0
LINE
  8
_0-0_計極細
  6
CONTINUOUS
 62
    2
 10
967.24901008710299
 20
1002.0467153284606
 11
967.24901008710299
 21
1007.6467153284609
  0
LINE
  8
_0-0_計極細
  6
CONTINUOUS
 62
    2
 10
980.24901008710299
 20
1002.0467153284606
 11
980.24901008710299
 21
1007.6467153284609
  0
LINE
  8
_0-0_計極細
  6
CONTINUOUS
 62
    2
 10
967.24901008710299
 20
1019.0467153284615
 11
967.24901008710299
 21
1024.6467153284618
  0
LINE
  8
_0-0_計極細
  6
CONTINUOUS
 62
    2
 10
980.24901008710299
 20
1019.0467153284615
 11
980.24901008710299
 21
1024.6467153284618
  0
LINE
  8
_0-0_計極細
  6
CONTINUOUS
 62
    2
 10
967.24901008710299
 20
1041.6467153284577
 11
967.24901008710299
 21
1036.0467153284578
  0
LINE
  8
_0-0_計極細
  6
CONTINUOUS
 62
    2
 10
980.24901008710299
 20
1041.6467153284577
 11
980.24901008710299
 21
1036.0467153284578
  0
LINE
  8
_0-0_計極細
  6
CONTINUOUS
 62
    2
 10
967.24901008710299
 20
1058.6467153284582
 11
967.24901008710299
 21
1053.0467153284583
  0
LINE
  8
_0-0_計極細
  6
CONTINUOUS
 62
    2
 10
980.24901008710299
 20
1058.6467153284582
 11
980.24901008710299
 21
1053.0467153284583
  0
LINE
  8
_0-0_計極細
  6
CONTINUOUS
 62
    2
 10
967.24901008710299
 20
1127.0467153284596
 11
967.24901008710299
 21
1121.0467153284596
  0
LINE
  8
_0-0_計極細
  6
CONTINUOUS
 62
    2
 10
980.24901008710299
 20
1127.0467153284596
 11
980.24901008710299
 21
1121.0467153284596
  0
LINE
  8
_0-0_計極細
  6
CONTINUOUS
 62
    2
 10
967.24901008710299
 20
1144.4467153284597
 11
967.24901008710299
 21
1138.4467153284593
  0
LINE
  8
_0-0_計極細
  6
CONTINUOUS
 62
    2
 10
980.24901008710299
 20
1144.4467153284597
 11
980.24901008710299
 21
1138.4467153284593
  0
LINE
  8
_0-0_計極細
  6
CONTINUOUS
 62
    2
 10
967.24901008710299
 20
1075.6467153284591
 11
967.24901008710299
 21
1070.0467153284587
  0
LINE
  8
_0-0_計極細
  6
CONTINUOUS
 62
    2
 10
980.24901008710299
 20
1075.6467153284591
 11
980.24901008710299
 21
1070.0467153284587
  0
LINE
  8
_0-0_計極細
  6
CONTINUOUS
 62
    2
 10
967.24901008710299
 20
1092.64671532846
 11
967.24901008710299
 21
1087.0467153284596
  0
LINE
  8
_0-0_計極細
  6
CONTINUOUS
 62
    2
 10
980.24901008710299
 20
1092.64671532846
 11
980.24901008710299
 21
1087.0467153284596
  0
LINE
  8
_0-0_計極細
  6
CONTINUOUS
 62
    2
 10
967.24901008710299
 20
1109.6467153284605
 11
967.24901008710299
 21
1104.0467153284606
  0
LINE
  8
_0-0_計極細
  6
CONTINUOUS
 62
    2
 10
980.24901008710299
 20
1109.6467153284605
 11
980.24901008710299
 21
1104.0467153284606
  0
LINE
  8
_0-0_計極細
  6
CONTINUOUS
 62
    2
 10
967.24901008710299
 20
984.64671532846
 11
967.24901008710299
 21
990.64671532846
  0
LINE
  8
_0-0_計極細
  6
CONTINUOUS
 62
    2
 10
980.24901008710299
 20
984.64671532846
 11
980.24901008710299
 21
990.64671532846
  0
LINE
  8
_0-0_計極細
  6
CENTER1
 62
    2
 10
973.74901008710299
 20
1164.5974347529225
 11
973.74901008710299
 21
948.08889158744819
  0
LINE
  8
_0-0_計極細
  6
CONTINUOUS
 62
    2
 10
967.24901008710299
 20
967.24671532845946
 11
967.24901008710299
 21
973.24671532845946
  0
LINE
  8
_0-0_計極細
  6
CONTINUOUS
 62
    2
 10
980.24901008710299
 20
967.24671532845946
 11
980.24901008710299
 21
973.24671532845946
  0
LINE
  8
_0-0_計極細
  6
CONTINUOUS
 62
    2
 10
1015.749010087103
 20
1002.0467153284606
 11
1015.749010087103
 21
1007.6467153284609
  0
LINE
  8
_0-0_計極細
  6
CONTINUOUS
 62
    2
 10
1028.749010087103
 20
1002.0467153284606
 11
1028.749010087103
 21
1007.6467153284609
  0
LINE
  8
_0-0_計極細
  6
CONTINUOUS
 62
    2
 10
1015.749010087103
 20
1019.0467153284615
 11
1015.749010087103
 21
1024.6467153284618
  0
LINE
  8
_0-0_計極細
  6
CONTINUOUS
 62
    2
 10
1028.749010087103
 20
1019.0467153284615
 11
1028.749010087103
 21
1024.6467153284618
  0
LINE
  8
_0-0_計極細
  6
CONTINUOUS
 62
    2
 10
1015.749010087103
 20
1041.6467153284577
 11
1015.749010087103
 21
1036.0467153284578
  0
LINE
  8
_0-0_計極細
  6
CONTINUOUS
 62
    2
 10
1028.749010087103
 20
1041.6467153284577
 11
1028.749010087103
 21
1036.0467153284578
  0
LINE
  8
_0-0_計極細
  6
CONTINUOUS
 62
    2
 10
1015.749010087103
 20
1058.6467153284582
 11
1015.749010087103
 21
1053.0467153284583
  0
LINE
  8
_0-0_計極細
  6
CONTINUOUS
 62
    2
 10
1028.749010087103
 20
1058.6467153284582
 11
1028.749010087103
 21
1053.0467153284583
  0
LINE
  8
_0-0_計極細
  6
CONTINUOUS
 62
    2
 10
1015.749010087103
 20
1127.0467153284596
 11
1015.749010087103
 21
1121.0467153284596
  0
LINE
  8
_0-0_計極細
  6
CONTINUOUS
 62
    2
 10
1028.749010087103
 20
1127.0467153284596
 11
1028.749010087103
 21
1121.0467153284596
  0
LINE
  8
_0-0_計極細
  6
CONTINUOUS
 62
    2
 10
1015.749010087103
 20
1144.4467153284597
 11
1015.749010087103
 21
1138.4467153284593
  0
LINE
  8
_0-0_計極細
  6
CONTINUOUS
 62
    2
 10
1028.749010087103
 20
1144.4467153284597
 11
1028.749010087103
 21
1138.4467153284593
  0
LINE
  8
_0-0_計極細
  6
CONTINUOUS
 62
    2
 10
1015.749010087103
 20
1075.6467153284591
 11
1015.749010087103
 21
1070.0467153284587
  0
LINE
  8
_0-0_計極細
  6
CONTINUOUS
 62
    2
 10
1028.749010087103
 20
1075.6467153284591
 11
1028.749010087103
 21
1070.0467153284587
  0
LINE
  8
_0-0_計極細
  6
CONTINUOUS
 62
    2
 10
1015.749010087103
 20
1092.64671532846
 11
1015.749010087103
 21
1087.0467153284596
  0
LINE
  8
_0-0_計極細
  6
CONTINUOUS
 62
    2
 10
1028.749010087103
 20
1092.64671532846
 11
1028.749010087103
 21
1087.0467153284596
  0
LINE
  8
_0-0_計極細
  6
CONTINUOUS
 62
    2
 10
1015.749010087103
 20
1109.6467153284605
 11
1015.749010087103
 21
1104.0467153284606
  0
LINE
  8
_0-0_計極細
  6
CONTINUOUS
 62
    2
 10
1028.749010087103
 20
1109.6467153284605
 11
1028.749010087103
 21
1104.0467153284606
  0
LINE
  8
_0-0_計極細
  6
CONTINUOUS
 62
    2
 10
1015.749010087103
 20
984.64671532846
 11
1015.749010087103
 21
990.64671532846
  0
LINE
  8
_0-0_計極細
  6
CONTINUOUS
 62
    2
 10
1028.749010087103
 20
984.64671532846
 11
1028.749010087103
 21
990.64671532846
  0
LINE
  8
_0-0_計極細
  6
CENTER1
 62
    2
 10
1022.249010087103
 20
1164.5974347529225
 11
1022.249010087103
 21
948.08889158744819
  0
LINE
  8
_0-0_計極細
  6
CONTINUOUS
 62
    2
 10
1015.749010087103
 20
967.24671532845946
 11
1015.749010087103
 21
973.24671532845946
  0
LINE
  8
_0-0_計極細
  6
CONTINUOUS
 62
    2
 10
1028.749010087103
 20
967.24671532845946
 11
1028.749010087103
 21
973.24671532845946
  0
LINE
  8
_0-0_計極細
  6
CONTINUOUS
 62
    2
 10
1064.249010087103
 20
1002.0467153284606
 11
1064.249010087103
 21
1007.6467153284609
  0
LINE
  8
_0-0_計極細
  6
CONTINUOUS
 62
    2
 10
1077.249010087103
 20
1002.0467153284606
 11
1077.249010087103
 21
1007.6467153284609
  0
LINE
  8
_0-0_計極細
  6
CONTINUOUS
 62
    2
 10
1064.249010087103
 20
1019.0467153284615
 11
1064.249010087103
 21
1024.6467153284618
  0
LINE
  8
_0-0_計極細
  6
CONTINUOUS
 62
    2
 10
1077.249010087103
 20
1019.0467153284615
 11
1077.249010087103
 21
1024.6467153284618
  0
LINE
  8
_0-0_計極細
  6
CONTINUOUS
 62
    2
 10
1064.249010087103
 20
1041.6467153284577
 11
1064.249010087103
 21
1036.0467153284578
  0
LINE
  8
_0-0_計極細
  6
CONTINUOUS
 62
    2
 10
1077.249010087103
 20
1041.6467153284577
 11
1077.249010087103
 21
1036.0467153284578
  0
LINE
  8
_0-0_計極細
  6
CONTINUOUS
 62
    2
 10
1064.249010087103
 20
1058.6467153284582
 11
1064.249010087103
 21
1053.0467153284583
  0
LINE
  8
_0-0_計極細
  6
CONTINUOUS
 62
    2
 10
1077.249010087103
 20
1058.6467153284582
 11
1077.249010087103
 21
1053.0467153284583
  0
LINE
  8
_0-0_計極細
  6
CONTINUOUS
 62
    2
 10
1064.249010087103
 20
1127.0467153284596
 11
1064.249010087103
 21
1121.0467153284596
  0
LINE
  8
_0-0_計極細
  6
CONTINUOUS
 62
    2
 10
1077.249010087103
 20
1127.0467153284596
 11
1077.249010087103
 21
1121.0467153284596
  0
LINE
  8
_0-0_計極細
  6
CONTINUOUS
 62
    2
 10
1064.249010087103
 20
1144.4467153284597
 11
1064.249010087103
 21
1138.4467153284593
  0
LINE
  8
_0-0_計極細
  6
CONTINUOUS
 62
    2
 10
1077.249010087103
 20
1144.4467153284597
 11
1077.249010087103
 21
1138.4467153284593
  0
LINE
  8
_0-0_計極細
  6
CONTINUOUS
 62
    2
 10
1064.249010087103
 20
1075.6467153284591
 11
1064.249010087103
 21
1070.0467153284587
  0
LINE
  8
_0-0_計極細
  6
CONTINUOUS
 62
    2
 10
1077.249010087103
 20
1075.6467153284591
 11
1077.249010087103
 21
1070.0467153284587
  0
LINE
  8
_0-0_計極細
  6
CONTINUOUS
 62
    2
 10
1064.249010087103
 20
1092.64671532846
 11
1064.249010087103
 21
1087.0467153284596
  0
LINE
  8
_0-0_計極細
  6
CONTINUOUS
 62
    2
 10
1077.249010087103
 20
1092.64671532846
 11
1077.249010087103
 21
1087.0467153284596
  0
LINE
  8
_0-0_計極細
  6
CONTINUOUS
 62
    2
 10
1064.249010087103
 20
1109.6467153284605
 11
1064.249010087103
 21
1104.0467153284606
  0
LINE
  8
_0-0_計極細
  6
CONTINUOUS
 62
    2
 10
1077.249010087103
 20
1109.6467153284605
 11
1077.249010087103
 21
1104.0467153284606
  0
LINE
  8
_0-0_計極細
  6
CONTINUOUS
 62
    2
 10
1064.249010087103
 20
984.64671532846
 11
1064.249010087103
 21
990.64671532846
  0
LINE
  8
_0-0_計極細
  6
CONTINUOUS
 62
    2
 10
1077.249010087103
 20
984.64671532846
 11
1077.249010087103
 21
990.64671532846
  0
LINE
  8
_0-0_計極細
  6
CENTER1
 62
    2
 10
1070.749010087103
 20
1164.5974347529225
 11
1070.749010087103
 21
948.08889158744819
  0
LINE
  8
_0-0_計極細
  6
CONTINUOUS
 62
    2
 10
1064.249010087103
 20
967.24671532845946
 11
1064.249010087103
 21
973.24671532845946
  0
LINE
  8
_0-0_計極細
  6
CONTINUOUS
 62
    2
 10
1077.249010087103
 20
967.24671532845946
 11
1077.249010087103
 21
973.24671532845946
  0
LINE
  8
_0-0_計極細
  6
CONTINUOUS
 62
    2
 10
1112.749010087103
 20
1002.0467153284606
 11
1112.749010087103
 21
1007.6467153284609
  0
LINE
  8
_0-0_計極細
  6
CONTINUOUS
 62
    2
 10
1125.749010087103
 20
1002.0467153284606
 11
1125.749010087103
 21
1007.6467153284609
  0
LINE
  8
_0-0_計極細
  6
CONTINUOUS
 62
    2
 10
1112.749010087103
 20
1019.0467153284615
 11
1112.749010087103
 21
1024.6467153284618
  0
LINE
  8
_0-0_計極細
  6
CONTINUOUS
 62
    2
 10
1125.749010087103
 20
1019.0467153284615
 11
1125.749010087103
 21
1024.6467153284618
  0
LINE
  8
_0-0_計極細
  6
CONTINUOUS
 62
    2
 10
1112.749010087103
 20
1041.6467153284577
 11
1112.749010087103
 21
1036.0467153284578
  0
LINE
  8
_0-0_計極細
  6
CONTINUOUS
 62
    2
 10
1125.749010087103
 20
1041.6467153284577
 11
1125.749010087103
 21
1036.0467153284578
  0
LINE
  8
_0-0_計極細
  6
CONTINUOUS
 62
    2
 10
1112.749010087103
 20
1058.6467153284582
 11
1112.749010087103
 21
1053.0467153284583
  0
LINE
  8
_0-0_計極細
  6
CONTINUOUS
 62
    2
 10
1125.749010087103
 20
1058.6467153284582
 11
1125.749010087103
 21
1053.0467153284583
  0
LINE
  8
_0-0_計極細
  6
CONTINUOUS
 62
    2
 10
1112.749010087103
 20
1127.0467153284596
 11
1112.749010087103
 21
1121.0467153284596
  0
LINE
  8
_0-0_計極細
  6
CONTINUOUS
 62
    2
 10
1125.749010087103
 20
1127.0467153284596
 11
1125.749010087103
 21
1121.0467153284596
  0
LINE
  8
_0-0_計極細
  6
CONTINUOUS
 62
    2
 10
1112.749010087103
 20
1144.4467153284597
 11
1112.749010087103
 21
1138.4467153284593
  0
LINE
  8
_0-0_計極細
  6
CONTINUOUS
 62
    2
 10
1125.749010087103
 20
1144.4467153284597
 11
1125.749010087103
 21
1138.4467153284593
  0
LINE
  8
_0-0_計極細
  6
CONTINUOUS
 62
    2
 10
1112.749010087103
 20
1075.6467153284591
 11
1112.749010087103
 21
1070.0467153284587
  0
LINE
  8
_0-0_計極細
  6
CONTINUOUS
 62
    2
 10
1125.749010087103
 20
1075.6467153284591
 11
1125.749010087103
 21
1070.0467153284587
  0
LINE
  8
_0-0_計極細
  6
CONTINUOUS
 62
    2
 10
1112.749010087103
 20
1092.64671532846
 11
1112.749010087103
 21
1087.0467153284596
  0
LINE
  8
_0-0_計極細
  6
CONTINUOUS
 62
    2
 10
1125.749010087103
 20
1092.64671532846
 11
1125.749010087103
 21
1087.0467153284596
  0
LINE
  8
_0-0_計極細
  6
CONTINUOUS
 62
    2
 10
1112.749010087103
 20
1109.6467153284605
 11
1112.749010087103
 21
1104.0467153284606
  0
LINE
  8
_0-0_計極細
  6
CONTINUOUS
 62
    2
 10
1125.749010087103
 20
1109.6467153284605
 11
1125.749010087103
 21
1104.0467153284606
  0
LINE
  8
_0-0_計極細
  6
CONTINUOUS
 62
    2
 10
1112.749010087103
 20
984.64671532846
 11
1112.749010087103
 21
990.64671532846
  0
LINE
  8
_0-0_計極細
  6
CONTINUOUS
 62
    2
 10
1125.749010087103
 20
984.64671532846
 11
1125.749010087103
 21
990.64671532846
  0
LINE
  8
_0-0_計極細
  6
CENTER1
 62
    2
 10
1119.249010087103
 20
1164.5974347529225
 11
1119.249010087103
 21
948.08889158744819
  0
LINE
  8
_0-0_計極細
  6
CONTINUOUS
 62
    2
 10
1112.749010087103
 20
967.24671532845946
 11
1112.749010087103
 21
973.24671532845946
  0
LINE
  8
_0-0_計極細
  6
CONTINUOUS
 62
    2
 10
1125.749010087103
 20
967.24671532845946
 11
1125.749010087103
 21
973.24671532845946
  0
LINE
  8
_0-1_計細線
  6
CONTINUOUS
 62
    3
 10
280.24901008710299
 20
1070.0467153284587
 11
1279.249010087103
 21
1070.0467153284587
  0
LINE
  8
_0-1_計細線
  6
CONTINUOUS
 62
    3
 10
1279.249010087103
 20
1070.0467153284587
 11
1279.249010087103
 21
1058.6467153284582
  0
LINE
  8
_0-0_計極細
  6
CONTINUOUS
 62
    2
 10
280.24901008710299
 20
1061.8467153284589
 11
1279.249010087103
 21
1061.8467153284589
  0
LINE
  8
_0-0_計極細
  6
CONTINUOUS
 62
    2
 10
280.24901008710299
 20
1066.8467153284589
 11
1279.249010087103
 21
1066.8467153284589
  0
LINE
  8
_0-1_計細線
  6
CONTINUOUS
 62
    3
 10
280.24901008710299
 20
1070.0467153284587
 11
280.24901008710299
 21
1058.6467153284582
  0
LINE
  8
_0-1_計細線
  6
CONTINUOUS
 62
    3
 10
280.24901008710299
 20
1058.6467153284582
 11
1279.249010087103
 21
1058.6467153284582
  0
LINE
  8
_0-1_計細線
  6
CONTINUOUS
 62
    3
 10
280.24901008710299
 20
1041.6467153284577
 11
1279.249010087103
 21
1041.6467153284577
  0
LINE
  8
_0-1_計細線
  6
CONTINUOUS
 62
    3
 10
1279.249010087103
 20
1053.0467153284583
 11
1279.249010087103
 21
1041.6467153284577
  0
LINE
  8
_0-0_計極細
  6
CONTINUOUS
 62
    2
 10
280.24901008710299
 20
1044.846715328458
 11
1279.249010087103
 21
1044.846715328458
  0
LINE
  8
_0-0_計極細
  6
CONTINUOUS
 62
    2
 10
280.24901008710299
 20
1049.846715328458
 11
1279.249010087103
 21
1049.846715328458
  0
LINE
  8
_0-1_計細線
  6
CONTINUOUS
 62
    3
 10
280.24901008710299
 20
1053.0467153284583
 11
1279.249010087103
 21
1053.0467153284583
  0
LINE
  8
_0-1_計細線
  6
CONTINUOUS
 62
    3
 10
280.24901008710299
 20
1053.0467153284583
 11
280.24901008710299
 21
1041.6467153284577
  0
LINE
  8
_0-0_計極細
  6
CONTINUOUS
 62
    2
 10
385.24901008710299
 20
1058.6467153284582
 11
385.24901008710299
 21
1058.1967153284602
  0
LINE
  8
_0-0_計極細
  6
CONTINUOUS
 62
    2
 10
385.24901008710299
 20
1053.4967153284604
 11
385.24901008710299
 21
1053.0467153284583
  0
LINE
  8
_0-0_計極細
  6
CONTINUOUS
 62
    2
 10
398.24901008710299
 20
1058.6467153284582
 11
398.24901008710299
 21
1058.1967153284602
  0
LINE
  8
_0-0_計極細
  6
CONTINUOUS
 62
    2
 10
398.24901008710299
 20
1053.4967153284604
 11
398.24901008710299
 21
1053.0467153284583
  0
LINE
  8
_0-5_寸法線
  6
CONTINUOUS
 62
    7
 10
242.74901008710117
 20
1160.8467153284594
 11
192.24901008710253
 21
1160.8467153284594
  0
LINE
  8
_0-5_寸法線
  6
CONTINUOUS
 62
    7
 10
200.24901008710253
 20
1160.8467153284594
 11
204.39011480874274
 21
1145.3919021078343
  0
LINE
  8
_0-5_寸法線
  6
CONTINUOUS
 62
    7
 10
200.24901008710253
 20
1160.8467153284594
 11
196.1079053654621
 21
1145.3919021078343
  0
LINE
  8
_0-5_寸法線
  6
CONTINUOUS
 62
    7
 10
242.7490100871039
 20
1130.8467153284594
 11
192.24901008710299
 21
1130.8467153284594
  0
LINE
  8
_0-5_寸法線
  6
CONTINUOUS
 62
    7
 10
200.24901008710299
 20
1130.8467153284594
 11
196.10790536546267
 21
1146.3015285490844
  0
LINE
  8
_0-5_寸法線
  6
CONTINUOUS
 62
    7
 10
200.24901008710299
 20
1130.8467153284594
 11
204.39011480874331
 21
1146.3015285490844
  0
LINE
  8
_0-5_寸法線
  6
CONTINUOUS
 62
    7
 10
200.24901008710253
 20
1160.8467153284594
 11
200.24901008710299
 21
1130.8467153284594
  0
TEXT
  8
_0-5_寸法線
 62
    7
 10
200.24901008710242
 20
1133.8467153284594
 40
24
 41
1
 50
90
  1
30
  0
LINE
  8
_0-5_寸法線
  6
CONTINUOUS
 62
    7
 10
200.24901008710299
 20
1130.8467153284594
 11
204.39011480874331
 21
1115.3919021078343
  0
LINE
  8
_0-5_寸法線
  6
CONTINUOUS
 62
    7
 10
200.24901008710299
 20
1130.8467153284594
 11
196.10790536546267
 21
1115.3919021078343
  0
LINE
  8
_0-5_寸法線
  6
CONTINUOUS
 62
    7
 10
242.74901008710162
 20
980.84671532845982
 11
192.24901008710299
 21
980.84671532845982
  0
LINE
  8
_0-5_寸法線
  6
CONTINUOUS
 62
    7
 10
200.24901008710299
 20
980.84671532845982
 11
196.10790536546267
 21
996.30152854908488
  0
LINE
  8
_0-5_寸法線
  6
CONTINUOUS
 62
    7
 10
200.24901008710299
 20
980.84671532845982
 11
204.39011480874331
 21
996.30152854908488
  0
LINE
  8
_0-5_寸法線
  6
CONTINUOUS
 62
    7
 10
200.24901008710299
 20
1130.8467153284594
 11
200.24901008710299
 21
980.84671532845982
  0
TEXT
  8
_0-5_寸法線
 62
    7
 10
200.24901008710299
 20
1037.84671532846
 40
24
 41
1
 50
90
  1
150
  0
LINE
  8
_0-5_寸法線
  6
CONTINUOUS
 62
    7
 10
200.24901008710299
 20
980.84671532845982
 11
204.39011480874331
 21
965.39190210783477
  0
LINE
  8
_0-5_寸法線
  6
CONTINUOUS
 62
    7
 10
200.24901008710299
 20
980.84671532845982
 11
196.10790536546267
 21
965.39190210783477
  0
LINE
  8
_0-5_寸法線
  6
CONTINUOUS
 62
    7
 10
242.74901008710663
 20
950.84671532846255
 11
192.24901008710299
 21
950.84671532846255
  0
LINE
  8
_0-5_寸法線
  6
CONTINUOUS
 62
    7
 10
200.24901008710299
 20
950.84671532846255
 11
196.10790536546267
 21
966.30152854908761
  0
LINE
  8
_0-5_寸法線
  6
CONTINUOUS
 62
    7
 10
200.24901008710299
 20
950.84671532846255
 11
204.39011480874331
 21
966.30152854908761
  0
LINE
  8
_0-5_寸法線
  6
CONTINUOUS
 62
    7
 10
200.24901008710299
 20
980.84671532845982
 11
200.24901008710299
 21
950.84671532846255
  0
TEXT
  8
_0-5_寸法線
 62
    7
 10
200.24901008710299
 20
953.84671532846119
 40
24
 41
1
 50
90
  1
30
  0
LINE
  8
_0-5_寸法線
  6
CONTINUOUS
 62
    7
 10
1316.7490100871028
 20
1160.8467153284594
 11
1423.249010087103
 21
1160.8467153284594
  0
LINE
  8
_0-5_寸法線
  6
CONTINUOUS
 62
    7
 10
1415.249010087103
 20
1160.8467153284594
 11
1419.3901148087432
 21
1145.3919021078343
  0
LINE
  8
_0-5_寸法線
  6
CONTINUOUS
 62
    7
 10
1415.249010087103
 20
1160.8467153284594
 11
1411.1079053654626
 21
1145.3919021078343
  0
LINE
  8
_0-5_寸法線
  6
CONTINUOUS
 62
    7
 10
1316.7490100871019
 20
950.84671532845618
 11
1423.2490100871032
 21
950.84671532845618
  0
LINE
  8
_0-5_寸法線
  6
CONTINUOUS
 62
    7
 10
1415.2490100871032
 20
950.84671532845618
 11
1411.1079053654628
 21
966.30152854908124
  0
LINE
  8
_0-5_寸法線
  6
CONTINUOUS
 62
    7
 10
1415.2490100871032
 20
950.84671532845618
 11
1419.3901148087434
 21
966.30152854908124
  0
LINE
  8
_0-5_寸法線
  6
CONTINUOUS
 62
    7
 10
1415.249010087103
 20
1160.8467153284594
 11
1415.2490100871032
 21
950.84671532845618
  0
TEXT
  8
_0-5_寸法線
 62
    7
 10
1415.2490100871034
 20
1037.8467153284582
 40
24
 41
1
 50
90
  1
210
  0
LINE
  8
_0-5_寸法線
  6
CONTINUOUS
 62
    7
 10
804.06987821252619
 20
995.03398512417925
 11
812.06987821252608
 21
981.1775786636282
  0
LINE
  8
_0-5_寸法線
  6
CONTINUOUS
 62
    7
 10
804.06987821252619
 20
995.03398512417925
 11
804.06987821252608
 21
979.03398512417925
  0
LINE
  8
_0-5_寸法線
  6
CONTINUOUS
 62
    7
 10
804.06987821252619
 20
995.03398512417925
 11
837.51297789489422
 21
870.22263794698893
  0
LINE
  8
_0-5_寸法線
  6
CONTINUOUS
 62
    7
 10
837.51297789489422
 20
870.22263794698893
 11
1125.5129778948942
 21
870.22263794698893
  0
TEXT
  8
_0-5_寸法線
 62
    7
 10
837.51297789489422
 20
870.22263794698893
 40
24
 41
0.8000000000000001
 50
0
  1
セーフティグレーチング補強仕様
  0
TEXT
  8
_0-5_寸法線
 62
    7
 10
840.45735894371614
 20
844.87224492541509
 40
24
 41
0.7999999999999999
 50
0
  1
ＧＲＳＫ－２５Ｗ２００
  0
LINE
  8
_0-d_寸法3
  6
CONTINUOUS
 62
    7
 10
483.74901008710253
 20
440.6682994212328
 11
405.61567675376932
 21
440.66829942123275
  0
LINE
  8
_0-d_寸法3
  6
CONTINUOUS
 62
    7
 10
413.61567675376932
 20
440.66829942123275
 11
417.75678147540964
 21
425.21348620060763
  0
LINE
  8
_0-d_寸法3
  6
CONTINUOUS
 62
    7
 10
413.61567675376932
 20
440.66829942123275
 11
409.47457203212889
 21
425.21348620060763
  0
LINE
  8
_0-d_寸法3
  6
CONTINUOUS
 62
    7
 10
480.5490100871026
 20
366.001632754566
 11
405.61567675376932
 21
366.0016327545664
  0
LINE
  8
_0-d_寸法3
  6
CONTINUOUS
 62
    7
 10
413.61567675376932
 20
366.00163275456634
 11
409.47457203212889
 21
381.45644597519146
  0
LINE
  8
_0-d_寸法3
  6
CONTINUOUS
 62
    7
 10
413.61567675376932
 20
366.00163275456634
 11
417.75678147540964
 21
381.45644597519146
  0
LINE
  8
_0-d_寸法3
  6
CONTINUOUS
 62
    7
 10
413.61567675376932
 20
440.66829942123275
 11
413.61567675376932
 21
366.00163275456634
  0
TEXT
  8
_0-d_寸法3
 62
    7
 10
413.61567675376932
 20
391.33496608789955
 40
24
 41
1
 50
90
  1
28
  0
LINE
  8
_0-d_寸法3
  6
CONTINUOUS
 62
    7
 10
483.74901008710253
 20
366.001632754566
 11
405.61567675376932
 21
366.00163275456595
  0
LINE
  8
_0-d_寸法3
  6
CONTINUOUS
 62
    7
 10
413.61567675376932
 20
366.00163275456595
 11
417.75678147540953
 21
350.54681953394083
  0
LINE
  8
_0-d_寸法3
  6
CONTINUOUS
 62
    7
 10
413.61567675376932
 20
366.00163275456595
 11
409.47457203212889
 21
350.54681953394089
  0
LINE
  8
_0-d_寸法3
  6
CONTINUOUS
 62
    7
 10
480.5490100871026
 20
304.6682994212324
 11
405.61567675376932
 21
304.6682994212324
  0
LINE
  8
_0-d_寸法3
  6
CONTINUOUS
 62
    7
 10
413.61567675376932
 20
304.6682994212324
 11
409.47457203212889
 21
320.12311264185746
  0
LINE
  8
_0-d_寸法3
  6
CONTINUOUS
 62
    7
 10
413.61567675376932
 20
304.6682994212324
 11
417.75678147540953
 21
320.12311264185746
  0
LINE
  8
_0-d_寸法3
  6
CONTINUOUS
 62
    7
 10
413.61567675376932
 20
366.00163275456595
 11
413.61567675376932
 21
304.6682994212324
  0
TEXT
  8
_0-d_寸法3
 62
    7
 10
413.61567675376932
 20
323.33496608789915
 40
24
 41
1
 50
90
  1
23
  0
LINE
  8
_0-5_寸法線
  6
CONTINUOUS
 62
    7
 10
1359.249010087103
 20
1160.8467153284594
 11
1355.1079053654628
 21
1176.3015285490844
  0
LINE
  8
_0-5_寸法線
  6
CONTINUOUS
 62
    7
 10
1359.249010087103
 20
1160.8467153284594
 11
1363.3901148087434
 21
1176.3015285490844
  0
LINE
  8
_0-5_寸法線
  6
CONTINUOUS
 62
    7
 10
1316.7490100871028
 20
1157.8467153284594
 11
1367.249010087103
 21
1157.8467153284594
  0
CIRCLE
  8
_0-5_寸法線
  6
CONTINUOUS
 62
    1
 10
1359.249010087103
 20
1157.8467153284594
 40
2.4000000000000004
  0
LINE
  8
_0-5_寸法線
  6
CONTINUOUS
 62
    7
 10
1359.249010087103
 20
1200.8467153284594
 11
1359.249010087103
 21
1157.8467153284594
  0
TEXT
  8
_0-5_寸法線
 62
    7
 10
1359.249010087103
 20
1181.7837866932862
 40
24
 41
1
 50
90
  1
3
  0
LINE
  8
_0-5_寸法線
  6
CONTINUOUS
 62
    7
 10
1316.7490100871028
 20
1155.8467153284603
 11
1367.249010087103
 21
1155.8467153284603
  0
LINE
  8
_0-5_寸法線
  6
CONTINUOUS
 62
    7
 10
1359.249010087103
 20
1157.8467153284594
 11
1359.249010087103
 21
1155.8467153284603
  0
TEXT
  8
_0-5_寸法線
 62
    7
 10
1392.8411698790878
 20
1146.283642342303
 40
24
 41
1
 50
90
  1
2
  0
LINE
  8
_0-5_寸法線
  6
CONTINUOUS
 62
    7
 10
1359.249010087103
 20
1155.8467153284603
 11
1363.3901148087432
 21
1140.3919021078352
  0
LINE
  8
_0-5_寸法線
  6
CONTINUOUS
 62
    7
 10
1359.249010087103
 20
1155.8467153284603
 11
1355.1079053654626
 21
1140.3919021078352
  0
LINE
  8
_0-5_寸法線
  6
CONTINUOUS
 62
    7
 10
1316.7490100871028
 20
955.84671532846028
 11
1367.2490100871034
 21
955.84671532846028
  0
LINE
  8
_0-5_寸法線
  6
CONTINUOUS
 62
    7
 10
1359.2490100871034
 20
955.84671532846028
 11
1355.107905365463
 21
971.30152854908533
  0
LINE
  8
_0-5_寸法線
  6
CONTINUOUS
 62
    7
 10
1359.2490100871034
 20
955.84671532846028
 11
1363.3901148087436
 21
971.30152854908533
  0
LINE
  8
_0-5_寸法線
  6
CONTINUOUS
 62
    7
 10
1359.249010087103
 20
1155.8467153284603
 11
1359.2490100871034
 21
955.84671532846028
  0
TEXT
  8
_0-5_寸法線
 62
    7
 10
1359.2490100871032
 20
1037.8467153284603
 40
24
 41
1
 50
90
  1
200
  0
LINE
  8
_0-5_寸法線
  6
CONTINUOUS
 62
    7
 10
1316.7490100871028
 20
953.84671532846073
 11
1367.2490100871034
 21
953.84671532846073
  0
CIRCLE
  8
_0-5_寸法線
  6
CONTINUOUS
 62
    1
 10
1359.2490100871034
 20
953.84671532846073
 40
2.4000000000000004
  0
LINE
  8
_0-5_寸法線
  6
CONTINUOUS
 62
    7
 10
1359.2490100871034
 20
955.84671532846028
 11
1359.2490100871034
 21
953.84671532846073
  0
TEXT
  8
_0-5_寸法線
 62
    7
 10
1389.8817300587684
 20
956.24434916645691
 40
24
 41
1
 50
90
  1
2
  0
LINE
  8
_0-5_寸法線
  6
CONTINUOUS
 62
    7
 10
1359.2490100871032
 20
950.84671532845618
 11
1363.3901148087423
 21
935.39190210783079
  0
LINE
  8
_0-5_寸法線
  6
CONTINUOUS
 62
    7
 10
1359.2490100871032
 20
950.84671532845618
 11
1355.1079053654616
 21
935.39190210783147
  0
LINE
  8
_0-5_寸法線
  6
CONTINUOUS
 62
    7
 10
1359.2490100871034
 20
953.84671532846073
 11
1359.2490100871003
 21
910.84671532845618
  0
TEXT
  8
_0-5_寸法線
 62
    7
 10
1359.2490100871034
 20
914.71295684639608
 40
24
 41
1
 50
90
  1
3
  0
LINE
  8
_0-d_寸法3
  6
CONTINUOUS
 62
    7
 10
499.74901008710253
 20
576.6682994212324
 11
484.29419686647748
 21
572.52719469959209
  0
LINE
  8
_0-d_寸法3
  6
CONTINUOUS
 62
    7
 10
499.74901008710253
 20
576.6682994212324
 11
484.29419686647748
 21
580.80940414287284
  0
LINE
  8
_0-d_寸法3
  6
CONTINUOUS
 62
    7
 10
507.74901008710253
 20
447.33496608789955
 11
507.74901008710253
 21
584.6682994212324
  0
CIRCLE
  8
_0-d_寸法3
  6
CONTINUOUS
 62
    1
 10
507.74901008710253
 20
576.6682994212324
 40
2.4000000000000004
  0
LINE
  8
_0-d_寸法3
  6
CONTINUOUS
 62
    7
 10
459.74901008710253
 20
576.6682994212324
 11
507.74901008710253
 21
576.6682994212324
  0
TEXT
  8
_0-d_寸法3
 62
    7
 10
465.91754137682551
 20
576.6682994212324
 40
24
 41
1
 50
0
  1
3
  0
LINE
  8
_0-d_寸法3
  6
CONTINUOUS
 62
    7
 10
513.08234342043545
 20
443.33496341854863
 11
513.08234342043625
 21
584.6682994212324
  0
LINE
  8
_0-d_寸法3
  6
CONTINUOUS
 62
    7
 10
507.74901008710253
 20
576.6682994212324
 11
513.08234342043625
 21
576.6682994212324
  0
TEXT
  8
_0-d_寸法3
 62
    7
 10
504.41567675376905
 20
576.6682994212324
 40
24
 41
1
 50
0
  1
2
  0
LINE
  8
_0-d_寸法3
  6
CONTINUOUS
 62
    7
 10
513.08234342043625
 20
576.6682994212324
 11
528.5371566410613
 21
580.80940414287272
  0
LINE
  8
_0-d_寸法3
  6
CONTINUOUS
 62
    7
 10
513.08234342043625
 20
576.6682994212324
 11
528.5371566410613
 21
572.52719469959209
  0
LINE
  8
_0-d_寸法3
  6
CONTINUOUS
 62
    7
 10
1046.4156767537697
 20
443.33496341854863
 11
1046.4156767537697
 21
584.6682994212324
  0
LINE
  8
_0-d_寸法3
  6
CONTINUOUS
 62
    7
 10
1046.4156767537697
 20
576.6682994212324
 11
1030.9608635331447
 21
572.52719469959209
  0
LINE
  8
_0-d_寸法3
  6
CONTINUOUS
 62
    7
 10
1046.4156767537697
 20
576.6682994212324
 11
1030.9608635331447
 21
580.80940414287284
  0
LINE
  8
_0-d_寸法3
  6
CONTINUOUS
 62
    7
 10
513.08234342043625
 20
576.6682994212324
 11
1046.4156767537697
 21
576.6682994212324
  0
TEXT
  8
_0-d_寸法3
 62
    7
 10
761.7490100871031
 20
576.6682994212324
 40
24
 41
1
 50
0
  1
200
  0
LINE
  8
_0-d_寸法3
  6
CONTINUOUS
 62
    7
 10
1051.7490100871028
 20
447.33496608789955
 11
1051.7490100871034
 21
584.6682994212324
  0
CIRCLE
  8
_0-d_寸法3
  6
CONTINUOUS
 62
    1
 10
1051.7490100871034
 20
576.6682994212324
 40
2.4000000000000004
  0
LINE
  8
_0-d_寸法3
  6
CONTINUOUS
 62
    7
 10
1046.4156767537697
 20
576.6682994212324
 11
1051.7490100871034
 21
576.6682994212324
  0
TEXT
  8
_0-d_寸法3
 62
    7
 10
1043.0823434204362
 20
576.6682994212324
 40
24
 41
1
 50
0
  1
2
  0
LINE
  8
_0-d_寸法3
  6
CONTINUOUS
 62
    7
 10
1059.7490100871034
 20
576.6682994212324
 11
1075.2038233077285
 21
580.80940414287261
  0
LINE
  8
_0-d_寸法3
  6
CONTINUOUS
 62
    7
 10
1059.7490100871034
 20
576.6682994212324
 11
1075.2038233077285
 21
572.52719469959197
  0
LINE
  8
_0-d_寸法3
  6
CONTINUOUS
 62
    7
 10
1051.7490100871034
 20
576.6682994212324
 11
1099.7490100871034
 21
576.6682994212324
  0
TEXT
  8
_0-d_寸法3
 62
    7
 10
1082.7494213727548
 20
576.6682994212324
 40
24
 41
1
 50
0
  1
3
  0
LINE
  8
_0-5_寸法線
  6
CONTINUOUS
 62
    7
 10
779.7490100871031
 20
1176.8467153284594
 11
779.7490100871031
 21
1248.8467153284594
  0
LINE
  8
_0-5_寸法線
  6
CONTINUOUS
 62
    7
 10
779.7490100871031
 20
1240.8467153284594
 11
795.20382330772816
 21
1244.9878200500998
  0
LINE
  8
_0-5_寸法線
  6
CONTINUOUS
 62
    7
 10
779.7490100871031
 20
1240.8467153284594
 11
795.20382330772816
 21
1236.7056106068189
  0
LINE
  8
_0-5_寸法線
  6
CONTINUOUS
 62
    7
 10
828.2490100871031
 20
1176.8467153284594
 11
828.2490100871031
 21
1248.8467153284594
  0
LINE
  8
_0-5_寸法線
  6
CONTINUOUS
 62
    7
 10
828.2490100871031
 20
1240.8467153284594
 11
812.79419686647805
 21
1236.7056106068192
  0
LINE
  8
_0-5_寸法線
  6
CONTINUOUS
 62
    7
 10
828.2490100871031
 20
1240.8467153284594
 11
812.79419686647805
 21
1244.9878200500998
  0
LINE
  8
_0-5_寸法線
  6
CONTINUOUS
 62
    7
 10
779.7490100871031
 20
1240.8467153284594
 11
828.2490100871031
 21
1240.8467153284594
  0
TEXT
  8
_0-5_寸法線
 62
    7
 10
791.99901008710401
 20
1240.8467153284594
 40
24
 41
1
 50
0
  1
Ｂ
  0
LINE
  8
_0-5_寸法線
  6
CONTINUOUS
 62
    7
 10
280.2490100871031
 20
1176.8467153284594
 11
280.2490100871031
 21
1248.8467153284594
  0
LINE
  8
_0-5_寸法線
  6
CONTINUOUS
 62
    7
 10
280.2490100871031
 20
1240.8467153284594
 11
295.70382330772827
 21
1244.9878200500998
  0
LINE
  8
_0-5_寸法線
  6
CONTINUOUS
 62
    7
 10
280.2490100871031
 20
1240.8467153284594
 11
295.70382330772827
 21
1236.7056106068189
  0
LINE
  8
_0-5_寸法線
  6
CONTINUOUS
 62
    7
 10
294.7490100871031
 20
1176.8467153284594
 11
294.7490100871031
 21
1248.8467153284594
  0
LINE
  8
_0-5_寸法線
  6
CONTINUOUS
 62
    7
 10
294.7490100871031
 20
1240.8467153284594
 11
279.29419686647793
 21
1236.7056106068192
  0
LINE
  8
_0-5_寸法線
  6
CONTINUOUS
 62
    7
 10
294.7490100871031
 20
1240.8467153284594
 11
279.29419686647805
 21
1244.9878200500998
  0
LINE
  8
_0-5_寸法線
  6
CONTINUOUS
 62
    7
 10
280.2490100871031
 20
1240.8467153284594
 11
294.7490100871031
 21
1240.8467153284594
  0
TEXT
  8
_0-5_寸法線
 62
    7
 10
275.4990100871031
 20
1240.8467153284594
 40
24
 41
1
 50
0
  1
Ａ
  0
LINE
  8
_0-5_寸法線
  6
CONTINUOUS
 62
    7
 10
1264.7490100871032
 20
1176.8467153284594
 11
1264.7490100871032
 21
1248.8467153284594
  0
LINE
  8
_0-5_寸法線
  6
CONTINUOUS
 62
    7
 10
1264.7490100871032
 20
1240.8467153284594
 11
1280.2038233077283
 21
1244.9878200500998
  0
LINE
  8
_0-5_寸法線
  6
CONTINUOUS
 62
    7
 10
1264.7490100871032
 20
1240.8467153284594
 11
1280.2038233077283
 21
1236.7056106068189
  0
LINE
  8
_0-5_寸法線
  6
CONTINUOUS
 62
    7
 10
1279.2490100871032
 20
1176.8467153284594
 11
1279.2490100871032
 21
1248.8467153284594
  0
LINE
  8
_0-5_寸法線
  6
CONTINUOUS
 62
    7
 10
1279.2490100871032
 20
1240.8467153284594
 11
1263.7941968664782
 21
1236.7056106068192
  0
LINE
  8
_0-5_寸法線
  6
CONTINUOUS
 62
    7
 10
1279.2490100871032
 20
1240.8467153284594
 11
1263.7941968664782
 21
1244.9878200500998
  0
LINE
  8
_0-5_寸法線
  6
CONTINUOUS
 62
    7
 10
1264.7490100871032
 20
1240.8467153284594
 11
1279.2490100871032
 21
1240.8467153284594
  0
TEXT
  8
_0-5_寸法線
 62
    7
 10
1259.9990100871032
 20
1240.8467153284594
 40
24
 41
1
 50
0
  1
Ａ
  0
LINE
  8
_0-5_寸法線
  6
CONTINUOUS
 62
    7
 10
280.24901008710322
 20
1176.8467153284585
 11
280.2490100871039
 21
1304.8467153284594
  0
LINE
  8
_0-5_寸法線
  6
CONTINUOUS
 62
    7
 10
280.24901008710378
 20
1296.8467153284594
 11
291.84012000257258
 21
1299.9525438696896
  0
LINE
  8
_0-5_寸法線
  6
CONTINUOUS
 62
    7
 10
280.24901008710378
 20
1296.8467153284594
 11
291.84012000257258
 21
1293.7408867872291
  0
LINE
  8
_0-5_寸法線
  6
CONTINUOUS
 62
    7
 10
1279.2490100871032
 20
1176.8467153284585
 11
1279.2490100871032
 21
1304.8467153284594
  0
LINE
  8
_0-5_寸法線
  6
CONTINUOUS
 62
    7
 10
1279.2490100871032
 20
1296.8467153284594
 11
1267.6579001716343
 21
1293.7408867872291
  0
LINE
  8
_0-5_寸法線
  6
CONTINUOUS
 62
    7
 10
1279.2490100871032
 20
1296.8467153284594
 11
1267.6579001716343
 21
1299.9525438696896
  0
LINE
  8
_0-5_寸法線
  6
CONTINUOUS
 62
    7
 10
280.24901008710378
 20
1296.8467153284594
 11
1279.2490100871032
 21
1296.8467153284594
  0
TEXT
  8
_0-5_寸法線
 62
    7
 10
767.7490100871039
 20
1296.8467153284594
 40
24
 41
1
 50
0
  1
Ｌ
  0
LINE
  8
_0-5_寸法線
  6
CONTINUOUS
 62
    7
 10
682.74901008710401
 20
1176.8467153284594
 11
682.74901008710401
 21
1248.8467153284594
  0
LINE
  8
_0-5_寸法線
  6
CONTINUOUS
 62
    7
 10
682.74901008710401
 20
1240.8467153284594
 11
698.20382330772907
 21
1244.9878200500998
  0
LINE
  8
_0-5_寸法線
  6
CONTINUOUS
 62
    7
 10
682.74901008710401
 20
1240.8467153284594
 11
698.20382330772907
 21
1236.7056106068189
  0
LINE
  8
_0-5_寸法線
  6
CONTINUOUS
 62
    7
 10
731.24901008710401
 20
1176.8467153284594
 11
731.24901008710401
 21
1248.8467153284594
  0
LINE
  8
_0-5_寸法線
  6
CONTINUOUS
 62
    7
 10
731.24901008710401
 20
1240.8467153284594
 11
715.79419686647896
 21
1236.7056106068192
  0
LINE
  8
_0-5_寸法線
  6
CONTINUOUS
 62
    7
 10
731.24901008710401
 20
1240.8467153284594
 11
715.79419686647896
 21
1244.9878200500998
  0
LINE
  8
_0-5_寸法線
  6
CONTINUOUS
 62
    7
 10
682.74901008710401
 20
1240.8467153284594
 11
731.24901008710401
 21
1240.8467153284594
  0
TEXT
  8
_0-5_寸法線
 62
    7
 10
682.99901008710401
 20
1240.8467153284594
 40
24
 41
1
 50
0
  1
48.5
  0
LINE
  8
_0-5_寸法線
  6
CONTINUOUS
 62
    7
 10
731.24901008710401
 20
1240.8467153284594
 11
746.70382330772918
 21
1244.9878200500996
  0
LINE
  8
_0-5_寸法線
  6
CONTINUOUS
 62
    7
 10
731.24901008710401
 20
1240.8467153284594
 11
746.70382330772907
 21
1236.7056106068189
  0
LINE
  8
_0-5_寸法線
  6
CONTINUOUS
 62
    7
 10
779.74901008710401
 20
1176.8467153284594
 11
779.74901008710401
 21
1248.8467153284594
  0
LINE
  8
_0-5_寸法線
  6
CONTINUOUS
 62
    7
 10
779.74901008710401
 20
1240.8467153284594
 11
764.29419686647896
 21
1236.7056106068192
  0
LINE
  8
_0-5_寸法線
  6
CONTINUOUS
 62
    7
 10
779.74901008710401
 20
1240.8467153284594
 11
764.29419686647896
 21
1244.9878200500998
  0
LINE
  8
_0-5_寸法線
  6
CONTINUOUS
 62
    7
 10
731.24901008710401
 20
1240.8467153284594
 11
779.74901008710401
 21
1240.8467153284594
  0
TEXT
  8
_0-5_寸法線
 62
    7
 10
732.37554281369046
 20
1216.8467153284594
 40
24
 41
1
 50
0
  1
48.5
  0
LINE
  8
_0-7_枠細線
  6
CONTINUOUS
 62
    5
 10
720.7831632691508
 20
1269.3310535460541
 11
708.7831632691508
 21
1293.3310535460541
  0
LINE
  8
_0-7_枠細線
  6
CONTINUOUS
 62
    5
 10
696.7831632691508
 20
1269.3310535460541
 11
720.7831632691508
 21
1269.3310535460541
  0
LINE
  8
_0-7_枠細線
  6
CONTINUOUS
 62
    5
 10
708.7831632691508
 20
1293.3310535460541
 11
696.7831632691508
 21
1269.3310535460541
  0
TEXT
  8
_0-7_枠細線
 62
    5
 10
700.56740529818774
 20
1268.8398499534453
 40
20
 41
0.8
 50
0
  1
１
  0
LINE
  8
_0-7_枠細線
  6
CONTINUOUS
 62
    5
 10
737.19964279867179
 20
1293.3310535460541
 11
725.19964279867179
 21
1269.3310535460541
  0
LINE
  8
_0-7_枠細線
  6
CONTINUOUS
 62
    5
 10
725.19964279867179
 20
1269.3310535460541
 11
749.19964279867179
 21
1269.3310535460541
  0
LINE
  8
_0-7_枠細線
  6
CONTINUOUS
 62
    5
 10
749.19964279867179
 20
1269.3310535460541
 11
737.19964279867179
 21
1293.3310535460541
  0
LINE
  8
_0-7_枠細線
  6
CONTINUOUS
 62
    5
 10
2280
 20
1312
 11
1424
 21
1312
  0
LINE
  8
_0-7_枠細線
  6
CONTINUOUS
 62
    5
 10
2280
 20
1284
 11
1424
 21
1284
  0
LINE
  8
_0-7_枠細線
  6
CONTINUOUS
 62
    5
 10
1424
 20
1284
 11
1424
 21
1535.9999999999986
  0
LINE
  8
_0-7_枠細線
  6
CONTINUOUS
 62
    5
 10
1480
 20
1284
 11
1480
 21
1535.9999999999986
  0
LINE
  8
_0-7_枠細線
  6
CONTINUOUS
 62
    5
 10
1880
 20
1284
 11
1880
 21
1535.9999999999986
  0
LINE
  8
_0-7_枠細線
  6
CONTINUOUS
 62
    5
 10
2040
 20
1284
 11
2040
 21
1535.9999999999986
  0
LINE
  8
_0-7_枠細線
  6
CONTINUOUS
 62
    5
 10
1668.4453960905373
 20
1133.8946910356817
 11
1668.4453960905373
 21
1013.8946910356817
  0
TEXT
  8
_0-7_枠細線
 62
    5
 10
1671.7225259619293
 20
980.73377816458571
 40
24
 41
0.8000000000000001
 50
0
  1
※ 特寸品はAが20以下となるようBにて調整
  0
TEXT
  8
_0-7_枠細線
 62
    5
 10
1671.7225259619293
 20
949.54143699835424
 40
24
 41
0.8000000000000001
 50
0
  1
※ 角型の場合は、集水マス補強仕様による
  0
TEXT
  8
_0-7_枠細線
 62
    5
 10
1709.6453960905394
 20
1101.8946910356817
 40
24
 41
0.8000000000000001
 50
0
  1
種　別
  0
TEXT
  8
_0-7_枠細線
 62
    5
 10
1709.6453960905387
 20
1061.8946910356817
 40
24
 41
0.8000000000000001
 50
0
  1
定尺品
  0
TEXT
  8
_0-7_枠細線
 62
    5
 10
1709.6453960905387
 20
1021.8946910356817
 40
24
 41
0.8000000000000001
 50
0
  1
特寸品
  0
LINE
  8
_0-7_枠細線
  6
CONTINUOUS
 62
    5
 10
1808.4453960905396
 20
1133.8946910356817
 11
1808.4453960905396
 21
1013.8946910356817
  0
TEXT
  8
_0-7_枠細線
 62
    5
 10
1856.8453960905417
 20
1061.8946910356817
 40
24
 41
0.5999999999999999
 50
0
  1
９９９
  0
TEXT
  8
_0-7_枠細線
 62
    5
 10
1868.8453960905417
 20
1101.8946910356817
 40
24
 41
0.8000000000000001
 50
0
  1
Ｌ
  0
TEXT
  8
_0-7_枠細線
 62
    5
 10
1820.8453960905401
 20
1021.8946910356817
 40
24
 41
0.5999999999999999
 50
0
  1
３０５～１３０５
  0
LINE
  8
_0-7_枠細線
  6
CONTINUOUS
 62
    5
 10
1948.4453960905396
 20
1133.8946910356817
 11
1948.4453960905396
 21
1013.8946910356817
  0
TEXT
  8
_0-7_枠細線
 62
    5
 10
1849.2540219487703
 20
1141.8946910356817
 40
28
 41
1
 50
0
  1
寸法表
  0
LINE
  8
_0-7_枠細線
  6
CONTINUOUS
 62
    5
 10
2228.4453960905412
 20
1133.8946910356817
 11
2228.4453960905412
 21
1013.8946910356817
  0
LINE
  8
_0-7_枠細線
  6
CONTINUOUS
 62
    5
 10
1668.4453960905373
 20
1133.8946910356817
 11
2228.4453960905412
 21
1133.8946910356817
  0
LINE
  8
_0-7_枠細線
  6
CONTINUOUS
 62
    5
 10
1668.4453960905373
 20
1093.8946910356817
 11
2228.4453960905412
 21
1093.8946910356817
  0
LINE
  8
_0-7_枠細線
  6
CONTINUOUS
 62
    5
 10
1668.4453960905373
 20
1053.8946910356817
 11
2228.4453960905412
 21
1053.8946910356817
  0
LINE
  8
_0-7_枠細線
  6
CONTINUOUS
 62
    5
 10
1668.4453960905373
 20
1013.8946910356817
 11
2228.4453960905412
 21
1013.8946910356817
  0
LINE
  8
_0-7_枠細線
  6
CONTINUOUS
 62
    5
 10
2088.4453960905403
 20
1133.8946910356817
 11
2088.4453960905403
 21
1013.8946910356817
  0
TEXT
  8
_0-7_枠細線
 62
    5
 10
1989.645396090544
 20
1021.8946910356817
 40
24
 41
0.5999999999999999
 50
0
  1
７～２０
  0
TEXT
  8
_0-7_枠細線
 62
    5
 10
2008.8453960905451
 20
1101.8946910356817
 40
24
 41
0.8000000000000001
 50
0
  1
Ａ
  0
TEXT
  8
_0-7_枠細線
 62
    5
 10
2148.8453960905426
 20
1101.8946910356817
 40
24
 41
0.8000000000000001
 50
0
  1
Ｂ
  0
TEXT
  8
_0-7_枠細線
 62
    5
 10
2129.6453960905392
 20
1061.8946910356817
 40
24
 41
0.5999999999999999
 50
0
  1
４８．５
  0
TEXT
  8
_0-7_枠細線
 62
    5
 10
1989.6453960905399
 20
1061.8946910356817
 40
24
 41
0.5999999999999999
 50
0
  1
１４．５
  0
TEXT
  8
_0-7_枠細線
 62
    5
 10
2093.645396090541
 20
1021.8946910356817
 40
24
 41
0.5999999999999999
 50
0
  1
２６．５～４８．５
  0
TEXT
  8
_0-7_枠細線
 62
    5
 10
1882.8453960905381
 20
608
 40
24
 41
0.7999999999999999
 50
0
  1
ライトグレー
  0
TEXT
  8
_0-7_枠細線
 62
    5
 10
1902.0453960905379
 20
648
 40
24
 41
0.7999999999999999
 50
0
  1
ベージュ
  0
TEXT
  8
_0-7_枠細線
 62
    5
 10
1902.0453960905379
 20
567.99999999999977
 40
24
 41
0.7999999999999999
 50
0
  1
ホワイト
  0
TEXT
  8
_0-7_枠細線
 62
    5
 10
1911.645396090538
 20
527.99999999999977
 40
24
 41
0.7999999999999999
 50
0
  1
ピンク
  0
TEXT
  8
_0-7_枠細線
 62
    5
 10
1911.645396090538
 20
487.99999999999977
 40
24
 41
0.7999999999999999
 50
0
  1
ブルー
  0
TEXT
  8
_0-7_枠細線
 62
    5
 10
1882.8453960905381
 20
447.99999999999977
 40
24
 41
0.7999999999999999
 50
0
  1
ダークグレー
  0
TEXT
  8
_0-7_枠細線
 62
    5
 10
1911.645396090538
 20
407.99999999999977
 40
24
 41
0.7999999999999999
 50
0
  1
ウッド
  0
TEXT
  8
_0-7_枠細線
 62
    5
 10
1902.0453960905379
 20
327.99999999999977
 40
24
 41
0.7999999999999999
 50
0
  1
ブラック
  0
TEXT
  8
_0-7_枠細線
 62
    5
 10
1902.0453960905379
 20
367.99999999999977
 40
24
 41
0.7999999999999999
 50
0
  1
ブラウン
  0
TEXT
  8
_0-7_枠細線
 62
    5
 10
883.79208546299776
 20
138.3966855443341
 40
32
 41
0.6
 50
0
  1
Ｓ＝１：３
  0
LINE
  8
_0-1_計細線
  6
CONTINUOUS
 62
    3
 10
352.74901008710253
 20
1053.4967153284604
 11
405.74901008710253
 21
1053.4967153284604
  0
LINE
  8
_0-1_計細線
  6
CONTINUOUS
 62
    3
 10
405.74901008710253
 20
1058.1967153284602
 11
352.74901008710253
 21
1058.1967153284602
  0
LINE
  8
_0-1_計細線
  6
CONTINUOUS
 62
    3
 10
352.74901008710253
 20
1058.1967153284602
 11
352.74901008710253
 21
1053.4967153284604
  0
LINE
  8
_0-1_計細線
  6
CONTINUOUS
 62
    3
 10
395.74901008710253
 20
1058.1967153284602
 11
395.74901008710253
 21
1053.4967153284604
  0
LINE
  8
_0-1_計細線
  6
CONTINUOUS
 62
    3
 10
403.74901008710253
 20
1058.1967153284602
 11
403.74901008710253
 21
1053.4967153284604
  0
LINE
  8
_0-1_計細線
  6
CONTINUOUS
 62
    3
 10
405.74901008710253
 20
1058.1967153284602
 11
405.74901008710253
 21
1053.4967153284604
  0
LINE
  8
_0-1_計細線
  6
CONTINUOUS
 62
    3
 10
401.74901008710253
 20
1058.1967153284602
 11
401.74901008710253
 21
1053.4967153284604
  0
LINE
  8
_0-1_計細線
  6
CONTINUOUS
 62
    3
 10
399.74901008710253
 20
1058.1967153284602
 11
399.74901008710253
 21
1053.4967153284604
  0
LINE
  8
_0-1_計細線
  6
CONTINUOUS
 62
    3
 10
397.74901008710253
 20
1058.1967153284602
 11
397.74901008710253
 21
1053.4967153284604
  0
LINE
  8
_0-0_計極細
  6
CONTINUOUS
 62
    2
 10
336.74901008710299
 20
1002.0467153284606
 11
336.74901008710299
 21
1007.6467153284609
  0
LINE
  8
_0-0_計極細
  6
CONTINUOUS
 62
    2
 10
349.74901008710299
 20
1002.0467153284606
 11
349.74901008710299
 21
1007.6467153284609
  0
LINE
  8
_0-0_計極細
  6
CONTINUOUS
 62
    2
 10
336.74901008710299
 20
1019.0467153284615
 11
336.74901008710299
 21
1024.6467153284618
  0
LINE
  8
_0-0_計極細
  6
CONTINUOUS
 62
    2
 10
349.74901008710299
 20
1019.0467153284615
 11
349.74901008710299
 21
1024.6467153284618
  0
LINE
  8
_0-0_計極細
  6
CONTINUOUS
 62
    2
 10
336.74901008710299
 20
1041.6467153284577
 11
336.74901008710299
 21
1036.0467153284578
  0
LINE
  8
_0-0_計極細
  6
CONTINUOUS
 62
    2
 10
349.74901008710299
 20
1041.6467153284577
 11
349.74901008710299
 21
1036.0467153284578
  0
LINE
  8
_0-0_計極細
  6
CONTINUOUS
 62
    2
 10
336.74901008710299
 20
1058.6467153284582
 11
336.74901008710299
 21
1053.0467153284583
  0
LINE
  8
_0-0_計極細
  6
CONTINUOUS
 62
    2
 10
349.74901008710299
 20
1058.6467153284582
 11
349.74901008710299
 21
1053.0467153284583
  0
LINE
  8
_0-0_計極細
  6
CONTINUOUS
 62
    2
 10
336.74901008710299
 20
1127.0467153284596
 11
336.74901008710299
 21
1121.0467153284596
  0
LINE
  8
_0-0_計極細
  6
CONTINUOUS
 62
    2
 10
349.74901008710299
 20
1127.0467153284596
 11
349.74901008710299
 21
1121.0467153284596
  0
LINE
  8
_0-0_計極細
  6
CONTINUOUS
 62
    2
 10
336.74901008710299
 20
1144.4467153284597
 11
336.74901008710299
 21
1138.4467153284593
  0
LINE
  8
_0-0_計極細
  6
CONTINUOUS
 62
    2
 10
349.74901008710299
 20
1144.4467153284597
 11
349.74901008710299
 21
1138.4467153284593
  0
LINE
  8
_0-0_計極細
  6
CONTINUOUS
 62
    2
 10
336.74901008710299
 20
1075.6467153284591
 11
336.74901008710299
 21
1070.0467153284587
  0
LINE
  8
_0-0_計極細
  6
CONTINUOUS
 62
    2
 10
349.74901008710299
 20
1075.6467153284591
 11
349.74901008710299
 21
1070.0467153284587
  0
LINE
  8
_0-0_計極細
  6
CONTINUOUS
 62
    2
 10
336.74901008710299
 20
1092.64671532846
 11
336.74901008710299
 21
1087.0467153284596
  0
LINE
  8
_0-0_計極細
  6
CONTINUOUS
 62
    2
 10
349.74901008710299
 20
1092.64671532846
 11
349.74901008710299
 21
1087.0467153284596
  0
LINE
  8
_0-0_計極細
  6
CONTINUOUS
 62
    2
 10
336.74901008710299
 20
1109.6467153284605
 11
336.74901008710299
 21
1104.0467153284606
  0
LINE
  8
_0-0_計極細
  6
CONTINUOUS
 62
    2
 10
349.74901008710299
 20
1109.6467153284605
 11
349.74901008710299
 21
1104.0467153284606
  0
LINE
  8
_0-0_計極細
  6
CONTINUOUS
 62
    2
 10
336.74901008710299
 20
984.64671532846
 11
336.74901008710299
 21
990.64671532846
  0
LINE
  8
_0-0_計極細
  6
CONTINUOUS
 62
    2
 10
349.74901008710299
 20
984.64671532846
 11
349.74901008710299
 21
990.64671532846
  0
LINE
  8
_0-0_計極細
  6
CENTER1
 62
    2
 10
343.24901008710299
 20
1164.5974347529225
 11
343.24901008710299
 21
948.08889158744819
  0
LINE
  8
_0-0_計極細
  6
CONTINUOUS
 62
    2
 10
336.74901008710299
 20
967.24671532845946
 11
336.74901008710299
 21
973.24671532845946
  0
LINE
  8
_0-0_計極細
  6
CONTINUOUS
 62
    2
 10
349.74901008710299
 20
967.24671532845946
 11
349.74901008710299
 21
973.24671532845946
  0
LINE
  8
_0-0_計極細
  6
CONTINUOUS
 62
    2
 10
1209.749010087103
 20
1002.0467153284606
 11
1209.749010087103
 21
1007.6467153284609
  0
LINE
  8
_0-0_計極細
  6
CONTINUOUS
 62
    2
 10
1222.749010087103
 20
1002.0467153284606
 11
1222.749010087103
 21
1007.6467153284609
  0
LINE
  8
_0-0_計極細
  6
CONTINUOUS
 62
    2
 10
1209.749010087103
 20
1019.0467153284615
 11
1209.749010087103
 21
1024.6467153284618
  0
LINE
  8
_0-0_計極細
  6
CONTINUOUS
 62
    2
 10
1222.749010087103
 20
1019.0467153284615
 11
1222.749010087103
 21
1024.6467153284618
  0
LINE
  8
_0-0_計極細
  6
CONTINUOUS
 62
    2
 10
1209.749010087103
 20
1041.6467153284577
 11
1209.749010087103
 21
1036.0467153284578
  0
LINE
  8
_0-0_計極細
  6
CONTINUOUS
 62
    2
 10
1222.749010087103
 20
1041.6467153284577
 11
1222.749010087103
 21
1036.0467153284578
  0
LINE
  8
_0-0_計極細
  6
CONTINUOUS
 62
    2
 10
1209.749010087103
 20
1058.6467153284582
 11
1209.749010087103
 21
1053.0467153284583
  0
LINE
  8
_0-0_計極細
  6
CONTINUOUS
 62
    2
 10
1222.749010087103
 20
1058.6467153284582
 11
1222.749010087103
 21
1053.0467153284583
  0
LINE
  8
_0-0_計極細
  6
CONTINUOUS
 62
    2
 10
1209.749010087103
 20
1127.0467153284596
 11
1209.749010087103
 21
1121.0467153284596
  0
LINE
  8
_0-0_計極細
  6
CONTINUOUS
 62
    2
 10
1222.749010087103
 20
1127.0467153284596
 11
1222.749010087103
 21
1121.0467153284596
  0
LINE
  8
_0-0_計極細
  6
CONTINUOUS
 62
    2
 10
1209.749010087103
 20
1144.4467153284597
 11
1209.749010087103
 21
1138.4467153284593
  0
LINE
  8
_0-0_計極細
  6
CONTINUOUS
 62
    2
 10
1222.749010087103
 20
1144.4467153284597
 11
1222.749010087103
 21
1138.4467153284593
  0
LINE
  8
_0-0_計極細
  6
CONTINUOUS
 62
    2
 10
1209.749010087103
 20
1075.6467153284591
 11
1209.749010087103
 21
1070.0467153284587
  0
LINE
  8
_0-0_計極細
  6
CONTINUOUS
 62
    2
 10
1222.749010087103
 20
1075.6467153284591
 11
1222.749010087103
 21
1070.0467153284587
  0
LINE
  8
_0-0_計極細
  6
CONTINUOUS
 62
    2
 10
1209.749010087103
 20
1092.64671532846
 11
1209.749010087103
 21
1087.0467153284596
  0
LINE
  8
_0-0_計極細
  6
CONTINUOUS
 62
    2
 10
1222.749010087103
 20
1092.64671532846
 11
1222.749010087103
 21
1087.0467153284596
  0
LINE
  8
_0-0_計極細
  6
CONTINUOUS
 62
    2
 10
1209.749010087103
 20
1109.6467153284605
 11
1209.749010087103
 21
1104.0467153284606
  0
LINE
  8
_0-0_計極細
  6
CONTINUOUS
 62
    2
 10
1222.749010087103
 20
1109.6467153284605
 11
1222.749010087103
 21
1104.0467153284606
  0
LINE
  8
_0-0_計極細
  6
CONTINUOUS
 62
    2
 10
1209.749010087103
 20
984.64671532846
 11
1209.749010087103
 21
990.64671532846
  0
LINE
  8
_0-0_計極細
  6
CONTINUOUS
 62
    2
 10
1222.749010087103
 20
984.64671532846
 11
1222.749010087103
 21
990.64671532846
  0
LINE
  8
_0-0_計極細
  6
CENTER1
 62
    2
 10
1216.249010087103
 20
1164.5974347529225
 11
1216.249010087103
 21
948.08889158744819
  0
LINE
  8
_0-0_計極細
  6
CONTINUOUS
 62
    2
 10
1209.749010087103
 20
967.24671532845946
 11
1209.749010087103
 21
973.24671532845946
  0
LINE
  8
_0-0_計極細
  6
CONTINUOUS
 62
    2
 10
1222.749010087103
 20
967.24671532845946
 11
1222.749010087103
 21
973.24671532845946
  0
LINE
  8
_0-5_寸法線
  6
CONTINUOUS
 62
    7
 10
572.99170523518205
 20
952.05526397579706
 11
580.99170523518194
 21
938.198857515246
  0
LINE
  8
_0-5_寸法線
  6
CONTINUOUS
 62
    7
 10
572.99170523518205
 20
952.05526397579706
 11
572.99170523518194
 21
936.05526397579706
  0
LINE
  8
_0-5_寸法線
  6
CONTINUOUS
 62
    7
 10
572.99170523518205
 20
952.05526397579706
 11
594.91869129411884
 21
870.22263794698893
  0
LINE
  8
_0-5_寸法線
  6
CONTINUOUS
 62
    7
 10
594.91869129411884
 20
870.22263794698893
 11
767.7186912941188
 21
870.22263794698893
  0
TEXT
  8
_0-5_寸法線
 62
    7
 10
594.91869129411884
 20
871.18263794698873
 40
24
 41
0.8000000000000001
 50
0
  1
ＳＵＳアングル受枠
  0
TEXT
  8
_0-5_寸法線
 62
    7
 10
446.71591406819084
 20
843.74370516462147
 40
24
 41
0.7999999999999999
 50
0
  1
(標準付属)
  0
TEXT
  8
_0-7_枠細線
 62
    5
 10
453.28287229490752
 20
897.35773750583348
 40
20
 41
0.8
 50
0
  1
２
  0
LINE
  8
_0-7_枠細線
  6
CONTINUOUS
 62
    5
 10
473.49863026587127
 20
897.8489410984422
 11
461.49863026587127
 21
921.8489410984422
  0
LINE
  8
_0-7_枠細線
  6
CONTINUOUS
 62
    5
 10
449.49863026587127
 20
897.8489410984422
 11
473.49863026587127
 21
897.8489410984422
  0
LINE
  8
_0-7_枠細線
  6
CONTINUOUS
 62
    5
 10
461.49863026587127
 20
921.8489410984422
 11
449.49863026587127
 21
897.8489410984422
  0
LINE
  8
_0-7_枠細線
  6
CONTINUOUS
 62
    5
 10
503.44100452938483
 20
897.8489410984422
 11
491.44100452938483
 21
921.8489410984422
  0
LINE
  8
_0-7_枠細線
  6
CONTINUOUS
 62
    5
 10
479.44100452938483
 20
897.8489410984422
 11
503.44100452938483
 21
897.8489410984422
  0
LINE
  8
_0-7_枠細線
  6
CONTINUOUS
 62
    5
 10
491.44100452938483
 20
921.8489410984422
 11
479.44100452938483
 21
897.8489410984422
  0
TEXT
  8
_0-7_枠細線
 62
    5
 10
483.22524655842199
 20
896.97264687415202
 40
20
 41
0.8
 50
0
  1
３
  0
TEXT
  8
_0-5_寸法線
 62
    7
 10
597.28969698438084
 20
844.87224492541509
 40
24
 41
0.7999999999999999
 50
0
  1
ＧＳＬ－２５
  0
LINE
  8
_0-5_寸法線
  6
CONTINUOUS
 62
    7
 10
390.18862636513438
 20
1055.8467153284603
 11
398.18862636513427
 21
1041.9903088679091
  0
LINE
  8
_0-5_寸法線
  6
CONTINUOUS
 62
    7
 10
390.18862636513438
 20
1055.8467153284603
 11
390.18862636513427
 21
1039.8467153284603
  0
LINE
  8
_0-5_寸法線
  6
CONTINUOUS
 62
    7
 10
390.18862636513438
 20
1055.8467153284603
 11
439.92644799527091
 21
870.22263794698893
  0
LINE
  8
_0-5_寸法線
  6
CONTINUOUS
 62
    7
 10
439.92644799527091
 20
870.22263794698893
 11
535.92644799527079
 21
870.22263794698893
  0
TEXT
  8
_0-5_寸法線
 62
    7
 10
439.92644799527091
 20
870.22263794698893
 40
24
 41
0.8000000000000001
 50
0
  1
取　外　具
  0
LINE
  8
_0-7_枠細線
  6
CONTINUOUS
 62
    5
 10
519.85748405890581
 20
921.8489410984422
 11
507.85748405890581
 21
897.8489410984422
  0
LINE
  8
_0-7_枠細線
  6
CONTINUOUS
 62
    5
 10
507.85748405890581
 20
897.8489410984422
 11
531.85748405890581
 21
897.8489410984422
  0
LINE
  8
_0-7_枠細線
  6
CONTINUOUS
 62
    5
 10
531.85748405890581
 20
897.8489410984422
 11
519.85748405890581
 21
921.8489410984422
  0
TEXT
  8
_0-7_枠細線
 62
    5
 10
728.98388482770895
 20
1268.454759321764
 40
20
 41
0.8
 50
0
  1
６
  0
TEXT
  8
_0-7_枠細線
 62
    5
 10
511.64172608794297
 20
896.97264687415202
 40
20
 41
0.8
 50
0
  1
７
  0
LINE
  8
_0-7_枠細線
  6
CONTINUOUS
 62
    5
 10
1464
 20
1314.307734354795
 11
1452
 21
1338.307734354795
  0
LINE
  8
_0-7_枠細線
  6
CONTINUOUS
 62
    5
 10
1440
 20
1314.307734354795
 11
1464
 21
1314.307734354795
  0
LINE
  8
_0-7_枠細線
  6
CONTINUOUS
 62
    5
 10
1452
 20
1338.307734354795
 11
1440
 21
1314.307734354795
  0
LINE
  8
_0-7_枠細線
  6
CONTINUOUS
 62
    5
 10
1464
 20
1286.307734354795
 11
1452
 21
1310.307734354795
  0
LINE
  8
_0-7_枠細線
  6
CONTINUOUS
 62
    5
 10
1440
 20
1286.307734354795
 11
1464
 21
1286.307734354795
  0
LINE
  8
_0-7_枠細線
  6
CONTINUOUS
 62
    5
 10
1452
 20
1310.307734354795
 11
1440
 21
1286.307734354795
  0
TEXT
  8
_0-7_枠細線
 62
    5
 10
1443.7842420290372
 20
1312.7896224110355
 40
20
 41
0.8
 50
0
  1
６
  0
TEXT
  8
_0-7_枠細線
 62
    5
 10
1443.7842420290372
 20
1284.7896224110352
 40
20
 41
0.8
 50
0
  1
７
  0
TEXT
  8
_0-7_枠細線
 62
    5
 10
1502.1605925925924
 20
1316
 40
20
 41
1
 50
0
  1
クロスバーピッチ変更
  0
TEXT
  8
_0-7_枠細線
 62
    5
 10
1502.1605925925924
 20
1288
 40
20
 41
1
 50
0
  1
取外具形状変更
  0
TEXT
  8
_0-7_枠細線
 62
    5
 10
1888
 20
1316
 40
20
 41
0.7199999999999999
 50
0
  1
２０２０．０９．０１
  0
TEXT
  8
_0-7_枠細線
 62
    5
 10
1888
 20
1288
 40
20
 41
0.7199999999999999
 50
0
  1
２０２０．１０．０１
  0
ENDSEC
  0
EOF
