  0
SECTION
  2
HEADER
  9
$ACADVER
  1
AC1009
  9
$INSBASE
 10
0
 20
0
 30
0
  9
$EXTMIN
 10
0
 20
0
  9
$EXTMAX
 10
2376
 20
1680
  9
$LIMMIN
 10
0
 20
0
  9
$LIMMAX
 10
2376
 20
1680
  9
$LTSCALE
 40
8
  0
ENDSEC
  0
SECTION
  2
TABLES
  0
TABLE
  2
LTYPE
 70
     9
  0
LTYPE
  2
CONTINUOUS
 70
    64
  3
実線
 72
    65
 73
     0
 40
0.0
  0
LTYPE
  2
DASHED1
 70
    64
  3
--  --  --  --  --  --  --  --  
 72
    65
 73
     2
 40
2.5
 49
1.25
 49
-1.25
  0
LTYPE
  2
DASHED2
 70
    64
  3
----    ----    ----    ----    
 72
    65
 73
     2
 40
5.0
 49
2.5
 49
-2.5
  0
LTYPE
  2
DASHED3
 70
    64
  3
------  ------  ------  ------  
 72
    65
 73
     2
 40
5.0
 49
3.75
 49
-1.25
  0
LTYPE
  2
CENTER1
 70
    64
  3
----- - ----- - ----- - ----- - 
 72
    65
 73
     4
 40
10.0
 49
6.25
 49
-1.25
 49
1.25
 49
-1.25
  0
LTYPE
  2
CENTER2
 70
    64
  3
----------  --  ----------  --  
 72
    65
 73
     4
 40
20.0
 49
12.5
 49
-2.5
 49
2.5
 49
-2.5
  0
LTYPE
  2
PHANTOM1
 70
    64
  3
--- - - --- - - --- - - --- - - 
 72
    65
 73
     6
 40
10.0
 49
3.25
 49
-1.25
 49
1.25
 49
-1.25
 49
1.25
 49
-1.25
  0
LTYPE
  2
PHANTOM2
 70
    64
  3
--------  -  -  --------  -  -  
 72
    65
 73
     6
 40
20.0
 49
10.0
 49
-2.5
 49
1.25
 49
-2.5
 49
1.25
 49
-2.5
  0
LTYPE
  2
DOT
 70
    64
  3
-   -   -   -   -   -   -   -   
 72
    65
 73
     2
 40
2.5
 49
0.625
 49
-1.875
  0
LTYPE
  2
DUMMY
 70
    64
  3
ダミー
 72
    65
 73
     0
 40
0.0
  0
LTYPE
  2
RAND1
 70
    64
  3
ランダム線1
 72
    65
 73
     4
 40
10.0
 49
1.0
 49
-2.0
 49
3.0
 49
-4.0
  0
LTYPE
  2
RAND2
 70
    64
  3
ランダム線2
 72
    65
 73
     4
 40
14.0
 49
2.0
 49
-3.0
 49
4.0
 49
-5.0
  0
LTYPE
  2
RAND3
 70
    64
  3
ランダム線3
 72
    65
 73
     4
 40
18.0
 49
3.0
 49
-4.0
 49
5.0
 49
-6.0
  0
LTYPE
  2
RAND4
 70
    64
  3
ランダム線4
 72
    65
 73
     4
 40
22.0
 49
4.0
 49
-5.0
 49
6.0
 49
-7.0
  0
LTYPE
  2
RAND5
 70
    64
  3
ランダム線5
 72
    65
 73
     4
 40
26.0
 49
5.0
 49
-6.0
 49
7.0
 49
-8.0
  0
LTYPE
  2
LONG1
 70
    64
  3
----------  --  ----------  --  
 72
    65
 73
     4
 40
40.0
 49
32.5
 49
-2.5
 49
2.5
 49
-2.5
  0
LTYPE
  2
LONG2
 70
    64
  3
--------  -  -  --------  -  -  
 72
    65
 73
     6
 40
40.0
 49
30.0
 49
-2.5
 49
1.25
 49
-2.5
 49
1.25
 49
-2.5
  0
LTYPE
  2
LONG3
 70
    64
  3
+++++++++++++++..+++++++++++++++
 72
    65
 73
     2
 40
40.0
 49
37.5
 49
-2.5
  0
LTYPE
  2
LONG4
 70
    64
  3
+++++++++++++++..+++++++++++++++
 72
    65
 73
     2
 40
80.0
 49
75.0
 49
-5.0
  0
LTYPE
  2
LONG5
 70
    64
  3
----------  --  ----------  --  
 72
    65
 73
     4
 40
60.0
 49
37.5
 49
-7.5
 49
7.5
 49
-7.5
  0
LTYPE
  2
dashed
 70
   64
  3
-------   -------------   ------
 72
   65
 73
    2
 40
7.5
 49
6
 49
-1.5
  0
LTYPE
  2
dashed_spaced
 70
   64
  3
----        --------        ----
 72
   65
 73
    2
 40
12
 49
6
 49
-6
  0
LTYPE
  2
long_dashed_dotted
 70
   64
  3
------------- --- --------------
 72
   65
 73
    4
 40
15.25
 49
12
 49
-1.5
 49
0.25
 49
-1.5
  0
LTYPE
  2
long_dashed_double-dotted
 70
   64
  3
----------- --- --- ------------
 72
   65
 73
    6
 40
17
 49
12
 49
-1.5
 49
0.25
 49
-1.5
 49
0.25
 49
-1.5
  0
LTYPE
  2
long_dashed_triplicate-dotted
 70
   64
  3
--------- --- --- --- ----------
 72
   65
 73
    8
 40
18.75
 49
12
 49
-1.5
 49
0.25
 49
-1.5
 49
0.25
 49
-1.5
 49
0.25
 49
-1.5
  0
LTYPE
  2
dotted
 70
   64
  3
   -       -       -       -    
 72
   65
 73
    2
 40
1.75
 49
0.25
 49
-1.5
  0
LTYPE
  2
chain
 70
   64
  3
-------------- -- --------------
 72
   65
 73
    4
 40
18.5
 49
12
 49
-1.5
 49
3.5
 49
-1.5
  0
LTYPE
  2
chain_double_dash
 70
   64
  3
------------ -- -- -------------
 72
   65
 73
    6
 40
23.5
 49
12
 49
-1.5
 49
3.5
 49
-1.5
 49
3.5
 49
-1.5
  0
LTYPE
  2
dashed_dotted
 70
   64
  3
-----------     -     ----------
 72
   65
 73
    4
 40
9.25
 49
6
 49
-1.5
 49
0.25
 49
-1.5
  0
LTYPE
  2
double-dashed_dotted
 70
   64
  3
------   -----------   -   -----
 72
   65
 73
    6
 40
16.75
 49
6
 49
-1.5
 49
6
 49
-1.5
 49
0.25
 49
-1.5
  0
LTYPE
  2
dashed_double-dotted
 70
   64
  3
---------    -    -    ---------
 72
   65
 73
    6
 40
11
 49
6
 49
-1.5
 49
0.25
 49
-1.5
 49
0.25
 49
-1.5
  0
LTYPE
  2
double-dashed_double-dotted
 70
   64
  3
-----   ---------   -   -   ----
 72
   65
 73
    8
 40
18.5
 49
6
 49
-1.5
 49
6
 49
-1.5
 49
0.25
 49
-1.5
 49
0.25
 49
-1.5
  0
LTYPE
  2
dashed_triplicate-dotted
 70
   64
  3
-------    -    -    -    ------
 72
   65
 73
    8
 40
12.75
 49
6
 49
-1.5
 49
0.25
 49
-1.5
 49
0.25
 49
-1.5
 49
0.25
 49
-1.5
  0
LTYPE
  2
double-dashed_triplicate-dotted
 70
   64
  3
-----  ---------  -  -  -  -----
 72
   65
 73
   10
 40
20.25
 49
6
 49
-1.5
 49
6
 49
-1.5
 49
0.25
 49
-1.5
 49
0.25
 49
-1.5
 49
0.25
 49
-1.5
  0
LTYPE
  2
undefined
 70
   64
  3
--------------------------------
 72
   65
 73
    0
 40
0
  0
ENDTAB
  0
TABLE
  2
STYLE
  5
3
100
AcDbSymbolTable
 70
     1
  0
STYLE
  5
10
100
AcDbSymbolTableRecord
100
AcDbTextStyleTableRecord
  2
STANDARD
 70
     0
 40
0.0
 41
1.0
 50
0.0
 71
     0
 42
0.2
  3
txt
  4
bigfont.shx
  0
STYLE
  5
26
100
AcDbSymbolTableRecord
100
AcDbTextStyleTableRecord
  2
TATEGAKI
 70
    68
 40
0.0
 41
1.0
 50
0.0
 71
     0
 42
1.0
  3
txt
  4
bigfont.shx
  0
ENDTAB
  0
TABLE
  2
LAYER
 70
   10
  0
LAYER
  2
_0-0_計極細
 70
   64
 62
    7
  6
CONTINUOUS
  0
LAYER
  2
_0-1_計細線
 70
   64
 62
    7
  6
CONTINUOUS
  0
LAYER
  2
_0-5_寸法線
 70
   64
 62
    7
  6
CONTINUOUS
  0
LAYER
  2
_0-7_枠細線
 70
   64
 62
    7
  6
CONTINUOUS
  0
LAYER
  2
_0-8_枠中線
 70
   64
 62
    7
  6
CONTINUOUS
  0
LAYER
  2
_0-9_枠極太
 70
   64
 62
    7
  6
CONTINUOUS
  0
LAYER
  2
_0-a_極細3
 70
   64
 62
    7
  6
CONTINUOUS
  0
LAYER
  2
_0-b_細線3
 70
   64
 62
    7
  6
CONTINUOUS
  0
LAYER
  2
_0-d_寸法3
 70
   64
 62
    7
  6
CONTINUOUS
  0
LAYER
  2
ADD_LINE
 70
   64
 62
    7
  6
CONTINUOUS
  0
ENDTAB
  0
ENDSEC
  0
SECTION
  2
BLOCKS
  0
ENDSEC
  0
SECTION
  2
ENTITIES
  0
LINE
  8
_0-7_枠細線
  6
CONTINUOUS
 62
    5
 10
1896
 20
288
 11
1896
 21
160
  0
TEXT
  8
_0-7_枠細線
 62
    5
 10
1500
 20
156
 40
28
 41
1
 50
0
  1
備考
  7
TATEGAKI
  0
TEXT
  8
_0-7_枠細線
 62
    5
 10
1500
 20
220
 40
28
 41
1
 50
0
  1
品番
  7
TATEGAKI
  0
TEXT
  8
_0-7_枠細線
 62
    5
 10
1500
 20
284
 40
28
 41
1
 50
0
  1
品名
  7
TATEGAKI
  0
LINE
  8
_0-7_枠細線
  6
CONTINUOUS
 62
    5
 10
1896
 20
224
 11
1480
 21
224
  0
LINE
  8
_0-7_枠細線
  6
CONTINUOUS
 62
    5
 10
1520
 20
288
 11
1520
 21
96
  0
LINE
  8
_0-8_枠中線
  6
CONTINUOUS
 62
    5
 10
2280
 20
288
 11
1480
 21
288
  0
LINE
  8
_0-8_枠中線
  6
CONTINUOUS
 62
    5
 10
1480
 20
288
 11
1480
 21
96
  0
LINE
  8
_0-7_枠細線
  6
CONTINUOUS
 62
    5
 10
1992
 20
288
 11
1992
 21
96
  0
TEXT
  8
_0-7_枠細線
 62
    5
 10
1908
 20
256
 40
24
 41
1
 50
0
  1
縮　尺
  0
LINE
  8
_0-7_枠細線
  6
CONTINUOUS
 62
    5
 10
1896
 20
248
 11
1992
 21
248
  0
LINE
  8
_0-7_枠細線
  6
CONTINUOUS
 62
    5
 10
1992
 20
160
 11
1480
 21
160
  0
LINE
  8
_0-7_枠細線
  6
CONTINUOUS
 62
    5
 10
2280
 20
144
 11
1992
 21
144
  0
LINE
  8
_0-7_枠細線
  6
CONTINUOUS
 62
    5
 10
1992
 20
192
 11
2280
 21
192
  0
LINE
  8
_0-7_枠細線
  6
CONTINUOUS
 62
    5
 10
2280
 20
224
 11
1992
 21
224
  0
TEXT
  8
_0-7_枠細線
 62
    5
 10
2008
 20
236
 40
40
 41
0.8
 50
0
  1
株式会社シマブン
  0
TEXT
  8
_0-7_枠細線
 62
    5
 10
2004
 20
96
 40
24
 41
1
 50
0
  1
年月日
  0
TEXT
  8
_0-7_枠細線
 62
    5
 10
2004
 20
120
 40
24
 41
1
 50
0
  1
作　成
  0
TEXT
  8
_0-7_枠細線
 62
    5
 10
2010
 20
196
 40
24
 41
1
 50
0
  1
承 認
  0
LINE
  8
_0-7_枠細線
  6
CONTINUOUS
 62
    5
 10
2088
 20
224
 11
2088
 21
96
  0
TEXT
  8
_0-7_枠細線
 62
    5
 10
2106
 20
196
 40
24
 41
1
 50
0
  1
検 図
  0
LINE
  8
_0-7_枠細線
  6
CONTINUOUS
 62
    5
 10
2184
 20
224
 11
2184
 21
144
  0
TEXT
  8
_0-7_枠細線
 62
    5
 10
2200
 20
152
 40
32
 41
1
 50
0
  1
藤戸
  0
TEXT
  8
_0-7_枠細線
 62
    5
 10
2202
 20
196
 40
24
 41
1
 50
0
  1
設 計
  0
TEXT
  8
_0-7_枠細線
 62
    5
 10
2008
 20
152
 40
32
 41
1
 50
0
  1
隠塚
  0
TEXT
  8
_0-7_枠細線
 62
    5
 10
2104
 20
152
 40
32
 41
1
 50
0
  1
渋田
  0
TEXT
  8
_0-7_枠細線
 62
    5
 10
1536.8000000000002
 20
240
 40
32
 41
0.5
 50
0
  1
セーフティグレーチング補強仕様Ｈ２５タイプ
  0
TEXT
  8
_0-7_枠細線
 62
    5
 10
2096
 20
108
 40
24
 41
0.6666666666666666
 50
0
  1
２０１０年０３月０１日
  0
TEXT
  8
_0-7_枠細線
 62
    5
 10
1536.8000000000002
 20
112
 40
32
 41
0.5999999999999998
 50
0
  1
色については品番表参照のこと
  0
TEXT
  8
_0-7_枠細線
 62
    5
 10
1536.8000000000002
 20
176
 40
32
 41
0.6
 50
0
  1
ＧＲＳＫ－２５Ｗ３００　ＳＥＴ
  0
TEXT
  8
_0-7_枠細線
 62
    5
 10
1726.0453960905379
 20
688
 40
24
 41
0.8000000000000001
 50
0
  1
品　　番
  0
LINE
  8
_0-7_枠細線
  6
CONTINUOUS
 62
    5
 10
1668.4453960905375
 20
600
 11
2180.445396090538
 21
600
  0
LINE
  8
_0-7_枠細線
  6
CONTINUOUS
 62
    5
 10
1668.4453960905375
 20
640
 11
2180.445396090538
 21
640
  0
LINE
  8
_0-7_枠細線
  6
CONTINUOUS
 62
    5
 10
1668.4453960905375
 20
680
 11
2180.445396090538
 21
680
  0
TEXT
  8
_0-7_枠細線
 62
    5
 10
1930.8453960905381
 20
688
 40
24
 41
0.8000000000000001
 50
0
  1
色
  0
TEXT
  8
_0-7_枠細線
 62
    5
 10
2062.0453960905384
 20
688
 40
24
 41
0.8000000000000001
 50
0
  1
備　　考
  0
LINE
  8
_0-7_枠細線
  6
CONTINUOUS
 62
    5
 10
1668.4453960905375
 20
720
 11
2180.445396090538
 21
720
  0
LINE
  8
_0-7_枠細線
  6
CONTINUOUS
 62
    5
 10
1668.4453960905375
 20
360
 11
2180.445396090538
 21
360
  0
LINE
  8
_0-7_枠細線
  6
CONTINUOUS
 62
    5
 10
1668.4453960905375
 20
560
 11
2180.445396090538
 21
560
  0
LINE
  8
_0-7_枠細線
  6
CONTINUOUS
 62
    5
 10
1668.4453960905375
 20
520
 11
2180.445396090538
 21
520
  0
LINE
  8
_0-7_枠細線
  6
CONTINUOUS
 62
    5
 10
1668.4453960905375
 20
480
 11
2180.445396090538
 21
480
  0
LINE
  8
_0-7_枠細線
  6
CONTINUOUS
 62
    5
 10
1668.4453960905375
 20
440
 11
2180.445396090538
 21
440
  0
LINE
  8
_0-7_枠細線
  6
CONTINUOUS
 62
    5
 10
1668.4453960905375
 20
400
 11
2180.445396090538
 21
400
  0
TEXT
  8
_0-7_枠細線
 62
    5
 10
1826.4453960905375
 20
728
 40
28
 41
1
 50
0
  1
品番表
  0
LINE
  8
_0-7_枠細線
  6
CONTINUOUS
 62
    5
 10
1668.4453960905375
 20
320
 11
2180.445396090538
 21
320
  0
LINE
  8
_0-7_枠細線
  6
CONTINUOUS
 62
    5
 10
2180.445396090538
 20
720
 11
2180.445396090538
 21
320
  0
LINE
  8
_0-7_枠細線
  6
CONTINUOUS
 62
    5
 10
2020.4453960905375
 20
720
 11
2020.4453960905375
 21
320
  0
LINE
  8
_0-7_枠細線
  6
CONTINUOUS
 62
    5
 10
1860.4453960905385
 20
720
 11
1860.4453960905385
 21
320
  0
LINE
  8
_0-7_枠細線
  6
CONTINUOUS
 62
    5
 10
1668.4453960905375
 20
720
 11
1668.4453960905375
 21
320
  0
LINE
  8
_0-7_枠細線
  6
CONTINUOUS
 62
    5
 10
1661.6656491420354
 20
368.532854836659
 11
1649.6656491420354
 21
392.532854836659
  0
LINE
  8
_0-7_枠細線
  6
CONTINUOUS
 62
    5
 10
1637.6656491420354
 20
368.532854836659
 11
1661.6656491420354
 21
368.532854836659
  0
LINE
  8
_0-7_枠細線
  6
CONTINUOUS
 62
    5
 10
1649.6656491420354
 20
392.532854836659
 11
1637.6656491420354
 21
368.532854836659
  0
TEXT
  8
_0-7_枠細線
 62
    5
 10
1641.4498911710725
 20
367.01474289289899
 40
20
 41
0.8
 50
0
  1
４
  0
LINE
  8
_0-7_枠細線
  6
CONTINUOUS
 62
    5
 10
1668.4453960905375
 20
768.00000000000023
 11
1668.4453960905375
 21
896.00000000000011
  0
TEXT
  8
_0-7_枠細線
 62
    5
 10
1704.4453960905375
 20
860.00000000000011
 40
24
 41
1
 50
0
  1
耐荷重
  0
TEXT
  8
_0-7_枠細線
 62
    5
 10
1680.4453960905375
 20
780.00000000000023
 40
24
 41
1
 50
0
  1
（歩道用）
  0
LINE
  8
_0-7_枠細線
  6
CONTINUOUS
 62
    5
 10
1812.4453960905375
 20
768.00000000000023
 11
1812.4453960905375
 21
896.00000000000011
  0
TEXT
  8
_0-7_枠細線
 62
    5
 10
1848.4453960905375
 20
860.00000000000011
 40
24
 41
1
 50
0
  1
蓋重量
  0
LINE
  8
_0-7_枠細線
  6
CONTINUOUS
 62
    5
 10
1956.4453960905375
 20
768.00000000000023
 11
1956.4453960905375
 21
896.00000000000011
  0
TEXT
  8
_0-7_枠細線
 62
    5
 10
1992.4453960905375
 20
860.00000000000011
 40
24
 41
1
 50
0
  1
枠重量
  0
LINE
  8
_0-7_枠細線
  6
CONTINUOUS
 62
    5
 10
1668.4453960905375
 20
848.00000000000023
 11
2100.4453960905375
 21
848.00000000000023
  0
LINE
  8
_0-7_枠細線
  6
CONTINUOUS
 62
    5
 10
1668.4453960905375
 20
896.00000000000011
 11
2100.4453960905375
 21
896.00000000000011
  0
LINE
  8
_0-7_枠細線
  6
CONTINUOUS
 62
    5
 10
1668.4453960905375
 20
768.00000000000023
 11
2100.4453960905375
 21
768.00000000000023
  0
LINE
  8
_0-7_枠細線
  6
CONTINUOUS
 62
    5
 10
2100.4453960905375
 20
768.00000000000023
 11
2100.4453960905375
 21
896.00000000000011
  0
TEXT
  8
_0-7_枠細線
 62
    5
 10
1692.4453960905375
 20
812.00000000000023
 40
24
 41
1
 50
0
  1
5.0kN/㎡
  0
TEXT
  8
_0-7_枠細線
 62
    5
 10
1980.4453960905375
 20
798.00000000000023
 40
24
 41
0.8000000000000001
 50
0
  1
2.6kg/ｍ組
  0
TEXT
  8
_0-7_枠細線
 62
    5
 10
1846.0453960905375
 20
798.00000000000023
 40
24
 41
0.8000000000000001
 50
0
  1
5.1kg/ｍ
  0
TEXT
  8
_0-7_枠細線
 62
    5
 10
1676.0453960905384
 20
648
 40
24
 41
0.5666666666666667
 50
0
  1
ＧＲＳＫ－２５Ｗ３００－Ｂ
  0
TEXT
  8
_0-7_枠細線
 62
    5
 10
1676.0453960905384
 20
608
 40
24
 41
0.5666666666666667
 50
0
  1
ＧＲＳＫ－２５Ｗ３００－Ｇ
  0
TEXT
  8
_0-7_枠細線
 62
    5
 10
1676.0453960905384
 20
568
 40
24
 41
0.5666666666666667
 50
0
  1
ＧＲＳＫ－２５Ｗ３００－Ｓ
  0
TEXT
  8
_0-7_枠細線
 62
    5
 10
1676.0453960905384
 20
528
 40
24
 41
0.5666666666666667
 50
0
  1
ＧＲＳＫ－２５Ｗ３００－Ｐ
  0
TEXT
  8
_0-7_枠細線
 62
    5
 10
1676.0453960905384
 20
488
 40
24
 41
0.5666666666666667
 50
0
  1
ＧＲＳＫ－２５Ｗ３００－Ａ
  0
TEXT
  8
_0-7_枠細線
 62
    5
 10
1676.0453960905384
 20
448
 40
24
 41
0.5666666666666667
 50
0
  1
ＧＲＳＫ－２５Ｗ３００－Ｄ
  0
TEXT
  8
_0-7_枠細線
 62
    5
 10
1676.0453960905384
 20
408
 40
24
 41
0.5666666666666667
 50
0
  1
ＧＲＳＫ－２５Ｗ３００－Ｍ
  0
TEXT
  8
_0-7_枠細線
 62
    5
 10
1676.0453960905384
 20
368
 40
24
 41
0.5666666666666667
 50
0
  1
ＧＲＳＫ－２５Ｗ３００－Ｃ
  0
TEXT
  8
_0-7_枠細線
 62
    5
 10
1676.0453960905384
 20
328
 40
24
 41
0.5666666666666667
 50
0
  1
ＧＲＳＫ－２５Ｗ３００－Ｋ
  0
TEXT
  8
_0-7_枠細線
 62
    5
 10
1910.4000000000001
 20
188
 40
32
 41
0.7000000000000001
 50
0
  1
１：８
  0
LINE
  8
_0-9_枠極太
  6
CONTINUOUS
 62
    5
 10
96
 20
96
 11
96
 21
1536
  0
LINE
  8
_0-9_枠極太
  6
CONTINUOUS
 62
    5
 10
96
 20
1536
 11
2280
 21
1536
  0
LINE
  8
_0-9_枠極太
  6
CONTINUOUS
 62
    5
 10
2280
 20
1536
 11
2280
 21
96
  0
LINE
  8
_0-9_枠極太
  6
CONTINUOUS
 62
    5
 10
2280
 20
96
 11
96
 21
96
  0
LINE
  8
_0-7_枠細線
  6
CONTINUOUS
 62
    5
 10
2280
 20
1508
 11
1424
 21
1508
  0
TEXT
  8
_0-7_枠細線
 62
    5
 10
1432
 20
1512
 40
20
 41
1
 50
0
  1
記号
  0
TEXT
  8
_0-7_枠細線
 62
    5
 10
1595
 20
1512
 40
20
 41
1
 50
0
  1
訂　 正　 記　 事
  0
TEXT
  8
_0-7_枠細線
 62
    5
 10
1890
 20
1512
 40
20
 41
1
 50
0
  1
訂 正 年 月 日
  0
TEXT
  8
_0-7_枠細線
 62
    5
 10
2090
 20
1512
 40
20
 41
1
 50
0
  1
備　　　　　考
  0
LINE
  8
_0-7_枠細線
  6
CONTINUOUS
 62
    5
 10
2280
 20
1480
 11
1424
 21
1480
  0
TEXT
  8
_0-7_枠細線
 62
    5
 10
1502.1605925925924
 20
1484
 40
20
 41
1
 50
0
  1
品番・色記号変更
  0
TEXT
  8
_0-7_枠細線
 62
    5
 10
1888
 20
1484
 40
20
 41
0.7199999999999999
 50
0
  1
２０１３．０３．１３
  0
LINE
  8
_0-7_枠細線
  6
CONTINUOUS
 62
    5
 10
2280
 20
1452
 11
1424
 21
1452
  0
LINE
  8
_0-7_枠細線
  6
CONTINUOUS
 62
    5
 10
2280
 20
1424
 11
1424
 21
1424
  0
TEXT
  8
_0-7_枠細線
 62
    5
 10
1502.1605925925924
 20
1456
 40
20
 41
1
 50
0
  1
クロスバーピッチ変更
  0
TEXT
  8
_0-7_枠細線
 62
    5
 10
1502.1605925925924
 20
1428
 40
20
 41
1
 50
0
  1
取外具形状変更
  0
TEXT
  8
_0-7_枠細線
 62
    5
 10
1888
 20
1456
 40
20
 41
0.7199999999999999
 50
0
  1
２０１５．１１．２０
  0
LINE
  8
_0-7_枠細線
  6
CONTINUOUS
 62
    5
 10
1464
 20
1454.307734354795
 11
1452
 21
1478.307734354795
  0
LINE
  8
_0-7_枠細線
  6
CONTINUOUS
 62
    5
 10
1440
 20
1454.307734354795
 11
1464
 21
1454.307734354795
  0
LINE
  8
_0-7_枠細線
  6
CONTINUOUS
 62
    5
 10
1452
 20
1478.307734354795
 11
1440
 21
1454.307734354795
  0
TEXT
  8
_0-7_枠細線
 62
    5
 10
1443.7842420290369
 20
1453.8165307621864
 40
20
 41
0.8
 50
0
  1
１
  0
TEXT
  8
_0-7_枠細線
 62
    5
 10
1443.7842420290369
 20
1425.8165307621864
 40
20
 41
0.8
 50
0
  1
２
  0
LINE
  8
_0-7_枠細線
  6
CONTINUOUS
 62
    5
 10
2280
 20
1396
 11
1424
 21
1396
  0
LINE
  8
_0-7_枠細線
  6
CONTINUOUS
 62
    5
 10
1452
 20
1450.307734354795
 11
1440
 21
1426.307734354795
  0
LINE
  8
_0-7_枠細線
  6
CONTINUOUS
 62
    5
 10
1440
 20
1426.307734354795
 11
1464
 21
1426.307734354795
  0
LINE
  8
_0-7_枠細線
  6
CONTINUOUS
 62
    5
 10
1464
 20
1426.307734354795
 11
1452
 21
1450.307734354795
  0
TEXT
  8
_0-7_枠細線
 62
    5
 10
1443.7842420290369
 20
1397.4314401305048
 40
20
 41
0.8
 50
0
  1
３
  0
TEXT
  8
_0-7_枠細線
 62
    5
 10
1888
 20
1400
 40
20
 41
0.7199999999999999
 50
0
  1
２０１７．０４．０１
  0
LINE
  8
_0-7_枠細線
  6
CONTINUOUS
 62
    5
 10
1464
 20
1370.307734354795
 11
1452
 21
1394.307734354795
  0
LINE
  8
_0-7_枠細線
  6
CONTINUOUS
 62
    5
 10
1440
 20
1370.307734354795
 11
1464
 21
1370.307734354795
  0
LINE
  8
_0-7_枠細線
  6
CONTINUOUS
 62
    5
 10
1452
 20
1394.307734354795
 11
1440
 21
1370.307734354795
  0
TEXT
  8
_0-7_枠細線
 62
    5
 10
1888
 20
1372
 40
20
 41
0.7199999999999999
 50
0
  1
２０１７．０４．０１
  0
TEXT
  8
_0-7_枠細線
 62
    5
 10
1502.1605925925924
 20
1372
 40
20
 41
1
 50
0
  1
ブラウン色（Ｃ）追加
  0
LINE
  8
_0-7_枠細線
  6
CONTINUOUS
 62
    5
 10
2280
 20
1368
 11
1424
 21
1368
  0
LINE
  8
_0-7_枠細線
  6
CONTINUOUS
 62
    5
 10
1452
 20
1422.307734354795
 11
1440
 21
1398.307734354795
  0
LINE
  8
_0-7_枠細線
  6
CONTINUOUS
 62
    5
 10
1440
 20
1398.307734354795
 11
1464
 21
1398.307734354795
  0
LINE
  8
_0-7_枠細線
  6
CONTINUOUS
 62
    5
 10
1464
 20
1398.307734354795
 11
1452
 21
1422.307734354795
  0
TEXT
  8
_0-7_枠細線
 62
    5
 10
1443.7842420290369
 20
1368.789622411035
 40
20
 41
0.8
 50
0
  1
４
  0
TEXT
  8
_0-7_枠細線
 62
    5
 10
1502.1605925925924
 20
1400
 40
20
 41
1
 50
0
  1
取外具形状変更
  0
TEXT
  8
_0-7_枠細線
 62
    5
 10
1888
 20
1428
 40
20
 41
0.7199999999999999
 50
0
  1
２０１５．１１．２０
  0
LINE
  8
_0-7_枠細線
  6
CONTINUOUS
 62
    5
 10
1464
 20
1342.307734354795
 11
1452
 21
1366.307734354795
  0
LINE
  8
_0-7_枠細線
  6
CONTINUOUS
 62
    5
 10
1440
 20
1342.307734354795
 11
1464
 21
1342.307734354795
  0
LINE
  8
_0-7_枠細線
  6
CONTINUOUS
 62
    5
 10
1452
 20
1366.307734354795
 11
1440
 21
1342.307734354795
  0
LINE
  8
_0-7_枠細線
  6
CONTINUOUS
 62
    5
 10
2280
 20
1340
 11
1424
 21
1340
  0
TEXT
  8
_0-7_枠細線
 62
    5
 10
1888
 20
1344
 40
20
 41
0.7199999999999999
 50
0
  1
２０１９．０９．０１
  0
TEXT
  8
_0-7_枠細線
 62
    5
 10
1443.7842420290369
 20
1340.789622411035
 40
20
 41
0.8
 50
0
  1
５
  0
TEXT
  8
_0-7_枠細線
 62
    5
 10
1502.1605925925924
 20
1344
 40
20
 41
1
 50
0
  1
アンカー材質･厚み変更
  0
LINE
  8
_0-a_極細3
  6
CENTER1
 62
    7
 10
779.74901008710367
 20
348.63828250515189
 11
779.74901008710367
 21
463.49161583849616
  0
LINE
  8
_0-a_極細3
  6
CONTINUOUS
 62
    7
 10
259.74901008710287
 20
355.86894301520488
 11
259.74901008710287
 21
246.53560968187207
  0
LINE
  8
_0-a_極細3
  6
CONTINUOUS
 62
    7
 10
393.08234342043647
 20
246.53560968187207
 11
259.74901008710287
 21
246.53560968187207
  0
LINE
  8
_0-a_極細3
  6
CONTINUOUS
 62
    7
 10
259.74901008710287
 20
355.86894301520488
 11
210.39794798825312
 21
355.86894301520488
  0
LINE
  8
_0-a_極細3
  6
CONTINUOUS
 62
    7
 10
393.08234342043647
 20
246.53560968187207
 11
393.08234342043647
 21
204.54904921022512
  0
LINE
  8
_0-a_極細3
  6
CONTINUOUS
 62
    7
 10
333.20718411645282
 20
204.54904939652454
 11
375.19374440180104
 21
246.53560968187207
  0
LINE
  8
_0-a_極細3
  6
CONTINUOUS
 62
    7
 10
220.07009947862673
 20
204.5490497485456
 11
262.05665941195321
 21
246.53560968187207
  0
LINE
  8
_0-a_極細3
  6
CONTINUOUS
 62
    7
 10
210.39794798825312
 20
308.01398324801971
 11
258.25290775543908
 21
355.86894301520488
  0
LINE
  8
_0-a_極細3
  6
CONTINUOUS
 62
    7
 10
321.89347565267008
 20
204.54904943172642
 11
363.88003590281585
 21
246.53560968187207
  0
LINE
  8
_0-a_極細3
  6
CONTINUOUS
 62
    7
 10
210.39794798825312
 20
206.19060675715718
 11
259.74901008710287
 21
255.54166885600694
  0
LINE
  8
_0-a_極細3
  6
CONTINUOUS
 62
    7
 10
210.39794798825312
 20
319.32769174700411
 11
246.93919925645378
 21
355.86894301520488
  0
LINE
  8
_0-a_極細3
  6
CONTINUOUS
 62
    7
 10
310.57976718888813
 20
204.54904946692818
 11
352.56632740383134
 21
246.53560968187207
  0
LINE
  8
_0-a_極細3
  6
CONTINUOUS
 62
    7
 10
210.39794798825312
 20
217.5043152561409
 11
259.74901008710287
 21
266.85537735499145
  0
LINE
  8
_0-a_極細3
  6
CONTINUOUS
 62
    7
 10
210.39794798825312
 20
330.64140024598868
 11
235.62549075746938
 21
355.86894301520488
  0
CIRCLE
  8
_0-a_極細3
  6
CONTINUOUS
 62
    7
 10
239.03136853732065
 20
380.19439968186111
 40
0.884938271604915
  0
CIRCLE
  8
_0-a_極細3
  6
CONTINUOUS
 62
    7
 10
222.50198582127189
 20
364.26551079297252
 40
0.884938271604915
  0
CIRCLE
  8
_0-a_極細3
  6
CONTINUOUS
 62
    7
 10
239.4738376731234
 20
365.97217745963917
 40
0.884938271604915
  0
CIRCLE
  8
_0-a_極細3
  6
CONTINUOUS
 62
    7
 10
259.66939322867904
 20
369.10106634852832
 40
0.884938271604915
  0
CIRCLE
  8
_0-a_極細3
  6
CONTINUOUS
 62
    7
 10
305.18050433978931
 20
387.8743996818605
 40
0.884938271604915
  0
CIRCLE
  8
_0-a_極細3
  6
CONTINUOUS
 62
    7
 10
345.00272656201128
 20
403.80328857074983
 40
0.884938271604915
  0
CIRCLE
  8
_0-a_極細3
  6
CONTINUOUS
 62
    7
 10
354.10494878423333
 20
377.91884412630588
 40
0.884938271604915
  0
CIRCLE
  8
_0-a_極細3
  6
CONTINUOUS
 62
    7
 10
314.28272656201148
 20
377.06551079297179
 40
0.884938271604915
  0
CIRCLE
  8
_0-a_極細3
  6
CONTINUOUS
 62
    7
 10
295.5093932286785
 20
400.95884412630517
 40
0.884938271604915
  0
CIRCLE
  8
_0-a_極細3
  6
CONTINUOUS
 62
    7
 10
270.78050433979001
 20
357.49217745963892
 40
0.884938271604915
  0
CIRCLE
  8
_0-a_極細3
  6
CONTINUOUS
 62
    7
 10
303.49161545090021
 20
355.50106634852841
 40
0.884938271604915
  0
CIRCLE
  8
_0-a_極細3
  6
CONTINUOUS
 62
    7
 10
343.5982821175669
 20
349.52773301519454
 40
0.884938271604915
  0
CIRCLE
  8
_0-a_極細3
  6
CONTINUOUS
 62
    7
 10
323.40272656201114
 20
340.42551079297237
 40
0.884938271604915
  0
CIRCLE
  8
_0-a_極細3
  6
CONTINUOUS
 62
    7
 10
299.79383767312311
 20
318.8077330151948
 40
0.884938271604915
  0
CIRCLE
  8
_0-a_極細3
  6
CONTINUOUS
 62
    7
 10
343.5982821175669
 20
330.46995523741697
 40
0.884938271604915
  0
CIRCLE
  8
_0-a_極細3
  6
CONTINUOUS
 62
    7
 10
277.82050433978941
 20
287.09217745963952
 40
0.884938271604915
  0
CIRCLE
  8
_0-a_極細3
  6
CONTINUOUS
 62
    7
 10
268.71828211756724
 20
258.36328857075114
 40
0.884938271604915
  0
CIRCLE
  8
_0-a_極細3
  6
CONTINUOUS
 62
    7
 10
282.65605989534515
 20
269.1721774596399
 40
0.884938271604915
  0
CIRCLE
  8
_0-a_極細3
  6
CONTINUOUS
 62
    7
 10
292.61161545090067
 20
255.51884412630659
 40
0.884938271604915
  0
CIRCLE
  8
_0-a_極細3
  6
CONTINUOUS
 62
    7
 10
355.49161545090033
 20
284.14106634852919
 40
0.884938271604915
  0
CIRCLE
  8
_0-a_極細3
  6
CONTINUOUS
 62
    7
 10
337.57161545090048
 20
275.32328857075095
 40
0.884938271604915
  0
CIRCLE
  8
_0-a_極細3
  6
CONTINUOUS
 62
    7
 10
347.527171006456
 20
271.34106634852924
 40
0.884938271604915
  0
CIRCLE
  8
_0-a_極細3
  6
CONTINUOUS
 62
    7
 10
341.83828211756691
 20
256.54995523741798
 40
0.884938271604915
  0
CIRCLE
  8
_0-a_極細3
  6
CONTINUOUS
 62
    7
 10
373.69605989534466
 20
258.25662190408457
 40
0.884938271604915
  0
CIRCLE
  8
_0-a_極細3
  6
CONTINUOUS
 62
    7
 10
394.46050433978894
 20
263.37662190408423
 40
0.884938271604915
  0
CIRCLE
  8
_0-a_極細3
  6
CONTINUOUS
 62
    7
 10
416.36272656201106
 20
239.4832885707508
 40
0.884938271604915
  0
CIRCLE
  8
_0-a_極細3
  6
CONTINUOUS
 62
    7
 10
405.2693932286777
 20
215.58995523741805
 40
0.884938271604915
  0
CIRCLE
  8
_0-a_極細3
  6
CONTINUOUS
 62
    7
 10
378.60272656201118
 20
285.37365894112133
 40
0.884938271604915
  0
CIRCLE
  8
_0-a_極細3
  6
CONTINUOUS
 62
    7
 10
402.2116154508999
 20
339.98699227445439
 40
0.884938271604915
  0
CIRCLE
  8
_0-a_極細3
  6
CONTINUOUS
 62
    7
 10
426.38939322867736
 20
324.05810338556535
 40
0.884938271604915
  0
CIRCLE
  8
_0-a_極細3
  6
CONTINUOUS
 62
    7
 10
427.2427265620106
 20
295.32921449667674
 40
0.884938271604915
  0
CIRCLE
  8
_0-a_極細3
  6
CONTINUOUS
 62
    7
 10
370.85161545090011
 20
342.90254783000972
 40
0.884938271604915
  0
CIRCLE
  8
_0-a_極細3
  6
CONTINUOUS
 62
    7
 10
338.38939322867805
 20
378.07686881766404
 40
2.9208503562902273
  0
CIRCLE
  8
_0-a_極細3
  6
CONTINUOUS
 62
    7
 10
255.57000170638196
 20
389.16425165718078
 40
2.9208503562902273
  0
CIRCLE
  8
_0-a_極細3
  6
CONTINUOUS
 62
    7
 10
333.87383767312269
 20
325.38353548433065
 40
2.9208503562902273
  0
CIRCLE
  8
_0-a_極細3
  6
CONTINUOUS
 62
    7
 10
298.03383767312255
 20
341.59686881766373
 40
2.9208503562902273
  0
CIRCLE
  8
_0-a_極細3
  6
CONTINUOUS
 62
    7
 10
266.67383767312276
 20
280.7968688176652
 40
2.9208503562902273
  0
CIRCLE
  8
_0-a_極細3
  6
CONTINUOUS
 62
    7
 10
351.79383767312174
 20
260.31686881766484
 40
2.9208503562902273
  0
CIRCLE
  8
_0-a_極細3
  6
CONTINUOUS
 62
    7
 10
409.35828211756598
 20
254.55686881766496
 40
2.9208503562902273
  0
CIRCLE
  8
_0-a_極細3
  6
CONTINUOUS
 62
    7
 10
417.03828211756559
 20
224.69020215099863
 40
2.9208503562902273
  0
LINE
  8
_0-a_極細3
  6
CONTINUOUS
 62
    7
 10
353.08234342043647
 20
441.20227634853859
 11
353.08234342043647
 21
422.53560968187207
  0
LINE
  8
_0-a_極細3
  6
CONTINUOUS
 62
    7
 10
366.41567675377007
 20
422.53560968187207
 11
210.39794798825312
 21
422.53560968187207
  0
LINE
  8
_0-a_極細3
  6
CONTINUOUS
 62
    7
 10
366.41567675377007
 20
439.86894301520488
 11
366.41567675377007
 21
441.20227634853859
  0
LINE
  8
_0-a_極細3
  6
CONTINUOUS
 62
    7
 10
366.09873234359475
 20
422.53560968187207
 11
366.41567675376928
 21
422.8525540920466
  0
LINE
  8
_0-a_極細3
  6
CONTINUOUS
 62
    7
 10
359.31050724420425
 20
422.53560968187207
 11
366.41567675377007
 21
429.64077919143733
  0
LINE
  8
_0-a_極細3
  6
CONTINUOUS
 62
    7
 10
353.08234342043647
 20
423.09567095749503
 11
366.41567675377007
 21
436.42900429082852
  0
LINE
  8
_0-a_極細3
  6
CONTINUOUS
 62
    7
 10
353.08234342043647
 20
429.88389605688553
 11
364.40072371208885
 21
441.20227634853859
  0
LINE
  8
_0-a_極細3
  6
CONTINUOUS
 62
    7
 10
353.08234342043647
 20
436.67212115627672
 11
357.61249861269823
 21
441.20227634853859
  0
LINE
  8
_0-a_極細3
  6
CONTINUOUS
 62
    7
 10
366.41567675377007
 20
437.5527293529251
 11
362.76612975815658
 21
441.20227634853859
  0
LINE
  8
_0-a_極細3
  6
CONTINUOUS
 62
    7
 10
366.41567675377007
 20
430.76450425353369
 11
355.97790465876528
 21
441.20227634853859
  0
LINE
  8
_0-a_極細3
  6
CONTINUOUS
 62
    7
 10
353.08234342043647
 20
437.30961248747667
 11
366.41567675377007
 21
423.97627915414319
  0
LINE
  8
_0-a_極細3
  6
CONTINUOUS
 62
    7
 10
353.08234342043647
 20
430.52138738808549
 11
361.06812112664988
 21
422.53560968187207
  0
LINE
  8
_0-a_極細3
  6
CONTINUOUS
 62
    7
 10
353.08234342043647
 20
423.73316228869498
 11
354.27989602725938
 21
422.53560968187207
  0
LINE
  8
_0-a_極細3
  6
CONTINUOUS
 62
    7
 10
338.94583193622748
 20
422.5356096720684
 11
353.08234342043647
 21
436.67212115627672
  0
LINE
  8
_0-a_極細3
  6
CONTINUOUS
 62
    7
 10
305.00470641573554
 20
422.53560964853
 11
323.67137311574402
 21
441.20227634853859
  0
LINE
  8
_0-a_極細3
  6
CONTINUOUS
 62
    7
 10
271.06358089524292
 20
422.53560962499159
 11
289.73024761878912
 21
441.20227634853859
  0
LINE
  8
_0-a_極細3
  6
CONTINUOUS
 62
    7
 10
237.12245537475019
 20
422.53560960145387
 11
255.78912212183491
 21
441.20227634853859
  0
LINE
  8
_0-a_極細3
  6
CONTINUOUS
 62
    7
 10
210.39794798825312
 20
429.75222771191011
 11
221.84799662488069
 21
441.20227634853859
  0
LINE
  8
_0-a_極細3
  6
DASHED2
 62
    7
 10
321.97526917598145
 20
422.53560966029886
 11
340.64193586422107
 21
441.20227634853927
  0
LINE
  8
_0-a_極細3
  6
DASHED2
 62
    7
 10
288.03414365548883
 20
422.53560963676114
 11
306.70081036726697
 21
441.20227634853859
  0
LINE
  8
_0-a_極細3
  6
DASHED2
 62
    7
 10
254.0930181349969
 20
422.53560961322341
 11
272.75968487031196
 21
441.20227634853859
  0
LINE
  8
_0-a_極細3
  6
DASHED2
 62
    7
 10
220.15189261450428
 20
422.53560958968501
 11
238.81855937335786
 21
441.20227634853859
  0
CIRCLE
  8
_0-a_極細3
  6
CONTINUOUS
 62
    7
 10
222.50198582127189
 20
411.65711573124395
 40
0.884938271604915
  0
CIRCLE
  8
_0-a_極細3
  6
CONTINUOUS
 62
    7
 10
246.58494878423437
 20
410.77217745963844
 40
0.884938271604915
  0
CIRCLE
  8
_0-a_極細3
  6
CONTINUOUS
 62
    7
 10
319.11828211756722
 20
401.24328857074988
 40
0.884938271604915
  0
CIRCLE
  8
_0-a_極細3
  6
CONTINUOUS
 62
    7
 10
317.90939322867848
 20
408.15686881766351
 40
2.9208503562902273
  0
CIRCLE
  8
_0-a_極細3
  6
CONTINUOUS
 62
    7
 10
223.25467444065498
 20
390.59242437321927
 40
2.9208503562902273
  0
LINE
  8
_0-a_極細3
  6
CONTINUOUS
 62
    7
 10
445.08234342043647
 20
366.53560968187207
 11
446.41567675377007
 21
366.53560968187207
  0
LINE
  8
_0-a_極細3
  6
CONTINUOUS
 62
    7
 10
446.41567675377007
 20
366.53560968187207
 11
446.41567675377007
 21
204.54904921022512
  0
ARC
  8
_0-b_細線3
  6
CONTINUOUS
 62
    7
 10
374.41567675377007
 20
374.53560968187207
 40
8
 50
179.99999999999983
 51
269.99999999999977
  0
LINE
  8
_0-b_細線3
  6
CONTINUOUS
 62
    7
 10
366.41567675377007
 20
374.53560968187207
 11
366.41567675377007
 21
439.86894301520488
  0
LINE
  8
_0-b_細線3
  6
CONTINUOUS
 62
    7
 10
374.41567675377007
 20
366.53560968187207
 11
445.08234342043647
 21
366.53560968187207
  0
LINE
  8
_0-b_細線3
  6
CONTINUOUS
 62
    7
 10
446.41567675377007
 20
367.86894301520488
 11
445.08234342043647
 21
366.53560968187207
  0
LINE
  8
_0-b_細線3
  6
CONTINUOUS
 62
    7
 10
446.41567675377007
 20
373.20227634853859
 11
446.41567675377007
 21
367.86894301520488
  0
LINE
  8
_0-b_細線3
  6
CONTINUOUS
 62
    7
 10
445.08234342043647
 20
374.53560968187207
 11
446.41567675377007
 21
373.20227634853859
  0
LINE
  8
_0-b_細線3
  6
CONTINUOUS
 62
    7
 10
374.41567675377007
 20
374.53560968187207
 11
445.08234342043647
 21
374.53560968187207
  0
LINE
  8
_0-b_細線3
  6
CONTINUOUS
 62
    7
 10
367.74901008710299
 20
441.20227634853859
 11
366.41567675377007
 21
439.86894301520488
  0
LINE
  8
_0-b_細線3
  6
CONTINUOUS
 62
    7
 10
373.08234342043647
 20
441.20227634853859
 11
367.74901008710299
 21
441.20227634853859
  0
LINE
  8
_0-b_細線3
  6
CONTINUOUS
 62
    7
 10
374.41567675377007
 20
439.86894301520488
 11
373.08234342043647
 21
441.20227634853859
  0
LINE
  8
_0-b_細線3
  6
CONTINUOUS
 62
    7
 10
374.41567675377007
 20
374.53560968187207
 11
374.41567675377007
 21
439.86894301520488
  0
CIRCLE
  8
_0-a_極細3
  6
CONTINUOUS
 62
    7
 10
435.39578211756384
 20
340.95686881766431
 40
2.9208503562902273
  0
CIRCLE
  8
_0-a_極細3
  6
CONTINUOUS
 62
    7
 10
433.80865248793634
 20
253.42106634852871
 40
0.884938271604915
  0
CIRCLE
  8
_0-a_極細3
  6
CONTINUOUS
 62
    7
 10
435.94198582127069
 20
217.17135269545668
 40
0.884938271604915
  0
CIRCLE
  8
_0-a_極細3
  6
CONTINUOUS
 62
    7
 10
416.14939322867065
 20
310.37909103988773
 40
2.9208503562902273
  0
LINE
  8
_0-a_極細3
  6
CONTINUOUS
 62
    7
 10
1299.7490100871041
 20
355.86894301520488
 11
1299.7490100871041
 21
246.53560968187207
  0
LINE
  8
_0-a_極細3
  6
CONTINUOUS
 62
    7
 10
1166.4156767537702
 20
246.53560968187207
 11
1299.7490100871041
 21
246.53560968187207
  0
LINE
  8
_0-a_極細3
  6
CONTINUOUS
 62
    7
 10
1299.7490100871041
 20
355.86894301520488
 11
1349.1000721859541
 21
355.86894301520488
  0
LINE
  8
_0-a_極細3
  6
CONTINUOUS
 62
    7
 10
1166.4156767537702
 20
246.53560968187207
 11
1166.4156767537702
 21
204.54904921022512
  0
LINE
  8
_0-a_極細3
  6
CONTINUOUS
 62
    7
 10
1313.0130139504531
 20
204.54904921022512
 11
1349.1000722524186
 21
240.63610751219221
  0
LINE
  8
_0-a_極細3
  6
CONTINUOUS
 62
    7
 10
1199.8759289606051
 20
204.54904921022512
 11
1241.8624894322506
 21
246.53560968187207
  0
LINE
  8
_0-a_極細3
  6
CONTINUOUS
 62
    7
 10
1299.7490100871041
 20
304.42213033672431
 11
1349.1000721871633
 21
353.77319243678335
  0
LINE
  8
_0-a_極細3
  6
CONTINUOUS
 62
    7
 10
1301.6993054514678
 20
204.54904921022512
 11
1349.1000722458934
 21
251.94981600465087
  0
LINE
  8
_0-a_極細3
  6
CONTINUOUS
 62
    7
 10
1188.5622204616197
 20
204.54904921022512
 11
1230.5487809332667
 21
246.53560968187207
  0
LINE
  8
_0-a_極細3
  6
CONTINUOUS
 62
    7
 10
1299.7490100871041
 20
315.7358388357095
 11
1339.8821139793185
 21
355.8689427279246
  0
LINE
  8
_0-a_極細3
  6
CONTINUOUS
 62
    7
 10
1290.3855969524825
 20
204.54904921022512
 11
1349.1000722393669
 21
263.26352449710953
  0
LINE
  8
_0-a_極細3
  6
CONTINUOUS
 62
    7
 10
1177.2485119626349
 20
204.54904921022512
 11
1219.2350724342818
 21
246.53560968187207
  0
LINE
  8
_0-a_極細3
  6
CONTINUOUS
 62
    7
 10
1299.7490100871041
 20
327.04954733469322
 11
1328.5684055613206
 21
355.86894280891039
  0
CIRCLE
  8
_0-a_極細3
  6
CONTINUOUS
 62
    7
 10
1144.664948784231
 20
340.70254783000973
 40
0.884938271604915
  0
CIRCLE
  8
_0-a_極細3
  6
CONTINUOUS
 62
    7
 10
1160.5938376731197
 20
348.38254783001003
 40
0.884938271604915
  0
CIRCLE
  8
_0-a_極細3
  6
CONTINUOUS
 62
    7
 10
1154.0516154508978
 20
308.41810338556513
 40
0.884938271604915
  0
CIRCLE
  8
_0-a_極細3
  6
CONTINUOUS
 62
    7
 10
1182.1049487842306
 20
281.18254783001009
 40
0.884938271604915
  0
CIRCLE
  8
_0-a_極細3
  6
CONTINUOUS
 62
    7
 10
1153.5716154508978
 20
243.90254783001046
 40
0.884938271604915
  0
CIRCLE
  8
_0-a_極細3
  6
CONTINUOUS
 62
    7
 10
1138.6382821175648
 20
215.31588116334433
 40
0.884938271604915
  0
CIRCLE
  8
_0-a_極細3
  6
CONTINUOUS
 62
    7
 10
1156.9849487842307
 20
263.10254783001051
 40
0.884938271604915
  0
CIRCLE
  8
_0-a_極細3
  6
CONTINUOUS
 62
    7
 10
1179.1716154508963
 20
255.4225478300109
 40
0.884938271604915
  0
CIRCLE
  8
_0-a_極細3
  6
CONTINUOUS
 62
    7
 10
1222.2649487842295
 20
255.84921449667718
 40
0.884938271604915
  0
CIRCLE
  8
_0-a_極細3
  6
CONTINUOUS
 62
    7
 10
1220.9849487842293
 20
279.31588116334365
 40
0.884938271604915
  0
CIRCLE
  8
_0-a_極細3
  6
CONTINUOUS
 62
    7
 10
1205.8027265620067
 20
397.75143671889805
 40
0.884938271604915
  0
CIRCLE
  8
_0-a_極細3
  6
CONTINUOUS
 62
    7
 10
1201.8205043397857
 20
366.17810338556501
 40
0.884938271604915
  0
CIRCLE
  8
_0-a_極細3
  6
CONTINUOUS
 62
    7
 10
1234.6738376731182
 20
365.04032560778705
 40
0.884938271604915
  0
CIRCLE
  8
_0-a_極細3
  6
CONTINUOUS
 62
    7
 10
1216.1138376731178
 20
342.64032560778696
 40
0.884938271604915
  0
CIRCLE
  8
_0-a_極細3
  6
CONTINUOUS
 62
    7
 10
1278.8338376731176
 20
257.52032560778878
 40
0.884938271604915
  0
CIRCLE
  8
_0-a_極細3
  6
CONTINUOUS
 62
    7
 10
1290.3538376731171
 20
279.92032560778807
 40
0.884938271604915
  0
CIRCLE
  8
_0-a_極細3
  6
CONTINUOUS
 62
    7
 10
1287.7938376731181
 20
313.20032560778759
 40
0.884938271604915
  0
CIRCLE
  8
_0-a_極細3
  6
CONTINUOUS
 62
    7
 10
1258.9938376731179
 20
347.12032560778727
 40
0.884938271604915
  0
CIRCLE
  8
_0-a_極細3
  6
CONTINUOUS
 62
    7
 10
1285.8738376731167
 20
378.48032560778643
 40
0.884938271604915
  0
CIRCLE
  8
_0-a_極細3
  6
CONTINUOUS
 62
    7
 10
1281.393837673118
 20
335.60032560778762
 40
0.884938271604915
  0
CIRCLE
  8
_0-a_極細3
  6
CONTINUOUS
 62
    7
 10
1328.7538376731172
 20
369.5203256077873
 40
0.884938271604915
  0
CIRCLE
  8
_0-a_極細3
  6
CONTINUOUS
 62
    7
 10
1321.0738376731169
 20
391.55242437321908
 40
2.9208503562902273
  0
CIRCLE
  8
_0-a_極細3
  6
CONTINUOUS
 62
    7
 10
1296.042726562006
 20
366.80575770655241
 40
2.9208503562902273
  0
CIRCLE
  8
_0-a_極細3
  6
CONTINUOUS
 62
    7
 10
1207.3671710064518
 20
377.33020215099651
 40
2.9208503562902273
  0
CIRCLE
  8
_0-a_極細3
  6
CONTINUOUS
 62
    7
 10
1258.5671710064503
 20
326.130202150998
 40
2.9208503562902273
  0
CIRCLE
  8
_0-a_極細3
  6
CONTINUOUS
 62
    7
 10
1145.9360598953426
 20
254.85020215099848
 40
2.9208503562902273
  0
CIRCLE
  8
_0-a_極細3
  6
CONTINUOUS
 62
    7
 10
1162.2916154508971
 20
302.63686881766466
 40
2.9208503562902273
  0
CIRCLE
  8
_0-a_極細3
  6
CONTINUOUS
 62
    7
 10
1218.6116154508954
 20
266.7968688176652
 40
2.9208503562902273
  0
CIRCLE
  8
_0-a_極細3
  6
CONTINUOUS
 62
    7
 10
1292.6359236673493
 20
250.49758499051359
 40
2.9208503562902273
  0
CIRCLE
  8
_0-a_極細3
  6
CONTINUOUS
 62
    7
 10
1211.5716154508959
 20
335.91686881766412
 40
2.9208503562902273
  0
CIRCLE
  8
_0-a_極細3
  6
CONTINUOUS
 62
    7
 10
1135.6259364385519
 20
327.23974016640614
 40
0.884938271604915
  0
CIRCLE
  8
_0-a_極細3
  6
CONTINUOUS
 62
    7
 10
1135.9459364385534
 20
288.91085127751694
 40
0.884938271604915
  0
LINE
  8
_0-a_極細3
  6
CONTINUOUS
 62
    7
 10
1206.4156767537702
 20
441.20227634853859
 11
1206.4156767537702
 21
422.53560968187207
  0
LINE
  8
_0-a_極細3
  6
CONTINUOUS
 62
    7
 10
1193.0823434204372
 20
422.53560968187207
 11
1349.1000721859541
 21
422.53560968187207
  0
LINE
  8
_0-a_極細3
  6
CONTINUOUS
 62
    7
 10
1193.0823434204372
 20
439.86894301520488
 11
1193.0823434204372
 21
441.20227634853859
  0
LINE
  8
_0-a_極細3
  6
CONTINUOUS
 62
    7
 10
1206.4156767537702
 20
428.4061477310313
 11
1200.545138704611
 21
422.53560968187207
  0
LINE
  8
_0-a_極細3
  6
CONTINUOUS
 62
    7
 10
1206.4156767537702
 20
435.1943728304218
 11
1193.7569136052202
 21
422.53560968187207
  0
LINE
  8
_0-a_極細3
  6
CONTINUOUS
 62
    7
 10
1193.0823434204372
 20
428.6492645964795
 11
1205.6353551724956
 21
441.20227634853859
  0
LINE
  8
_0-a_極細3
  6
CONTINUOUS
 62
    7
 10
1193.0823434204372
 20
435.43748969587091
 11
1198.8471300731048
 21
441.20227634853859
  0
LINE
  8
_0-a_極細3
  6
CONTINUOUS
 62
    7
 10
1206.4156767537702
 20
438.78736081333022
 11
1204.0007612185609
 21
441.20227634853859
  0
LINE
  8
_0-a_極細3
  6
CONTINUOUS
 62
    7
 10
1206.4156767537702
 20
431.99913571393904
 11
1197.2125361191706
 21
441.20227634853859
  0
LINE
  8
_0-a_極細3
  6
CONTINUOUS
 62
    7
 10
1206.4156767537702
 20
425.21091061454763
 11
1193.0823434204372
 21
438.54424394788134
  0
LINE
  8
_0-a_極細3
  6
CONTINUOUS
 62
    7
 10
1202.3027525870552
 20
422.53560968187207
 11
1193.0823434204372
 21
431.75601884849061
  0
LINE
  8
_0-a_極細3
  6
CONTINUOUS
 62
    7
 10
1195.5145274876645
 20
422.53560968187207
 11
1193.0823434204372
 21
424.96779374909943
  0
LINE
  8
_0-a_極細3
  6
CONTINUOUS
 62
    7
 10
1315.9449653942561
 20
422.53560968187207
 11
1334.6116310580587
 21
441.20227534567653
  0
LINE
  8
_0-a_極細3
  6
CONTINUOUS
 62
    7
 10
1282.0038398973002
 20
422.53560968187207
 11
1300.6705058266234
 21
441.20227561119373
  0
LINE
  8
_0-a_極細3
  6
CONTINUOUS
 62
    7
 10
1248.0627144003461
 20
422.53560968187207
 11
1266.7293805951863
 21
441.20227587671093
  0
LINE
  8
_0-a_極細3
  6
CONTINUOUS
 62
    7
 10
1214.121588903392
 20
422.53560968187207
 11
1232.7882553637492
 21
441.20227614222949
  0
LINE
  8
_0-a_極細3
  6
DASHED2
 62
    7
 10
1332.9155281427329
 20
422.53560968187207
 11
1349.1000721859541
 21
438.72015372509327
  0
LINE
  8
_0-a_極細3
  6
DASHED2
 62
    7
 10
1298.9744026457774
 20
422.53560968187207
 11
1317.6410684423417
 21
441.20227547843501
  0
LINE
  8
_0-a_極細3
  6
DASHED2
 62
    7
 10
1265.0332771488233
 20
422.53560968187207
 11
1283.6999432109046
 21
441.20227574395221
  0
LINE
  8
_0-a_極細3
  6
DASHED2
 62
    7
 10
1231.0921516518688
 20
422.53560968187207
 11
1249.7588179794679
 21
441.2022760094701
  0
LINE
  8
_0-a_極細3
  6
DASHED2
 62
    7
 10
1206.4156767537702
 20
431.80026028072666
 11
1215.8176927480308
 21
441.20227627498798
  0
CIRCLE
  8
_0-a_極細3
  6
CONTINUOUS
 62
    7
 10
1335.1538376731173
 20
404.29365894111947
 40
0.884938271604915
  0
CIRCLE
  8
_0-a_極細3
  6
CONTINUOUS
 62
    7
 10
1308.2738376731168
 20
404.29365894111947
 40
0.884938271604915
  0
CIRCLE
  8
_0-a_極細3
  6
CONTINUOUS
 62
    7
 10
1265.393837673118
 20
408.77365894111995
 40
0.884938271604915
  0
CIRCLE
  8
_0-a_極細3
  6
CONTINUOUS
 62
    7
 10
1283.5271710064508
 20
405.70353548433036
 40
2.9208503562902273
  0
CIRCLE
  8
_0-a_極細3
  6
CONTINUOUS
 62
    7
 10
1258.9938376731179
 20
396.18699227445381
 40
0.884938271604915
  0
CIRCLE
  8
_0-a_極細3
  6
CONTINUOUS
 62
    7
 10
1259.2071710064511
 20
386.07686881766404
 40
2.9208503562902273
  0
CIRCLE
  8
_0-a_極細3
  6
CONTINUOUS
 62
    7
 10
1225.0738376731183
 20
405.78699227445304
 40
0.884938271604915
  0
LINE
  8
_0-a_極細3
  6
CONTINUOUS
 62
    7
 10
1114.4156767537702
 20
366.53560968187207
 11
1113.0823434204372
 21
366.53560968187207
  0
LINE
  8
_0-a_極細3
  6
CONTINUOUS
 62
    7
 10
1113.0823434204372
 20
366.53560968187207
 11
1113.0823434204372
 21
204.54904921022512
  0
ARC
  8
_0-b_細線3
  6
CONTINUOUS
 62
    7
 10
1185.0823434204372
 20
374.53560968187207
 40
8
 50
269.99999999999977
 51
359.99999999999966
  0
LINE
  8
_0-b_細線3
  6
CONTINUOUS
 62
    7
 10
1193.0823434204372
 20
374.53560968187207
 11
1193.0823434204372
 21
439.86894301520488
  0
LINE
  8
_0-b_細線3
  6
CONTINUOUS
 62
    7
 10
1185.0823434204372
 20
366.53560968187207
 11
1114.4156767537702
 21
366.53560968187207
  0
LINE
  8
_0-b_細線3
  6
CONTINUOUS
 62
    7
 10
1113.0823434204372
 20
367.86894301520488
 11
1114.4156767537702
 21
366.53560968187207
  0
LINE
  8
_0-b_細線3
  6
CONTINUOUS
 62
    7
 10
1113.0823434204372
 20
373.20227634853859
 11
1113.0823434204372
 21
367.86894301520488
  0
LINE
  8
_0-b_細線3
  6
CONTINUOUS
 62
    7
 10
1114.4156767537702
 20
374.53560968187207
 11
1113.0823434204372
 21
373.20227634853859
  0
LINE
  8
_0-b_細線3
  6
CONTINUOUS
 62
    7
 10
1185.0823434204372
 20
374.53560968187207
 11
1114.4156767537702
 21
374.53560968187207
  0
LINE
  8
_0-b_細線3
  6
CONTINUOUS
 62
    7
 10
1191.7490100871041
 20
441.20227634853859
 11
1193.0823434204372
 21
439.86894301520488
  0
LINE
  8
_0-b_細線3
  6
CONTINUOUS
 62
    7
 10
1186.4156767537702
 20
441.20227634853859
 11
1191.7490100871041
 21
441.20227634853859
  0
LINE
  8
_0-b_細線3
  6
CONTINUOUS
 62
    7
 10
1185.0823434204372
 20
439.86894301520488
 11
1186.4156767537702
 21
441.20227634853859
  0
LINE
  8
_0-b_細線3
  6
CONTINUOUS
 62
    7
 10
1185.0823434204372
 20
374.53560968187207
 11
1185.0823434204372
 21
439.86894301520488
  0
CIRCLE
  8
_0-a_極細3
  6
CONTINUOUS
 62
    7
 10
1122.6573767677705
 20
302.44477005223212
 40
0.884938271604915
  0
CIRCLE
  8
_0-a_極細3
  6
CONTINUOUS
 62
    7
 10
1124.7479117471944
 20
239.63588116334404
 40
0.884938271604915
  0
CIRCLE
  8
_0-a_極細3
  6
CONTINUOUS
 62
    7
 10
1123.7256895249707
 20
345.16131326210933
 40
2.9208503562902273
  0
CIRCLE
  8
_0-a_極細3
  6
CONTINUOUS
 62
    7
 10
1128.4427265620075
 20
228.96575770655306
 40
2.9208503562902273
  0
ARC
  8
_0-b_細線3
  6
CONTINUOUS
 62
    7
 10
880.54901009294031
 20
435.86894301520488
 40
2.6666666666666679
 50
89.999999999999915
 51
179.99999999999983
  0
ARC
  8
_0-b_細線3
  6
CONTINUOUS
 62
    7
 10
881.79687460314744
 20
441.20227634853768
 40
2.6666666666666679
 50
269.99999999999977
 51
330.00000000000819
  0
ARC
  8
_0-b_細線3
  6
CONTINUOUS
 62
    7
 10
886.41567675666374
 20
438.53560968187207
 40
2.6666666666666679
 50
89.999999999999915
 51
150.00000000000364
  0
LINE
  8
_0-b_細線3
  6
CONTINUOUS
 62
    7
 10
880.54901009294031
 20
438.53560968187207
 11
881.79687460314744
 21
438.53560968187207
  0
ARC
  8
_0-b_細線3
  6
CONTINUOUS
 62
    7
 10
905.61567675372135
 20
435.86894301520488
 40
2.6666666666666679
 50
0
 51
89.999999999999915
  0
ARC
  8
_0-b_細線3
  6
CONTINUOUS
 62
    7
 10
904.36781224351512
 20
441.20227634853768
 40
2.6666666666666679
 50
209.99999999998866
 51
269.99999999999977
  0
ARC
  8
_0-b_細線3
  6
CONTINUOUS
 62
    7
 10
899.74901008999802
 20
438.53560968187207
 40
2.6666666666666679
 50
29.999999999990266
 51
89.999999999999929
  0
LINE
  8
_0-b_細線3
  6
CONTINUOUS
 62
    7
 10
905.61567675372135
 20
438.53560968187207
 11
904.36781224351512
 21
438.53560968187207
  0
ARC
  8
_0-b_細線3
  6
CONTINUOUS
 62
    7
 10
879.21567675960773
 20
432.13560968187198
 40
1.3333333333333339
 50
179.99999999999983
 51
269.99999999999977
  0
LINE
  8
_0-b_細線3
  6
CONTINUOUS
 62
    7
 10
877.88234342627402
 20
435.86894301520488
 11
877.88234342627402
 21
432.13560968187198
  0
ARC
  8
_0-b_細線3
  6
CONTINUOUS
 62
    7
 10
906.94901008705415
 20
432.13560968187198
 40
1.3333333333333339
 50
269.99999999999977
 51
359.99999999999966
  0
LINE
  8
_0-b_細線3
  6
CONTINUOUS
 62
    7
 10
908.28234342038854
 20
435.86894301520488
 11
908.28234342038854
 21
432.13560968187198
  0
ARC
  8
_0-b_細線3
  6
CONTINUOUS
 62
    7
 10
885.88234342627402
 20
428.13560968187198
 40
2.6666666666666679
 50
0
 51
89.999999999999915
  0
LINE
  8
_0-b_細線3
  6
CONTINUOUS
 62
    7
 10
885.88234342627402
 20
430.80227634853782
 11
879.21567675960773
 21
430.80227634853782
  0
ARC
  8
_0-b_細線3
  6
CONTINUOUS
 62
    7
 10
900.28234342627331
 20
428.13560968187198
 40
2.6666666666666679
 50
89.999999999999915
 51
179.99999999999983
  0
LINE
  8
_0-b_細線3
  6
CONTINUOUS
 62
    7
 10
900.28234342038706
 20
430.80227634853782
 11
906.94901008705415
 21
430.80227634853782
  0
LINE
  8
_0-b_細線3
  6
CONTINUOUS
 62
    7
 10
899.74901008999802
 20
441.20227634853768
 11
886.41567675666374
 21
441.20227634853768
  0
LINE
  8
_0-b_細線3
  6
CONTINUOUS
 62
    7
 10
888.54901008999809
 20
374.53560968187207
 11
888.54901009294031
 21
428.13560968187198
  0
LINE
  8
_0-b_細線3
  6
CONTINUOUS
 62
    7
 10
897.61567675666379
 20
374.53560968187207
 11
897.6156767596076
 21
428.13560968187198
  0
LINE
  8
_0-b_細線3
  6
CONTINUOUS
 62
    7
 10
897.61567675666379
 20
374.53560968187207
 11
888.54901008999809
 21
374.53560968187207
  0
ARC
  8
_0-b_細線3
  6
CONTINUOUS
 62
    7
 10
835.21567675864276
 20
435.86894301520488
 40
2.6666666666666679
 50
89.999999999999915
 51
179.99999999999983
  0
ARC
  8
_0-b_細線3
  6
CONTINUOUS
 62
    7
 10
836.46354126884921
 20
441.20227634853768
 40
2.6666666666666679
 50
269.99999999999977
 51
330.00000000000819
  0
ARC
  8
_0-b_細線3
  6
CONTINUOUS
 62
    7
 10
841.08234342236597
 20
438.53560968187207
 40
2.6666666666666679
 50
89.999999999999915
 51
150.00000000000853
  0
LINE
  8
_0-b_細線3
  6
CONTINUOUS
 62
    7
 10
835.21567675864276
 20
438.53560968187207
 11
836.46354126884921
 21
438.53560968187207
  0
ARC
  8
_0-b_細線3
  6
CONTINUOUS
 62
    7
 10
860.28234341942311
 20
435.86894301520488
 40
2.6666666666666679
 50
0
 51
89.999999999999915
  0
ARC
  8
_0-b_細線3
  6
CONTINUOUS
 62
    7
 10
859.03447890921666
 20
441.20227634853768
 40
2.6666666666666679
 50
209.99999999998377
 51
269.99999999999977
  0
ARC
  8
_0-b_細線3
  6
CONTINUOUS
 62
    7
 10
854.41567675569968
 20
438.53560968187207
 40
2.6666666666666679
 50
29.999999999996373
 51
89.999999999999929
  0
LINE
  8
_0-b_細線3
  6
CONTINUOUS
 62
    7
 10
860.28234341942311
 20
438.53560968187207
 11
859.03447890921666
 21
438.53560968187207
  0
ARC
  8
_0-b_細線3
  6
CONTINUOUS
 62
    7
 10
833.88234342530927
 20
432.13560968187198
 40
1.3333333333333339
 50
179.99999999999983
 51
269.99999999999977
  0
LINE
  8
_0-b_細線3
  6
CONTINUOUS
 62
    7
 10
832.54901009197579
 20
435.86894301520488
 11
832.54901009197579
 21
432.13560968187198
  0
ARC
  8
_0-b_細線3
  6
CONTINUOUS
 62
    7
 10
861.6156767527566
 20
432.13560968187198
 40
1.3333333333333339
 50
269.99999999999977
 51
359.99999999999966
  0
LINE
  8
_0-b_細線3
  6
CONTINUOUS
 62
    7
 10
862.94901008609008
 20
435.86894301520488
 11
862.94901008609008
 21
432.13560968187198
  0
ARC
  8
_0-b_細線3
  6
CONTINUOUS
 62
    7
 10
840.54901009197579
 20
428.13560968187198
 40
2.6666666666666679
 50
0
 51
89.999999999999915
  0
LINE
  8
_0-b_細線3
  6
CONTINUOUS
 62
    7
 10
840.54901009197579
 20
430.80227634853782
 11
833.88234342530927
 21
430.80227634853782
  0
ARC
  8
_0-b_細線3
  6
CONTINUOUS
 62
    7
 10
854.94901009197633
 20
428.13560968187198
 40
2.6666666666666679
 50
89.999999999999915
 51
179.99999999999983
  0
LINE
  8
_0-b_細線3
  6
CONTINUOUS
 62
    7
 10
854.94901008609008
 20
430.80227634853782
 11
861.6156767527566
 21
430.80227634853782
  0
LINE
  8
_0-b_細線3
  6
CONTINUOUS
 62
    7
 10
854.41567675569968
 20
441.20227634853768
 11
841.08234342236597
 21
441.20227634853768
  0
LINE
  8
_0-b_細線3
  6
CONTINUOUS
 62
    7
 10
843.21567675569963
 20
374.53560968187207
 11
843.21567675864276
 21
428.13560968187198
  0
LINE
  8
_0-b_細線3
  6
CONTINUOUS
 62
    7
 10
852.28234342236624
 20
374.53560968187207
 11
852.28234342530936
 21
428.13560968187198
  0
LINE
  8
_0-b_細線3
  6
CONTINUOUS
 62
    7
 10
852.28234342236624
 20
374.53560968187207
 11
843.21567675569963
 21
374.53560968187207
  0
ARC
  8
_0-b_細線3
  6
CONTINUOUS
 62
    7
 10
789.8823434243443
 20
435.86894301520488
 40
2.6666666666666679
 50
89.999999999999915
 51
179.99999999999983
  0
ARC
  8
_0-b_細線3
  6
CONTINUOUS
 62
    7
 10
791.13020793455144
 20
441.20227634853768
 40
2.6666666666666679
 50
269.99999999999977
 51
330.00000000000819
  0
ARC
  8
_0-b_細線3
  6
CONTINUOUS
 62
    7
 10
795.74901008806842
 20
438.53560968187207
 40
2.6666666666666679
 50
89.999999999999915
 51
150.00000000001097
  0
LINE
  8
_0-b_細線3
  6
CONTINUOUS
 62
    7
 10
789.8823434243443
 20
438.53560968187207
 11
791.13020793455144
 21
438.53560968187207
  0
ARC
  8
_0-b_細線3
  6
CONTINUOUS
 62
    7
 10
814.94901008512534
 20
435.86894301520488
 40
2.6666666666666679
 50
0
 51
89.999999999999915
  0
ARC
  8
_0-b_細線3
  6
CONTINUOUS
 62
    7
 10
813.7011455749182
 20
441.20227634853768
 40
2.6666666666666679
 50
209.9999999999911
 51
269.99999999999977
  0
ARC
  8
_0-b_細線3
  6
CONTINUOUS
 62
    7
 10
809.08234342140145
 20
438.53560968187207
 40
2.6666666666666679
 50
29.999999999991488
 51
89.999999999990223
  0
LINE
  8
_0-b_細線3
  6
CONTINUOUS
 62
    7
 10
814.94901008512534
 20
438.53560968187207
 11
813.7011455749182
 21
438.53560968187207
  0
ARC
  8
_0-b_細線3
  6
CONTINUOUS
 62
    7
 10
788.54901009101081
 20
432.13560968187198
 40
1.3333333333333339
 50
179.99999999999983
 51
269.99999999999977
  0
LINE
  8
_0-b_細線3
  6
CONTINUOUS
 62
    7
 10
787.21567675767801
 20
435.86894301520488
 11
787.21567675767801
 21
432.13560968187198
  0
ARC
  8
_0-b_細線3
  6
CONTINUOUS
 62
    7
 10
816.28234341845905
 20
432.13560968187198
 40
1.3333333333333339
 50
269.99999999999977
 51
359.99999999999966
  0
LINE
  8
_0-b_細線3
  6
CONTINUOUS
 62
    7
 10
817.61567675179163
 20
435.86894301520488
 11
817.61567675179163
 21
432.13560968187198
  0
ARC
  8
_0-b_細線3
  6
CONTINUOUS
 62
    7
 10
795.21567675767801
 20
428.13560968187198
 40
2.6666666666666679
 50
0
 51
89.999999999999915
  0
LINE
  8
_0-b_細線3
  6
CONTINUOUS
 62
    7
 10
795.21567675767801
 20
430.80227634853782
 11
788.54901009101081
 21
430.80227634853782
  0
ARC
  8
_0-b_細線3
  6
CONTINUOUS
 62
    7
 10
809.61567675767787
 20
428.13560968187198
 40
2.6666666666666679
 50
89.999999999999915
 51
179.99999999999983
  0
LINE
  8
_0-b_細線3
  6
CONTINUOUS
 62
    7
 10
809.61567675179163
 20
430.80227634853782
 11
816.28234341845905
 21
430.80227634853782
  0
LINE
  8
_0-b_細線3
  6
CONTINUOUS
 62
    7
 10
809.08234342140145
 20
441.20227634853768
 11
795.74901008806842
 21
441.20227634853768
  0
LINE
  8
_0-b_細線3
  6
CONTINUOUS
 62
    7
 10
797.88234342140117
 20
374.53560968187207
 11
797.8823434243443
 21
428.13560968187198
  0
LINE
  8
_0-b_細線3
  6
CONTINUOUS
 62
    7
 10
806.94901008806846
 20
374.53560968187207
 11
806.94901009101159
 21
428.13560968187198
  0
LINE
  8
_0-b_細線3
  6
CONTINUOUS
 62
    7
 10
806.94901008806846
 20
374.53560968187207
 11
797.88234342140117
 21
374.53560968187207
  0
ARC
  8
_0-b_細線3
  6
CONTINUOUS
 62
    7
 10
744.54901009004607
 20
435.86894301520488
 40
2.6666666666666679
 50
89.999999999999915
 51
179.99999999999983
  0
ARC
  8
_0-b_細線3
  6
CONTINUOUS
 62
    7
 10
745.7968746002532
 20
441.20227634853768
 40
2.6666666666666679
 50
269.99999999999977
 51
330.00000000000819
  0
ARC
  8
_0-b_細線3
  6
CONTINUOUS
 62
    7
 10
750.41567675377007
 20
438.53560968187207
 40
2.6666666666666679
 50
89.999999999999915
 51
150.00000000000975
  0
LINE
  8
_0-b_細線3
  6
CONTINUOUS
 62
    7
 10
744.54901009004607
 20
438.53560968187207
 11
745.7968746002532
 21
438.53560968187207
  0
ARC
  8
_0-b_細線3
  6
CONTINUOUS
 62
    7
 10
769.61567675082756
 20
435.86894301520488
 40
2.6666666666666679
 50
0
 51
89.999999999999915
  0
ARC
  8
_0-b_細線3
  6
CONTINUOUS
 62
    7
 10
768.36781224062065
 20
441.20227634853768
 40
2.6666666666666679
 50
209.99999999998866
 51
269.99999999999977
  0
ARC
  8
_0-b_細線3
  6
CONTINUOUS
 62
    7
 10
763.74901008710367
 20
438.53560968187207
 40
2.6666666666666679
 50
29.999999999991488
 51
89.999999999999929
  0
LINE
  8
_0-b_細線3
  6
CONTINUOUS
 62
    7
 10
769.61567675082756
 20
438.53560968187207
 11
768.36781224062065
 21
438.53560968187207
  0
ARC
  8
_0-b_細線3
  6
CONTINUOUS
 62
    7
 10
743.21567675671326
 20
432.13560968187198
 40
1.3333333333333339
 50
179.99999999999983
 51
269.99999999999977
  0
LINE
  8
_0-b_細線3
  6
CONTINUOUS
 62
    7
 10
741.88234342337978
 20
435.86894301520488
 11
741.88234342337978
 21
432.13560968187198
  0
ARC
  8
_0-b_細線3
  6
CONTINUOUS
 62
    7
 10
770.94901008416127
 20
432.13560968187198
 40
1.3333333333333339
 50
269.99999999999977
 51
359.99999999999966
  0
LINE
  8
_0-b_細線3
  6
CONTINUOUS
 62
    7
 10
772.28234341749408
 20
435.86894301520488
 11
772.28234341749408
 21
432.13560968187198
  0
ARC
  8
_0-b_細線3
  6
CONTINUOUS
 62
    7
 10
749.88234342337978
 20
428.13560968187198
 40
2.6666666666666679
 50
0
 51
89.999999999999915
  0
LINE
  8
_0-b_細線3
  6
CONTINUOUS
 62
    7
 10
749.88234342337978
 20
430.80227634853782
 11
743.21567675671326
 21
430.80227634853782
  0
ARC
  8
_0-b_細線3
  6
CONTINUOUS
 62
    7
 10
764.28234342337964
 20
428.13560968187198
 40
2.6666666666666679
 50
89.999999999999915
 51
179.99999999999983
  0
LINE
  8
_0-b_細線3
  6
CONTINUOUS
 62
    7
 10
764.28234341749339
 20
430.80227634853782
 11
770.94901008416127
 21
430.80227634853782
  0
LINE
  8
_0-b_細線3
  6
CONTINUOUS
 62
    7
 10
763.74901008710367
 20
441.20227634853768
 11
750.41567675377007
 21
441.20227634853768
  0
LINE
  8
_0-b_細線3
  6
CONTINUOUS
 62
    7
 10
752.54901008710362
 20
374.53560968187207
 11
752.54901009004607
 21
428.13560968187198
  0
LINE
  8
_0-b_細線3
  6
CONTINUOUS
 62
    7
 10
761.61567675377023
 20
374.53560968187207
 11
761.61567675671336
 21
428.13560968187198
  0
LINE
  8
_0-b_細線3
  6
CONTINUOUS
 62
    7
 10
761.61567675377023
 20
374.53560968187207
 11
752.54901008710362
 21
374.53560968187207
  0
ARC
  8
_0-b_細線3
  6
CONTINUOUS
 62
    7
 10
699.2156767557484
 20
435.86894301520488
 40
2.6666666666666679
 50
89.999999999999915
 51
179.99999999999983
  0
ARC
  8
_0-b_細線3
  6
CONTINUOUS
 62
    7
 10
700.46354126595543
 20
441.20227634853768
 40
2.6666666666666679
 50
269.99999999999977
 51
330.00000000000938
  0
ARC
  8
_0-b_細線3
  6
CONTINUOUS
 62
    7
 10
705.08234341947241
 20
438.53560968187207
 40
2.6666666666666679
 50
89.999999999999915
 51
150.00000000000975
  0
LINE
  8
_0-b_細線3
  6
CONTINUOUS
 62
    7
 10
699.2156767557484
 20
438.53560968187207
 11
700.46354126595543
 21
438.53560968187207
  0
ARC
  8
_0-b_細線3
  6
CONTINUOUS
 62
    7
 10
724.28234341652933
 20
435.86894301520488
 40
2.6666666666666679
 50
0
 51
89.999999999999915
  0
ARC
  8
_0-b_細線3
  6
CONTINUOUS
 62
    7
 10
723.0344789063231
 20
441.20227634853768
 40
2.6666666666666679
 50
209.99999999998136
 51
269.99999999999977
  0
ARC
  8
_0-b_細線3
  6
CONTINUOUS
 62
    7
 10
718.41567675280544
 20
438.53560968187207
 40
2.6666666666666679
 50
29.999999999991488
 51
89.999999999987793
  0
LINE
  8
_0-b_細線3
  6
CONTINUOUS
 62
    7
 10
724.28234341652933
 20
438.53560968187207
 11
723.0344789063231
 21
438.53560968187207
  0
ARC
  8
_0-b_細線3
  6
CONTINUOUS
 62
    7
 10
697.88234342241481
 20
432.13560968187198
 40
1.3333333333333339
 50
179.99999999999983
 51
269.99999999999977
  0
LINE
  8
_0-b_細線3
  6
CONTINUOUS
 62
    7
 10
696.549010089082
 20
435.86894301520488
 11
696.549010089082
 21
432.13560968187198
  0
ARC
  8
_0-b_細線3
  6
CONTINUOUS
 62
    7
 10
725.61567674986304
 20
432.13560968187198
 40
1.3333333333333339
 50
269.99999999999977
 51
359.99999999999966
  0
LINE
  8
_0-b_細線3
  6
CONTINUOUS
 62
    7
 10
726.94901008319653
 20
435.86894301520488
 11
726.94901008319653
 21
432.13560968187198
  0
ARC
  8
_0-b_細線3
  6
CONTINUOUS
 62
    7
 10
704.549010089082
 20
428.13560968187198
 40
2.6666666666666679
 50
0
 51
89.999999999999915
  0
LINE
  8
_0-b_細線3
  6
CONTINUOUS
 62
    7
 10
704.549010089082
 20
430.80227634853782
 11
697.88234342241481
 21
430.80227634853782
  0
ARC
  8
_0-b_細線3
  6
CONTINUOUS
 62
    7
 10
718.94901008908198
 20
428.13560968187198
 40
2.6666666666666679
 50
89.999999999999915
 51
179.99999999999983
  0
LINE
  8
_0-b_細線3
  6
CONTINUOUS
 62
    7
 10
718.94901008319573
 20
430.80227634853782
 11
725.61567674986304
 21
430.80227634853782
  0
LINE
  8
_0-b_細線3
  6
CONTINUOUS
 62
    7
 10
718.41567675280544
 20
441.20227634853768
 11
705.08234341947241
 21
441.20227634853768
  0
LINE
  8
_0-b_細線3
  6
CONTINUOUS
 62
    7
 10
707.21567675280608
 20
374.53560968187207
 11
707.2156767557484
 21
428.13560968187198
  0
LINE
  8
_0-b_細線3
  6
CONTINUOUS
 62
    7
 10
716.28234341947245
 20
374.53560968187207
 11
716.28234342241558
 21
428.13560968187198
  0
LINE
  8
_0-b_細線3
  6
CONTINUOUS
 62
    7
 10
716.28234341947245
 20
374.53560968187207
 11
707.21567675280608
 21
374.53560968187207
  0
ARC
  8
_0-b_細線3
  6
CONTINUOUS
 62
    7
 10
653.88234342145006
 20
435.86894301520488
 40
2.6666666666666679
 50
89.999999999999915
 51
179.99999999999983
  0
ARC
  8
_0-b_細線3
  6
CONTINUOUS
 62
    7
 10
655.13020793165708
 20
441.20227634853768
 40
2.6666666666666679
 50
269.99999999999977
 51
330.00000000000938
  0
ARC
  8
_0-b_細線3
  6
CONTINUOUS
 62
    7
 10
659.74901008517406
 20
438.53560968187207
 40
2.6666666666666679
 50
89.999999999999915
 51
150.00000000000975
  0
LINE
  8
_0-b_細線3
  6
CONTINUOUS
 62
    7
 10
653.88234342145006
 20
438.53560968187207
 11
655.13020793165708
 21
438.53560968187207
  0
ARC
  8
_0-b_細線3
  6
CONTINUOUS
 62
    7
 10
678.94901008223098
 20
435.86894301520488
 40
2.6666666666666679
 50
0
 51
89.999999999999915
  0
ARC
  8
_0-b_細線3
  6
CONTINUOUS
 62
    7
 10
677.70114557202396
 20
441.20227634853768
 40
2.6666666666666679
 50
209.99999999998988
 51
269.99999999999977
  0
ARC
  8
_0-b_細線3
  6
CONTINUOUS
 62
    7
 10
673.08234341850766
 20
438.53560968187207
 40
2.6666666666666679
 50
29.999999999997595
 51
89.999999999999929
  0
LINE
  8
_0-b_細線3
  6
CONTINUOUS
 62
    7
 10
678.94901008223098
 20
438.53560968187207
 11
677.70114557202396
 21
438.53560968187207
  0
ARC
  8
_0-b_細線3
  6
CONTINUOUS
 62
    7
 10
652.54901008811714
 20
432.13560968187198
 40
1.3333333333333339
 50
179.99999999999983
 51
269.99999999999977
  0
LINE
  8
_0-b_細線3
  6
CONTINUOUS
 62
    7
 10
651.21567675478366
 20
435.86894301520488
 11
651.21567675478366
 21
432.13560968187198
  0
ARC
  8
_0-b_細線3
  6
CONTINUOUS
 62
    7
 10
680.28234341556447
 20
432.13560968187198
 40
1.3333333333333339
 50
269.99999999999977
 51
359.99999999999966
  0
LINE
  8
_0-b_細線3
  6
CONTINUOUS
 62
    7
 10
681.61567674889739
 20
435.86894301520488
 11
681.61567674889739
 21
432.13560968187198
  0
ARC
  8
_0-b_細線3
  6
CONTINUOUS
 62
    7
 10
659.21567675478366
 20
428.13560968187198
 40
2.6666666666666679
 50
0
 51
89.999999999999915
  0
LINE
  8
_0-b_細線3
  6
CONTINUOUS
 62
    7
 10
659.21567675478366
 20
430.80227634853782
 11
652.54901008811714
 21
430.80227634853782
  0
ARC
  8
_0-b_細線3
  6
CONTINUOUS
 62
    7
 10
673.61567675478364
 20
428.13560968187198
 40
2.6666666666666679
 50
89.999999999999915
 51
179.99999999999983
  0
LINE
  8
_0-b_細線3
  6
CONTINUOUS
 62
    7
 10
673.61567674889739
 20
430.80227634853782
 11
680.28234341556447
 21
430.80227634853782
  0
LINE
  8
_0-b_細線3
  6
CONTINUOUS
 62
    7
 10
673.08234341850766
 20
441.20227634853768
 11
659.74901008517406
 21
441.20227634853768
  0
LINE
  8
_0-b_細線3
  6
CONTINUOUS
 62
    7
 10
661.88234341850693
 20
374.53560968187207
 11
661.88234342145006
 21
428.13560968187198
  0
LINE
  8
_0-b_細線3
  6
CONTINUOUS
 62
    7
 10
670.94901008517411
 20
374.53560968187207
 11
670.94901008811723
 21
428.13560968187198
  0
LINE
  8
_0-b_細線3
  6
CONTINUOUS
 62
    7
 10
670.94901008517411
 20
374.53560968187207
 11
661.88234341850693
 21
374.53560968187207
  0
ARC
  8
_0-b_細線3
  6
CONTINUOUS
 62
    7
 10
608.54901008715171
 20
435.86894301520488
 40
2.6666666666666679
 50
89.999999999999915
 51
179.99999999999983
  0
ARC
  8
_0-b_細線3
  6
CONTINUOUS
 62
    7
 10
609.79687459735862
 20
441.20227634853768
 40
2.6666666666666679
 50
269.99999999999977
 51
330.00000000001063
  0
ARC
  8
_0-b_細線3
  6
CONTINUOUS
 62
    7
 10
614.41567675087572
 20
438.53560968187207
 40
2.6666666666666679
 50
89.999999999999915
 51
150.00000000000975
  0
LINE
  8
_0-b_細線3
  6
CONTINUOUS
 62
    7
 10
608.54901008715171
 20
438.53560968187207
 11
609.79687459735862
 21
438.53560968187207
  0
ARC
  8
_0-b_細線3
  6
CONTINUOUS
 62
    7
 10
633.61567674793253
 20
435.86894301520488
 40
2.6666666666666679
 50
0
 51
89.999999999999915
  0
ARC
  8
_0-b_細線3
  6
CONTINUOUS
 62
    7
 10
632.3678122377263
 20
441.20227634853768
 40
2.6666666666666679
 50
209.99999999998136
 51
269.99999999999977
  0
ARC
  8
_0-b_細線3
  6
CONTINUOUS
 62
    7
 10
627.74901008420852
 20
438.53560968187207
 40
2.6666666666666679
 50
29.999999999990266
 51
89.999999999982904
  0
LINE
  8
_0-b_細線3
  6
CONTINUOUS
 62
    7
 10
633.61567674793253
 20
438.53560968187207
 11
632.3678122377263
 21
438.53560968187207
  0
ARC
  8
_0-b_細線3
  6
CONTINUOUS
 62
    7
 10
607.2156767538188
 20
432.13560968187198
 40
1.3333333333333339
 50
179.99999999999983
 51
269.99999999999977
  0
LINE
  8
_0-b_細線3
  6
CONTINUOUS
 62
    7
 10
605.8823434204852
 20
435.86894301520488
 11
605.8823434204852
 21
432.13560968187198
  0
ARC
  8
_0-b_細線3
  6
CONTINUOUS
 62
    7
 10
634.94901008126612
 20
432.13560968187198
 40
1.3333333333333339
 50
269.99999999999977
 51
359.99999999999966
  0
LINE
  8
_0-b_細線3
  6
CONTINUOUS
 62
    7
 10
636.28234341459972
 20
435.86894301520488
 11
636.28234341459972
 21
432.13560968187198
  0
ARC
  8
_0-b_細線3
  6
CONTINUOUS
 62
    7
 10
613.8823434204852
 20
428.13560968187198
 40
2.6666666666666679
 50
0
 51
89.999999999999915
  0
LINE
  8
_0-b_細線3
  6
CONTINUOUS
 62
    7
 10
613.8823434204852
 20
430.80227634853782
 11
607.2156767538188
 21
430.80227634853782
  0
ARC
  8
_0-b_細線3
  6
CONTINUOUS
 62
    7
 10
628.28234342048529
 20
428.13560968187198
 40
2.6666666666666679
 50
89.999999999999915
 51
179.99999999999983
  0
LINE
  8
_0-b_細線3
  6
CONTINUOUS
 62
    7
 10
628.28234341459904
 20
430.80227634853782
 11
634.94901008126612
 21
430.80227634853782
  0
LINE
  8
_0-b_細線3
  6
CONTINUOUS
 62
    7
 10
627.74901008420852
 20
441.20227634853768
 11
614.41567675087572
 21
441.20227634853768
  0
LINE
  8
_0-b_細線3
  6
CONTINUOUS
 62
    7
 10
616.54901008420927
 20
374.53560968187207
 11
616.54901008715171
 21
428.13560968187198
  0
LINE
  8
_0-b_細線3
  6
CONTINUOUS
 62
    7
 10
625.61567675087565
 20
374.53560968187207
 11
625.61567675381878
 21
428.13560968187198
  0
LINE
  8
_0-b_細線3
  6
CONTINUOUS
 62
    7
 10
625.61567675087565
 20
374.53560968187207
 11
616.54901008420927
 21
374.53560968187207
  0
ARC
  8
_0-b_細線3
  6
CONTINUOUS
 62
    7
 10
925.88234342673172
 20
435.86894301520488
 40
2.6666666666666679
 50
89.999999999999915
 51
179.99999999999983
  0
ARC
  8
_0-b_細線3
  6
CONTINUOUS
 62
    7
 10
927.13020793693795
 20
441.20227634853768
 40
2.6666666666666679
 50
269.99999999999977
 51
330.00000000000938
  0
ARC
  8
_0-b_細線3
  6
CONTINUOUS
 62
    7
 10
931.74901009045493
 20
438.53560968187207
 40
2.6666666666666679
 50
89.999999999999915
 51
150.00000000000975
  0
LINE
  8
_0-b_細線3
  6
CONTINUOUS
 62
    7
 10
925.88234342673172
 20
438.53560968187207
 11
927.13020793693795
 21
438.53560968187207
  0
ARC
  8
_0-b_細線3
  6
CONTINUOUS
 62
    7
 10
950.94901008751253
 20
435.86894301520488
 40
2.6666666666666679
 50
0
 51
89.999999999999915
  0
ARC
  8
_0-b_細線3
  6
CONTINUOUS
 62
    7
 10
949.70114557730483
 20
441.20227634853768
 40
2.6666666666666679
 50
209.99999999998988
 51
269.99999999999977
  0
ARC
  8
_0-b_細線3
  6
CONTINUOUS
 62
    7
 10
945.08234342378785
 20
438.53560968187207
 40
2.6666666666666679
 50
29.999999999990266
 51
89.999999999999929
  0
LINE
  8
_0-b_細線3
  6
CONTINUOUS
 62
    7
 10
950.94901008751253
 20
438.53560968187207
 11
949.70114557730483
 21
438.53560968187207
  0
ARC
  8
_0-b_細線3
  6
CONTINUOUS
 62
    7
 10
924.54901009339881
 20
432.13560968187198
 40
1.3333333333333339
 50
179.99999999999983
 51
269.99999999999977
  0
LINE
  8
_0-b_細線3
  6
CONTINUOUS
 62
    7
 10
923.21567676006453
 20
435.86894301520488
 11
923.21567676006453
 21
432.13560968187198
  0
ARC
  8
_0-b_細線3
  6
CONTINUOUS
 62
    7
 10
952.28234342084545
 20
432.13560968187198
 40
1.3333333333333339
 50
269.99999999999977
 51
359.99999999999966
  0
LINE
  8
_0-b_細線3
  6
CONTINUOUS
 62
    7
 10
953.61567675417825
 20
435.86894301520488
 11
953.61567675417825
 21
432.13560968187198
  0
ARC
  8
_0-b_細線3
  6
CONTINUOUS
 62
    7
 10
931.21567676006453
 20
428.13560968187198
 40
2.6666666666666679
 50
0
 51
89.999999999999915
  0
LINE
  8
_0-b_細線3
  6
CONTINUOUS
 62
    7
 10
931.21567676006453
 20
430.80227634853782
 11
924.54901009339881
 21
430.80227634853782
  0
ARC
  8
_0-b_細線3
  6
CONTINUOUS
 62
    7
 10
945.6156767600645
 20
428.13560968187198
 40
2.6666666666666679
 50
89.999999999999915
 51
179.99999999999983
  0
LINE
  8
_0-b_細線3
  6
CONTINUOUS
 62
    7
 10
945.61567675417825
 20
430.80227634853782
 11
952.28234342084545
 21
430.80227634853782
  0
LINE
  8
_0-b_細線3
  6
CONTINUOUS
 62
    7
 10
945.08234342378785
 20
441.20227634853768
 11
931.74901009045493
 21
441.20227634853768
  0
LINE
  8
_0-b_細線3
  6
CONTINUOUS
 62
    7
 10
933.88234342378928
 20
374.53560968187207
 11
933.88234342673172
 21
428.13560968187198
  0
LINE
  8
_0-b_細線3
  6
CONTINUOUS
 62
    7
 10
942.94901009045498
 20
374.53560968187207
 11
942.94901009339878
 21
428.13560968187198
  0
LINE
  8
_0-b_細線3
  6
CONTINUOUS
 62
    7
 10
942.94901009045498
 20
374.53560968187207
 11
933.88234342378928
 21
374.53560968187207
  0
ARC
  8
_0-b_細線3
  6
CONTINUOUS
 62
    7
 10
971.21567676102927
 20
435.86894301520488
 40
2.6666666666666679
 50
89.999999999999915
 51
179.99999999999983
  0
ARC
  8
_0-b_細線3
  6
CONTINUOUS
 62
    7
 10
972.46354127123709
 20
441.20227634853768
 40
2.6666666666666679
 50
269.99999999999977
 51
330.00000000000938
  0
ARC
  8
_0-b_細線3
  6
CONTINUOUS
 62
    7
 10
977.08234342475259
 20
438.53560968187207
 40
2.6666666666666679
 50
89.999999999999915
 51
149.99999999999389
  0
LINE
  8
_0-b_細線3
  6
CONTINUOUS
 62
    7
 10
971.21567676102927
 20
438.53560968187207
 11
972.46354127123709
 21
438.53560968187207
  0
ARC
  8
_0-b_細線3
  6
CONTINUOUS
 62
    7
 10
996.28234342181099
 20
435.86894301520488
 40
2.6666666666666679
 50
0
 51
89.999999999999915
  0
ARC
  8
_0-b_細線3
  6
CONTINUOUS
 62
    7
 10
995.03447891160465
 20
441.20227634853768
 40
2.6666666666666679
 50
209.99999999998988
 51
269.99999999999977
  0
ARC
  8
_0-b_細線3
  6
CONTINUOUS
 62
    7
 10
990.41567675808767
 20
438.53560968187207
 40
2.6666666666666679
 50
29.999999999990266
 51
89.999999999999929
  0
LINE
  8
_0-b_細線3
  6
CONTINUOUS
 62
    7
 10
996.28234342181099
 20
438.53560968187207
 11
995.03447891160465
 21
438.53560968187207
  0
ARC
  8
_0-b_細線3
  6
CONTINUOUS
 62
    7
 10
969.88234342769647
 20
432.13560968187198
 40
1.3333333333333339
 50
179.99999999999983
 51
269.99999999999977
  0
LINE
  8
_0-b_細線3
  6
CONTINUOUS
 62
    7
 10
968.54901009436367
 20
435.86894301520488
 11
968.54901009436367
 21
432.13560968187198
  0
ARC
  8
_0-b_細線3
  6
CONTINUOUS
 62
    7
 10
997.61567675514527
 20
432.13560968187198
 40
1.3333333333333339
 50
269.99999999999977
 51
359.99999999999966
  0
LINE
  8
_0-b_細線3
  6
CONTINUOUS
 62
    7
 10
998.94901008847808
 20
435.86894301520488
 11
998.94901008847808
 21
432.13560968187198
  0
ARC
  8
_0-b_細線3
  6
CONTINUOUS
 62
    7
 10
976.54901009436367
 20
428.13560968187198
 40
2.6666666666666679
 50
0
 51
89.999999999999915
  0
LINE
  8
_0-b_細線3
  6
CONTINUOUS
 62
    7
 10
976.54901009436367
 20
430.80227634853782
 11
969.88234342769647
 21
430.80227634853782
  0
ARC
  8
_0-b_細線3
  6
CONTINUOUS
 62
    7
 10
990.94901009436433
 20
428.13560968187198
 40
2.6666666666666679
 50
89.999999999999915
 51
179.99999999999983
  0
LINE
  8
_0-b_細線3
  6
CONTINUOUS
 62
    7
 10
990.94901008847808
 20
430.80227634853782
 11
997.61567675514527
 21
430.80227634853782
  0
LINE
  8
_0-b_細線3
  6
CONTINUOUS
 62
    7
 10
990.41567675808767
 20
441.20227634853768
 11
977.08234342475259
 21
441.20227634853768
  0
LINE
  8
_0-b_細線3
  6
CONTINUOUS
 62
    7
 10
979.21567675808694
 20
374.53560968187207
 11
979.21567676102927
 21
428.13560968187198
  0
LINE
  8
_0-b_細線3
  6
CONTINUOUS
 62
    7
 10
988.2823434247548
 20
374.53560968187207
 11
988.28234342769724
 21
428.13560968187198
  0
LINE
  8
_0-b_細線3
  6
CONTINUOUS
 62
    7
 10
988.2823434247548
 20
374.53560968187207
 11
979.21567675808694
 21
374.53560968187207
  0
ARC
  8
_0-b_細線3
  6
CONTINUOUS
 62
    7
 10
563.21567675381812
 20
435.86894301520488
 40
2.6666666666666679
 50
89.999999999999915
 51
179.99999999999983
  0
ARC
  8
_0-b_細線3
  6
CONTINUOUS
 62
    7
 10
564.46354126402514
 20
441.20227634853768
 40
2.6666666666666679
 50
269.99999999999977
 51
330.00000000000938
  0
ARC
  8
_0-b_細線3
  6
CONTINUOUS
 62
    7
 10
569.08234341754212
 20
438.53560968187207
 40
2.6666666666666679
 50
89.999999999999915
 51
150.00000000000975
  0
LINE
  8
_0-b_細線3
  6
CONTINUOUS
 62
    7
 10
563.21567675381812
 20
438.53560968187207
 11
564.46354126402514
 21
438.53560968187207
  0
ARC
  8
_0-b_細線3
  6
CONTINUOUS
 62
    7
 10
588.28234341459904
 20
435.86894301520488
 40
2.6666666666666679
 50
0
 51
89.999999999999915
  0
ARC
  8
_0-b_細線3
  6
CONTINUOUS
 62
    7
 10
587.0344789043927
 20
441.20227634853768
 40
2.6666666666666679
 50
209.99999999998255
 51
269.99999999999977
  0
ARC
  8
_0-b_細線3
  6
CONTINUOUS
 62
    7
 10
582.41567675087492
 20
438.53560968187207
 40
2.6666666666666679
 50
29.999999999989043
 51
89.999999999982904
  0
LINE
  8
_0-b_細線3
  6
CONTINUOUS
 62
    7
 10
588.28234341459904
 20
438.53560968187207
 11
587.0344789043927
 21
438.53560968187207
  0
ARC
  8
_0-b_細線3
  6
CONTINUOUS
 62
    7
 10
561.8823434204852
 20
432.13560968187198
 40
1.3333333333333339
 50
179.99999999999983
 51
269.99999999999977
  0
LINE
  8
_0-b_細線3
  6
CONTINUOUS
 62
    7
 10
560.54901008715171
 20
435.86894301520488
 11
560.54901008715171
 21
432.13560968187198
  0
ARC
  8
_0-b_細線3
  6
CONTINUOUS
 62
    7
 10
589.61567674793253
 20
432.13560968187198
 40
1.3333333333333339
 50
269.99999999999977
 51
359.99999999999966
  0
LINE
  8
_0-b_細線3
  6
CONTINUOUS
 62
    7
 10
590.94901008126612
 20
435.86894301520488
 11
590.94901008126612
 21
432.13560968187198
  0
ARC
  8
_0-b_細線3
  6
CONTINUOUS
 62
    7
 10
568.54901008715171
 20
428.13560968187198
 40
2.6666666666666679
 50
0
 51
89.999999999999915
  0
LINE
  8
_0-b_細線3
  6
CONTINUOUS
 62
    7
 10
568.54901008715171
 20
430.80227634853782
 11
561.8823434204852
 21
430.80227634853782
  0
ARC
  8
_0-b_細線3
  6
CONTINUOUS
 62
    7
 10
582.94901008715169
 20
428.13560968187198
 40
2.6666666666666679
 50
89.999999999999915
 51
179.99999999999983
  0
LINE
  8
_0-b_細線3
  6
CONTINUOUS
 62
    7
 10
582.94901008126544
 20
430.80227634853782
 11
589.61567674793253
 21
430.80227634853782
  0
LINE
  8
_0-b_細線3
  6
CONTINUOUS
 62
    7
 10
582.41567675087492
 20
441.20227634853768
 11
569.08234341754212
 21
441.20227634853768
  0
LINE
  8
_0-b_細線3
  6
CONTINUOUS
 62
    7
 10
571.21567675087567
 20
374.53560968187207
 11
571.21567675381812
 21
428.13560968187198
  0
LINE
  8
_0-b_細線3
  6
CONTINUOUS
 62
    7
 10
580.28234341754217
 20
374.53560968187207
 11
580.28234342048529
 21
428.13560968187198
  0
LINE
  8
_0-b_細線3
  6
CONTINUOUS
 62
    7
 10
580.28234341754217
 20
374.53560968187207
 11
571.21567675087567
 21
374.53560968187207
  0
ARC
  8
_0-b_細線3
  6
CONTINUOUS
 62
    7
 10
1016.5490100948213
 20
435.86894301520488
 40
2.6666666666666679
 50
89.999999999999915
 51
179.99999999999983
  0
ARC
  8
_0-b_細線3
  6
CONTINUOUS
 62
    7
 10
1017.7968746050288
 20
441.20227634853768
 40
2.6666666666666679
 50
269.99999999999977
 51
330.00000000001063
  0
ARC
  8
_0-b_細線3
  6
CONTINUOUS
 62
    7
 10
1022.4156767585447
 20
438.53560968187207
 40
2.6666666666666679
 50
89.999999999999915
 51
149.99999999999631
  0
LINE
  8
_0-b_細線3
  6
CONTINUOUS
 62
    7
 10
1016.5490100948213
 20
438.53560968187207
 11
1017.7968746050288
 21
438.53560968187207
  0
ARC
  8
_0-b_細線3
  6
CONTINUOUS
 62
    7
 10
1041.6156767556022
 20
435.86894301520488
 40
2.6666666666666679
 50
0
 51
89.999999999999915
  0
ARC
  8
_0-b_細線3
  6
CONTINUOUS
 62
    7
 10
1040.3678122453957
 20
441.20227634853768
 40
2.6666666666666679
 50
209.99999999998866
 51
269.99999999999977
  0
ARC
  8
_0-b_細線3
  6
CONTINUOUS
 62
    7
 10
1035.749010091879
 20
438.53560968187207
 40
2.6666666666666679
 50
29.999999999993928
 51
89.999999999999929
  0
LINE
  8
_0-b_細線3
  6
CONTINUOUS
 62
    7
 10
1041.6156767556022
 20
438.53560968187207
 11
1040.3678122453957
 21
438.53560968187207
  0
ARC
  8
_0-b_細線3
  6
CONTINUOUS
 62
    7
 10
1015.2156767614885
 20
432.13560968187198
 40
1.3333333333333339
 50
179.99999999999983
 51
269.99999999999977
  0
LINE
  8
_0-b_細線3
  6
CONTINUOUS
 62
    7
 10
1013.8823434281554
 20
435.86894301520488
 11
1013.8823434281554
 21
432.13560968187198
  0
ARC
  8
_0-b_細線3
  6
CONTINUOUS
 62
    7
 10
1042.9490100889366
 20
432.13560968187198
 40
1.3333333333333339
 50
269.99999999999977
 51
359.99999999999966
  0
LINE
  8
_0-b_細線3
  6
CONTINUOUS
 62
    7
 10
1044.2823434222692
 20
435.86894301520488
 11
1044.2823434222692
 21
432.13560968187198
  0
ARC
  8
_0-b_細線3
  6
CONTINUOUS
 62
    7
 10
1021.8823434281554
 20
428.13560968187198
 40
2.6666666666666679
 50
0
 51
89.999999999999915
  0
LINE
  8
_0-b_細線3
  6
CONTINUOUS
 62
    7
 10
1021.8823434281554
 20
430.80227634853782
 11
1015.2156767614885
 21
430.80227634853782
  0
ARC
  8
_0-b_細線3
  6
CONTINUOUS
 62
    7
 10
1036.2823434281554
 20
428.13560968187198
 40
2.6666666666666679
 50
89.999999999999915
 51
179.99999999999983
  0
LINE
  8
_0-b_細線3
  6
CONTINUOUS
 62
    7
 10
1036.2823434222692
 20
430.80227634853782
 11
1042.9490100889366
 21
430.80227634853782
  0
LINE
  8
_0-b_細線3
  6
CONTINUOUS
 62
    7
 10
1035.749010091879
 20
441.20227634853768
 11
1022.4156767585447
 21
441.20227634853768
  0
LINE
  8
_0-b_細線3
  6
CONTINUOUS
 62
    7
 10
1024.5490100918787
 20
374.53560968187207
 11
1024.5490100948214
 21
428.13560968187198
  0
LINE
  8
_0-b_細線3
  6
CONTINUOUS
 62
    7
 10
1033.6156767585458
 20
374.53560968187207
 11
1033.6156767614884
 21
428.13560968187198
  0
LINE
  8
_0-b_細線3
  6
CONTINUOUS
 62
    7
 10
1033.6156767585458
 20
374.53560968187207
 11
1024.5490100918787
 21
374.53560968187207
  0
ARC
  8
_0-b_細線3
  6
CONTINUOUS
 62
    7
 10
1061.8823434286123
 20
435.86894301520488
 40
2.6666666666666679
 50
89.999999999999915
 51
179.99999999999983
  0
ARC
  8
_0-b_細線3
  6
CONTINUOUS
 62
    7
 10
1063.1302079388201
 20
441.20227634853768
 40
2.6666666666666679
 50
269.99999999999977
 51
330.00000000001063
  0
ARC
  8
_0-b_細線3
  6
CONTINUOUS
 62
    7
 10
1067.7490100923374
 20
438.53560968187207
 40
2.6666666666666679
 50
89.999999999999915
 51
150.00000000001097
  0
LINE
  8
_0-b_細線3
  6
CONTINUOUS
 62
    7
 10
1061.8823434286123
 20
438.53560968187207
 11
1063.1302079388201
 21
438.53560968187207
  0
ARC
  8
_0-b_細線3
  6
CONTINUOUS
 62
    7
 10
1086.949010089395
 20
435.86894301520488
 40
2.6666666666666679
 50
0
 51
89.999999999999915
  0
ARC
  8
_0-b_細線3
  6
CONTINUOUS
 62
    7
 10
1085.7011455791871
 20
441.20227634853768
 40
2.6666666666666679
 50
209.99999999998866
 51
269.99999999999977
  0
ARC
  8
_0-b_細線3
  6
CONTINUOUS
 62
    7
 10
1081.0823434256699
 20
438.53560968187207
 40
2.6666666666666679
 50
29.999999999989043
 51
89.999999999999929
  0
LINE
  8
_0-b_細線3
  6
CONTINUOUS
 62
    7
 10
1086.949010089395
 20
438.53560968187207
 11
1085.7011455791871
 21
438.53560968187207
  0
ARC
  8
_0-b_細線3
  6
CONTINUOUS
 62
    7
 10
1060.5490100952798
 20
432.13560968187198
 40
1.3333333333333339
 50
179.99999999999983
 51
269.99999999999977
  0
LINE
  8
_0-b_細線3
  6
CONTINUOUS
 62
    7
 10
1059.2156767619467
 20
435.86894301520488
 11
1059.2156767619467
 21
432.13560968187198
  0
ARC
  8
_0-b_細線3
  6
CONTINUOUS
 62
    7
 10
1088.2823434227275
 20
432.13560968187198
 40
1.3333333333333339
 50
269.99999999999977
 51
359.99999999999966
  0
LINE
  8
_0-b_細線3
  6
CONTINUOUS
 62
    7
 10
1089.6156767560606
 20
435.86894301520488
 11
1089.6156767560606
 21
432.13560968187198
  0
ARC
  8
_0-b_細線3
  6
CONTINUOUS
 62
    7
 10
1067.2156767619467
 20
428.13560968187198
 40
2.6666666666666679
 50
0
 51
89.999999999999915
  0
LINE
  8
_0-b_細線3
  6
CONTINUOUS
 62
    7
 10
1067.2156767619467
 20
430.80227634853782
 11
1060.5490100952798
 21
430.80227634853782
  0
ARC
  8
_0-b_細線3
  6
CONTINUOUS
 62
    7
 10
1081.6156767619468
 20
428.13560968187198
 40
2.6666666666666679
 50
89.999999999999915
 51
179.99999999999983
  0
LINE
  8
_0-b_細線3
  6
CONTINUOUS
 62
    7
 10
1081.6156767560606
 20
430.80227634853782
 11
1088.2823434227275
 21
430.80227634853782
  0
LINE
  8
_0-b_細線3
  6
CONTINUOUS
 62
    7
 10
1081.0823434256699
 20
441.20227634853768
 11
1067.7490100923374
 21
441.20227634853768
  0
LINE
  8
_0-b_細線3
  6
CONTINUOUS
 62
    7
 10
1069.8823434256701
 20
374.53560968187207
 11
1069.8823434286123
 21
428.13560968187198
  0
LINE
  8
_0-b_細線3
  6
CONTINUOUS
 62
    7
 10
1078.9490100923372
 20
374.53560968187207
 11
1078.9490100952794
 21
428.13560968187198
  0
LINE
  8
_0-b_細線3
  6
CONTINUOUS
 62
    7
 10
1078.9490100923372
 20
374.53560968187207
 11
1069.8823434256701
 21
374.53560968187207
  0
ARC
  8
_0-b_細線3
  6
CONTINUOUS
 62
    7
 10
1107.2156767624037
 20
435.86894301520488
 40
2.6666666666666679
 50
89.999999999999915
 51
179.99999999999983
  0
ARC
  8
_0-b_細線3
  6
CONTINUOUS
 62
    7
 10
1108.4635412726116
 20
441.20227634853768
 40
2.6666666666666679
 50
269.99999999999977
 51
330.00000000000574
  0
ARC
  8
_0-b_細線3
  6
CONTINUOUS
 62
    7
 10
1113.0823434261283
 20
438.53560968187207
 40
2.6666666666666679
 50
89.999999999999915
 51
150.00000000001097
  0
LINE
  8
_0-b_細線3
  6
CONTINUOUS
 62
    7
 10
1107.2156767624037
 20
438.53560968187207
 11
1108.4635412726116
 21
438.53560968187207
  0
ARC
  8
_0-b_細線3
  6
CONTINUOUS
 62
    7
 10
1132.2823434231859
 20
435.86894301520488
 40
2.6666666666666679
 50
0
 51
89.999999999999915
  0
ARC
  8
_0-b_細線3
  6
CONTINUOUS
 62
    7
 10
1131.0344789129781
 20
441.20227634853768
 40
2.6666666666666679
 50
209.99999999999355
 51
269.99999999999977
  0
ARC
  8
_0-b_細線3
  6
CONTINUOUS
 62
    7
 10
1126.4156767594613
 20
438.53560968187207
 40
2.6666666666666679
 50
29.999999999989043
 51
89.999999999999929
  0
LINE
  8
_0-b_細線3
  6
CONTINUOUS
 62
    7
 10
1132.2823434231859
 20
438.53560968187207
 11
1131.0344789129781
 21
438.53560968187207
  0
ARC
  8
_0-b_細線3
  6
CONTINUOUS
 62
    7
 10
1105.8823434290707
 20
432.13560968187198
 40
1.3333333333333339
 50
179.99999999999983
 51
269.99999999999977
  0
LINE
  8
_0-b_細線3
  6
CONTINUOUS
 62
    7
 10
1104.5490100957381
 20
435.86894301520488
 11
1104.5490100957381
 21
432.13560968187198
  0
ARC
  8
_0-b_細線3
  6
CONTINUOUS
 62
    7
 10
1133.615676756519
 20
432.13560968187198
 40
1.3333333333333339
 50
269.99999999999977
 51
359.99999999999966
  0
LINE
  8
_0-b_細線3
  6
CONTINUOUS
 62
    7
 10
1134.9490100898515
 20
435.86894301520488
 11
1134.9490100898515
 21
432.13560968187198
  0
ARC
  8
_0-b_細線3
  6
CONTINUOUS
 62
    7
 10
1112.5490100957381
 20
428.13560968187198
 40
2.6666666666666679
 50
0
 51
89.999999999999915
  0
LINE
  8
_0-b_細線3
  6
CONTINUOUS
 62
    7
 10
1112.5490100957381
 20
430.80227634853782
 11
1105.8823434290707
 21
430.80227634853782
  0
ARC
  8
_0-b_細線3
  6
CONTINUOUS
 62
    7
 10
1126.9490100957378
 20
428.13560968187198
 40
2.6666666666666679
 50
89.999999999999915
 51
179.99999999999983
  0
LINE
  8
_0-b_細線3
  6
CONTINUOUS
 62
    7
 10
1126.9490100898515
 20
430.80227634853782
 11
1133.615676756519
 21
430.80227634853782
  0
LINE
  8
_0-b_細線3
  6
CONTINUOUS
 62
    7
 10
1126.4156767594613
 20
441.20227634853768
 11
1113.0823434261283
 21
441.20227634853768
  0
LINE
  8
_0-b_細線3
  6
CONTINUOUS
 62
    7
 10
1115.2156767594611
 20
374.53560968187207
 11
1115.2156767624037
 21
428.13560968187198
  0
LINE
  8
_0-b_細線3
  6
CONTINUOUS
 62
    7
 10
1124.2823434261286
 20
374.53560968187207
 11
1124.2823434290708
 21
428.13560968187198
  0
LINE
  8
_0-b_細線3
  6
CONTINUOUS
 62
    7
 10
1124.2823434261286
 20
374.53560968187207
 11
1115.2156767594611
 21
374.53560968187207
  0
ARC
  8
_0-b_細線3
  6
CONTINUOUS
 62
    7
 10
542.94901007938608
 20
435.86894301520488
 40
2.6666666666666679
 50
0
 51
89.999999999999915
  0
ARC
  8
_0-b_細線3
  6
CONTINUOUS
 62
    7
 10
541.70114556917906
 20
441.20227634853768
 40
2.6666666666666679
 50
209.99999999998988
 51
269.99999999999977
  0
ARC
  8
_0-b_細線3
  6
CONTINUOUS
 62
    7
 10
537.08234341566276
 20
438.53560968187207
 40
2.6666666666666679
 50
29.999999999997595
 51
89.999999999999929
  0
LINE
  8
_0-b_細線3
  6
CONTINUOUS
 62
    7
 10
542.94901007938608
 20
438.53560968187207
 11
541.70114556917906
 21
438.53560968187207
  0
ARC
  8
_0-b_細線3
  6
CONTINUOUS
 62
    7
 10
517.88234341860516
 20
435.86894301520488
 40
2.6666666666666679
 50
89.999999999999915
 51
179.99999999999983
  0
ARC
  8
_0-b_細線3
  6
CONTINUOUS
 62
    7
 10
519.13020792881218
 20
441.20227634853768
 40
2.6666666666666679
 50
269.99999999999977
 51
330.00000000000938
  0
ARC
  8
_0-b_細線3
  6
CONTINUOUS
 62
    7
 10
523.74901008232916
 20
438.53560968187207
 40
2.6666666666666679
 50
90.000000000014651
 51
150.00000000000975
  0
LINE
  8
_0-b_細線3
  6
CONTINUOUS
 62
    7
 10
517.88234341860516
 20
438.53560968187207
 11
519.13020792881218
 21
438.53560968187207
  0
ARC
  8
_0-b_細線3
  6
CONTINUOUS
 62
    7
 10
544.28234341271957
 20
432.13560968187198
 40
1.3333333333333339
 50
269.99999999999977
 51
359.99999999999966
  0
LINE
  8
_0-b_細線3
  6
CONTINUOUS
 62
    7
 10
545.61567674605249
 20
435.86894301520488
 11
545.61567674605249
 21
432.13560968187198
  0
ARC
  8
_0-b_細線3
  6
CONTINUOUS
 62
    7
 10
516.54901008527156
 20
432.13560968187198
 40
1.3333333333333339
 50
179.99999999999983
 51
269.99999999999977
  0
LINE
  8
_0-b_細線3
  6
CONTINUOUS
 62
    7
 10
515.21567675193876
 20
435.86894301520488
 11
515.21567675193876
 21
432.13560968187198
  0
ARC
  8
_0-b_細線3
  6
CONTINUOUS
 62
    7
 10
537.61567674605249
 20
428.13560968187198
 40
2.6666666666666679
 50
89.999999999999915
 51
179.99999999999983
  0
LINE
  8
_0-b_細線3
  6
CONTINUOUS
 62
    7
 10
537.61567674605249
 20
430.80227634853782
 11
544.28234341271957
 21
430.80227634853782
  0
ARC
  8
_0-b_細線3
  6
CONTINUOUS
 62
    7
 10
523.21567674605251
 20
428.13560968187198
 40
2.6666666666666679
 50
0
 51
89.999999999999915
  0
LINE
  8
_0-b_細線3
  6
CONTINUOUS
 62
    7
 10
523.21567675193876
 20
430.80227634853782
 11
516.54901008527156
 21
430.80227634853782
  0
LINE
  8
_0-b_細線3
  6
CONTINUOUS
 62
    7
 10
523.74901008232916
 20
441.20227634853768
 11
537.08234341566276
 21
441.20227634853768
  0
LINE
  8
_0-b_細線3
  6
CONTINUOUS
 62
    7
 10
534.94901008232921
 20
374.53560968187207
 11
534.94901007938608
 21
428.13560968187198
  0
LINE
  8
_0-b_細線3
  6
CONTINUOUS
 62
    7
 10
525.88234341566204
 20
374.53560968187207
 11
525.88234341271891
 21
428.13560968187198
  0
LINE
  8
_0-b_細線3
  6
CONTINUOUS
 62
    7
 10
525.88234341566204
 20
374.53560968187207
 11
534.94901008232921
 21
374.53560968187207
  0
ARC
  8
_0-b_細線3
  6
CONTINUOUS
 62
    7
 10
497.61567674559478
 20
435.86894301520488
 40
2.6666666666666679
 50
0
 51
89.999999999999915
  0
ARC
  8
_0-b_細線3
  6
CONTINUOUS
 62
    7
 10
496.36781223538787
 20
441.20227634853768
 40
2.6666666666666679
 50
209.99999999998929
 51
269.99999999999977
  0
ARC
  8
_0-b_細線3
  6
CONTINUOUS
 62
    7
 10
491.74901008187112
 20
438.53560968187207
 40
2.6666666666666679
 50
29.999999999993928
 51
89.999999999999929
  0
LINE
  8
_0-b_細線3
  6
CONTINUOUS
 62
    7
 10
497.61567674559478
 20
438.53560968187207
 11
496.36781223538787
 21
438.53560968187207
  0
ARC
  8
_0-b_細線3
  6
CONTINUOUS
 62
    7
 10
472.54901008481352
 20
435.86894301520488
 40
2.6666666666666679
 50
89.999999999999915
 51
179.99999999999983
  0
ARC
  8
_0-b_細線3
  6
CONTINUOUS
 62
    7
 10
473.79687459502054
 20
441.20227634853768
 40
2.6666666666666679
 50
269.99999999999977
 51
330.00000000000938
  0
ARC
  8
_0-b_細線3
  6
CONTINUOUS
 62
    7
 10
478.41567674853763
 20
438.53560968187207
 40
2.6666666666666679
 50
90.000000000009777
 51
150.00000000001097
  0
LINE
  8
_0-b_細線3
  6
CONTINUOUS
 62
    7
 10
472.54901008481352
 20
438.53560968187207
 11
473.79687459502054
 21
438.53560968187207
  0
ARC
  8
_0-b_細線3
  6
CONTINUOUS
 62
    7
 10
498.94901007892804
 20
432.13560968187198
 40
1.3333333333333339
 50
269.99999999999977
 51
359.99999999999966
  0
LINE
  8
_0-b_細線3
  6
CONTINUOUS
 62
    7
 10
500.28234341226118
 20
435.86894301520488
 11
500.28234341226118
 21
432.13560968187198
  0
ARC
  8
_0-b_細線3
  6
CONTINUOUS
 62
    7
 10
471.21567675148026
 20
432.13560968187198
 40
1.3333333333333339
 50
179.99999999999983
 51
269.99999999999977
  0
LINE
  8
_0-b_細線3
  6
CONTINUOUS
 62
    7
 10
469.88234341814712
 20
435.86894301520488
 11
469.88234341814712
 21
432.13560968187198
  0
ARC
  8
_0-b_細線3
  6
CONTINUOUS
 62
    7
 10
492.2823434122613
 20
428.13560968187198
 40
2.6666666666666679
 50
89.999999999999915
 51
179.99999999999983
  0
LINE
  8
_0-b_細線3
  6
CONTINUOUS
 62
    7
 10
492.2823434122613
 20
430.80227634853782
 11
498.94901007892804
 21
430.80227634853782
  0
ARC
  8
_0-b_細線3
  6
CONTINUOUS
 62
    7
 10
477.88234341226121
 20
428.13560968187198
 40
2.6666666666666679
 50
0
 51
89.999999999999915
  0
LINE
  8
_0-b_細線3
  6
CONTINUOUS
 62
    7
 10
477.88234341814746
 20
430.80227634853782
 11
471.21567675148026
 21
430.80227634853782
  0
LINE
  8
_0-b_細線3
  6
CONTINUOUS
 62
    7
 10
478.41567674853763
 20
441.20227634853768
 11
491.74901008187112
 21
441.20227634853768
  0
LINE
  8
_0-b_細線3
  6
CONTINUOUS
 62
    7
 10
489.61567674853757
 20
374.53560968187207
 11
489.61567674559478
 21
428.13560968187198
  0
LINE
  8
_0-b_細線3
  6
CONTINUOUS
 62
    7
 10
480.54901008187085
 20
374.53560968187207
 11
480.54901007892772
 21
428.13560968187198
  0
LINE
  8
_0-b_細線3
  6
CONTINUOUS
 62
    7
 10
480.54901008187085
 20
374.53560968187207
 11
489.61567674853757
 21
374.53560968187207
  0
ARC
  8
_0-b_細線3
  6
CONTINUOUS
 62
    7
 10
452.28234341180359
 20
435.86894301520488
 40
2.6666666666666679
 50
0
 51
89.999999999999915
  0
ARC
  8
_0-b_細線3
  6
CONTINUOUS
 62
    7
 10
451.03447890159657
 20
441.20227634853768
 40
2.6666666666666679
 50
209.99999999998988
 51
269.99999999999977
  0
ARC
  8
_0-b_細線3
  6
CONTINUOUS
 62
    7
 10
446.41567674807948
 20
438.53560968187207
 40
2.6666666666666679
 50
29.999999999989043
 51
89.999999999999929
  0
LINE
  8
_0-b_細線3
  6
CONTINUOUS
 62
    7
 10
452.28234341180359
 20
438.53560968187207
 11
451.03447890159657
 21
438.53560968187207
  0
ARC
  8
_0-b_細線3
  6
CONTINUOUS
 62
    7
 10
427.21567675102187
 20
435.86894301520488
 40
2.6666666666666679
 50
89.999999999999915
 51
179.99999999999983
  0
ARC
  8
_0-b_細線3
  6
CONTINUOUS
 62
    7
 10
428.46354126122901
 20
441.20227634853768
 40
2.6666666666666679
 50
269.99999999999977
 51
330.00000000000819
  0
ARC
  8
_0-b_細線3
  6
CONTINUOUS
 62
    7
 10
433.08234341474599
 20
438.53560968187207
 40
2.6666666666666679
 50
89.999999999999915
 51
150.00000000001097
  0
LINE
  8
_0-b_細線3
  6
CONTINUOUS
 62
    7
 10
427.21567675102187
 20
438.53560968187207
 11
428.46354126122901
 21
438.53560968187207
  0
ARC
  8
_0-b_細線3
  6
CONTINUOUS
 62
    7
 10
453.6156767451364
 20
432.13560968187198
 40
1.3333333333333339
 50
269.99999999999977
 51
359.99999999999966
  0
LINE
  8
_0-b_細線3
  6
CONTINUOUS
 62
    7
 10
454.94901007847
 20
435.86894301520488
 11
454.94901007847
 21
432.13560968187198
  0
ARC
  8
_0-b_細線3
  6
CONTINUOUS
 62
    7
 10
425.88234341768907
 20
432.13560968187198
 40
1.3333333333333339
 50
179.99999999999983
 51
269.99999999999977
  0
LINE
  8
_0-b_細線3
  6
CONTINUOUS
 62
    7
 10
424.54901008435559
 20
435.86894301520488
 11
424.54901008435559
 21
432.13560968187198
  0
ARC
  8
_0-b_細線3
  6
CONTINUOUS
 62
    7
 10
446.94901007847
 20
428.13560968187198
 40
2.6666666666666679
 50
89.999999999999915
 51
179.99999999999983
  0
LINE
  8
_0-b_細線3
  6
CONTINUOUS
 62
    7
 10
446.94901007847
 20
430.80227634853782
 11
453.6156767451364
 21
430.80227634853782
  0
ARC
  8
_0-b_細線3
  6
CONTINUOUS
 62
    7
 10
432.54901007847002
 20
428.13560968187198
 40
2.6666666666666679
 50
0
 51
89.999999999999915
  0
LINE
  8
_0-b_細線3
  6
CONTINUOUS
 62
    7
 10
432.54901008435627
 20
430.80227634853782
 11
425.88234341768907
 21
430.80227634853782
  0
LINE
  8
_0-b_細線3
  6
CONTINUOUS
 62
    7
 10
433.08234341474599
 20
441.20227634853768
 11
446.41567674807948
 21
441.20227634853768
  0
LINE
  8
_0-b_細線3
  6
CONTINUOUS
 62
    7
 10
444.28234341474604
 20
374.53560968187207
 11
444.28234341180359
 21
428.13560968187198
  0
LINE
  8
_0-b_細線3
  6
CONTINUOUS
 62
    7
 10
435.21567674807955
 20
374.53560968187207
 11
435.21567674513642
 21
428.13560968187198
  0
LINE
  8
_0-b_細線3
  6
CONTINUOUS
 62
    7
 10
435.21567674807955
 20
374.53560968187207
 11
444.28234341474604
 21
374.53560968187207
  0
ARC
  8
_0-b_細線3
  6
CONTINUOUS
 62
    7
 10
1152.0156767628619
 20
435.86894301520488
 40
2.6666666666666679
 50
89.999999999999915
 51
179.99999999999983
  0
ARC
  8
_0-b_細線3
  6
CONTINUOUS
 62
    7
 10
1153.2635412730697
 20
441.20227634853768
 40
2.6666666666666679
 50
269.99999999999977
 51
330.00000000001063
  0
ARC
  8
_0-b_細線3
  6
CONTINUOUS
 62
    7
 10
1157.8823434265855
 20
438.53560968187207
 40
2.6666666666666679
 50
89.999999999999915
 51
149.99999999999631
  0
LINE
  8
_0-b_細線3
  6
CONTINUOUS
 62
    7
 10
1152.0156767628619
 20
438.53560968187207
 11
1153.2635412730697
 21
438.53560968187207
  0
ARC
  8
_0-b_細線3
  6
CONTINUOUS
 62
    7
 10
1177.0823434236431
 20
435.86894301520488
 40
2.6666666666666679
 50
0
 51
89.999999999999915
  0
ARC
  8
_0-b_細線3
  6
CONTINUOUS
 62
    7
 10
1175.8344789134367
 20
441.20227634853768
 40
2.6666666666666679
 50
209.99999999998866
 51
269.99999999999977
  0
ARC
  8
_0-b_細線3
  6
CONTINUOUS
 62
    7
 10
1171.2156767599195
 20
438.53560968187207
 40
2.6666666666666679
 50
29.999999999989043
 51
89.999999999999929
  0
LINE
  8
_0-b_細線3
  6
CONTINUOUS
 62
    7
 10
1177.0823434236431
 20
438.53560968187207
 11
1175.8344789134367
 21
438.53560968187207
  0
ARC
  8
_0-b_細線3
  6
CONTINUOUS
 62
    7
 10
1150.6823434295293
 20
432.13560968187198
 40
1.3333333333333339
 50
179.99999999999983
 51
269.99999999999977
  0
LINE
  8
_0-b_細線3
  6
CONTINUOUS
 62
    7
 10
1149.3490100961963
 20
435.86894301520488
 11
1149.3490100961963
 21
432.13560968187198
  0
ARC
  8
_0-b_細線3
  6
CONTINUOUS
 62
    7
 10
1178.4156767569771
 20
432.13560968187198
 40
1.3333333333333339
 50
269.99999999999977
 51
359.99999999999966
  0
LINE
  8
_0-b_細線3
  6
CONTINUOUS
 62
    7
 10
1179.7490100903101
 20
435.86894301520488
 11
1179.7490100903101
 21
432.13560968187198
  0
ARC
  8
_0-b_細線3
  6
CONTINUOUS
 62
    7
 10
1157.3490100961963
 20
428.13560968187198
 40
2.6666666666666679
 50
0
 51
89.999999999999915
  0
LINE
  8
_0-b_細線3
  6
CONTINUOUS
 62
    7
 10
1157.3490100961963
 20
430.80227634853782
 11
1150.6823434295293
 21
430.80227634853782
  0
ARC
  8
_0-b_細線3
  6
CONTINUOUS
 62
    7
 10
1171.7490100961963
 20
428.13560968187198
 40
2.6666666666666679
 50
89.999999999999915
 51
179.99999999999983
  0
LINE
  8
_0-b_細線3
  6
CONTINUOUS
 62
    7
 10
1171.7490100903101
 20
430.80227634853782
 11
1178.4156767569771
 21
430.80227634853782
  0
LINE
  8
_0-b_細線3
  6
CONTINUOUS
 62
    7
 10
1171.2156767599195
 20
441.20227634853768
 11
1157.8823434265855
 21
441.20227634853768
  0
LINE
  8
_0-b_細線3
  6
CONTINUOUS
 62
    7
 10
1160.0156767599196
 20
374.53560968187207
 11
1160.0156767628619
 21
428.13560968187198
  0
LINE
  8
_0-b_細線3
  6
CONTINUOUS
 62
    7
 10
1169.0823434265867
 20
374.53560968187207
 11
1169.0823434295294
 21
428.13560968187198
  0
LINE
  8
_0-b_細線3
  6
CONTINUOUS
 62
    7
 10
1169.0823434265867
 20
374.53560968187207
 11
1160.0156767599196
 21
374.53560968187207
  0
ARC
  8
_0-b_細線3
  6
CONTINUOUS
 62
    7
 10
382.41567675285432
 20
435.86894301520488
 40
2.6666666666666679
 50
89.999999999999915
 51
179.99999999999983
  0
ARC
  8
_0-b_細線3
  6
CONTINUOUS
 62
    7
 10
383.66354126306067
 20
441.20227634853768
 40
2.6666666666666679
 50
269.99999999999977
 51
330.00000000000938
  0
ARC
  8
_0-b_細線3
  6
CONTINUOUS
 62
    7
 10
388.28234341657776
 20
438.53560968187207
 40
2.6666666666666679
 50
89.999999999999915
 51
150.00000000001097
  0
LINE
  8
_0-b_細線3
  6
CONTINUOUS
 62
    7
 10
382.41567675285432
 20
438.53560968187207
 11
383.66354126306067
 21
438.53560968187207
  0
ARC
  8
_0-b_細線3
  6
CONTINUOUS
 62
    7
 10
407.48234341363536
 20
435.86894301520488
 40
2.6666666666666679
 50
0
 51
89.999999999999915
  0
ARC
  8
_0-b_細線3
  6
CONTINUOUS
 62
    7
 10
406.23447890342823
 20
441.20227634853768
 40
2.6666666666666679
 50
209.99999999999051
 51
269.99999999999977
  0
ARC
  8
_0-b_細線3
  6
CONTINUOUS
 62
    7
 10
401.61567674991124
 20
438.53560968187207
 40
2.6666666666666679
 50
29.999999999989043
 51
89.999999999999929
  0
LINE
  8
_0-b_細線3
  6
CONTINUOUS
 62
    7
 10
407.48234341363536
 20
438.53560968187207
 11
406.23447890342823
 21
438.53560968187207
  0
ARC
  8
_0-b_細線3
  6
CONTINUOUS
 62
    7
 10
381.08234341952084
 20
432.13560968187198
 40
1.3333333333333339
 50
179.99999999999983
 51
269.99999999999977
  0
LINE
  8
_0-b_細線3
  6
CONTINUOUS
 62
    7
 10
379.74901008618724
 20
435.86894301520488
 11
379.74901008618724
 21
432.13560968187198
  0
ARC
  8
_0-b_細線3
  6
CONTINUOUS
 62
    7
 10
408.81567674696885
 20
432.13560968187198
 40
1.3333333333333339
 50
269.99999999999977
 51
359.99999999999966
  0
LINE
  8
_0-b_細線3
  6
CONTINUOUS
 62
    7
 10
410.14901008030165
 20
435.86894301520488
 11
410.14901008030165
 21
432.13560968187198
  0
ARC
  8
_0-b_細線3
  6
CONTINUOUS
 62
    7
 10
387.74901008618724
 20
428.13560968187198
 40
2.6666666666666679
 50
0
 51
89.999999999999915
  0
LINE
  8
_0-b_細線3
  6
CONTINUOUS
 62
    7
 10
387.74901008618724
 20
430.80227634853782
 11
381.08234341952084
 21
430.80227634853782
  0
ARC
  8
_0-b_細線3
  6
CONTINUOUS
 62
    7
 10
402.1490100861879
 20
428.13560968187198
 40
2.6666666666666679
 50
89.999999999999915
 51
179.99999999999983
  0
LINE
  8
_0-b_細線3
  6
CONTINUOUS
 62
    7
 10
402.14901008030165
 20
430.80227634853782
 11
408.81567674696885
 21
430.80227634853782
  0
LINE
  8
_0-b_細線3
  6
CONTINUOUS
 62
    7
 10
401.61567674991124
 20
441.20227634853768
 11
388.28234341657776
 21
441.20227634853768
  0
LINE
  8
_0-b_細線3
  6
CONTINUOUS
 62
    7
 10
390.4156767499112
 20
374.53560968187207
 11
390.41567675285432
 21
428.13560968187198
  0
LINE
  8
_0-b_細線3
  6
CONTINUOUS
 62
    7
 10
399.48234341657769
 20
374.53560968187207
 11
399.48234341952082
 21
428.13560968187198
  0
LINE
  8
_0-b_細線3
  6
CONTINUOUS
 62
    7
 10
399.48234341657769
 20
374.53560968187207
 11
390.4156767499112
 21
374.53560968187207
  0
LINE
  8
_0-d_寸法3
  6
CONTINUOUS
 62
    7
 10
743.97591071181262
 20
383.71283266348883
 11
687.75142320989153
 21
423.0816426443115
  0
LINE
  8
_0-d_寸法3
  6
CONTINUOUS
 62
    7
 10
694.30463956420351
 20
418.49303115350313
 11
690.16353484256319
 21
433.94784437412824
  0
LINE
  8
_0-d_寸法3
  6
CONTINUOUS
 62
    7
 10
694.30463956420351
 20
418.49303115350313
 11
698.44574428584383
 21
433.94784437412824
  0
LINE
  8
_0-d_寸法3
  6
CONTINUOUS
 62
    7
 10
743.97591071181262
 20
450.3794993301554
 11
687.75142320989164
 21
489.74830931097875
  0
LINE
  8
_0-d_寸法3
  6
CONTINUOUS
 62
    7
 10
694.30463956420351
 20
485.15969782017032
 11
698.44574428584372
 21
469.70488459954521
  0
LINE
  8
_0-d_寸法3
  6
CONTINUOUS
 62
    7
 10
694.30463956420351
 20
485.15969782017032
 11
690.16353484256308
 21
469.70488459954527
  0
LINE
  8
_0-d_寸法3
  6
CONTINUOUS
 62
    7
 10
694.30463956420351
 20
418.49303115350313
 11
694.30463956420351
 21
485.15969782017032
  0
TEXT
  8
_0-d_寸法3
 62
    7
 10
694.30463956420351
 20
439.82636448683593
 40
24
 41
1
 50
90
  1
25
  0
LINE
  8
_0-a_極細3
  6
CONTINUOUS
 62
    7
 10
296.59156760099359
 20
286.34633154187736
 11
288.38308416117718
 21
308.89895444073977
  0
LINE
  8
_0-a_極細3
  6
CONTINUOUS
 62
    7
 10
376.58203587906792
 20
341.00074755953364
 11
384.79051931888353
 21
318.44812466067128
  0
LINE
  8
_0-a_極細3
  6
CONTINUOUS
 62
    7
 10
288.38308416117718
 20
308.89895444073977
 11
376.58203587906792
 21
341.00074755953364
  0
LINE
  8
_0-a_極細3
  6
CONTINUOUS
 62
    7
 10
296.59156760099359
 20
286.34633154187736
 11
384.79051931888353
 21
318.44812466067128
  0
LINE
  8
_0-a_極細3
  6
CENTER1
 62
    7
 10
284.55863245389696
 20
294.73683492726104
 11
387.0082652260021
 21
332.02545170331695
  0
LINE
  8
_0-a_極細3
  6
CONTINUOUS
 62
    7
 10
326.41567675377007
 20
246.53560968187207
 11
326.41567675377007
 21
317.07250783917743
  0
LINE
  8
_0-a_極細3
  6
CONTINUOUS
 62
    7
 10
326.41567675377007
 20
317.07250783917743
 11
302.41567675377007
 21
317.07250783917743
  0
LINE
  8
_0-a_極細3
  6
CONTINUOUS
 62
    7
 10
302.41567675377007
 20
317.07250783917743
 11
302.41567675377007
 21
246.53560968187207
  0
LINE
  8
_0-a_極細3
  6
CENTER1
 62
    7
 10
314.41567675377007
 20
233.29282522674748
 11
314.41567675377007
 21
323.91366010255274
  0
LINE
  8
_0-a_極細3
  6
CONTINUOUS
 62
    7
 10
1262.9064525732128
 20
286.34633154187736
 11
1271.1149360130294
 21
308.89895444073977
  0
LINE
  8
_0-a_極細3
  6
CONTINUOUS
 62
    7
 10
1182.9159842951399
 20
341.00074755953364
 11
1174.7075008553234
 21
318.44812466067128
  0
LINE
  8
_0-a_極細3
  6
CONTINUOUS
 62
    7
 10
1271.1149360130294
 20
308.89895444073977
 11
1182.9159842951399
 21
341.00074755953364
  0
LINE
  8
_0-a_極細3
  6
CONTINUOUS
 62
    7
 10
1262.9064525732128
 20
286.34633154187736
 11
1174.7075008553234
 21
318.44812466067128
  0
LINE
  8
_0-a_極細3
  6
CENTER1
 62
    7
 10
1274.9393877203097
 20
294.73683492726104
 11
1172.4897549482048
 21
332.02545170331695
  0
LINE
  8
_0-a_極細3
  6
CONTINUOUS
 62
    7
 10
1233.0823434204372
 20
246.53560968187207
 11
1233.0823434204372
 21
317.07250783917743
  0
LINE
  8
_0-a_極細3
  6
CONTINUOUS
 62
    7
 10
1257.0823434204372
 20
317.07250783917743
 11
1257.0823434204372
 21
246.53560968187207
  0
LINE
  8
_0-a_極細3
  6
CENTER1
 62
    7
 10
1245.0823434204372
 20
233.29282522674748
 11
1245.0823434204372
 21
323.91366010255274
  0
LINE
  8
_0-a_極細3
  6
CONTINUOUS
 62
    7
 10
1233.0823434204372
 20
317.07250783917743
 11
1257.0823434204372
 21
317.07250783917743
  0
CIRCLE
  8
_0-a_極細3
  6
CONTINUOUS
 62
    7
 10
1270.8219858212656
 20
326.37958486704792
 40
0.884938271604915
  0
CIRCLE
  8
_0-a_極細3
  6
CONTINUOUS
 62
    7
 10
1239.4619858212668
 20
335.33958486704699
 40
0.884938271604915
  0
TEXT
  8
_0-7_枠細線
 62
    5
 10
699.87373386432955
 20
171.57593081408686
 40
40
 41
0.8
 50
0
  1
断面詳細図
  0
LINE
  8
_0-b_細線3
  6
CONTINUOUS
 62
    7
 10
852.28234342383803
 20
394.00227634853923
 11
888.54901009050445
 21
394.00227634853923
  0
LINE
  8
_0-b_細線3
  6
CONTINUOUS
 62
    7
 10
806.9490100895398
 20
394.00227634853923
 11
843.21567675620622
 21
394.00227634853923
  0
LINE
  8
_0-b_細線3
  6
CONTINUOUS
 62
    7
 10
716.28234342094379
 20
394.00227634853923
 11
752.54901008761021
 21
394.00227634853923
  0
LINE
  8
_0-b_細線3
  6
CONTINUOUS
 62
    7
 10
670.94901008664601
 20
394.00227634853923
 11
707.21567675331244
 21
394.00227634853923
  0
LINE
  8
_0-b_細線3
  6
CONTINUOUS
 62
    7
 10
625.61567675234687
 20
394.00227634853923
 11
661.88234341901409
 21
394.00227634853923
  0
LINE
  8
_0-b_細線3
  6
CONTINUOUS
 62
    7
 10
897.61567675762853
 20
394.00227634853923
 11
933.88234342429564
 21
394.00227634853923
  0
LINE
  8
_0-b_細線3
  6
CONTINUOUS
 62
    7
 10
942.9490100919262
 20
394.00227634853923
 11
979.2156767585933
 21
394.00227634853923
  0
LINE
  8
_0-b_細線3
  6
CONTINUOUS
 62
    7
 10
580.28234341901327
 20
394.00227634853923
 11
616.54901008568049
 21
394.00227634853923
  0
LINE
  8
_0-b_細線3
  6
CONTINUOUS
 62
    7
 10
988.28234342571955
 20
394.00227634853923
 11
1024.5490100923853
 21
394.00227634853923
  0
LINE
  8
_0-b_細線3
  6
CONTINUOUS
 62
    7
 10
1033.6156767595107
 20
394.00227634853923
 11
1069.8823434261781
 21
394.00227634853923
  0
LINE
  8
_0-b_細線3
  6
CONTINUOUS
 62
    7
 10
1078.9490100933021
 20
394.00227634853923
 11
1115.215676759969
 21
394.00227634853923
  0
LINE
  8
_0-b_細線3
  6
CONTINUOUS
 62
    7
 10
571.21567674848882
 20
394.00227634853923
 11
534.94901008182205
 21
394.00227634853923
  0
LINE
  8
_0-b_細線3
  6
CONTINUOUS
 62
    7
 10
525.88234341469717
 20
394.00227634853923
 11
489.61567674803041
 21
394.00227634853923
  0
LINE
  8
_0-b_細線3
  6
CONTINUOUS
 62
    7
 10
480.54901008090599
 20
394.00227634853923
 11
444.28234341423877
 21
394.00227634853923
  0
LINE
  8
_0-b_細線3
  6
CONTINUOUS
 62
    7
 10
1124.2823434270931
 20
394.00227634853923
 11
1160.0156767604262
 21
394.00227634853923
  0
LINE
  8
_0-b_細線3
  6
CONTINUOUS
 62
    7
 10
435.21567674711468
 20
394.00227634853923
 11
399.48234341378111
 21
394.00227634853923
  0
LINE
  8
_0-b_細線3
  6
CONTINUOUS
 62
    7
 10
852.28234342383803
 20
428.66894301520574
 11
888.54901009050445
 21
428.66894301520574
  0
LINE
  8
_0-b_細線3
  6
CONTINUOUS
 62
    7
 10
806.9490100895398
 20
428.66894301520574
 11
843.21567675620622
 21
428.66894301520574
  0
LINE
  8
_0-b_細線3
  6
CONTINUOUS
 62
    7
 10
716.28234342094379
 20
428.66894301520574
 11
752.54901008761021
 21
428.66894301520574
  0
LINE
  8
_0-b_細線3
  6
CONTINUOUS
 62
    7
 10
670.94901008664601
 20
428.66894301520574
 11
707.21567675331244
 21
428.66894301520574
  0
LINE
  8
_0-b_細線3
  6
CONTINUOUS
 62
    7
 10
625.61567675234687
 20
428.66894301520574
 11
661.88234341901409
 21
428.66894301520574
  0
LINE
  8
_0-b_細線3
  6
CONTINUOUS
 62
    7
 10
897.61567675762853
 20
428.66894301520574
 11
933.88234342429564
 21
428.66894301520574
  0
LINE
  8
_0-b_細線3
  6
CONTINUOUS
 62
    7
 10
942.9490100919262
 20
428.66894301520574
 11
979.2156767585933
 21
428.66894301520574
  0
LINE
  8
_0-b_細線3
  6
CONTINUOUS
 62
    7
 10
580.28234341901327
 20
428.66894301520574
 11
616.54901008568049
 21
428.66894301520574
  0
LINE
  8
_0-b_細線3
  6
CONTINUOUS
 62
    7
 10
988.28234342571955
 20
428.66894301520574
 11
1024.5490100923853
 21
428.66894301520574
  0
LINE
  8
_0-b_細線3
  6
CONTINUOUS
 62
    7
 10
1033.6156767595107
 20
428.66894301520574
 11
1069.8823434261781
 21
428.66894301520574
  0
LINE
  8
_0-b_細線3
  6
CONTINUOUS
 62
    7
 10
1078.9490100933021
 20
428.66894301520574
 11
1115.215676759969
 21
428.66894301520574
  0
LINE
  8
_0-b_細線3
  6
CONTINUOUS
 62
    7
 10
571.21567674848882
 20
428.66894301520574
 11
534.94901008182205
 21
428.66894301520574
  0
LINE
  8
_0-b_細線3
  6
CONTINUOUS
 62
    7
 10
525.88234341469717
 20
428.66894301520574
 11
489.61567674803041
 21
428.66894301520574
  0
LINE
  8
_0-b_細線3
  6
CONTINUOUS
 62
    7
 10
480.54901008090599
 20
428.66894301520574
 11
444.28234341423877
 21
428.66894301520574
  0
LINE
  8
_0-b_細線3
  6
CONTINUOUS
 62
    7
 10
1124.2823434270931
 20
428.66894301520574
 11
1160.0156767604262
 21
428.66894301520574
  0
LINE
  8
_0-b_細線3
  6
CONTINUOUS
 62
    7
 10
435.21567674711468
 20
428.66894301520574
 11
399.48234341378111
 21
428.66894301520574
  0
LINE
  8
_0-b_細線3
  6
CONTINUOUS
 62
    7
 10
761.61567675524202
 20
428.66894301520574
 11
772.81567665024863
 21
428.66894301520574
  0
LINE
  8
_0-b_細線3
  6
CONTINUOUS
 62
    7
 10
786.68234352395871
 20
428.66894301520574
 11
797.88234342190844
 21
428.66894301520574
  0
LINE
  8
_0-a_極細3
  6
CENTER1
 62
    7
 10
1190.0747828264007
 20
411.33560968187248
 11
363.7692888425056
 21
411.33560968187248
  0
ARC
  8
_0-b_細線3
  6
CONTINUOUS
 62
    7
 10
386.95768208177265
 20
394.53560968187321
 40
0.5333333333333335
 50
179.99999999999983
 51
269.99999999999977
  0
LINE
  8
_0-b_細線3
  6
CONTINUOUS
 62
    7
 10
390.41567674843986
 20
394.00227634853962
 11
386.95768208177265
 21
394.00227634853962
  0
ARC
  8
_0-b_細線3
  6
CONTINUOUS
 62
    7
 10
386.95768208177265
 20
428.1356096818725
 40
0.5333333333333335
 50
89.999999999999915
 51
179.99999999999983
  0
LINE
  8
_0-b_細線3
  6
CONTINUOUS
 62
    7
 10
390.41567674843986
 20
428.66894301520682
 11
386.95768208177265
 21
428.66894301520682
  0
LINE
  8
_0-b_細線3
  6
CONTINUOUS
 62
    7
 10
386.42434874843866
 20
410.00227634853968
 11
386.42434874843866
 21
394.53560968187321
  0
LINE
  8
_0-b_細線3
  6
CONTINUOUS
 62
    7
 10
386.42434874843866
 20
428.1356096818725
 11
386.42434874843866
 21
410.00227634853968
  0
LINE
  8
_0-b_細線3
  6
CONTINUOUS
 62
    7
 10
386.42434874843866
 20
411.33560968187248
 11
378.41230608177193
 21
411.33560968187248
  0
LINE
  8
_0-b_細線3
  6
CONTINUOUS
 62
    7
 10
386.42434874843866
 20
402.00227634854036
 11
378.41227408177338
 21
402.00227634854036
  0
ARC
  8
_0-b_細線3
  6
CONTINUOUS
 62
    7
 10
378.41227408177338
 20
402.53560968187321
 40
0.5333333333333335
 50
179.99999999999983
 51
269.99999999999977
  0
ARC
  8
_0-b_細線3
  6
CONTINUOUS
 62
    7
 10
398.56688741510561
 20
406.66855368187407
 40
20.687882666666667
 50
166.96197800000505
 51
193.03566999999961
  0
ARC
  8
_0-b_細線3
  6
CONTINUOUS
 62
    7
 10
378.41227408177338
 20
420.13560968187397
 40
0.5333333333333335
 50
89.999999999999915
 51
179.99999999999983
  0
ARC
  8
_0-b_細線3
  6
CONTINUOUS
 62
    7
 10
398.56688741510561
 20
416.00266034853939
 40
20.687882666666667
 50
166.96433000000002
 51
193.03802199999842
  0
LINE
  8
_0-b_細線3
  6
CONTINUOUS
 62
    7
 10
386.42434874843866
 20
420.66894301520682
 11
378.41227408177338
 21
420.66894301520682
  0
LINE
  8
_0-b_細線3
  6
CONTINUOUS
 62
    7
 10
377.87894074843916
 20
402.53560968187321
 11
377.87894074843916
 21
420.13560968187397
  0
ARC
  8
_0-b_細線3
  6
CONTINUOUS
 62
    7
 10
1172.5403380924345
 20
394.53560968187321
 40
0.5333333333333335
 50
269.99999999999977
 51
359.99999999999966
  0
LINE
  8
_0-b_細線3
  6
CONTINUOUS
 62
    7
 10
1169.0823434257672
 20
394.00227634853962
 11
1172.5403380924345
 21
394.00227634853962
  0
ARC
  8
_0-b_細線3
  6
CONTINUOUS
 62
    7
 10
1172.5403380924345
 20
428.1356096818725
 40
0.5333333333333335
 50
0
 51
89.999999999999915
  0
LINE
  8
_0-b_細線3
  6
CONTINUOUS
 62
    7
 10
1169.0823434257672
 20
428.66894301520682
 11
1172.5403380924345
 21
428.66894301520682
  0
LINE
  8
_0-b_細線3
  6
CONTINUOUS
 62
    7
 10
1173.0736714257687
 20
410.00227634853968
 11
1173.0736714257687
 21
394.53560968187321
  0
LINE
  8
_0-b_細線3
  6
CONTINUOUS
 62
    7
 10
1173.0736714257687
 20
428.1356096818725
 11
1173.0736714257687
 21
410.00227634853968
  0
LINE
  8
_0-b_細線3
  6
CONTINUOUS
 62
    7
 10
1173.0736714257687
 20
411.33560968187248
 11
1181.0857140924354
 21
411.33560968187248
  0
LINE
  8
_0-b_細線3
  6
CONTINUOUS
 62
    7
 10
1173.0736714257687
 20
402.00227634854036
 11
1181.085746092434
 21
402.00227634854036
  0
ARC
  8
_0-b_細線3
  6
CONTINUOUS
 62
    7
 10
1181.085746092434
 20
402.53560968187321
 40
0.5333333333333335
 50
269.99999999999977
 51
359.99999999999966
  0
ARC
  8
_0-b_細線3
  6
CONTINUOUS
 62
    7
 10
1160.9311327591017
 20
406.66855368187407
 40
20.687882666666667
 50
346.96432999999968
 51
13.038021999994573
  0
ARC
  8
_0-b_細線3
  6
CONTINUOUS
 62
    7
 10
1181.085746092434
 20
420.13560968187397
 40
0.5333333333333335
 50
0
 51
89.999999999999915
  0
ARC
  8
_0-b_細線3
  6
CONTINUOUS
 62
    7
 10
1160.9311327591017
 20
416.00266034853939
 40
20.687882666666667
 50
346.96197800000084
 51
13.035669999999625
  0
LINE
  8
_0-b_細線3
  6
CONTINUOUS
 62
    7
 10
1173.0736714257687
 20
420.66894301520682
 11
1181.085746092434
 21
420.66894301520682
  0
LINE
  8
_0-b_細線3
  6
CONTINUOUS
 62
    7
 10
1181.6190794257682
 20
402.53560968187321
 11
1181.6190794257682
 21
420.13560968187397
  0
LINE
  8
_0-b_細線3
  6
CONTINUOUS
 62
    7
 10
786.015676753771
 20
441.73625304135919
 11
786.015676753771
 21
388.40291970802485
  0
LINE
  8
_0-b_細線3
  6
CONTINUOUS
 62
    7
 10
773.48234342043679
 20
388.40291970802485
 11
773.48234342043679
 21
441.73625304135919
  0
LINE
  8
_0-b_細線3
  6
CONTINUOUS
 62
    7
 10
786.015676753771
 20
388.40291970802485
 11
773.48234342043679
 21
388.40291970802485
  0
LINE
  8
_0-b_細線3
  6
CONTINUOUS
 62
    7
 10
773.48234342043679
 20
441.73625304135919
 11
786.015676753771
 21
441.73625304135919
  0
LINE
  8
_0-b_細線3
  6
DASHED2
 62
    7
 10
773.48234342043679
 20
396.40291970802485
 11
786.015676753771
 21
396.40291970802485
  0
LINE
  8
_0-b_細線3
  6
DASHED2
 62
    7
 10
773.48234342043679
 20
433.73625304135919
 11
786.015676753771
 21
433.73625304135919
  0
LINE
  8
_0-b_細線3
  6
CONTINUOUS
 62
    7
 10
761.61567675480978
 20
394.00227634853923
 11
773.48234342043679
 21
394.00227634853923
  0
LINE
  8
_0-b_細線3
  6
CONTINUOUS
 62
    7
 10
786.015676753771
 20
394.00227634853923
 11
797.88234342190844
 21
394.00227634853923
  0
LINE
  8
_0-a_極細3
  6
CONTINUOUS
 62
    7
 10
366.41567675377007
 20
441.20227634853859
 11
210.39794798825312
 21
441.20227634853859
  0
LINE
  8
_0-a_極細3
  6
CONTINUOUS
 62
    7
 10
1193.0823434204372
 20
441.20227634853859
 11
1349.1000721859541
 21
441.20227634853859
  0
LINE
  8
_0-b_細線3
  6
CONTINUOUS
 62
    7
 10
366.41567675377007
 20
398.53560968187213
 11
366.41567675377007
 21
305.20227634853882
  0
LINE
  8
_0-b_細線3
  6
CONTINUOUS
 62
    7
 10
366.41567675377007
 20
305.20227634853882
 11
360.28234342043675
 21
305.20227634853882
  0
LINE
  8
_0-b_細線3
  6
CONTINUOUS
 62
    7
 10
360.28234342043675
 20
305.20227634853882
 11
360.28234342043675
 21
398.53560968187213
  0
LINE
  8
_0-b_細線3
  6
CONTINUOUS
 62
    7
 10
360.28234342043675
 20
398.53560968187213
 11
366.41567675377007
 21
398.53560968187213
  0
LINE
  8
_0-a_極細3
  6
CONTINUOUS
 62
    7
 10
360.28234342043675
 20
355.86894301520545
 11
366.41567675377007
 21
355.86894301520545
  0
LINE
  8
_0-a_極細3
  6
CONTINUOUS
 62
    7
 10
360.28234342043675
 20
361.20227634853887
 11
366.41567675377007
 21
361.20227634853887
  0
LINE
  8
_0-a_極細3
  6
CONTINUOUS
 62
    7
 10
360.28234342043675
 20
350.53560968187207
 11
366.41567675377007
 21
350.53560968187207
  0
LINE
  8
_0-a_極細3
  6
CONTINUOUS
 62
    7
 10
360.28234342043675
 20
366.53560968187207
 11
366.41567675377007
 21
366.53560968187207
  0
LINE
  8
_0-a_極細3
  6
CONTINUOUS
 62
    7
 10
366.41567675377007
 20
313.20227634853882
 11
360.28234342043675
 21
313.20227634853882
  0
LINE
  8
_0-a_極細3
  6
CONTINUOUS
 62
    7
 10
360.28234342043675
 20
393.20227634853887
 11
366.41567675377007
 21
393.20227634853887
  0
LINE
  8
_0-b_細線3
  6
CONTINUOUS
 62
    7
 10
1193.0823434204376
 20
398.53560968187213
 11
1193.0823434204376
 21
305.20227634853882
  0
LINE
  8
_0-b_細線3
  6
CONTINUOUS
 62
    7
 10
1193.0823434204376
 20
305.20227634853882
 11
1199.2156767537708
 21
305.20227634853882
  0
LINE
  8
_0-b_細線3
  6
CONTINUOUS
 62
    7
 10
1199.2156767537708
 20
305.20227634853882
 11
1199.2156767537708
 21
398.53560968187213
  0
LINE
  8
_0-b_細線3
  6
CONTINUOUS
 62
    7
 10
1199.2156767537708
 20
398.53560968187213
 11
1193.0823434204376
 21
398.53560968187213
  0
LINE
  8
_0-a_極細3
  6
CONTINUOUS
 62
    7
 10
1199.2156767537708
 20
355.86894301520545
 11
1193.0823434204376
 21
355.86894301520545
  0
LINE
  8
_0-a_極細3
  6
CONTINUOUS
 62
    7
 10
1199.2156767537708
 20
361.20227634853887
 11
1193.0823434204376
 21
361.20227634853887
  0
LINE
  8
_0-a_極細3
  6
CONTINUOUS
 62
    7
 10
1199.2156767537708
 20
350.53560968187207
 11
1193.0823434204376
 21
350.53560968187207
  0
LINE
  8
_0-a_極細3
  6
CONTINUOUS
 62
    7
 10
1199.2156767537708
 20
366.53560968187207
 11
1193.0823434204376
 21
366.53560968187207
  0
LINE
  8
_0-a_極細3
  6
CONTINUOUS
 62
    7
 10
1193.0823434204376
 20
313.20227634853882
 11
1199.2156767537708
 21
313.20227634853882
  0
LINE
  8
_0-a_極細3
  6
CONTINUOUS
 62
    7
 10
1199.2156767537708
 20
393.20227634853887
 11
1193.0823434204376
 21
393.20227634853887
  0
LINE
  8
_0-7_枠細線
  6
CONTINUOUS
 62
    5
 10
1227.9048236987664
 20
381.46892456177591
 11
1215.9048236987664
 21
405.46892456177591
  0
LINE
  8
_0-7_枠細線
  6
CONTINUOUS
 62
    5
 10
1203.9048236987664
 20
381.46892456177591
 11
1227.9048236987664
 21
381.46892456177591
  0
LINE
  8
_0-7_枠細線
  6
CONTINUOUS
 62
    5
 10
1215.9048236987664
 20
405.46892456177591
 11
1203.9048236987664
 21
381.46892456177591
  0
TEXT
  8
_0-7_枠細線
 62
    5
 10
1207.6890657278036
 20
379.95081261801607
 40
20
 41
0.8
 50
0
  1
５
  0
LINE
  8
_0-d_寸法3
  6
CONTINUOUS
 62
    7
 10
893.08234342333094
 20
457.20227634853768
 11
893.08234342333094
 21
529.20227634853768
  0
LINE
  8
_0-d_寸法3
  6
CONTINUOUS
 62
    7
 10
893.08234342333094
 20
521.20227634853768
 11
908.537156643956
 21
525.343381070178
  0
LINE
  8
_0-d_寸法3
  6
CONTINUOUS
 62
    7
 10
893.08234342333094
 20
521.20227634853768
 11
908.537156643956
 21
517.06117162689736
  0
LINE
  8
_0-d_寸法3
  6
CONTINUOUS
 62
    7
 10
938.41567675762849
 20
457.20227634853768
 11
938.41567675762849
 21
529.20227634853768
  0
LINE
  8
_0-d_寸法3
  6
CONTINUOUS
 62
    7
 10
938.41567675762849
 20
521.20227634853768
 11
922.96086353700343
 21
517.06117162689736
  0
LINE
  8
_0-d_寸法3
  6
CONTINUOUS
 62
    7
 10
938.41567675762849
 20
521.20227634853768
 11
922.96086353700343
 21
525.34338107017811
  0
LINE
  8
_0-d_寸法3
  6
CONTINUOUS
 62
    7
 10
893.08234342333094
 20
521.20227634853768
 11
938.41567675762849
 21
521.20227634853768
  0
TEXT
  8
_0-d_寸法3
 62
    7
 10
889.89944642231205
 20
497.20227634853768
 40
24
 41
1
 50
0
  1
(17)
  0
LINE
  8
_0-d_寸法3
  6
CONTINUOUS
 62
    7
 10
938.41567675762849
 20
521.20227634853768
 11
953.87048997825366
 21
525.34338107017788
  0
LINE
  8
_0-d_寸法3
  6
CONTINUOUS
 62
    7
 10
938.41567675762849
 20
521.20227634853768
 11
953.87048997825354
 21
517.06117162689725
  0
LINE
  8
_0-d_寸法3
  6
CONTINUOUS
 62
    7
 10
983.74901009192831
 20
457.20227634853768
 11
983.74901009192831
 21
529.20227634853768
  0
LINE
  8
_0-d_寸法3
  6
CONTINUOUS
 62
    7
 10
983.74901009192831
 20
521.20227634853768
 11
968.29419687130326
 21
517.06117162689736
  0
LINE
  8
_0-d_寸法3
  6
CONTINUOUS
 62
    7
 10
983.74901009192831
 20
521.20227634853768
 11
968.29419687130326
 21
525.34338107017811
  0
LINE
  8
_0-d_寸法3
  6
CONTINUOUS
 62
    7
 10
938.41567675762849
 20
521.20227634853768
 11
983.74901009192831
 21
521.20227634853768
  0
TEXT
  8
_0-d_寸法3
 62
    7
 10
938.53944642231147
 20
521.20227634853768
 40
24
 41
1
 50
0
  1
(17)
  0
LINE
  8
_0-d_寸法3
  6
CONTINUOUS
 62
    7
 10
590.94901008030206
 20
451.86894301520488
 11
590.94901008030206
 21
529.20227634853768
  0
LINE
  8
_0-d_寸法3
  6
CONTINUOUS
 62
    7
 10
590.94901008030206
 20
521.20227634853768
 11
575.494196859677
 21
517.06117162689736
  0
LINE
  8
_0-d_寸法3
  6
CONTINUOUS
 62
    7
 10
590.94901008030206
 20
521.20227634853768
 11
575.494196859677
 21
525.34338107017811
  0
LINE
  8
_0-d_寸法3
  6
CONTINUOUS
 62
    7
 10
605.882343420486
 20
451.86894301520488
 11
605.882343420486
 21
529.20227634853768
  0
LINE
  8
_0-d_寸法3
  6
CONTINUOUS
 62
    7
 10
527.95068098723482
 20
521.20227634853768
 11
605.882343420486
 21
521.20227634853768
  0
TEXT
  8
_0-d_寸法3
 62
    7
 10
527.95068098723493
 20
497.20227634853768
 40
24
 41
1
 50
0
  1
(5.6)
  0
LINE
  8
_0-d_寸法3
  6
CONTINUOUS
 62
    7
 10
605.882343420486
 20
521.20227634853768
 11
621.33715664111105
 21
525.343381070178
  0
LINE
  8
_0-d_寸法3
  6
CONTINUOUS
 62
    7
 10
605.882343420486
 20
521.20227634853768
 11
621.33715664111105
 21
517.06117162689736
  0
LINE
  8
_0-d_寸法3
  6
CONTINUOUS
 62
    7
 10
636.28234341459972
 20
451.86894301520488
 11
636.28234341459972
 21
529.20227634853768
  0
LINE
  8
_0-d_寸法3
  6
CONTINUOUS
 62
    7
 10
636.28234341459972
 20
521.20227634853768
 11
620.82753019397467
 21
517.06117162689736
  0
LINE
  8
_0-d_寸法3
  6
CONTINUOUS
 62
    7
 10
636.28234341459972
 20
521.20227634853768
 11
620.82753019397467
 21
525.34338107017811
  0
LINE
  8
_0-d_寸法3
  6
CONTINUOUS
 62
    7
 10
605.882343420486
 20
521.20227634853768
 11
636.28234341459972
 21
521.20227634853768
  0
TEXT
  8
_0-d_寸法3
 62
    7
 10
591.05882913538301
 20
521.20227634853768
 40
24
 41
1
 50
0
  1
11.4
  0
LINE
  8
_0-d_寸法3
  6
CONTINUOUS
 62
    7
 10
366.41567675377007
 20
449.20227634853859
 11
366.41567675377007
 21
641.20227634853768
  0
LINE
  8
_0-d_寸法3
  6
CONTINUOUS
 62
    7
 10
366.41567675377007
 20
633.20227634853768
 11
381.87048997439524
 21
637.343381070178
  0
LINE
  8
_0-d_寸法3
  6
CONTINUOUS
 62
    7
 10
366.41567675377007
 20
633.20227634853768
 11
381.87048997439524
 21
629.06117162689736
  0
LINE
  8
_0-d_寸法3
  6
CONTINUOUS
 62
    7
 10
1193.0823434204372
 20
449.20227634853859
 11
1193.0823434204372
 21
641.20227634853768
  0
LINE
  8
_0-d_寸法3
  6
CONTINUOUS
 62
    7
 10
1193.0823434204372
 20
633.20227634853768
 11
1177.6275301998121
 21
629.06117162689736
  0
LINE
  8
_0-d_寸法3
  6
CONTINUOUS
 62
    7
 10
1193.0823434204372
 20
633.20227634853768
 11
1177.6275301998121
 21
637.34338107017811
  0
LINE
  8
_0-d_寸法3
  6
CONTINUOUS
 62
    7
 10
366.41567675377007
 20
633.20227634853768
 11
1193.0823434204372
 21
633.20227634853768
  0
TEXT
  8
_0-d_寸法3
 62
    7
 10
761.74901008710367
 20
633.20227634853768
 40
24
 41
1
 50
0
  1
310
  0
CIRCLE
  8
_0-a_極細3
  6
CONTINUOUS
 62
    7
 10
1203.0649487842297
 20
225.78738820479293
 40
0.884938271604915
  0
LINE
  8
_0-d_寸法3
  6
CONTINUOUS
 62
    7
 10
446.41567675377007
 20
358.53560968187207
 11
446.41567675377007
 21
217.20227634853893
  0
LINE
  8
_0-d_寸法3
  6
CONTINUOUS
 62
    7
 10
446.41567675377007
 20
225.20227634853893
 11
461.87048997439524
 21
229.34338107017925
  0
LINE
  8
_0-d_寸法3
  6
CONTINUOUS
 62
    7
 10
446.41567675377007
 20
225.20227634853893
 11
461.87048997439524
 21
221.06117162689861
  0
LINE
  8
_0-d_寸法3
  6
CONTINUOUS
 62
    7
 10
1113.0823434204372
 20
358.53560968187207
 11
1113.0823434204372
 21
217.20227634853893
  0
LINE
  8
_0-d_寸法3
  6
CONTINUOUS
 62
    7
 10
1113.0823434204372
 20
225.20227634853893
 11
1097.6275301998121
 21
221.06117162689861
  0
LINE
  8
_0-d_寸法3
  6
CONTINUOUS
 62
    7
 10
1113.0823434204372
 20
225.20227634853893
 11
1097.6275301998121
 21
229.34338107017925
  0
LINE
  8
_0-d_寸法3
  6
CONTINUOUS
 62
    7
 10
446.41567675377007
 20
225.20227634853893
 11
1113.0823434204372
 21
225.20227634853893
  0
TEXT
  8
_0-d_寸法3
 62
    7
 10
761.74901008710367
 20
225.20227634853893
 40
24
 41
1
 50
0
  1
250
  0
LINE
  8
_0-d_寸法3
  6
CONTINUOUS
 62
    7
 10
366.41567675376996
 20
289.20227634853927
 11
366.41567675376905
 21
217.20227634853893
  0
LINE
  8
_0-d_寸法3
  6
CONTINUOUS
 62
    7
 10
366.41567675376916
 20
225.20227634853893
 11
381.87048997439433
 21
229.34338107017925
  0
LINE
  8
_0-d_寸法3
  6
CONTINUOUS
 62
    7
 10
366.41567675376916
 20
225.20227634853893
 11
381.87048997439433
 21
221.06117162689861
  0
LINE
  8
_0-d_寸法3
  6
CONTINUOUS
 62
    7
 10
446.41567675376996
 20
350.53560968187207
 11
446.41567675376859
 21
217.20227634853882
  0
LINE
  8
_0-d_寸法3
  6
CONTINUOUS
 62
    7
 10
446.41567675376859
 20
225.20227634853882
 11
430.96086353314354
 21
221.06117162689861
  0
LINE
  8
_0-d_寸法3
  6
CONTINUOUS
 62
    7
 10
446.41567675376859
 20
225.20227634853882
 11
430.96086353314354
 21
229.34338107017925
  0
LINE
  8
_0-d_寸法3
  6
CONTINUOUS
 62
    7
 10
366.41567675376916
 20
225.20227634853893
 11
446.41567675376859
 21
225.20227634853882
  0
TEXT
  8
_0-d_寸法3
 62
    7
 10
394.41567675376882
 20
225.20227634853882
 40
24
 41
1
 50
0
  1
30
  0
LINE
  8
_0-d_寸法3
  6
CONTINUOUS
 62
    7
 10
1193.0823434204372
 20
289.20227634853927
 11
1193.0823434204372
 21
217.20227634853893
  0
LINE
  8
_0-d_寸法3
  6
CONTINUOUS
 62
    7
 10
1193.0823434204372
 20
225.20227634853893
 11
1177.6275301998121
 21
221.06117162689861
  0
LINE
  8
_0-d_寸法3
  6
CONTINUOUS
 62
    7
 10
1193.0823434204372
 20
225.20227634853893
 11
1177.6275301998121
 21
229.34338107017925
  0
LINE
  8
_0-d_寸法3
  6
CONTINUOUS
 62
    7
 10
1113.0823434204374
 20
350.53560968187207
 11
1113.0823434204397
 21
217.20227634853893
  0
LINE
  8
_0-d_寸法3
  6
CONTINUOUS
 62
    7
 10
1113.0823434204394
 20
225.20227634853893
 11
1128.5371566410645
 21
229.34338107017925
  0
LINE
  8
_0-d_寸法3
  6
CONTINUOUS
 62
    7
 10
1113.0823434204394
 20
225.20227634853893
 11
1128.5371566410645
 21
221.06117162689861
  0
LINE
  8
_0-d_寸法3
  6
CONTINUOUS
 62
    7
 10
1193.0823434204372
 20
225.20227634853893
 11
1113.0823434204394
 21
225.20227634853893
  0
TEXT
  8
_0-d_寸法3
 62
    7
 10
1141.0823434204376
 20
225.20227634853893
 40
24
 41
1
 50
0
  1
30
  0
LINE
  8
_0-d_寸法3
  6
CONTINUOUS
 62
    7
 10
350.41567675377041
 20
366.53560968187213
 11
272.28234342043675
 21
366.53560968187207
  0
LINE
  8
_0-d_寸法3
  6
CONTINUOUS
 62
    7
 10
280.28234342043675
 20
366.53560968187207
 11
284.42344814207706
 21
351.08079646124696
  0
LINE
  8
_0-d_寸法3
  6
CONTINUOUS
 62
    7
 10
280.28234342043675
 20
366.53560968187207
 11
276.14123869879643
 21
351.08079646124702
  0
LINE
  8
_0-d_寸法3
  6
CONTINUOUS
 62
    7
 10
347.21567675377037
 20
305.20227634853859
 11
272.2823434204372
 21
305.20227634853859
  0
LINE
  8
_0-d_寸法3
  6
CONTINUOUS
 62
    7
 10
280.2823434204372
 20
305.20227634853859
 11
276.14123869879677
 21
320.65708956916365
  0
LINE
  8
_0-d_寸法3
  6
CONTINUOUS
 62
    7
 10
280.2823434204372
 20
305.20227634853859
 11
284.4234481420774
 21
320.65708956916365
  0
LINE
  8
_0-d_寸法3
  6
CONTINUOUS
 62
    7
 10
280.28234342043675
 20
366.53560968187207
 11
280.2823434204372
 21
305.20227634853859
  0
TEXT
  8
_0-d_寸法3
 62
    7
 10
280.28234342043675
 20
323.86894301520488
 40
24
 41
1
 50
90
  1
23
  0
LINE
  8
_0-d_寸法3
  6
CONTINUOUS
 62
    7
 10
350.41567675377007
 20
441.2022763485387
 11
272.28234342043675
 21
441.20227634853939
  0
LINE
  8
_0-d_寸法3
  6
CONTINUOUS
 62
    7
 10
280.28234342043675
 20
441.20227634853933
 11
284.42344814207718
 21
425.74746312791422
  0
LINE
  8
_0-d_寸法3
  6
CONTINUOUS
 62
    7
 10
280.28234342043675
 20
441.20227634853933
 11
276.14123869879654
 21
425.74746312791422
  0
LINE
  8
_0-d_寸法3
  6
CONTINUOUS
 62
    7
 10
347.21567675377014
 20
366.53560968187213
 11
272.28234342043675
 21
366.53560968187207
  0
LINE
  8
_0-d_寸法3
  6
CONTINUOUS
 62
    7
 10
280.28234342043675
 20
366.53560968187207
 11
276.14123869879654
 21
381.99042290249719
  0
LINE
  8
_0-d_寸法3
  6
CONTINUOUS
 62
    7
 10
280.28234342043675
 20
366.53560968187207
 11
284.42344814207718
 21
381.99042290249719
  0
LINE
  8
_0-d_寸法3
  6
CONTINUOUS
 62
    7
 10
280.28234342043675
 20
441.20227634853933
 11
280.28234342043675
 21
366.53560968187207
  0
TEXT
  8
_0-d_寸法3
 62
    7
 10
280.28234342043675
 20
391.86894301520556
 40
24
 41
1
 50
90
  1
28
  0
LINE
  8
_0-1_計細線
  6
CONTINUOUS
 62
    3
 10
280.2490100871031
 20
990.64671532846046
 11
1279.2490100871032
 21
990.64671532846046
  0
LINE
  8
_0-1_計細線
  6
CONTINUOUS
 62
    3
 10
280.2490100871031
 20
1002.046715328461
 11
1279.2490100871032
 21
1002.046715328461
  0
LINE
  8
_0-1_計細線
  6
CONTINUOUS
 62
    3
 10
280.2490100871031
 20
990.64671532846046
 11
280.2490100871031
 21
1002.046715328461
  0
LINE
  8
_0-1_計細線
  6
CONTINUOUS
 62
    3
 10
1279.2490100871032
 20
990.64671532846046
 11
1279.2490100871032
 21
1002.046715328461
  0
LINE
  8
_0-0_計極細
  6
CONTINUOUS
 62
    2
 10
280.2490100871031
 20
998.84671532846073
 11
1279.2490100871032
 21
998.84671532846073
  0
LINE
  8
_0-0_計極細
  6
CONTINUOUS
 62
    2
 10
280.2490100871031
 20
993.84671532846073
 11
1279.2490100871032
 21
993.84671532846073
  0
LINE
  8
_0-1_計細線
  6
CONTINUOUS
 62
    3
 10
280.2490100871031
 20
1007.6467153284614
 11
1279.2490100871032
 21
1007.6467153284614
  0
LINE
  8
_0-1_計細線
  6
CONTINUOUS
 62
    3
 10
280.2490100871031
 20
1019.0467153284619
 11
1279.2490100871032
 21
1019.0467153284619
  0
LINE
  8
_0-1_計細線
  6
CONTINUOUS
 62
    3
 10
280.2490100871031
 20
1007.6467153284614
 11
280.2490100871031
 21
1019.0467153284619
  0
LINE
  8
_0-1_計細線
  6
CONTINUOUS
 62
    3
 10
1279.2490100871032
 20
1007.6467153284614
 11
1279.2490100871032
 21
1019.0467153284619
  0
LINE
  8
_0-0_計極細
  6
CONTINUOUS
 62
    2
 10
280.2490100871031
 20
1015.8467153284612
 11
1279.2490100871032
 21
1015.8467153284612
  0
LINE
  8
_0-0_計極細
  6
CONTINUOUS
 62
    2
 10
280.2490100871031
 20
1010.8467153284612
 11
1279.2490100871032
 21
1010.8467153284612
  0
LINE
  8
_0-1_計細線
  6
CONTINUOUS
 62
    3
 10
280.2490100871031
 20
1024.6467153284618
 11
1279.2490100871032
 21
1024.6467153284618
  0
LINE
  8
_0-1_計細線
  6
CONTINUOUS
 62
    3
 10
280.2490100871031
 20
1036.0467153284624
 11
1279.2490100871032
 21
1036.0467153284624
  0
LINE
  8
_0-1_計細線
  6
CONTINUOUS
 62
    3
 10
280.2490100871031
 20
1024.6467153284618
 11
280.2490100871031
 21
1036.0467153284624
  0
LINE
  8
_0-1_計細線
  6
CONTINUOUS
 62
    3
 10
1279.2490100871032
 20
1024.6467153284618
 11
1279.2490100871032
 21
1036.0467153284624
  0
LINE
  8
_0-0_計極細
  6
CONTINUOUS
 62
    2
 10
280.2490100871031
 20
1032.8467153284621
 11
1279.2490100871032
 21
1032.8467153284621
  0
LINE
  8
_0-0_計極細
  6
CONTINUOUS
 62
    2
 10
280.2490100871031
 20
1027.8467153284621
 11
1279.2490100871032
 21
1027.8467153284621
  0
LINE
  8
_0-0_計極細
  6
CENTER2
 62
    2
 10
264.36041055008388
 20
1055.8467153284603
 11
1295.293743883461
 21
1055.8467153284603
  0
LINE
  8
_0-1_計細線
  6
CONTINUOUS
 62
    3
 10
280.2490100871031
 20
1121.0467153284596
 11
1279.2490100871032
 21
1121.0467153284596
  0
LINE
  8
_0-1_計細線
  6
CONTINUOUS
 62
    3
 10
280.2490100871031
 20
1109.6467153284591
 11
1279.2490100871032
 21
1109.6467153284591
  0
LINE
  8
_0-1_計細線
  6
CONTINUOUS
 62
    3
 10
280.2490100871031
 20
1121.0467153284596
 11
280.2490100871031
 21
1109.6467153284591
  0
LINE
  8
_0-1_計細線
  6
CONTINUOUS
 62
    3
 10
1279.2490100871032
 20
1121.0467153284596
 11
1279.2490100871032
 21
1109.6467153284591
  0
LINE
  8
_0-0_計極細
  6
CONTINUOUS
 62
    2
 10
280.2490100871031
 20
1112.8467153284594
 11
1279.2490100871032
 21
1112.8467153284594
  0
LINE
  8
_0-0_計極細
  6
CONTINUOUS
 62
    2
 10
280.2490100871031
 20
1117.8467153284594
 11
1279.2490100871032
 21
1117.8467153284594
  0
LINE
  8
_0-1_計細線
  6
CONTINUOUS
 62
    3
 10
280.2490100871031
 20
1087.0467153284596
 11
1279.2490100871032
 21
1087.0467153284596
  0
LINE
  8
_0-1_計細線
  6
CONTINUOUS
 62
    3
 10
280.2490100871031
 20
1075.6467153284591
 11
1279.2490100871032
 21
1075.6467153284591
  0
LINE
  8
_0-1_計細線
  6
CONTINUOUS
 62
    3
 10
280.2490100871031
 20
1087.0467153284596
 11
280.2490100871031
 21
1075.6467153284591
  0
LINE
  8
_0-1_計細線
  6
CONTINUOUS
 62
    3
 10
1279.2490100871032
 20
1087.0467153284596
 11
1279.2490100871032
 21
1075.6467153284591
  0
LINE
  8
_0-0_計極細
  6
CONTINUOUS
 62
    2
 10
280.2490100871031
 20
1078.8467153284594
 11
1279.2490100871032
 21
1078.8467153284594
  0
LINE
  8
_0-0_計極細
  6
CONTINUOUS
 62
    2
 10
280.2490100871031
 20
1083.8467153284594
 11
1279.2490100871032
 21
1083.8467153284594
  0
LINE
  8
_0-1_計細線
  6
CONTINUOUS
 62
    3
 10
280.2490100871031
 20
1104.0467153284606
 11
1279.2490100871032
 21
1104.0467153284606
  0
LINE
  8
_0-1_計細線
  6
CONTINUOUS
 62
    3
 10
280.2490100871031
 20
1092.64671532846
 11
1279.2490100871032
 21
1092.64671532846
  0
LINE
  8
_0-1_計細線
  6
CONTINUOUS
 62
    3
 10
280.2490100871031
 20
1104.0467153284606
 11
280.2490100871031
 21
1092.64671532846
  0
LINE
  8
_0-1_計細線
  6
CONTINUOUS
 62
    3
 10
1279.2490100871032
 20
1104.0467153284606
 11
1279.2490100871032
 21
1092.64671532846
  0
LINE
  8
_0-0_計極細
  6
CONTINUOUS
 62
    2
 10
280.2490100871031
 20
1095.8467153284603
 11
1279.2490100871032
 21
1095.8467153284603
  0
LINE
  8
_0-0_計極細
  6
CONTINUOUS
 62
    2
 10
280.2490100871031
 20
1100.8467153284603
 11
1279.2490100871032
 21
1100.8467153284603
  0
LINE
  8
_0-1_計細線
  6
CONTINUOUS
 62
    3
 10
280.2490100871031
 20
1189.0467153284601
 11
1279.2490100871032
 21
1189.0467153284601
  0
LINE
  8
_0-1_計細線
  6
CONTINUOUS
 62
    3
 10
280.2490100871031
 20
1177.6467153284595
 11
1279.2490100871032
 21
1177.6467153284595
  0
LINE
  8
_0-1_計細線
  6
CONTINUOUS
 62
    3
 10
280.2490100871031
 20
1189.0467153284601
 11
280.2490100871031
 21
1177.6467153284595
  0
LINE
  8
_0-1_計細線
  6
CONTINUOUS
 62
    3
 10
1279.2490100871032
 20
1189.0467153284601
 11
1279.2490100871032
 21
1177.6467153284595
  0
LINE
  8
_0-0_計極細
  6
CONTINUOUS
 62
    2
 10
280.2490100871031
 20
1180.8467153284603
 11
1279.2490100871032
 21
1180.8467153284603
  0
LINE
  8
_0-0_計極細
  6
CONTINUOUS
 62
    2
 10
280.2490100871031
 20
1185.8467153284603
 11
1279.2490100871032
 21
1185.8467153284603
  0
LINE
  8
_0-1_計細線
  6
CONTINUOUS
 62
    3
 10
280.2490100871031
 20
922.64671532845955
 11
1279.2490100871032
 21
922.64671532845955
  0
LINE
  8
_0-1_計細線
  6
CONTINUOUS
 62
    3
 10
280.2490100871031
 20
934.0467153284601
 11
1279.2490100871032
 21
934.0467153284601
  0
LINE
  8
_0-1_計細線
  6
CONTINUOUS
 62
    3
 10
280.2490100871031
 20
922.64671532845955
 11
280.2490100871031
 21
934.0467153284601
  0
LINE
  8
_0-1_計細線
  6
CONTINUOUS
 62
    3
 10
1279.2490100871032
 20
922.64671532845955
 11
1279.2490100871032
 21
934.0467153284601
  0
LINE
  8
_0-0_計極細
  6
CONTINUOUS
 62
    2
 10
280.2490100871031
 20
930.84671532846028
 11
1279.2490100871032
 21
930.84671532846028
  0
LINE
  8
_0-0_計極細
  6
CONTINUOUS
 62
    2
 10
280.2490100871031
 20
925.84671532846028
 11
1279.2490100871032
 21
925.84671532846028
  0
LINE
  8
_0-1_計細線
  6
CONTINUOUS
 62
    3
 10
280.2490100871031
 20
1205.8467153284603
 11
1279.2490100871032
 21
1205.8467153284603
  0
LINE
  8
_0-1_計細線
  6
CONTINUOUS
 62
    3
 10
280.2490100871031
 20
1194.4467153284597
 11
1279.2490100871032
 21
1194.4467153284597
  0
LINE
  8
_0-1_計細線
  6
CONTINUOUS
 62
    3
 10
280.2490100871031
 20
1205.8467153284603
 11
280.2490100871031
 21
1194.4467153284597
  0
LINE
  8
_0-1_計細線
  6
CONTINUOUS
 62
    3
 10
1279.2490100871032
 20
1205.8467153284603
 11
1279.2490100871032
 21
1194.4467153284597
  0
LINE
  8
_0-0_計極細
  6
CONTINUOUS
 62
    2
 10
280.2490100871031
 20
1197.64671532846
 11
1279.2490100871032
 21
1197.64671532846
  0
LINE
  8
_0-0_計極細
  6
CONTINUOUS
 62
    2
 10
280.2490100871031
 20
1202.64671532846
 11
1279.2490100871032
 21
1202.64671532846
  0
LINE
  8
_0-1_計細線
  6
CONTINUOUS
 62
    3
 10
280.2490100871031
 20
905.84671532846073
 11
1279.2490100871032
 21
905.84671532846073
  0
LINE
  8
_0-1_計細線
  6
CONTINUOUS
 62
    3
 10
280.2490100871031
 20
917.24671532846128
 11
1279.2490100871032
 21
917.24671532846128
  0
LINE
  8
_0-1_計細線
  6
CONTINUOUS
 62
    3
 10
280.2490100871031
 20
905.84671532846073
 11
280.2490100871031
 21
917.24671532846128
  0
LINE
  8
_0-1_計細線
  6
CONTINUOUS
 62
    3
 10
1279.2490100871032
 20
905.84671532846073
 11
1279.2490100871032
 21
917.24671532846128
  0
LINE
  8
_0-0_計極細
  6
CONTINUOUS
 62
    2
 10
280.2490100871031
 20
914.046715328461
 11
1279.2490100871032
 21
914.046715328461
  0
LINE
  8
_0-0_計極細
  6
CONTINUOUS
 62
    2
 10
280.2490100871031
 20
909.046715328461
 11
1279.2490100871032
 21
909.046715328461
  0
LINE
  8
_0-1_計細線
  6
CONTINUOUS
 62
    3
 10
280.2490100871031
 20
1138.0467153284587
 11
1279.2490100871032
 21
1138.0467153284587
  0
LINE
  8
_0-1_計細線
  6
CONTINUOUS
 62
    3
 10
280.2490100871031
 20
1126.6467153284582
 11
1279.2490100871032
 21
1126.6467153284582
  0
LINE
  8
_0-1_計細線
  6
CONTINUOUS
 62
    3
 10
280.2490100871031
 20
1138.0467153284587
 11
280.2490100871031
 21
1126.6467153284582
  0
LINE
  8
_0-1_計細線
  6
CONTINUOUS
 62
    3
 10
1279.2490100871032
 20
1138.0467153284587
 11
1279.2490100871032
 21
1126.6467153284582
  0
LINE
  8
_0-0_計極細
  6
CONTINUOUS
 62
    2
 10
280.2490100871031
 20
1129.8467153284585
 11
1279.2490100871032
 21
1129.8467153284585
  0
LINE
  8
_0-0_計極細
  6
CONTINUOUS
 62
    2
 10
280.2490100871031
 20
1134.8467153284585
 11
1279.2490100871032
 21
1134.8467153284585
  0
LINE
  8
_0-1_計細線
  6
CONTINUOUS
 62
    3
 10
280.2490100871031
 20
1155.0467153284578
 11
1279.2490100871032
 21
1155.0467153284578
  0
LINE
  8
_0-1_計細線
  6
CONTINUOUS
 62
    3
 10
280.2490100871031
 20
1143.6467153284573
 11
1279.2490100871032
 21
1143.6467153284573
  0
LINE
  8
_0-1_計細線
  6
CONTINUOUS
 62
    3
 10
280.2490100871031
 20
1155.0467153284578
 11
280.2490100871031
 21
1143.6467153284573
  0
LINE
  8
_0-1_計細線
  6
CONTINUOUS
 62
    3
 10
1279.2490100871032
 20
1155.0467153284578
 11
1279.2490100871032
 21
1143.6467153284573
  0
LINE
  8
_0-0_計極細
  6
CONTINUOUS
 62
    2
 10
280.2490100871031
 20
1146.8467153284575
 11
1279.2490100871032
 21
1146.8467153284575
  0
LINE
  8
_0-0_計極細
  6
CONTINUOUS
 62
    2
 10
280.2490100871031
 20
1151.8467153284575
 11
1279.2490100871032
 21
1151.8467153284575
  0
LINE
  8
_0-1_計細線
  6
CONTINUOUS
 62
    3
 10
280.2490100871031
 20
1172.0467153284569
 11
1279.2490100871032
 21
1172.0467153284569
  0
LINE
  8
_0-1_計細線
  6
CONTINUOUS
 62
    3
 10
280.2490100871031
 20
1160.6467153284564
 11
1279.2490100871032
 21
1160.6467153284564
  0
LINE
  8
_0-1_計細線
  6
CONTINUOUS
 62
    3
 10
280.2490100871031
 20
1172.0467153284569
 11
280.2490100871031
 21
1160.6467153284564
  0
LINE
  8
_0-1_計細線
  6
CONTINUOUS
 62
    3
 10
1279.2490100871032
 20
1172.0467153284569
 11
1279.2490100871032
 21
1160.6467153284564
  0
LINE
  8
_0-0_計極細
  6
CONTINUOUS
 62
    2
 10
280.2490100871031
 20
1163.8467153284566
 11
1279.2490100871032
 21
1163.8467153284566
  0
LINE
  8
_0-0_計極細
  6
CONTINUOUS
 62
    2
 10
280.2490100871031
 20
1168.8467153284566
 11
1279.2490100871032
 21
1168.8467153284566
  0
LINE
  8
_0-1_計細線
  6
CONTINUOUS
 62
    3
 10
280.2490100871031
 20
973.64671532846182
 11
1279.2490100871032
 21
973.64671532846182
  0
LINE
  8
_0-1_計細線
  6
CONTINUOUS
 62
    3
 10
280.2490100871031
 20
985.04671532846237
 11
1279.2490100871032
 21
985.04671532846237
  0
LINE
  8
_0-1_計細線
  6
CONTINUOUS
 62
    3
 10
280.2490100871031
 20
973.64671532846182
 11
280.2490100871031
 21
985.04671532846237
  0
LINE
  8
_0-1_計細線
  6
CONTINUOUS
 62
    3
 10
1279.2490100871032
 20
973.64671532846182
 11
1279.2490100871032
 21
985.04671532846237
  0
LINE
  8
_0-0_計極細
  6
CONTINUOUS
 62
    2
 10
280.2490100871031
 20
981.8467153284621
 11
1279.2490100871032
 21
981.8467153284621
  0
LINE
  8
_0-0_計極細
  6
CONTINUOUS
 62
    2
 10
280.2490100871031
 20
976.8467153284621
 11
1279.2490100871032
 21
976.8467153284621
  0
LINE
  8
_0-1_計細線
  6
CONTINUOUS
 62
    3
 10
280.2490100871031
 20
956.64671532846273
 11
1279.2490100871032
 21
956.64671532846273
  0
LINE
  8
_0-1_計細線
  6
CONTINUOUS
 62
    3
 10
280.2490100871031
 20
968.04671532846328
 11
1279.2490100871032
 21
968.04671532846328
  0
LINE
  8
_0-1_計細線
  6
CONTINUOUS
 62
    3
 10
280.2490100871031
 20
956.64671532846273
 11
280.2490100871031
 21
968.04671532846328
  0
LINE
  8
_0-1_計細線
  6
CONTINUOUS
 62
    3
 10
1279.2490100871032
 20
956.64671532846273
 11
1279.2490100871032
 21
968.04671532846328
  0
LINE
  8
_0-0_計極細
  6
CONTINUOUS
 62
    2
 10
280.2490100871031
 20
964.84671532846301
 11
1279.2490100871032
 21
964.84671532846301
  0
LINE
  8
_0-0_計極細
  6
CONTINUOUS
 62
    2
 10
280.2490100871031
 20
959.84671532846301
 11
1279.2490100871032
 21
959.84671532846301
  0
LINE
  8
_0-1_計細線
  6
CONTINUOUS
 62
    3
 10
280.2490100871031
 20
939.64671532846364
 11
1279.2490100871032
 21
939.64671532846364
  0
LINE
  8
_0-1_計細線
  6
CONTINUOUS
 62
    3
 10
280.2490100871031
 20
951.04671532846419
 11
1279.2490100871032
 21
951.04671532846419
  0
LINE
  8
_0-1_計細線
  6
CONTINUOUS
 62
    3
 10
280.2490100871031
 20
939.64671532846364
 11
280.2490100871031
 21
951.04671532846419
  0
LINE
  8
_0-1_計細線
  6
CONTINUOUS
 62
    3
 10
1279.2490100871032
 20
939.64671532846364
 11
1279.2490100871032
 21
951.04671532846419
  0
LINE
  8
_0-0_計極細
  6
CONTINUOUS
 62
    2
 10
280.2490100871031
 20
947.84671532846392
 11
1279.2490100871032
 21
947.84671532846392
  0
LINE
  8
_0-0_計極細
  6
CONTINUOUS
 62
    2
 10
280.2490100871031
 20
942.84671532846392
 11
1279.2490100871032
 21
942.84671532846392
  0
ARC
  8
_0-0_計極細
  6
CONTINUOUS
 62
    2
 10
267.19523124378736
 20
1203.3467153284598
 40
11.295514677412786
 50
138.39585046827571
 51
221.60414953172395
  0
ARC
  8
_0-0_計極細
  6
CONTINUOUS
 62
    2
 10
250.30278893041702
 20
1188.346715328458
 40
11.295514677412786
 50
318.39585046827227
 51
41.604149531727018
  0
ARC
  8
_0-0_計極細
  6
CONTINUOUS
 62
    2
 10
267.19523124378736
 20
923.34671532845982
 40
11.295514677412786
 50
138.39585046827571
 51
221.60414953172395
  0
ARC
  8
_0-0_計極細
  6
CONTINUOUS
 62
    2
 10
250.30278893041702
 20
908.346715328458
 40
11.295514677412786
 50
318.39585046827534
 51
41.604149531723962
  0
LINE
  8
_0-1_計細線
  6
CONTINUOUS
 62
    3
 10
258.74901008710128
 20
1210.8467153284598
 11
1300.7490100871023
 21
1210.8467153284598
  0
LINE
  8
_0-1_計細線
  6
CONTINUOUS
 62
    3
 10
1300.7490100871032
 20
900.84671532846073
 11
258.74901008710219
 21
900.84671532846073
  0
ARC
  8
_0-0_計極細
  6
CONTINUOUS
 62
    2
 10
1309.1952312437884
 20
1203.3467153284598
 40
11.295514677412786
 50
138.39585046827571
 51
221.60414953172395
  0
ARC
  8
_0-0_計極細
  6
CONTINUOUS
 62
    2
 10
1292.302788930418
 20
1188.346715328458
 40
11.295514677412786
 50
318.39585046827227
 51
41.604149531727018
  0
ARC
  8
_0-0_計極細
  6
CONTINUOUS
 62
    2
 10
1309.1952312437884
 20
923.34671532845982
 40
11.295514677412786
 50
138.39585046827264
 51
221.60414953172702
  0
ARC
  8
_0-0_計極細
  6
CONTINUOUS
 62
    2
 10
1292.302788930418
 20
908.346715328458
 40
11.295514677412786
 50
318.39585046827534
 51
41.604149531723962
  0
LINE
  8
_0-1_計細線
  6
CONTINUOUS
 62
    3
 10
256.83479438872871
 20
1207.8467153284598
 11
1298.8347943887297
 21
1207.8467153284598
  0
LINE
  8
_0-1_計細線
  6
CONTINUOUS
 62
    3
 10
1302.6632257854776
 20
903.84671532846073
 11
260.66322578547749
 21
903.84671532846073
  0
LINE
  8
_0-1_計細線
  6
CONTINUOUS
 62
    3
 10
1279.2490100871032
 20
1180.8467153284598
 11
1300.7490100871023
 21
1180.8467153284598
  0
LINE
  8
_0-1_計細線
  6
CONTINUOUS
 62
    3
 10
1279.2490100871032
 20
930.84671532846073
 11
1300.7490100871032
 21
930.84671532846073
  0
LINE
  8
_0-1_計細線
  6
CONTINUOUS
 62
    3
 10
258.74901008710219
 20
930.84671532846073
 11
280.2490100871031
 21
930.84671532846073
  0
LINE
  8
_0-1_計細線
  6
CONTINUOUS
 62
    3
 10
258.74901008710128
 20
1180.8467153284598
 11
280.2490100871031
 21
1180.8467153284598
  0
LINE
  8
_0-0_計極細
  6
CONTINUOUS
 62
    2
 10
288.2490100871031
 20
1002.046715328461
 11
288.2490100871031
 21
1007.6467153284614
  0
LINE
  8
_0-0_計極細
  6
CONTINUOUS
 62
    2
 10
301.2490100871031
 20
1002.046715328461
 11
301.2490100871031
 21
1007.6467153284614
  0
LINE
  8
_0-0_計極細
  6
CONTINUOUS
 62
    2
 10
288.2490100871031
 20
1019.0467153284619
 11
288.2490100871031
 21
1024.6467153284618
  0
LINE
  8
_0-0_計極細
  6
CONTINUOUS
 62
    2
 10
301.2490100871031
 20
1019.0467153284619
 11
301.2490100871031
 21
1024.6467153284618
  0
LINE
  8
_0-0_計極細
  6
CONTINUOUS
 62
    2
 10
288.2490100871031
 20
1041.6467153284577
 11
288.2490100871031
 21
1036.0467153284578
  0
LINE
  8
_0-0_計極細
  6
CONTINUOUS
 62
    2
 10
301.2490100871031
 20
1041.6467153284577
 11
301.2490100871031
 21
1036.0467153284578
  0
LINE
  8
_0-0_計極細
  6
CONTINUOUS
 62
    2
 10
288.2490100871031
 20
1058.6467153284586
 11
288.2490100871031
 21
1053.0467153284583
  0
LINE
  8
_0-0_計極細
  6
CONTINUOUS
 62
    2
 10
301.2490100871031
 20
1058.6467153284586
 11
301.2490100871031
 21
1053.0467153284583
  0
LINE
  8
_0-0_計極細
  6
CONTINUOUS
 62
    2
 10
288.2490100871031
 20
1075.6467153284591
 11
288.2490100871031
 21
1070.0467153284592
  0
LINE
  8
_0-0_計極細
  6
CONTINUOUS
 62
    2
 10
301.2490100871031
 20
1075.6467153284591
 11
301.2490100871031
 21
1070.0467153284592
  0
LINE
  8
_0-0_計極細
  6
CONTINUOUS
 62
    2
 10
288.2490100871031
 20
1092.64671532846
 11
288.2490100871031
 21
1087.0467153284596
  0
LINE
  8
_0-0_計極細
  6
CONTINUOUS
 62
    2
 10
301.2490100871031
 20
1092.64671532846
 11
301.2490100871031
 21
1087.0467153284596
  0
LINE
  8
_0-0_計極細
  6
CONTINUOUS
 62
    2
 10
288.2490100871031
 20
1109.6467153284605
 11
288.2490100871031
 21
1104.0467153284606
  0
LINE
  8
_0-0_計極細
  6
CONTINUOUS
 62
    2
 10
301.2490100871031
 20
1109.6467153284605
 11
301.2490100871031
 21
1104.0467153284606
  0
LINE
  8
_0-0_計極細
  6
CONTINUOUS
 62
    2
 10
288.2490100871031
 20
1194.4467153284597
 11
288.2490100871031
 21
1189.0467153284596
  0
LINE
  8
_0-0_計極細
  6
CONTINUOUS
 62
    2
 10
301.2490100871031
 20
1194.4467153284597
 11
301.2490100871031
 21
1189.0467153284596
  0
LINE
  8
_0-0_計極細
  6
CONTINUOUS
 62
    2
 10
288.2490100871031
 20
917.24671532845991
 11
288.2490100871031
 21
922.64671532845955
  0
LINE
  8
_0-0_計極細
  6
CONTINUOUS
 62
    2
 10
301.2490100871031
 20
917.24671532845991
 11
301.2490100871031
 21
922.64671532845955
  0
LINE
  8
_0-0_計極細
  6
CENTER1
 62
    2
 10
294.7490100871031
 20
1214.597434752922
 11
294.7490100871031
 21
898.08889158744864
  0
LINE
  8
_0-0_計極細
  6
CONTINUOUS
 62
    2
 10
288.2490100871031
 20
1126.6467153284595
 11
288.2490100871031
 21
1121.0467153284596
  0
LINE
  8
_0-0_計極細
  6
CONTINUOUS
 62
    2
 10
301.2490100871031
 20
1126.6467153284595
 11
301.2490100871031
 21
1121.0467153284596
  0
LINE
  8
_0-0_計極細
  6
CONTINUOUS
 62
    2
 10
288.2490100871031
 20
1143.6467153284586
 11
288.2490100871031
 21
1138.0467153284587
  0
LINE
  8
_0-0_計極細
  6
CONTINUOUS
 62
    2
 10
301.2490100871031
 20
1143.6467153284586
 11
301.2490100871031
 21
1138.0467153284587
  0
LINE
  8
_0-0_計極細
  6
CONTINUOUS
 62
    2
 10
288.2490100871031
 20
1160.6467153284577
 11
288.2490100871031
 21
1155.0467153284578
  0
LINE
  8
_0-0_計極細
  6
CONTINUOUS
 62
    2
 10
301.2490100871031
 20
1160.6467153284577
 11
301.2490100871031
 21
1155.0467153284578
  0
LINE
  8
_0-0_計極細
  6
CONTINUOUS
 62
    2
 10
288.2490100871031
 20
1177.6467153284568
 11
288.2490100871031
 21
1172.0467153284569
  0
LINE
  8
_0-0_計極細
  6
CONTINUOUS
 62
    2
 10
301.2490100871031
 20
1177.6467153284568
 11
301.2490100871031
 21
1172.0467153284569
  0
LINE
  8
_0-0_計極細
  6
CONTINUOUS
 62
    2
 10
288.2490100871031
 20
985.046715328461
 11
288.2490100871031
 21
990.64671532846091
  0
LINE
  8
_0-0_計極細
  6
CONTINUOUS
 62
    2
 10
301.2490100871031
 20
985.046715328461
 11
301.2490100871031
 21
990.64671532846091
  0
LINE
  8
_0-0_計極細
  6
CONTINUOUS
 62
    2
 10
288.2490100871031
 20
968.04671532846191
 11
288.2490100871031
 21
973.64671532846182
  0
LINE
  8
_0-0_計極細
  6
CONTINUOUS
 62
    2
 10
301.2490100871031
 20
968.04671532846191
 11
301.2490100871031
 21
973.64671532846182
  0
LINE
  8
_0-0_計極細
  6
CONTINUOUS
 62
    2
 10
288.2490100871031
 20
951.04671532846282
 11
288.2490100871031
 21
956.64671532846273
  0
LINE
  8
_0-0_計極細
  6
CONTINUOUS
 62
    2
 10
301.2490100871031
 20
951.04671532846282
 11
301.2490100871031
 21
956.64671532846273
  0
LINE
  8
_0-0_計極細
  6
CONTINUOUS
 62
    2
 10
288.2490100871031
 20
934.04671532846373
 11
288.2490100871031
 21
939.64671532846364
  0
LINE
  8
_0-0_計極細
  6
CONTINUOUS
 62
    2
 10
301.2490100871031
 20
934.04671532846373
 11
301.2490100871031
 21
939.64671532846364
  0
LINE
  8
_0-0_計極細
  6
CONTINUOUS
 62
    2
 10
1258.2490100871032
 20
1002.046715328461
 11
1258.2490100871032
 21
1007.6467153284614
  0
LINE
  8
_0-0_計極細
  6
CONTINUOUS
 62
    2
 10
1271.2490100871032
 20
1002.046715328461
 11
1271.2490100871032
 21
1007.6467153284614
  0
LINE
  8
_0-0_計極細
  6
CONTINUOUS
 62
    2
 10
1258.2490100871032
 20
1019.0467153284619
 11
1258.2490100871032
 21
1024.6467153284618
  0
LINE
  8
_0-0_計極細
  6
CONTINUOUS
 62
    2
 10
1271.2490100871032
 20
1019.0467153284619
 11
1271.2490100871032
 21
1024.6467153284618
  0
LINE
  8
_0-0_計極細
  6
CONTINUOUS
 62
    2
 10
1258.2490100871032
 20
1041.6467153284577
 11
1258.2490100871032
 21
1036.0467153284578
  0
LINE
  8
_0-0_計極細
  6
CONTINUOUS
 62
    2
 10
1271.2490100871032
 20
1041.6467153284577
 11
1271.2490100871032
 21
1036.0467153284578
  0
LINE
  8
_0-0_計極細
  6
CONTINUOUS
 62
    2
 10
1258.2490100871032
 20
1058.6467153284586
 11
1258.2490100871032
 21
1053.0467153284583
  0
LINE
  8
_0-0_計極細
  6
CONTINUOUS
 62
    2
 10
1271.2490100871032
 20
1058.6467153284586
 11
1271.2490100871032
 21
1053.0467153284583
  0
LINE
  8
_0-0_計極細
  6
CONTINUOUS
 62
    2
 10
1258.2490100871032
 20
1075.6467153284591
 11
1258.2490100871032
 21
1070.0467153284592
  0
LINE
  8
_0-0_計極細
  6
CONTINUOUS
 62
    2
 10
1271.2490100871032
 20
1075.6467153284591
 11
1271.2490100871032
 21
1070.0467153284592
  0
LINE
  8
_0-0_計極細
  6
CONTINUOUS
 62
    2
 10
1258.2490100871032
 20
1092.64671532846
 11
1258.2490100871032
 21
1087.0467153284596
  0
LINE
  8
_0-0_計極細
  6
CONTINUOUS
 62
    2
 10
1271.2490100871032
 20
1092.64671532846
 11
1271.2490100871032
 21
1087.0467153284596
  0
LINE
  8
_0-0_計極細
  6
CONTINUOUS
 62
    2
 10
1258.2490100871032
 20
1109.6467153284605
 11
1258.2490100871032
 21
1104.0467153284606
  0
LINE
  8
_0-0_計極細
  6
CONTINUOUS
 62
    2
 10
1271.2490100871032
 20
1109.6467153284605
 11
1271.2490100871032
 21
1104.0467153284606
  0
LINE
  8
_0-0_計極細
  6
CONTINUOUS
 62
    2
 10
1258.2490100871032
 20
1194.4467153284597
 11
1258.2490100871032
 21
1189.0467153284596
  0
LINE
  8
_0-0_計極細
  6
CONTINUOUS
 62
    2
 10
1271.2490100871032
 20
1194.4467153284597
 11
1271.2490100871032
 21
1189.0467153284596
  0
LINE
  8
_0-0_計極細
  6
CONTINUOUS
 62
    2
 10
1258.2490100871032
 20
917.24671532845991
 11
1258.2490100871032
 21
922.64671532845955
  0
LINE
  8
_0-0_計極細
  6
CONTINUOUS
 62
    2
 10
1271.2490100871032
 20
917.24671532845991
 11
1271.2490100871032
 21
922.64671532845955
  0
LINE
  8
_0-0_計極細
  6
CENTER1
 62
    2
 10
1264.7490100871032
 20
1214.597434752922
 11
1264.7490100871032
 21
898.08889158744864
  0
LINE
  8
_0-0_計極細
  6
CONTINUOUS
 62
    2
 10
1258.2490100871032
 20
1126.6467153284595
 11
1258.2490100871032
 21
1121.0467153284596
  0
LINE
  8
_0-0_計極細
  6
CONTINUOUS
 62
    2
 10
1271.2490100871032
 20
1126.6467153284595
 11
1271.2490100871032
 21
1121.0467153284596
  0
LINE
  8
_0-0_計極細
  6
CONTINUOUS
 62
    2
 10
1258.2490100871032
 20
1143.6467153284586
 11
1258.2490100871032
 21
1138.0467153284587
  0
LINE
  8
_0-0_計極細
  6
CONTINUOUS
 62
    2
 10
1271.2490100871032
 20
1143.6467153284586
 11
1271.2490100871032
 21
1138.0467153284587
  0
LINE
  8
_0-0_計極細
  6
CONTINUOUS
 62
    2
 10
1258.2490100871032
 20
1160.6467153284577
 11
1258.2490100871032
 21
1155.0467153284578
  0
LINE
  8
_0-0_計極細
  6
CONTINUOUS
 62
    2
 10
1271.2490100871032
 20
1160.6467153284577
 11
1271.2490100871032
 21
1155.0467153284578
  0
LINE
  8
_0-0_計極細
  6
CONTINUOUS
 62
    2
 10
1258.2490100871032
 20
1177.6467153284568
 11
1258.2490100871032
 21
1172.0467153284569
  0
LINE
  8
_0-0_計極細
  6
CONTINUOUS
 62
    2
 10
1271.2490100871032
 20
1177.6467153284568
 11
1271.2490100871032
 21
1172.0467153284569
  0
LINE
  8
_0-0_計極細
  6
CONTINUOUS
 62
    2
 10
1258.2490100871032
 20
985.046715328461
 11
1258.2490100871032
 21
990.64671532846091
  0
LINE
  8
_0-0_計極細
  6
CONTINUOUS
 62
    2
 10
1271.2490100871032
 20
985.046715328461
 11
1271.2490100871032
 21
990.64671532846091
  0
LINE
  8
_0-0_計極細
  6
CONTINUOUS
 62
    2
 10
1258.2490100871032
 20
968.04671532846191
 11
1258.2490100871032
 21
973.64671532846182
  0
LINE
  8
_0-0_計極細
  6
CONTINUOUS
 62
    2
 10
1271.2490100871032
 20
968.04671532846191
 11
1271.2490100871032
 21
973.64671532846182
  0
LINE
  8
_0-0_計極細
  6
CONTINUOUS
 62
    2
 10
1258.2490100871032
 20
951.04671532846282
 11
1258.2490100871032
 21
956.64671532846273
  0
LINE
  8
_0-0_計極細
  6
CONTINUOUS
 62
    2
 10
1271.2490100871032
 20
951.04671532846282
 11
1271.2490100871032
 21
956.64671532846273
  0
LINE
  8
_0-0_計極細
  6
CONTINUOUS
 62
    2
 10
1258.2490100871032
 20
934.04671532846373
 11
1258.2490100871032
 21
939.64671532846364
  0
LINE
  8
_0-0_計極細
  6
CONTINUOUS
 62
    2
 10
1271.2490100871032
 20
934.04671532846373
 11
1271.2490100871032
 21
939.64671532846364
  0
LINE
  8
_0-0_計極細
  6
CENTER1
 62
    2
 10
1167.7490100871032
 20
1214.597434752922
 11
1167.7490100871032
 21
898.08889158744864
  0
LINE
  8
_0-0_計極細
  6
CONTINUOUS
 62
    2
 10
1161.2490100871032
 20
1002.046715328461
 11
1161.2490100871032
 21
1007.6467153284614
  0
LINE
  8
_0-0_計極細
  6
CONTINUOUS
 62
    2
 10
1174.2490100871032
 20
1002.046715328461
 11
1174.2490100871032
 21
1007.6467153284614
  0
LINE
  8
_0-0_計極細
  6
CONTINUOUS
 62
    2
 10
1161.2490100871032
 20
1019.0467153284619
 11
1161.2490100871032
 21
1024.6467153284618
  0
LINE
  8
_0-0_計極細
  6
CONTINUOUS
 62
    2
 10
1174.2490100871032
 20
1019.0467153284619
 11
1174.2490100871032
 21
1024.6467153284618
  0
LINE
  8
_0-0_計極細
  6
CONTINUOUS
 62
    2
 10
1161.2490100871032
 20
1041.6467153284577
 11
1161.2490100871032
 21
1036.0467153284578
  0
LINE
  8
_0-0_計極細
  6
CONTINUOUS
 62
    2
 10
1174.2490100871032
 20
1041.6467153284577
 11
1174.2490100871032
 21
1036.0467153284578
  0
LINE
  8
_0-0_計極細
  6
CONTINUOUS
 62
    2
 10
1161.2490100871032
 20
1058.6467153284586
 11
1161.2490100871032
 21
1053.0467153284583
  0
LINE
  8
_0-0_計極細
  6
CONTINUOUS
 62
    2
 10
1174.2490100871032
 20
1058.6467153284586
 11
1174.2490100871032
 21
1053.0467153284583
  0
LINE
  8
_0-0_計極細
  6
CONTINUOUS
 62
    2
 10
1161.2490100871032
 20
1075.6467153284591
 11
1161.2490100871032
 21
1070.0467153284592
  0
LINE
  8
_0-0_計極細
  6
CONTINUOUS
 62
    2
 10
1174.2490100871032
 20
1075.6467153284591
 11
1174.2490100871032
 21
1070.0467153284592
  0
LINE
  8
_0-0_計極細
  6
CONTINUOUS
 62
    2
 10
1161.2490100871032
 20
1092.64671532846
 11
1161.2490100871032
 21
1087.0467153284596
  0
LINE
  8
_0-0_計極細
  6
CONTINUOUS
 62
    2
 10
1174.2490100871032
 20
1092.64671532846
 11
1174.2490100871032
 21
1087.0467153284596
  0
LINE
  8
_0-0_計極細
  6
CONTINUOUS
 62
    2
 10
1161.2490100871032
 20
1109.6467153284605
 11
1161.2490100871032
 21
1104.0467153284606
  0
LINE
  8
_0-0_計極細
  6
CONTINUOUS
 62
    2
 10
1174.2490100871032
 20
1109.6467153284605
 11
1174.2490100871032
 21
1104.0467153284606
  0
LINE
  8
_0-0_計極細
  6
CONTINUOUS
 62
    2
 10
1161.2490100871032
 20
1194.4467153284597
 11
1161.2490100871032
 21
1189.0467153284596
  0
LINE
  8
_0-0_計極細
  6
CONTINUOUS
 62
    2
 10
1174.2490100871032
 20
1194.4467153284597
 11
1174.2490100871032
 21
1189.0467153284596
  0
LINE
  8
_0-0_計極細
  6
CONTINUOUS
 62
    2
 10
1161.2490100871032
 20
917.24671532845991
 11
1161.2490100871032
 21
922.64671532845955
  0
LINE
  8
_0-0_計極細
  6
CONTINUOUS
 62
    2
 10
1174.2490100871032
 20
917.24671532845991
 11
1174.2490100871032
 21
922.64671532845955
  0
LINE
  8
_0-0_計極細
  6
CONTINUOUS
 62
    2
 10
1161.2490100871032
 20
1126.6467153284595
 11
1161.2490100871032
 21
1121.0467153284596
  0
LINE
  8
_0-0_計極細
  6
CONTINUOUS
 62
    2
 10
1174.2490100871032
 20
1126.6467153284595
 11
1174.2490100871032
 21
1121.0467153284596
  0
LINE
  8
_0-0_計極細
  6
CONTINUOUS
 62
    2
 10
1161.2490100871032
 20
1143.6467153284586
 11
1161.2490100871032
 21
1138.0467153284587
  0
LINE
  8
_0-0_計極細
  6
CONTINUOUS
 62
    2
 10
1174.2490100871032
 20
1143.6467153284586
 11
1174.2490100871032
 21
1138.0467153284587
  0
LINE
  8
_0-0_計極細
  6
CONTINUOUS
 62
    2
 10
1161.2490100871032
 20
1160.6467153284577
 11
1161.2490100871032
 21
1155.0467153284578
  0
LINE
  8
_0-0_計極細
  6
CONTINUOUS
 62
    2
 10
1174.2490100871032
 20
1160.6467153284577
 11
1174.2490100871032
 21
1155.0467153284578
  0
LINE
  8
_0-0_計極細
  6
CONTINUOUS
 62
    2
 10
1161.2490100871032
 20
1177.6467153284568
 11
1161.2490100871032
 21
1172.0467153284569
  0
LINE
  8
_0-0_計極細
  6
CONTINUOUS
 62
    2
 10
1174.2490100871032
 20
1177.6467153284568
 11
1174.2490100871032
 21
1172.0467153284569
  0
LINE
  8
_0-0_計極細
  6
CONTINUOUS
 62
    2
 10
1161.2490100871032
 20
985.046715328461
 11
1161.2490100871032
 21
990.64671532846091
  0
LINE
  8
_0-0_計極細
  6
CONTINUOUS
 62
    2
 10
1174.2490100871032
 20
985.046715328461
 11
1174.2490100871032
 21
990.64671532846091
  0
LINE
  8
_0-0_計極細
  6
CONTINUOUS
 62
    2
 10
1161.2490100871032
 20
968.04671532846191
 11
1161.2490100871032
 21
973.64671532846182
  0
LINE
  8
_0-0_計極細
  6
CONTINUOUS
 62
    2
 10
1174.2490100871032
 20
968.04671532846191
 11
1174.2490100871032
 21
973.64671532846182
  0
LINE
  8
_0-0_計極細
  6
CONTINUOUS
 62
    2
 10
1161.2490100871032
 20
951.04671532846282
 11
1161.2490100871032
 21
956.64671532846273
  0
LINE
  8
_0-0_計極細
  6
CONTINUOUS
 62
    2
 10
1174.2490100871032
 20
951.04671532846282
 11
1174.2490100871032
 21
956.64671532846273
  0
LINE
  8
_0-0_計極細
  6
CONTINUOUS
 62
    2
 10
1161.2490100871032
 20
934.04671532846373
 11
1161.2490100871032
 21
939.64671532846364
  0
LINE
  8
_0-0_計極細
  6
CONTINUOUS
 62
    2
 10
1174.2490100871032
 20
934.04671532846373
 11
1174.2490100871032
 21
939.64671532846364
  0
LINE
  8
_0-0_計極細
  6
CENTER1
 62
    2
 10
1070.7490100871032
 20
1214.597434752922
 11
1070.7490100871032
 21
898.08889158744864
  0
LINE
  8
_0-0_計極細
  6
CONTINUOUS
 62
    2
 10
1064.2490100871032
 20
1002.046715328461
 11
1064.2490100871032
 21
1007.6467153284614
  0
LINE
  8
_0-0_計極細
  6
CONTINUOUS
 62
    2
 10
1077.2490100871032
 20
1002.046715328461
 11
1077.2490100871032
 21
1007.6467153284614
  0
LINE
  8
_0-0_計極細
  6
CONTINUOUS
 62
    2
 10
1064.2490100871032
 20
1019.0467153284619
 11
1064.2490100871032
 21
1024.6467153284618
  0
LINE
  8
_0-0_計極細
  6
CONTINUOUS
 62
    2
 10
1077.2490100871032
 20
1019.0467153284619
 11
1077.2490100871032
 21
1024.6467153284618
  0
LINE
  8
_0-0_計極細
  6
CONTINUOUS
 62
    2
 10
1064.2490100871032
 20
1041.6467153284577
 11
1064.2490100871032
 21
1036.0467153284578
  0
LINE
  8
_0-0_計極細
  6
CONTINUOUS
 62
    2
 10
1077.2490100871032
 20
1041.6467153284577
 11
1077.2490100871032
 21
1036.0467153284578
  0
LINE
  8
_0-0_計極細
  6
CONTINUOUS
 62
    2
 10
1064.2490100871032
 20
1058.6467153284586
 11
1064.2490100871032
 21
1053.0467153284583
  0
LINE
  8
_0-0_計極細
  6
CONTINUOUS
 62
    2
 10
1077.2490100871032
 20
1058.6467153284586
 11
1077.2490100871032
 21
1053.0467153284583
  0
LINE
  8
_0-0_計極細
  6
CONTINUOUS
 62
    2
 10
1064.2490100871032
 20
1075.6467153284591
 11
1064.2490100871032
 21
1070.0467153284592
  0
LINE
  8
_0-0_計極細
  6
CONTINUOUS
 62
    2
 10
1077.2490100871032
 20
1075.6467153284591
 11
1077.2490100871032
 21
1070.0467153284592
  0
LINE
  8
_0-0_計極細
  6
CONTINUOUS
 62
    2
 10
1064.2490100871032
 20
1092.64671532846
 11
1064.2490100871032
 21
1087.0467153284596
  0
LINE
  8
_0-0_計極細
  6
CONTINUOUS
 62
    2
 10
1077.2490100871032
 20
1092.64671532846
 11
1077.2490100871032
 21
1087.0467153284596
  0
LINE
  8
_0-0_計極細
  6
CONTINUOUS
 62
    2
 10
1064.2490100871032
 20
1109.6467153284605
 11
1064.2490100871032
 21
1104.0467153284606
  0
LINE
  8
_0-0_計極細
  6
CONTINUOUS
 62
    2
 10
1077.2490100871032
 20
1109.6467153284605
 11
1077.2490100871032
 21
1104.0467153284606
  0
LINE
  8
_0-0_計極細
  6
CONTINUOUS
 62
    2
 10
1064.2490100871032
 20
1194.4467153284597
 11
1064.2490100871032
 21
1189.0467153284596
  0
LINE
  8
_0-0_計極細
  6
CONTINUOUS
 62
    2
 10
1077.2490100871032
 20
1194.4467153284597
 11
1077.2490100871032
 21
1189.0467153284596
  0
LINE
  8
_0-0_計極細
  6
CONTINUOUS
 62
    2
 10
1064.2490100871032
 20
917.24671532845991
 11
1064.2490100871032
 21
922.64671532845955
  0
LINE
  8
_0-0_計極細
  6
CONTINUOUS
 62
    2
 10
1077.2490100871032
 20
917.24671532845991
 11
1077.2490100871032
 21
922.64671532845955
  0
LINE
  8
_0-0_計極細
  6
CONTINUOUS
 62
    2
 10
1064.2490100871032
 20
1126.6467153284595
 11
1064.2490100871032
 21
1121.0467153284596
  0
LINE
  8
_0-0_計極細
  6
CONTINUOUS
 62
    2
 10
1077.2490100871032
 20
1126.6467153284595
 11
1077.2490100871032
 21
1121.0467153284596
  0
LINE
  8
_0-0_計極細
  6
CONTINUOUS
 62
    2
 10
1064.2490100871032
 20
1143.6467153284586
 11
1064.2490100871032
 21
1138.0467153284587
  0
LINE
  8
_0-0_計極細
  6
CONTINUOUS
 62
    2
 10
1077.2490100871032
 20
1143.6467153284586
 11
1077.2490100871032
 21
1138.0467153284587
  0
LINE
  8
_0-0_計極細
  6
CONTINUOUS
 62
    2
 10
1064.2490100871032
 20
1160.6467153284577
 11
1064.2490100871032
 21
1155.0467153284578
  0
LINE
  8
_0-0_計極細
  6
CONTINUOUS
 62
    2
 10
1077.2490100871032
 20
1160.6467153284577
 11
1077.2490100871032
 21
1155.0467153284578
  0
LINE
  8
_0-0_計極細
  6
CONTINUOUS
 62
    2
 10
1064.2490100871032
 20
1177.6467153284568
 11
1064.2490100871032
 21
1172.0467153284569
  0
LINE
  8
_0-0_計極細
  6
CONTINUOUS
 62
    2
 10
1077.2490100871032
 20
1177.6467153284568
 11
1077.2490100871032
 21
1172.0467153284569
  0
LINE
  8
_0-0_計極細
  6
CONTINUOUS
 62
    2
 10
1064.2490100871032
 20
985.046715328461
 11
1064.2490100871032
 21
990.64671532846091
  0
LINE
  8
_0-0_計極細
  6
CONTINUOUS
 62
    2
 10
1077.2490100871032
 20
985.046715328461
 11
1077.2490100871032
 21
990.64671532846091
  0
LINE
  8
_0-0_計極細
  6
CONTINUOUS
 62
    2
 10
1064.2490100871032
 20
968.04671532846191
 11
1064.2490100871032
 21
973.64671532846182
  0
LINE
  8
_0-0_計極細
  6
CONTINUOUS
 62
    2
 10
1077.2490100871032
 20
968.04671532846191
 11
1077.2490100871032
 21
973.64671532846182
  0
LINE
  8
_0-0_計極細
  6
CONTINUOUS
 62
    2
 10
1064.2490100871032
 20
951.04671532846282
 11
1064.2490100871032
 21
956.64671532846273
  0
LINE
  8
_0-0_計極細
  6
CONTINUOUS
 62
    2
 10
1077.2490100871032
 20
951.04671532846282
 11
1077.2490100871032
 21
956.64671532846273
  0
LINE
  8
_0-0_計極細
  6
CONTINUOUS
 62
    2
 10
1064.2490100871032
 20
934.04671532846373
 11
1064.2490100871032
 21
939.64671532846364
  0
LINE
  8
_0-0_計極細
  6
CONTINUOUS
 62
    2
 10
1077.2490100871032
 20
934.04671532846373
 11
1077.2490100871032
 21
939.64671532846364
  0
LINE
  8
_0-0_計極細
  6
CENTER1
 62
    2
 10
973.7490100871031
 20
1214.597434752922
 11
973.7490100871031
 21
898.08889158744864
  0
LINE
  8
_0-0_計極細
  6
CONTINUOUS
 62
    2
 10
967.2490100871031
 20
1002.046715328461
 11
967.2490100871031
 21
1007.6467153284614
  0
LINE
  8
_0-0_計極細
  6
CONTINUOUS
 62
    2
 10
980.2490100871031
 20
1002.046715328461
 11
980.2490100871031
 21
1007.6467153284614
  0
LINE
  8
_0-0_計極細
  6
CONTINUOUS
 62
    2
 10
967.2490100871031
 20
1019.0467153284619
 11
967.2490100871031
 21
1024.6467153284618
  0
LINE
  8
_0-0_計極細
  6
CONTINUOUS
 62
    2
 10
980.2490100871031
 20
1019.0467153284619
 11
980.2490100871031
 21
1024.6467153284618
  0
LINE
  8
_0-0_計極細
  6
CONTINUOUS
 62
    2
 10
967.2490100871031
 20
1041.6467153284577
 11
967.2490100871031
 21
1036.0467153284578
  0
LINE
  8
_0-0_計極細
  6
CONTINUOUS
 62
    2
 10
980.2490100871031
 20
1041.6467153284577
 11
980.2490100871031
 21
1036.0467153284578
  0
LINE
  8
_0-0_計極細
  6
CONTINUOUS
 62
    2
 10
967.2490100871031
 20
1058.6467153284586
 11
967.2490100871031
 21
1053.0467153284583
  0
LINE
  8
_0-0_計極細
  6
CONTINUOUS
 62
    2
 10
980.2490100871031
 20
1058.6467153284586
 11
980.2490100871031
 21
1053.0467153284583
  0
LINE
  8
_0-0_計極細
  6
CONTINUOUS
 62
    2
 10
967.2490100871031
 20
1075.6467153284591
 11
967.2490100871031
 21
1070.0467153284592
  0
LINE
  8
_0-0_計極細
  6
CONTINUOUS
 62
    2
 10
980.2490100871031
 20
1075.6467153284591
 11
980.2490100871031
 21
1070.0467153284592
  0
LINE
  8
_0-0_計極細
  6
CONTINUOUS
 62
    2
 10
967.2490100871031
 20
1092.64671532846
 11
967.2490100871031
 21
1087.0467153284596
  0
LINE
  8
_0-0_計極細
  6
CONTINUOUS
 62
    2
 10
980.2490100871031
 20
1092.64671532846
 11
980.2490100871031
 21
1087.0467153284596
  0
LINE
  8
_0-0_計極細
  6
CONTINUOUS
 62
    2
 10
967.2490100871031
 20
1109.6467153284605
 11
967.2490100871031
 21
1104.0467153284606
  0
LINE
  8
_0-0_計極細
  6
CONTINUOUS
 62
    2
 10
980.2490100871031
 20
1109.6467153284605
 11
980.2490100871031
 21
1104.0467153284606
  0
LINE
  8
_0-0_計極細
  6
CONTINUOUS
 62
    2
 10
967.2490100871031
 20
1194.4467153284597
 11
967.2490100871031
 21
1189.0467153284596
  0
LINE
  8
_0-0_計極細
  6
CONTINUOUS
 62
    2
 10
980.2490100871031
 20
1194.4467153284597
 11
980.2490100871031
 21
1189.0467153284596
  0
LINE
  8
_0-0_計極細
  6
CONTINUOUS
 62
    2
 10
967.2490100871031
 20
917.24671532845991
 11
967.2490100871031
 21
922.64671532845955
  0
LINE
  8
_0-0_計極細
  6
CONTINUOUS
 62
    2
 10
980.2490100871031
 20
917.24671532845991
 11
980.2490100871031
 21
922.64671532845955
  0
LINE
  8
_0-0_計極細
  6
CONTINUOUS
 62
    2
 10
967.2490100871031
 20
1126.6467153284595
 11
967.2490100871031
 21
1121.0467153284596
  0
LINE
  8
_0-0_計極細
  6
CONTINUOUS
 62
    2
 10
980.2490100871031
 20
1126.6467153284595
 11
980.2490100871031
 21
1121.0467153284596
  0
LINE
  8
_0-0_計極細
  6
CONTINUOUS
 62
    2
 10
967.2490100871031
 20
1143.6467153284586
 11
967.2490100871031
 21
1138.0467153284587
  0
LINE
  8
_0-0_計極細
  6
CONTINUOUS
 62
    2
 10
980.2490100871031
 20
1143.6467153284586
 11
980.2490100871031
 21
1138.0467153284587
  0
LINE
  8
_0-0_計極細
  6
CONTINUOUS
 62
    2
 10
967.2490100871031
 20
1160.6467153284577
 11
967.2490100871031
 21
1155.0467153284578
  0
LINE
  8
_0-0_計極細
  6
CONTINUOUS
 62
    2
 10
980.2490100871031
 20
1160.6467153284577
 11
980.2490100871031
 21
1155.0467153284578
  0
LINE
  8
_0-0_計極細
  6
CONTINUOUS
 62
    2
 10
967.2490100871031
 20
1177.6467153284568
 11
967.2490100871031
 21
1172.0467153284569
  0
LINE
  8
_0-0_計極細
  6
CONTINUOUS
 62
    2
 10
980.2490100871031
 20
1177.6467153284568
 11
980.2490100871031
 21
1172.0467153284569
  0
LINE
  8
_0-0_計極細
  6
CONTINUOUS
 62
    2
 10
967.2490100871031
 20
985.046715328461
 11
967.2490100871031
 21
990.64671532846091
  0
LINE
  8
_0-0_計極細
  6
CONTINUOUS
 62
    2
 10
980.2490100871031
 20
985.046715328461
 11
980.2490100871031
 21
990.64671532846091
  0
LINE
  8
_0-0_計極細
  6
CONTINUOUS
 62
    2
 10
967.2490100871031
 20
968.04671532846191
 11
967.2490100871031
 21
973.64671532846182
  0
LINE
  8
_0-0_計極細
  6
CONTINUOUS
 62
    2
 10
980.2490100871031
 20
968.04671532846191
 11
980.2490100871031
 21
973.64671532846182
  0
LINE
  8
_0-0_計極細
  6
CONTINUOUS
 62
    2
 10
967.2490100871031
 20
951.04671532846282
 11
967.2490100871031
 21
956.64671532846273
  0
LINE
  8
_0-0_計極細
  6
CONTINUOUS
 62
    2
 10
980.2490100871031
 20
951.04671532846282
 11
980.2490100871031
 21
956.64671532846273
  0
LINE
  8
_0-0_計極細
  6
CONTINUOUS
 62
    2
 10
967.2490100871031
 20
934.04671532846373
 11
967.2490100871031
 21
939.64671532846364
  0
LINE
  8
_0-0_計極細
  6
CONTINUOUS
 62
    2
 10
980.2490100871031
 20
934.04671532846373
 11
980.2490100871031
 21
939.64671532846364
  0
LINE
  8
_0-0_計極細
  6
CENTER1
 62
    2
 10
876.7490100871031
 20
1214.597434752922
 11
876.7490100871031
 21
898.08889158744864
  0
LINE
  8
_0-0_計極細
  6
CONTINUOUS
 62
    2
 10
870.2490100871031
 20
1002.046715328461
 11
870.2490100871031
 21
1007.6467153284614
  0
LINE
  8
_0-0_計極細
  6
CONTINUOUS
 62
    2
 10
883.2490100871031
 20
1002.046715328461
 11
883.2490100871031
 21
1007.6467153284614
  0
LINE
  8
_0-0_計極細
  6
CONTINUOUS
 62
    2
 10
870.2490100871031
 20
1019.0467153284619
 11
870.2490100871031
 21
1024.6467153284618
  0
LINE
  8
_0-0_計極細
  6
CONTINUOUS
 62
    2
 10
883.2490100871031
 20
1019.0467153284619
 11
883.2490100871031
 21
1024.6467153284618
  0
LINE
  8
_0-0_計極細
  6
CONTINUOUS
 62
    2
 10
870.2490100871031
 20
1041.6467153284577
 11
870.2490100871031
 21
1036.0467153284578
  0
LINE
  8
_0-0_計極細
  6
CONTINUOUS
 62
    2
 10
883.2490100871031
 20
1041.6467153284577
 11
883.2490100871031
 21
1036.0467153284578
  0
LINE
  8
_0-0_計極細
  6
CONTINUOUS
 62
    2
 10
870.2490100871031
 20
1058.6467153284586
 11
870.2490100871031
 21
1053.0467153284583
  0
LINE
  8
_0-0_計極細
  6
CONTINUOUS
 62
    2
 10
883.2490100871031
 20
1058.6467153284586
 11
883.2490100871031
 21
1053.0467153284583
  0
LINE
  8
_0-0_計極細
  6
CONTINUOUS
 62
    2
 10
870.2490100871031
 20
1075.6467153284591
 11
870.2490100871031
 21
1070.0467153284592
  0
LINE
  8
_0-0_計極細
  6
CONTINUOUS
 62
    2
 10
883.2490100871031
 20
1075.6467153284591
 11
883.2490100871031
 21
1070.0467153284592
  0
LINE
  8
_0-0_計極細
  6
CONTINUOUS
 62
    2
 10
870.2490100871031
 20
1092.64671532846
 11
870.2490100871031
 21
1087.0467153284596
  0
LINE
  8
_0-0_計極細
  6
CONTINUOUS
 62
    2
 10
883.2490100871031
 20
1092.64671532846
 11
883.2490100871031
 21
1087.0467153284596
  0
LINE
  8
_0-0_計極細
  6
CONTINUOUS
 62
    2
 10
870.2490100871031
 20
1109.6467153284605
 11
870.2490100871031
 21
1104.0467153284606
  0
LINE
  8
_0-0_計極細
  6
CONTINUOUS
 62
    2
 10
883.2490100871031
 20
1109.6467153284605
 11
883.2490100871031
 21
1104.0467153284606
  0
LINE
  8
_0-0_計極細
  6
CONTINUOUS
 62
    2
 10
870.2490100871031
 20
1194.4467153284597
 11
870.2490100871031
 21
1189.0467153284596
  0
LINE
  8
_0-0_計極細
  6
CONTINUOUS
 62
    2
 10
883.2490100871031
 20
1194.4467153284597
 11
883.2490100871031
 21
1189.0467153284596
  0
LINE
  8
_0-0_計極細
  6
CONTINUOUS
 62
    2
 10
870.2490100871031
 20
917.24671532845991
 11
870.2490100871031
 21
922.64671532845955
  0
LINE
  8
_0-0_計極細
  6
CONTINUOUS
 62
    2
 10
883.2490100871031
 20
917.24671532845991
 11
883.2490100871031
 21
922.64671532845955
  0
LINE
  8
_0-0_計極細
  6
CONTINUOUS
 62
    2
 10
870.2490100871031
 20
1126.6467153284595
 11
870.2490100871031
 21
1121.0467153284596
  0
LINE
  8
_0-0_計極細
  6
CONTINUOUS
 62
    2
 10
883.2490100871031
 20
1126.6467153284595
 11
883.2490100871031
 21
1121.0467153284596
  0
LINE
  8
_0-0_計極細
  6
CONTINUOUS
 62
    2
 10
870.2490100871031
 20
1143.6467153284586
 11
870.2490100871031
 21
1138.0467153284587
  0
LINE
  8
_0-0_計極細
  6
CONTINUOUS
 62
    2
 10
883.2490100871031
 20
1143.6467153284586
 11
883.2490100871031
 21
1138.0467153284587
  0
LINE
  8
_0-0_計極細
  6
CONTINUOUS
 62
    2
 10
870.2490100871031
 20
1160.6467153284577
 11
870.2490100871031
 21
1155.0467153284578
  0
LINE
  8
_0-0_計極細
  6
CONTINUOUS
 62
    2
 10
883.2490100871031
 20
1160.6467153284577
 11
883.2490100871031
 21
1155.0467153284578
  0
LINE
  8
_0-0_計極細
  6
CONTINUOUS
 62
    2
 10
870.2490100871031
 20
1177.6467153284568
 11
870.2490100871031
 21
1172.0467153284569
  0
LINE
  8
_0-0_計極細
  6
CONTINUOUS
 62
    2
 10
883.2490100871031
 20
1177.6467153284568
 11
883.2490100871031
 21
1172.0467153284569
  0
LINE
  8
_0-0_計極細
  6
CONTINUOUS
 62
    2
 10
870.2490100871031
 20
985.046715328461
 11
870.2490100871031
 21
990.64671532846091
  0
LINE
  8
_0-0_計極細
  6
CONTINUOUS
 62
    2
 10
883.2490100871031
 20
985.046715328461
 11
883.2490100871031
 21
990.64671532846091
  0
LINE
  8
_0-0_計極細
  6
CONTINUOUS
 62
    2
 10
870.2490100871031
 20
968.04671532846191
 11
870.2490100871031
 21
973.64671532846182
  0
LINE
  8
_0-0_計極細
  6
CONTINUOUS
 62
    2
 10
883.2490100871031
 20
968.04671532846191
 11
883.2490100871031
 21
973.64671532846182
  0
LINE
  8
_0-0_計極細
  6
CONTINUOUS
 62
    2
 10
870.2490100871031
 20
951.04671532846282
 11
870.2490100871031
 21
956.64671532846273
  0
LINE
  8
_0-0_計極細
  6
CONTINUOUS
 62
    2
 10
883.2490100871031
 20
951.04671532846282
 11
883.2490100871031
 21
956.64671532846273
  0
LINE
  8
_0-0_計極細
  6
CONTINUOUS
 62
    2
 10
870.2490100871031
 20
934.04671532846373
 11
870.2490100871031
 21
939.64671532846364
  0
LINE
  8
_0-0_計極細
  6
CONTINUOUS
 62
    2
 10
883.2490100871031
 20
934.04671532846373
 11
883.2490100871031
 21
939.64671532846364
  0
LINE
  8
_0-0_計極細
  6
CENTER1
 62
    2
 10
779.7490100871031
 20
1214.597434752922
 11
779.7490100871031
 21
898.08889158744864
  0
LINE
  8
_0-0_計極細
  6
CONTINUOUS
 62
    2
 10
773.2490100871031
 20
1002.046715328461
 11
773.2490100871031
 21
1007.6467153284614
  0
LINE
  8
_0-0_計極細
  6
CONTINUOUS
 62
    2
 10
786.2490100871031
 20
1002.046715328461
 11
786.2490100871031
 21
1007.6467153284614
  0
LINE
  8
_0-0_計極細
  6
CONTINUOUS
 62
    2
 10
773.2490100871031
 20
1019.0467153284619
 11
773.2490100871031
 21
1024.6467153284618
  0
LINE
  8
_0-0_計極細
  6
CONTINUOUS
 62
    2
 10
786.2490100871031
 20
1019.0467153284619
 11
786.2490100871031
 21
1024.6467153284618
  0
LINE
  8
_0-0_計極細
  6
CONTINUOUS
 62
    2
 10
773.2490100871031
 20
1041.6467153284577
 11
773.2490100871031
 21
1036.0467153284578
  0
LINE
  8
_0-0_計極細
  6
CONTINUOUS
 62
    2
 10
786.2490100871031
 20
1041.6467153284577
 11
786.2490100871031
 21
1036.0467153284578
  0
LINE
  8
_0-0_計極細
  6
CONTINUOUS
 62
    2
 10
773.2490100871031
 20
1058.6467153284586
 11
773.2490100871031
 21
1053.0467153284583
  0
LINE
  8
_0-0_計極細
  6
CONTINUOUS
 62
    2
 10
786.2490100871031
 20
1058.6467153284586
 11
786.2490100871031
 21
1053.0467153284583
  0
LINE
  8
_0-0_計極細
  6
CONTINUOUS
 62
    2
 10
773.2490100871031
 20
1075.6467153284591
 11
773.2490100871031
 21
1070.0467153284592
  0
LINE
  8
_0-0_計極細
  6
CONTINUOUS
 62
    2
 10
786.2490100871031
 20
1075.6467153284591
 11
786.2490100871031
 21
1070.0467153284592
  0
LINE
  8
_0-0_計極細
  6
CONTINUOUS
 62
    2
 10
773.2490100871031
 20
1092.64671532846
 11
773.2490100871031
 21
1087.0467153284596
  0
LINE
  8
_0-0_計極細
  6
CONTINUOUS
 62
    2
 10
786.2490100871031
 20
1092.64671532846
 11
786.2490100871031
 21
1087.0467153284596
  0
LINE
  8
_0-0_計極細
  6
CONTINUOUS
 62
    2
 10
773.2490100871031
 20
1109.6467153284605
 11
773.2490100871031
 21
1104.0467153284606
  0
LINE
  8
_0-0_計極細
  6
CONTINUOUS
 62
    2
 10
786.2490100871031
 20
1109.6467153284605
 11
786.2490100871031
 21
1104.0467153284606
  0
LINE
  8
_0-0_計極細
  6
CONTINUOUS
 62
    2
 10
773.2490100871031
 20
1194.4467153284597
 11
773.2490100871031
 21
1189.0467153284596
  0
LINE
  8
_0-0_計極細
  6
CONTINUOUS
 62
    2
 10
786.2490100871031
 20
1194.4467153284597
 11
786.2490100871031
 21
1189.0467153284596
  0
LINE
  8
_0-0_計極細
  6
CONTINUOUS
 62
    2
 10
773.2490100871031
 20
917.24671532845991
 11
773.2490100871031
 21
922.64671532845955
  0
LINE
  8
_0-0_計極細
  6
CONTINUOUS
 62
    2
 10
786.2490100871031
 20
917.24671532845991
 11
786.2490100871031
 21
922.64671532845955
  0
LINE
  8
_0-0_計極細
  6
CONTINUOUS
 62
    2
 10
773.2490100871031
 20
1126.6467153284595
 11
773.2490100871031
 21
1121.0467153284596
  0
LINE
  8
_0-0_計極細
  6
CONTINUOUS
 62
    2
 10
786.2490100871031
 20
1126.6467153284595
 11
786.2490100871031
 21
1121.0467153284596
  0
LINE
  8
_0-0_計極細
  6
CONTINUOUS
 62
    2
 10
773.2490100871031
 20
1143.6467153284586
 11
773.2490100871031
 21
1138.0467153284587
  0
LINE
  8
_0-0_計極細
  6
CONTINUOUS
 62
    2
 10
786.2490100871031
 20
1143.6467153284586
 11
786.2490100871031
 21
1138.0467153284587
  0
LINE
  8
_0-0_計極細
  6
CONTINUOUS
 62
    2
 10
773.2490100871031
 20
1160.6467153284577
 11
773.2490100871031
 21
1155.0467153284578
  0
LINE
  8
_0-0_計極細
  6
CONTINUOUS
 62
    2
 10
786.2490100871031
 20
1160.6467153284577
 11
786.2490100871031
 21
1155.0467153284578
  0
LINE
  8
_0-0_計極細
  6
CONTINUOUS
 62
    2
 10
773.2490100871031
 20
1177.6467153284568
 11
773.2490100871031
 21
1172.0467153284569
  0
LINE
  8
_0-0_計極細
  6
CONTINUOUS
 62
    2
 10
786.2490100871031
 20
1177.6467153284568
 11
786.2490100871031
 21
1172.0467153284569
  0
LINE
  8
_0-0_計極細
  6
CONTINUOUS
 62
    2
 10
773.2490100871031
 20
985.046715328461
 11
773.2490100871031
 21
990.64671532846091
  0
LINE
  8
_0-0_計極細
  6
CONTINUOUS
 62
    2
 10
786.2490100871031
 20
985.046715328461
 11
786.2490100871031
 21
990.64671532846091
  0
LINE
  8
_0-0_計極細
  6
CONTINUOUS
 62
    2
 10
773.2490100871031
 20
968.04671532846191
 11
773.2490100871031
 21
973.64671532846182
  0
LINE
  8
_0-0_計極細
  6
CONTINUOUS
 62
    2
 10
786.2490100871031
 20
968.04671532846191
 11
786.2490100871031
 21
973.64671532846182
  0
LINE
  8
_0-0_計極細
  6
CONTINUOUS
 62
    2
 10
773.2490100871031
 20
951.04671532846282
 11
773.2490100871031
 21
956.64671532846273
  0
LINE
  8
_0-0_計極細
  6
CONTINUOUS
 62
    2
 10
786.2490100871031
 20
951.04671532846282
 11
786.2490100871031
 21
956.64671532846273
  0
LINE
  8
_0-0_計極細
  6
CONTINUOUS
 62
    2
 10
773.2490100871031
 20
934.04671532846373
 11
773.2490100871031
 21
939.64671532846364
  0
LINE
  8
_0-0_計極細
  6
CONTINUOUS
 62
    2
 10
786.2490100871031
 20
934.04671532846373
 11
786.2490100871031
 21
939.64671532846364
  0
LINE
  8
_0-0_計極細
  6
CENTER1
 62
    2
 10
682.7490100871031
 20
1214.597434752922
 11
682.7490100871031
 21
898.08889158744864
  0
LINE
  8
_0-0_計極細
  6
CONTINUOUS
 62
    2
 10
676.2490100871031
 20
1002.046715328461
 11
676.2490100871031
 21
1007.6467153284614
  0
LINE
  8
_0-0_計極細
  6
CONTINUOUS
 62
    2
 10
689.2490100871031
 20
1002.046715328461
 11
689.2490100871031
 21
1007.6467153284614
  0
LINE
  8
_0-0_計極細
  6
CONTINUOUS
 62
    2
 10
676.2490100871031
 20
1019.0467153284619
 11
676.2490100871031
 21
1024.6467153284618
  0
LINE
  8
_0-0_計極細
  6
CONTINUOUS
 62
    2
 10
689.2490100871031
 20
1019.0467153284619
 11
689.2490100871031
 21
1024.6467153284618
  0
LINE
  8
_0-0_計極細
  6
CONTINUOUS
 62
    2
 10
676.2490100871031
 20
1041.6467153284577
 11
676.2490100871031
 21
1036.0467153284578
  0
LINE
  8
_0-0_計極細
  6
CONTINUOUS
 62
    2
 10
689.2490100871031
 20
1041.6467153284577
 11
689.2490100871031
 21
1036.0467153284578
  0
LINE
  8
_0-0_計極細
  6
CONTINUOUS
 62
    2
 10
676.2490100871031
 20
1058.6467153284586
 11
676.2490100871031
 21
1053.0467153284583
  0
LINE
  8
_0-0_計極細
  6
CONTINUOUS
 62
    2
 10
689.2490100871031
 20
1058.6467153284586
 11
689.2490100871031
 21
1053.0467153284583
  0
LINE
  8
_0-0_計極細
  6
CONTINUOUS
 62
    2
 10
676.2490100871031
 20
1075.6467153284591
 11
676.2490100871031
 21
1070.0467153284592
  0
LINE
  8
_0-0_計極細
  6
CONTINUOUS
 62
    2
 10
689.2490100871031
 20
1075.6467153284591
 11
689.2490100871031
 21
1070.0467153284592
  0
LINE
  8
_0-0_計極細
  6
CONTINUOUS
 62
    2
 10
676.2490100871031
 20
1092.64671532846
 11
676.2490100871031
 21
1087.0467153284596
  0
LINE
  8
_0-0_計極細
  6
CONTINUOUS
 62
    2
 10
689.2490100871031
 20
1092.64671532846
 11
689.2490100871031
 21
1087.0467153284596
  0
LINE
  8
_0-0_計極細
  6
CONTINUOUS
 62
    2
 10
676.2490100871031
 20
1109.6467153284605
 11
676.2490100871031
 21
1104.0467153284606
  0
LINE
  8
_0-0_計極細
  6
CONTINUOUS
 62
    2
 10
689.2490100871031
 20
1109.6467153284605
 11
689.2490100871031
 21
1104.0467153284606
  0
LINE
  8
_0-0_計極細
  6
CONTINUOUS
 62
    2
 10
676.2490100871031
 20
1194.4467153284597
 11
676.2490100871031
 21
1189.0467153284596
  0
LINE
  8
_0-0_計極細
  6
CONTINUOUS
 62
    2
 10
689.2490100871031
 20
1194.4467153284597
 11
689.2490100871031
 21
1189.0467153284596
  0
LINE
  8
_0-0_計極細
  6
CONTINUOUS
 62
    2
 10
676.2490100871031
 20
917.24671532845991
 11
676.2490100871031
 21
922.64671532845955
  0
LINE
  8
_0-0_計極細
  6
CONTINUOUS
 62
    2
 10
689.2490100871031
 20
917.24671532845991
 11
689.2490100871031
 21
922.64671532845955
  0
LINE
  8
_0-0_計極細
  6
CONTINUOUS
 62
    2
 10
676.2490100871031
 20
1126.6467153284595
 11
676.2490100871031
 21
1121.0467153284596
  0
LINE
  8
_0-0_計極細
  6
CONTINUOUS
 62
    2
 10
689.2490100871031
 20
1126.6467153284595
 11
689.2490100871031
 21
1121.0467153284596
  0
LINE
  8
_0-0_計極細
  6
CONTINUOUS
 62
    2
 10
676.2490100871031
 20
1143.6467153284586
 11
676.2490100871031
 21
1138.0467153284587
  0
LINE
  8
_0-0_計極細
  6
CONTINUOUS
 62
    2
 10
689.2490100871031
 20
1143.6467153284586
 11
689.2490100871031
 21
1138.0467153284587
  0
LINE
  8
_0-0_計極細
  6
CONTINUOUS
 62
    2
 10
676.2490100871031
 20
1160.6467153284577
 11
676.2490100871031
 21
1155.0467153284578
  0
LINE
  8
_0-0_計極細
  6
CONTINUOUS
 62
    2
 10
689.2490100871031
 20
1160.6467153284577
 11
689.2490100871031
 21
1155.0467153284578
  0
LINE
  8
_0-0_計極細
  6
CONTINUOUS
 62
    2
 10
676.2490100871031
 20
1177.6467153284568
 11
676.2490100871031
 21
1172.0467153284569
  0
LINE
  8
_0-0_計極細
  6
CONTINUOUS
 62
    2
 10
689.2490100871031
 20
1177.6467153284568
 11
689.2490100871031
 21
1172.0467153284569
  0
LINE
  8
_0-0_計極細
  6
CONTINUOUS
 62
    2
 10
676.2490100871031
 20
985.046715328461
 11
676.2490100871031
 21
990.64671532846091
  0
LINE
  8
_0-0_計極細
  6
CONTINUOUS
 62
    2
 10
689.2490100871031
 20
985.046715328461
 11
689.2490100871031
 21
990.64671532846091
  0
LINE
  8
_0-0_計極細
  6
CONTINUOUS
 62
    2
 10
676.2490100871031
 20
968.04671532846191
 11
676.2490100871031
 21
973.64671532846182
  0
LINE
  8
_0-0_計極細
  6
CONTINUOUS
 62
    2
 10
689.2490100871031
 20
968.04671532846191
 11
689.2490100871031
 21
973.64671532846182
  0
LINE
  8
_0-0_計極細
  6
CONTINUOUS
 62
    2
 10
676.2490100871031
 20
951.04671532846282
 11
676.2490100871031
 21
956.64671532846273
  0
LINE
  8
_0-0_計極細
  6
CONTINUOUS
 62
    2
 10
689.2490100871031
 20
951.04671532846282
 11
689.2490100871031
 21
956.64671532846273
  0
LINE
  8
_0-0_計極細
  6
CONTINUOUS
 62
    2
 10
676.2490100871031
 20
934.04671532846373
 11
676.2490100871031
 21
939.64671532846364
  0
LINE
  8
_0-0_計極細
  6
CONTINUOUS
 62
    2
 10
689.2490100871031
 20
934.04671532846373
 11
689.2490100871031
 21
939.64671532846364
  0
LINE
  8
_0-0_計極細
  6
CENTER1
 62
    2
 10
585.7490100871031
 20
1214.597434752922
 11
585.7490100871031
 21
898.08889158744864
  0
LINE
  8
_0-0_計極細
  6
CONTINUOUS
 62
    2
 10
579.2490100871031
 20
1002.046715328461
 11
579.2490100871031
 21
1007.6467153284614
  0
LINE
  8
_0-0_計極細
  6
CONTINUOUS
 62
    2
 10
592.2490100871031
 20
1002.046715328461
 11
592.2490100871031
 21
1007.6467153284614
  0
LINE
  8
_0-0_計極細
  6
CONTINUOUS
 62
    2
 10
579.2490100871031
 20
1019.0467153284619
 11
579.2490100871031
 21
1024.6467153284618
  0
LINE
  8
_0-0_計極細
  6
CONTINUOUS
 62
    2
 10
592.2490100871031
 20
1019.0467153284619
 11
592.2490100871031
 21
1024.6467153284618
  0
LINE
  8
_0-0_計極細
  6
CONTINUOUS
 62
    2
 10
579.2490100871031
 20
1041.6467153284577
 11
579.2490100871031
 21
1036.0467153284578
  0
LINE
  8
_0-0_計極細
  6
CONTINUOUS
 62
    2
 10
592.2490100871031
 20
1041.6467153284577
 11
592.2490100871031
 21
1036.0467153284578
  0
LINE
  8
_0-0_計極細
  6
CONTINUOUS
 62
    2
 10
579.2490100871031
 20
1058.6467153284586
 11
579.2490100871031
 21
1053.0467153284583
  0
LINE
  8
_0-0_計極細
  6
CONTINUOUS
 62
    2
 10
592.2490100871031
 20
1058.6467153284586
 11
592.2490100871031
 21
1053.0467153284583
  0
LINE
  8
_0-0_計極細
  6
CONTINUOUS
 62
    2
 10
579.2490100871031
 20
1075.6467153284591
 11
579.2490100871031
 21
1070.0467153284592
  0
LINE
  8
_0-0_計極細
  6
CONTINUOUS
 62
    2
 10
592.2490100871031
 20
1075.6467153284591
 11
592.2490100871031
 21
1070.0467153284592
  0
LINE
  8
_0-0_計極細
  6
CONTINUOUS
 62
    2
 10
579.2490100871031
 20
1092.64671532846
 11
579.2490100871031
 21
1087.0467153284596
  0
LINE
  8
_0-0_計極細
  6
CONTINUOUS
 62
    2
 10
592.2490100871031
 20
1092.64671532846
 11
592.2490100871031
 21
1087.0467153284596
  0
LINE
  8
_0-0_計極細
  6
CONTINUOUS
 62
    2
 10
579.2490100871031
 20
1109.6467153284605
 11
579.2490100871031
 21
1104.0467153284606
  0
LINE
  8
_0-0_計極細
  6
CONTINUOUS
 62
    2
 10
592.2490100871031
 20
1109.6467153284605
 11
592.2490100871031
 21
1104.0467153284606
  0
LINE
  8
_0-0_計極細
  6
CONTINUOUS
 62
    2
 10
579.2490100871031
 20
1194.4467153284597
 11
579.2490100871031
 21
1189.0467153284596
  0
LINE
  8
_0-0_計極細
  6
CONTINUOUS
 62
    2
 10
592.2490100871031
 20
1194.4467153284597
 11
592.2490100871031
 21
1189.0467153284596
  0
LINE
  8
_0-0_計極細
  6
CONTINUOUS
 62
    2
 10
579.2490100871031
 20
917.24671532845991
 11
579.2490100871031
 21
922.64671532845955
  0
LINE
  8
_0-0_計極細
  6
CONTINUOUS
 62
    2
 10
592.2490100871031
 20
917.24671532845991
 11
592.2490100871031
 21
922.64671532845955
  0
LINE
  8
_0-0_計極細
  6
CONTINUOUS
 62
    2
 10
579.2490100871031
 20
1126.6467153284595
 11
579.2490100871031
 21
1121.0467153284596
  0
LINE
  8
_0-0_計極細
  6
CONTINUOUS
 62
    2
 10
592.2490100871031
 20
1126.6467153284595
 11
592.2490100871031
 21
1121.0467153284596
  0
LINE
  8
_0-0_計極細
  6
CONTINUOUS
 62
    2
 10
579.2490100871031
 20
1143.6467153284586
 11
579.2490100871031
 21
1138.0467153284587
  0
LINE
  8
_0-0_計極細
  6
CONTINUOUS
 62
    2
 10
592.2490100871031
 20
1143.6467153284586
 11
592.2490100871031
 21
1138.0467153284587
  0
LINE
  8
_0-0_計極細
  6
CONTINUOUS
 62
    2
 10
579.2490100871031
 20
1160.6467153284577
 11
579.2490100871031
 21
1155.0467153284578
  0
LINE
  8
_0-0_計極細
  6
CONTINUOUS
 62
    2
 10
592.2490100871031
 20
1160.6467153284577
 11
592.2490100871031
 21
1155.0467153284578
  0
LINE
  8
_0-0_計極細
  6
CONTINUOUS
 62
    2
 10
579.2490100871031
 20
1177.6467153284568
 11
579.2490100871031
 21
1172.0467153284569
  0
LINE
  8
_0-0_計極細
  6
CONTINUOUS
 62
    2
 10
592.2490100871031
 20
1177.6467153284568
 11
592.2490100871031
 21
1172.0467153284569
  0
LINE
  8
_0-0_計極細
  6
CONTINUOUS
 62
    2
 10
579.2490100871031
 20
985.046715328461
 11
579.2490100871031
 21
990.64671532846091
  0
LINE
  8
_0-0_計極細
  6
CONTINUOUS
 62
    2
 10
592.2490100871031
 20
985.046715328461
 11
592.2490100871031
 21
990.64671532846091
  0
LINE
  8
_0-0_計極細
  6
CONTINUOUS
 62
    2
 10
579.2490100871031
 20
968.04671532846191
 11
579.2490100871031
 21
973.64671532846182
  0
LINE
  8
_0-0_計極細
  6
CONTINUOUS
 62
    2
 10
592.2490100871031
 20
968.04671532846191
 11
592.2490100871031
 21
973.64671532846182
  0
LINE
  8
_0-0_計極細
  6
CONTINUOUS
 62
    2
 10
579.2490100871031
 20
951.04671532846282
 11
579.2490100871031
 21
956.64671532846273
  0
LINE
  8
_0-0_計極細
  6
CONTINUOUS
 62
    2
 10
592.2490100871031
 20
951.04671532846282
 11
592.2490100871031
 21
956.64671532846273
  0
LINE
  8
_0-0_計極細
  6
CONTINUOUS
 62
    2
 10
579.2490100871031
 20
934.04671532846373
 11
579.2490100871031
 21
939.64671532846364
  0
LINE
  8
_0-0_計極細
  6
CONTINUOUS
 62
    2
 10
592.2490100871031
 20
934.04671532846373
 11
592.2490100871031
 21
939.64671532846364
  0
LINE
  8
_0-0_計極細
  6
CENTER1
 62
    2
 10
488.7490100871031
 20
1214.597434752922
 11
488.7490100871031
 21
898.08889158744864
  0
LINE
  8
_0-0_計極細
  6
CONTINUOUS
 62
    2
 10
482.2490100871031
 20
1002.046715328461
 11
482.2490100871031
 21
1007.6467153284614
  0
LINE
  8
_0-0_計極細
  6
CONTINUOUS
 62
    2
 10
495.2490100871031
 20
1002.046715328461
 11
495.2490100871031
 21
1007.6467153284614
  0
LINE
  8
_0-0_計極細
  6
CONTINUOUS
 62
    2
 10
482.2490100871031
 20
1019.0467153284619
 11
482.2490100871031
 21
1024.6467153284618
  0
LINE
  8
_0-0_計極細
  6
CONTINUOUS
 62
    2
 10
495.2490100871031
 20
1019.0467153284619
 11
495.2490100871031
 21
1024.6467153284618
  0
LINE
  8
_0-0_計極細
  6
CONTINUOUS
 62
    2
 10
482.2490100871031
 20
1041.6467153284577
 11
482.2490100871031
 21
1036.0467153284578
  0
LINE
  8
_0-0_計極細
  6
CONTINUOUS
 62
    2
 10
495.2490100871031
 20
1041.6467153284577
 11
495.2490100871031
 21
1036.0467153284578
  0
LINE
  8
_0-0_計極細
  6
CONTINUOUS
 62
    2
 10
482.2490100871031
 20
1058.6467153284586
 11
482.2490100871031
 21
1053.0467153284583
  0
LINE
  8
_0-0_計極細
  6
CONTINUOUS
 62
    2
 10
495.2490100871031
 20
1058.6467153284586
 11
495.2490100871031
 21
1053.0467153284583
  0
LINE
  8
_0-0_計極細
  6
CONTINUOUS
 62
    2
 10
482.2490100871031
 20
1075.6467153284591
 11
482.2490100871031
 21
1070.0467153284592
  0
LINE
  8
_0-0_計極細
  6
CONTINUOUS
 62
    2
 10
495.2490100871031
 20
1075.6467153284591
 11
495.2490100871031
 21
1070.0467153284592
  0
LINE
  8
_0-0_計極細
  6
CONTINUOUS
 62
    2
 10
482.2490100871031
 20
1092.64671532846
 11
482.2490100871031
 21
1087.0467153284596
  0
LINE
  8
_0-0_計極細
  6
CONTINUOUS
 62
    2
 10
495.2490100871031
 20
1092.64671532846
 11
495.2490100871031
 21
1087.0467153284596
  0
LINE
  8
_0-0_計極細
  6
CONTINUOUS
 62
    2
 10
482.2490100871031
 20
1109.6467153284605
 11
482.2490100871031
 21
1104.0467153284606
  0
LINE
  8
_0-0_計極細
  6
CONTINUOUS
 62
    2
 10
495.2490100871031
 20
1109.6467153284605
 11
495.2490100871031
 21
1104.0467153284606
  0
LINE
  8
_0-0_計極細
  6
CONTINUOUS
 62
    2
 10
482.2490100871031
 20
1194.4467153284597
 11
482.2490100871031
 21
1189.0467153284596
  0
LINE
  8
_0-0_計極細
  6
CONTINUOUS
 62
    2
 10
495.2490100871031
 20
1194.4467153284597
 11
495.2490100871031
 21
1189.0467153284596
  0
LINE
  8
_0-0_計極細
  6
CONTINUOUS
 62
    2
 10
482.2490100871031
 20
917.24671532845991
 11
482.2490100871031
 21
922.64671532845955
  0
LINE
  8
_0-0_計極細
  6
CONTINUOUS
 62
    2
 10
495.2490100871031
 20
917.24671532845991
 11
495.2490100871031
 21
922.64671532845955
  0
LINE
  8
_0-0_計極細
  6
CONTINUOUS
 62
    2
 10
482.2490100871031
 20
1126.6467153284595
 11
482.2490100871031
 21
1121.0467153284596
  0
LINE
  8
_0-0_計極細
  6
CONTINUOUS
 62
    2
 10
495.2490100871031
 20
1126.6467153284595
 11
495.2490100871031
 21
1121.0467153284596
  0
LINE
  8
_0-0_計極細
  6
CONTINUOUS
 62
    2
 10
482.2490100871031
 20
1143.6467153284586
 11
482.2490100871031
 21
1138.0467153284587
  0
LINE
  8
_0-0_計極細
  6
CONTINUOUS
 62
    2
 10
495.2490100871031
 20
1143.6467153284586
 11
495.2490100871031
 21
1138.0467153284587
  0
LINE
  8
_0-0_計極細
  6
CONTINUOUS
 62
    2
 10
482.2490100871031
 20
1160.6467153284577
 11
482.2490100871031
 21
1155.0467153284578
  0
LINE
  8
_0-0_計極細
  6
CONTINUOUS
 62
    2
 10
495.2490100871031
 20
1160.6467153284577
 11
495.2490100871031
 21
1155.0467153284578
  0
LINE
  8
_0-0_計極細
  6
CONTINUOUS
 62
    2
 10
482.2490100871031
 20
1177.6467153284568
 11
482.2490100871031
 21
1172.0467153284569
  0
LINE
  8
_0-0_計極細
  6
CONTINUOUS
 62
    2
 10
495.2490100871031
 20
1177.6467153284568
 11
495.2490100871031
 21
1172.0467153284569
  0
LINE
  8
_0-0_計極細
  6
CONTINUOUS
 62
    2
 10
482.2490100871031
 20
985.046715328461
 11
482.2490100871031
 21
990.64671532846091
  0
LINE
  8
_0-0_計極細
  6
CONTINUOUS
 62
    2
 10
495.2490100871031
 20
985.046715328461
 11
495.2490100871031
 21
990.64671532846091
  0
LINE
  8
_0-0_計極細
  6
CONTINUOUS
 62
    2
 10
482.2490100871031
 20
968.04671532846191
 11
482.2490100871031
 21
973.64671532846182
  0
LINE
  8
_0-0_計極細
  6
CONTINUOUS
 62
    2
 10
495.2490100871031
 20
968.04671532846191
 11
495.2490100871031
 21
973.64671532846182
  0
LINE
  8
_0-0_計極細
  6
CONTINUOUS
 62
    2
 10
482.2490100871031
 20
951.04671532846282
 11
482.2490100871031
 21
956.64671532846273
  0
LINE
  8
_0-0_計極細
  6
CONTINUOUS
 62
    2
 10
495.2490100871031
 20
951.04671532846282
 11
495.2490100871031
 21
956.64671532846273
  0
LINE
  8
_0-0_計極細
  6
CONTINUOUS
 62
    2
 10
482.2490100871031
 20
934.04671532846373
 11
482.2490100871031
 21
939.64671532846364
  0
LINE
  8
_0-0_計極細
  6
CONTINUOUS
 62
    2
 10
495.2490100871031
 20
934.04671532846373
 11
495.2490100871031
 21
939.64671532846364
  0
LINE
  8
_0-0_計極細
  6
CENTER1
 62
    2
 10
1119.2490100871032
 20
1214.597434752922
 11
1119.2490100871032
 21
898.08889158744864
  0
LINE
  8
_0-0_計極細
  6
CONTINUOUS
 62
    2
 10
1112.7490100871032
 20
1002.046715328461
 11
1112.7490100871032
 21
1007.6467153284614
  0
LINE
  8
_0-0_計極細
  6
CONTINUOUS
 62
    2
 10
1125.7490100871032
 20
1002.046715328461
 11
1125.7490100871032
 21
1007.6467153284614
  0
LINE
  8
_0-0_計極細
  6
CONTINUOUS
 62
    2
 10
1112.7490100871032
 20
1019.0467153284619
 11
1112.7490100871032
 21
1024.6467153284618
  0
LINE
  8
_0-0_計極細
  6
CONTINUOUS
 62
    2
 10
1125.7490100871032
 20
1019.0467153284619
 11
1125.7490100871032
 21
1024.6467153284618
  0
LINE
  8
_0-0_計極細
  6
CONTINUOUS
 62
    2
 10
1112.7490100871032
 20
1041.6467153284577
 11
1112.7490100871032
 21
1036.0467153284578
  0
LINE
  8
_0-0_計極細
  6
CONTINUOUS
 62
    2
 10
1125.7490100871032
 20
1041.6467153284577
 11
1125.7490100871032
 21
1036.0467153284578
  0
LINE
  8
_0-0_計極細
  6
CONTINUOUS
 62
    2
 10
1112.7490100871032
 20
1058.6467153284586
 11
1112.7490100871032
 21
1053.0467153284583
  0
LINE
  8
_0-0_計極細
  6
CONTINUOUS
 62
    2
 10
1125.7490100871032
 20
1058.6467153284586
 11
1125.7490100871032
 21
1053.0467153284583
  0
LINE
  8
_0-0_計極細
  6
CONTINUOUS
 62
    2
 10
1112.7490100871032
 20
1075.6467153284591
 11
1112.7490100871032
 21
1070.0467153284592
  0
LINE
  8
_0-0_計極細
  6
CONTINUOUS
 62
    2
 10
1125.7490100871032
 20
1075.6467153284591
 11
1125.7490100871032
 21
1070.0467153284592
  0
LINE
  8
_0-0_計極細
  6
CONTINUOUS
 62
    2
 10
1112.7490100871032
 20
1092.64671532846
 11
1112.7490100871032
 21
1087.0467153284596
  0
LINE
  8
_0-0_計極細
  6
CONTINUOUS
 62
    2
 10
1125.7490100871032
 20
1092.64671532846
 11
1125.7490100871032
 21
1087.0467153284596
  0
LINE
  8
_0-0_計極細
  6
CONTINUOUS
 62
    2
 10
1112.7490100871032
 20
1109.6467153284605
 11
1112.7490100871032
 21
1104.0467153284606
  0
LINE
  8
_0-0_計極細
  6
CONTINUOUS
 62
    2
 10
1125.7490100871032
 20
1109.6467153284605
 11
1125.7490100871032
 21
1104.0467153284606
  0
LINE
  8
_0-0_計極細
  6
CONTINUOUS
 62
    2
 10
1112.7490100871032
 20
1194.4467153284597
 11
1112.7490100871032
 21
1189.0467153284596
  0
LINE
  8
_0-0_計極細
  6
CONTINUOUS
 62
    2
 10
1125.7490100871032
 20
1194.4467153284597
 11
1125.7490100871032
 21
1189.0467153284596
  0
LINE
  8
_0-0_計極細
  6
CONTINUOUS
 62
    2
 10
1112.7490100871032
 20
917.24671532845991
 11
1112.7490100871032
 21
922.64671532845955
  0
LINE
  8
_0-0_計極細
  6
CONTINUOUS
 62
    2
 10
1125.7490100871032
 20
917.24671532845991
 11
1125.7490100871032
 21
922.64671532845955
  0
LINE
  8
_0-0_計極細
  6
CONTINUOUS
 62
    2
 10
1112.7490100871032
 20
1126.6467153284595
 11
1112.7490100871032
 21
1121.0467153284596
  0
LINE
  8
_0-0_計極細
  6
CONTINUOUS
 62
    2
 10
1125.7490100871032
 20
1126.6467153284595
 11
1125.7490100871032
 21
1121.0467153284596
  0
LINE
  8
_0-0_計極細
  6
CONTINUOUS
 62
    2
 10
1112.7490100871032
 20
1143.6467153284586
 11
1112.7490100871032
 21
1138.0467153284587
  0
LINE
  8
_0-0_計極細
  6
CONTINUOUS
 62
    2
 10
1125.7490100871032
 20
1143.6467153284586
 11
1125.7490100871032
 21
1138.0467153284587
  0
LINE
  8
_0-0_計極細
  6
CONTINUOUS
 62
    2
 10
1112.7490100871032
 20
1160.6467153284577
 11
1112.7490100871032
 21
1155.0467153284578
  0
LINE
  8
_0-0_計極細
  6
CONTINUOUS
 62
    2
 10
1125.7490100871032
 20
1160.6467153284577
 11
1125.7490100871032
 21
1155.0467153284578
  0
LINE
  8
_0-0_計極細
  6
CONTINUOUS
 62
    2
 10
1112.7490100871032
 20
1177.6467153284568
 11
1112.7490100871032
 21
1172.0467153284569
  0
LINE
  8
_0-0_計極細
  6
CONTINUOUS
 62
    2
 10
1125.7490100871032
 20
1177.6467153284568
 11
1125.7490100871032
 21
1172.0467153284569
  0
LINE
  8
_0-0_計極細
  6
CONTINUOUS
 62
    2
 10
1112.7490100871032
 20
985.046715328461
 11
1112.7490100871032
 21
990.64671532846091
  0
LINE
  8
_0-0_計極細
  6
CONTINUOUS
 62
    2
 10
1125.7490100871032
 20
985.046715328461
 11
1125.7490100871032
 21
990.64671532846091
  0
LINE
  8
_0-0_計極細
  6
CONTINUOUS
 62
    2
 10
1112.7490100871032
 20
968.04671532846191
 11
1112.7490100871032
 21
973.64671532846182
  0
LINE
  8
_0-0_計極細
  6
CONTINUOUS
 62
    2
 10
1125.7490100871032
 20
968.04671532846191
 11
1125.7490100871032
 21
973.64671532846182
  0
LINE
  8
_0-0_計極細
  6
CONTINUOUS
 62
    2
 10
1112.7490100871032
 20
951.04671532846282
 11
1112.7490100871032
 21
956.64671532846273
  0
LINE
  8
_0-0_計極細
  6
CONTINUOUS
 62
    2
 10
1125.7490100871032
 20
951.04671532846282
 11
1125.7490100871032
 21
956.64671532846273
  0
LINE
  8
_0-0_計極細
  6
CONTINUOUS
 62
    2
 10
1112.7490100871032
 20
934.04671532846373
 11
1112.7490100871032
 21
939.64671532846364
  0
LINE
  8
_0-0_計極細
  6
CONTINUOUS
 62
    2
 10
1125.7490100871032
 20
934.04671532846373
 11
1125.7490100871032
 21
939.64671532846364
  0
LINE
  8
_0-0_計極細
  6
CENTER1
 62
    2
 10
1022.2490100871031
 20
1214.597434752922
 11
1022.2490100871031
 21
898.08889158744864
  0
LINE
  8
_0-0_計極細
  6
CONTINUOUS
 62
    2
 10
1015.7490100871031
 20
1002.046715328461
 11
1015.7490100871031
 21
1007.6467153284614
  0
LINE
  8
_0-0_計極細
  6
CONTINUOUS
 62
    2
 10
1028.7490100871032
 20
1002.046715328461
 11
1028.7490100871032
 21
1007.6467153284614
  0
LINE
  8
_0-0_計極細
  6
CONTINUOUS
 62
    2
 10
1015.7490100871031
 20
1019.0467153284619
 11
1015.7490100871031
 21
1024.6467153284618
  0
LINE
  8
_0-0_計極細
  6
CONTINUOUS
 62
    2
 10
1028.7490100871032
 20
1019.0467153284619
 11
1028.7490100871032
 21
1024.6467153284618
  0
LINE
  8
_0-0_計極細
  6
CONTINUOUS
 62
    2
 10
1015.7490100871031
 20
1041.6467153284577
 11
1015.7490100871031
 21
1036.0467153284578
  0
LINE
  8
_0-0_計極細
  6
CONTINUOUS
 62
    2
 10
1028.7490100871032
 20
1041.6467153284577
 11
1028.7490100871032
 21
1036.0467153284578
  0
LINE
  8
_0-0_計極細
  6
CONTINUOUS
 62
    2
 10
1015.7490100871031
 20
1058.6467153284586
 11
1015.7490100871031
 21
1053.0467153284583
  0
LINE
  8
_0-0_計極細
  6
CONTINUOUS
 62
    2
 10
1028.7490100871032
 20
1058.6467153284586
 11
1028.7490100871032
 21
1053.0467153284583
  0
LINE
  8
_0-0_計極細
  6
CONTINUOUS
 62
    2
 10
1015.7490100871031
 20
1075.6467153284591
 11
1015.7490100871031
 21
1070.0467153284592
  0
LINE
  8
_0-0_計極細
  6
CONTINUOUS
 62
    2
 10
1028.7490100871032
 20
1075.6467153284591
 11
1028.7490100871032
 21
1070.0467153284592
  0
LINE
  8
_0-0_計極細
  6
CONTINUOUS
 62
    2
 10
1015.7490100871031
 20
1092.64671532846
 11
1015.7490100871031
 21
1087.0467153284596
  0
LINE
  8
_0-0_計極細
  6
CONTINUOUS
 62
    2
 10
1028.7490100871032
 20
1092.64671532846
 11
1028.7490100871032
 21
1087.0467153284596
  0
LINE
  8
_0-0_計極細
  6
CONTINUOUS
 62
    2
 10
1015.7490100871031
 20
1109.6467153284605
 11
1015.7490100871031
 21
1104.0467153284606
  0
LINE
  8
_0-0_計極細
  6
CONTINUOUS
 62
    2
 10
1028.7490100871032
 20
1109.6467153284605
 11
1028.7490100871032
 21
1104.0467153284606
  0
LINE
  8
_0-0_計極細
  6
CONTINUOUS
 62
    2
 10
1015.7490100871031
 20
1194.4467153284597
 11
1015.7490100871031
 21
1189.0467153284596
  0
LINE
  8
_0-0_計極細
  6
CONTINUOUS
 62
    2
 10
1028.7490100871032
 20
1194.4467153284597
 11
1028.7490100871032
 21
1189.0467153284596
  0
LINE
  8
_0-0_計極細
  6
CONTINUOUS
 62
    2
 10
1015.7490100871031
 20
917.24671532845991
 11
1015.7490100871031
 21
922.64671532845955
  0
LINE
  8
_0-0_計極細
  6
CONTINUOUS
 62
    2
 10
1028.7490100871032
 20
917.24671532845991
 11
1028.7490100871032
 21
922.64671532845955
  0
LINE
  8
_0-0_計極細
  6
CONTINUOUS
 62
    2
 10
1015.7490100871031
 20
1126.6467153284595
 11
1015.7490100871031
 21
1121.0467153284596
  0
LINE
  8
_0-0_計極細
  6
CONTINUOUS
 62
    2
 10
1028.7490100871032
 20
1126.6467153284595
 11
1028.7490100871032
 21
1121.0467153284596
  0
LINE
  8
_0-0_計極細
  6
CONTINUOUS
 62
    2
 10
1015.7490100871031
 20
1143.6467153284586
 11
1015.7490100871031
 21
1138.0467153284587
  0
LINE
  8
_0-0_計極細
  6
CONTINUOUS
 62
    2
 10
1028.7490100871032
 20
1143.6467153284586
 11
1028.7490100871032
 21
1138.0467153284587
  0
LINE
  8
_0-0_計極細
  6
CONTINUOUS
 62
    2
 10
1015.7490100871031
 20
1160.6467153284577
 11
1015.7490100871031
 21
1155.0467153284578
  0
LINE
  8
_0-0_計極細
  6
CONTINUOUS
 62
    2
 10
1028.7490100871032
 20
1160.6467153284577
 11
1028.7490100871032
 21
1155.0467153284578
  0
LINE
  8
_0-0_計極細
  6
CONTINUOUS
 62
    2
 10
1015.7490100871031
 20
1177.6467153284568
 11
1015.7490100871031
 21
1172.0467153284569
  0
LINE
  8
_0-0_計極細
  6
CONTINUOUS
 62
    2
 10
1028.7490100871032
 20
1177.6467153284568
 11
1028.7490100871032
 21
1172.0467153284569
  0
LINE
  8
_0-0_計極細
  6
CONTINUOUS
 62
    2
 10
1015.7490100871031
 20
985.046715328461
 11
1015.7490100871031
 21
990.64671532846091
  0
LINE
  8
_0-0_計極細
  6
CONTINUOUS
 62
    2
 10
1028.7490100871032
 20
985.046715328461
 11
1028.7490100871032
 21
990.64671532846091
  0
LINE
  8
_0-0_計極細
  6
CONTINUOUS
 62
    2
 10
1015.7490100871031
 20
968.04671532846191
 11
1015.7490100871031
 21
973.64671532846182
  0
LINE
  8
_0-0_計極細
  6
CONTINUOUS
 62
    2
 10
1028.7490100871032
 20
968.04671532846191
 11
1028.7490100871032
 21
973.64671532846182
  0
LINE
  8
_0-0_計極細
  6
CONTINUOUS
 62
    2
 10
1015.7490100871031
 20
951.04671532846282
 11
1015.7490100871031
 21
956.64671532846273
  0
LINE
  8
_0-0_計極細
  6
CONTINUOUS
 62
    2
 10
1028.7490100871032
 20
951.04671532846282
 11
1028.7490100871032
 21
956.64671532846273
  0
LINE
  8
_0-0_計極細
  6
CONTINUOUS
 62
    2
 10
1015.7490100871031
 20
934.04671532846373
 11
1015.7490100871031
 21
939.64671532846364
  0
LINE
  8
_0-0_計極細
  6
CONTINUOUS
 62
    2
 10
1028.7490100871032
 20
934.04671532846373
 11
1028.7490100871032
 21
939.64671532846364
  0
LINE
  8
_0-0_計極細
  6
CENTER1
 62
    2
 10
925.2490100871031
 20
1214.597434752922
 11
925.2490100871031
 21
898.08889158744864
  0
LINE
  8
_0-0_計極細
  6
CONTINUOUS
 62
    2
 10
918.7490100871031
 20
1002.046715328461
 11
918.7490100871031
 21
1007.6467153284614
  0
LINE
  8
_0-0_計極細
  6
CONTINUOUS
 62
    2
 10
931.7490100871031
 20
1002.046715328461
 11
931.7490100871031
 21
1007.6467153284614
  0
LINE
  8
_0-0_計極細
  6
CONTINUOUS
 62
    2
 10
918.7490100871031
 20
1019.0467153284619
 11
918.7490100871031
 21
1024.6467153284618
  0
LINE
  8
_0-0_計極細
  6
CONTINUOUS
 62
    2
 10
931.7490100871031
 20
1019.0467153284619
 11
931.7490100871031
 21
1024.6467153284618
  0
LINE
  8
_0-0_計極細
  6
CONTINUOUS
 62
    2
 10
918.7490100871031
 20
1041.6467153284577
 11
918.7490100871031
 21
1036.0467153284578
  0
LINE
  8
_0-0_計極細
  6
CONTINUOUS
 62
    2
 10
931.7490100871031
 20
1041.6467153284577
 11
931.7490100871031
 21
1036.0467153284578
  0
LINE
  8
_0-0_計極細
  6
CONTINUOUS
 62
    2
 10
918.7490100871031
 20
1058.6467153284586
 11
918.7490100871031
 21
1053.0467153284583
  0
LINE
  8
_0-0_計極細
  6
CONTINUOUS
 62
    2
 10
931.7490100871031
 20
1058.6467153284586
 11
931.7490100871031
 21
1053.0467153284583
  0
LINE
  8
_0-0_計極細
  6
CONTINUOUS
 62
    2
 10
918.7490100871031
 20
1075.6467153284591
 11
918.7490100871031
 21
1070.0467153284592
  0
LINE
  8
_0-0_計極細
  6
CONTINUOUS
 62
    2
 10
931.7490100871031
 20
1075.6467153284591
 11
931.7490100871031
 21
1070.0467153284592
  0
LINE
  8
_0-0_計極細
  6
CONTINUOUS
 62
    2
 10
918.7490100871031
 20
1092.64671532846
 11
918.7490100871031
 21
1087.0467153284596
  0
LINE
  8
_0-0_計極細
  6
CONTINUOUS
 62
    2
 10
931.7490100871031
 20
1092.64671532846
 11
931.7490100871031
 21
1087.0467153284596
  0
LINE
  8
_0-0_計極細
  6
CONTINUOUS
 62
    2
 10
918.7490100871031
 20
1109.6467153284605
 11
918.7490100871031
 21
1104.0467153284606
  0
LINE
  8
_0-0_計極細
  6
CONTINUOUS
 62
    2
 10
931.7490100871031
 20
1109.6467153284605
 11
931.7490100871031
 21
1104.0467153284606
  0
LINE
  8
_0-0_計極細
  6
CONTINUOUS
 62
    2
 10
918.7490100871031
 20
1194.4467153284597
 11
918.7490100871031
 21
1189.0467153284596
  0
LINE
  8
_0-0_計極細
  6
CONTINUOUS
 62
    2
 10
931.7490100871031
 20
1194.4467153284597
 11
931.7490100871031
 21
1189.0467153284596
  0
LINE
  8
_0-0_計極細
  6
CONTINUOUS
 62
    2
 10
918.7490100871031
 20
917.24671532845991
 11
918.7490100871031
 21
922.64671532845955
  0
LINE
  8
_0-0_計極細
  6
CONTINUOUS
 62
    2
 10
931.7490100871031
 20
917.24671532845991
 11
931.7490100871031
 21
922.64671532845955
  0
LINE
  8
_0-0_計極細
  6
CONTINUOUS
 62
    2
 10
918.7490100871031
 20
1126.6467153284595
 11
918.7490100871031
 21
1121.0467153284596
  0
LINE
  8
_0-0_計極細
  6
CONTINUOUS
 62
    2
 10
931.7490100871031
 20
1126.6467153284595
 11
931.7490100871031
 21
1121.0467153284596
  0
LINE
  8
_0-0_計極細
  6
CONTINUOUS
 62
    2
 10
918.7490100871031
 20
1143.6467153284586
 11
918.7490100871031
 21
1138.0467153284587
  0
LINE
  8
_0-0_計極細
  6
CONTINUOUS
 62
    2
 10
931.7490100871031
 20
1143.6467153284586
 11
931.7490100871031
 21
1138.0467153284587
  0
LINE
  8
_0-0_計極細
  6
CONTINUOUS
 62
    2
 10
918.7490100871031
 20
1160.6467153284577
 11
918.7490100871031
 21
1155.0467153284578
  0
LINE
  8
_0-0_計極細
  6
CONTINUOUS
 62
    2
 10
931.7490100871031
 20
1160.6467153284577
 11
931.7490100871031
 21
1155.0467153284578
  0
LINE
  8
_0-0_計極細
  6
CONTINUOUS
 62
    2
 10
918.7490100871031
 20
1177.6467153284568
 11
918.7490100871031
 21
1172.0467153284569
  0
LINE
  8
_0-0_計極細
  6
CONTINUOUS
 62
    2
 10
931.7490100871031
 20
1177.6467153284568
 11
931.7490100871031
 21
1172.0467153284569
  0
LINE
  8
_0-0_計極細
  6
CONTINUOUS
 62
    2
 10
918.7490100871031
 20
985.046715328461
 11
918.7490100871031
 21
990.64671532846091
  0
LINE
  8
_0-0_計極細
  6
CONTINUOUS
 62
    2
 10
931.7490100871031
 20
985.046715328461
 11
931.7490100871031
 21
990.64671532846091
  0
LINE
  8
_0-0_計極細
  6
CONTINUOUS
 62
    2
 10
918.7490100871031
 20
968.04671532846191
 11
918.7490100871031
 21
973.64671532846182
  0
LINE
  8
_0-0_計極細
  6
CONTINUOUS
 62
    2
 10
931.7490100871031
 20
968.04671532846191
 11
931.7490100871031
 21
973.64671532846182
  0
LINE
  8
_0-0_計極細
  6
CONTINUOUS
 62
    2
 10
918.7490100871031
 20
951.04671532846282
 11
918.7490100871031
 21
956.64671532846273
  0
LINE
  8
_0-0_計極細
  6
CONTINUOUS
 62
    2
 10
931.7490100871031
 20
951.04671532846282
 11
931.7490100871031
 21
956.64671532846273
  0
LINE
  8
_0-0_計極細
  6
CONTINUOUS
 62
    2
 10
918.7490100871031
 20
934.04671532846373
 11
918.7490100871031
 21
939.64671532846364
  0
LINE
  8
_0-0_計極細
  6
CONTINUOUS
 62
    2
 10
931.7490100871031
 20
934.04671532846373
 11
931.7490100871031
 21
939.64671532846364
  0
LINE
  8
_0-0_計極細
  6
CENTER1
 62
    2
 10
828.2490100871031
 20
1214.597434752922
 11
828.2490100871031
 21
898.08889158744864
  0
LINE
  8
_0-0_計極細
  6
CONTINUOUS
 62
    2
 10
821.7490100871031
 20
1002.046715328461
 11
821.7490100871031
 21
1007.6467153284614
  0
LINE
  8
_0-0_計極細
  6
CONTINUOUS
 62
    2
 10
834.7490100871031
 20
1002.046715328461
 11
834.7490100871031
 21
1007.6467153284614
  0
LINE
  8
_0-0_計極細
  6
CONTINUOUS
 62
    2
 10
821.7490100871031
 20
1019.0467153284619
 11
821.7490100871031
 21
1024.6467153284618
  0
LINE
  8
_0-0_計極細
  6
CONTINUOUS
 62
    2
 10
834.7490100871031
 20
1019.0467153284619
 11
834.7490100871031
 21
1024.6467153284618
  0
LINE
  8
_0-0_計極細
  6
CONTINUOUS
 62
    2
 10
821.7490100871031
 20
1041.6467153284577
 11
821.7490100871031
 21
1036.0467153284578
  0
LINE
  8
_0-0_計極細
  6
CONTINUOUS
 62
    2
 10
834.7490100871031
 20
1041.6467153284577
 11
834.7490100871031
 21
1036.0467153284578
  0
LINE
  8
_0-0_計極細
  6
CONTINUOUS
 62
    2
 10
821.7490100871031
 20
1058.6467153284586
 11
821.7490100871031
 21
1053.0467153284583
  0
LINE
  8
_0-0_計極細
  6
CONTINUOUS
 62
    2
 10
834.7490100871031
 20
1058.6467153284586
 11
834.7490100871031
 21
1053.0467153284583
  0
LINE
  8
_0-0_計極細
  6
CONTINUOUS
 62
    2
 10
821.7490100871031
 20
1075.6467153284591
 11
821.7490100871031
 21
1070.0467153284592
  0
LINE
  8
_0-0_計極細
  6
CONTINUOUS
 62
    2
 10
834.7490100871031
 20
1075.6467153284591
 11
834.7490100871031
 21
1070.0467153284592
  0
LINE
  8
_0-0_計極細
  6
CONTINUOUS
 62
    2
 10
821.7490100871031
 20
1092.64671532846
 11
821.7490100871031
 21
1087.0467153284596
  0
LINE
  8
_0-0_計極細
  6
CONTINUOUS
 62
    2
 10
834.7490100871031
 20
1092.64671532846
 11
834.7490100871031
 21
1087.0467153284596
  0
LINE
  8
_0-0_計極細
  6
CONTINUOUS
 62
    2
 10
821.7490100871031
 20
1109.6467153284605
 11
821.7490100871031
 21
1104.0467153284606
  0
LINE
  8
_0-0_計極細
  6
CONTINUOUS
 62
    2
 10
834.7490100871031
 20
1109.6467153284605
 11
834.7490100871031
 21
1104.0467153284606
  0
LINE
  8
_0-0_計極細
  6
CONTINUOUS
 62
    2
 10
821.7490100871031
 20
1194.4467153284597
 11
821.7490100871031
 21
1189.0467153284596
  0
LINE
  8
_0-0_計極細
  6
CONTINUOUS
 62
    2
 10
834.7490100871031
 20
1194.4467153284597
 11
834.7490100871031
 21
1189.0467153284596
  0
LINE
  8
_0-0_計極細
  6
CONTINUOUS
 62
    2
 10
821.7490100871031
 20
917.24671532845991
 11
821.7490100871031
 21
922.64671532845955
  0
LINE
  8
_0-0_計極細
  6
CONTINUOUS
 62
    2
 10
834.7490100871031
 20
917.24671532845991
 11
834.7490100871031
 21
922.64671532845955
  0
LINE
  8
_0-0_計極細
  6
CONTINUOUS
 62
    2
 10
821.7490100871031
 20
1126.6467153284595
 11
821.7490100871031
 21
1121.0467153284596
  0
LINE
  8
_0-0_計極細
  6
CONTINUOUS
 62
    2
 10
834.7490100871031
 20
1126.6467153284595
 11
834.7490100871031
 21
1121.0467153284596
  0
LINE
  8
_0-0_計極細
  6
CONTINUOUS
 62
    2
 10
821.7490100871031
 20
1143.6467153284586
 11
821.7490100871031
 21
1138.0467153284587
  0
LINE
  8
_0-0_計極細
  6
CONTINUOUS
 62
    2
 10
834.7490100871031
 20
1143.6467153284586
 11
834.7490100871031
 21
1138.0467153284587
  0
LINE
  8
_0-0_計極細
  6
CONTINUOUS
 62
    2
 10
821.7490100871031
 20
1160.6467153284577
 11
821.7490100871031
 21
1155.0467153284578
  0
LINE
  8
_0-0_計極細
  6
CONTINUOUS
 62
    2
 10
834.7490100871031
 20
1160.6467153284577
 11
834.7490100871031
 21
1155.0467153284578
  0
LINE
  8
_0-0_計極細
  6
CONTINUOUS
 62
    2
 10
821.7490100871031
 20
1177.6467153284568
 11
821.7490100871031
 21
1172.0467153284569
  0
LINE
  8
_0-0_計極細
  6
CONTINUOUS
 62
    2
 10
834.7490100871031
 20
1177.6467153284568
 11
834.7490100871031
 21
1172.0467153284569
  0
LINE
  8
_0-0_計極細
  6
CONTINUOUS
 62
    2
 10
821.7490100871031
 20
985.046715328461
 11
821.7490100871031
 21
990.64671532846091
  0
LINE
  8
_0-0_計極細
  6
CONTINUOUS
 62
    2
 10
834.7490100871031
 20
985.046715328461
 11
834.7490100871031
 21
990.64671532846091
  0
LINE
  8
_0-0_計極細
  6
CONTINUOUS
 62
    2
 10
821.7490100871031
 20
968.04671532846191
 11
821.7490100871031
 21
973.64671532846182
  0
LINE
  8
_0-0_計極細
  6
CONTINUOUS
 62
    2
 10
834.7490100871031
 20
968.04671532846191
 11
834.7490100871031
 21
973.64671532846182
  0
LINE
  8
_0-0_計極細
  6
CONTINUOUS
 62
    2
 10
821.7490100871031
 20
951.04671532846282
 11
821.7490100871031
 21
956.64671532846273
  0
LINE
  8
_0-0_計極細
  6
CONTINUOUS
 62
    2
 10
834.7490100871031
 20
951.04671532846282
 11
834.7490100871031
 21
956.64671532846273
  0
LINE
  8
_0-0_計極細
  6
CONTINUOUS
 62
    2
 10
821.7490100871031
 20
934.04671532846373
 11
821.7490100871031
 21
939.64671532846364
  0
LINE
  8
_0-0_計極細
  6
CONTINUOUS
 62
    2
 10
834.7490100871031
 20
934.04671532846373
 11
834.7490100871031
 21
939.64671532846364
  0
LINE
  8
_0-0_計極細
  6
CENTER1
 62
    2
 10
731.2490100871031
 20
1214.597434752922
 11
731.2490100871031
 21
898.08889158744864
  0
LINE
  8
_0-0_計極細
  6
CONTINUOUS
 62
    2
 10
724.7490100871031
 20
1002.046715328461
 11
724.7490100871031
 21
1007.6467153284614
  0
LINE
  8
_0-0_計極細
  6
CONTINUOUS
 62
    2
 10
737.7490100871031
 20
1002.046715328461
 11
737.7490100871031
 21
1007.6467153284614
  0
LINE
  8
_0-0_計極細
  6
CONTINUOUS
 62
    2
 10
724.7490100871031
 20
1019.0467153284619
 11
724.7490100871031
 21
1024.6467153284618
  0
LINE
  8
_0-0_計極細
  6
CONTINUOUS
 62
    2
 10
737.7490100871031
 20
1019.0467153284619
 11
737.7490100871031
 21
1024.6467153284618
  0
LINE
  8
_0-0_計極細
  6
CONTINUOUS
 62
    2
 10
724.7490100871031
 20
1041.6467153284577
 11
724.7490100871031
 21
1036.0467153284578
  0
LINE
  8
_0-0_計極細
  6
CONTINUOUS
 62
    2
 10
737.7490100871031
 20
1041.6467153284577
 11
737.7490100871031
 21
1036.0467153284578
  0
LINE
  8
_0-0_計極細
  6
CONTINUOUS
 62
    2
 10
724.7490100871031
 20
1058.6467153284586
 11
724.7490100871031
 21
1053.0467153284583
  0
LINE
  8
_0-0_計極細
  6
CONTINUOUS
 62
    2
 10
737.7490100871031
 20
1058.6467153284586
 11
737.7490100871031
 21
1053.0467153284583
  0
LINE
  8
_0-0_計極細
  6
CONTINUOUS
 62
    2
 10
724.7490100871031
 20
1075.6467153284591
 11
724.7490100871031
 21
1070.0467153284592
  0
LINE
  8
_0-0_計極細
  6
CONTINUOUS
 62
    2
 10
737.7490100871031
 20
1075.6467153284591
 11
737.7490100871031
 21
1070.0467153284592
  0
LINE
  8
_0-0_計極細
  6
CONTINUOUS
 62
    2
 10
724.7490100871031
 20
1092.64671532846
 11
724.7490100871031
 21
1087.0467153284596
  0
LINE
  8
_0-0_計極細
  6
CONTINUOUS
 62
    2
 10
737.7490100871031
 20
1092.64671532846
 11
737.7490100871031
 21
1087.0467153284596
  0
LINE
  8
_0-0_計極細
  6
CONTINUOUS
 62
    2
 10
724.7490100871031
 20
1109.6467153284605
 11
724.7490100871031
 21
1104.0467153284606
  0
LINE
  8
_0-0_計極細
  6
CONTINUOUS
 62
    2
 10
737.7490100871031
 20
1109.6467153284605
 11
737.7490100871031
 21
1104.0467153284606
  0
LINE
  8
_0-0_計極細
  6
CONTINUOUS
 62
    2
 10
724.7490100871031
 20
1194.4467153284597
 11
724.7490100871031
 21
1189.0467153284596
  0
LINE
  8
_0-0_計極細
  6
CONTINUOUS
 62
    2
 10
737.7490100871031
 20
1194.4467153284597
 11
737.7490100871031
 21
1189.0467153284596
  0
LINE
  8
_0-0_計極細
  6
CONTINUOUS
 62
    2
 10
724.7490100871031
 20
917.24671532845991
 11
724.7490100871031
 21
922.64671532845955
  0
LINE
  8
_0-0_計極細
  6
CONTINUOUS
 62
    2
 10
737.7490100871031
 20
917.24671532845991
 11
737.7490100871031
 21
922.64671532845955
  0
LINE
  8
_0-0_計極細
  6
CONTINUOUS
 62
    2
 10
724.7490100871031
 20
1126.6467153284595
 11
724.7490100871031
 21
1121.0467153284596
  0
LINE
  8
_0-0_計極細
  6
CONTINUOUS
 62
    2
 10
737.7490100871031
 20
1126.6467153284595
 11
737.7490100871031
 21
1121.0467153284596
  0
LINE
  8
_0-0_計極細
  6
CONTINUOUS
 62
    2
 10
724.7490100871031
 20
1143.6467153284586
 11
724.7490100871031
 21
1138.0467153284587
  0
LINE
  8
_0-0_計極細
  6
CONTINUOUS
 62
    2
 10
737.7490100871031
 20
1143.6467153284586
 11
737.7490100871031
 21
1138.0467153284587
  0
LINE
  8
_0-0_計極細
  6
CONTINUOUS
 62
    2
 10
724.7490100871031
 20
1160.6467153284577
 11
724.7490100871031
 21
1155.0467153284578
  0
LINE
  8
_0-0_計極細
  6
CONTINUOUS
 62
    2
 10
737.7490100871031
 20
1160.6467153284577
 11
737.7490100871031
 21
1155.0467153284578
  0
LINE
  8
_0-0_計極細
  6
CONTINUOUS
 62
    2
 10
724.7490100871031
 20
1177.6467153284568
 11
724.7490100871031
 21
1172.0467153284569
  0
LINE
  8
_0-0_計極細
  6
CONTINUOUS
 62
    2
 10
737.7490100871031
 20
1177.6467153284568
 11
737.7490100871031
 21
1172.0467153284569
  0
LINE
  8
_0-0_計極細
  6
CONTINUOUS
 62
    2
 10
724.7490100871031
 20
985.046715328461
 11
724.7490100871031
 21
990.64671532846091
  0
LINE
  8
_0-0_計極細
  6
CONTINUOUS
 62
    2
 10
737.7490100871031
 20
985.046715328461
 11
737.7490100871031
 21
990.64671532846091
  0
LINE
  8
_0-0_計極細
  6
CONTINUOUS
 62
    2
 10
724.7490100871031
 20
968.04671532846191
 11
724.7490100871031
 21
973.64671532846182
  0
LINE
  8
_0-0_計極細
  6
CONTINUOUS
 62
    2
 10
737.7490100871031
 20
968.04671532846191
 11
737.7490100871031
 21
973.64671532846182
  0
LINE
  8
_0-0_計極細
  6
CONTINUOUS
 62
    2
 10
724.7490100871031
 20
951.04671532846282
 11
724.7490100871031
 21
956.64671532846273
  0
LINE
  8
_0-0_計極細
  6
CONTINUOUS
 62
    2
 10
737.7490100871031
 20
951.04671532846282
 11
737.7490100871031
 21
956.64671532846273
  0
LINE
  8
_0-0_計極細
  6
CONTINUOUS
 62
    2
 10
724.7490100871031
 20
934.04671532846373
 11
724.7490100871031
 21
939.64671532846364
  0
LINE
  8
_0-0_計極細
  6
CONTINUOUS
 62
    2
 10
737.7490100871031
 20
934.04671532846373
 11
737.7490100871031
 21
939.64671532846364
  0
LINE
  8
_0-0_計極細
  6
CENTER1
 62
    2
 10
634.2490100871031
 20
1214.597434752922
 11
634.2490100871031
 21
898.08889158744864
  0
LINE
  8
_0-0_計極細
  6
CONTINUOUS
 62
    2
 10
627.7490100871031
 20
1002.046715328461
 11
627.7490100871031
 21
1007.6467153284614
  0
LINE
  8
_0-0_計極細
  6
CONTINUOUS
 62
    2
 10
640.7490100871031
 20
1002.046715328461
 11
640.7490100871031
 21
1007.6467153284614
  0
LINE
  8
_0-0_計極細
  6
CONTINUOUS
 62
    2
 10
627.7490100871031
 20
1019.0467153284619
 11
627.7490100871031
 21
1024.6467153284618
  0
LINE
  8
_0-0_計極細
  6
CONTINUOUS
 62
    2
 10
640.7490100871031
 20
1019.0467153284619
 11
640.7490100871031
 21
1024.6467153284618
  0
LINE
  8
_0-0_計極細
  6
CONTINUOUS
 62
    2
 10
627.7490100871031
 20
1041.6467153284577
 11
627.7490100871031
 21
1036.0467153284578
  0
LINE
  8
_0-0_計極細
  6
CONTINUOUS
 62
    2
 10
640.7490100871031
 20
1041.6467153284577
 11
640.7490100871031
 21
1036.0467153284578
  0
LINE
  8
_0-0_計極細
  6
CONTINUOUS
 62
    2
 10
627.7490100871031
 20
1058.6467153284586
 11
627.7490100871031
 21
1053.0467153284583
  0
LINE
  8
_0-0_計極細
  6
CONTINUOUS
 62
    2
 10
640.7490100871031
 20
1058.6467153284586
 11
640.7490100871031
 21
1053.0467153284583
  0
LINE
  8
_0-0_計極細
  6
CONTINUOUS
 62
    2
 10
627.7490100871031
 20
1075.6467153284591
 11
627.7490100871031
 21
1070.0467153284592
  0
LINE
  8
_0-0_計極細
  6
CONTINUOUS
 62
    2
 10
640.7490100871031
 20
1075.6467153284591
 11
640.7490100871031
 21
1070.0467153284592
  0
LINE
  8
_0-0_計極細
  6
CONTINUOUS
 62
    2
 10
627.7490100871031
 20
1092.64671532846
 11
627.7490100871031
 21
1087.0467153284596
  0
LINE
  8
_0-0_計極細
  6
CONTINUOUS
 62
    2
 10
640.7490100871031
 20
1092.64671532846
 11
640.7490100871031
 21
1087.0467153284596
  0
LINE
  8
_0-0_計極細
  6
CONTINUOUS
 62
    2
 10
627.7490100871031
 20
1109.6467153284605
 11
627.7490100871031
 21
1104.0467153284606
  0
LINE
  8
_0-0_計極細
  6
CONTINUOUS
 62
    2
 10
640.7490100871031
 20
1109.6467153284605
 11
640.7490100871031
 21
1104.0467153284606
  0
LINE
  8
_0-0_計極細
  6
CONTINUOUS
 62
    2
 10
627.7490100871031
 20
1194.4467153284597
 11
627.7490100871031
 21
1189.0467153284596
  0
LINE
  8
_0-0_計極細
  6
CONTINUOUS
 62
    2
 10
640.7490100871031
 20
1194.4467153284597
 11
640.7490100871031
 21
1189.0467153284596
  0
LINE
  8
_0-0_計極細
  6
CONTINUOUS
 62
    2
 10
627.7490100871031
 20
917.24671532845991
 11
627.7490100871031
 21
922.64671532845955
  0
LINE
  8
_0-0_計極細
  6
CONTINUOUS
 62
    2
 10
640.7490100871031
 20
917.24671532845991
 11
640.7490100871031
 21
922.64671532845955
  0
LINE
  8
_0-0_計極細
  6
CONTINUOUS
 62
    2
 10
627.7490100871031
 20
1126.6467153284595
 11
627.7490100871031
 21
1121.0467153284596
  0
LINE
  8
_0-0_計極細
  6
CONTINUOUS
 62
    2
 10
640.7490100871031
 20
1126.6467153284595
 11
640.7490100871031
 21
1121.0467153284596
  0
LINE
  8
_0-0_計極細
  6
CONTINUOUS
 62
    2
 10
627.7490100871031
 20
1143.6467153284586
 11
627.7490100871031
 21
1138.0467153284587
  0
LINE
  8
_0-0_計極細
  6
CONTINUOUS
 62
    2
 10
640.7490100871031
 20
1143.6467153284586
 11
640.7490100871031
 21
1138.0467153284587
  0
LINE
  8
_0-0_計極細
  6
CONTINUOUS
 62
    2
 10
627.7490100871031
 20
1160.6467153284577
 11
627.7490100871031
 21
1155.0467153284578
  0
LINE
  8
_0-0_計極細
  6
CONTINUOUS
 62
    2
 10
640.7490100871031
 20
1160.6467153284577
 11
640.7490100871031
 21
1155.0467153284578
  0
LINE
  8
_0-0_計極細
  6
CONTINUOUS
 62
    2
 10
627.7490100871031
 20
1177.6467153284568
 11
627.7490100871031
 21
1172.0467153284569
  0
LINE
  8
_0-0_計極細
  6
CONTINUOUS
 62
    2
 10
640.7490100871031
 20
1177.6467153284568
 11
640.7490100871031
 21
1172.0467153284569
  0
LINE
  8
_0-0_計極細
  6
CONTINUOUS
 62
    2
 10
627.7490100871031
 20
985.046715328461
 11
627.7490100871031
 21
990.64671532846091
  0
LINE
  8
_0-0_計極細
  6
CONTINUOUS
 62
    2
 10
640.7490100871031
 20
985.046715328461
 11
640.7490100871031
 21
990.64671532846091
  0
LINE
  8
_0-0_計極細
  6
CONTINUOUS
 62
    2
 10
627.7490100871031
 20
968.04671532846191
 11
627.7490100871031
 21
973.64671532846182
  0
LINE
  8
_0-0_計極細
  6
CONTINUOUS
 62
    2
 10
640.7490100871031
 20
968.04671532846191
 11
640.7490100871031
 21
973.64671532846182
  0
LINE
  8
_0-0_計極細
  6
CONTINUOUS
 62
    2
 10
627.7490100871031
 20
951.04671532846282
 11
627.7490100871031
 21
956.64671532846273
  0
LINE
  8
_0-0_計極細
  6
CONTINUOUS
 62
    2
 10
640.7490100871031
 20
951.04671532846282
 11
640.7490100871031
 21
956.64671532846273
  0
LINE
  8
_0-0_計極細
  6
CONTINUOUS
 62
    2
 10
627.7490100871031
 20
934.04671532846373
 11
627.7490100871031
 21
939.64671532846364
  0
LINE
  8
_0-0_計極細
  6
CONTINUOUS
 62
    2
 10
640.7490100871031
 20
934.04671532846373
 11
640.7490100871031
 21
939.64671532846364
  0
LINE
  8
_0-0_計極細
  6
CENTER1
 62
    2
 10
537.2490100871031
 20
1214.597434752922
 11
537.2490100871031
 21
898.08889158744864
  0
LINE
  8
_0-0_計極細
  6
CONTINUOUS
 62
    2
 10
530.7490100871031
 20
1002.046715328461
 11
530.7490100871031
 21
1007.6467153284614
  0
LINE
  8
_0-0_計極細
  6
CONTINUOUS
 62
    2
 10
543.7490100871031
 20
1002.046715328461
 11
543.7490100871031
 21
1007.6467153284614
  0
LINE
  8
_0-0_計極細
  6
CONTINUOUS
 62
    2
 10
530.7490100871031
 20
1019.0467153284619
 11
530.7490100871031
 21
1024.6467153284618
  0
LINE
  8
_0-0_計極細
  6
CONTINUOUS
 62
    2
 10
543.7490100871031
 20
1019.0467153284619
 11
543.7490100871031
 21
1024.6467153284618
  0
LINE
  8
_0-0_計極細
  6
CONTINUOUS
 62
    2
 10
530.7490100871031
 20
1041.6467153284577
 11
530.7490100871031
 21
1036.0467153284578
  0
LINE
  8
_0-0_計極細
  6
CONTINUOUS
 62
    2
 10
543.7490100871031
 20
1041.6467153284577
 11
543.7490100871031
 21
1036.0467153284578
  0
LINE
  8
_0-0_計極細
  6
CONTINUOUS
 62
    2
 10
530.7490100871031
 20
1058.6467153284586
 11
530.7490100871031
 21
1053.0467153284583
  0
LINE
  8
_0-0_計極細
  6
CONTINUOUS
 62
    2
 10
543.7490100871031
 20
1058.6467153284586
 11
543.7490100871031
 21
1053.0467153284583
  0
LINE
  8
_0-0_計極細
  6
CONTINUOUS
 62
    2
 10
530.7490100871031
 20
1075.6467153284591
 11
530.7490100871031
 21
1070.0467153284592
  0
LINE
  8
_0-0_計極細
  6
CONTINUOUS
 62
    2
 10
543.7490100871031
 20
1075.6467153284591
 11
543.7490100871031
 21
1070.0467153284592
  0
LINE
  8
_0-0_計極細
  6
CONTINUOUS
 62
    2
 10
530.7490100871031
 20
1092.64671532846
 11
530.7490100871031
 21
1087.0467153284596
  0
LINE
  8
_0-0_計極細
  6
CONTINUOUS
 62
    2
 10
543.7490100871031
 20
1092.64671532846
 11
543.7490100871031
 21
1087.0467153284596
  0
LINE
  8
_0-0_計極細
  6
CONTINUOUS
 62
    2
 10
530.7490100871031
 20
1109.6467153284605
 11
530.7490100871031
 21
1104.0467153284606
  0
LINE
  8
_0-0_計極細
  6
CONTINUOUS
 62
    2
 10
543.7490100871031
 20
1109.6467153284605
 11
543.7490100871031
 21
1104.0467153284606
  0
LINE
  8
_0-0_計極細
  6
CONTINUOUS
 62
    2
 10
530.7490100871031
 20
1194.4467153284597
 11
530.7490100871031
 21
1189.0467153284596
  0
LINE
  8
_0-0_計極細
  6
CONTINUOUS
 62
    2
 10
543.7490100871031
 20
1194.4467153284597
 11
543.7490100871031
 21
1189.0467153284596
  0
LINE
  8
_0-0_計極細
  6
CONTINUOUS
 62
    2
 10
530.7490100871031
 20
917.24671532845991
 11
530.7490100871031
 21
922.64671532845955
  0
LINE
  8
_0-0_計極細
  6
CONTINUOUS
 62
    2
 10
543.7490100871031
 20
917.24671532845991
 11
543.7490100871031
 21
922.64671532845955
  0
LINE
  8
_0-0_計極細
  6
CONTINUOUS
 62
    2
 10
530.7490100871031
 20
1126.6467153284595
 11
530.7490100871031
 21
1121.0467153284596
  0
LINE
  8
_0-0_計極細
  6
CONTINUOUS
 62
    2
 10
543.7490100871031
 20
1126.6467153284595
 11
543.7490100871031
 21
1121.0467153284596
  0
LINE
  8
_0-0_計極細
  6
CONTINUOUS
 62
    2
 10
530.7490100871031
 20
1143.6467153284586
 11
530.7490100871031
 21
1138.0467153284587
  0
LINE
  8
_0-0_計極細
  6
CONTINUOUS
 62
    2
 10
543.7490100871031
 20
1143.6467153284586
 11
543.7490100871031
 21
1138.0467153284587
  0
LINE
  8
_0-0_計極細
  6
CONTINUOUS
 62
    2
 10
530.7490100871031
 20
1160.6467153284577
 11
530.7490100871031
 21
1155.0467153284578
  0
LINE
  8
_0-0_計極細
  6
CONTINUOUS
 62
    2
 10
543.7490100871031
 20
1160.6467153284577
 11
543.7490100871031
 21
1155.0467153284578
  0
LINE
  8
_0-0_計極細
  6
CONTINUOUS
 62
    2
 10
530.7490100871031
 20
1177.6467153284568
 11
530.7490100871031
 21
1172.0467153284569
  0
LINE
  8
_0-0_計極細
  6
CONTINUOUS
 62
    2
 10
543.7490100871031
 20
1177.6467153284568
 11
543.7490100871031
 21
1172.0467153284569
  0
LINE
  8
_0-0_計極細
  6
CONTINUOUS
 62
    2
 10
530.7490100871031
 20
985.046715328461
 11
530.7490100871031
 21
990.64671532846091
  0
LINE
  8
_0-0_計極細
  6
CONTINUOUS
 62
    2
 10
543.7490100871031
 20
985.046715328461
 11
543.7490100871031
 21
990.64671532846091
  0
LINE
  8
_0-0_計極細
  6
CONTINUOUS
 62
    2
 10
530.7490100871031
 20
968.04671532846191
 11
530.7490100871031
 21
973.64671532846182
  0
LINE
  8
_0-0_計極細
  6
CONTINUOUS
 62
    2
 10
543.7490100871031
 20
968.04671532846191
 11
543.7490100871031
 21
973.64671532846182
  0
LINE
  8
_0-0_計極細
  6
CONTINUOUS
 62
    2
 10
530.7490100871031
 20
951.04671532846282
 11
530.7490100871031
 21
956.64671532846273
  0
LINE
  8
_0-0_計極細
  6
CONTINUOUS
 62
    2
 10
543.7490100871031
 20
951.04671532846282
 11
543.7490100871031
 21
956.64671532846273
  0
LINE
  8
_0-0_計極細
  6
CONTINUOUS
 62
    2
 10
530.7490100871031
 20
934.04671532846373
 11
530.7490100871031
 21
939.64671532846364
  0
LINE
  8
_0-0_計極細
  6
CONTINUOUS
 62
    2
 10
543.7490100871031
 20
934.04671532846373
 11
543.7490100871031
 21
939.64671532846364
  0
LINE
  8
_0-0_計極細
  6
CENTER1
 62
    2
 10
391.7490100871031
 20
1214.597434752922
 11
391.7490100871031
 21
898.08889158744864
  0
LINE
  8
_0-0_計極細
  6
CONTINUOUS
 62
    2
 10
385.2490100871031
 20
1002.046715328461
 11
385.2490100871031
 21
1007.6467153284614
  0
LINE
  8
_0-0_計極細
  6
CONTINUOUS
 62
    2
 10
398.2490100871031
 20
1002.046715328461
 11
398.2490100871031
 21
1007.6467153284614
  0
LINE
  8
_0-0_計極細
  6
CONTINUOUS
 62
    2
 10
385.2490100871031
 20
1019.0467153284619
 11
385.2490100871031
 21
1024.6467153284618
  0
LINE
  8
_0-0_計極細
  6
CONTINUOUS
 62
    2
 10
398.2490100871031
 20
1019.0467153284619
 11
398.2490100871031
 21
1024.6467153284618
  0
LINE
  8
_0-0_計極細
  6
CONTINUOUS
 62
    2
 10
385.2490100871031
 20
1041.6467153284577
 11
385.2490100871031
 21
1036.0467153284578
  0
LINE
  8
_0-0_計極細
  6
CONTINUOUS
 62
    2
 10
398.2490100871031
 20
1041.6467153284577
 11
398.2490100871031
 21
1036.0467153284578
  0
LINE
  8
_0-0_計極細
  6
CONTINUOUS
 62
    2
 10
385.2490100871031
 20
1075.6467153284591
 11
385.2490100871031
 21
1070.0467153284592
  0
LINE
  8
_0-0_計極細
  6
CONTINUOUS
 62
    2
 10
398.2490100871031
 20
1075.6467153284591
 11
398.2490100871031
 21
1070.0467153284592
  0
LINE
  8
_0-0_計極細
  6
CONTINUOUS
 62
    2
 10
385.2490100871031
 20
1092.64671532846
 11
385.2490100871031
 21
1087.0467153284596
  0
LINE
  8
_0-0_計極細
  6
CONTINUOUS
 62
    2
 10
398.2490100871031
 20
1092.64671532846
 11
398.2490100871031
 21
1087.0467153284596
  0
LINE
  8
_0-0_計極細
  6
CONTINUOUS
 62
    2
 10
385.2490100871031
 20
1109.6467153284605
 11
385.2490100871031
 21
1104.0467153284606
  0
LINE
  8
_0-0_計極細
  6
CONTINUOUS
 62
    2
 10
398.2490100871031
 20
1109.6467153284605
 11
398.2490100871031
 21
1104.0467153284606
  0
LINE
  8
_0-0_計極細
  6
CONTINUOUS
 62
    2
 10
385.2490100871031
 20
1194.4467153284597
 11
385.2490100871031
 21
1189.0467153284596
  0
LINE
  8
_0-0_計極細
  6
CONTINUOUS
 62
    2
 10
398.2490100871031
 20
1194.4467153284597
 11
398.2490100871031
 21
1189.0467153284596
  0
LINE
  8
_0-0_計極細
  6
CONTINUOUS
 62
    2
 10
385.2490100871031
 20
917.24671532845991
 11
385.2490100871031
 21
922.64671532845955
  0
LINE
  8
_0-0_計極細
  6
CONTINUOUS
 62
    2
 10
398.2490100871031
 20
917.24671532845991
 11
398.2490100871031
 21
922.64671532845955
  0
LINE
  8
_0-0_計極細
  6
CONTINUOUS
 62
    2
 10
385.2490100871031
 20
1126.6467153284595
 11
385.2490100871031
 21
1121.0467153284596
  0
LINE
  8
_0-0_計極細
  6
CONTINUOUS
 62
    2
 10
398.2490100871031
 20
1126.6467153284595
 11
398.2490100871031
 21
1121.0467153284596
  0
LINE
  8
_0-0_計極細
  6
CONTINUOUS
 62
    2
 10
385.2490100871031
 20
1143.6467153284586
 11
385.2490100871031
 21
1138.0467153284587
  0
LINE
  8
_0-0_計極細
  6
CONTINUOUS
 62
    2
 10
398.2490100871031
 20
1143.6467153284586
 11
398.2490100871031
 21
1138.0467153284587
  0
LINE
  8
_0-0_計極細
  6
CONTINUOUS
 62
    2
 10
385.2490100871031
 20
1160.6467153284577
 11
385.2490100871031
 21
1155.0467153284578
  0
LINE
  8
_0-0_計極細
  6
CONTINUOUS
 62
    2
 10
398.2490100871031
 20
1160.6467153284577
 11
398.2490100871031
 21
1155.0467153284578
  0
LINE
  8
_0-0_計極細
  6
CONTINUOUS
 62
    2
 10
385.2490100871031
 20
1177.6467153284568
 11
385.2490100871031
 21
1172.0467153284569
  0
LINE
  8
_0-0_計極細
  6
CONTINUOUS
 62
    2
 10
398.2490100871031
 20
1177.6467153284568
 11
398.2490100871031
 21
1172.0467153284569
  0
LINE
  8
_0-0_計極細
  6
CONTINUOUS
 62
    2
 10
385.2490100871031
 20
985.046715328461
 11
385.2490100871031
 21
990.64671532846091
  0
LINE
  8
_0-0_計極細
  6
CONTINUOUS
 62
    2
 10
398.2490100871031
 20
985.046715328461
 11
398.2490100871031
 21
990.64671532846091
  0
LINE
  8
_0-0_計極細
  6
CONTINUOUS
 62
    2
 10
385.2490100871031
 20
968.04671532846191
 11
385.2490100871031
 21
973.64671532846182
  0
LINE
  8
_0-0_計極細
  6
CONTINUOUS
 62
    2
 10
398.2490100871031
 20
968.04671532846191
 11
398.2490100871031
 21
973.64671532846182
  0
LINE
  8
_0-0_計極細
  6
CONTINUOUS
 62
    2
 10
385.2490100871031
 20
951.04671532846282
 11
385.2490100871031
 21
956.64671532846273
  0
LINE
  8
_0-0_計極細
  6
CONTINUOUS
 62
    2
 10
398.2490100871031
 20
951.04671532846282
 11
398.2490100871031
 21
956.64671532846273
  0
LINE
  8
_0-0_計極細
  6
CONTINUOUS
 62
    2
 10
385.2490100871031
 20
934.04671532846373
 11
385.2490100871031
 21
939.64671532846364
  0
LINE
  8
_0-0_計極細
  6
CONTINUOUS
 62
    2
 10
398.2490100871031
 20
934.04671532846373
 11
398.2490100871031
 21
939.64671532846364
  0
LINE
  8
_0-0_計極細
  6
CENTER1
 62
    2
 10
440.2490100871031
 20
1214.597434752922
 11
440.2490100871031
 21
898.08889158744864
  0
LINE
  8
_0-0_計極細
  6
CONTINUOUS
 62
    2
 10
433.7490100871031
 20
1002.046715328461
 11
433.7490100871031
 21
1007.6467153284614
  0
LINE
  8
_0-0_計極細
  6
CONTINUOUS
 62
    2
 10
446.7490100871031
 20
1002.046715328461
 11
446.7490100871031
 21
1007.6467153284614
  0
LINE
  8
_0-0_計極細
  6
CONTINUOUS
 62
    2
 10
433.7490100871031
 20
1019.0467153284619
 11
433.7490100871031
 21
1024.6467153284618
  0
LINE
  8
_0-0_計極細
  6
CONTINUOUS
 62
    2
 10
446.7490100871031
 20
1019.0467153284619
 11
446.7490100871031
 21
1024.6467153284618
  0
LINE
  8
_0-0_計極細
  6
CONTINUOUS
 62
    2
 10
433.7490100871031
 20
1041.6467153284577
 11
433.7490100871031
 21
1036.0467153284578
  0
LINE
  8
_0-0_計極細
  6
CONTINUOUS
 62
    2
 10
446.7490100871031
 20
1041.6467153284577
 11
446.7490100871031
 21
1036.0467153284578
  0
LINE
  8
_0-0_計極細
  6
CONTINUOUS
 62
    2
 10
433.7490100871031
 20
1058.6467153284586
 11
433.7490100871031
 21
1053.0467153284583
  0
LINE
  8
_0-0_計極細
  6
CONTINUOUS
 62
    2
 10
446.7490100871031
 20
1058.6467153284586
 11
446.7490100871031
 21
1053.0467153284583
  0
LINE
  8
_0-0_計極細
  6
CONTINUOUS
 62
    2
 10
433.7490100871031
 20
1075.6467153284591
 11
433.7490100871031
 21
1070.0467153284592
  0
LINE
  8
_0-0_計極細
  6
CONTINUOUS
 62
    2
 10
446.7490100871031
 20
1075.6467153284591
 11
446.7490100871031
 21
1070.0467153284592
  0
LINE
  8
_0-0_計極細
  6
CONTINUOUS
 62
    2
 10
433.7490100871031
 20
1092.64671532846
 11
433.7490100871031
 21
1087.0467153284596
  0
LINE
  8
_0-0_計極細
  6
CONTINUOUS
 62
    2
 10
446.7490100871031
 20
1092.64671532846
 11
446.7490100871031
 21
1087.0467153284596
  0
LINE
  8
_0-0_計極細
  6
CONTINUOUS
 62
    2
 10
433.7490100871031
 20
1109.6467153284605
 11
433.7490100871031
 21
1104.0467153284606
  0
LINE
  8
_0-0_計極細
  6
CONTINUOUS
 62
    2
 10
446.7490100871031
 20
1109.6467153284605
 11
446.7490100871031
 21
1104.0467153284606
  0
LINE
  8
_0-0_計極細
  6
CONTINUOUS
 62
    2
 10
433.7490100871031
 20
1194.4467153284597
 11
433.7490100871031
 21
1189.0467153284596
  0
LINE
  8
_0-0_計極細
  6
CONTINUOUS
 62
    2
 10
446.7490100871031
 20
1194.4467153284597
 11
446.7490100871031
 21
1189.0467153284596
  0
LINE
  8
_0-0_計極細
  6
CONTINUOUS
 62
    2
 10
433.7490100871031
 20
917.24671532845991
 11
433.7490100871031
 21
922.64671532845955
  0
LINE
  8
_0-0_計極細
  6
CONTINUOUS
 62
    2
 10
446.7490100871031
 20
917.24671532845991
 11
446.7490100871031
 21
922.64671532845955
  0
LINE
  8
_0-0_計極細
  6
CONTINUOUS
 62
    2
 10
433.7490100871031
 20
1126.6467153284595
 11
433.7490100871031
 21
1121.0467153284596
  0
LINE
  8
_0-0_計極細
  6
CONTINUOUS
 62
    2
 10
446.7490100871031
 20
1126.6467153284595
 11
446.7490100871031
 21
1121.0467153284596
  0
LINE
  8
_0-0_計極細
  6
CONTINUOUS
 62
    2
 10
433.7490100871031
 20
1143.6467153284586
 11
433.7490100871031
 21
1138.0467153284587
  0
LINE
  8
_0-0_計極細
  6
CONTINUOUS
 62
    2
 10
446.7490100871031
 20
1143.6467153284586
 11
446.7490100871031
 21
1138.0467153284587
  0
LINE
  8
_0-0_計極細
  6
CONTINUOUS
 62
    2
 10
433.7490100871031
 20
1160.6467153284577
 11
433.7490100871031
 21
1155.0467153284578
  0
LINE
  8
_0-0_計極細
  6
CONTINUOUS
 62
    2
 10
446.7490100871031
 20
1160.6467153284577
 11
446.7490100871031
 21
1155.0467153284578
  0
LINE
  8
_0-0_計極細
  6
CONTINUOUS
 62
    2
 10
433.7490100871031
 20
1177.6467153284568
 11
433.7490100871031
 21
1172.0467153284569
  0
LINE
  8
_0-0_計極細
  6
CONTINUOUS
 62
    2
 10
446.7490100871031
 20
1177.6467153284568
 11
446.7490100871031
 21
1172.0467153284569
  0
LINE
  8
_0-0_計極細
  6
CONTINUOUS
 62
    2
 10
433.7490100871031
 20
985.046715328461
 11
433.7490100871031
 21
990.64671532846091
  0
LINE
  8
_0-0_計極細
  6
CONTINUOUS
 62
    2
 10
446.7490100871031
 20
985.046715328461
 11
446.7490100871031
 21
990.64671532846091
  0
LINE
  8
_0-0_計極細
  6
CONTINUOUS
 62
    2
 10
433.7490100871031
 20
968.04671532846191
 11
433.7490100871031
 21
973.64671532846182
  0
LINE
  8
_0-0_計極細
  6
CONTINUOUS
 62
    2
 10
446.7490100871031
 20
968.04671532846191
 11
446.7490100871031
 21
973.64671532846182
  0
LINE
  8
_0-0_計極細
  6
CONTINUOUS
 62
    2
 10
433.7490100871031
 20
951.04671532846282
 11
433.7490100871031
 21
956.64671532846273
  0
LINE
  8
_0-0_計極細
  6
CONTINUOUS
 62
    2
 10
446.7490100871031
 20
951.04671532846282
 11
446.7490100871031
 21
956.64671532846273
  0
LINE
  8
_0-0_計極細
  6
CONTINUOUS
 62
    2
 10
433.7490100871031
 20
934.04671532846373
 11
433.7490100871031
 21
939.64671532846364
  0
LINE
  8
_0-0_計極細
  6
CONTINUOUS
 62
    2
 10
446.7490100871031
 20
934.04671532846373
 11
446.7490100871031
 21
939.64671532846364
  0
LINE
  8
_0-5_寸法線
  6
CONTINUOUS
 62
    7
 10
242.74901008710128
 20
1210.8467153284596
 11
167.8997165663709
 21
1210.8467153284587
  0
LINE
  8
_0-5_寸法線
  6
CONTINUOUS
 62
    7
 10
175.8997165663709
 20
1210.8467153284587
 11
180.04082128801133
 21
1195.3919021078336
  0
LINE
  8
_0-5_寸法線
  6
CONTINUOUS
 62
    7
 10
175.8997165663709
 20
1210.8467153284587
 11
171.75861184473069
 21
1195.3919021078336
  0
LINE
  8
_0-5_寸法線
  6
CONTINUOUS
 62
    7
 10
242.74901008710401
 20
1180.8467153284596
 11
167.89971656637169
 21
1180.8467153284587
  0
LINE
  8
_0-5_寸法線
  6
CONTINUOUS
 62
    7
 10
175.89971656637169
 20
1180.8467153284587
 11
171.75861184473115
 21
1196.3015285490837
  0
LINE
  8
_0-5_寸法線
  6
CONTINUOUS
 62
    7
 10
175.89971656637169
 20
1180.8467153284587
 11
180.04082128801178
 21
1196.3015285490837
  0
LINE
  8
_0-5_寸法線
  6
CONTINUOUS
 62
    7
 10
175.8997165663709
 20
1210.8467153284587
 11
175.89971656637169
 21
1180.8467153284587
  0
TEXT
  8
_0-5_寸法線
 62
    7
 10
175.89971656636988
 20
1183.8467153284587
 40
24
 41
1
 50
90.00000000000054
  1
30
  0
LINE
  8
_0-5_寸法線
  6
CONTINUOUS
 62
    7
 10
175.89971656637169
 20
1180.8467153284587
 11
180.04082128801224
 21
1165.3919021078336
  0
LINE
  8
_0-5_寸法線
  6
CONTINUOUS
 62
    7
 10
175.89971656637169
 20
1180.8467153284587
 11
171.7586118447316
 21
1165.3919021078336
  0
LINE
  8
_0-5_寸法線
  6
CONTINUOUS
 62
    7
 10
242.74901008710219
 20
930.8467153284596
 11
167.89971656637886
 21
930.84671532845857
  0
LINE
  8
_0-5_寸法線
  6
CONTINUOUS
 62
    7
 10
175.89971656637886
 20
930.84671532845869
 11
171.75861184473831
 21
946.30152854908374
  0
LINE
  8
_0-5_寸法線
  6
CONTINUOUS
 62
    7
 10
175.89971656637886
 20
930.84671532845869
 11
180.04082128801895
 21
946.30152854908386
  0
LINE
  8
_0-5_寸法線
  6
CONTINUOUS
 62
    7
 10
175.89971656637169
 20
1180.8467153284587
 11
175.89971656637886
 21
930.84671532845869
  0
TEXT
  8
_0-5_寸法線
 62
    7
 10
175.89971656637385
 20
1037.8467153284587
 40
24
 41
1
 50
90.000000000000725
  1
250
  0
LINE
  8
_0-5_寸法線
  6
CONTINUOUS
 62
    7
 10
175.89971656637886
 20
930.84671532845869
 11
180.0408212880194
 21
915.39190210783363
  0
LINE
  8
_0-5_寸法線
  6
CONTINUOUS
 62
    7
 10
175.89971656637886
 20
930.84671532845869
 11
171.75861184473865
 21
915.39190210783352
  0
LINE
  8
_0-5_寸法線
  6
CONTINUOUS
 62
    7
 10
242.74901008710674
 20
900.84671532846232
 11
167.89971656637965
 21
900.8467153284613
  0
LINE
  8
_0-5_寸法線
  6
CONTINUOUS
 62
    7
 10
175.89971656637965
 20
900.84671532846141
 11
171.75861184473911
 21
916.30152854908647
  0
LINE
  8
_0-5_寸法線
  6
CONTINUOUS
 62
    7
 10
175.89971656637965
 20
900.84671532846141
 11
180.04082128801974
 21
916.30152854908658
  0
LINE
  8
_0-5_寸法線
  6
CONTINUOUS
 62
    7
 10
175.89971656637886
 20
930.84671532845869
 11
175.89971656637965
 21
900.84671532846141
  0
TEXT
  8
_0-5_寸法線
 62
    7
 10
175.8997165663792
 20
903.84671532846005
 40
24
 41
1
 50
90.00000000000054
  1
30
  0
LINE
  8
_0-5_寸法線
  6
CONTINUOUS
 62
    7
 10
1316.7490100871023
 20
1210.8467153284598
 11
1447.5983036078305
 21
1210.8467153284598
  0
LINE
  8
_0-5_寸法線
  6
CONTINUOUS
 62
    7
 10
1439.5983036078305
 20
1210.8467153284598
 11
1443.739408329471
 21
1195.3919021078348
  0
LINE
  8
_0-5_寸法線
  6
CONTINUOUS
 62
    7
 10
1439.5983036078305
 20
1210.8467153284598
 11
1435.4571988861903
 21
1195.3919021078348
  0
LINE
  8
_0-5_寸法線
  6
CONTINUOUS
 62
    7
 10
1316.7490100871023
 20
900.84671532845618
 11
1447.5983036078305
 21
900.84671532845641
  0
LINE
  8
_0-5_寸法線
  6
CONTINUOUS
 62
    7
 10
1439.5983036078305
 20
900.84671532845641
 11
1435.4571988861903
 21
916.30152854908147
  0
LINE
  8
_0-5_寸法線
  6
CONTINUOUS
 62
    7
 10
1439.5983036078305
 20
900.84671532845641
 11
1443.739408329471
 21
916.30152854908147
  0
LINE
  8
_0-5_寸法線
  6
CONTINUOUS
 62
    7
 10
1439.5983036078305
 20
1210.8467153284598
 11
1439.5983036078305
 21
900.84671532845641
  0
TEXT
  8
_0-5_寸法線
 62
    7
 10
1439.5983036078323
 20
1037.8467153284578
 40
24
 41
1
 50
90
  1
310
  0
LINE
  8
_0-1_計細線
  6
CONTINUOUS
 62
    3
 10
280.2490100871031
 20
1070.0467153284592
 11
1279.2490100871032
 21
1070.0467153284592
  0
LINE
  8
_0-1_計細線
  6
CONTINUOUS
 62
    3
 10
1279.2490100871032
 20
1070.0467153284592
 11
1279.2490100871032
 21
1058.6467153284586
  0
LINE
  8
_0-0_計極細
  6
CONTINUOUS
 62
    2
 10
280.2490100871031
 20
1061.8467153284589
 11
1279.2490100871032
 21
1061.8467153284589
  0
LINE
  8
_0-0_計極細
  6
CONTINUOUS
 62
    2
 10
280.2490100871031
 20
1066.8467153284589
 11
1279.2490100871032
 21
1066.8467153284589
  0
LINE
  8
_0-1_計細線
  6
CONTINUOUS
 62
    3
 10
280.2490100871031
 20
1070.0467153284592
 11
280.2490100871031
 21
1058.6467153284586
  0
LINE
  8
_0-1_計細線
  6
CONTINUOUS
 62
    3
 10
280.2490100871031
 20
1058.6467153284586
 11
1279.2490100871032
 21
1058.6467153284586
  0
LINE
  8
_0-1_計細線
  6
CONTINUOUS
 62
    3
 10
280.2490100871031
 20
1041.6467153284577
 11
1279.2490100871032
 21
1041.6467153284577
  0
LINE
  8
_0-1_計細線
  6
CONTINUOUS
 62
    3
 10
1279.2490100871032
 20
1053.0467153284583
 11
1279.2490100871032
 21
1041.6467153284577
  0
LINE
  8
_0-0_計極細
  6
CONTINUOUS
 62
    2
 10
280.2490100871031
 20
1044.846715328458
 11
1279.2490100871032
 21
1044.846715328458
  0
LINE
  8
_0-0_計極細
  6
CONTINUOUS
 62
    2
 10
280.2490100871031
 20
1049.846715328458
 11
1279.2490100871032
 21
1049.846715328458
  0
LINE
  8
_0-1_計細線
  6
CONTINUOUS
 62
    3
 10
280.2490100871031
 20
1053.0467153284583
 11
1279.2490100871032
 21
1053.0467153284583
  0
LINE
  8
_0-1_計細線
  6
CONTINUOUS
 62
    3
 10
280.2490100871031
 20
1053.0467153284583
 11
280.2490100871031
 21
1041.6467153284577
  0
LINE
  8
_0-0_計極細
  6
CONTINUOUS
 62
    2
 10
385.2490100871031
 20
1058.6467153284586
 11
385.2490100871031
 21
1058.1967153284602
  0
LINE
  8
_0-0_計極細
  6
CONTINUOUS
 62
    2
 10
385.2490100871031
 20
1053.4967153284604
 11
385.2490100871031
 21
1053.0467153284587
  0
LINE
  8
_0-0_計極細
  6
CONTINUOUS
 62
    2
 10
398.2490100871031
 20
1058.6467153284586
 11
398.2490100871031
 21
1058.1967153284602
  0
LINE
  8
_0-0_計極細
  6
CONTINUOUS
 62
    2
 10
398.2490100871031
 20
1053.4967153284604
 11
398.2490100871031
 21
1053.0467153284583
  0
LINE
  8
_0-5_寸法線
  6
CONTINUOUS
 62
    7
 10
1383.5983036078305
 20
1210.8467153284598
 11
1379.4571988861903
 21
1226.3015285490849
  0
LINE
  8
_0-5_寸法線
  6
CONTINUOUS
 62
    7
 10
1383.5983036078305
 20
1210.8467153284598
 11
1387.739408329471
 21
1226.3015285490849
  0
LINE
  8
_0-5_寸法線
  6
CONTINUOUS
 62
    7
 10
1316.7490100871028
 20
1207.8467153284598
 11
1391.5983036078305
 21
1207.8467153284598
  0
CIRCLE
  8
_0-5_寸法線
  6
CONTINUOUS
 62
    1
 10
1383.5983036078305
 20
1207.8467153284598
 40
2.3999999999999999
  0
LINE
  8
_0-5_寸法線
  6
CONTINUOUS
 62
    7
 10
1383.5983036078305
 20
1250.8467153284598
 11
1383.5983036078305
 21
1207.8467153284598
  0
TEXT
  8
_0-5_寸法線
 62
    7
 10
1383.5983036078305
 20
1232.8944084790301
 40
24
 41
1
 50
90
  1
3
  0
LINE
  8
_0-5_寸法線
  6
CONTINUOUS
 62
    7
 10
1316.7490100871028
 20
1205.8467153284607
 11
1391.5983036078305
 21
1205.8467153284607
  0
LINE
  8
_0-5_寸法線
  6
CONTINUOUS
 62
    7
 10
1383.5983036078305
 20
1207.8467153284598
 11
1383.5983036078305
 21
1205.8467153284607
  0
TEXT
  8
_0-5_寸法線
 62
    7
 10
1413.866893713637
 20
1195.2897735891527
 40
24
 41
1
 50
90
  1
2
  0
LINE
  8
_0-5_寸法線
  6
CONTINUOUS
 62
    7
 10
1383.5983036078305
 20
1205.8467153284607
 11
1387.739408329471
 21
1190.3919021078357
  0
LINE
  8
_0-5_寸法線
  6
CONTINUOUS
 62
    7
 10
1383.5983036078305
 20
1205.8467153284607
 11
1379.4571988861903
 21
1190.3919021078357
  0
LINE
  8
_0-5_寸法線
  6
CONTINUOUS
 62
    7
 10
1316.7490100871032
 20
905.84671532846073
 11
1391.5983036078305
 21
905.84671532846073
  0
LINE
  8
_0-5_寸法線
  6
CONTINUOUS
 62
    7
 10
1383.5983036078305
 20
905.84671532846073
 11
1379.4571988861903
 21
921.30152854908579
  0
LINE
  8
_0-5_寸法線
  6
CONTINUOUS
 62
    7
 10
1383.5983036078305
 20
905.84671532846073
 11
1387.739408329471
 21
921.30152854908579
  0
LINE
  8
_0-5_寸法線
  6
CONTINUOUS
 62
    7
 10
1383.5983036078305
 20
1205.8467153284607
 11
1383.5983036078305
 21
905.84671532846073
  0
TEXT
  8
_0-5_寸法線
 62
    7
 10
1383.5983036078319
 20
1037.8467153284607
 40
24
 41
1
 50
90
  1
300
  0
LINE
  8
_0-5_寸法線
  6
CONTINUOUS
 62
    7
 10
1316.7490100871032
 20
903.84671532846073
 11
1391.5983036078305
 21
903.84671532846073
  0
CIRCLE
  8
_0-5_寸法線
  6
CONTINUOUS
 62
    1
 10
1383.5983036078305
 20
903.84671532846073
 40
2.3999999999999999
  0
LINE
  8
_0-5_寸法線
  6
CONTINUOUS
 62
    7
 10
1383.5983036078305
 20
905.84671532846073
 11
1383.5983036078305
 21
903.84671532846073
  0
TEXT
  8
_0-5_寸法線
 62
    7
 10
1416.1686802405527
 20
903.69509157724224
 40
24
 41
1
 50
90
  1
2
  0
LINE
  8
_0-5_寸法線
  6
CONTINUOUS
 62
    7
 10
1383.5983036078305
 20
900.84671532845618
 11
1387.7394083294707
 21
885.39190210783113
  0
LINE
  8
_0-5_寸法線
  6
CONTINUOUS
 62
    7
 10
1383.5983036078305
 20
900.84671532845618
 11
1379.4571988861901
 21
885.39190210783113
  0
LINE
  8
_0-5_寸法線
  6
CONTINUOUS
 62
    7
 10
1383.5983036078305
 20
903.84671532846073
 11
1383.5983036078305
 21
860.84671532845618
  0
TEXT
  8
_0-5_寸法線
 62
    7
 10
1383.5983036078305
 20
866.70426642787561
 40
24
 41
1
 50
90
  1
3
  0
LINE
  8
_0-d_寸法3
  6
CONTINUOUS
 62
    7
 10
366.41567675377007
 20
577.20227634853768
 11
350.9608635331449
 21
573.06117162689736
  0
LINE
  8
_0-d_寸法3
  6
CONTINUOUS
 62
    7
 10
366.41567675377007
 20
577.20227634853768
 11
350.96086353314502
 21
581.34338107017811
  0
LINE
  8
_0-d_寸法3
  6
CONTINUOUS
 62
    7
 10
374.41567675377007
 20
447.86894301520488
 11
374.41567675377007
 21
585.20227634853768
  0
CIRCLE
  8
_0-d_寸法3
  6
CONTINUOUS
 62
    1
 10
374.41567675377007
 20
577.20227634853768
 40
2.4000000000000004
  0
LINE
  8
_0-d_寸法3
  6
CONTINUOUS
 62
    7
 10
326.41567675377007
 20
577.20227634853768
 11
374.41567675377007
 21
577.20227634853768
  0
TEXT
  8
_0-d_寸法3
 62
    7
 10
332.58420804349294
 20
577.20227634853768
 40
24
 41
1
 50
0
  1
3
  0
LINE
  8
_0-d_寸法3
  6
CONTINUOUS
 62
    7
 10
379.74901008710299
 20
443.86894034585407
 11
379.74901008710378
 21
585.20227634853768
  0
LINE
  8
_0-d_寸法3
  6
CONTINUOUS
 62
    7
 10
374.41567675377007
 20
577.20227634853768
 11
379.74901008710367
 21
577.20227634853768
  0
TEXT
  8
_0-d_寸法3
 62
    7
 10
371.08234342043659
 20
577.20227634853768
 40
24
 41
1
 50
0
  1
2
  0
LINE
  8
_0-d_寸法3
  6
CONTINUOUS
 62
    7
 10
379.74901008710367
 20
577.20227634853768
 11
395.20382330772884
 21
581.343381070178
  0
LINE
  8
_0-d_寸法3
  6
CONTINUOUS
 62
    7
 10
379.74901008710367
 20
577.20227634853768
 11
395.20382330772884
 21
573.06117162689736
  0
LINE
  8
_0-d_寸法3
  6
CONTINUOUS
 62
    7
 10
1179.7490100871041
 20
443.86894034585407
 11
1179.7490100871041
 21
585.20227634853768
  0
LINE
  8
_0-d_寸法3
  6
CONTINUOUS
 62
    7
 10
1179.7490100871041
 20
577.20227634853768
 11
1164.2941968664791
 21
573.06117162689736
  0
LINE
  8
_0-d_寸法3
  6
CONTINUOUS
 62
    7
 10
1179.7490100871041
 20
577.20227634853768
 11
1164.2941968664791
 21
581.34338107017811
  0
LINE
  8
_0-d_寸法3
  6
CONTINUOUS
 62
    7
 10
379.74901008710367
 20
577.20227634853768
 11
1179.7490100871041
 21
577.20227634853768
  0
TEXT
  8
_0-d_寸法3
 62
    7
 10
761.74901008710378
 20
577.20227634853768
 40
24
 41
1
 50
0
  1
300
  0
LINE
  8
_0-d_寸法3
  6
CONTINUOUS
 62
    7
 10
1185.0823434204372
 20
447.86894301520488
 11
1185.0823434204372
 21
585.20227634853768
  0
CIRCLE
  8
_0-d_寸法3
  6
CONTINUOUS
 62
    1
 10
1185.0823434204372
 20
577.20227634853768
 40
2.4000000000000004
  0
LINE
  8
_0-d_寸法3
  6
CONTINUOUS
 62
    7
 10
1179.7490100871041
 20
577.20227634853768
 11
1185.0823434204372
 21
577.20227634853768
  0
TEXT
  8
_0-d_寸法3
 62
    7
 10
1176.4156767537715
 20
577.20227634853768
 40
24
 41
1
 50
0
  1
2
  0
LINE
  8
_0-d_寸法3
  6
CONTINUOUS
 62
    7
 10
1193.0823434204372
 20
577.20227634853768
 11
1208.5371566410622
 21
581.34338107017788
  0
LINE
  8
_0-d_寸法3
  6
CONTINUOUS
 62
    7
 10
1193.0823434204372
 20
577.20227634853768
 11
1208.5371566410622
 21
573.06117162689725
  0
LINE
  8
_0-d_寸法3
  6
CONTINUOUS
 62
    7
 10
1185.0823434204372
 20
577.20227634853768
 11
1233.0823434204372
 21
577.20227634853768
  0
TEXT
  8
_0-d_寸法3
 62
    7
 10
1213.3895078854791
 20
577.20227634853768
 40
24
 41
1
 50
0
  1
3
  0
LINE
  8
_0-5_寸法線
  6
CONTINUOUS
 62
    7
 10
779.74901008710322
 20
1226.8467153284598
 11
779.74901008710322
 21
1298.8467153284598
  0
LINE
  8
_0-5_寸法線
  6
CONTINUOUS
 62
    7
 10
779.74901008710322
 20
1290.8467153284598
 11
795.20382330772827
 21
1294.9878200501003
  0
LINE
  8
_0-5_寸法線
  6
CONTINUOUS
 62
    7
 10
779.74901008710322
 20
1290.8467153284598
 11
795.20382330772827
 21
1286.7056106068194
  0
LINE
  8
_0-5_寸法線
  6
CONTINUOUS
 62
    7
 10
828.24901008710322
 20
1226.8467153284598
 11
828.24901008710322
 21
1298.8467153284598
  0
LINE
  8
_0-5_寸法線
  6
CONTINUOUS
 62
    7
 10
828.24901008710322
 20
1290.8467153284598
 11
812.79419686647816
 21
1286.7056106068196
  0
LINE
  8
_0-5_寸法線
  6
CONTINUOUS
 62
    7
 10
828.24901008710322
 20
1290.8467153284598
 11
812.79419686647816
 21
1294.9878200501003
  0
LINE
  8
_0-5_寸法線
  6
CONTINUOUS
 62
    7
 10
779.74901008710322
 20
1290.8467153284598
 11
828.24901008710322
 21
1290.8467153284598
  0
TEXT
  8
_0-5_寸法線
 62
    7
 10
791.99901008710412
 20
1290.8467153284598
 40
24
 41
1
 50
0
  1
Ｂ
  0
LINE
  8
_0-5_寸法線
  6
CONTINUOUS
 62
    7
 10
280.24901008710322
 20
1226.8467153284598
 11
280.24901008710322
 21
1298.8467153284598
  0
LINE
  8
_0-5_寸法線
  6
CONTINUOUS
 62
    7
 10
280.24901008710322
 20
1290.8467153284598
 11
295.70382330772827
 21
1294.9878200501003
  0
LINE
  8
_0-5_寸法線
  6
CONTINUOUS
 62
    7
 10
280.24901008710322
 20
1290.8467153284598
 11
295.70382330772827
 21
1286.7056106068194
  0
LINE
  8
_0-5_寸法線
  6
CONTINUOUS
 62
    7
 10
294.74901008710322
 20
1226.8467153284598
 11
294.74901008710322
 21
1298.8467153284598
  0
LINE
  8
_0-5_寸法線
  6
CONTINUOUS
 62
    7
 10
294.74901008710322
 20
1290.8467153284598
 11
279.29419686647816
 21
1286.7056106068196
  0
LINE
  8
_0-5_寸法線
  6
CONTINUOUS
 62
    7
 10
294.74901008710322
 20
1290.8467153284598
 11
279.29419686647816
 21
1294.9878200501003
  0
LINE
  8
_0-5_寸法線
  6
CONTINUOUS
 62
    7
 10
280.24901008710322
 20
1290.8467153284598
 11
294.74901008710322
 21
1290.8467153284598
  0
TEXT
  8
_0-5_寸法線
 62
    7
 10
275.49901008710322
 20
1290.8467153284598
 40
24
 41
1
 50
0
  1
Ａ
  0
LINE
  8
_0-5_寸法線
  6
CONTINUOUS
 62
    7
 10
1264.7490100871032
 20
1226.8467153284598
 11
1264.7490100871032
 21
1298.8467153284598
  0
LINE
  8
_0-5_寸法線
  6
CONTINUOUS
 62
    7
 10
1264.7490100871032
 20
1290.8467153284598
 11
1280.2038233077283
 21
1294.9878200501003
  0
LINE
  8
_0-5_寸法線
  6
CONTINUOUS
 62
    7
 10
1264.7490100871032
 20
1290.8467153284598
 11
1280.2038233077283
 21
1286.7056106068194
  0
LINE
  8
_0-5_寸法線
  6
CONTINUOUS
 62
    7
 10
1279.2490100871032
 20
1226.8467153284598
 11
1279.2490100871032
 21
1298.8467153284598
  0
LINE
  8
_0-5_寸法線
  6
CONTINUOUS
 62
    7
 10
1279.2490100871032
 20
1290.8467153284598
 11
1263.7941968664782
 21
1286.7056106068196
  0
LINE
  8
_0-5_寸法線
  6
CONTINUOUS
 62
    7
 10
1279.2490100871032
 20
1290.8467153284598
 11
1263.7941968664782
 21
1294.9878200501003
  0
LINE
  8
_0-5_寸法線
  6
CONTINUOUS
 62
    7
 10
1264.7490100871032
 20
1290.8467153284598
 11
1279.2490100871032
 21
1290.8467153284598
  0
TEXT
  8
_0-5_寸法線
 62
    7
 10
1259.9990100871032
 20
1290.8467153284598
 40
24
 41
1
 50
0
  1
Ａ
  0
LINE
  8
_0-5_寸法線
  6
CONTINUOUS
 62
    7
 10
280.24901008710322
 20
1226.8467153284589
 11
280.2490100871039
 21
1354.8467153284598
  0
LINE
  8
_0-5_寸法線
  6
CONTINUOUS
 62
    7
 10
280.2490100871039
 20
1346.8467153284598
 11
291.84012000257269
 21
1349.9525438696901
  0
LINE
  8
_0-5_寸法線
  6
CONTINUOUS
 62
    7
 10
280.2490100871039
 20
1346.8467153284598
 11
291.84012000257269
 21
1343.7408867872296
  0
LINE
  8
_0-5_寸法線
  6
CONTINUOUS
 62
    7
 10
1279.2490100871032
 20
1226.8467153284589
 11
1279.2490100871032
 21
1354.8467153284598
  0
LINE
  8
_0-5_寸法線
  6
CONTINUOUS
 62
    7
 10
1279.2490100871032
 20
1346.8467153284598
 11
1267.6579001716343
 21
1343.7408867872296
  0
LINE
  8
_0-5_寸法線
  6
CONTINUOUS
 62
    7
 10
1279.2490100871032
 20
1346.8467153284598
 11
1267.6579001716343
 21
1349.9525438696901
  0
LINE
  8
_0-5_寸法線
  6
CONTINUOUS
 62
    7
 10
280.2490100871039
 20
1346.8467153284598
 11
1279.2490100871032
 21
1346.8467153284598
  0
TEXT
  8
_0-5_寸法線
 62
    7
 10
767.74901008710401
 20
1346.8467153284598
 40
24
 41
1
 50
0
  1
Ｌ
  0
LINE
  8
_0-5_寸法線
  6
CONTINUOUS
 62
    7
 10
682.74901008710412
 20
1226.8467153284598
 11
682.74901008710412
 21
1298.8467153284598
  0
LINE
  8
_0-5_寸法線
  6
CONTINUOUS
 62
    7
 10
682.74901008710412
 20
1290.8467153284598
 11
698.20382330772918
 21
1294.9878200501003
  0
LINE
  8
_0-5_寸法線
  6
CONTINUOUS
 62
    7
 10
682.74901008710412
 20
1290.8467153284598
 11
698.20382330772918
 21
1286.7056106068194
  0
LINE
  8
_0-5_寸法線
  6
CONTINUOUS
 62
    7
 10
731.24901008710412
 20
1226.8467153284598
 11
731.24901008710412
 21
1298.8467153284598
  0
LINE
  8
_0-5_寸法線
  6
CONTINUOUS
 62
    7
 10
731.24901008710412
 20
1290.8467153284598
 11
715.79419686647907
 21
1286.7056106068196
  0
LINE
  8
_0-5_寸法線
  6
CONTINUOUS
 62
    7
 10
731.24901008710412
 20
1290.8467153284598
 11
715.79419686647907
 21
1294.9878200501003
  0
LINE
  8
_0-5_寸法線
  6
CONTINUOUS
 62
    7
 10
682.74901008710412
 20
1290.8467153284598
 11
731.24901008710412
 21
1290.8467153284598
  0
TEXT
  8
_0-5_寸法線
 62
    7
 10
682.99901008710412
 20
1290.8467153284598
 40
24
 41
1
 50
0
  1
48.5
  0
LINE
  8
_0-5_寸法線
  6
CONTINUOUS
 62
    7
 10
731.24901008710412
 20
1290.8467153284598
 11
746.70382330772929
 21
1294.9878200501
  0
LINE
  8
_0-5_寸法線
  6
CONTINUOUS
 62
    7
 10
731.24901008710412
 20
1290.8467153284598
 11
746.70382330772918
 21
1286.7056106068194
  0
LINE
  8
_0-5_寸法線
  6
CONTINUOUS
 62
    7
 10
779.74901008710412
 20
1226.8467153284598
 11
779.74901008710412
 21
1298.8467153284598
  0
LINE
  8
_0-5_寸法線
  6
CONTINUOUS
 62
    7
 10
779.74901008710412
 20
1290.8467153284598
 11
764.29419686647907
 21
1286.7056106068196
  0
LINE
  8
_0-5_寸法線
  6
CONTINUOUS
 62
    7
 10
779.74901008710412
 20
1290.8467153284598
 11
764.29419686647907
 21
1294.9878200501003
  0
LINE
  8
_0-5_寸法線
  6
CONTINUOUS
 62
    7
 10
731.24901008710412
 20
1290.8467153284598
 11
779.74901008710412
 21
1290.8467153284598
  0
TEXT
  8
_0-5_寸法線
 62
    7
 10
732.37554281369057
 20
1266.8467153284598
 40
24
 41
1
 50
0
  1
48.5
  0
LINE
  8
_0-7_枠細線
  6
CONTINUOUS
 62
    5
 10
720.78316326915092
 20
1319.3310535460546
 11
708.78316326915092
 21
1343.3310535460546
  0
LINE
  8
_0-7_枠細線
  6
CONTINUOUS
 62
    5
 10
696.78316326915092
 20
1319.3310535460546
 11
720.78316326915092
 21
1319.3310535460546
  0
LINE
  8
_0-7_枠細線
  6
CONTINUOUS
 62
    5
 10
708.78316326915092
 20
1343.3310535460546
 11
696.78316326915092
 21
1319.3310535460546
  0
TEXT
  8
_0-7_枠細線
 62
    5
 10
700.56740529818785
 20
1318.8398499534458
 40
20
 41
0.8
 50
0
  1
１
  0
LINE
  8
_0-7_枠細線
  6
CONTINUOUS
 62
    5
 10
737.1996427986719
 20
1343.3310535460546
 11
725.1996427986719
 21
1319.3310535460546
  0
LINE
  8
_0-7_枠細線
  6
CONTINUOUS
 62
    5
 10
725.1996427986719
 20
1319.3310535460546
 11
749.1996427986719
 21
1319.3310535460546
  0
LINE
  8
_0-7_枠細線
  6
CONTINUOUS
 62
    5
 10
749.1996427986719
 20
1319.3310535460546
 11
737.1996427986719
 21
1343.3310535460546
  0
LINE
  8
_0-7_枠細線
  6
CONTINUOUS
 62
    5
 10
1464
 20
1314.307734354795
 11
1452
 21
1338.307734354795
  0
LINE
  8
_0-7_枠細線
  6
CONTINUOUS
 62
    5
 10
1440
 20
1314.307734354795
 11
1464
 21
1314.307734354795
  0
LINE
  8
_0-7_枠細線
  6
CONTINUOUS
 62
    5
 10
1452
 20
1338.307734354795
 11
1440
 21
1314.307734354795
  0
LINE
  8
_0-7_枠細線
  6
CONTINUOUS
 62
    5
 10
2280
 20
1312
 11
1424
 21
1312
  0
LINE
  8
_0-7_枠細線
  6
CONTINUOUS
 62
    5
 10
1464
 20
1286.307734354795
 11
1452
 21
1310.307734354795
  0
LINE
  8
_0-7_枠細線
  6
CONTINUOUS
 62
    5
 10
1440
 20
1286.307734354795
 11
1464
 21
1286.307734354795
  0
LINE
  8
_0-7_枠細線
  6
CONTINUOUS
 62
    5
 10
1452
 20
1310.307734354795
 11
1440
 21
1286.307734354795
  0
LINE
  8
_0-7_枠細線
  6
CONTINUOUS
 62
    5
 10
2280
 20
1284
 11
1424
 21
1284
  0
TEXT
  8
_0-7_枠細線
 62
    5
 10
1443.7842420290372
 20
1312.7896224110355
 40
20
 41
0.8
 50
0
  1
６
  0
TEXT
  8
_0-7_枠細線
 62
    5
 10
1443.7842420290372
 20
1284.7896224110352
 40
20
 41
0.8
 50
0
  1
７
  0
LINE
  8
_0-7_枠細線
  6
CONTINUOUS
 62
    5
 10
1424
 20
1284
 11
1424
 21
1535.9999999999986
  0
LINE
  8
_0-7_枠細線
  6
CONTINUOUS
 62
    5
 10
1480
 20
1284
 11
1480
 21
1535.9999999999986
  0
LINE
  8
_0-7_枠細線
  6
CONTINUOUS
 62
    5
 10
1880
 20
1284
 11
1880
 21
1535.9999999999986
  0
LINE
  8
_0-7_枠細線
  6
CONTINUOUS
 62
    5
 10
2040
 20
1284
 11
2040
 21
1535.9999999999986
  0
LINE
  8
_0-7_枠細線
  6
CONTINUOUS
 62
    5
 10
1668.4453960905375
 20
1133.8946910356817
 11
1668.4453960905375
 21
1013.8946910356818
  0
TEXT
  8
_0-7_枠細線
 62
    5
 10
1671.7225259619295
 20
980.73377816458583
 40
24
 41
0.8000000000000001
 50
0
  1
※ 特寸品はAが20以下となるようBにて調整
  0
TEXT
  8
_0-7_枠細線
 62
    5
 10
1671.7225259619295
 20
949.54143699835436
 40
24
 41
0.8000000000000001
 50
0
  1
※ 角型の場合は、集水マス補強仕様による
  0
TEXT
  8
_0-7_枠細線
 62
    5
 10
1709.6453960905396
 20
1101.8946910356817
 40
24
 41
0.8000000000000001
 50
0
  1
種　別
  0
TEXT
  8
_0-7_枠細線
 62
    5
 10
1709.645396090539
 20
1061.8946910356817
 40
24
 41
0.8000000000000001
 50
0
  1
定尺品
  0
TEXT
  8
_0-7_枠細線
 62
    5
 10
1709.645396090539
 20
1021.8946910356818
 40
24
 41
0.8000000000000001
 50
0
  1
特寸品
  0
LINE
  8
_0-7_枠細線
  6
CONTINUOUS
 62
    5
 10
1808.4453960905398
 20
1133.8946910356817
 11
1808.4453960905398
 21
1013.8946910356818
  0
TEXT
  8
_0-7_枠細線
 62
    5
 10
1856.845396090542
 20
1061.8946910356817
 40
24
 41
0.5999999999999999
 50
0
  1
９９９
  0
TEXT
  8
_0-7_枠細線
 62
    5
 10
1868.845396090542
 20
1101.8946910356817
 40
24
 41
0.8000000000000001
 50
0
  1
Ｌ
  0
TEXT
  8
_0-7_枠細線
 62
    5
 10
1820.8453960905404
 20
1021.8946910356818
 40
24
 41
0.5999999999999999
 50
0
  1
３０５～１３０５
  0
LINE
  8
_0-7_枠細線
  6
CONTINUOUS
 62
    5
 10
1948.4453960905398
 20
1133.8946910356817
 11
1948.4453960905398
 21
1013.8946910356818
  0
TEXT
  8
_0-7_枠細線
 62
    5
 10
1849.2540219487705
 20
1141.8946910356817
 40
28
 41
1
 50
0
  1
寸法表
  0
LINE
  8
_0-7_枠細線
  6
CONTINUOUS
 62
    5
 10
2228.4453960905412
 20
1133.8946910356817
 11
2228.4453960905412
 21
1013.8946910356818
  0
LINE
  8
_0-7_枠細線
  6
CONTINUOUS
 62
    5
 10
1668.4453960905375
 20
1133.8946910356817
 11
2228.4453960905412
 21
1133.8946910356817
  0
LINE
  8
_0-7_枠細線
  6
CONTINUOUS
 62
    5
 10
1668.4453960905375
 20
1093.8946910356817
 11
2228.4453960905412
 21
1093.8946910356817
  0
LINE
  8
_0-7_枠細線
  6
CONTINUOUS
 62
    5
 10
1668.4453960905375
 20
1053.8946910356817
 11
2228.4453960905412
 21
1053.8946910356817
  0
LINE
  8
_0-7_枠細線
  6
CONTINUOUS
 62
    5
 10
1668.4453960905375
 20
1013.8946910356818
 11
2228.4453960905412
 21
1013.8946910356818
  0
LINE
  8
_0-7_枠細線
  6
CONTINUOUS
 62
    5
 10
2088.4453960905407
 20
1133.8946910356817
 11
2088.4453960905407
 21
1013.8946910356818
  0
TEXT
  8
_0-7_枠細線
 62
    5
 10
1989.6453960905442
 20
1021.8946910356818
 40
24
 41
0.5999999999999999
 50
0
  1
７～２０
  0
TEXT
  8
_0-7_枠細線
 62
    5
 10
2008.8453960905454
 20
1101.8946910356817
 40
24
 41
0.8000000000000001
 50
0
  1
Ａ
  0
TEXT
  8
_0-7_枠細線
 62
    5
 10
2148.8453960905426
 20
1101.8946910356817
 40
24
 41
0.8000000000000001
 50
0
  1
Ｂ
  0
TEXT
  8
_0-7_枠細線
 62
    5
 10
2129.6453960905392
 20
1061.8946910356817
 40
24
 41
0.5999999999999999
 50
0
  1
４８．５
  0
TEXT
  8
_0-7_枠細線
 62
    5
 10
1989.6453960905401
 20
1061.8946910356817
 40
24
 41
0.5999999999999999
 50
0
  1
１４．５
  0
TEXT
  8
_0-7_枠細線
 62
    5
 10
2093.645396090541
 20
1021.8946910356818
 40
24
 41
0.5999999999999999
 50
0
  1
２６．５～４８．５
  0
TEXT
  8
_0-7_枠細線
 62
    5
 10
1882.8453960905383
 20
608
 40
24
 41
0.7999999999999999
 50
0
  1
ライトグレー
  0
TEXT
  8
_0-7_枠細線
 62
    5
 10
1902.0453960905381
 20
648
 40
24
 41
0.7999999999999999
 50
0
  1
ベージュ
  0
TEXT
  8
_0-7_枠細線
 62
    5
 10
1902.0453960905381
 20
567.99999999999977
 40
24
 41
0.7999999999999999
 50
0
  1
ホワイト
  0
TEXT
  8
_0-7_枠細線
 62
    5
 10
1911.6453960905383
 20
527.99999999999977
 40
24
 41
0.7999999999999999
 50
0
  1
ピンク
  0
TEXT
  8
_0-7_枠細線
 62
    5
 10
1911.6453960905383
 20
487.99999999999977
 40
24
 41
0.7999999999999999
 50
0
  1
ブルー
  0
TEXT
  8
_0-7_枠細線
 62
    5
 10
1882.8453960905383
 20
447.99999999999977
 40
24
 41
0.7999999999999999
 50
0
  1
ダークグレー
  0
TEXT
  8
_0-7_枠細線
 62
    5
 10
1911.6453960905383
 20
407.99999999999977
 40
24
 41
0.7999999999999999
 50
0
  1
ウッド
  0
TEXT
  8
_0-7_枠細線
 62
    5
 10
1902.0453960905381
 20
327.99999999999977
 40
24
 41
0.7999999999999999
 50
0
  1
ブラック
  0
TEXT
  8
_0-7_枠細線
 62
    5
 10
1902.0453960905381
 20
367.99999999999977
 40
24
 41
0.7999999999999999
 50
0
  1
ブラウン
  0
LINE
  8
_0-0_計極細
  6
CONTINUOUS
 62
    2
 10
336.7490100871031
 20
1002.046715328461
 11
336.7490100871031
 21
1007.6467153284614
  0
LINE
  8
_0-0_計極細
  6
CONTINUOUS
 62
    2
 10
349.7490100871031
 20
1002.046715328461
 11
349.7490100871031
 21
1007.6467153284614
  0
LINE
  8
_0-0_計極細
  6
CONTINUOUS
 62
    2
 10
336.7490100871031
 20
1019.0467153284619
 11
336.7490100871031
 21
1024.6467153284618
  0
LINE
  8
_0-0_計極細
  6
CONTINUOUS
 62
    2
 10
349.7490100871031
 20
1019.0467153284619
 11
349.7490100871031
 21
1024.6467153284618
  0
LINE
  8
_0-0_計極細
  6
CONTINUOUS
 62
    2
 10
336.7490100871031
 20
1041.6467153284577
 11
336.7490100871031
 21
1036.0467153284578
  0
LINE
  8
_0-0_計極細
  6
CONTINUOUS
 62
    2
 10
349.7490100871031
 20
1041.6467153284577
 11
349.7490100871031
 21
1036.0467153284578
  0
LINE
  8
_0-0_計極細
  6
CONTINUOUS
 62
    2
 10
336.7490100871031
 20
1058.6467153284586
 11
336.7490100871031
 21
1053.0467153284583
  0
LINE
  8
_0-0_計極細
  6
CONTINUOUS
 62
    2
 10
349.7490100871031
 20
1058.6467153284586
 11
349.7490100871031
 21
1053.0467153284583
  0
LINE
  8
_0-0_計極細
  6
CONTINUOUS
 62
    2
 10
336.7490100871031
 20
1075.6467153284591
 11
336.7490100871031
 21
1070.0467153284592
  0
LINE
  8
_0-0_計極細
  6
CONTINUOUS
 62
    2
 10
349.7490100871031
 20
1075.6467153284591
 11
349.7490100871031
 21
1070.0467153284592
  0
LINE
  8
_0-0_計極細
  6
CONTINUOUS
 62
    2
 10
336.7490100871031
 20
1092.64671532846
 11
336.7490100871031
 21
1087.0467153284596
  0
LINE
  8
_0-0_計極細
  6
CONTINUOUS
 62
    2
 10
349.7490100871031
 20
1092.64671532846
 11
349.7490100871031
 21
1087.0467153284596
  0
LINE
  8
_0-0_計極細
  6
CONTINUOUS
 62
    2
 10
336.7490100871031
 20
1109.6467153284605
 11
336.7490100871031
 21
1104.0467153284606
  0
LINE
  8
_0-0_計極細
  6
CONTINUOUS
 62
    2
 10
349.7490100871031
 20
1109.6467153284605
 11
349.7490100871031
 21
1104.0467153284606
  0
LINE
  8
_0-0_計極細
  6
CONTINUOUS
 62
    2
 10
336.7490100871031
 20
1194.4467153284597
 11
336.7490100871031
 21
1189.0467153284596
  0
LINE
  8
_0-0_計極細
  6
CONTINUOUS
 62
    2
 10
349.7490100871031
 20
1194.4467153284597
 11
349.7490100871031
 21
1189.0467153284596
  0
LINE
  8
_0-0_計極細
  6
CONTINUOUS
 62
    2
 10
336.7490100871031
 20
917.24671532845991
 11
336.7490100871031
 21
922.64671532845955
  0
LINE
  8
_0-0_計極細
  6
CONTINUOUS
 62
    2
 10
349.7490100871031
 20
917.24671532845991
 11
349.7490100871031
 21
922.64671532845955
  0
LINE
  8
_0-0_計極細
  6
CENTER1
 62
    2
 10
343.2490100871031
 20
1214.597434752922
 11
343.2490100871031
 21
898.08889158744864
  0
LINE
  8
_0-0_計極細
  6
CONTINUOUS
 62
    2
 10
336.7490100871031
 20
1126.6467153284595
 11
336.7490100871031
 21
1121.0467153284596
  0
LINE
  8
_0-0_計極細
  6
CONTINUOUS
 62
    2
 10
349.7490100871031
 20
1126.6467153284595
 11
349.7490100871031
 21
1121.0467153284596
  0
LINE
  8
_0-0_計極細
  6
CONTINUOUS
 62
    2
 10
336.7490100871031
 20
1143.6467153284586
 11
336.7490100871031
 21
1138.0467153284587
  0
LINE
  8
_0-0_計極細
  6
CONTINUOUS
 62
    2
 10
349.7490100871031
 20
1143.6467153284586
 11
349.7490100871031
 21
1138.0467153284587
  0
LINE
  8
_0-0_計極細
  6
CONTINUOUS
 62
    2
 10
336.7490100871031
 20
1160.6467153284577
 11
336.7490100871031
 21
1155.0467153284578
  0
LINE
  8
_0-0_計極細
  6
CONTINUOUS
 62
    2
 10
349.7490100871031
 20
1160.6467153284577
 11
349.7490100871031
 21
1155.0467153284578
  0
LINE
  8
_0-0_計極細
  6
CONTINUOUS
 62
    2
 10
336.7490100871031
 20
1177.6467153284568
 11
336.7490100871031
 21
1172.0467153284569
  0
LINE
  8
_0-0_計極細
  6
CONTINUOUS
 62
    2
 10
349.7490100871031
 20
1177.6467153284568
 11
349.7490100871031
 21
1172.0467153284569
  0
LINE
  8
_0-0_計極細
  6
CONTINUOUS
 62
    2
 10
336.7490100871031
 20
985.046715328461
 11
336.7490100871031
 21
990.64671532846091
  0
LINE
  8
_0-0_計極細
  6
CONTINUOUS
 62
    2
 10
349.7490100871031
 20
985.046715328461
 11
349.7490100871031
 21
990.64671532846091
  0
LINE
  8
_0-0_計極細
  6
CONTINUOUS
 62
    2
 10
336.7490100871031
 20
968.04671532846191
 11
336.7490100871031
 21
973.64671532846182
  0
LINE
  8
_0-0_計極細
  6
CONTINUOUS
 62
    2
 10
349.7490100871031
 20
968.04671532846191
 11
349.7490100871031
 21
973.64671532846182
  0
LINE
  8
_0-0_計極細
  6
CONTINUOUS
 62
    2
 10
336.7490100871031
 20
951.04671532846282
 11
336.7490100871031
 21
956.64671532846273
  0
LINE
  8
_0-0_計極細
  6
CONTINUOUS
 62
    2
 10
349.7490100871031
 20
951.04671532846282
 11
349.7490100871031
 21
956.64671532846273
  0
LINE
  8
_0-0_計極細
  6
CONTINUOUS
 62
    2
 10
336.7490100871031
 20
934.04671532846373
 11
336.7490100871031
 21
939.64671532846364
  0
LINE
  8
_0-0_計極細
  6
CONTINUOUS
 62
    2
 10
349.7490100871031
 20
934.04671532846373
 11
349.7490100871031
 21
939.64671532846364
  0
LINE
  8
_0-0_計極細
  6
CENTER1
 62
    2
 10
1216.2490100871032
 20
1214.597434752922
 11
1216.2490100871032
 21
898.08889158744864
  0
LINE
  8
_0-0_計極細
  6
CONTINUOUS
 62
    2
 10
1209.7490100871032
 20
1002.046715328461
 11
1209.7490100871032
 21
1007.6467153284614
  0
LINE
  8
_0-0_計極細
  6
CONTINUOUS
 62
    2
 10
1222.7490100871032
 20
1002.046715328461
 11
1222.7490100871032
 21
1007.6467153284614
  0
LINE
  8
_0-0_計極細
  6
CONTINUOUS
 62
    2
 10
1209.7490100871032
 20
1019.0467153284619
 11
1209.7490100871032
 21
1024.6467153284618
  0
LINE
  8
_0-0_計極細
  6
CONTINUOUS
 62
    2
 10
1222.7490100871032
 20
1019.0467153284619
 11
1222.7490100871032
 21
1024.6467153284618
  0
LINE
  8
_0-0_計極細
  6
CONTINUOUS
 62
    2
 10
1209.7490100871032
 20
1041.6467153284577
 11
1209.7490100871032
 21
1036.0467153284578
  0
LINE
  8
_0-0_計極細
  6
CONTINUOUS
 62
    2
 10
1222.7490100871032
 20
1041.6467153284577
 11
1222.7490100871032
 21
1036.0467153284578
  0
LINE
  8
_0-0_計極細
  6
CONTINUOUS
 62
    2
 10
1209.7490100871032
 20
1058.6467153284586
 11
1209.7490100871032
 21
1053.0467153284583
  0
LINE
  8
_0-0_計極細
  6
CONTINUOUS
 62
    2
 10
1222.7490100871032
 20
1058.6467153284586
 11
1222.7490100871032
 21
1053.0467153284583
  0
LINE
  8
_0-0_計極細
  6
CONTINUOUS
 62
    2
 10
1209.7490100871032
 20
1075.6467153284591
 11
1209.7490100871032
 21
1070.0467153284592
  0
LINE
  8
_0-0_計極細
  6
CONTINUOUS
 62
    2
 10
1222.7490100871032
 20
1075.6467153284591
 11
1222.7490100871032
 21
1070.0467153284592
  0
LINE
  8
_0-0_計極細
  6
CONTINUOUS
 62
    2
 10
1209.7490100871032
 20
1092.64671532846
 11
1209.7490100871032
 21
1087.0467153284596
  0
LINE
  8
_0-0_計極細
  6
CONTINUOUS
 62
    2
 10
1222.7490100871032
 20
1092.64671532846
 11
1222.7490100871032
 21
1087.0467153284596
  0
LINE
  8
_0-0_計極細
  6
CONTINUOUS
 62
    2
 10
1209.7490100871032
 20
1109.6467153284605
 11
1209.7490100871032
 21
1104.0467153284606
  0
LINE
  8
_0-0_計極細
  6
CONTINUOUS
 62
    2
 10
1222.7490100871032
 20
1109.6467153284605
 11
1222.7490100871032
 21
1104.0467153284606
  0
LINE
  8
_0-0_計極細
  6
CONTINUOUS
 62
    2
 10
1209.7490100871032
 20
1194.4467153284597
 11
1209.7490100871032
 21
1189.0467153284596
  0
LINE
  8
_0-0_計極細
  6
CONTINUOUS
 62
    2
 10
1222.7490100871032
 20
1194.4467153284597
 11
1222.7490100871032
 21
1189.0467153284596
  0
LINE
  8
_0-0_計極細
  6
CONTINUOUS
 62
    2
 10
1209.7490100871032
 20
917.24671532845991
 11
1209.7490100871032
 21
922.64671532845955
  0
LINE
  8
_0-0_計極細
  6
CONTINUOUS
 62
    2
 10
1222.7490100871032
 20
917.24671532845991
 11
1222.7490100871032
 21
922.64671532845955
  0
LINE
  8
_0-0_計極細
  6
CONTINUOUS
 62
    2
 10
1209.7490100871032
 20
1126.6467153284595
 11
1209.7490100871032
 21
1121.0467153284596
  0
LINE
  8
_0-0_計極細
  6
CONTINUOUS
 62
    2
 10
1222.7490100871032
 20
1126.6467153284595
 11
1222.7490100871032
 21
1121.0467153284596
  0
LINE
  8
_0-0_計極細
  6
CONTINUOUS
 62
    2
 10
1209.7490100871032
 20
1143.6467153284586
 11
1209.7490100871032
 21
1138.0467153284587
  0
LINE
  8
_0-0_計極細
  6
CONTINUOUS
 62
    2
 10
1222.7490100871032
 20
1143.6467153284586
 11
1222.7490100871032
 21
1138.0467153284587
  0
LINE
  8
_0-0_計極細
  6
CONTINUOUS
 62
    2
 10
1209.7490100871032
 20
1160.6467153284577
 11
1209.7490100871032
 21
1155.0467153284578
  0
LINE
  8
_0-0_計極細
  6
CONTINUOUS
 62
    2
 10
1222.7490100871032
 20
1160.6467153284577
 11
1222.7490100871032
 21
1155.0467153284578
  0
LINE
  8
_0-0_計極細
  6
CONTINUOUS
 62
    2
 10
1209.7490100871032
 20
1177.6467153284568
 11
1209.7490100871032
 21
1172.0467153284569
  0
LINE
  8
_0-0_計極細
  6
CONTINUOUS
 62
    2
 10
1222.7490100871032
 20
1177.6467153284568
 11
1222.7490100871032
 21
1172.0467153284569
  0
LINE
  8
_0-0_計極細
  6
CONTINUOUS
 62
    2
 10
1209.7490100871032
 20
985.046715328461
 11
1209.7490100871032
 21
990.64671532846091
  0
LINE
  8
_0-0_計極細
  6
CONTINUOUS
 62
    2
 10
1222.7490100871032
 20
985.046715328461
 11
1222.7490100871032
 21
990.64671532846091
  0
LINE
  8
_0-0_計極細
  6
CONTINUOUS
 62
    2
 10
1209.7490100871032
 20
968.04671532846191
 11
1209.7490100871032
 21
973.64671532846182
  0
LINE
  8
_0-0_計極細
  6
CONTINUOUS
 62
    2
 10
1222.7490100871032
 20
968.04671532846191
 11
1222.7490100871032
 21
973.64671532846182
  0
LINE
  8
_0-0_計極細
  6
CONTINUOUS
 62
    2
 10
1209.7490100871032
 20
951.04671532846282
 11
1209.7490100871032
 21
956.64671532846273
  0
LINE
  8
_0-0_計極細
  6
CONTINUOUS
 62
    2
 10
1222.7490100871032
 20
951.04671532846282
 11
1222.7490100871032
 21
956.64671532846273
  0
LINE
  8
_0-0_計極細
  6
CONTINUOUS
 62
    2
 10
1209.7490100871032
 20
934.04671532846373
 11
1209.7490100871032
 21
939.64671532846364
  0
LINE
  8
_0-0_計極細
  6
CONTINUOUS
 62
    2
 10
1222.7490100871032
 20
934.04671532846373
 11
1222.7490100871032
 21
939.64671532846364
  0
TEXT
  8
_0-7_枠細線
 62
    5
 10
883.79208546299856
 20
175.66201571974727
 40
32
 41
0.6
 50
0
  1
Ｓ＝１：３
  0
LINE
  8
_0-1_計細線
  6
CONTINUOUS
 62
    3
 10
352.74901008710265
 20
1053.4967153284604
 11
405.74901008710265
 21
1053.4967153284604
  0
LINE
  8
_0-1_計細線
  6
CONTINUOUS
 62
    3
 10
405.74901008710265
 20
1058.1967153284602
 11
352.74901008710265
 21
1058.1967153284602
  0
LINE
  8
_0-1_計細線
  6
CONTINUOUS
 62
    3
 10
352.74901008710265
 20
1058.1967153284602
 11
352.74901008710265
 21
1053.4967153284604
  0
LINE
  8
_0-1_計細線
  6
CONTINUOUS
 62
    3
 10
395.74901008710265
 20
1058.1967153284602
 11
395.74901008710265
 21
1053.4967153284604
  0
LINE
  8
_0-1_計細線
  6
CONTINUOUS
 62
    3
 10
403.74901008710265
 20
1058.1967153284602
 11
403.74901008710265
 21
1053.4967153284604
  0
LINE
  8
_0-1_計細線
  6
CONTINUOUS
 62
    3
 10
405.74901008710265
 20
1058.1967153284602
 11
405.74901008710265
 21
1053.4967153284604
  0
LINE
  8
_0-1_計細線
  6
CONTINUOUS
 62
    3
 10
401.74901008710265
 20
1058.1967153284602
 11
401.74901008710265
 21
1053.4967153284604
  0
LINE
  8
_0-1_計細線
  6
CONTINUOUS
 62
    3
 10
399.74901008710265
 20
1058.1967153284602
 11
399.74901008710265
 21
1053.4967153284604
  0
LINE
  8
_0-1_計細線
  6
CONTINUOUS
 62
    3
 10
397.74901008710265
 20
1058.1967153284602
 11
397.74901008710265
 21
1053.4967153284604
  0
TEXT
  8
_0-5_寸法線
 62
    7
 10
840.45735894371626
 20
794.87224492541509
 40
24
 41
0.7999999999999999
 50
0
  1
ＧＲＳＫ－２５Ｗ３００
  0
LINE
  8
_0-5_寸法線
  6
CONTINUOUS
 62
    7
 10
804.06987821252631
 20
945.03398512417925
 11
812.06987821252619
 21
931.1775786636282
  0
LINE
  8
_0-5_寸法線
  6
CONTINUOUS
 62
    7
 10
804.06987821252631
 20
945.03398512417925
 11
804.06987821252619
 21
929.03398512417925
  0
LINE
  8
_0-5_寸法線
  6
CONTINUOUS
 62
    7
 10
804.06987821252631
 20
945.03398512417925
 11
837.51297789489433
 21
820.22263794698893
  0
LINE
  8
_0-5_寸法線
  6
CONTINUOUS
 62
    7
 10
837.51297789489433
 20
820.22263794698893
 11
1125.5129778948942
 21
820.22263794698893
  0
TEXT
  8
_0-5_寸法線
 62
    7
 10
837.51297789489433
 20
820.22263794698893
 40
24
 41
0.8000000000000001
 50
0
  1
セーフティグレーチング補強仕様
  0
TEXT
  8
_0-7_枠細線
 62
    5
 10
450.71852595674113
 20
849.01233988879335
 40
20
 41
0.8
 50
0
  1
２
  0
LINE
  8
_0-7_枠細線
  6
CONTINUOUS
 62
    5
 10
470.93428392770488
 20
849.50354348140206
 11
458.93428392770488
 21
873.50354348140206
  0
LINE
  8
_0-7_枠細線
  6
CONTINUOUS
 62
    5
 10
446.93428392770488
 20
849.50354348140206
 11
470.93428392770488
 21
849.50354348140206
  0
LINE
  8
_0-7_枠細線
  6
CONTINUOUS
 62
    5
 10
458.93428392770488
 20
873.50354348140206
 11
446.93428392770488
 21
849.50354348140206
  0
LINE
  8
_0-7_枠細線
  6
CONTINUOUS
 62
    5
 10
500.87665819121844
 20
849.50354348140206
 11
488.87665819121844
 21
873.50354348140206
  0
LINE
  8
_0-7_枠細線
  6
CONTINUOUS
 62
    5
 10
476.87665819121844
 20
849.50354348140206
 11
500.87665819121844
 21
849.50354348140206
  0
LINE
  8
_0-7_枠細線
  6
CONTINUOUS
 62
    5
 10
488.87665819121844
 20
873.50354348140206
 11
476.87665819121844
 21
849.50354348140206
  0
TEXT
  8
_0-7_枠細線
 62
    5
 10
480.6609002202556
 20
848.62724925711188
 40
20
 41
0.8
 50
0
  1
３
  0
LINE
  8
_0-7_枠細線
  6
CONTINUOUS
 62
    5
 10
517.29313772073942
 20
873.50354348140206
 11
505.29313772073942
 21
849.50354348140206
  0
LINE
  8
_0-7_枠細線
  6
CONTINUOUS
 62
    5
 10
505.29313772073942
 20
849.50354348140206
 11
529.29313772073942
 21
849.50354348140206
  0
LINE
  8
_0-7_枠細線
  6
CONTINUOUS
 62
    5
 10
529.29313772073942
 20
849.50354348140206
 11
517.29313772073942
 21
873.50354348140206
  0
TEXT
  8
_0-5_寸法線
 62
    7
 10
442.31686092663858
 20
794.85384238473694
 40
24
 41
0.7999999999999999
 50
0
  1
(標準付属)
  0
LINE
  8
_0-5_寸法線
  6
CONTINUOUS
 62
    7
 10
376.93976794724483
 20
1055.2921280863113
 11
384.93976794724472
 21
1041.4357216257604
  0
LINE
  8
_0-5_寸法線
  6
CONTINUOUS
 62
    7
 10
376.93976794724483
 20
1055.2921280863113
 11
376.93976794724472
 21
1039.2921280863113
  0
LINE
  8
_0-5_寸法線
  6
CONTINUOUS
 62
    7
 10
376.93976794724483
 20
1055.2921280863113
 11
439.92644799527113
 21
820.22263794698893
  0
LINE
  8
_0-5_寸法線
  6
CONTINUOUS
 62
    7
 10
439.92644799527113
 20
820.22263794698893
 11
535.92644799527125
 21
820.22263794698893
  0
TEXT
  8
_0-5_寸法線
 62
    7
 10
439.92644799527113
 20
820.22263794698893
 40
24
 41
0.8000000000000001
 50
0
  1
取　外　具
  0
TEXT
  8
_0-5_寸法線
 62
    7
 10
597.28969698438095
 20
794.87224492541509
 40
24
 41
0.7999999999999999
 50
0
  1
ＧＳＬ－２５
  0
LINE
  8
_0-5_寸法線
  6
CONTINUOUS
 62
    7
 10
572.99170523518239
 20
902.05526397579706
 11
580.99170523518228
 21
888.198857515246
  0
LINE
  8
_0-5_寸法線
  6
CONTINUOUS
 62
    7
 10
572.99170523518239
 20
902.05526397579706
 11
572.99170523518228
 21
886.05526397579706
  0
LINE
  8
_0-5_寸法線
  6
CONTINUOUS
 62
    7
 10
572.99170523518239
 20
902.05526397579706
 11
594.91869129411896
 21
820.22263794698893
  0
LINE
  8
_0-5_寸法線
  6
CONTINUOUS
 62
    7
 10
594.91869129411896
 20
820.22263794698893
 11
767.71869129411903
 21
820.22263794698893
  0
TEXT
  8
_0-5_寸法線
 62
    7
 10
594.91869129411896
 20
821.18263794698873
 40
24
 41
0.8000000000000001
 50
0
  1
ＳＵＳアングル受枠
  0
TEXT
  8
_0-7_枠細線
 62
    5
 10
1502.1605925925924
 20
1316
 40
20
 41
1
 50
0
  1
クロスバーピッチ変更
  0
TEXT
  8
_0-7_枠細線
 62
    5
 10
1502.1605925925924
 20
1288
 40
20
 41
1
 50
0
  1
取外具形状変更
  0
TEXT
  8
_0-7_枠細線
 62
    5
 10
1888
 20
1316
 40
20
 41
0.7199999999999999
 50
0
  1
２０２０．０９．０１
  0
TEXT
  8
_0-7_枠細線
 62
    5
 10
1888
 20
1288
 40
20
 41
0.7199999999999999
 50
0
  1
２０２０．１０．０１
  0
TEXT
  8
_0-7_枠細線
 62
    5
 10
728.98388482770906
 20
1318.4547593217644
 40
20
 41
0.8
 50
0
  1
６
  0
TEXT
  8
_0-7_枠細線
 62
    5
 10
509.07737974977658
 20
848.62724925711188
 40
20
 41
0.8
 50
0
  1
７
  0
ENDSEC
  0
EOF
