  0
SECTION
  2
HEADER
  9
$ACADVER
  1
AC1009
  9
$INSBASE
 10
0
 20
0
 30
0
  9
$EXTMIN
 10
0
 20
0
  9
$EXTMAX
 10
1782
 20
1260
  9
$LIMMIN
 10
0
 20
0
  9
$LIMMAX
 10
1782
 20
1260
  9
$LTSCALE
 40
6
  0
ENDSEC
  0
SECTION
  2
TABLES
  0
TABLE
  2
LTYPE
 70
     9
  0
LTYPE
  2
CONTINUOUS
 70
    64
  3
実線
 72
    65
 73
     0
 40
0.0
  0
LTYPE
  2
DASHED1
 70
    64
  3
--  --  --  --  --  --  --  --  
 72
    65
 73
     2
 40
2.5
 49
1.25
 49
-1.25
  0
LTYPE
  2
DASHED2
 70
    64
  3
----    ----    ----    ----    
 72
    65
 73
     2
 40
5.0
 49
2.5
 49
-2.5
  0
LTYPE
  2
DASHED3
 70
    64
  3
------  ------  ------  ------  
 72
    65
 73
     2
 40
5.0
 49
3.75
 49
-1.25
  0
LTYPE
  2
CENTER1
 70
    64
  3
----- - ----- - ----- - ----- - 
 72
    65
 73
     4
 40
10.0
 49
6.25
 49
-1.25
 49
1.25
 49
-1.25
  0
LTYPE
  2
CENTER2
 70
    64
  3
----------  --  ----------  --  
 72
    65
 73
     4
 40
20.0
 49
12.5
 49
-2.5
 49
2.5
 49
-2.5
  0
LTYPE
  2
PHANTOM1
 70
    64
  3
--- - - --- - - --- - - --- - - 
 72
    65
 73
     6
 40
10.0
 49
3.25
 49
-1.25
 49
1.25
 49
-1.25
 49
1.25
 49
-1.25
  0
LTYPE
  2
PHANTOM2
 70
    64
  3
--------  -  -  --------  -  -  
 72
    65
 73
     6
 40
20.0
 49
10.0
 49
-2.5
 49
1.25
 49
-2.5
 49
1.25
 49
-2.5
  0
LTYPE
  2
DOT
 70
    64
  3
-   -   -   -   -   -   -   -   
 72
    65
 73
     2
 40
2.5
 49
0.625
 49
-1.875
  0
LTYPE
  2
DUMMY
 70
    64
  3
ダミー
 72
    65
 73
     0
 40
0.0
  0
LTYPE
  2
RAND1
 70
    64
  3
ランダム線1
 72
    65
 73
     4
 40
10.0
 49
1.0
 49
-2.0
 49
3.0
 49
-4.0
  0
LTYPE
  2
RAND2
 70
    64
  3
ランダム線2
 72
    65
 73
     4
 40
14.0
 49
2.0
 49
-3.0
 49
4.0
 49
-5.0
  0
LTYPE
  2
RAND3
 70
    64
  3
ランダム線3
 72
    65
 73
     4
 40
18.0
 49
3.0
 49
-4.0
 49
5.0
 49
-6.0
  0
LTYPE
  2
RAND4
 70
    64
  3
ランダム線4
 72
    65
 73
     4
 40
22.0
 49
4.0
 49
-5.0
 49
6.0
 49
-7.0
  0
LTYPE
  2
RAND5
 70
    64
  3
ランダム線5
 72
    65
 73
     4
 40
26.0
 49
5.0
 49
-6.0
 49
7.0
 49
-8.0
  0
LTYPE
  2
LONG1
 70
    64
  3
----------  --  ----------  --  
 72
    65
 73
     4
 40
40.0
 49
32.5
 49
-2.5
 49
2.5
 49
-2.5
  0
LTYPE
  2
LONG2
 70
    64
  3
--------  -  -  --------  -  -  
 72
    65
 73
     6
 40
40.0
 49
30.0
 49
-2.5
 49
1.25
 49
-2.5
 49
1.25
 49
-2.5
  0
LTYPE
  2
LONG3
 70
    64
  3
+++++++++++++++..+++++++++++++++
 72
    65
 73
     2
 40
40.0
 49
37.5
 49
-2.5
  0
LTYPE
  2
LONG4
 70
    64
  3
+++++++++++++++..+++++++++++++++
 72
    65
 73
     2
 40
80.0
 49
75.0
 49
-5.0
  0
LTYPE
  2
LONG5
 70
    64
  3
----------  --  ----------  --  
 72
    65
 73
     4
 40
60.0
 49
37.5
 49
-7.5
 49
7.5
 49
-7.5
  0
LTYPE
  2
dashed
 70
   64
  3
-------   -------------   ------
 72
   65
 73
    2
 40
7.5
 49
6
 49
-1.5
  0
LTYPE
  2
dashed_spaced
 70
   64
  3
----        --------        ----
 72
   65
 73
    2
 40
12
 49
6
 49
-6
  0
LTYPE
  2
long_dashed_dotted
 70
   64
  3
------------- --- --------------
 72
   65
 73
    4
 40
15.25
 49
12
 49
-1.5
 49
0.25
 49
-1.5
  0
LTYPE
  2
long_dashed_double-dotted
 70
   64
  3
----------- --- --- ------------
 72
   65
 73
    6
 40
17
 49
12
 49
-1.5
 49
0.25
 49
-1.5
 49
0.25
 49
-1.5
  0
LTYPE
  2
long_dashed_triplicate-dotted
 70
   64
  3
--------- --- --- --- ----------
 72
   65
 73
    8
 40
18.75
 49
12
 49
-1.5
 49
0.25
 49
-1.5
 49
0.25
 49
-1.5
 49
0.25
 49
-1.5
  0
LTYPE
  2
dotted
 70
   64
  3
   -       -       -       -    
 72
   65
 73
    2
 40
1.75
 49
0.25
 49
-1.5
  0
LTYPE
  2
chain
 70
   64
  3
-------------- -- --------------
 72
   65
 73
    4
 40
18.5
 49
12
 49
-1.5
 49
3.5
 49
-1.5
  0
LTYPE
  2
chain_double_dash
 70
   64
  3
------------ -- -- -------------
 72
   65
 73
    6
 40
23.5
 49
12
 49
-1.5
 49
3.5
 49
-1.5
 49
3.5
 49
-1.5
  0
LTYPE
  2
dashed_dotted
 70
   64
  3
-----------     -     ----------
 72
   65
 73
    4
 40
9.25
 49
6
 49
-1.5
 49
0.25
 49
-1.5
  0
LTYPE
  2
double-dashed_dotted
 70
   64
  3
------   -----------   -   -----
 72
   65
 73
    6
 40
16.75
 49
6
 49
-1.5
 49
6
 49
-1.5
 49
0.25
 49
-1.5
  0
LTYPE
  2
dashed_double-dotted
 70
   64
  3
---------    -    -    ---------
 72
   65
 73
    6
 40
11
 49
6
 49
-1.5
 49
0.25
 49
-1.5
 49
0.25
 49
-1.5
  0
LTYPE
  2
double-dashed_double-dotted
 70
   64
  3
-----   ---------   -   -   ----
 72
   65
 73
    8
 40
18.5
 49
6
 49
-1.5
 49
6
 49
-1.5
 49
0.25
 49
-1.5
 49
0.25
 49
-1.5
  0
LTYPE
  2
dashed_triplicate-dotted
 70
   64
  3
-------    -    -    -    ------
 72
   65
 73
    8
 40
12.75
 49
6
 49
-1.5
 49
0.25
 49
-1.5
 49
0.25
 49
-1.5
 49
0.25
 49
-1.5
  0
LTYPE
  2
double-dashed_triplicate-dotted
 70
   64
  3
-----  ---------  -  -  -  -----
 72
   65
 73
   10
 40
20.25
 49
6
 49
-1.5
 49
6
 49
-1.5
 49
0.25
 49
-1.5
 49
0.25
 49
-1.5
 49
0.25
 49
-1.5
  0
LTYPE
  2
undefined
 70
   64
  3
--------------------------------
 72
   65
 73
    0
 40
0
  0
ENDTAB
  0
TABLE
  2
STYLE
  5
3
100
AcDbSymbolTable
 70
     1
  0
STYLE
  5
10
100
AcDbSymbolTableRecord
100
AcDbTextStyleTableRecord
  2
STANDARD
 70
     0
 40
0.0
 41
1.0
 50
0.0
 71
     0
 42
0.2
  3
txt
  4
bigfont.shx
  0
STYLE
  5
26
100
AcDbSymbolTableRecord
100
AcDbTextStyleTableRecord
  2
TATEGAKI
 70
    68
 40
0.0
 41
1.0
 50
0.0
 71
     0
 42
1.0
  3
txt
  4
bigfont.shx
  0
ENDTAB
  0
TABLE
  2
LAYER
 70
   13
  0
LAYER
  2
_0-0_計極細
 70
   64
 62
    7
  6
CONTINUOUS
  0
LAYER
  2
_0-1_計細線
 70
   64
 62
    7
  6
CONTINUOUS
  0
LAYER
  2
_0-5_寸法線
 70
   64
 62
    7
  6
CONTINUOUS
  0
LAYER
  2
_0-7_枠細線
 70
   64
 62
    7
  6
CONTINUOUS
  0
LAYER
  2
_0-8_枠中線
 70
   64
 62
    7
  6
CONTINUOUS
  0
LAYER
  2
_0-a_極細1
 70
   64
 62
    7
  6
CONTINUOUS
  0
LAYER
  2
_0-d_寸法1
 70
   64
 62
    7
  6
CONTINUOUS
  0
LAYER
  2
_0-e_極細4
 70
   64
 62
    7
  6
CONTINUOUS
  0
LAYER
  2
_1-1_寸法4
 70
   64
 62
    7
  6
CONTINUOUS
  0
LAYER
  2
_1-2_極細3
 70
   64
 62
    7
  6
CONTINUOUS
  0
LAYER
  2
_1-3_細線3
 70
   64
 62
    7
  6
CONTINUOUS
  0
LAYER
  2
_1-5_寸法3
 70
   64
 62
    7
  6
CONTINUOUS
  0
LAYER
  2
ADD_LINE
 70
   64
 62
    7
  6
CONTINUOUS
  0
ENDTAB
  0
ENDSEC
  0
SECTION
  2
BLOCKS
  0
ENDSEC
  0
SECTION
  2
ENTITIES
  0
LINE
  8
_0-8_枠中線
  6
CONTINUOUS
 62
    5
 10
72
 20
72
 11
72
 21
1152
  0
LINE
  8
_0-8_枠中線
  6
CONTINUOUS
 62
    5
 10
72
 20
1152
 11
1710
 21
1152
  0
LINE
  8
_0-8_枠中線
  6
CONTINUOUS
 62
    5
 10
1710
 20
1152
 11
1710
 21
72
  0
LINE
  8
_0-8_枠中線
  6
CONTINUOUS
 62
    5
 10
1710
 20
72
 11
72
 21
72
  0
LINE
  8
_0-7_枠細線
  6
CONTINUOUS
 62
    5
 10
1709.8724933853093
 20
1131
 11
1067.87249338531
 21
1131
  0
TEXT
  8
_0-7_枠細線
 62
    5
 10
1073.87249338531
 20
1134
 40
15
 41
1
 50
0
  1
記号
  0
TEXT
  8
_0-7_枠細線
 62
    5
 10
1196.12249338531
 20
1134
 40
15
 41
1
 50
0
  1
訂　 正　 記　 事
  0
TEXT
  8
_0-7_枠細線
 62
    5
 10
1417.3724933853096
 20
1134
 40
15
 41
1
 50
0
  1
訂 正 年 月 日
  0
TEXT
  8
_0-7_枠細線
 62
    5
 10
1567.3724933853093
 20
1134
 40
15
 41
1
 50
0
  1
備　　　　　考
  0
TEXT
  8
_0-7_枠細線
 62
    5
 10
1125
 20
117
 40
21
 41
1
 50
0
  1
備考
  7
TATEGAKI
  0
TEXT
  8
_0-7_枠細線
 62
    5
 10
1125
 20
165
 40
21
 41
1
 50
0
  1
品番
  7
TATEGAKI
  0
TEXT
  8
_0-7_枠細線
 62
    5
 10
1125
 20
213
 40
21
 41
1
 50
0
  1
品名
  7
TATEGAKI
  0
LINE
  8
_0-7_枠細線
  6
CONTINUOUS
 62
    5
 10
1140
 20
216
 11
1140
 21
72
  0
LINE
  8
_0-8_枠中線
  6
CONTINUOUS
 62
    5
 10
1710
 20
216
 11
1110
 21
216
  0
LINE
  8
_0-8_枠中線
  6
CONTINUOUS
 62
    5
 10
1110
 20
216
 11
1110
 21
72
  0
LINE
  8
_0-7_枠細線
  6
CONTINUOUS
 62
    5
 10
1422
 20
216
 11
1422
 21
120
  0
LINE
  8
_0-7_枠細線
  6
CONTINUOUS
 62
    5
 10
1422
 20
168
 11
1110
 21
168
  0
LINE
  8
_0-7_枠細線
  6
CONTINUOUS
 62
    5
 10
1494
 20
216
 11
1494
 21
72
  0
TEXT
  8
_0-7_枠細線
 62
    5
 10
1431
 20
192
 40
18
 41
1
 50
0
  1
縮　尺
  0
LINE
  8
_0-7_枠細線
  6
CONTINUOUS
 62
    5
 10
1422
 20
186
 11
1494
 21
186
  0
LINE
  8
_0-7_枠細線
  6
CONTINUOUS
 62
    5
 10
1494
 20
120
 11
1110
 21
120
  0
LINE
  8
_0-7_枠細線
  6
CONTINUOUS
 62
    5
 10
1710
 20
108
 11
1494
 21
108
  0
LINE
  8
_0-7_枠細線
  6
CONTINUOUS
 62
    5
 10
1494
 20
144
 11
1710
 21
144
  0
LINE
  8
_0-7_枠細線
  6
CONTINUOUS
 62
    5
 10
1710
 20
168
 11
1494
 21
168
  0
TEXT
  8
_0-7_枠細線
 62
    5
 10
1506
 20
177
 40
30
 41
0.8
 50
0
  1
株式会社シマブン
  0
TEXT
  8
_0-7_枠細線
 62
    5
 10
1503
 20
72
 40
18
 41
1
 50
0
  1
年月日
  0
TEXT
  8
_0-7_枠細線
 62
    5
 10
1503
 20
90
 40
18
 41
1
 50
0
  1
作　成
  0
TEXT
  8
_0-7_枠細線
 62
    5
 10
1507.5
 20
147
 40
18
 41
1
 50
0
  1
承 認
  0
LINE
  8
_0-7_枠細線
  6
CONTINUOUS
 62
    5
 10
1566
 20
168
 11
1566
 21
72
  0
TEXT
  8
_0-7_枠細線
 62
    5
 10
1579.5
 20
147
 40
18
 41
1
 50
0
  1
検 図
  0
LINE
  8
_0-7_枠細線
  6
CONTINUOUS
 62
    5
 10
1638
 20
168
 11
1638
 21
108
  0
TEXT
  8
_0-7_枠細線
 62
    5
 10
1651.5
 20
147
 40
18
 41
1
 50
0
  1
設 計
  0
TEXT
  8
_0-7_枠細線
 62
    5
 10
1506
 20
114
 40
24
 41
1
 50
0
  1
大野
  0
TEXT
  8
_0-7_枠細線
 62
    5
 10
1578
 20
114
 40
24
 41
1
 50
0
  1
中村
  0
TEXT
  8
_0-7_枠細線
 62
    5
 10
1152.6000000000001
 20
179.43641814137897
 40
24
 41
0.6
 50
0
  1
フリースタイルユニット
  0
TEXT
  8
_0-7_枠細線
 62
    5
 10
1572
 20
81
 40
18
 41
0.6666666666666666
 50
0
  1
２０２０年０７月０１日
  0
TEXT
  8
_0-7_枠細線
 62
    5
 10
1650
 20
114
 40
24
 41
1
 50
0
  1
石井
  0
TEXT
  8
_0-7_枠細線
 62
    5
 10
1153.7169242964724
 20
132
 40
24
 41
0.6
 50
0
  1
ＨＴＡＴ－１５Ｌ６００
  0
TEXT
  8
_0-7_枠細線
 62
    5
 10
1432.8000000000002
 20
141
 40
24
 41
0.6999999999999997
 50
0
  1
１：６
  0
TEXT
  8
_0-7_枠細線
 62
    5
 10
246.42863064754278
 20
89.049491269111172
 40
30
 41
0.8
 50
0
  1
排水部詳細図
  0
TEXT
  8
_0-7_枠細線
 62
    5
 10
412.65952283696265
 20
89.780561765194818
 40
24
 41
0.6
 50
0
  1
Ｓ＝１：４
  0
LINE
  8
_1-1_寸法4
  6
CONTINUOUS
 62
    7
 10
266.15845862747256
 20
257.28579065523991
 11
266.15845862747176
 21
174.78579065523985
  0
LINE
  8
_1-1_寸法4
  6
CONTINUOUS
 62
    7
 10
266.15845862747187
 20
180.78579065523985
 11
277.74956854294066
 21
183.89161919647009
  0
LINE
  8
_1-1_寸法4
  6
CONTINUOUS
 62
    7
 10
266.15845862747187
 20
180.78579065523985
 11
277.74956854294066
 21
177.67996211400961
  0
LINE
  8
_1-1_寸法4
  6
CONTINUOUS
 62
    7
 10
380.90845862747153
 20
257.28579065523991
 11
380.90845862747091
 21
174.78579065523985
  0
LINE
  8
_1-1_寸法4
  6
CONTINUOUS
 62
    7
 10
380.90845862747096
 20
180.78579065523985
 11
369.31734871200212
 21
177.67996211400961
  0
LINE
  8
_1-1_寸法4
  6
CONTINUOUS
 62
    7
 10
380.90845862747096
 20
180.78579065523985
 11
369.31734871200217
 21
183.89161919647017
  0
LINE
  8
_1-1_寸法4
  6
CONTINUOUS
 62
    7
 10
266.15845862747187
 20
180.78579065523985
 11
380.90845862747096
 21
180.78579065523985
  0
TEXT
  8
_1-1_寸法4
 62
    7
 10
287.53345862747159
 20
180.78579065523985
 40
18
 41
1
 50
0
  1
VU65内接
  0
LINE
  8
_1-1_寸法4
  6
CONTINUOUS
 62
    7
 10
261.88345862747258
 20
257.28579065523991
 11
261.88345862747144
 21
138.78579065523985
  0
LINE
  8
_1-1_寸法4
  6
CONTINUOUS
 62
    7
 10
261.88345862747155
 20
144.78579065523985
 11
273.47456854294035
 21
147.89161919647009
  0
LINE
  8
_1-1_寸法4
  6
CONTINUOUS
 62
    7
 10
261.88345862747155
 20
144.78579065523985
 11
273.47456854294035
 21
141.67996211400961
  0
LINE
  8
_1-1_寸法4
  6
CONTINUOUS
 62
    7
 10
385.18345862747196
 20
257.28579065523991
 11
385.18345862747094
 21
138.78579065523985
  0
LINE
  8
_1-1_寸法4
  6
CONTINUOUS
 62
    7
 10
385.18345862747105
 20
144.78579065523985
 11
373.59234871200215
 21
141.67996211400961
  0
LINE
  8
_1-1_寸法4
  6
CONTINUOUS
 62
    7
 10
385.18345862747105
 20
144.78579065523985
 11
373.59234871200226
 21
147.89161919647017
  0
LINE
  8
_1-1_寸法4
  6
CONTINUOUS
 62
    7
 10
261.88345862747155
 20
144.78579065523985
 11
385.18345862747105
 21
144.78579065523985
  0
TEXT
  8
_1-1_寸法4
 62
    7
 10
287.53345862747159
 20
144.78579065523985
 40
18
 41
1
 50
0
  1
VU75外接
  0
LINE
  8
_1-1_寸法4
  6
CONTINUOUS
 62
    7
 10
282.28345862747244
 20
249.78579065523991
 11
282.28345862747199
 21
210.78579065523985
  0
LINE
  8
_1-1_寸法4
  6
CONTINUOUS
 62
    7
 10
282.2834586274721
 20
216.78579065523985
 11
293.87456854294089
 21
219.89161919647009
  0
LINE
  8
_1-1_寸法4
  6
CONTINUOUS
 62
    7
 10
282.2834586274721
 20
216.78579065523985
 11
293.87456854294089
 21
213.67996211400961
  0
LINE
  8
_1-1_寸法4
  6
CONTINUOUS
 62
    7
 10
364.78345862747193
 20
249.78579065523991
 11
364.78345862747153
 21
210.78579065523985
  0
LINE
  8
_1-1_寸法4
  6
CONTINUOUS
 62
    7
 10
364.78345862747159
 20
216.78579065523985
 11
353.19234871200274
 21
213.67996211400961
  0
LINE
  8
_1-1_寸法4
  6
CONTINUOUS
 62
    7
 10
364.78345862747159
 20
216.78579065523985
 11
353.1923487120028
 21
219.89161919647017
  0
LINE
  8
_1-1_寸法4
  6
CONTINUOUS
 62
    7
 10
282.2834586274721
 20
216.78579065523985
 11
364.78345862747159
 21
216.78579065523985
  0
TEXT
  8
_1-1_寸法4
 62
    7
 10
287.5334586274721
 20
216.78579065523985
 40
18
 41
1
 50
0
  1
VU50外接
  0
CIRCLE
  8
_1-1_寸法4
  6
CONTINUOUS
 62
    7
 10
389.98345862747215
 20
457.60889616533154
 40
27.08876653715534
  0
TEXT
  8
_1-1_寸法4
 62
    7
 10
403.91016997304126
 20
480.84352514024107
 40
18
 41
0.8000000000000001
 50
0
  1
Ｃ部
  0
LINE
  8
_1-1_寸法4
  6
CONTINUOUS
 62
    7
 10
289.02422075106591
 20
466.59497101302628
 11
278.34634324719116
 21
472.07063827941909
  0
LINE
  8
_1-1_寸法4
  6
CONTINUOUS
 62
    7
 10
289.02422075106591
 20
466.59497101302628
 11
282.51474120740829
 21
476.67597672033071
  0
LINE
  8
_1-1_寸法4
  6
CONTINUOUS
 62
    7
 10
289.02422075106591
 20
466.59497101302628
 11
265.77441432364276
 21
487.63890663924946
  0
LINE
  8
_1-1_寸法4
  6
CONTINUOUS
 62
    7
 10
265.77441432364276
 20
487.63890663924946
 11
179.37441432364272
 21
487.63890663924946
  0
TEXT
  8
_1-1_寸法4
 62
    7
 10
179.37441432364272
 20
487.63890663924963
 40
18
 41
0.8000000000000001
 50
-0.0000000000001696
  1
ストレーナー
  0
LINE
  8
_1-1_寸法4
  6
CONTINUOUS
 62
    7
 10
300.52878211502815
 20
388.31969949828726
 11
293.31106514066408
 21
378.73301280903024
  0
LINE
  8
_1-1_寸法4
  6
CONTINUOUS
 62
    7
 10
300.52878211502815
 20
388.31969949828726
 11
289.48471251327419
 21
383.62624377445053
  0
LINE
  8
_1-1_寸法4
  6
CONTINUOUS
 62
    7
 10
300.52878211502815
 20
388.31969949828726
 11
232.74777955641568
 21
335.31708853222375
  0
LINE
  8
_1-1_寸法4
  6
CONTINUOUS
 62
    7
 10
232.74777955641568
 20
335.31708853222375
 11
117.54777955641515
 21
335.31708853222375
  0
TEXT
  8
_1-1_寸法4
 62
    7
 10
117.54777955641515
 20
335.31708853222409
 40
18
 41
0.8000000000000001
 50
-0.0000000000001696
  1
防臭インナー１号
  0
LINE
  8
_1-1_寸法4
  6
CONTINUOUS
 62
    7
 10
255.84209804191556
 20
322.12393339575874
 11
248.56105197010754
 21
312.58525591404208
  0
LINE
  8
_1-1_寸法4
  6
CONTINUOUS
 62
    7
 10
255.84209804191556
 20
322.12393339575874
 11
244.76718843674661
 21
317.50371941398953
  0
LINE
  8
_1-1_寸法4
  6
CONTINUOUS
 62
    7
 10
255.84209804191556
 20
322.12393339575874
 11
232.74777955641568
 21
304.31009931304197
  0
LINE
  8
_1-1_寸法4
  6
CONTINUOUS
 62
    7
 10
232.74777955641568
 20
304.31009931304197
 11
146.34777955641565
 21
304.31009931304197
  0
TEXT
  8
_1-1_寸法4
 62
    7
 10
146.34777955641565
 20
304.31009931304214
 40
18
 41
0.8000000000000001
 50
-0.0000000000001979
  1
トラップ本体
  0
LINE
  8
_1-1_寸法4
  6
CONTINUOUS
 62
    7
 10
273.11363851189151
 20
412.13790863854967
 11
265.90083098585592
 21
402.54752764547311
  0
LINE
  8
_1-1_寸法4
  6
CONTINUOUS
 62
    7
 10
273.11363851189151
 20
412.13790863854967
 11
262.07197346519877
 21
407.43879882959175
  0
LINE
  8
_1-1_寸法4
  6
CONTINUOUS
 62
    7
 10
273.11363851189151
 20
412.13790863854967
 11
232.74777955641568
 21
380.53975821473341
  0
LINE
  8
_1-1_寸法4
  6
CONTINUOUS
 62
    7
 10
232.74777955641568
 20
380.53975821473341
 11
117.54777955641515
 21
380.53975821473341
  0
TEXT
  8
_1-1_寸法4
 62
    7
 10
117.54777955641515
 20
380.53975821473364
 40
18
 41
0.8000000000000001
 50
-0.0000000000001696
  1
防臭インナー２号
  0
LINE
  8
_0-e_極細4
  6
CONTINUOUS
 62
    6
 10
258.50845862747207
 20
454.89661232210079
 11
263.90845862747261
 21
454.89661232210079
  0
LINE
  8
_0-e_極細4
  6
CONTINUOUS
 62
    6
 10
258.50845862747207
 20
455.79661232210083
 11
264.61742304061721
 21
455.79661232210083
  0
LINE
  8
_0-e_極細4
  6
CONTINUOUS
 62
    6
 10
258.50845862747207
 20
456.6966123221008
 11
263.90845862747261
 21
456.6966123221008
  0
LINE
  8
_0-e_極細4
  6
CONTINUOUS
 62
    6
 10
258.50845862747207
 20
457.59661232210067
 11
263.90845862747261
 21
457.59661232210067
  0
LINE
  8
_0-e_極細4
  6
CONTINUOUS
 62
    6
 10
258.48657298114944
 20
458.49661232210093
 11
263.94949421432761
 21
458.49661232210093
  0
LINE
  8
_0-e_極細4
  6
CONTINUOUS
 62
    6
 10
258.00657298114936
 20
459.39661232210074
 11
264.46742304061667
 21
459.39661232210074
  0
LINE
  8
_0-e_極細4
  6
CONTINUOUS
 62
    6
 10
257.52657298114923
 20
460.29661232210094
 11
263.90845862747261
 21
460.29661232210094
  0
LINE
  8
_0-e_極細4
  6
CONTINUOUS
 62
    6
 10
383.1584586274721
 20
454.89661232210079
 11
388.55845862747265
 21
454.89661232210079
  0
LINE
  8
_0-e_極細4
  6
CONTINUOUS
 62
    6
 10
382.44949421432761
 20
455.79661232210083
 11
388.55845862747265
 21
455.79661232210083
  0
LINE
  8
_0-e_極細4
  6
CONTINUOUS
 62
    6
 10
383.1584586274721
 20
456.6966123221008
 11
388.55845862747265
 21
456.6966123221008
  0
LINE
  8
_0-e_極細4
  6
CONTINUOUS
 62
    6
 10
383.1584586274721
 20
457.59661232210067
 11
388.55845862747265
 21
457.59661232210067
  0
LINE
  8
_0-e_極細4
  6
CONTINUOUS
 62
    6
 10
383.11742304061613
 20
458.49661232210093
 11
388.58034427379539
 21
458.49661232210093
  0
LINE
  8
_0-e_極細4
  6
CONTINUOUS
 62
    6
 10
382.59949421432754
 20
459.39661232210074
 11
389.06034427379495
 21
459.39661232210074
  0
LINE
  8
_0-e_極細4
  6
CONTINUOUS
 62
    6
 10
383.1584586274721
 20
460.29661232210094
 11
389.5403442737956
 21
460.29661232210094
  0
LINE
  8
_0-e_極細4
  6
CONTINUOUS
 62
    6
 10
258.29969578297448
 20
445.09641173524517
 11
258.29969578297448
 21
448.09641173524517
  0
LINE
  8
_0-e_極細4
  6
CONTINUOUS
 62
    6
 10
257.39969578297445
 20
445.09641173524517
 11
257.39969578297445
 21
448.09641173524517
  0
LINE
  8
_0-e_極細4
  6
CONTINUOUS
 62
    6
 10
256.49969578297441
 20
445.09641173524517
 11
256.49969578297441
 21
448.09641173524517
  0
LINE
  8
_0-e_極細4
  6
CONTINUOUS
 62
    6
 10
255.59969578297438
 20
445.09641173524517
 11
255.59969578297438
 21
466.0568622200218
  0
LINE
  8
_0-e_極細4
  6
CONTINUOUS
 62
    6
 10
254.69969578297443
 20
445.09641173524517
 11
254.69969578297443
 21
466.52782737215108
  0
LINE
  8
_0-e_極細4
  6
CONTINUOUS
 62
    6
 10
253.79969578297448
 20
445.09641173524517
 11
253.79969578297448
 21
466.54641173524527
  0
LINE
  8
_0-e_極細4
  6
CONTINUOUS
 62
    6
 10
252.89969578297445
 20
445.09641173524517
 11
252.89969578297445
 21
466.54641173524527
  0
LINE
  8
_0-e_極細4
  6
CONTINUOUS
 62
    6
 10
251.99969578297441
 20
445.09641173524517
 11
251.99969578297441
 21
466.63653077966183
  0
LINE
  8
_0-e_極細4
  6
CONTINUOUS
 62
    6
 10
251.09969578297438
 20
445.09641173524517
 11
251.09969578297438
 21
467.08854072456108
  0
LINE
  8
_0-e_極細4
  6
CONTINUOUS
 62
    6
 10
250.19969578297443
 20
445.68017457974327
 11
250.19969578297443
 21
468.47025067333675
  0
LINE
  8
_0-e_極細4
  6
CONTINUOUS
 62
    6
 10
249.29969578297388
 20
446.5801745797433
 11
249.29969578297388
 21
470.11453280404203
  0
LINE
  8
_0-e_極細4
  6
CONTINUOUS
 62
    6
 10
397.79969578297431
 20
446.61264889074766
 11
397.79969578297431
 21
470.13118189283773
  0
LINE
  8
_0-e_極細4
  6
CONTINUOUS
 62
    6
 10
396.89969578297496
 20
445.71264889074786
 11
396.89969578297496
 21
468.61633377041204
  0
LINE
  8
_0-e_極細4
  6
CONTINUOUS
 62
    6
 10
395.99969578297441
 20
445.09641173524517
 11
395.99969578297441
 21
467.1143933366875
  0
LINE
  8
_0-e_極細4
  6
CONTINUOUS
 62
    6
 10
395.09969578297438
 20
445.09641173524517
 11
395.09969578297438
 21
466.645632468945
  0
LINE
  8
_0-e_極細4
  6
CONTINUOUS
 62
    6
 10
394.19969578297446
 20
445.09641173524517
 11
394.19969578297446
 21
466.54641173524527
  0
LINE
  8
_0-e_極細4
  6
CONTINUOUS
 62
    6
 10
393.29969578297431
 20
445.09641173524517
 11
393.29969578297431
 21
466.54641173524527
  0
LINE
  8
_0-e_極細4
  6
CONTINUOUS
 62
    6
 10
392.39969578297445
 20
445.09641173524517
 11
392.39969578297445
 21
466.53251489479538
  0
LINE
  8
_0-e_極細4
  6
CONTINUOUS
 62
    6
 10
391.49969578297441
 20
445.09641173524517
 11
391.49969578297441
 21
466.09001352080708
  0
LINE
  8
_0-e_極細4
  6
CONTINUOUS
 62
    6
 10
390.59969578297438
 20
445.09641173524517
 11
390.59969578297438
 21
448.09641173524517
  0
LINE
  8
_0-e_極細4
  6
CONTINUOUS
 62
    6
 10
389.69969578297446
 20
445.09641173524517
 11
389.69969578297446
 21
448.09641173524517
  0
LINE
  8
_0-e_極細4
  6
CONTINUOUS
 62
    6
 10
388.79969578297391
 20
445.09641173524517
 11
388.79969578297391
 21
448.09641173524517
  0
LINE
  8
_0-e_極細4
  6
CONTINUOUS
 62
    6
 10
387.89969578297496
 20
442.09641173524534
 11
387.89969578297496
 21
451.09641173524517
  0
LINE
  8
_0-e_極細4
  6
CONTINUOUS
 62
    6
 10
386.99969578297441
 20
442.09641173524534
 11
386.99969578297441
 21
442.47398072399102
  0
LINE
  8
_0-e_極細4
  6
CONTINUOUS
 62
    6
 10
386.99969578297441
 20
445.24758023524532
 11
386.99969578297441
 21
451.09641173524517
  0
LINE
  8
_0-e_極細4
  6
CONTINUOUS
 62
    6
 10
386.09969578297438
 20
445.24758023524532
 11
386.09969578297438
 21
451.09641173524517
  0
LINE
  8
_0-e_極細4
  6
CONTINUOUS
 62
    6
 10
385.19969578297446
 20
445.24758023524532
 11
385.19969578297446
 21
451.09641173524517
  0
LINE
  8
_0-e_極細4
  6
CONTINUOUS
 62
    6
 10
384.29969578297431
 20
445.24758023524532
 11
384.29969578297431
 21
451.09641173524517
  0
LINE
  8
_0-e_極細4
  6
CONTINUOUS
 62
    6
 10
262.79969578297448
 20
445.24758023524532
 11
262.79969578297448
 21
451.09641173524517
  0
LINE
  8
_0-e_極細4
  6
CONTINUOUS
 62
    6
 10
261.89969578297445
 20
445.24758023524532
 11
261.89969578297445
 21
451.09641173524517
  0
LINE
  8
_0-e_極細4
  6
CONTINUOUS
 62
    6
 10
260.99969578297441
 20
445.24758023524532
 11
260.99969578297441
 21
451.09641173524517
  0
LINE
  8
_0-e_極細4
  6
CONTINUOUS
 62
    6
 10
260.09969578297438
 20
442.09641173524534
 11
260.09969578297438
 21
442.40690242365417
  0
LINE
  8
_0-e_極細4
  6
CONTINUOUS
 62
    6
 10
260.09969578297438
 20
445.24758023524532
 11
260.09969578297438
 21
451.09641173524517
  0
LINE
  8
_0-e_極細4
  6
CONTINUOUS
 62
    6
 10
259.19969578297446
 20
442.09641173524534
 11
259.19969578297446
 21
451.09641173524517
  0
LINE
  8
_0-e_極細4
  6
CONTINUOUS
 62
    6
 10
278.09969578297438
 20
442.54641173524544
 11
278.09969578297438
 21
445.09641173524517
  0
LINE
  8
_0-e_極細4
  6
CONTINUOUS
 62
    6
 10
277.19969578297446
 20
442.54641173524544
 11
277.19969578297446
 21
445.09641173524517
  0
LINE
  8
_0-e_極細4
  6
CONTINUOUS
 62
    6
 10
276.29969578297448
 20
442.54641173524544
 11
276.29969578297448
 21
445.09641173524517
  0
LINE
  8
_0-e_極細4
  6
CONTINUOUS
 62
    6
 10
275.39969578297445
 20
442.54641173524544
 11
275.39969578297445
 21
445.09641173524517
  0
LINE
  8
_0-e_極細4
  6
CONTINUOUS
 62
    6
 10
274.49969578297441
 20
442.54641173524544
 11
274.49969578297441
 21
445.09641173524517
  0
LINE
  8
_0-e_極細4
  6
CONTINUOUS
 62
    6
 10
273.59969578297438
 20
442.54641173524544
 11
273.59969578297438
 21
445.09641173524517
  0
LINE
  8
_0-e_極細4
  6
CONTINUOUS
 62
    6
 10
272.69969578297446
 20
442.54641173524544
 11
272.69969578297446
 21
445.09641173524517
  0
LINE
  8
_0-e_極細4
  6
CONTINUOUS
 62
    6
 10
271.79969578297414
 20
442.54641173524544
 11
271.79969578297414
 21
445.09641173524517
  0
LINE
  8
_0-e_極細4
  6
CONTINUOUS
 62
    6
 10
375.29969578297437
 20
442.54641173524544
 11
375.29969578297437
 21
445.09641173524517
  0
LINE
  8
_0-e_極細4
  6
CONTINUOUS
 62
    6
 10
374.39969578297496
 20
442.54641173524544
 11
374.39969578297496
 21
445.09641173524517
  0
LINE
  8
_0-e_極細4
  6
CONTINUOUS
 62
    6
 10
373.4996957829739
 20
442.54641173524544
 11
373.4996957829739
 21
445.09641173524517
  0
LINE
  8
_0-e_極細4
  6
CONTINUOUS
 62
    6
 10
372.59969578297438
 20
442.54641173524544
 11
372.59969578297438
 21
445.09641173524517
  0
LINE
  8
_0-e_極細4
  6
CONTINUOUS
 62
    6
 10
371.69969578297446
 20
442.54641173524544
 11
371.69969578297446
 21
445.09641173524517
  0
LINE
  8
_0-e_極細4
  6
CONTINUOUS
 62
    6
 10
370.79969578297437
 20
442.54641173524544
 11
370.79969578297437
 21
445.09641173524517
  0
LINE
  8
_0-e_極細4
  6
CONTINUOUS
 62
    6
 10
369.89969578297445
 20
442.54641173524544
 11
369.89969578297445
 21
445.09641173524517
  0
LINE
  8
_0-e_極細4
  6
CONTINUOUS
 62
    6
 10
368.9996957829739
 20
442.54641173524544
 11
368.9996957829739
 21
445.09641173524517
  0
LINE
  8
_0-e_極細4
  6
CONTINUOUS
 62
    6
 10
281.69969578297469
 20
445.09641173524517
 11
281.69969578297469
 21
446.02369290543544
  0
LINE
  8
_0-e_極細4
  6
CONTINUOUS
 62
    6
 10
280.79969578297448
 20
445.09641173524517
 11
280.79969578297448
 21
447.24342770900387
  0
LINE
  8
_0-e_極細4
  6
CONTINUOUS
 62
    6
 10
279.89969578297445
 20
445.09641173524517
 11
279.89969578297445
 21
448.13443541832476
  0
LINE
  8
_0-e_極細4
  6
CONTINUOUS
 62
    6
 10
278.99969578297441
 20
445.09641173524517
 11
278.99969578297441
 21
448.81471292159404
  0
LINE
  8
_0-e_極細4
  6
CONTINUOUS
 62
    6
 10
278.09969578297438
 20
445.09641173524517
 11
278.09969578297438
 21
449.33800368737195
  0
LINE
  8
_0-e_極細4
  6
CONTINUOUS
 62
    6
 10
277.19969578297446
 20
445.09641173524517
 11
277.19969578297446
 21
449.73361197479289
  0
LINE
  8
_0-e_極細4
  6
CONTINUOUS
 62
    6
 10
276.29969578297448
 20
445.09641173524517
 11
276.29969578297448
 21
450.01895320510806
  0
LINE
  8
_0-e_極細4
  6
CONTINUOUS
 62
    6
 10
275.39969578297445
 20
445.09641173524517
 11
275.39969578297445
 21
450.20464460069763
  0
LINE
  8
_0-e_極細4
  6
CONTINUOUS
 62
    6
 10
274.49969578297441
 20
445.09641173524517
 11
274.49969578297441
 21
450.29686461729182
  0
LINE
  8
_0-e_極細4
  6
CONTINUOUS
 62
    6
 10
273.59969578297438
 20
445.09641173524517
 11
273.59969578297438
 21
450.29849036895905
  0
LINE
  8
_0-e_極細4
  6
CONTINUOUS
 62
    6
 10
272.69969578297446
 20
445.09641173524517
 11
272.69969578297446
 21
450.20957149858378
  0
LINE
  8
_0-e_極細4
  6
CONTINUOUS
 62
    6
 10
271.79969578297391
 20
445.09641173524517
 11
271.79969578297391
 21
450.0273380516802
  0
LINE
  8
_0-e_極細4
  6
CONTINUOUS
 62
    6
 10
270.89969578297445
 20
445.09641173524517
 11
270.89969578297445
 21
449.74574545386071
  0
LINE
  8
_0-e_極細4
  6
CONTINUOUS
 62
    6
 10
269.9996957829739
 20
445.09641173524517
 11
269.9996957829739
 21
449.3543676404214
  0
LINE
  8
_0-e_極細4
  6
CONTINUOUS
 62
    6
 10
269.09969578297438
 20
445.09641173524517
 11
269.09969578297438
 21
448.83609904073268
  0
LINE
  8
_0-e_極細4
  6
CONTINUOUS
 62
    6
 10
268.19969578297383
 20
445.09641173524517
 11
268.19969578297383
 21
447.96909523141795
  0
LINE
  8
_0-e_極細4
  6
CONTINUOUS
 62
    6
 10
267.29969578297391
 20
445.09641173524517
 11
267.29969578297391
 21
445.62951053555651
  0
ARC
  8
_0-e_極細4
  6
CONTINUOUS
 62
    6
 10
274.03345862747261
 20
441.30894923524545
 40
9
 50
0
 51
24.886947317068973
  0
LINE
  8
_0-e_極細4
  6
CONTINUOUS
 62
    6
 10
282.19771779846246
 20
445.09641173524517
 11
267.28345862747261
 21
445.09641173524517
  0
ARC
  8
_0-e_極細4
  6
CONTINUOUS
 62
    6
 10
274.03345862747261
 20
441.30894923524545
 40
9
 50
24.886947317068973
 51
124.83370764384765
  0
LINE
  8
_0-e_極細4
  6
CONTINUOUS
 62
    6
 10
267.28345862747261
 20
440.74758023524566
 11
267.28345862747261
 21
445.09641173524517
  0
ARC
  8
_0-e_極細4
  6
CONTINUOUS
 62
    6
 10
271.78345862747261
 20
445.24758023524532
 40
4.5
 50
129.97050058004132
 51
181.92509931279594
  0
LINE
  8
_0-e_極細4
  6
CONTINUOUS
 62
    6
 10
378.89969578297496
 20
445.09641173524517
 11
378.89969578297496
 21
447.92579397487918
  0
LINE
  8
_0-e_極細4
  6
CONTINUOUS
 62
    6
 10
377.9996957829739
 20
445.09641173524517
 11
377.9996957829739
 21
448.81471292159387
  0
LINE
  8
_0-e_極細4
  6
CONTINUOUS
 62
    6
 10
377.09969578297438
 20
445.09641173524517
 11
377.09969578297438
 21
449.33800368737167
  0
LINE
  8
_0-e_極細4
  6
CONTINUOUS
 62
    6
 10
376.19969578297446
 20
445.09641173524517
 11
376.19969578297446
 21
449.73361197479255
  0
LINE
  8
_0-e_極細4
  6
CONTINUOUS
 62
    6
 10
375.29969578297437
 20
445.09641173524517
 11
375.29969578297437
 21
450.01895320510772
  0
LINE
  8
_0-e_極細4
  6
CONTINUOUS
 62
    6
 10
374.39969578297445
 20
445.09641173524517
 11
374.39969578297445
 21
450.20464460069746
  0
LINE
  8
_0-e_極細4
  6
CONTINUOUS
 62
    6
 10
373.4996957829739
 20
445.09641173524517
 11
373.4996957829739
 21
450.29686461729182
  0
LINE
  8
_0-e_極細4
  6
CONTINUOUS
 62
    6
 10
372.59969578297438
 20
445.09641173524517
 11
372.59969578297438
 21
450.29849036895922
  0
LINE
  8
_0-e_極細4
  6
CONTINUOUS
 62
    6
 10
371.69969578297446
 20
445.09641173524517
 11
371.69969578297446
 21
450.20957149858378
  0
LINE
  8
_0-e_極細4
  6
CONTINUOUS
 62
    6
 10
370.79969578297391
 20
445.09641173524517
 11
370.79969578297391
 21
450.02733805168043
  0
LINE
  8
_0-e_極細4
  6
CONTINUOUS
 62
    6
 10
369.89969578297445
 20
445.09641173524517
 11
369.89969578297445
 21
449.74574545386088
  0
LINE
  8
_0-e_極細4
  6
CONTINUOUS
 62
    6
 10
368.9996957829739
 20
445.09641173524517
 11
368.9996957829739
 21
449.35436764042157
  0
LINE
  8
_0-e_極細4
  6
CONTINUOUS
 62
    6
 10
368.09969578297438
 20
445.09641173524517
 11
368.09969578297438
 21
448.83609904073302
  0
LINE
  8
_0-e_極細4
  6
CONTINUOUS
 62
    6
 10
367.19969578297383
 20
445.09641173524517
 11
367.19969578297383
 21
448.16221204022793
  0
LINE
  8
_0-e_極細4
  6
CONTINUOUS
 62
    6
 10
366.29969578297391
 20
445.09641173524517
 11
366.29969578297391
 21
447.28025042962975
  0
LINE
  8
_0-e_極細4
  6
CONTINUOUS
 62
    6
 10
365.39969578297445
 20
445.09641173524517
 11
365.39969578297445
 21
446.07609354121729
  0
LINE
  8
_0-e_極細4
  6
CONTINUOUS
 62
    6
 10
379.7834586274721
 20
440.74758023524566
 11
379.7834586274721
 21
445.09641173524517
  0
LINE
  8
_0-e_極細4
  6
CONTINUOUS
 62
    6
 10
364.86919945648202
 20
445.09641173524517
 11
379.7834586274721
 21
445.09641173524517
  0
ARC
  8
_0-e_極細4
  6
CONTINUOUS
 62
    6
 10
375.2834586274721
 20
445.24758023524532
 40
4.5
 50
358.07490068720313
 51
50.029499419966108
  0
ARC
  8
_0-e_極細4
  6
CONTINUOUS
 62
    6
 10
373.0334586274721
 20
441.30894923524545
 40
9
 50
55.166292356156511
 51
155.11305268293162
  0
ARC
  8
_0-e_極細4
  6
CONTINUOUS
 62
    6
 10
373.0334586274721
 20
441.30894923524545
 40
9
 50
155.11305268293162
 51
179.99999999999983
  0
LINE
  8
_0-e_極細4
  6
CONTINUOUS
 62
    6
 10
245.4436171554384
 20
468.39661232210079
 11
248.56495862747255
 21
468.39661232210079
  0
LINE
  8
_0-e_極細4
  6
CONTINUOUS
 62
    6
 10
238.18345862747213
 20
469.29661232210094
 11
248.56495862747255
 21
469.29661232210094
  0
LINE
  8
_0-e_極細4
  6
CONTINUOUS
 62
    6
 10
238.18345862747213
 20
470.19661232210086
 11
248.56495862747255
 21
470.19661232210086
  0
LINE
  8
_0-e_極細4
  6
CONTINUOUS
 62
    6
 10
238.18345862747213
 20
471.09661232210101
 11
242.87235310812008
 21
471.09661232210101
  0
LINE
  8
_0-e_極細4
  6
CONTINUOUS
 62
    6
 10
398.50195862747228
 20
468.39661232210079
 11
401.6233000995058
 21
468.39661232210079
  0
LINE
  8
_0-e_極細4
  6
CONTINUOUS
 62
    6
 10
398.50195862747228
 20
469.29661232210094
 11
408.88345862747269
 21
469.29661232210094
  0
LINE
  8
_0-e_極細4
  6
CONTINUOUS
 62
    6
 10
398.50195862747228
 20
470.19661232210086
 11
408.88345862747269
 21
470.19661232210086
  0
LINE
  8
_0-e_極細4
  6
CONTINUOUS
 62
    6
 10
404.19456414682463
 20
471.09661232210101
 11
408.88345862747269
 21
471.09661232210101
  0
LINE
  8
_0-e_極細4
  6
CONTINUOUS
 62
    6
 10
283.8616006931436
 20
261.78579065523991
 11
285.30567515769638
 21
263.22986511979263
  0
LINE
  8
_0-e_極細4
  6
CONTINUOUS
 62
    6
 10
282.25716619387134
 20
263.36333667130725
 11
285.35539360324896
 21
266.46156408068441
  0
LINE
  8
_0-e_極細4
  6
CONTINUOUS
 62
    6
 10
282.20500257886556
 20
266.49315357164119
 11
285.40511204880067
 21
269.69326304157607
  0
LINE
  8
_0-e_極細4
  6
CONTINUOUS
 62
    6
 10
282.15283896386023
 20
269.62297047197501
 11
285.45483049435302
 21
272.92496200246751
  0
LINE
  8
_0-e_極細4
  6
CONTINUOUS
 62
    6
 10
282.10067534885479
 20
272.75278737230906
 11
285.50454893990496
 21
276.15666096335929
  0
LINE
  8
_0-e_極細4
  6
CONTINUOUS
 62
    6
 10
282.0485117338493
 20
275.88260427264299
 11
285.55426738545702
 21
279.38835992425095
  0
LINE
  8
_0-e_極細4
  6
CONTINUOUS
 62
    6
 10
281.99634811884374
 20
279.01242117297681
 11
285.60398583100937
 21
282.6200588851425
  0
LINE
  8
_0-e_極細4
  6
CONTINUOUS
 62
    6
 10
281.94418450383796
 20
282.14223807331052
 11
285.65370427656165
 21
285.85175784603416
  0
LINE
  8
_0-e_極細4
  6
CONTINUOUS
 62
    6
 10
265.90575657042768
 20
269.28579065523979
 11
266.16101117350354
 21
269.54104525831553
  0
LINE
  8
_0-e_極細4
  6
CONTINUOUS
 62
    6
 10
281.89202088883263
 20
285.27205497364446
 11
285.70342272211337
 21
289.08345680692571
  0
LINE
  8
_0-e_極細4
  6
CONTINUOUS
 62
    6
 10
262.72377605508791
 20
269.28579065523991
 11
266.19315239083022
 21
272.75516699098171
  0
LINE
  8
_0-e_極細4
  6
CONTINUOUS
 62
    6
 10
281.83985727382719
 20
288.40187187397862
 11
285.75314116766594
 21
292.3151557678176
  0
LINE
  8
_0-e_極細4
  6
CONTINUOUS
 62
    6
 10
261.84658204341372
 20
271.59057715890492
 11
266.22529360815702
 21
275.96928872364788
  0
LINE
  8
_0-e_極細4
  6
CONTINUOUS
 62
    6
 10
281.78769365882113
 20
291.53168877431233
 11
285.80285961321829
 21
295.54685472870915
  0
LINE
  8
_0-e_極細4
  6
CONTINUOUS
 62
    6
 10
261.79647211403835
 20
274.72244774486887
 11
266.25743482548341
 21
279.18341045631371
  0
LINE
  8
_0-e_極細4
  6
CONTINUOUS
 62
    6
 10
281.73553004381529
 20
294.66150567464604
 11
285.85257805877023
 21
298.7785536896007
  0
LINE
  8
_0-e_極細4
  6
CONTINUOUS
 62
    6
 10
261.74636218466327
 20
277.85431833083305
 11
266.28957604281044
 21
282.39753218897988
  0
LINE
  8
_0-e_極細4
  6
CONTINUOUS
 62
    6
 10
281.68336642881007
 20
297.79132257498009
 11
285.90229650432229
 21
302.01025265049248
  0
LINE
  8
_0-e_極細4
  6
CONTINUOUS
 62
    6
 10
261.69625225528716
 20
280.98618891679712
 11
266.32171726013661
 21
285.61165392164605
  0
LINE
  8
_0-e_極細4
  6
CONTINUOUS
 62
    6
 10
281.63120281380452
 20
300.92113947531413
 11
285.95201494987464
 21
305.24195161138391
  0
LINE
  8
_0-e_極細4
  6
CONTINUOUS
 62
    6
 10
261.64614232591208
 20
284.11805950276107
 11
266.35385847746306
 21
288.82577565431222
  0
LINE
  8
_0-e_極細4
  6
CONTINUOUS
 62
    6
 10
281.57903919879897
 20
304.05095637564773
 11
286.00173339542692
 21
308.47365057227552
  0
LINE
  8
_0-e_極細4
  6
CONTINUOUS
 62
    6
 10
261.59603239653683
 20
287.24993008872525
 11
266.38599969478997
 21
292.03989738697828
  0
LINE
  8
_0-e_極細4
  6
CONTINUOUS
 62
    6
 10
281.13189296305177
 20
306.78579065523979
 11
284.88189296305177
 21
310.53579065523991
  0
LINE
  8
_0-e_極細4
  6
CONTINUOUS
 62
    6
 10
261.54592246716152
 20
290.3818006746892
 11
266.41814091211677
 21
295.25401911964445
  0
LINE
  8
_0-e_極細4
  6
CONTINUOUS
 62
    6
 10
277.94991244771234
 20
306.78579065523979
 11
281.69991244771199
 21
310.53579065523991
  0
LINE
  8
_0-e_極細4
  6
CONTINUOUS
 62
    6
 10
261.49581253778615
 20
293.51367126065338
 11
266.45028212944317
 21
298.46814085231063
  0
LINE
  8
_0-e_極細4
  6
CONTINUOUS
 62
    6
 10
274.76793193237285
 20
306.78579065523979
 11
278.51793193237285
 21
310.53579065523991
  0
LINE
  8
_0-e_極細4
  6
CONTINUOUS
 62
    6
 10
261.44570260841056
 20
296.64554184661745
 11
266.48242334677019
 21
301.68226258497651
  0
LINE
  8
_0-e_極細4
  6
CONTINUOUS
 62
    6
 10
271.58595141703285
 20
306.78579065523979
 11
275.33595141703313
 21
310.53579065523991
  0
LINE
  8
_0-e_極細4
  6
CONTINUOUS
 62
    6
 10
261.39559267903547
 20
299.77741243258134
 11
266.51456456409636
 21
304.89638431764263
  0
LINE
  8
_0-e_極細4
  6
CONTINUOUS
 62
    6
 10
268.40397090169387
 20
306.78579065523979
 11
272.15397090169387
 21
310.53579065523991
  0
LINE
  8
_0-e_極細4
  6
CONTINUOUS
 62
    6
 10
261.34548274966022
 20
302.90928301854547
 11
268.97199038635449
 21
310.53579065523991
  0
LINE
  8
_0-e_極細4
  6
CONTINUOUS
 62
    6
 10
261.29537282028429
 20
306.04115360450953
 11
265.79000987101506
 21
310.53579065523991
  0
LINE
  8
_0-e_極細4
  6
CONTINUOUS
 62
    6
 10
258.89124394907401
 20
306.81900524863835
 11
262.64124394907401
 21
310.56900524863835
  0
LINE
  8
_0-e_極細4
  6
CONTINUOUS
 62
    6
 10
256.21797931417086
 20
307.32772112907526
 11
259.9679793141712
 21
311.07772112907526
  0
LINE
  8
_0-e_極細4
  6
CONTINUOUS
 62
    6
 10
253.98692079685225
 20
308.27864312709556
 11
257.73692079685225
 21
312.02864312709556
  0
LINE
  8
_0-e_極細4
  6
CONTINUOUS
 62
    6
 10
252.09698489996092
 20
309.57068774554421
 11
255.84698489996117
 21
313.32068774554409
  0
LINE
  8
_0-e_極細4
  6
CONTINUOUS
 62
    6
 10
250.51186689604907
 20
311.16755025697159
 11
254.26186689604907
 21
314.91755025697159
  0
LINE
  8
_0-e_極細4
  6
CONTINUOUS
 62
    6
 10
249.23222697356283
 20
313.06989084982467
 11
252.98222697356283
 21
316.81989084982496
  0
LINE
  8
_0-e_極細4
  6
CONTINUOUS
 62
    6
 10
248.29612103669882
 20
315.31576542829993
 11
252.04612103669882
 21
319.06576542830021
  0
LINE
  8
_0-e_極細4
  6
CONTINUOUS
 62
    6
 10
247.80855064410349
 20
318.01017555104465
 11
251.55855064410409
 21
321.76017555104465
  0
LINE
  8
_0-e_極細4
  6
CONTINUOUS
 62
    6
 10
247.78345862747261
 20
321.1670640497527
 11
251.53345862747261
 21
324.9170640497527
  0
LINE
  8
_0-e_極細4
  6
CONTINUOUS
 62
    6
 10
247.78345862747261
 20
324.34904456509219
 11
251.53345862747261
 21
328.09904456509219
  0
LINE
  8
_0-e_極細4
  6
CONTINUOUS
 62
    6
 10
247.78345862747261
 20
327.53102508043162
 11
251.53345862747261
 21
331.28102508043173
  0
LINE
  8
_0-e_極細4
  6
CONTINUOUS
 62
    6
 10
247.78345862747261
 20
330.71300559577105
 11
251.53345862747261
 21
334.46300559577105
  0
LINE
  8
_0-e_極細4
  6
CONTINUOUS
 62
    6
 10
247.78345862747261
 20
333.89498611111048
 11
251.53345862747261
 21
337.64498611111037
  0
LINE
  8
_0-e_極細4
  6
CONTINUOUS
 62
    6
 10
247.78345862747261
 20
337.07696662644997
 11
251.53345862747261
 21
340.82696662644997
  0
LINE
  8
_0-e_極細4
  6
CONTINUOUS
 62
    6
 10
247.78345862747261
 20
340.25894714178958
 11
251.53345862747261
 21
344.00894714178946
  0
LINE
  8
_0-e_極細4
  6
CONTINUOUS
 62
    6
 10
247.78345862747261
 20
343.44092765712901
 11
251.53345862747261
 21
347.1909276571289
  0
LINE
  8
_0-e_極細4
  6
CONTINUOUS
 62
    6
 10
247.78345862747261
 20
346.62290817246861
 11
251.53345862747261
 21
350.37290817246821
  0
LINE
  8
_0-e_極細4
  6
CONTINUOUS
 62
    6
 10
247.78345862747261
 20
349.8048886878081
 11
251.53345862747261
 21
353.55488868780765
  0
LINE
  8
_0-e_極細4
  6
CONTINUOUS
 62
    6
 10
247.78345862747261
 20
352.98686920314719
 11
251.53345862747261
 21
356.73686920314719
  0
LINE
  8
_0-e_極細4
  6
CONTINUOUS
 62
    6
 10
247.78345862747261
 20
356.1688497184864
 11
251.53345862747261
 21
359.91884971848674
  0
LINE
  8
_0-e_極細4
  6
CONTINUOUS
 62
    6
 10
247.78345862747261
 20
359.35083023382617
 11
251.53345862747261
 21
363.10083023382617
  0
LINE
  8
_0-e_極細4
  6
CONTINUOUS
 62
    6
 10
247.78345862747261
 20
362.53281074916549
 11
251.53345862747261
 21
366.28281074916561
  0
LINE
  8
_0-e_極細4
  6
CONTINUOUS
 62
    6
 10
247.78345862747261
 20
365.71479126450492
 11
251.53345862747261
 21
369.46479126450515
  0
LINE
  8
_0-e_極細4
  6
CONTINUOUS
 62
    6
 10
247.78345862747261
 20
368.89677177984447
 11
251.53345862747261
 21
372.64677177984447
  0
LINE
  8
_0-e_極細4
  6
CONTINUOUS
 62
    6
 10
247.78345862747261
 20
372.07875229518402
 11
251.53345862747261
 21
375.82875229518402
  0
LINE
  8
_0-e_極細4
  6
CONTINUOUS
 62
    6
 10
247.78345862747261
 20
375.26073281052345
 11
251.53345862747261
 21
379.01073281052368
  0
LINE
  8
_0-e_極細4
  6
CONTINUOUS
 62
    6
 10
247.78345862747261
 20
378.44271332586288
 11
251.53345862747261
 21
382.19271332586277
  0
LINE
  8
_0-e_極細4
  6
CONTINUOUS
 62
    6
 10
247.78345862747261
 20
381.62469384120243
 11
251.53345862747261
 21
385.37469384120226
  0
LINE
  8
_0-e_極細4
  6
CONTINUOUS
 62
    6
 10
247.78345862747261
 20
384.80667435654192
 11
251.53345862747261
 21
388.55667435654192
  0
LINE
  8
_0-e_極細4
  6
CONTINUOUS
 62
    6
 10
247.78345862747261
 20
387.98865487188141
 11
251.53345862747261
 21
391.73865487188141
  0
LINE
  8
_0-e_極細4
  6
CONTINUOUS
 62
    6
 10
247.78345862747261
 20
391.1706353872209
 11
251.53345862747261
 21
394.9206353872209
  0
LINE
  8
_0-e_極細4
  6
CONTINUOUS
 62
    6
 10
247.78345862747261
 20
394.35261590256039
 11
251.53345862747261
 21
398.10261590256016
  0
LINE
  8
_0-e_極細4
  6
CONTINUOUS
 62
    6
 10
247.78345862747261
 20
397.53459641789971
 11
251.53345862747261
 21
401.28459641789954
  0
LINE
  8
_0-e_極細4
  6
CONTINUOUS
 62
    6
 10
247.78345862747261
 20
400.7165769332392
 11
251.53345862747261
 21
404.46657693323903
  0
LINE
  8
_0-e_極細4
  6
CONTINUOUS
 62
    6
 10
247.78345862747261
 20
403.8985574485788
 11
251.53345862747261
 21
407.64855744857852
  0
LINE
  8
_0-e_極細4
  6
CONTINUOUS
 62
    6
 10
247.78345862747261
 20
407.08053796391818
 11
251.53345862747261
 21
410.83053796391818
  0
LINE
  8
_0-e_極細4
  6
CONTINUOUS
 62
    6
 10
247.78345862747261
 20
410.26251847925766
 11
251.53345862747261
 21
414.01251847925744
  0
LINE
  8
_0-e_極細4
  6
CONTINUOUS
 62
    6
 10
247.78345862747261
 20
413.44449899459715
 11
251.53345862747261
 21
417.19449899459698
  0
LINE
  8
_0-e_極細4
  6
CONTINUOUS
 62
    6
 10
247.78345862747261
 20
416.62647950993647
 11
251.53345862747261
 21
420.37647950993647
  0
LINE
  8
_0-e_極細4
  6
CONTINUOUS
 62
    6
 10
247.78345862747261
 20
419.80846002527596
 11
251.53345862747261
 21
423.55846002527596
  0
LINE
  8
_0-e_極細4
  6
CONTINUOUS
 62
    6
 10
247.78345862747261
 20
422.99044054061528
 11
251.53345862747261
 21
426.74044054061528
  0
LINE
  8
_0-e_極細4
  6
CONTINUOUS
 62
    6
 10
247.78345862747261
 20
426.17242105595494
 11
251.53345862747261
 21
429.92242105595494
  0
LINE
  8
_0-e_極細4
  6
CONTINUOUS
 62
    6
 10
247.78345862747261
 20
429.35440157129426
 11
251.53345862747261
 21
433.10440157129443
  0
LINE
  8
_0-e_極細4
  6
CONTINUOUS
 62
    6
 10
247.38873958262008
 20
432.14166304178138
 11
251.53345862747261
 21
436.28638208663392
  0
LINE
  8
_0-e_極細4
  6
CONTINUOUS
 62
    6
 10
246.29298771093565
 20
434.22789168543636
 11
251.53345862747261
 21
439.46836260197324
  0
LINE
  8
_0-e_極細4
  6
CONTINUOUS
 62
    6
 10
244.69157010808016
 20
435.8084545979201
 11
250.78345862747261
 21
441.90034311731256
  0
LINE
  8
_0-e_極細4
  6
CONTINUOUS
 62
    6
 10
244.0334586274721
 20
438.33232363265188
 11
250.78345862747261
 21
445.08232363265188
  0
LINE
  8
_0-e_極細4
  6
CONTINUOUS
 62
    6
 10
244.0334586274721
 20
441.51430414799154
 11
249.19951242109892
 21
446.68035794161852
  0
LINE
  8
_0-e_極細4
  6
CONTINUOUS
 62
    6
 10
244.0334586274721
 20
444.69628466333103
 11
248.56495862747255
 21
449.22778466333097
  0
LINE
  8
_0-e_極細4
  6
CONTINUOUS
 62
    6
 10
244.0334586274721
 20
447.87826517867035
 11
248.56495862747255
 21
452.40976517867045
  0
LINE
  8
_0-e_極細4
  6
CONTINUOUS
 62
    6
 10
241.20902866870762
 20
448.23581573524518
 11
248.56495862747255
 21
455.59174569400994
  0
LINE
  8
_0-e_極細4
  6
CONTINUOUS
 62
    6
 10
238.18345862747239
 20
448.39222620934936
 11
248.56495862747255
 21
458.77372620934955
  0
LINE
  8
_0-e_極細4
  6
CONTINUOUS
 62
    6
 10
238.18345862747239
 20
451.57420672468885
 11
248.56495862747255
 21
461.95570672468887
  0
LINE
  8
_0-e_極細4
  6
CONTINUOUS
 62
    6
 10
238.18345862747239
 20
454.75618724002834
 11
248.56495862747255
 21
465.13768724002853
  0
LINE
  8
_0-e_極細4
  6
CONTINUOUS
 62
    6
 10
238.18345862747213
 20
457.93816775536783
 11
248.31051751475803
 21
468.06522664265367
  0
LINE
  8
_0-e_極細4
  6
CONTINUOUS
 62
    6
 10
238.18345862747213
 20
461.12014827070743
 11
245.45823320616273
 21
468.39492284939757
  0
LINE
  8
_0-e_極細4
  6
CONTINUOUS
 62
    6
 10
238.18345862747213
 20
464.30212878604647
 11
242.60594889756743
 21
468.72461905614176
  0
LINE
  8
_0-e_極細4
  6
CONTINUOUS
 62
    6
 10
238.18345862747239
 20
467.48410930138607
 11
239.75366458897213
 21
469.05431526288623
  0
LINE
  8
_0-e_極細4
  6
CONTINUOUS
 62
    6
 10
284.88189296305177
 20
310.53579065523991
 11
286.03345862747261
 21
311.68735631966086
  0
LINE
  8
_0-e_極細4
  6
CONTINUOUS
 62
    6
 10
281.69991244771199
 20
310.53579065523991
 11
286.03345862747261
 21
314.86933683500035
  0
LINE
  8
_0-e_極細4
  6
CONTINUOUS
 62
    6
 10
278.51793193237285
 20
310.53579065523991
 11
286.03345862747261
 21
318.05131735033979
  0
LINE
  8
_0-e_極細4
  6
CONTINUOUS
 62
    6
 10
275.33595141703313
 20
310.53579065523968
 11
286.03345862747261
 21
321.23329786567899
  0
LINE
  8
_0-e_極細4
  6
CONTINUOUS
 62
    6
 10
272.15397090169387
 20
310.53579065523968
 11
286.03345862747261
 21
324.41527838101842
  0
LINE
  8
_0-e_極細4
  6
CONTINUOUS
 62
    6
 10
268.97199038635449
 20
310.53579065523968
 11
283.97199038635449
 21
325.53579065523979
  0
LINE
  8
_0-e_極細4
  6
CONTINUOUS
 62
    6
 10
265.79000987101472
 20
310.53579065523991
 11
280.87825722209021
 21
325.62403800631489
  0
LINE
  8
_0-e_極細4
  6
CONTINUOUS
 62
    6
 10
262.64124394907401
 20
310.56900524863835
 11
278.17527180285157
 21
326.10303310241602
  0
LINE
  8
_0-e_極細4
  6
CONTINUOUS
 62
    6
 10
259.9679793141712
 20
311.07772112907526
 11
275.7885927996083
 21
326.89833461451212
  0
LINE
  8
_0-e_極細4
  6
CONTINUOUS
 62
    6
 10
257.73692079685225
 20
312.02864312709556
 11
273.65665342841407
 21
327.94837575865733
  0
LINE
  8
_0-e_極細4
  6
CONTINUOUS
 62
    6
 10
255.84698489996117
 20
313.32068774554409
 11
271.74663666531211
 21
329.2203395108952
  0
LINE
  8
_0-e_極細4
  6
CONTINUOUS
 62
    6
 10
254.26186689604907
 20
314.91755025697159
 11
270.04184339250105
 21
330.6975267534234
  0
LINE
  8
_0-e_極細4
  6
CONTINUOUS
 62
    6
 10
252.98222697356283
 20
316.81989084982496
 11
268.53672995027819
 21
332.37439382654014
  0
LINE
  8
_0-e_極細4
  6
CONTINUOUS
 62
    6
 10
252.04612103669882
 20
319.06576542830021
 11
267.23546048954472
 21
334.25510488114554
  0
LINE
  8
_0-e_極細4
  6
CONTINUOUS
 62
    6
 10
251.55855064410409
 20
321.76017555104465
 11
266.15298535055484
 21
336.35461025749527
  0
LINE
  8
_0-e_極細4
  6
CONTINUOUS
 62
    6
 10
251.53345862747261
 20
324.9170640497527
 11
265.31937219889301
 21
338.70297762117286
  0
LINE
  8
_0-e_極細4
  6
CONTINUOUS
 62
    6
 10
251.53345862747261
 20
328.09904456509219
 11
264.79087556624245
 21
341.35646150386208
  0
LINE
  8
_0-e_極細4
  6
CONTINUOUS
 62
    6
 10
251.53345862747261
 20
331.28102508043173
 11
264.65845862747261
 21
344.40602508043162
  0
LINE
  8
_0-e_極細4
  6
CONTINUOUS
 62
    6
 10
251.53345862747261
 20
334.46300559577105
 11
264.65845862747261
 21
347.58800559577105
  0
LINE
  8
_0-e_極細4
  6
CONTINUOUS
 62
    6
 10
251.53345862747261
 20
337.64498611111037
 11
264.65845862747261
 21
350.76998611111048
  0
LINE
  8
_0-e_極細4
  6
CONTINUOUS
 62
    6
 10
251.53345862747261
 20
340.82696662644997
 11
264.65845862747261
 21
353.95196662644992
  0
LINE
  8
_0-e_極細4
  6
CONTINUOUS
 62
    6
 10
251.53345862747261
 20
344.00894714178946
 11
264.65845862747261
 21
357.13394714178958
  0
LINE
  8
_0-e_極細4
  6
CONTINUOUS
 62
    6
 10
251.53345862747261
 20
347.1909276571289
 11
264.65845862747261
 21
360.31592765712855
  0
LINE
  8
_0-e_極細4
  6
CONTINUOUS
 62
    6
 10
251.53345862747261
 20
350.37290817246821
 11
264.65845862747261
 21
363.49790817246833
  0
LINE
  8
_0-e_極細4
  6
CONTINUOUS
 62
    6
 10
251.53345862747261
 20
353.55488868780765
 11
264.65845862747261
 21
366.67988868780776
  0
LINE
  8
_0-e_極細4
  6
CONTINUOUS
 62
    6
 10
251.53345862747261
 20
356.73686920314719
 11
264.65845862747261
 21
369.86186920314719
  0
LINE
  8
_0-e_極細4
  6
CONTINUOUS
 62
    6
 10
251.53345862747261
 20
359.91884971848674
 11
264.65845862747261
 21
373.04384971848651
  0
LINE
  8
_0-e_極細4
  6
CONTINUOUS
 62
    6
 10
251.53345862747261
 20
363.10083023382617
 11
264.65845862747261
 21
376.22583023382583
  0
LINE
  8
_0-e_極細4
  6
CONTINUOUS
 62
    6
 10
251.53345862747261
 20
366.28281074916561
 11
264.65845862747261
 21
379.40781074916538
  0
LINE
  8
_0-e_極細4
  6
CONTINUOUS
 62
    6
 10
251.53345862747261
 20
369.46479126450515
 11
264.65845862747261
 21
382.58979126450504
  0
LINE
  8
_0-e_極細4
  6
CONTINUOUS
 62
    6
 10
251.53345862747261
 20
372.64677177984447
 11
264.65845862747261
 21
385.77177177984447
  0
LINE
  8
_0-e_極細4
  6
CONTINUOUS
 62
    6
 10
251.53345862747261
 20
375.82875229518402
 11
264.65845862747261
 21
388.95375229518396
  0
LINE
  8
_0-e_極細4
  6
CONTINUOUS
 62
    6
 10
251.53345862747261
 20
379.01073281052368
 11
264.65845862747261
 21
392.13573281052328
  0
LINE
  8
_0-e_極細4
  6
CONTINUOUS
 62
    6
 10
251.53345862747261
 20
382.19271332586277
 11
264.65845862747261
 21
395.31771332586288
  0
LINE
  8
_0-e_極細4
  6
CONTINUOUS
 62
    6
 10
251.53345862747261
 20
385.37469384120226
 11
263.58867082975109
 21
397.42990604348108
  0
LINE
  8
_0-e_極細4
  6
CONTINUOUS
 62
    6
 10
251.53345862747261
 20
388.55667435654192
 11
260.40669031441161
 21
397.42990604348108
  0
LINE
  8
_0-e_極細4
  6
CONTINUOUS
 62
    6
 10
251.53345862747261
 20
391.73865487188141
 11
257.22470979907212
 21
397.42990604348108
  0
LINE
  8
_0-e_極細4
  6
CONTINUOUS
 62
    6
 10
251.53345862747261
 20
394.9206353872209
 11
254.04272928373263
 21
397.42990604348108
  0
LINE
  8
_0-e_極細4
  6
CONTINUOUS
 62
    6
 10
251.53345862747261
 20
398.10261590256016
 11
251.68729218257724
 21
398.2564494576651
  0
LINE
  8
_0-e_極細4
  6
CONTINUOUS
 62
    6
 10
387.31751724450828
 20
311.14803844583361
 11
394.92121083687806
 21
318.75173203820327
  0
LINE
  8
_0-e_極細4
  6
CONTINUOUS
 62
    6
 10
383.52328893857543
 20
310.53579065523991
 11
395.5334586274721
 21
322.5459603441368
  0
LINE
  8
_0-e_極細4
  6
CONTINUOUS
 62
    6
 10
380.34130842323543
 20
310.53579065523991
 11
395.5334586274721
 21
325.72794085947623
  0
LINE
  8
_0-e_極細4
  6
CONTINUOUS
 62
    6
 10
377.15932790789651
 20
310.53579065523991
 11
395.5334586274721
 21
328.90992137481584
  0
LINE
  8
_0-e_極細4
  6
CONTINUOUS
 62
    6
 10
373.97734739255702
 20
310.53579065523991
 11
395.5334586274721
 21
332.09190189015533
  0
LINE
  8
_0-e_極細4
  6
CONTINUOUS
 62
    6
 10
370.79536687721702
 20
310.53579065523991
 11
395.5334586274721
 21
335.27388240549476
  0
LINE
  8
_0-e_極細4
  6
CONTINUOUS
 62
    6
 10
367.61338636187753
 20
310.53579065523991
 11
395.5334586274721
 21
338.45586292083419
  0
LINE
  8
_0-e_極細4
  6
CONTINUOUS
 62
    6
 10
364.43140584653815
 20
310.53579065523991
 11
395.5334586274721
 21
341.63784343617363
  0
LINE
  8
_0-e_極細4
  6
CONTINUOUS
 62
    6
 10
361.24942533119861
 20
310.53579065523991
 11
395.5334586274721
 21
344.81982395151311
  0
LINE
  8
_0-e_極細4
  6
CONTINUOUS
 62
    6
 10
361.03345862747159
 20
313.5018044668526
 11
395.5334586274721
 21
348.00180446685272
  0
LINE
  8
_0-e_極細4
  6
CONTINUOUS
 62
    6
 10
361.03345862747159
 20
316.68378498219204
 11
371.22684447789493
 21
326.87717083261509
  0
LINE
  8
_0-e_極細4
  6
CONTINUOUS
 62
    6
 10
381.06707845009754
 20
336.71740480481685
 11
395.5334586274721
 21
351.18378498219215
  0
LINE
  8
_0-e_極細4
  6
CONTINUOUS
 62
    6
 10
361.03345862747159
 20
319.86576549753147
 11
366.87300378078066
 21
325.70531065084009
  0
LINE
  8
_0-e_極細4
  6
CONTINUOUS
 62
    6
 10
382.23893863187226
 20
341.07124550193134
 11
395.5334586274721
 21
354.3657654975317
  0
LINE
  8
_0-e_極細4
  6
CONTINUOUS
 62
    6
 10
361.03345862747159
 20
323.04774601287107
 11
363.52150326984088
 21
325.53579065523968
  0
LINE
  8
_0-e_極細4
  6
CONTINUOUS
 62
    6
 10
382.40845862747159
 20
344.42274601287107
 11
395.5334586274721
 21
357.54774601287079
  0
LINE
  8
_0-e_極細4
  6
CONTINUOUS
 62
    6
 10
382.40845862747159
 20
347.60472652821034
 11
395.5334586274721
 21
360.72972652821034
  0
LINE
  8
_0-e_極細4
  6
CONTINUOUS
 62
    6
 10
382.40845862747159
 20
350.78670704354988
 11
395.5334586274721
 21
363.91170704354954
  0
LINE
  8
_0-e_極細4
  6
CONTINUOUS
 62
    6
 10
382.40845862747159
 20
353.96868755888931
 11
395.5334586274721
 21
367.09368755888897
  0
LINE
  8
_0-e_極細4
  6
CONTINUOUS
 62
    6
 10
382.40845862747159
 20
357.15066807422875
 11
395.5334586274721
 21
370.27566807422852
  0
LINE
  8
_0-e_極細4
  6
CONTINUOUS
 62
    6
 10
382.40845862747159
 20
360.33264858956818
 11
395.5334586274721
 21
373.45764858956807
  0
LINE
  8
_0-e_極細4
  6
CONTINUOUS
 62
    6
 10
382.40845862747159
 20
363.51462910490761
 11
395.5334586274721
 21
376.63962910490761
  0
LINE
  8
_0-e_極細4
  6
CONTINUOUS
 62
    6
 10
382.40845862747159
 20
366.69660962024716
 11
395.5334586274721
 21
379.82160962024716
  0
LINE
  8
_0-e_極細4
  6
CONTINUOUS
 62
    6
 10
382.40845862747159
 20
369.87859013558671
 11
395.5334586274721
 21
383.00359013558648
  0
LINE
  8
_0-e_極細4
  6
CONTINUOUS
 62
    6
 10
382.40845862747159
 20
373.06057065092625
 11
395.5334586274721
 21
386.18557065092602
  0
LINE
  8
_0-e_極細4
  6
CONTINUOUS
 62
    6
 10
382.40845862747159
 20
376.2425511662658
 11
395.5334586274721
 21
389.36755116626557
  0
LINE
  8
_0-e_極細4
  6
CONTINUOUS
 62
    6
 10
382.40845862747159
 20
379.42453168160512
 11
395.5334586274721
 21
392.54953168160506
  0
LINE
  8
_0-e_極細4
  6
CONTINUOUS
 62
    6
 10
382.40845862747159
 20
382.60651219694466
 11
395.5334586274721
 21
395.73151219694438
  0
LINE
  8
_0-e_極細4
  6
CONTINUOUS
 62
    6
 10
382.40845862747159
 20
385.78849271228421
 11
394.04987195866983
 21
397.42990604348091
  0
LINE
  8
_0-e_極細4
  6
CONTINUOUS
 62
    6
 10
395.53345140237303
 20
398.91348548718508
 11
395.5334586274721
 21
398.91349271228404
  0
LINE
  8
_0-e_極細4
  6
CONTINUOUS
 62
    6
 10
382.40845862747159
 20
388.9704732276233
 11
390.86789144332982
 21
397.42990604348108
  0
LINE
  8
_0-e_極細4
  6
CONTINUOUS
 62
    6
 10
382.40845862747159
 20
392.15245374296285
 11
387.68591092799034
 21
397.42990604348091
  0
LINE
  8
_0-e_極細4
  6
CONTINUOUS
 62
    6
 10
382.40845862747159
 20
395.33443425830217
 11
384.50393041265085
 21
397.42990604348091
  0
LINE
  8
_0-e_極細4
  6
CONTINUOUS
 62
    6
 10
383.63903563798834
 20
269.28579065523991
 11
385.20857119640681
 21
270.85532621365837
  0
LINE
  8
_0-e_極細4
  6
CONTINUOUS
 62
    6
 10
380.90398928584
 20
269.73272481843117
 11
385.26031071698162
 21
274.08904624957256
  0
LINE
  8
_0-e_極細4
  6
CONTINUOUS
 62
    6
 10
380.87248452826202
 20
272.88320057619319
 11
385.31205023755592
 21
277.32276628548686
  0
LINE
  8
_0-e_極細4
  6
CONTINUOUS
 62
    6
 10
380.84097977068473
 20
276.03367633395487
 11
385.36378975813074
 21
280.55648632140083
  0
LINE
  8
_0-e_極細4
  6
CONTINUOUS
 62
    6
 10
363.41111357662999
 20
261.78579065523991
 11
364.80671871307936
 21
263.18139579168894
  0
LINE
  8
_0-e_極細4
  6
CONTINUOUS
 62
    6
 10
380.80947501310726
 20
279.18415209171678
 11
385.41552927870504
 21
283.7902063573149
  0
LINE
  8
_0-e_極細4
  6
CONTINUOUS
 62
    6
 10
361.75990824010609
 20
263.31656583405493
 11
364.8606505862212
 21
266.41730818016993
  0
LINE
  8
_0-e_極細4
  6
CONTINUOUS
 62
    6
 10
380.77797025552991
 20
282.33462784947858
 11
385.46726879927996
 21
287.02392639322886
  0
LINE
  8
_0-e_極細4
  6
CONTINUOUS
 62
    6
 10
361.71169641411547
 20
266.45033452340442
 11
364.91458245936195
 21
269.65322056865091
  0
LINE
  8
_0-e_極細4
  6
CONTINUOUS
 62
    6
 10
380.74646549795193
 20
285.4851036072406
 11
385.51900831985427
 21
290.25764642914316
  0
LINE
  8
_0-e_極細4
  6
CONTINUOUS
 62
    6
 10
361.66348458812587
 20
269.58410321275369
 11
364.96851433250373
 21
272.88913295713155
  0
LINE
  8
_0-e_極細4
  6
CONTINUOUS
 62
    6
 10
380.71496074037464
 20
288.63557936500251
 11
385.57074784042896
 21
293.49136646505713
  0
LINE
  8
_0-e_極細4
  6
CONTINUOUS
 62
    6
 10
361.61527276213587
 20
272.71787190210341
 11
365.02244620564511
 21
276.12504534561265
  0
LINE
  8
_0-e_極細4
  6
CONTINUOUS
 62
    6
 10
380.68345598279666
 20
291.78605512276431
 11
385.62248736100395
 21
296.72508650097132
  0
LINE
  8
_0-e_極細4
  6
CONTINUOUS
 62
    6
 10
361.56706093614571
 20
275.85164059145279
 11
365.07637807878632
 21
279.36095773409318
  0
LINE
  8
_0-e_極細4
  6
CONTINUOUS
 62
    6
 10
380.65195122521931
 20
294.93653088052611
 11
385.67422688157825
 21
299.95880653688556
  0
LINE
  8
_0-e_極細4
  6
CONTINUOUS
 62
    6
 10
361.51884911015622
 20
278.9854092808024
 11
365.1303099519277
 21
282.59687012257405
  0
LINE
  8
_0-e_極細4
  6
CONTINUOUS
 62
    6
 10
380.62044646764139
 20
298.08700663828785
 11
385.72596640215306
 21
303.19252657279952
  0
LINE
  8
_0-e_極細4
  6
CONTINUOUS
 62
    6
 10
389.53172433072018
 20
306.99828450136658
 11
399.07096478134514
 21
316.53752495199149
  0
LINE
  8
_0-e_極細4
  6
CONTINUOUS
 62
    6
 10
361.47063728416509
 20
282.1191779701519
 11
365.18424182506845
 21
285.83278251105492
  0
LINE
  8
_0-e_極細4
  6
CONTINUOUS
 62
    6
 10
380.58894171006392
 20
301.23748239604993
 11
385.77770592272788
 21
306.42624660871354
  0
LINE
  8
_0-e_極細4
  6
CONTINUOUS
 62
    6
 10
386.1372499692543
 20
306.78579065523979
 11
399.2834586274721
 21
319.93199931345771
  0
LINE
  8
_0-e_極細4
  6
CONTINUOUS
 62
    6
 10
361.4224254581755
 20
285.25294665950128
 11
365.23817369821023
 21
289.06869489953567
  0
LINE
  8
_0-e_極細4
  6
CONTINUOUS
 62
    6
 10
380.55743695248657
 20
304.38795815381167
 11
387.31751724450828
 21
311.14803844583361
  0
LINE
  8
_0-e_極細4
  6
CONTINUOUS
 62
    6
 10
394.92121083687806
 20
318.75173203820327
 11
399.2834586274721
 21
323.1139798287972
  0
LINE
  8
_0-e_極細4
  6
CONTINUOUS
 62
    6
 10
361.3742136321855
 20
288.38671534885066
 11
365.29210557135161
 21
292.30460728801665
  0
LINE
  8
_0-e_極細4
  6
CONTINUOUS
 62
    6
 10
379.77328893857481
 20
306.78579065523979
 11
383.52328893857481
 21
310.53579065523968
  0
LINE
  8
_0-e_極細4
  6
CONTINUOUS
 62
    6
 10
395.5334586274721
 20
322.54596034413692
 11
399.2834586274721
 21
326.29596034413669
  0
LINE
  8
_0-e_極細4
  6
CONTINUOUS
 62
    6
 10
361.32600180619596
 20
291.52048403820027
 11
365.34603744449282
 21
295.54051967649752
  0
LINE
  8
_0-e_極細4
  6
CONTINUOUS
 62
    6
 10
376.59130842323543
 20
306.78579065523979
 11
380.34130842323543
 21
310.53579065523968
  0
LINE
  8
_0-e_極細4
  6
CONTINUOUS
 62
    6
 10
395.5334586274721
 20
325.72794085947623
 11
399.2834586274721
 21
329.47794085947612
  0
LINE
  8
_0-e_極細4
  6
CONTINUOUS
 62
    6
 10
361.27778998020585
 20
294.65425272754965
 11
365.39996931763471
 21
298.77643206497822
  0
LINE
  8
_0-e_極細4
  6
CONTINUOUS
 62
    6
 10
373.40932790789589
 20
306.78579065523979
 11
377.15932790789651
 21
310.53579065523968
  0
LINE
  8
_0-e_極細4
  6
CONTINUOUS
 62
    6
 10
395.5334586274721
 20
328.90992137481584
 11
399.2834586274721
 21
332.65992137481555
  0
LINE
  8
_0-e_極細4
  6
CONTINUOUS
 62
    6
 10
361.22957815421574
 20
297.78802141689914
 11
365.45390119077598
 21
302.01234445345898
  0
LINE
  8
_0-e_極細4
  6
CONTINUOUS
 62
    6
 10
370.22734739255651
 20
306.78579065523979
 11
373.97734739255702
 21
310.53579065523991
  0
LINE
  8
_0-e_極細4
  6
CONTINUOUS
 62
    6
 10
395.5334586274721
 20
332.09190189015533
 11
399.2834586274721
 21
335.84190189015516
  0
LINE
  8
_0-e_極細4
  6
CONTINUOUS
 62
    6
 10
361.18136632822575
 20
300.92179010624841
 11
365.50783306391736
 21
305.24825684193996
  0
LINE
  8
_0-e_極細4
  6
CONTINUOUS
 62
    6
 10
367.04536687721753
 20
306.78579065523979
 11
370.79536687721702
 21
310.53579065523991
  0
LINE
  8
_0-e_極細4
  6
CONTINUOUS
 62
    6
 10
395.5334586274721
 20
335.27388240549476
 11
399.2834586274721
 21
339.02388240549448
  0
LINE
  8
_0-e_極細4
  6
CONTINUOUS
 62
    6
 10
361.13315450223558
 20
304.05555879559802
 11
367.61338636187753
 21
310.53579065523968
  0
LINE
  8
_0-e_極細4
  6
CONTINUOUS
 62
    6
 10
395.5334586274721
 20
338.45586292083419
 11
399.2834586274721
 21
342.20586292083419
  0
LINE
  8
_0-e_極細4
  6
CONTINUOUS
 62
    6
 10
361.0849426762461
 20
307.1893274849474
 11
364.43140584653815
 21
310.53579065523991
  0
LINE
  8
_0-e_極細4
  6
CONTINUOUS
 62
    6
 10
395.5334586274721
 20
341.63784343617363
 11
399.2834586274721
 21
345.38784343617351
  0
LINE
  8
_0-e_極細4
  6
CONTINUOUS
 62
    6
 10
361.03673085025548
 20
310.32309617429689
 11
361.24942533119861
 21
310.53579065523991
  0
LINE
  8
_0-e_極細4
  6
CONTINUOUS
 62
    6
 10
395.5334586274721
 20
344.81982395151311
 11
399.2834586274721
 21
348.56982395151306
  0
LINE
  8
_0-e_極細4
  6
CONTINUOUS
 62
    6
 10
395.5334586274721
 20
348.00180446685272
 11
399.2834586274721
 21
351.75180446685226
  0
LINE
  8
_0-e_極細4
  6
CONTINUOUS
 62
    6
 10
395.5334586274721
 20
351.18378498219215
 11
399.2834586274721
 21
354.9337849821917
  0
LINE
  8
_0-e_極細4
  6
CONTINUOUS
 62
    6
 10
395.5334586274721
 20
354.3657654975317
 11
399.2834586274721
 21
358.11576549753136
  0
LINE
  8
_0-e_極細4
  6
CONTINUOUS
 62
    6
 10
395.5334586274721
 20
357.54774601287079
 11
399.2834586274721
 21
361.29774601287079
  0
LINE
  8
_0-e_極細4
  6
CONTINUOUS
 62
    6
 10
395.5334586274721
 20
360.72972652821034
 11
399.2834586274721
 21
364.47972652821034
  0
LINE
  8
_0-e_極細4
  6
CONTINUOUS
 62
    6
 10
395.5334586274721
 20
363.91170704354954
 11
399.2834586274721
 21
367.66170704354988
  0
LINE
  8
_0-e_極細4
  6
CONTINUOUS
 62
    6
 10
395.5334586274721
 20
367.09368755888931
 11
399.2834586274721
 21
370.84368755888931
  0
LINE
  8
_0-e_極細4
  6
CONTINUOUS
 62
    6
 10
395.5334586274721
 20
370.27566807422852
 11
399.2834586274721
 21
374.02566807422875
  0
LINE
  8
_0-e_極細4
  6
CONTINUOUS
 62
    6
 10
395.5334586274721
 20
373.45764858956807
 11
399.2834586274721
 21
377.20764858956829
  0
LINE
  8
_0-e_極細4
  6
CONTINUOUS
 62
    6
 10
395.5334586274721
 20
376.63962910490761
 11
399.2834586274721
 21
380.38962910490784
  0
LINE
  8
_0-e_極細4
  6
CONTINUOUS
 62
    6
 10
395.5334586274721
 20
379.82160962024716
 11
399.2834586274721
 21
383.57160962024716
  0
LINE
  8
_0-e_極細4
  6
CONTINUOUS
 62
    6
 10
395.5334586274721
 20
383.00359013558648
 11
399.2834586274721
 21
386.75359013558659
  0
LINE
  8
_0-e_極細4
  6
CONTINUOUS
 62
    6
 10
395.5334586274721
 20
386.18557065092602
 11
399.2834586274721
 21
389.93557065092602
  0
LINE
  8
_0-e_極細4
  6
CONTINUOUS
 62
    6
 10
395.5334586274721
 20
389.36755116626557
 11
399.2834586274721
 21
393.11755116626557
  0
LINE
  8
_0-e_極細4
  6
CONTINUOUS
 62
    6
 10
395.5334586274721
 20
392.54953168160506
 11
399.2834586274721
 21
396.29953168160506
  0
LINE
  8
_0-e_極細4
  6
CONTINUOUS
 62
    6
 10
395.5334586274721
 20
395.73151219694438
 11
399.2834586274721
 21
399.48151219694421
  0
LINE
  8
_0-e_極細4
  6
CONTINUOUS
 62
    6
 10
395.5334586274721
 20
398.91349271228404
 11
399.2834586274721
 21
402.6634927122837
  0
LINE
  8
_0-e_極細4
  6
CONTINUOUS
 62
    6
 10
395.5334586274721
 20
402.0954732276233
 11
399.2834586274721
 21
405.8454732276233
  0
LINE
  8
_0-e_極細4
  6
CONTINUOUS
 62
    6
 10
395.5334586274721
 20
405.27745374296285
 11
399.2834586274721
 21
409.02745374296268
  0
LINE
  8
_0-e_極細4
  6
CONTINUOUS
 62
    6
 10
395.5334586274721
 20
408.45943425830234
 11
399.2834586274721
 21
412.20943425830217
  0
LINE
  8
_0-e_極細4
  6
CONTINUOUS
 62
    6
 10
395.5334586274721
 20
411.64141477364183
 11
399.2834586274721
 21
415.39141477364166
  0
LINE
  8
_0-e_極細4
  6
CONTINUOUS
 62
    6
 10
395.5334586274721
 20
414.82339528898132
 11
399.2834586274721
 21
418.57339528898132
  0
LINE
  8
_0-e_極細4
  6
CONTINUOUS
 62
    6
 10
395.5334586274721
 20
418.00537580432081
 11
399.2834586274721
 21
421.75537580432058
  0
LINE
  8
_0-e_極細4
  6
CONTINUOUS
 62
    6
 10
395.5334586274721
 20
421.18735631965995
 11
399.2834586274721
 21
424.93735631966013
  0
LINE
  8
_0-e_極細4
  6
CONTINUOUS
 62
    6
 10
395.5334586274721
 20
424.36933683499944
 11
399.2834586274721
 21
428.11933683499961
  0
LINE
  8
_0-e_極細4
  6
CONTINUOUS
 62
    6
 10
395.5334586274721
 20
427.55131735033893
 11
399.49612787666524
 21
431.5139865995323
  0
LINE
  8
_0-e_極細4
  6
CONTINUOUS
 62
    6
 10
395.5334586274721
 20
430.73329786567842
 11
403.0334586274721
 21
438.23329786567842
  0
LINE
  8
_0-e_極細4
  6
CONTINUOUS
 62
    6
 10
395.5334586274721
 20
433.91527838101774
 11
403.0334586274721
 21
441.41527838101808
  0
LINE
  8
_0-e_極細4
  6
CONTINUOUS
 62
    6
 10
395.5334586274721
 20
437.0972588963574
 11
397.97201546635978
 21
439.53581573524525
  0
LINE
  8
_0-e_極細4
  6
CONTINUOUS
 62
    6
 10
398.15804202576714
 20
439.72184229465284
 11
403.0334586274721
 21
444.59725889635757
  0
LINE
  8
_0-e_極細4
  6
CONTINUOUS
 62
    6
 10
406.67201546635988
 20
448.23581573524518
 11
408.88345862747269
 21
450.44725889635731
  0
LINE
  8
_0-e_極細4
  6
CONTINUOUS
 62
    6
 10
396.2834586274721
 20
441.02923941169672
 11
403.0334586274721
 21
447.77923941169689
  0
LINE
  8
_0-e_極細4
  6
CONTINUOUS
 62
    6
 10
403.49003495102039
 20
448.23581573524518
 11
408.88345862747269
 21
453.62923941169686
  0
LINE
  8
_0-e_極細4
  6
CONTINUOUS
 62
    6
 10
396.2834586274721
 20
444.21121992703621
 11
408.88345862747269
 21
456.81121992703635
  0
LINE
  8
_0-e_極細4
  6
CONTINUOUS
 62
    6
 10
398.50195862747228
 20
449.61170044237576
 11
408.88345862747269
 21
459.99320044237595
  0
LINE
  8
_0-e_極細4
  6
CONTINUOUS
 62
    6
 10
398.50195862747228
 20
452.79368095771525
 11
408.88345862747269
 21
463.17518095771533
  0
LINE
  8
_0-e_極細4
  6
CONTINUOUS
 62
    6
 10
398.50195862747228
 20
455.97566147305474
 11
408.88345862747269
 21
466.35716147305493
  0
LINE
  8
_0-e_極細4
  6
CONTINUOUS
 62
    6
 10
398.50195862747228
 20
459.15764198839418
 11
408.54048836149599
 21
469.19617172241755
  0
LINE
  8
_0-e_極細4
  6
CONTINUOUS
 62
    6
 10
398.50195862747228
 20
462.33962250373384
 11
404.94263063454514
 21
468.78029451080641
  0
LINE
  8
_0-e_極細4
  6
CONTINUOUS
 62
    6
 10
398.50195862747228
 20
465.52160301907315
 11
401.34477290759423
 21
468.36441729919528
  0
LINE
  8
_0-e_極細4
  6
CENTER2
 62
    6
 10
323.5334586274721
 20
489.4201367136709
 11
323.5334586274721
 21
245.17849770374497
  0
LINE
  8
_0-e_極細4
  6
CONTINUOUS
 62
    6
 10
238.18345862747213
 20
472.82504725725079
 11
408.88345862747269
 21
472.82504725725079
  0
LINE
  8
_0-e_極細4
  6
CONTINUOUS
 62
    6
 10
408.88345862747269
 20
471.78581573524536
 11
408.88345862747269
 21
472.82504725725079
  0
LINE
  8
_0-e_極細4
  6
CONTINUOUS
 62
    6
 10
364.0334586274721
 20
439.53581573524525
 11
398.50195862747165
 21
439.53581573524525
  0
LINE
  8
_0-e_極細4
  6
CONTINUOUS
 62
    6
 10
380.9084586274721
 20
431.73581573524518
 11
364.0334586274721
 21
431.73581573524518
  0
LINE
  8
_0-e_極細4
  6
CONTINUOUS
 62
    6
 10
398.50195862747228
 20
471.34641173524528
 11
408.88345862747269
 21
472.82504725725079
  0
LINE
  8
_0-e_極細4
  6
CONTINUOUS
 62
    6
 10
364.0334586274721
 20
439.09231973524544
 11
364.0334586274721
 21
441.30894923524545
  0
LINE
  8
_0-e_極細4
  6
CONTINUOUS
 62
    6
 10
364.0334586274721
 20
440.73581573524518
 11
396.2834586274721
 21
440.73581573524518
  0
LINE
  8
_0-e_極細4
  6
CONTINUOUS
 62
    6
 10
388.7834586274721
 20
460.99758023524544
 11
388.7834586274721
 21
462.34641173524528
  0
LINE
  8
_0-e_極細4
  6
CONTINUOUS
 62
    6
 10
388.7834586274721
 20
460.99758023524544
 11
323.5334586274721
 21
460.99758023524544
  0
LINE
  8
_0-e_極細4
  6
CONTINUOUS
 62
    6
 10
388.7834586274721
 20
454.09758023524512
 11
323.5334586274721
 21
454.09758023524546
  0
LINE
  8
_0-e_極細4
  6
CONTINUOUS
 62
    6
 10
388.7834586274721
 20
451.84758023524512
 11
388.7834586274721
 21
454.09758023524512
  0
LINE
  8
_0-e_極細4
  6
CONTINUOUS
 62
    6
 10
383.1584586274721
 20
458.45557673524547
 11
383.1584586274721
 21
456.5055767352452
  0
LINE
  8
_0-e_極細4
  6
CONTINUOUS
 62
    6
 10
383.1584586274721
 20
455.00557673524509
 11
383.1584586274721
 21
454.2555767352452
  0
LINE
  8
_0-e_極細4
  6
CONTINUOUS
 62
    6
 10
388.55845862747265
 20
458.45557673524547
 11
388.55845862747265
 21
454.2555767352452
  0
LINE
  8
_0-e_極細4
  6
CONTINUOUS
 62
    6
 10
323.5334586274721
 20
454.2555767352452
 11
388.55845862747265
 21
454.2555767352452
  0
LINE
  8
_0-e_極細4
  6
CONTINUOUS
 62
    6
 10
323.5334586274721
 20
455.7555767352452
 11
382.40845862747159
 21
455.7555767352452
  0
LINE
  8
_0-e_極細4
  6
CONTINUOUS
 62
    6
 10
323.5334586274721
 20
459.20557673524547
 11
382.40845862747159
 21
459.20557673524519
  0
LINE
  8
_0-e_極細4
  6
CONTINUOUS
 62
    6
 10
382.40845862747159
 20
459.20557673524519
 11
383.1584586274721
 21
459.95557673524519
  0
LINE
  8
_0-e_極細4
  6
CONTINUOUS
 62
    6
 10
383.1584586274721
 20
458.45557673524547
 11
382.40845862747159
 21
459.20557673524519
  0
LINE
  8
_0-e_極細4
  6
CONTINUOUS
 62
    6
 10
383.1584586274721
 20
455.00557673524509
 11
382.40845862747159
 21
455.7555767352452
  0
LINE
  8
_0-e_極細4
  6
CONTINUOUS
 62
    6
 10
382.40845862747159
 20
455.7555767352452
 11
383.1584586274721
 21
456.5055767352452
  0
LINE
  8
_0-e_極細4
  6
CONTINUOUS
 62
    6
 10
388.55845862747265
 20
458.45557673524547
 11
389.75845862747269
 21
460.70557673524513
  0
LINE
  8
_0-e_極細4
  6
CONTINUOUS
 62
    6
 10
383.1584586274721
 20
460.70557673524513
 11
383.1584586274721
 21
459.95557673524519
  0
LINE
  8
_0-e_極細4
  6
CONTINUOUS
 62
    6
 10
323.5334586274721
 20
460.70557673524547
 11
389.75845862747269
 21
460.70557673524513
  0
LINE
  8
_0-e_極細4
  6
CONTINUOUS
 62
    6
 10
323.83345862747206
 20
462.34641173524562
 11
389.23345862747215
 21
462.34641173524528
  0
LINE
  8
_0-e_極細4
  6
CONTINUOUS
 62
    6
 10
323.83345862747206
 20
463.84641173524534
 11
388.333458627472
 21
463.84641173524528
  0
ARC
  8
_0-e_極細4
  6
CONTINUOUS
 62
    6
 10
392.458458627472
 20
469.84641173524562
 40
0.75
 50
24.054548999982487
 51
89.999999999999915
  0
ARC
  8
_0-e_極細4
  6
CONTINUOUS
 62
    6
 10
392.9084586274721
 20
467.89641173524535
 40
0.2999999999999829
 50
269.99999999999977
 51
359.99999999999966
  0
ARC
  8
_0-e_極細4
  6
CONTINUOUS
 62
    6
 10
392.458458627472
 20
469.84641173524562
 40
0.75
 50
0
 51
24.054548999982487
  0
LINE
  8
_0-e_極細4
  6
CONTINUOUS
 62
    6
 10
389.98345862747215
 20
463.09641173524534
 11
389.98345862747215
 21
467.59641173524562
  0
LINE
  8
_0-e_極細4
  6
CONTINUOUS
 62
    6
 10
389.98345862747215
 20
467.59641173524562
 11
392.9084586274721
 21
467.59641173524562
  0
LINE
  8
_0-e_極細4
  6
CONTINUOUS
 62
    6
 10
323.5334586274721
 20
470.59641173524562
 11
392.458458627472
 21
470.59641173524528
  0
LINE
  8
_0-e_極細4
  6
CONTINUOUS
 62
    6
 10
393.208458627472
 20
467.89641173524535
 11
393.208458627472
 21
469.84641173524562
  0
LINE
  8
_0-e_極細4
  6
CONTINUOUS
 62
    6
 10
375.71292812747237
 20
442.54641173524544
 11
375.71292812747237
 21
445.09641173524517
  0
LINE
  8
_0-e_極細4
  6
CONTINUOUS
 62
    6
 10
368.21292812747237
 20
442.54641173524544
 11
368.21292812747237
 21
445.09641173524517
  0
LINE
  8
_0-e_極細4
  6
CONTINUOUS
 62
    6
 10
368.21292812747237
 20
442.54641173524544
 11
375.71292812747237
 21
442.54641173524544
  0
LINE
  8
_0-e_極細4
  6
CONTINUOUS
 62
    6
 10
388.0334586274721
 20
445.09641173524517
 11
396.2834586274721
 21
445.09641173524517
  0
LINE
  8
_0-e_極細4
  6
CONTINUOUS
 62
    6
 10
386.78818262747205
 20
442.09641173524534
 11
388.0334586274721
 21
442.09641173524534
  0
LINE
  8
_0-e_極細4
  6
CONTINUOUS
 62
    6
 10
388.0334586274721
 20
449.14641173524524
 11
389.98345862747215
 21
449.14641173524524
  0
LINE
  8
_0-e_極細4
  6
CONTINUOUS
 62
    6
 10
388.0334586274721
 20
448.09641173524517
 11
391.0334586274721
 21
448.09641173524517
  0
LINE
  8
_0-e_極細4
  6
CONTINUOUS
 62
    6
 10
388.0334586274721
 20
442.09641173524534
 11
388.0334586274721
 21
451.09641173524517
  0
LINE
  8
_0-e_極細4
  6
CONTINUOUS
 62
    6
 10
398.50195862747228
 20
447.31491173524523
 11
396.2834586274721
 21
445.09641173524517
  0
LINE
  8
_0-e_極細4
  6
CONTINUOUS
 62
    6
 10
391.0334586274721
 20
448.09641173524517
 11
391.0334586274721
 21
464.97141173524528
  0
ARC
  8
_0-e_極細4
  6
CONTINUOUS
 62
    6
 10
392.60845862747215
 20
464.97141173524528
 40
1.5750000000000171
 50
89.999999999999915
 51
179.99999999999983
  0
LINE
  8
_0-e_極細4
  6
CONTINUOUS
 62
    6
 10
394.39529462747237
 20
466.54641173524527
 11
392.60845862747215
 21
466.54641173524527
  0
ARC
  8
_0-e_極細4
  6
CONTINUOUS
 62
    6
 10
394.39529462747237
 20
469.09641173524528
 40
2.5499999999999829
 50
269.99999999999977
 51
356.64911199999835
  0
ARC
  8
_0-e_極細4
  6
CONTINUOUS
 62
    6
 10
394.39529462747237
 20
469.09641173524528
 40
1.5
 50
269.99999999999977
 51
356.64911200000336
  0
ARC
  8
_0-e_極細4
  6
CONTINUOUS
 62
    6
 10
398.50195862747228
 20
468.72141173524562
 40
2.6249999999999991
 50
89.999999999999915
 51
175.84901000000326
  0
ARC
  8
_0-e_極細4
  6
CONTINUOUS
 62
    6
 10
392.60845862747215
 20
464.97141173524528
 40
2.6249999999999991
 50
89.999999999999915
 51
179.99999999999983
  0
LINE
  8
_0-e_極細4
  6
CONTINUOUS
 62
    6
 10
393.2834586274721
 20
467.59641173524562
 11
393.2834586274721
 21
471.34641173524528
  0
LINE
  8
_0-e_極細4
  6
CONTINUOUS
 62
    6
 10
389.98345862747215
 20
449.14641173524524
 11
389.98345862747215
 21
464.97141173524528
  0
LINE
  8
_0-e_極細4
  6
CONTINUOUS
 62
    6
 10
394.39529462747237
 20
467.59641173524562
 11
392.60845862747215
 21
467.59641173524562
  0
LINE
  8
_0-e_極細4
  6
CONTINUOUS
 62
    6
 10
383.9084586274721
 20
451.09641173524517
 11
389.98345862747215
 21
451.09641173524517
  0
LINE
  8
_0-e_極細4
  6
CONTINUOUS
 62
    6
 10
323.5334586274721
 20
471.34641173524562
 11
398.50195862747228
 21
471.34641173524528
  0
ARC
  8
_0-e_極細4
  6
CONTINUOUS
 62
    6
 10
380.9084586274721
 20
430.23581573524552
 40
1.5
 50
89.999999999999915
 51
179.99999999999983
  0
ARC
  8
_0-e_極細4
  6
CONTINUOUS
 62
    6
 10
380.9084586274721
 20
430.23581573524552
 40
1.5
 50
0
 51
89.999999999999915
  0
LINE
  8
_0-e_極細4
  6
CONTINUOUS
 62
    6
 10
408.88345862747269
 20
469.2358157352453
 11
398.50195862747228
 21
468.03581573524536
  0
LINE
  8
_0-e_極細4
  6
CONTINUOUS
 62
    6
 10
398.50195862747165
 20
439.53581573524525
 11
396.2834586274721
 21
440.73581573524518
  0
LINE
  8
_0-e_極細4
  6
CONTINUOUS
 62
    6
 10
396.2834586274721
 20
440.73581573524518
 11
396.2834586274721
 21
445.09641173524517
  0
LINE
  8
_0-e_極細4
  6
CONTINUOUS
 62
    6
 10
408.88345862747269
 20
449.06867723524556
 11
408.88345862747269
 21
472.80368273524539
  0
LINE
  8
_0-e_極細4
  6
CONTINUOUS
 62
    6
 10
403.0334586274721
 20
448.23581573524518
 11
408.88345862747269
 21
448.23581573524518
  0
LINE
  8
_0-e_極細4
  6
CONTINUOUS
 62
    6
 10
408.88345862747269
 20
448.23581573524518
 11
408.88345862747269
 21
449.06867723524556
  0
ARC
  8
_0-e_極細4
  6
CONTINUOUS
 62
    6
 10
406.7834586274721
 20
429.74062523524526
 40
7.5
 50
119.99999999999989
 51
179.99999999999983
  0
LINE
  8
_0-e_極細4
  6
CONTINUOUS
 62
    6
 10
403.0334586274721
 20
436.23581573524518
 11
403.0334586274721
 21
448.23581573524518
  0
LINE
  8
_0-e_極細4
  6
CONTINUOUS
 62
    6
 10
398.50195862747228
 20
470.28581491586931
 11
408.88345862747269
 21
471.7644512352453
  0
LINE
  8
_0-e_極細4
  6
CONTINUOUS
 62
    6
 10
398.50195862747228
 20
447.31491173524523
 11
398.50195862747228
 21
470.29641173524556
  0
ARC
  8
_0-e_極細4
  6
CONTINUOUS
 62
    6
 10
398.50195862747228
 20
468.72141173524562
 40
1.5750000000000171
 50
89.999999999999915
 51
175.84901000001071
  0
LINE
  8
_0-e_極細4
  6
CONTINUOUS
 62
    6
 10
384.2834586274721
 20
440.74758023524566
 11
379.7834586274721
 21
440.74758023524566
  0
ARC
  8
_0-e_極細4
  6
CONTINUOUS
 62
    6
 10
384.2834586274721
 20
443.74758023524532
 40
3
 50
269.99999999999977
 51
359.99999999999966
  0
LINE
  8
_0-e_極細4
  6
CONTINUOUS
 62
    6
 10
387.2834586274721
 20
443.74758023524532
 11
387.2834586274721
 21
445.24758023524532
  0
LINE
  8
_0-e_極細4
  6
CONTINUOUS
 62
    6
 10
387.2834586274721
 20
445.24758023524532
 11
383.9084586274721
 21
445.24758023524532
  0
LINE
  8
_0-e_極細4
  6
CONTINUOUS
 62
    6
 10
388.7834586274721
 20
451.84758023524512
 11
383.9084586274721
 21
451.84758023524512
  0
LINE
  8
_0-e_極細4
  6
CONTINUOUS
 62
    6
 10
383.9084586274721
 20
445.24758023524532
 11
383.9084586274721
 21
451.84758023524546
  0
LINE
  8
_0-e_極細4
  6
CONTINUOUS
 62
    6
 10
383.9084586274721
 20
451.84758023524546
 11
323.5334586274721
 21
451.84758023524546
  0
ARC
  8
_0-e_極細4
  6
CONTINUOUS
 62
    6
 10
364.40845862747159
 20
343.53579065523979
 40
15
 50
269.99999999999977
 51
359.99999999999966
  0
LINE
  8
_0-e_極細4
  6
CONTINUOUS
 62
    6
 10
323.5334586274721
 20
328.53579065523979
 11
364.40845862747159
 21
328.53579065523979
  0
LINE
  8
_0-e_極細4
  6
CONTINUOUS
 62
    6
 10
379.4084586274721
 20
343.53579065523979
 11
379.4084586274721
 21
430.23581573524552
  0
LINE
  8
_0-e_極細4
  6
CONTINUOUS
 62
    6
 10
382.40845862747159
 20
343.53579065523979
 11
382.40845862747159
 21
430.23581573524552
  0
LINE
  8
_0-e_極細4
  6
CONTINUOUS
 62
    6
 10
324.93000962747215
 20
325.53579065523979
 11
364.40845862747159
 21
325.53579065523979
  0
LINE
  8
_0-e_極細4
  6
CONTINUOUS
 62
    6
 10
323.5334586274721
 20
325.53579065523979
 11
324.93000962747215
 21
325.53579065523979
  0
LINE
  8
_0-e_極細4
  6
CONTINUOUS
 62
    6
 10
380.90845862747159
 20
269.28579065523991
 11
380.5334586274721
 21
306.78579065523979
  0
LINE
  8
_0-e_極細4
  6
CONTINUOUS
 62
    6
 10
395.5334586274721
 20
398.9181411552396
 11
395.5334586274721
 21
439.53581573524525
  0
ARC
  8
_0-e_極細4
  6
CONTINUOUS
 62
    6
 10
394.0334586274721
 20
398.9181411552396
 40
1.5
 50
277.18075599999406
 51
359.99999999999966
  0
ARC
  8
_0-e_極細4
  6
CONTINUOUS
 62
    6
 10
364.40845862747159
 20
343.53579065523979
 40
18
 50
269.99999999999977
 51
359.99999999999966
  0
LINE
  8
_0-e_極細4
  6
CONTINUOUS
 62
    6
 10
361.03345862747159
 20
310.53579065523968
 11
361.03345862747159
 21
325.53579065523979
  0
LINE
  8
_0-e_極細4
  6
CONTINUOUS
 62
    6
 10
364.40845862747159
 20
325.53579065523979
 11
361.03345862747159
 21
325.53579065523979
  0
LINE
  8
_0-e_極細4
  6
CONTINUOUS
 62
    6
 10
382.40845862747159
 20
343.53579065523979
 11
382.40845862747159
 21
384.03579065523951
  0
LINE
  8
_0-e_極細4
  6
CONTINUOUS
 62
    6
 10
361.03582712747226
 20
310.38178115523999
 11
361.03345862747159
 21
310.53579065523968
  0
LINE
  8
_0-e_極細4
  6
CONTINUOUS
 62
    6
 10
361.03345862747159
 20
310.53579065523968
 11
323.5334586274721
 21
310.53579065523991
  0
ARC
  8
_0-e_極細4
  6
CONTINUOUS
 62
    6
 10
383.53345862747159
 20
322.53579065523979
 40
12
 50
269.99999999999977
 51
359.99999999999966
  0
LINE
  8
_0-e_極細4
  6
CONTINUOUS
 62
    6
 10
365.53345862747159
 20
306.78579065523979
 11
380.5334586274721
 21
306.78579065523979
  0
LINE
  8
_0-e_極細4
  6
CONTINUOUS
 62
    6
 10
361.7834586274721
 20
261.78579065523991
 11
361.03345862747159
 21
310.53579065523968
  0
LINE
  8
_0-e_極細4
  6
CONTINUOUS
 62
    6
 10
395.5334586274721
 20
322.53579065523979
 11
395.5334586274721
 21
398.9181411552396
  0
LINE
  8
_0-e_極細4
  6
CONTINUOUS
 62
    6
 10
383.53345862747159
 20
310.53579065523968
 11
361.03345862747159
 21
310.53579065523968
  0
LINE
  8
_0-e_極細4
  6
CONTINUOUS
 62
    6
 10
364.90845862747187
 20
269.28579065523991
 11
365.53345862747159
 21
306.78579065523979
  0
ARC
  8
_0-e_極細4
  6
CONTINUOUS
 62
    6
 10
387.2834586274721
 20
318.78579065523968
 40
12
 50
269.99999999999977
 51
359.99999999999966
  0
LINE
  8
_0-e_極細4
  6
CONTINUOUS
 62
    6
 10
399.2834586274721
 20
318.78579065523968
 11
399.2834586274721
 21
429.74062523524526
  0
LINE
  8
_0-e_極細4
  6
CONTINUOUS
 62
    6
 10
385.18345862747213
 20
269.28579065523991
 11
385.7834586274721
 21
306.78579065523979
  0
LINE
  8
_0-e_極細4
  6
CONTINUOUS
 62
    6
 10
364.9084581274717
 20
269.28579065523991
 11
385.18345862747213
 21
269.28579065523991
  0
LINE
  8
_0-e_極細4
  6
CONTINUOUS
 62
    6
 10
362.5334586274721
 20
351.34755515523955
 11
323.5334586274721
 21
351.34755515523955
  0
ARC
  8
_0-e_極細4
  6
CONTINUOUS
 62
    6
 10
362.5334586274721
 20
352.84755515523989
 40
1.5
 50
269.999541633756
 51
359.99999999999966
  0
LINE
  8
_0-e_極細4
  6
CONTINUOUS
 62
    6
 10
364.0334586274721
 20
352.84755515523989
 11
364.0334586274721
 21
441.30894923524545
  0
LINE
  8
_0-e_極細4
  6
CONTINUOUS
 62
    6
 10
394.22095863314848
 20
397.42990604348091
 11
382.40845862747159
 21
397.42990604348091
  0
LINE
  8
_0-e_極細4
  6
CONTINUOUS
 62
    6
 10
385.7834586274721
 20
306.78579065523979
 11
387.2834586274721
 21
306.78579065523979
  0
LINE
  8
_0-e_極細4
  6
CONTINUOUS
 62
    6
 10
323.53345862747159
 20
261.78579065523991
 11
364.7834586274721
 21
261.78579065523991
  0
LINE
  8
_0-e_極細4
  6
CONTINUOUS
 62
    6
 10
364.7834586274721
 20
261.78579065523991
 11
364.90845862747187
 21
269.28579065523991
  0
LINE
  8
_0-e_極細4
  6
CONTINUOUS
 62
    6
 10
238.18345862747213
 20
471.78581573524536
 11
238.18345862747213
 21
472.82504725725079
  0
LINE
  8
_0-e_極細4
  6
CONTINUOUS
 62
    6
 10
283.03345862747261
 20
439.53581573524525
 11
248.56495862747255
 21
439.53581573524525
  0
LINE
  8
_0-e_極細4
  6
CONTINUOUS
 62
    6
 10
266.15845862747261
 20
431.73581573524518
 11
283.03345862747261
 21
431.73581573524518
  0
LINE
  8
_0-e_極細4
  6
CONTINUOUS
 62
    6
 10
248.56495862747255
 20
471.34641173524528
 11
238.18345862747213
 21
472.82504725725079
  0
LINE
  8
_0-e_極細4
  6
CONTINUOUS
 62
    6
 10
283.03345862747261
 20
439.09231973524544
 11
283.03345862747261
 21
441.30894923524545
  0
LINE
  8
_0-e_極細4
  6
CONTINUOUS
 62
    6
 10
283.03345862747261
 20
440.73581573524518
 11
250.78345862747261
 21
440.73581573524518
  0
LINE
  8
_0-e_極細4
  6
CONTINUOUS
 62
    6
 10
258.28345862747261
 20
460.99758023524544
 11
258.28345862747261
 21
462.34641173524528
  0
LINE
  8
_0-e_極細4
  6
CONTINUOUS
 62
    6
 10
258.28345862747261
 20
460.99758023524544
 11
323.53345862747261
 21
460.99758023524544
  0
LINE
  8
_0-e_極細4
  6
CONTINUOUS
 62
    6
 10
258.28345862747261
 20
454.09758023524512
 11
323.53345862747261
 21
454.09758023524546
  0
LINE
  8
_0-e_極細4
  6
CONTINUOUS
 62
    6
 10
258.28345862747261
 20
451.84758023524512
 11
258.28345862747261
 21
454.09758023524512
  0
LINE
  8
_0-e_極細4
  6
CONTINUOUS
 62
    6
 10
263.90845862747261
 20
458.45557673524547
 11
263.90845862747261
 21
456.5055767352452
  0
LINE
  8
_0-e_極細4
  6
CONTINUOUS
 62
    6
 10
263.90845862747261
 20
455.00557673524509
 11
263.90845862747261
 21
454.2555767352452
  0
LINE
  8
_0-e_極細4
  6
CONTINUOUS
 62
    6
 10
258.50845862747207
 20
458.45557673524547
 11
258.50845862747207
 21
454.2555767352452
  0
LINE
  8
_0-e_極細4
  6
CONTINUOUS
 62
    6
 10
323.53345862747261
 20
454.2555767352452
 11
258.50845862747207
 21
454.2555767352452
  0
LINE
  8
_0-e_極細4
  6
CONTINUOUS
 62
    6
 10
323.53345862747261
 20
455.7555767352452
 11
264.65845862747261
 21
455.7555767352452
  0
LINE
  8
_0-e_極細4
  6
CONTINUOUS
 62
    6
 10
323.53345862747261
 20
459.20557673524547
 11
264.65845862747261
 21
459.20557673524519
  0
LINE
  8
_0-e_極細4
  6
CONTINUOUS
 62
    6
 10
264.65845862747261
 20
459.20557673524519
 11
263.90845862747261
 21
459.95557673524519
  0
LINE
  8
_0-e_極細4
  6
CONTINUOUS
 62
    6
 10
263.90845862747261
 20
458.45557673524547
 11
264.65845862747261
 21
459.20557673524519
  0
LINE
  8
_0-e_極細4
  6
CONTINUOUS
 62
    6
 10
263.90845862747261
 20
455.00557673524509
 11
264.65845862747261
 21
455.7555767352452
  0
LINE
  8
_0-e_極細4
  6
CONTINUOUS
 62
    6
 10
264.65845862747261
 20
455.7555767352452
 11
263.90845862747261
 21
456.5055767352452
  0
LINE
  8
_0-e_極細4
  6
CONTINUOUS
 62
    6
 10
258.50845862747207
 20
458.45557673524547
 11
257.30845862747213
 21
460.70557673524513
  0
LINE
  8
_0-e_極細4
  6
CONTINUOUS
 62
    6
 10
263.90845862747261
 20
460.70557673524513
 11
263.90845862747261
 21
459.95557673524519
  0
LINE
  8
_0-e_極細4
  6
CONTINUOUS
 62
    6
 10
323.53345862747261
 20
460.70557673524547
 11
257.30845862747213
 21
460.70557673524513
  0
LINE
  8
_0-e_極細4
  6
CONTINUOUS
 62
    6
 10
323.23345862747215
 20
462.34641173524562
 11
257.83345862747268
 21
462.34641173524528
  0
LINE
  8
_0-e_極細4
  6
CONTINUOUS
 62
    6
 10
323.23345862747215
 20
463.84641173524534
 11
258.73345862747215
 21
463.84641173524528
  0
ARC
  8
_0-e_極細4
  6
CONTINUOUS
 62
    6
 10
254.60845862747212
 20
469.84641173524562
 40
0.75
 50
89.999999999999915
 51
155.94545099999718
  0
ARC
  8
_0-e_極細4
  6
CONTINUOUS
 62
    6
 10
254.1584586274721
 20
467.89641173524535
 40
0.2999999999999829
 50
179.99999999999983
 51
269.99999999999977
  0
ARC
  8
_0-e_極細4
  6
CONTINUOUS
 62
    6
 10
254.60845862747212
 20
469.84641173524562
 40
0.75
 50
155.94545099999718
 51
179.99999999999983
  0
LINE
  8
_0-e_極細4
  6
CONTINUOUS
 62
    6
 10
257.08345862747268
 20
463.09641173524534
 11
257.08345862747217
 21
467.59641173524562
  0
LINE
  8
_0-e_極細4
  6
CONTINUOUS
 62
    6
 10
257.08345862747217
 20
467.59641173524562
 11
254.1584586274721
 21
467.59641173524562
  0
LINE
  8
_0-e_極細4
  6
CONTINUOUS
 62
    6
 10
323.5334586274721
 20
470.59641173524562
 11
254.60845862747212
 21
470.59641173524528
  0
LINE
  8
_0-e_極細4
  6
CONTINUOUS
 62
    6
 10
253.85845862747237
 20
467.89641173524535
 11
253.85845862747237
 21
469.84641173524562
  0
LINE
  8
_0-e_極細4
  6
CONTINUOUS
 62
    6
 10
271.35398912747246
 20
442.54641173524544
 11
271.35398912747246
 21
445.09641173524517
  0
LINE
  8
_0-e_極細4
  6
CONTINUOUS
 62
    6
 10
278.85398912747246
 20
442.54641173524544
 11
278.85398912747246
 21
445.09641173524517
  0
LINE
  8
_0-e_極細4
  6
CONTINUOUS
 62
    6
 10
278.85398912747246
 20
442.54641173524544
 11
271.35398912747246
 21
442.54641173524544
  0
LINE
  8
_0-e_極細4
  6
CONTINUOUS
 62
    6
 10
259.03345862747261
 20
445.09641173524517
 11
250.78345862747261
 21
445.09641173524517
  0
LINE
  8
_0-e_極細4
  6
CONTINUOUS
 62
    6
 10
260.27873462747215
 20
442.09641173524534
 11
259.03345862747261
 21
442.09641173524534
  0
LINE
  8
_0-e_極細4
  6
CONTINUOUS
 62
    6
 10
259.03345862747261
 20
449.14641173524524
 11
257.08345862747268
 21
449.14641173524524
  0
LINE
  8
_0-e_極細4
  6
CONTINUOUS
 62
    6
 10
259.03345862747261
 20
448.09641173524517
 11
256.03345862747261
 21
448.09641173524517
  0
LINE
  8
_0-e_極細4
  6
CONTINUOUS
 62
    6
 10
259.03345862747261
 20
442.09641173524534
 11
259.03345862747261
 21
451.09641173524517
  0
LINE
  8
_0-e_極細4
  6
CONTINUOUS
 62
    6
 10
248.56495862747255
 20
447.31491173524523
 11
250.78345862747261
 21
445.09641173524517
  0
LINE
  8
_0-e_極細4
  6
CONTINUOUS
 62
    6
 10
256.03345862747261
 20
448.09641173524517
 11
256.0334586274721
 21
464.97141173524528
  0
ARC
  8
_0-e_極細4
  6
CONTINUOUS
 62
    6
 10
254.45845862747268
 20
464.97141173524528
 40
1.5750000000000171
 50
0
 51
89.999999999999915
  0
LINE
  8
_0-e_極細4
  6
CONTINUOUS
 62
    6
 10
252.67162262747246
 20
466.54641173524527
 11
254.45845862747268
 21
466.54641173524527
  0
ARC
  8
_0-e_極細4
  6
CONTINUOUS
 62
    6
 10
252.67162262747246
 20
469.09641173524528
 40
2.5499999999999829
 50
183.35088800000042
 51
269.99999999999977
  0
ARC
  8
_0-e_極細4
  6
CONTINUOUS
 62
    6
 10
252.67162262747246
 20
469.09641173524528
 40
1.5
 50
183.35088799999579
 51
269.99999999999977
  0
ARC
  8
_0-e_極細4
  6
CONTINUOUS
 62
    6
 10
248.56495862747255
 20
468.72141173524562
 40
2.6249999999999991
 50
4.1509899999980941
 51
89.999999999999915
  0
ARC
  8
_0-e_極細4
  6
CONTINUOUS
 62
    6
 10
254.45845862747268
 20
464.97141173524528
 40
2.6249999999999991
 50
0
 51
89.999999999999915
  0
LINE
  8
_0-e_極細4
  6
CONTINUOUS
 62
    6
 10
253.7834586274721
 20
467.59641173524562
 11
253.7834586274721
 21
471.34641173524528
  0
LINE
  8
_0-e_極細4
  6
CONTINUOUS
 62
    6
 10
257.08345862747268
 20
449.14641173524524
 11
257.08345862747268
 21
464.97141173524528
  0
LINE
  8
_0-e_極細4
  6
CONTINUOUS
 62
    6
 10
252.67162262747246
 20
467.59641173524562
 11
254.45845862747268
 21
467.59641173524562
  0
LINE
  8
_0-e_極細4
  6
CONTINUOUS
 62
    6
 10
263.1584586274721
 20
451.09641173524517
 11
257.08345862747268
 21
451.09641173524517
  0
LINE
  8
_0-e_極細4
  6
CONTINUOUS
 62
    6
 10
323.5334586274721
 20
471.34641173524562
 11
248.56495862747255
 21
471.34641173524528
  0
ARC
  8
_0-e_極細4
  6
CONTINUOUS
 62
    6
 10
266.15845862747261
 20
430.23581573524552
 40
1.5
 50
0
 51
89.999999999999915
  0
ARC
  8
_0-e_極細4
  6
CONTINUOUS
 62
    6
 10
266.15845862747261
 20
430.23581573524552
 40
1.5
 50
89.999999999999915
 51
179.99999999999983
  0
LINE
  8
_0-e_極細4
  6
CONTINUOUS
 62
    6
 10
238.18345862747213
 20
469.2358157352453
 11
248.56495862747255
 21
468.03581573524536
  0
LINE
  8
_0-e_極細4
  6
CONTINUOUS
 62
    6
 10
248.56495862747255
 20
439.53581573524525
 11
250.78345862747261
 21
440.73581573524518
  0
LINE
  8
_0-e_極細4
  6
CONTINUOUS
 62
    6
 10
250.78345862747261
 20
440.73581573524518
 11
250.78345862747261
 21
445.09641173524517
  0
LINE
  8
_0-e_極細4
  6
CONTINUOUS
 62
    6
 10
238.18345862747213
 20
449.06867723524556
 11
238.18345862747213
 21
472.80368273524539
  0
LINE
  8
_0-e_極細4
  6
CONTINUOUS
 62
    6
 10
244.0334586274721
 20
448.23581573524518
 11
238.18345862747213
 21
448.23581573524518
  0
LINE
  8
_0-e_極細4
  6
CONTINUOUS
 62
    6
 10
238.18345862747213
 20
448.23581573524518
 11
238.18345862747213
 21
449.06867723524556
  0
ARC
  8
_0-e_極細4
  6
CONTINUOUS
 62
    6
 10
240.28345862747261
 20
429.74062523524526
 40
7.5
 50
0
 51
60.000000000003872
  0
LINE
  8
_0-e_極細4
  6
CONTINUOUS
 62
    6
 10
244.0334586274721
 20
436.23581573524518
 11
244.0334586274721
 21
448.23581573524518
  0
LINE
  8
_0-e_極細4
  6
CONTINUOUS
 62
    6
 10
248.56495862747255
 20
470.28581491586931
 11
238.18345862747213
 21
471.7644512352453
  0
LINE
  8
_0-e_極細4
  6
CONTINUOUS
 62
    6
 10
248.56495862747255
 20
447.31491173524523
 11
248.56495862747255
 21
470.29641173524556
  0
ARC
  8
_0-e_極細4
  6
CONTINUOUS
 62
    6
 10
248.56495862747255
 20
468.72141173524562
 40
1.5750000000000171
 50
4.150989999990669
 51
89.999999999999915
  0
LINE
  8
_0-e_極細4
  6
CONTINUOUS
 62
    6
 10
262.78345862747261
 20
440.74758023524566
 11
267.28345862747261
 21
440.74758023524566
  0
ARC
  8
_0-e_極細4
  6
CONTINUOUS
 62
    6
 10
262.78345862747261
 20
443.74758023524532
 40
3
 50
179.99999999999983
 51
269.99999999999977
  0
LINE
  8
_0-e_極細4
  6
CONTINUOUS
 62
    6
 10
259.78345862747261
 20
443.74758023524532
 11
259.78345862747261
 21
445.24758023524532
  0
LINE
  8
_0-e_極細4
  6
CONTINUOUS
 62
    6
 10
259.78345862747261
 20
445.24758023524532
 11
263.1584586274721
 21
445.24758023524532
  0
LINE
  8
_0-e_極細4
  6
CONTINUOUS
 62
    6
 10
258.28345862747261
 20
451.84758023524512
 11
263.1584586274721
 21
451.84758023524512
  0
LINE
  8
_0-e_極細4
  6
CONTINUOUS
 62
    6
 10
263.1584586274721
 20
445.24758023524532
 11
263.1584586274721
 21
451.84758023524546
  0
LINE
  8
_0-e_極細4
  6
CONTINUOUS
 62
    6
 10
263.1584586274721
 20
451.84758023524546
 11
323.53345862747261
 21
451.84758023524546
  0
ARC
  8
_0-e_極細4
  6
CONTINUOUS
 62
    6
 10
282.6584586274721
 20
343.53579065523979
 40
15
 50
179.99999999999983
 51
269.99999999999977
  0
LINE
  8
_0-e_極細4
  6
CONTINUOUS
 62
    6
 10
323.53345862747261
 20
328.53579065523979
 11
282.6584586274721
 21
328.53579065523979
  0
LINE
  8
_0-e_極細4
  6
CONTINUOUS
 62
    6
 10
267.65845862747261
 20
343.53579065523979
 11
267.65845862747261
 21
430.23581573524552
  0
LINE
  8
_0-e_極細4
  6
CONTINUOUS
 62
    6
 10
264.65845862747261
 20
343.53579065523979
 11
264.65845862747261
 21
430.23581573524552
  0
LINE
  8
_0-e_極細4
  6
CONTINUOUS
 62
    6
 10
322.13690762747268
 20
325.53579065523979
 11
282.6584586274721
 21
325.53579065523979
  0
LINE
  8
_0-e_極細4
  6
CONTINUOUS
 62
    6
 10
323.53345862747261
 20
325.53579065523979
 11
322.13690762747268
 21
325.53579065523979
  0
LINE
  8
_0-e_極細4
  6
CONTINUOUS
 62
    6
 10
266.15845862747261
 20
269.28579065523991
 11
266.53345862747261
 21
306.78579065523979
  0
LINE
  8
_0-e_極細4
  6
CONTINUOUS
 62
    6
 10
251.53345862747261
 20
398.9181411552396
 11
251.53345862747261
 21
439.53581573524525
  0
ARC
  8
_0-e_極細4
  6
CONTINUOUS
 62
    6
 10
253.03345862747261
 20
398.9181411552396
 40
1.5
 50
179.99999999999983
 51
262.81924399998798
  0
ARC
  8
_0-e_極細4
  6
CONTINUOUS
 62
    6
 10
282.6584586274721
 20
343.53579065523979
 40
18
 50
179.99999999999983
 51
269.99999999999977
  0
LINE
  8
_0-e_極細4
  6
CONTINUOUS
 62
    6
 10
286.03345862747261
 20
310.53579065523968
 11
286.03345862747261
 21
325.53579065523979
  0
LINE
  8
_0-e_極細4
  6
CONTINUOUS
 62
    6
 10
282.6584586274721
 20
325.53579065523979
 11
286.03345862747261
 21
325.53579065523979
  0
LINE
  8
_0-e_極細4
  6
CONTINUOUS
 62
    6
 10
264.65845862747261
 20
343.53579065523979
 11
264.65845862747261
 21
384.03579065523951
  0
LINE
  8
_0-e_極細4
  6
CONTINUOUS
 62
    6
 10
286.03109012747223
 20
310.38178115523999
 11
286.03345862747261
 21
310.53579065523968
  0
LINE
  8
_0-e_極細4
  6
CONTINUOUS
 62
    6
 10
286.03345862747261
 20
310.53579065523968
 11
323.53345862747261
 21
310.53579065523991
  0
ARC
  8
_0-e_極細4
  6
CONTINUOUS
 62
    6
 10
263.53345862747261
 20
322.53579065523979
 40
12
 50
179.99999999999983
 51
269.99999999999977
  0
LINE
  8
_0-e_極細4
  6
CONTINUOUS
 62
    6
 10
281.53345862747261
 20
306.78579065523979
 11
266.53345862747261
 21
306.78579065523979
  0
LINE
  8
_0-e_極細4
  6
CONTINUOUS
 62
    6
 10
285.28345862747261
 20
261.78579065523991
 11
286.03345862747261
 21
310.53579065523968
  0
LINE
  8
_0-e_極細4
  6
CONTINUOUS
 62
    6
 10
251.53345862747261
 20
322.53579065523979
 11
251.53345862747261
 21
398.9181411552396
  0
LINE
  8
_0-e_極細4
  6
CONTINUOUS
 62
    6
 10
263.53345862747261
 20
310.53579065523968
 11
286.03345862747261
 21
310.53579065523968
  0
LINE
  8
_0-e_極細4
  6
CONTINUOUS
 62
    6
 10
282.15845862747256
 20
269.28579065523991
 11
281.53345862747261
 21
306.78579065523979
  0
ARC
  8
_0-e_極細4
  6
CONTINUOUS
 62
    6
 10
259.78345862747261
 20
318.78579065523968
 40
12
 50
179.99999999999983
 51
269.99999999999977
  0
LINE
  8
_0-e_極細4
  6
CONTINUOUS
 62
    6
 10
247.78345862747261
 20
318.78579065523968
 11
247.78345862747261
 21
429.74062523524526
  0
LINE
  8
_0-e_極細4
  6
CONTINUOUS
 62
    6
 10
261.88345862747269
 20
269.28579065523991
 11
261.28345862747261
 21
306.78579065523979
  0
LINE
  8
_0-e_極細4
  6
CONTINUOUS
 62
    6
 10
282.1584591274725
 20
269.28579065523991
 11
261.88345862747269
 21
269.28579065523991
  0
LINE
  8
_0-e_極細4
  6
CONTINUOUS
 62
    6
 10
284.5334586274721
 20
351.34755515523955
 11
323.53345862747261
 21
351.34755515523955
  0
ARC
  8
_0-e_極細4
  6
CONTINUOUS
 62
    6
 10
284.5334586274721
 20
352.84755515523989
 40
1.5
 50
179.99999999999983
 51
270.00045836623457
  0
LINE
  8
_0-e_極細4
  6
CONTINUOUS
 62
    6
 10
283.03345862747261
 20
352.84755515523989
 11
283.03345862747261
 21
441.30894923524545
  0
LINE
  8
_0-e_極細4
  6
CONTINUOUS
 62
    6
 10
252.84595862179583
 20
397.42990604348091
 11
264.65845862747261
 21
397.42990604348091
  0
LINE
  8
_0-e_極細4
  6
CONTINUOUS
 62
    6
 10
261.28345862747261
 20
306.78579065523979
 11
259.78345862747261
 21
306.78579065523979
  0
LINE
  8
_0-e_極細4
  6
CONTINUOUS
 62
    6
 10
323.53345862747261
 20
261.78579065523991
 11
282.28345862747261
 21
261.78579065523991
  0
LINE
  8
_0-e_極細4
  6
CONTINUOUS
 62
    6
 10
282.28345862747261
 20
261.78579065523991
 11
282.15845862747256
 21
269.28579065523991
  0
LINE
  8
_0-e_極細4
  6
CONTINUOUS
 62
    6
 10
388.333458627472
 20
462.34641173524528
 11
388.333458627472
 21
463.84641173524528
  0
ARC
  8
_0-e_極細4
  6
CONTINUOUS
 62
    6
 10
389.23345862747215
 20
463.09641173524534
 40
0.75
 50
269.99999999999977
 51
359.99999999999966
  0
LINE
  8
_0-e_極細4
  6
CONTINUOUS
 62
    6
 10
258.73345862747215
 20
462.34641173524528
 11
258.73345862747215
 21
463.84641173524528
  0
ARC
  8
_0-e_極細4
  6
CONTINUOUS
 62
    6
 10
257.83345862747268
 20
463.09641173524534
 40
0.75
 50
179.99999999999983
 51
269.99999999999977
  0
LINE
  8
_0-a_極細1
  6
CONTINUOUS
 62
    7
 10
355.69886681842547
 20
644.22319287746643
 11
370.09886537842641
 21
644.22319287746643
  0
LINE
  8
_0-a_極細1
  6
CONTINUOUS
 62
    7
 10
355.69886681842547
 20
645.02319279746655
 11
370.09886537842641
 21
645.02319279746655
  0
LINE
  8
_0-a_極細1
  6
CONTINUOUS
 62
    7
 10
355.56995989888003
 20
645.82319271746633
 11
370.09886537842641
 21
645.82319271746633
  0
LINE
  8
_0-a_極細1
  6
CONTINUOUS
 62
    7
 10
354.76995997887991
 20
646.62319263746645
 11
370.09886537842641
 21
646.62319263746645
  0
LINE
  8
_0-a_極細1
  6
CONTINUOUS
 62
    7
 10
353.96996005888025
 20
647.42319255746656
 11
370.09886537842641
 21
647.42319255746656
  0
LINE
  8
_0-a_極細1
  6
CONTINUOUS
 62
    7
 10
354.22777389797068
 20
648.22319247746668
 11
370.09886537842641
 21
648.22319247746668
  0
LINE
  8
_0-a_極細1
  6
CONTINUOUS
 62
    7
 10
355.0277738179708
 20
649.0231923974668
 11
370.09886537842641
 21
649.0231923974668
  0
LINE
  8
_0-a_極細1
  6
CONTINUOUS
 62
    7
 10
355.69886681842547
 20
649.82319231746658
 11
370.09886537842641
 21
649.82319231746658
  0
LINE
  8
_0-a_極細1
  6
CONTINUOUS
 62
    7
 10
355.69886681842547
 20
650.6231922374667
 11
370.09886537842641
 21
650.6231922374667
  0
LINE
  8
_0-a_極細1
  6
CONTINUOUS
 62
    7
 10
355.69886681842547
 20
651.42319215746681
 11
370.09886537842641
 21
651.42319215746681
  0
LINE
  8
_0-a_極細1
  6
CONTINUOUS
 62
    7
 10
355.69886681842547
 20
652.22319207746659
 11
370.09886537842641
 21
652.22319207746659
  0
LINE
  8
_0-a_極細1
  6
CONTINUOUS
 62
    7
 10
355.69886681842547
 20
653.02319199746671
 11
370.09886537842641
 21
653.02319199746671
  0
LINE
  8
_0-a_極細1
  6
CONTINUOUS
 62
    7
 10
355.69886681842547
 20
653.82319191746683
 11
370.09886537842641
 21
653.82319191746683
  0
LINE
  8
_0-a_極細1
  6
CONTINUOUS
 62
    7
 10
355.69886681842547
 20
654.62319183746683
 11
370.09886537842641
 21
654.62319183746683
  0
LINE
  8
_0-a_極細1
  6
CONTINUOUS
 62
    7
 10
355.16995993887997
 20
655.42319175746672
 11
370.38094904751779
 21
655.42319175746672
  0
LINE
  8
_0-a_極細1
  6
CONTINUOUS
 62
    7
 10
354.36996001887985
 20
656.22319167746684
 11
370.80761567151723
 21
656.22319167746684
  0
LINE
  8
_0-a_極細1
  6
CONTINUOUS
 62
    7
 10
353.82777393797176
 20
657.02319159746696
 11
371.23428229551729
 21
657.02319159746696
  0
LINE
  8
_0-a_極細1
  6
CONTINUOUS
 62
    7
 10
354.62777385797119
 20
657.82319151746708
 11
371.66094891951735
 21
657.82319151746708
  0
LINE
  8
_0-a_極細1
  6
CONTINUOUS
 62
    7
 10
355.42777377797131
 20
658.6231914374672
 11
372.08761554351742
 21
658.6231914374672
  0
LINE
  8
_0-a_極細1
  6
CONTINUOUS
 62
    7
 10
355.69886681842547
 20
659.42319135746698
 11
372.51428216751748
 21
659.42319135746698
  0
LINE
  8
_0-a_極細1
  6
CONTINUOUS
 62
    7
 10
355.69886681842547
 20
660.22319127746709
 11
372.94094879151714
 21
660.22319127746709
  0
LINE
  8
_0-a_極細1
  6
CONTINUOUS
 62
    7
 10
396.13113153188272
 20
624.7021166538218
 11
396.13113153188272
 21
686.44189206852241
  0
LINE
  8
_0-a_極細1
  6
CONTINUOUS
 62
    7
 10
395.3311316118826
 20
623.90211673382203
 11
395.3311316118826
 21
686.26884587836344
  0
LINE
  8
_0-a_極細1
  6
CONTINUOUS
 62
    7
 10
394.53113169188248
 20
623.10211681382191
 11
394.53113169188248
 21
685.91649285657218
  0
LINE
  8
_0-a_極細1
  6
CONTINUOUS
 62
    7
 10
393.73113177188236
 20
622.30211689382202
 11
393.73113177188236
 21
685.32337980207842
  0
LINE
  8
_0-a_極細1
  6
CONTINUOUS
 62
    7
 10
392.93113185188292
 20
621.50211697382201
 11
392.93113185188292
 21
684.28729680230651
  0
LINE
  8
_0-a_極細1
  6
CONTINUOUS
 62
    7
 10
392.13113193188281
 20
620.70211705382223
 11
392.13113193188281
 21
681.16910675397276
  0
LINE
  8
_0-a_極細1
  6
CONTINUOUS
 62
    7
 10
391.33113201188269
 20
619.90211713382178
 11
391.33113201188269
 21
679.51206567492909
  0
LINE
  8
_0-a_極細1
  6
CONTINUOUS
 62
    7
 10
390.53113209188257
 20
619.26984844036508
 11
390.53113209188257
 21
678.5212972171837
  0
LINE
  8
_0-a_極細1
  6
CONTINUOUS
 62
    7
 10
389.73113217188285
 20
619.26984844036508
 11
389.73113217188285
 21
677.82039501163865
  0
LINE
  8
_0-a_極細1
  6
CONTINUOUS
 62
    7
 10
388.93113225188233
 20
619.26984844036508
 11
388.93113225188233
 21
677.30626357135577
  0
LINE
  8
_0-a_極細1
  6
CONTINUOUS
 62
    7
 10
388.13113233188261
 20
619.26984844036508
 11
388.13113233188261
 21
676.93327643673069
  0
LINE
  8
_0-a_極細1
  6
CONTINUOUS
 62
    7
 10
387.33113241188249
 20
619.26984844036508
 11
387.33113241188249
 21
676.67743281472519
  0
LINE
  8
_0-a_極細1
  6
CONTINUOUS
 62
    7
 10
386.53113249188237
 20
619.26984844036508
 11
386.53113249188237
 21
676.52538836319957
  0
LINE
  8
_0-a_極細1
  6
CONTINUOUS
 62
    7
 10
385.73113257188226
 20
619.26984844036508
 11
385.73113257188226
 21
676.47017648501844
  0
LINE
  8
_0-a_極細1
  6
CONTINUOUS
 62
    7
 10
384.93113265188214
 20
619.26984844036508
 11
384.93113265188214
 21
676.46984272036536
  0
LINE
  8
_0-a_極細1
  6
CONTINUOUS
 62
    7
 10
384.13113273188202
 20
619.26984844036508
 11
384.13113273188202
 21
676.46984272036536
  0
LINE
  8
_0-a_極細1
  6
CONTINUOUS
 62
    7
 10
383.33113281188253
 20
619.26984844036508
 11
383.33113281188253
 21
676.46984272036536
  0
LINE
  8
_0-a_極細1
  6
CONTINUOUS
 62
    7
 10
382.53113289188298
 20
619.26984844036508
 11
382.53113289188298
 21
676.46984272036536
  0
LINE
  8
_0-a_極細1
  6
CONTINUOUS
 62
    7
 10
381.73113297188286
 20
619.26984844036508
 11
381.73113297188286
 21
676.46984272036536
  0
LINE
  8
_0-a_極細1
  6
CONTINUOUS
 62
    7
 10
380.93113305188274
 20
619.26984844036508
 11
380.93113305188274
 21
676.46984272036536
  0
LINE
  8
_0-a_極細1
  6
CONTINUOUS
 62
    7
 10
380.13113313188262
 20
619.26984844036508
 11
380.13113313188262
 21
676.39907858145068
  0
LINE
  8
_0-a_極細1
  6
CONTINUOUS
 62
    7
 10
379.3311332118825
 20
619.26984844036508
 11
379.3311332118825
 21
676.16627942398179
  0
LINE
  8
_0-a_極細1
  6
CONTINUOUS
 62
    7
 10
378.53113329188238
 20
619.26984844036508
 11
378.53113329188238
 21
675.73882661577284
  0
LINE
  8
_0-a_極細1
  6
CONTINUOUS
 62
    7
 10
377.73113337188227
 20
619.26984844036508
 11
377.73113337188227
 21
675.02764611538305
  0
LINE
  8
_0-a_極細1
  6
CONTINUOUS
 62
    7
 10
376.93113345188215
 20
619.26984844036508
 11
376.93113345188215
 21
673.64719872313469
  0
LINE
  8
_0-a_極細1
  6
CONTINUOUS
 62
    7
 10
376.13113353188203
 20
619.26984844036508
 11
376.13113353188203
 21
627.2698476403649
  0
LINE
  8
_0-a_極細1
  6
CONTINUOUS
 62
    7
 10
375.33113361188191
 20
619.26984844036508
 11
375.33113361188191
 21
627.2698476403649
  0
LINE
  8
_0-a_極細1
  6
CONTINUOUS
 62
    7
 10
374.53113369188179
 20
619.26984844036508
 11
374.53113369188179
 21
627.2698476403649
  0
LINE
  8
_0-a_極細1
  6
CONTINUOUS
 62
    7
 10
373.73113377188213
 20
619.26984844036508
 11
373.73113377188213
 21
627.2698476403649
  0
LINE
  8
_0-a_極細1
  6
CONTINUOUS
 62
    7
 10
372.93113385188201
 20
619.26984844036508
 11
372.93113385188201
 21
627.2698476403649
  0
LINE
  8
_0-a_極細1
  6
CONTINUOUS
 62
    7
 10
372.13113393188189
 20
619.26984844036508
 11
372.13113393188189
 21
627.2698476403649
  0
LINE
  8
_0-a_極細1
  6
CONTINUOUS
 62
    7
 10
371.33113401188177
 20
619.26984844036508
 11
371.33113401188177
 21
627.2698476403649
  0
LINE
  8
_0-a_極細1
  6
CONTINUOUS
 62
    7
 10
370.53113409188234
 20
619.26984844036508
 11
370.53113409188234
 21
627.2698476403649
  0
LINE
  8
_0-a_極細1
  6
CONTINUOUS
 62
    7
 10
369.73113417188154
 20
619.26984844036508
 11
369.73113417188154
 21
627.2698476403649
  0
LINE
  8
_0-a_極細1
  6
CONTINUOUS
 62
    7
 10
368.9311342518821
 20
619.26984844036508
 11
368.9311342518821
 21
627.2698476403649
  0
LINE
  8
_0-a_極細1
  6
CONTINUOUS
 62
    7
 10
368.131134331883
 20
611.26984924036492
 11
368.131134331883
 21
635.26984684036495
  0
LINE
  8
_0-a_極細1
  6
CONTINUOUS
 62
    7
 10
367.33113441188345
 20
611.26984924036492
 11
367.33113441188345
 21
635.26984684036495
  0
LINE
  8
_0-a_極細1
  6
CONTINUOUS
 62
    7
 10
366.53113449188334
 20
611.26984924036492
 11
366.53113449188334
 21
614.04337417908278
  0
LINE
  8
_0-a_極細1
  6
CONTINUOUS
 62
    7
 10
366.53113449188334
 20
619.67296440005373
 11
366.53113449188334
 21
635.26984684036495
  0
LINE
  8
_0-a_極細1
  6
CONTINUOUS
 62
    7
 10
365.73113457188322
 20
611.26984924036492
 11
365.73113457188322
 21
611.8588865071597
  0
LINE
  8
_0-a_極細1
  6
CONTINUOUS
 62
    7
 10
365.73113457188322
 20
619.67296440005373
 11
365.73113457188322
 21
635.26984684036495
  0
LINE
  8
_0-a_極細1
  6
CONTINUOUS
 62
    7
 10
364.9311346518831
 20
619.67296440005373
 11
364.9311346518831
 21
635.26984684036495
  0
LINE
  8
_0-a_極細1
  6
CONTINUOUS
 62
    7
 10
364.13113473188298
 20
619.67296440005373
 11
364.13113473188298
 21
635.26984684036495
  0
LINE
  8
_0-a_極細1
  6
CONTINUOUS
 62
    7
 10
363.33113481188286
 20
619.67296440005373
 11
363.33113481188286
 21
635.26984684036495
  0
LINE
  8
_0-a_極細1
  6
CONTINUOUS
 62
    7
 10
362.53113489188274
 20
619.67296440005373
 11
362.53113489188274
 21
635.26984684036495
  0
LINE
  8
_0-a_極細1
  6
CONTINUOUS
 62
    7
 10
361.73113497188262
 20
619.67296440005373
 11
361.73113497188262
 21
635.26984684036495
  0
LINE
  8
_0-a_極細1
  6
CONTINUOUS
 62
    7
 10
360.93113505188251
 20
619.67296440005373
 11
360.93113505188251
 21
635.26984684036495
  0
LINE
  8
_0-a_極細1
  6
CONTINUOUS
 62
    7
 10
360.13113513188239
 20
619.67296440005373
 11
360.13113513188239
 21
635.26984684036495
  0
LINE
  8
_0-a_極細1
  6
CONTINUOUS
 62
    7
 10
359.33113521188272
 20
619.67296440005373
 11
359.33113521188272
 21
635.26984684036495
  0
LINE
  8
_0-a_極細1
  6
CONTINUOUS
 62
    7
 10
358.53113529188261
 20
619.67296440005373
 11
358.53113529188261
 21
635.26984684036495
  0
LINE
  8
_0-a_極細1
  6
CONTINUOUS
 62
    7
 10
357.73113537188249
 20
619.67296440005373
 11
357.73113537188249
 21
635.26984684036495
  0
LINE
  8
_0-a_極細1
  6
CONTINUOUS
 62
    7
 10
346.69886771842567
 20
607.672965600054
 11
346.69886771842567
 21
619.26984844036508
  0
ARC
  8
_0-a_極細1
  6
CONTINUOUS
 62
    7
 10
334.69886891842623
 20
619.67296440005373
 40
11.9999988
 50
358.07490068720404
 51
50.029499419963415
  0
LINE
  8
_0-a_極細1
  6
CONTINUOUS
 62
    7
 10
396.61486272682635
 20
681.02318919746642
 11
401.64645459290324
 21
681.02318919746642
  0
LINE
  8
_0-a_極細1
  6
CONTINUOUS
 62
    7
 10
396.61486272682635
 20
681.82318911746654
 11
408.56745390080351
 21
681.82318911746654
  0
LINE
  8
_0-a_極細1
  6
CONTINUOUS
 62
    7
 10
396.61486272682635
 20
682.62318903746632
 11
415.48845320870339
 21
682.62318903746632
  0
LINE
  8
_0-a_極細1
  6
CONTINUOUS
 62
    7
 10
396.61486272682635
 20
683.42318895746644
 11
422.40945251660366
 21
683.42318895746644
  0
LINE
  8
_0-a_極細1
  6
CONTINUOUS
 62
    7
 10
396.61486272682635
 20
684.22318887746655
 11
424.29885995842585
 21
684.22318887746655
  0
LINE
  8
_0-a_極細1
  6
CONTINUOUS
 62
    7
 10
396.61486272682635
 20
685.02318879746667
 11
424.29885995842585
 21
685.02318879746667
  0
LINE
  8
_0-a_極細1
  6
CONTINUOUS
 62
    7
 10
396.61486272682635
 20
685.82318871746679
 11
424.29885995842585
 21
685.82318871746679
  0
LINE
  8
_0-a_極細1
  6
CONTINUOUS
 62
    7
 10
397.88991144128033
 20
686.62318863746691
 11
424.29885995842585
 21
686.62318863746691
  0
LINE
  8
_0-a_極細1
  6
CONTINUOUS
 62
    7
 10
403.50670785068024
 20
687.42318855746669
 11
424.29885995842585
 21
687.42318855746669
  0
LINE
  8
_0-a_極細1
  6
CONTINUOUS
 62
    7
 10
409.12350426008027
 20
688.22318847746681
 11
424.29885995842585
 21
688.22318847746681
  0
LINE
  8
_0-a_極細1
  6
CONTINUOUS
 62
    7
 10
414.74030066947972
 20
689.02318839746692
 11
424.29885995842585
 21
689.02318839746692
  0
LINE
  8
_0-a_極細1
  6
CONTINUOUS
 62
    7
 10
420.35709707887975
 20
689.8231883174667
 11
424.29885995842585
 21
689.8231883174667
  0
LINE
  8
_0-a_極細1
  6
CONTINUOUS
 62
    7
 10
424.29885995842585
 20
690.44158532319068
 11
424.29885995842585
 21
693.21286910474328
  0
LINE
  8
_0-a_極細1
  6
CONTINUOUS
 62
    7
 10
396.61486272682635
 20
689.26984144036521
 11
424.29885995842585
 21
693.21286910474328
  0
LINE
  8
_0-a_極細1
  6
CONTINUOUS
 62
    7
 10
370.69886531842542
 20
661.67296020005381
 11
370.69886531842542
 21
665.26984384036507
  0
LINE
  8
_0-a_極細1
  6
CONTINUOUS
 62
    7
 10
370.69886531842542
 20
637.27296264005327
 11
370.69886531842542
 21
643.27296204005313
  0
LINE
  8
_0-a_極細1
  6
CONTINUOUS
 62
    7
 10
355.69886681842593
 20
654.89428487792122
 11
355.69886681842593
 21
649.69428539792113
  0
LINE
  8
_0-a_極細1
  6
CONTINUOUS
 62
    7
 10
355.69886681842593
 20
645.69428579792088
 11
355.69886681842593
 21
643.69428599792116
  0
LINE
  8
_0-a_極細1
  6
CONTINUOUS
 62
    7
 10
370.09886537842641
 20
654.89428487792122
 11
370.09886537842641
 21
643.69428599792116
  0
LINE
  8
_0-a_極細1
  6
CONTINUOUS
 62
    7
 10
353.69886701842563
 20
656.89428467792118
 11
355.69886681842593
 21
658.89428447792113
  0
LINE
  8
_0-a_極細1
  6
CONTINUOUS
 62
    7
 10
355.69886681842593
 20
654.89428487792122
 11
353.69886701842563
 21
656.89428467792118
  0
LINE
  8
_0-a_極細1
  6
CONTINUOUS
 62
    7
 10
355.69886681842593
 20
645.69428579792088
 11
353.69886701842563
 21
647.69428559792118
  0
LINE
  8
_0-a_極細1
  6
CONTINUOUS
 62
    7
 10
353.69886701842563
 20
647.69428559792118
 11
355.69886681842593
 21
649.69428539792113
  0
LINE
  8
_0-a_極細1
  6
CONTINUOUS
 62
    7
 10
370.09886537842641
 20
654.89428487792122
 11
373.2988650584258
 21
660.89428427792075
  0
LINE
  8
_0-a_極細1
  6
CONTINUOUS
 62
    7
 10
355.69886681842593
 20
660.89428427792075
 11
355.69886681842593
 21
658.89428447792113
  0
ARC
  8
_0-a_極細1
  6
CONTINUOUS
 62
    7
 10
380.49886433842642
 20
685.2698418403653
 40
1.9999998000000003
 50
24.054548999995859
 51
89.999999999999915
  0
ARC
  8
_0-a_極細1
  6
CONTINUOUS
 62
    7
 10
381.69886421842659
 20
680.06984236036521
 40
0.7999999199999545
 50
269.99999999999977
 51
359.99999999999966
  0
ARC
  8
_0-a_極細1
  6
CONTINUOUS
 62
    7
 10
380.49886433842642
 20
685.2698418403653
 40
1.9999998000000003
 50
0
 51
24.054548999995859
  0
LINE
  8
_0-a_極細1
  6
CONTINUOUS
 62
    7
 10
373.89886499842589
 20
667.26984364036502
 11
373.89886499842697
 21
679.26984244036544
  0
LINE
  8
_0-a_極細1
  6
CONTINUOUS
 62
    7
 10
373.89886499842697
 20
679.26984244036544
 11
381.69886421842659
 21
679.26984244036544
  0
LINE
  8
_0-a_極細1
  6
CONTINUOUS
 62
    7
 10
382.49886413842671
 20
680.06984236036521
 11
382.49886413842671
 21
685.2698418403653
  0
LINE
  8
_0-a_極細1
  6
CONTINUOUS
 62
    7
 10
368.69886551842581
 20
619.26984844036508
 11
390.6988633184252
 21
619.26984844036508
  0
LINE
  8
_0-a_極細1
  6
CONTINUOUS
 62
    7
 10
365.3781298504997
 20
611.26984924036492
 11
368.69886551842581
 21
611.26984924036492
  0
LINE
  8
_0-a_極細1
  6
CONTINUOUS
 62
    7
 10
368.69886551842581
 20
630.06984736036532
 11
373.89886499842589
 21
630.06984736036532
  0
LINE
  8
_0-a_極細1
  6
CONTINUOUS
 62
    7
 10
368.69886551842581
 20
627.2698476403649
 11
376.69886471842585
 21
627.2698476403649
  0
LINE
  8
_0-a_極細1
  6
CONTINUOUS
 62
    7
 10
368.69886551842581
 20
611.26984924036492
 11
368.69886551842581
 21
635.26984684036495
  0
LINE
  8
_0-a_極細1
  6
CONTINUOUS
 62
    7
 10
396.61486272682635
 20
625.18584784876509
 11
390.6988633184252
 21
619.26984844036508
  0
LINE
  8
_0-a_極細1
  6
CONTINUOUS
 62
    7
 10
376.69886471842585
 20
627.2698476403649
 11
376.69886471842631
 21
672.26984314036497
  0
ARC
  8
_0-a_極細1
  6
CONTINUOUS
 62
    7
 10
380.89886429842647
 20
672.26984314036497
 40
4.1999995800000463
 50
89.999999999999915
 51
179.99999999999983
  0
LINE
  8
_0-a_極細1
  6
CONTINUOUS
 62
    7
 10
385.66375982193733
 20
676.46984272036536
 11
380.89886429842647
 21
676.46984272036536
  0
ARC
  8
_0-a_極細1
  6
CONTINUOUS
 62
    7
 10
385.66375982193733
 20
683.26984204036501
 40
6.7999993199999542
 50
269.99999999999977
 51
356.64911199999869
  0
ARC
  8
_0-a_極細1
  6
CONTINUOUS
 62
    7
 10
385.66375982193733
 20
683.26984204036501
 40
3.9999996000000007
 50
269.99999999999977
 51
356.64911200000046
  0
ARC
  8
_0-a_極細1
  6
CONTINUOUS
 62
    7
 10
396.61486272682635
 20
682.26984214036509
 40
6.9999992999999998
 50
89.999999999999915
 51
175.8490099999988
  0
ARC
  8
_0-a_極細1
  6
CONTINUOUS
 62
    7
 10
380.89886429842647
 20
672.26984314036497
 40
6.9999992999999998
 50
89.999999999999915
 51
179.99999999999983
  0
LINE
  8
_0-a_極細1
  6
CONTINUOUS
 62
    7
 10
382.69886411842674
 20
679.26984244036544
 11
382.69886411842674
 21
689.26984144036521
  0
LINE
  8
_0-a_極細1
  6
CONTINUOUS
 62
    7
 10
373.89886499842589
 20
630.06984736036532
 11
373.89886499842589
 21
672.26984314036497
  0
LINE
  8
_0-a_極細1
  6
CONTINUOUS
 62
    7
 10
385.66375982193733
 20
679.26984244036544
 11
380.89886429842647
 21
679.26984244036544
  0
LINE
  8
_0-a_極細1
  6
CONTINUOUS
 62
    7
 10
357.69886661842622
 20
635.26984684036495
 11
373.89886499842589
 21
635.26984684036495
  0
LINE
  8
_0-a_極細1
  6
CONTINUOUS
 62
    7
 10
424.29885995842585
 20
683.64158600319081
 11
396.61486272682635
 21
680.44158632319068
  0
LINE
  8
_0-a_極細1
  6
CONTINUOUS
 62
    7
 10
396.61486272682475
 20
604.44159392319079
 11
390.6988633184252
 21
607.6415936031907
  0
LINE
  8
_0-a_極細1
  6
CONTINUOUS
 62
    7
 10
390.6988633184252
 20
607.6415936031907
 11
390.6988633184252
 21
619.26984844036508
  0
LINE
  8
_0-a_極細1
  6
CONTINUOUS
 62
    7
 10
424.29885995842585
 20
629.86255538109469
 11
424.29885995842585
 21
693.15589705175978
  0
LINE
  8
_0-a_極細1
  6
CONTINUOUS
 62
    7
 10
408.69886151842559
 20
627.6415916031907
 11
424.29885995842585
 21
627.6415916031907
  0
LINE
  8
_0-a_極細1
  6
CONTINUOUS
 62
    7
 10
424.29885995842585
 20
627.6415916031907
 11
424.29885995842585
 21
629.86255538109469
  0
LINE
  8
_0-a_極細1
  6
CONTINUOUS
 62
    7
 10
408.69886151842559
 20
595.6415948031904
 11
408.69886151842559
 21
627.6415916031907
  0
LINE
  8
_0-a_極細1
  6
CONTINUOUS
 62
    7
 10
396.61486272682635
 20
686.44158353818739
 11
424.29885995842585
 21
690.38461332888778
  0
LINE
  8
_0-a_極細1
  6
CONTINUOUS
 62
    7
 10
396.61486272682635
 20
625.18584784876509
 11
396.61486272682635
 21
686.46984172036548
  0
ARC
  8
_0-a_極細1
  6
CONTINUOUS
 62
    7
 10
396.61486272682635
 20
682.26984214036509
 40
4.1999995800000463
 50
89.999999999999915
 51
175.84901000000073
  0
LINE
  8
_0-a_極細1
  6
CONTINUOUS
 62
    7
 10
358.69886651842592
 20
607.672965600054
 11
346.69886771842567
 21
607.672965600054
  0
ARC
  8
_0-a_極細1
  6
CONTINUOUS
 62
    7
 10
358.69886651842592
 20
615.67296480005382
 40
7.9999992000000013
 50
269.99999999999977
 51
359.99999999999966
  0
LINE
  8
_0-a_極細1
  6
CONTINUOUS
 62
    7
 10
366.69886571842591
 20
615.67296480005382
 11
366.69886571842591
 21
619.67296440005373
  0
LINE
  8
_0-a_極細1
  6
CONTINUOUS
 62
    7
 10
366.69886571842591
 20
619.67296440005373
 11
357.69886661842622
 21
619.67296440005373
  0
LINE
  8
_0-a_極細1
  6
CONTINUOUS
 62
    7
 10
370.69886531842542
 20
637.27296264005327
 11
357.69886661842622
 21
637.27296264005327
  0
LINE
  8
_0-a_極細1
  6
CONTINUOUS
 62
    7
 10
357.69886661842622
 20
619.67296440005373
 11
357.69886661842622
 21
637.27296264005361
  0
LINE
  8
_0-a_極細1
  6
CONTINUOUS
 62
    7
 10
369.49886543842632
 20
665.26984384036507
 11
369.49886543842632
 21
669.26984344036498
  0
ARC
  8
_0-a_極細1
  6
CONTINUOUS
 62
    7
 10
371.8988651984256
 20
667.26984364036502
 40
1.9999998000000003
 50
269.99999999999977
 51
359.99999999999966
  0
CIRCLE
  8
_0-a_極細1
  6
CONTINUOUS
 62
    7
 10
374.79958433281433
 20
654.93440448112995
 40
74.460807766258981
  0
ARC
  8
_0-a_極細1
  6
CONTINUOUS
 62
    7
 10
418.69886051842542
 20
578.32108853524164
 40
19.999998000000005
 50
120.00000000000027
 51
161.13978923390164
  0
LINE
  8
_0-a_極細1
  6
CONTINUOUS
 62
    7
 10
388.69886351842536
 20
581.78235781581645
 11
388.69886351842536
 21
604.44159392319079
  0
LINE
  8
_0-a_極細1
  6
CONTINUOUS
 62
    7
 10
407.11578844245679
 20
594.6254548609503
 11
408.69886151842559
 21
596.20852793691961
  0
LINE
  8
_0-a_極細1
  6
CONTINUOUS
 62
    7
 10
388.69886351842536
 20
581.86538362072633
 11
408.69886151842559
 21
601.86538162072645
  0
LINE
  8
_0-a_極細1
  6
CONTINUOUS
 62
    7
 10
388.69886351842536
 20
584.69381046263004
 11
408.69886151842559
 21
604.69380846263005
  0
LINE
  8
_0-a_極細1
  6
CONTINUOUS
 62
    7
 10
388.69886351842536
 20
587.52223730453363
 11
408.69886151842559
 21
607.52223530453352
  0
LINE
  8
_0-a_極細1
  6
CONTINUOUS
 62
    7
 10
388.69886351842536
 20
590.35066414643711
 11
408.69886151842559
 21
610.350662146437
  0
LINE
  8
_0-a_極細1
  6
CONTINUOUS
 62
    7
 10
388.69886351842536
 20
593.17909098834059
 11
408.69886151842559
 21
613.17908898834037
  0
LINE
  8
_0-a_極細1
  6
CONTINUOUS
 62
    7
 10
423.1613641332757
 20
627.6415916031907
 11
424.29885995842585
 21
628.77908742834052
  0
LINE
  8
_0-a_極細1
  6
CONTINUOUS
 62
    7
 10
388.69886351842536
 20
596.00751783024373
 11
408.69886151842559
 21
616.00751583024396
  0
LINE
  8
_0-a_極細1
  6
CONTINUOUS
 62
    7
 10
420.33293729137233
 20
627.6415916031907
 11
424.29885995842625
 21
631.60751427024422
  0
LINE
  8
_0-a_極細1
  6
CONTINUOUS
 62
    7
 10
388.69886351842536
 20
598.83594467214721
 11
394.30451276946889
 21
604.44159392319079
  0
LINE
  8
_0-a_極細1
  6
CONTINUOUS
 62
    7
 10
395.11551758117832
 20
605.25259873489983
 11
408.69886151842559
 21
618.83594267214744
  0
LINE
  8
_0-a_極細1
  6
CONTINUOUS
 62
    7
 10
417.50451044946919
 20
627.64159160319093
 11
424.29885995842585
 21
634.43594111214759
  0
LINE
  8
_0-a_極細1
  6
CONTINUOUS
 62
    7
 10
388.69886351842536
 20
601.66437151405069
 11
391.47608592756626
 21
604.44159392319102
  0
LINE
  8
_0-a_極細1
  6
CONTINUOUS
 62
    7
 10
393.27995667763508
 20
606.24546467326002
 11
408.69886151842559
 21
621.66436951405092
  0
LINE
  8
_0-a_極細1
  6
CONTINUOUS
 62
    7
 10
414.67608360756577
 20
627.6415916031907
 11
424.29885995842585
 21
637.26436795405118
  0
LINE
  8
_0-a_極細1
  6
CONTINUOUS
 62
    7
 10
391.44439577409196
 20
607.2383306116202
 11
408.69886151842559
 21
624.4927963559544
  0
LINE
  8
_0-a_極細1
  6
CONTINUOUS
 62
    7
 10
411.84765676566195
 20
627.6415916031907
 11
424.29885995842585
 21
640.09279479595432
  0
LINE
  8
_0-a_極細1
  6
CONTINUOUS
 62
    7
 10
390.69886331842565
 20
609.3212249978576
 11
408.69886151842559
 21
627.32122319785799
  0
LINE
  8
_0-a_極細1
  6
CONTINUOUS
 62
    7
 10
409.01922992375876
 20
627.6415916031907
 11
424.29885995842585
 21
642.9212216378578
  0
LINE
  8
_0-a_極細1
  6
CONTINUOUS
 62
    7
 10
390.69886331842565
 20
612.14965183976119
 11
424.29885995842585
 21
645.7496484797615
  0
LINE
  8
_0-a_極細1
  6
CONTINUOUS
 62
    7
 10
390.69886331842565
 20
614.97807868166444
 11
424.29885995842625
 21
648.5780753216651
  0
LINE
  8
_0-a_極細1
  6
CONTINUOUS
 62
    7
 10
390.69886331842565
 20
617.80650552356803
 11
424.29885995842625
 21
651.40650216356858
  0
LINE
  8
_0-a_極細1
  6
CONTINUOUS
 62
    7
 10
396.61486272682635
 20
626.55093177387232
 11
424.29885995842585
 21
654.23492900547205
  0
LINE
  8
_0-a_極細1
  6
CONTINUOUS
 62
    7
 10
396.61486272682635
 20
629.37935861577557
 11
424.29885995842585
 21
657.06335584737519
  0
LINE
  8
_0-a_極細1
  6
CONTINUOUS
 62
    7
 10
396.61486272682635
 20
632.20778545767894
 11
424.29885995842585
 21
659.89178268927867
  0
LINE
  8
_0-a_極細1
  6
CONTINUOUS
 62
    7
 10
396.61486272682635
 20
635.03621229958276
 11
424.29885995842585
 21
662.72020953118215
  0
LINE
  8
_0-a_極細1
  6
CONTINUOUS
 62
    7
 10
396.61486272682635
 20
637.86463914148624
 11
424.29885995842625
 21
665.54863637308563
  0
LINE
  8
_0-a_極細1
  6
CONTINUOUS
 62
    7
 10
396.61486272682635
 20
640.6930659833896
 11
424.29885995842625
 21
668.37706321498933
  0
LINE
  8
_0-a_極細1
  6
CONTINUOUS
 62
    7
 10
396.61486272682635
 20
643.52149282529319
 11
424.29885995842625
 21
671.20549005689293
  0
LINE
  8
_0-a_極細1
  6
CONTINUOUS
 62
    7
 10
396.61486272682635
 20
646.34991966719667
 11
424.29885995842585
 21
674.03391689879641
  0
LINE
  8
_0-a_極細1
  6
CONTINUOUS
 62
    7
 10
396.61486272682635
 20
649.17834650910015
 11
424.29885995842585
 21
676.86234374069954
  0
LINE
  8
_0-a_極細1
  6
CONTINUOUS
 62
    7
 10
396.61486272682635
 20
652.00677335100352
 11
424.29885995842585
 21
679.69077058260325
  0
LINE
  8
_0-a_極細1
  6
CONTINUOUS
 62
    7
 10
396.61486272682635
 20
654.83520019290677
 11
424.29885995842625
 21
682.5191974245065
  0
LINE
  8
_0-a_極細1
  6
CONTINUOUS
 62
    7
 10
396.61486272682635
 20
657.66362703481025
 11
422.36984659137136
 21
683.41861089935571
  0
LINE
  8
_0-a_極細1
  6
CONTINUOUS
 62
    7
 10
396.61486272682635
 20
660.49205387671373
 11
419.17175115389239
 21
683.04894230377909
  0
LINE
  8
_0-a_極細1
  6
CONTINUOUS
 62
    7
 10
396.61486272682635
 20
663.3204807186172
 11
415.9736557164116
 21
682.67927370820303
  0
LINE
  8
_0-a_極細1
  6
CONTINUOUS
 62
    7
 10
396.61486272682635
 20
666.14890756052068
 11
412.77556027893263
 21
682.30960511262663
  0
LINE
  8
_0-a_極細1
  6
CONTINUOUS
 62
    7
 10
396.61486272682635
 20
668.9773344024245
 11
409.57746484145184
 21
681.93993651705011
  0
LINE
  8
_0-a_極細1
  6
CONTINUOUS
 62
    7
 10
396.61486272682635
 20
671.80576124432753
 11
406.37936940397231
 21
681.57026792147383
  0
LINE
  8
_0-a_極細1
  6
CONTINUOUS
 62
    7
 10
396.61486272682635
 20
674.63418808623112
 11
403.18127396649277
 21
681.20059932589743
  0
LINE
  8
_0-a_極細1
  6
CONTINUOUS
 62
    7
 10
396.61486272682635
 20
677.4626149281346
 11
399.98317852901312
 21
680.83093073032103
  0
LINE
  8
_0-a_極細1
  6
CONTINUOUS
 62
    7
 10
396.61486272682635
 20
680.29104177003808
 11
396.78508309153301
 21
680.46126213474463
  0
LINE
  8
_0-a_極細1
  6
CONTINUOUS
 62
    7
 10
392.19625861672313
 20
582.53435187712057
 11
408.69886151842559
 21
599.03695477882309
  0
LINE
  8
_0-a_極細1
  6
CONTINUOUS
 62
    7
 10
396.06518192409595
 20
583.57484834259014
 11
402.39449419271716
 21
589.90416061121061
  0
LINE
  8
_0-a_極細1
  6
CONTINUOUS
 62
    7
 10
320.07401466776764
 20
604.44159392319079
 11
396.61486272682475
 21
604.44159392319079
  0
LINE
  8
_0-a_極細1
  6
CONTINUOUS
 62
    7
 10
317.28609085113396
 20
607.6415936031907
 11
390.6988633184252
 21
607.6415936031907
  0
LINE
  8
_0-a_極細1
  6
CONTINUOUS
 62
    7
 10
309.43559320911572
 20
619.26984844036508
 11
346.69886771842567
 21
619.26984844036508
  0
LINE
  8
_0-a_極細1
  6
CONTINUOUS
 62
    7
 10
310.9311959136395
 20
693.21286910474328
 11
424.29885995842585
 21
693.21286910474328
  0
LINE
  8
_0-a_極細1
  6
CONTINUOUS
 62
    7
 10
308.72773206558804
 20
689.26984144036555
 11
396.61486272682635
 21
689.26984144036521
  0
LINE
  8
_0-a_極細1
  6
CONTINUOUS
 62
    7
 10
307.72625582643275
 20
687.26984164036526
 11
380.49886433842642
 21
687.26984164036492
  0
LINE
  8
_0-a_極細1
  6
CONTINUOUS
 62
    7
 10
301.73175910823375
 20
669.26984344036532
 11
369.49886543842632
 21
669.26984344036498
  0
LINE
  8
_0-a_極細1
  6
CONTINUOUS
 62
    7
 10
301.05956408291615
 20
665.26984384036507
 11
371.8988651984256
 21
665.26984384036507
  0
LINE
  8
_0-a_極細1
  6
CONTINUOUS
 62
    7
 10
370.69886531842542
 20
661.67296020005381
 11
300.64431641456895
 21
661.67296020005381
  0
LINE
  8
_0-a_極細1
  6
CONTINUOUS
 62
    7
 10
300.5776756668979
 20
660.89428427792109
 11
373.2988650584258
 21
660.89428427792075
  0
LINE
  8
_0-a_極細1
  6
CONTINUOUS
 62
    7
 10
300.364574002876
 20
656.89428467792118
 11
353.69886701842563
 21
656.89428467792118
  0
LINE
  8
_0-a_極細1
  6
CONTINUOUS
 62
    7
 10
300.69160519587649
 20
647.69428559792118
 11
353.69886701842563
 21
647.69428559792118
  0
LINE
  8
_0-a_極細1
  6
CONTINUOUS
 62
    7
 10
301.19203288809331
 20
643.69428599792116
 11
370.09886537842641
 21
643.69428599792116
  0
LINE
  8
_0-a_極細1
  6
CONTINUOUS
 62
    7
 10
370.69886531842542
 20
643.27296204005313
 11
301.25760548129529
 21
643.27296204005313
  0
LINE
  8
_0-a_極細1
  6
CONTINUOUS
 62
    7
 10
357.69886661842622
 20
637.27296264005361
 11
302.4636640352328
 21
637.27296264005361
  0
LINE
  8
_0-a_極細1
  6
CONTINUOUS
 62
    7
 10
335.33113761188298
 20
612.46984912036544
 11
335.33113761188298
 21
619.26984844036508
  0
LINE
  8
_0-a_極細1
  6
CONTINUOUS
 62
    7
 10
334.53113769188286
 20
612.46984912036544
 11
334.53113769188286
 21
619.26984844036508
  0
LINE
  8
_0-a_極細1
  6
CONTINUOUS
 62
    7
 10
333.73113777188274
 20
612.46984912036544
 11
333.73113777188274
 21
619.26984844036508
  0
LINE
  8
_0-a_極細1
  6
CONTINUOUS
 62
    7
 10
332.93113785188262
 20
612.46984912036544
 11
332.93113785188262
 21
619.26984844036508
  0
LINE
  8
_0-a_極細1
  6
CONTINUOUS
 62
    7
 10
332.13113793188251
 20
612.46984912036544
 11
332.13113793188251
 21
619.26984844036508
  0
LINE
  8
_0-a_極細1
  6
CONTINUOUS
 62
    7
 10
331.33113801188239
 20
612.46984912036544
 11
331.33113801188239
 21
619.26984844036508
  0
LINE
  8
_0-a_極細1
  6
CONTINUOUS
 62
    7
 10
330.53113809188289
 20
612.46984912036544
 11
330.53113809188289
 21
619.26984844036508
  0
LINE
  8
_0-a_極細1
  6
CONTINUOUS
 62
    7
 10
329.73113817188278
 20
612.46984912036544
 11
329.73113817188278
 21
619.26984844036508
  0
LINE
  8
_0-a_極細1
  6
CONTINUOUS
 62
    7
 10
328.93113825188266
 20
612.46984912036544
 11
328.93113825188266
 21
619.26984844036508
  0
LINE
  8
_0-a_極細1
  6
CONTINUOUS
 62
    7
 10
328.13113833188254
 20
612.46984912036544
 11
328.13113833188254
 21
619.26984844036508
  0
LINE
  8
_0-a_極細1
  6
CONTINUOUS
 62
    7
 10
327.33113841188288
 20
612.46984912036544
 11
327.33113841188288
 21
619.26984844036508
  0
LINE
  8
_0-a_極細1
  6
CONTINUOUS
 62
    7
 10
326.5311384918823
 20
612.46984912036544
 11
326.5311384918823
 21
619.26984844036508
  0
LINE
  8
_0-a_極細1
  6
CONTINUOUS
 62
    7
 10
325.73113857188264
 20
612.46984912036544
 11
325.73113857188264
 21
619.26984844036508
  0
LINE
  8
_0-a_極細1
  6
CONTINUOUS
 62
    7
 10
324.93113865188252
 20
612.46984912036544
 11
324.93113865188252
 21
619.26984844036508
  0
LINE
  8
_0-a_極細1
  6
CONTINUOUS
 62
    7
 10
324.1311387318824
 20
612.46984912036544
 11
324.1311387318824
 21
619.26984844036508
  0
LINE
  8
_0-a_極細1
  6
CONTINUOUS
 62
    7
 10
323.33113881188228
 20
612.46984912036544
 11
323.33113881188228
 21
619.26984844036508
  0
LINE
  8
_0-a_極細1
  6
CONTINUOUS
 62
    7
 10
322.53113889188216
 20
612.46984912036544
 11
322.53113889188216
 21
619.26984844036508
  0
LINE
  8
_0-a_極細1
  6
CONTINUOUS
 62
    7
 10
321.73113897188205
 20
612.46984912036544
 11
321.73113897188205
 21
619.26984844036508
  0
LINE
  8
_0-a_極細1
  6
CONTINUOUS
 62
    7
 10
320.9311390518825
 20
612.46984912036544
 11
320.9311390518825
 21
619.26984844036508
  0
LINE
  8
_0-a_極細1
  6
CONTINUOUS
 62
    7
 10
320.13113913188238
 20
612.46984912036544
 11
320.13113913188238
 21
619.26984844036508
  0
LINE
  8
_0-a_極細1
  6
CONTINUOUS
 62
    7
 10
319.33113921188226
 20
612.46984912036544
 11
319.33113921188226
 21
619.26984844036508
  0
LINE
  8
_0-a_極細1
  6
CONTINUOUS
 62
    7
 10
318.53113929188214
 20
612.46984912036544
 11
318.53113929188214
 21
619.26984844036508
  0
LINE
  8
_0-a_極細1
  6
CONTINUOUS
 62
    7
 10
317.73113937188202
 20
612.46984912036544
 11
317.73113937188202
 21
619.26984844036508
  0
LINE
  8
_0-a_極細1
  6
CONTINUOUS
 62
    7
 10
316.9311394518819
 20
612.46984912036544
 11
316.9311394518819
 21
619.26984844036508
  0
LINE
  8
_0-a_極細1
  6
CONTINUOUS
 62
    7
 10
316.13113953188247
 20
612.46984912036544
 11
316.13113953188247
 21
619.26984844036508
  0
LINE
  8
_0-a_極細1
  6
CONTINUOUS
 62
    7
 10
335.84412080390058
 20
612.46984912036544
 11
335.84412080390058
 21
619.26984844036508
  0
LINE
  8
_0-a_極細1
  6
CONTINUOUS
 62
    7
 10
315.84412280390035
 20
612.46984912036544
 11
315.84412280390035
 21
619.26984844036508
  0
LINE
  8
_0-a_極細1
  6
CONTINUOUS
 62
    7
 10
315.84412280390035
 20
612.46984912036544
 11
335.84412080390058
 21
612.46984912036544
  0
ARC
  8
_0-a_極細1
  6
CONTINUOUS
 62
    7
 10
328.69886951842574
 20
609.16994945035538
 40
23.9999976
 50
55.166292356154635
 51
148.68484545273023
  0
LINE
  8
_0-a_極細1
  6
CONTINUOUS
 62
    7
 10
346.64701297403701
 20
619.26984844036508
 11
346.64701297403701
 21
620.7873363426188
  0
LINE
  8
_0-a_極細1
  6
CONTINUOUS
 62
    7
 10
345.44701297403691
 20
619.26984844036508
 11
345.44701297403691
 21
625.00938366392734
  0
LINE
  8
_0-a_極細1
  6
CONTINUOUS
 62
    7
 10
344.24701297403692
 20
619.26984844036508
 11
344.24701297403692
 21
626.94158987488083
  0
LINE
  8
_0-a_極細1
  6
CONTINUOUS
 62
    7
 10
343.04701297403699
 20
619.26984844036508
 11
343.04701297403699
 21
628.29320001323583
  0
LINE
  8
_0-a_極細1
  6
CONTINUOUS
 62
    7
 10
341.84701297403706
 20
619.26984844036508
 11
341.84701297403706
 21
629.24795255003323
  0
LINE
  8
_0-a_極細1
  6
CONTINUOUS
 62
    7
 10
340.6470129740369
 20
619.26984844036508
 11
340.6470129740369
 21
629.98440963466339
  0
LINE
  8
_0-a_極細1
  6
CONTINUOUS
 62
    7
 10
339.44701297403691
 20
619.26984844036508
 11
339.44701297403691
 21
630.62868420004668
  0
LINE
  8
_0-a_極細1
  6
CONTINUOUS
 62
    7
 10
338.24701297403692
 20
619.26984844036508
 11
338.24701297403692
 21
631.18886952721391
  0
LINE
  8
_0-a_極細1
  6
CONTINUOUS
 62
    7
 10
337.04701297403699
 20
619.26984844036508
 11
337.04701297403699
 21
631.67124687171633
  0
LINE
  8
_0-a_極細1
  6
CONTINUOUS
 62
    7
 10
335.84701297403706
 20
619.26984844036508
 11
335.84701297403706
 21
632.0807314085954
  0
LINE
  8
_0-a_極細1
  6
CONTINUOUS
 62
    7
 10
334.6470129740369
 20
619.26984844036508
 11
334.6470129740369
 21
632.42117467036201
  0
LINE
  8
_0-a_極細1
  6
CONTINUOUS
 62
    7
 10
333.44701297403691
 20
619.26984844036508
 11
333.44701297403691
 21
632.69557417160217
  0
LINE
  8
_0-a_極細1
  6
CONTINUOUS
 62
    7
 10
332.24701297403692
 20
619.26984844036508
 11
332.24701297403692
 21
632.90622048896637
  0
LINE
  8
_0-a_極細1
  6
CONTINUOUS
 62
    7
 10
331.04701297403699
 20
619.26984844036508
 11
331.04701297403699
 21
633.05480044658043
  0
LINE
  8
_0-a_極細1
  6
CONTINUOUS
 62
    7
 10
329.84701297403706
 20
619.26984844036508
 11
329.84701297403706
 21
633.14246812081103
  0
LINE
  8
_0-a_極細1
  6
CONTINUOUS
 62
    7
 10
328.6470129740369
 20
619.26984844036508
 11
328.6470129740369
 21
633.16989102734271
  0
LINE
  8
_0-a_極細1
  6
CONTINUOUS
 62
    7
 10
327.44701297403691
 20
619.26984844036508
 11
327.44701297403691
 21
633.13727595942339
  0
LINE
  8
_0-a_極細1
  6
CONTINUOUS
 62
    7
 10
326.24701297403635
 20
619.26984844036508
 11
326.24701297403635
 21
633.04437686308597
  0
LINE
  8
_0-a_極細1
  6
CONTINUOUS
 62
    7
 10
325.04701297403636
 20
619.26984844036508
 11
325.04701297403636
 21
632.89048545988123
  0
LINE
  8
_0-a_極細1
  6
CONTINUOUS
 62
    7
 10
323.84701297403637
 20
619.26984844036508
 11
323.84701297403637
 21
632.67440377017897
  0
LINE
  8
_0-a_極細1
  6
CONTINUOUS
 62
    7
 10
322.64701297403644
 20
619.26984844036508
 11
322.64701297403644
 21
632.39439599200909
  0
LINE
  8
_0-a_極細1
  6
CONTINUOUS
 62
    7
 10
321.44701297403651
 20
619.26984844036508
 11
321.44701297403651
 21
632.04811505556961
  0
LINE
  8
_0-a_極細1
  6
CONTINUOUS
 62
    7
 10
320.24701297403635
 20
619.26984844036508
 11
320.24701297403635
 21
631.63249618381985
  0
LINE
  8
_0-a_極細1
  6
CONTINUOUS
 62
    7
 10
319.04701297403636
 20
619.26984844036508
 11
319.04701297403636
 21
631.14360526923406
  0
LINE
  8
_0-a_極細1
  6
CONTINUOUS
 62
    7
 10
317.84701297403637
 20
619.26984844036508
 11
317.84701297403637
 21
630.57642263815535
  0
LINE
  8
_0-a_極細1
  6
CONTINUOUS
 62
    7
 10
316.64701297403644
 20
619.26984844036508
 11
316.64701297403644
 21
629.92453059846491
  0
LINE
  8
_0-a_極細1
  6
CONTINUOUS
 62
    7
 10
315.44701297403651
 20
619.26984844036508
 11
315.44701297403651
 21
629.17965167020191
  0
LINE
  8
_0-a_極細1
  6
CONTINUOUS
 62
    7
 10
314.24701297403635
 20
619.26984844036508
 11
314.24701297403635
 21
628.33094439373963
  0
LINE
  8
_0-a_極細1
  6
CONTINUOUS
 62
    7
 10
313.04701297403636
 20
619.26984844036508
 11
313.04701297403636
 21
627.3638844704069
  0
LINE
  8
_0-a_極細1
  6
CONTINUOUS
 62
    7
 10
311.84701297403637
 20
619.26984844036508
 11
311.84701297403637
 21
626.25839045026305
  0
LINE
  8
_0-a_極細1
  6
CONTINUOUS
 62
    7
 10
310.64701297403644
 20
619.26984844036508
 11
310.64701297403644
 21
624.98545956229259
  0
LINE
  8
_0-a_極細1
  6
CONTINUOUS
 62
    7
 10
309.44701297403651
 20
619.26984844036508
 11
309.44701297403651
 21
623.50054275259731
  0
LINE
  8
_0-a_極細1
  6
CONTINUOUS
 62
    7
 10
308.24701297403635
 20
621.54028615561344
 11
308.24701297403635
 21
621.72866947620685
  0
LINE
  8
_0-d_寸法1
  6
CONTINUOUS
 62
    7
 10
416.32524548109842
 20
685.64567048902552
 11
421.22354415540565
 21
696.60042608179333
  0
LINE
  8
_0-d_寸法1
  6
CONTINUOUS
 62
    7
 10
416.32524548109842
 20
685.64567048902552
 11
426.04467436475613
 21
692.68361778745862
  0
LINE
  8
_0-d_寸法1
  6
CONTINUOUS
 62
    7
 10
416.32524548109842
 20
685.64567048902552
 11
440.87477079586608
 21
715.8632479720543
  0
LINE
  8
_0-d_寸法1
  6
CONTINUOUS
 62
    7
 10
440.87477079586608
 20
715.8632479720543
 11
498.47477079586599
 21
715.8632479720543
  0
TEXT
  8
_0-d_寸法1
 62
    7
 10
440.87477079586608
 20
715.8632479720543
 40
18
 41
0.8000000000000001
 50
0
  1
パッキン
  0
LINE
  8
_0-d_寸法1
  6
CONTINUOUS
 62
    7
 10
364.68098671231462
 20
649.11020046175565
 11
373.1662256240798
 21
640.62487662525621
  0
LINE
  8
_0-d_寸法1
  6
CONTINUOUS
 62
    7
 10
364.68098671231462
 20
649.11020046175565
 11
367.78675724883374
 21
637.51907500412688
  0
LINE
  8
_0-d_寸法1
  6
CONTINUOUS
 62
    7
 10
364.68098671231462
 20
649.11020046175565
 11
409.56736490543392
 21
571.36381436726401
  0
LINE
  8
_0-d_寸法1
  6
CONTINUOUS
 62
    7
 10
409.56736490543392
 20
571.36381436726401
 11
553.56736490543392
 21
571.36381436726401
  0
TEXT
  8
_0-d_寸法1
 62
    7
 10
409.56736490543392
 20
571.36381436726401
 40
18
 41
0.8000000000000001
 50
0
  1
防臭インナーパッキン
  0
LINE
  8
_0-d_寸法1
  6
CONTINUOUS
 62
    7
 10
415.50084865371889
 20
633.34254578348441
 11
423.9865237242426
 21
624.8576581237985
  0
LINE
  8
_0-d_寸法1
  6
CONTINUOUS
 62
    7
 10
415.50084865371889
 20
633.34254578348441
 11
418.60721500320972
 21
621.75157998667737
  0
LINE
  8
_0-d_寸法1
  6
CONTINUOUS
 62
    7
 10
415.50084865371889
 20
633.34254578348441
 11
437.90852427605989
 21
594.53547153355726
  0
LINE
  8
_0-d_寸法1
  6
CONTINUOUS
 62
    7
 10
437.90852427605989
 20
594.53547153355726
 11
538.70852427605996
 21
594.53547153355726
  0
TEXT
  8
_0-d_寸法1
 62
    7
 10
437.90852427605989
 20
594.53547153355726
 40
18
 41
0.8000000000000001
 50
0
  1
ロックフランジ
  0
TEXT
  8
_0-7_枠細線
 62
    5
 10
312.81064106071653
 20
518.12901313693578
 40
30
 41
0.8
 50
0
  1
Ｃ部拡大図
  0
LINE
  8
_0-1_計細線
  6
CONTINUOUS
 62
    3
 10
596.5
 20
944.15638321366578
 11
596.5
 21
805.15638321366578
  0
LINE
  8
_0-1_計細線
  6
CONTINUOUS
 62
    3
 10
596.5
 20
805.15638321366578
 11
1185.5
 21
805.15638321366578
  0
LINE
  8
_0-1_計細線
  6
CONTINUOUS
 62
    3
 10
1185.5
 20
805.15638321366578
 11
1185.5
 21
944.15638321366578
  0
LINE
  8
_0-1_計細線
  6
CONTINUOUS
 62
    3
 10
1185.5
 20
944.15638321366578
 11
596.5
 21
944.15638321366578
  0
LINE
  8
_0-1_計細線
  6
CONTINUOUS
 62
    3
 10
594
 20
802.65638321366566
 11
594
 21
946.65638321366566
  0
LINE
  8
_0-1_計細線
  6
CONTINUOUS
 62
    3
 10
594
 20
946.65638321366566
 11
1188
 21
946.65638321366566
  0
LINE
  8
_0-1_計細線
  6
CONTINUOUS
 62
    3
 10
1188
 20
946.65638321366566
 11
1188
 21
802.65638321366566
  0
LINE
  8
_0-1_計細線
  6
CONTINUOUS
 62
    3
 10
1188
 20
802.65638321366566
 11
594
 21
802.65638321366566
  0
LINE
  8
_0-0_計極細
  6
CENTER2
 62
    2
 10
586.45149030505672
 20
874.65638321366566
 11
1200.6024337012832
 21
874.65638321366566
  0
ARC
  8
_0-1_計細線
  6
DASHED2
 62
    3
 10
609.99999999999909
 20
930.65638321366578
 40
12.499999999999998
 50
233.13010235415936
 51
36.869897645840759
  0
ARC
  8
_0-1_計細線
  6
CONTINUOUS
 62
    3
 10
609.99999999999909
 20
930.65638321366578
 40
12.499999999999998
 50
36.8698976458411
 51
233.13010235415564
  0
ARC
  8
_0-1_計細線
  6
DASHED2
 62
    3
 10
609.99999999999932
 20
818.65638321366578
 40
12.499999999999998
 50
323.11949922673051
 51
126.86989764584366
  0
ARC
  8
_0-1_計細線
  6
CONTINUOUS
 62
    3
 10
609.99999999999932
 20
818.65638321366578
 40
12.499999999999998
 50
126.86989764584402
 51
323.11949922673051
  0
LINE
  8
_0-1_計細線
  6
CONTINUOUS
 62
    3
 10
602.49999999999955
 20
894.65638321366578
 11
599.50000000000068
 21
894.65638321366657
  0
ARC
  8
_0-1_計細線
  6
CONTINUOUS
 62
    3
 10
599.50000000000068
 20
892.65638321366669
 40
2
 50
89.999999999999915
 51
180.00000000002569
  0
LINE
  8
_0-1_計細線
  6
CONTINUOUS
 62
    3
 10
597.50000000000068
 20
892.65638321366566
 11
597.50000000000068
 21
856.65638321366566
  0
LINE
  8
_0-1_計細線
  6
CONTINUOUS
 62
    3
 10
599.50000000000068
 20
854.65638321366669
 11
602.49999999999955
 21
854.65638321366578
  0
ARC
  8
_0-1_計細線
  6
CONTINUOUS
 62
    3
 10
599.50000000000068
 20
856.65638321366669
 40
2
 50
180.00000000002569
 51
269.99999999999977
  0
LINE
  8
_0-1_計細線
  6
CONTINUOUS
 62
    3
 10
599.50000000000068
 20
859.65638321366566
 11
602.49999999999955
 21
859.65638321366566
  0
LINE
  8
_0-1_計細線
  6
CONTINUOUS
 62
    3
 10
599.50000000000068
 20
889.65638321366566
 11
599.50000000000068
 21
859.65638321366566
  0
LINE
  8
_0-1_計細線
  6
CONTINUOUS
 62
    3
 10
602.49999999999955
 20
889.65638321366566
 11
599.50000000000068
 21
889.65638321366566
  0
LINE
  8
_0-1_計細線
  6
DASHED2
 62
    3
 10
602.49999999999955
 20
894.65638321366578
 11
610.00000000000068
 21
894.65638321366578
  0
LINE
  8
_0-1_計細線
  6
DASHED2
 62
    3
 10
610.00000000000068
 20
854.65638321366578
 11
602.49999999999955
 21
854.65638321366578
  0
LINE
  8
_0-1_計細線
  6
DASHED2
 62
    3
 10
610.00000000000068
 20
894.65638321366578
 11
610.00000000000068
 21
854.65638321366578
  0
ARC
  8
_0-1_計細線
  6
CONTINUOUS
 62
    3
 10
1146.6168456737496
 20
888.86262319618663
 40
0.501740082747087
 50
330.00000000003996
 51
20.189990999990084
  0
ARC
  8
_0-1_計細線
  6
CONTINUOUS
 62
    3
 10
1146.6168456737496
 20
860.46301342017739
 40
0.501740082747087
 50
339.81000900000919
 51
29.999999999959307
  0
LINE
  8
_0-1_計細線
  6
CONTINUOUS
 62
    3
 10
1109.3056521475482
 20
876.92065771190119
 11
1108.0020840521329
 21
879.1784971156203
  0
LINE
  8
_0-1_計細線
  6
CONTINUOUS
 62
    3
 10
1109.3056521475482
 20
876.92065771190119
 11
1089.1657607918014
 21
911.80396943320784
  0
LINE
  8
_0-1_計細線
  6
CONTINUOUS
 62
    3
 10
1109.3056521475482
 20
876.92065771190119
 11
1111.9127823174749
 21
876.92065771190119
  0
LINE
  8
_0-1_計細線
  6
CONTINUOUS
 62
    3
 10
1105.3949599031121
 20
874.66281830818116
 11
1085.2550685473616
 21
909.54613002949009
  0
ARC
  8
_0-1_計細線
  6
CONTINUOUS
 62
    3
 10
1076.3973116885572
 20
848.32135859812115
 40
0.501740082747087
 50
219.81000899998574
 51
269.99999999999977
  0
LINE
  8
_0-1_計細線
  6
CONTINUOUS
 62
    3
 10
1109.3056521475482
 20
872.40497890446204
 11
1089.1657607918014
 21
837.52166718315493
  0
LINE
  8
_0-1_計細線
  6
CONTINUOUS
 62
    3
 10
1105.3949599031121
 20
874.66281830818116
 11
1085.2550685473616
 21
839.77950658687405
  0
ARC
  8
_0-1_計細線
  6
CONTINUOUS
 62
    3
 10
1108.0020840521329
 20
874.66281830818116
 40
46.4111412917104
 50
89.999999999999915
 51
269.99999999999977
  0
ARC
  8
_0-1_計細線
  6
CONTINUOUS
 62
    3
 10
1108.0020840521329
 20
874.66281830818116
 40
57.198598227560829
 50
89.999999999999915
 51
269.99999999999977
  0
CIRCLE
  8
_0-1_計細線
  6
CONTINUOUS
 62
    3
 10
1108.0020840521329
 20
874.66281830818116
 40
58.202084413960065
  0
LINE
  8
_0-1_計細線
  6
CONTINUOUS
 62
    3
 10
1109.3056521475482
 20
876.92065771190119
 11
1149.5854288381388
 21
876.92065771190119
  0
LINE
  8
_0-1_計細線
  6
CONTINUOUS
 62
    3
 10
1109.3056521475482
 20
872.40497890446204
 11
1149.5854288381388
 21
872.40497890446204
  0
ARC
  8
_0-1_計細線
  6
CONTINUOUS
 62
    3
 10
1108.0020840521329
 20
874.66281830818116
 40
46.4111412917104
 50
269.99999999999977
 51
89.999999999999545
  0
ARC
  8
_0-1_計細線
  6
CONTINUOUS
 62
    3
 10
1108.0020840521329
 20
874.66281830818116
 40
57.198598227560829
 50
269.99999999999977
 51
89.999999999999545
  0
ARC
  8
_0-1_計細線
  6
CONTINUOUS
 62
    3
 10
1108.0020840521329
 20
874.66281830818116
 40
41.644595453350369
 50
89.999999999999915
 51
116.89207624474167
  0
ARC
  8
_0-1_計細線
  6
CONTINUOUS
 62
    3
 10
1108.0020840521329
 20
874.66281830818116
 40
41.644595453350369
 50
123.10791868694014
 51
236.89208131305782
  0
ARC
  8
_0-1_計細線
  6
CONTINUOUS
 62
    3
 10
1108.0020840521329
 20
874.66281830818116
 40
41.644595453350369
 50
243.10792375525659
 51
269.99999999999977
  0
ARC
  8
_0-1_計細線
  6
CONTINUOUS
 62
    3
 10
1108.0020840521329
 20
874.66281830818116
 40
41.644595453350369
 50
269.99999999999977
 51
356.8920785890931
  0
ARC
  8
_0-1_計細線
  6
CONTINUOUS
 62
    3
 10
1108.0020840521329
 20
874.66281830818116
 40
41.644595453350369
 50
3.1079214109077964
 51
89.999999999999915
  0
ARC
  8
_0-0_計極細
  6
CONTINUOUS
 62
    2
 10
1108.0020840521329
 20
874.66281830818116
 40
50.153133796808191
 50
269.99999999999977
 51
89.999999999999545
  0
ARC
  8
_0-0_計極細
  6
CONTINUOUS
 62
    2
 10
1108.0020840521329
 20
874.66281830818116
 40
50.153133796808191
 50
89.999999999999915
 51
269.99999999999977
  0
ARC
  8
_0-0_計極細
  6
CONTINUOUS
 62
    2
 10
1094.3870830076257
 20
845.5617760785899
 40
0.501740082747087
 50
149.99997568607938
 51
210.00002243784951
  0
ARC
  8
_0-0_計極細
  6
CONTINUOUS
 62
    2
 10
1108.2917678580816
 20
868.64191323159491
 40
1.0034861863992508
 50
29.999999999951111
 51
149.99999999997101
  0
ARC
  8
_0-0_計極細
  6
CONTINUOUS
 62
    2
 10
1108.2917678580816
 20
868.64191323159491
 40
1.0034861863992508
 50
29.999999999951111
 51
106.77865499997519
  0
ARC
  8
_0-0_計極細
  6
CONTINUOUS
 62
    2
 10
1102.6429908406608
 20
871.90323882171469
 40
1.0034861863992508
 50
329.99999999995163
 51
89.999999999999545
  0
ARC
  8
_0-0_計極細
  6
CONTINUOUS
 62
    2
 10
1067.5068677520949
 20
881.94157910727426
 40
0.501740082747087
 50
89.993779916795503
 51
169.8086801233749
  0
ARC
  8
_0-0_計極細
  6
CONTINUOUS
 62
    2
 10
1067.5053020466621
 20
867.39105577451983
 40
0.501740082747087
 50
190.17882981053808
 51
269.99383436904543
  0
ARC
  8
_0-0_計極細
  6
CONTINUOUS
 62
    2
 10
1067.4535697560559
 20
877.42590470481537
 40
1.0034861863992508
 50
176.10042624738318
 51
269.99385985774035
  0
ARC
  8
_0-0_計極細
  6
CONTINUOUS
 62
    2
 10
1108.0020840521329
 20
874.66281830818116
 40
37.630656728658437
 50
317.45760300000074
 51
327.38710799999916
  0
ARC
  8
_0-0_計極細
  6
CONTINUOUS
 62
    2
 10
1108.0020840521329
 20
874.66281830818116
 40
37.630656728658437
 50
32.612892000001082
 51
42.54239699999939
  0
LINE
  8
_0-0_計極細
  6
CONTINUOUS
 62
    2
 10
1143.1763018231204
 20
855.38388025295581
 11
1134.2182126021198
 21
870.89975263531733
  0
LINE
  8
_0-0_計極細
  6
CONTINUOUS
 62
    2
 10
1141.7694752056414
 20
850.79618539989497
 11
1129.4384749607361
 21
872.15410585263544
  0
LINE
  8
_0-0_計極細
  6
CONTINUOUS
 62
    2
 10
1137.1475394654099
 20
846.75980074107747
 11
1123.2103363523211
 21
870.89975263531733
  0
LINE
  8
_0-0_計極細
  6
CONTINUOUS
 62
    2
 10
1143.1763018231204
 20
893.94175636340788
 11
1134.2182126021198
 21
878.42588398104726
  0
LINE
  8
_0-0_計極細
  6
CONTINUOUS
 62
    2
 10
1141.7694752056414
 20
898.52945121646826
 11
1129.4384749607361
 21
877.17153076372733
  0
LINE
  8
_0-0_計極細
  6
CONTINUOUS
 62
    2
 10
1137.1475394654099
 20
902.56582985438172
 11
1123.2103363523211
 21
878.42588398104726
  0
LINE
  8
_0-0_計極細
  6
CONTINUOUS
 62
    2
 10
1105.9951177002395
 20
847.64318191300981
 11
1105.9951177002395
 21
855.56059381695377
  0
LINE
  8
_0-0_計極細
  6
CONTINUOUS
 62
    2
 10
1106.4968577829868
 20
847.6105907538298
 11
1106.4968577829868
 21
854.69155444091484
  0
ARC
  8
_0-0_計極細
  6
CONTINUOUS
 62
    2
 10
1108.0020840521329
 20
874.66281830818116
 40
37.630656728658437
 50
213.59599499999973
 51
225.50677599999941
  0
LINE
  8
_0-0_計極細
  6
CONTINUOUS
 62
    2
 10
1134.9844209403554
 20
843.48205012191147
 11
1118.4305987109374
 21
872.15410585263544
  0
LINE
  8
_0-0_計極細
  6
CONTINUOUS
 62
    2
 10
1129.7965682901668
 20
840.42586278865554
 11
1112.2024601025214
 21
870.89975263531733
  0
LINE
  8
_0-0_計極細
  6
CONTINUOUS
 62
    2
 10
1111.7874993246432
 20
833.48608330471177
 11
1099.456499079738
 21
854.8440037574527
  0
LINE
  8
_0-0_計極細
  6
CONTINUOUS
 62
    2
 10
1117.5940782432162
 20
835.47060372247961
 11
1103.6568751301265
 21
859.61055561671844
  0
LINE
  8
_0-0_計極細
  6
CONTINUOUS
 62
    2
 10
1121.5142594340568
 20
835.70504572435357
 11
1104.9604372046388
 21
864.37710747598385
  0
LINE
  8
_0-0_計極細
  6
CONTINUOUS
 62
    2
 10
1126.7549154217677
 20
838.66976948858871
 11
1109.1608132550273
 21
869.14365331434362
  0
LINE
  8
_0-0_計極細
  6
CONTINUOUS
 62
    2
 10
1076.3973116885572
 20
847.81961851537415
 11
1089.6073460119287
 21
847.81961851537415
  0
ARC
  8
_0-0_計極細
  6
CONTINUOUS
 62
    2
 10
1086.1311764659613
 20
843.30393970793455
 40
1.0034861863992508
 50
329.99999999997061
 51
89.999999999999545
  0
ARC
  8
_0-0_計極細
  6
CONTINUOUS
 62
    2
 10
1108.0020840521329
 20
874.66281830818116
 40
37.630656728658437
 50
233.77152299999938
 51
236.31964599999873
  0
ARC
  8
_0-0_計極細
  6
CONTINUOUS
 62
    2
 10
1082.1501961756594
 20
843.30393970793455
 40
1.0034861863992508
 50
89.999999999999915
 51
230.49822999997428
  0
LINE
  8
_0-0_計極細
  6
CONTINUOUS
 62
    2
 10
1082.1501961756594
 20
844.3074198734289
 11
1086.1311764659613
 21
844.3074198734289
  0
ARC
  8
_0-0_計極細
  6
CONTINUOUS
 62
    2
 10
1108.0020840521329
 20
874.66281830818116
 40
37.630656728658437
 50
272.61289199999942
 51
282.54239699999982
  0
ARC
  8
_0-0_計極細
  6
CONTINUOUS
 62
    2
 10
1112.2220220231147
 20
833.73695635653758
 40
0.501740082747087
 50
210.00000000000426
 51
275.88706199997517
  0
LINE
  8
_0-0_計極細
  6
CONTINUOUS
 62
    2
 10
1107.1110262262282
 20
834.56157951582827
 11
1098.1529370052276
 21
850.07745791909383
  0
LINE
  8
_0-0_計極細
  6
CONTINUOUS
 62
    2
 10
1100.5575781165235
 20
833.87068065829123
 11
1093.9525609548391
 21
845.31090605982888
  0
ARC
  8
_0-0_計極細
  6
CONTINUOUS
 62
    2
 10
1108.0020840521329
 20
874.66281830818116
 40
37.630656728658437
 50
254.49322399999932
 51
266.40400499999907
  0
ARC
  8
_0-0_計極細
  6
CONTINUOUS
 62
    2
 10
1089.6073460119287
 20
848.32135859812115
 40
0.501740082747087
 50
269.99999999999977
 51
329.99999999989114
  0
ARC
  8
_0-0_計極細
  6
CONTINUOUS
 62
    2
 10
1093.7704466389869
 20
836.59498366191292
 40
1.0034861863992508
 50
249.50177000005806
 51
29.999999999976708
  0
LINE
  8
_0-0_計極細
  6
CONTINUOUS
 62
    2
 10
1094.6394860150276
 20
837.09672374466027
 11
1092.6489988803287
 21
840.54435420056177
  0
ARC
  8
_0-0_計極細
  6
CONTINUOUS
 62
    2
 10
1097.2838916082828
 20
849.57571181544233
 40
1.0034861863992508
 50
29.999999999977071
 51
149.99999999999699
  0
ARC
  8
_0-0_計極細
  6
CONTINUOUS
 62
    2
 10
1108.0020840521329
 20
874.66281830818116
 40
27.094072844634088
 50
244.78019200000111
 51
249.77896100000117
  0
ARC
  8
_0-0_計極細
  6
CONTINUOUS
 62
    2
 10
1108.0020840521329
 20
874.66281830818116
 40
37.630656728658437
 50
243.68035399999945
 51
246.22847699999838
  0
ARC
  8
_0-0_計極細
  6
CONTINUOUS
 62
    2
 10
1091.7799534833839
 20
840.04261411781681
 40
1.0034861863992508
 50
29.999999999977071
 51
150.00000000002294
  0
ARC
  8
_0-0_計極細
  6
CONTINUOUS
 62
    2
 10
1106.2419868501902
 20
834.05983943308274
 40
1.0034861863992508
 50
267.5178359999677
 51
30.000000000002665
  0
ARC
  8
_0-0_計極細
  6
CONTINUOUS
 62
    2
 10
1100.992100814995
 20
834.12155371011704
 40
0.501740082747087
 50
210.00000000010814
 51
260.18999100005101
  0
ARC
  8
_0-0_計極細
  6
CONTINUOUS
 62
    2
 10
1108.0020840521329
 20
874.66281830818116
 40
27.094072844634088
 50
260.29098299999907
 51
275.37568199999987
  0
ARC
  8
_0-0_計極細
  6
CONTINUOUS
 62
    2
 10
1108.0020840521329
 20
874.66281830818116
 40
37.630656728658437
 50
288.07291800000053
 51
297.3252259999997
  0
ARC
  8
_0-0_計極細
  6
CONTINUOUS
 62
    2
 10
1108.0020840521329
 20
874.66281830818116
 40
27.094072844634088
 50
283.31934900000118
 51
296.2837799999993
  0
ARC
  8
_0-0_計極細
  6
CONTINUOUS
 62
    2
 10
1121.9487761116225
 20
835.95591877617971
 40
0.501740082747087
 50
210.00000000010814
 51
289.81487200010849
  0
ARC
  8
_0-0_計極細
  6
CONTINUOUS
 62
    2
 10
1116.7250328462724
 20
834.96886363973317
 40
1.0034861863992508
 50
282.39403400005705
 51
30.000000000002665
  0
ARC
  8
_0-0_計極細
  6
CONTINUOUS
 62
    2
 10
1108.0020840521329
 20
874.66281830818116
 40
37.630656728658437
 50
302.67477399999865
 51
311.92708199999919
  0
ARC
  8
_0-0_計極細
  6
CONTINUOUS
 62
    2
 10
1130.6656076662048
 20
840.9276088923084
 40
1.0034861863992508
 50
210.00000000002515
 51
303.89345000001418
  0
ARC
  8
_0-0_計極細
  6
CONTINUOUS
 62
    2
 10
1134.5498982418831
 20
843.23117707008578
 40
0.501740082747087
 50
310.18512800003361
 51
29.999999999907399
  0
ARC
  8
_0-0_計極細
  6
CONTINUOUS
 62
    2
 10
1125.8858760457288
 20
838.16802338493608
 40
1.0034861863992508
 50
296.10655000002453
 51
29.999999999999204
  0
LINE
  8
_0-0_計極細
  6
CONTINUOUS
 62
    2
 10
1073.71892410705
 20
853.84052359195994
 11
1091.6351145908602
 21
853.84052359195994
  0
ARC
  8
_0-0_計極細
  6
CONTINUOUS
 62
    2
 10
1086.1311764659613
 20
906.02169690842948
 40
1.0034861863992508
 50
269.99999999999977
 51
30.000000000051159
  0
LINE
  8
_0-0_計極細
  6
CONTINUOUS
 62
    2
 10
1076.3973116885572
 20
901.50601810098988
 11
1089.6073460119287
 21
901.50601810098988
  0
LINE
  8
_0-0_計極細
  6
CONTINUOUS
 62
    2
 10
1073.71892410705
 20
895.48511302440329
 11
1091.6351145908602
 21
895.48511302440329
  0
LINE
  8
_0-0_計極細
  6
CONTINUOUS
 62
    2
 10
1070.4492836470208
 20
891.9729204033647
 11
1095.1112841368276
 21
891.9729204033647
  0
LINE
  8
_0-0_計極細
  6
CONTINUOUS
 62
    2
 10
1069.2646404686766
 20
885.95201532677947
 11
1097.139052715761
 21
885.95201532677947
  0
LINE
  8
_0-0_計極細
  6
CONTINUOUS
 62
    2
 10
1067.5075838237963
 20
882.43982270573906
 11
1100.6152222617266
 21
882.43982270573906
  0
LINE
  8
_0-0_計極細
  6
CONTINUOUS
 62
    2
 10
1067.4547744653692
 20
876.41891762915384
 11
1102.6429908406608
 21
876.41891762915384
  0
LINE
  8
_0-0_計極細
  6
CONTINUOUS
 62
    2
 10
1070.4492836470208
 20
857.35271621299933
 11
1095.1112841368276
 21
857.35271621299933
  0
LINE
  8
_0-0_計極細
  6
CONTINUOUS
 62
    2
 10
1069.2646404686766
 20
863.37362128958512
 11
1097.139052715761
 21
863.37362128958512
  0
LINE
  8
_0-0_計極細
  6
CONTINUOUS
 62
    2
 10
1067.5075838237963
 20
866.88581391062507
 11
1100.6152222617266
 21
866.88581391062507
  0
LINE
  8
_0-0_計極細
  6
CONTINUOUS
 62
    2
 10
1067.4547744653692
 20
872.90671898720893
 11
1102.6429908406608
 21
872.90671898720893
  0
ARC
  8
_0-0_計極細
  6
CONTINUOUS
 62
    2
 10
1108.0020840521329
 20
874.66281830818116
 40
27.094072844634088
 50
140.2909829999995
 51
155.37568200000004
  0
ARC
  8
_0-0_計極細
  6
CONTINUOUS
 62
    2
 10
1108.0020840521329
 20
874.66281830818116
 40
37.630656728658437
 50
152.61289200000007
 51
162.54239699999968
  0
ARC
  8
_0-0_計極細
  6
CONTINUOUS
 62
    2
 10
1069.2646404686766
 20
886.95550151318002
 40
1.0034861863992508
 50
162.39403400002107
 51
269.99999999999977
  0
ARC
  8
_0-0_計極細
  6
CONTINUOUS
 62
    2
 10
1073.71892410705
 20
852.83703740555939
 40
1.0034861863992508
 50
89.999999999999915
 51
212.4821639999854
  0
ARC
  8
_0-0_計極細
  6
CONTINUOUS
 62
    2
 10
1108.0020840521329
 20
874.66281830818116
 40
37.630656728658437
 50
168.07291799999925
 51
177.32522600000016
  0
ARC
  8
_0-0_計極細
  6
CONTINUOUS
 62
    2
 10
1108.0020840521329
 20
874.66281830818116
 40
37.630656728658437
 50
182.67477399999882
 51
191.9270819999997
  0
ARC
  8
_0-0_計極細
  6
CONTINUOUS
 62
    2
 10
1108.0020840521329
 20
874.66281830818116
 40
37.630656728658437
 50
197.4576029999993
 51
207.38710799999896
  0
ARC
  8
_0-0_計極細
  6
CONTINUOUS
 62
    2
 10
1067.4547744653692
 20
871.9032388217156
 40
1.0034861863992508
 50
89.999999999999915
 51
183.89344999999844
  0
ARC
  8
_0-0_計極細
  6
CONTINUOUS
 62
    2
 10
1069.2646404686766
 20
862.37013510318593
 40
1.0034861863992508
 50
89.999999999999915
 51
197.60596600000332
  0
ARC
  8
_0-0_計極細
  6
CONTINUOUS
 62
    2
 10
1070.4492836470208
 20
857.85445629574531
 40
0.501740082747087
 50
204.11293800002809
 51
269.99999999999977
  0
ARC
  8
_0-0_計極細
  6
CONTINUOUS
 62
    2
 10
1108.0020840521329
 20
874.66281830818116
 40
27.094072844634088
 50
163.31934899999951
 51
176.28377999999955
  0
ARC
  8
_0-0_計極細
  6
CONTINUOUS
 62
    2
 10
1108.0020840521329
 20
874.66281830818116
 40
27.094072844634088
 50
183.71621999999911
 51
196.68065099999922
  0
ARC
  8
_0-0_計極細
  6
CONTINUOUS
 62
    2
 10
1108.0020840521329
 20
874.66281830818116
 40
27.094072844634088
 50
204.62431799999874
 51
219.70901699999865
  0
ARC
  8
_0-0_計極細
  6
CONTINUOUS
 62
    2
 10
1070.4492836470208
 20
891.47118032061871
 40
0.501740082747087
 50
89.999999999999915
 51
155.88706199997156
  0
ARC
  8
_0-0_計極細
  6
CONTINUOUS
 62
    2
 10
1073.71892410705
 20
896.4885992108043
 40
1.0034861863992508
 50
147.5178360000142
 51
269.99999999999977
  0
ARC
  8
_0-0_計極細
  6
CONTINUOUS
 62
    2
 10
1108.0020840521329
 20
874.66281830818116
 40
37.630656728658437
 50
123.68035400000058
 51
126.22847700000025
  0
ARC
  8
_0-0_計極細
  6
CONTINUOUS
 62
    2
 10
1108.0020840521329
 20
874.66281830818116
 40
37.630656728658437
 50
134.49322399999971
 51
146.40400499999933
  0
ARC
  8
_0-0_計極細
  6
CONTINUOUS
 62
    2
 10
1076.3973116885572
 20
901.00427801824344
 40
0.501740082747087
 50
89.999999999999915
 51
140.18999100005377
  0
ARC
  8
_0-0_計極細
  6
CONTINUOUS
 62
    2
 10
1082.1501961756594
 20
906.02169690842948
 40
1.0034861863992508
 50
129.50177000002535
 51
269.99999999999977
  0
LINE
  8
_0-0_計極細
  6
CONTINUOUS
 62
    2
 10
1082.1501961756594
 20
905.01821674293512
 11
1086.1311764659613
 21
905.01821674293512
  0
ARC
  8
_0-0_計極細
  6
CONTINUOUS
 62
    2
 10
1108.0020840521329
 20
874.66281830818116
 40
37.630656728658437
 50
77.457603000000148
 51
87.387108000000282
  0
ARC
  8
_0-0_計極細
  6
CONTINUOUS
 62
    2
 10
1108.0020840521329
 20
874.66281830818116
 40
37.630656728658437
 50
77.457603000000148
 51
87.387108000000282
  0
ARC
  8
_0-0_計極細
  6
CONTINUOUS
 62
    2
 10
1113.0715054994662
 20
871.40149271806376
 40
1.0034861863992508
 50
89.999999999999915
 51
209.9999999999992
  0
ARC
  8
_0-0_計極細
  6
CONTINUOUS
 62
    2
 10
1113.0715054994662
 20
877.92414389830162
 40
1.0034861863992508
 50
150.00000000000043
 51
269.99999999999977
  0
ARC
  8
_0-0_計極細
  6
CONTINUOUS
 62
    2
 10
1112.2220220231147
 20
915.58868025982372
 40
0.501740082747087
 50
84.112938000024442
 51
150.00000000004033
  0
LINE
  8
_0-0_計極細
  6
CONTINUOUS
 62
    2
 10
1117.5940782432162
 20
913.85502687297731
 11
1103.6568751301265
 21
889.71508099964558
  0
LINE
  8
_0-0_計極細
  6
CONTINUOUS
 62
    2
 10
1121.5142594340568
 20
913.62058487110608
 11
1104.9604372046388
 21
884.94852914038017
  0
LINE
  8
_0-0_計極細
  6
CONTINUOUS
 62
    2
 10
1126.7549154217677
 20
910.65586712777531
 11
1109.1608132550273
 21
880.1819833020204
  0
LINE
  8
_0-0_計極細
  6
CONTINUOUS
 62
    2
 10
1105.9951177002395
 20
882.6546666615867
 11
1105.9951177002395
 21
886.7406515364255
  0
LINE
  8
_0-0_計極細
  6
CONTINUOUS
 62
    2
 10
1106.4968577829868
 20
881.78562728554778
 11
1106.4968577829868
 21
887.60969693336847
  0
ARC
  8
_0-0_計極細
  6
CONTINUOUS
 62
    2
 10
1097.139052715761
 20
886.95550151318002
 40
1.0034861863992508
 50
269.99999999999977
 51
29.999999999999204
  0
LINE
  8
_0-0_計極細
  6
CONTINUOUS
 62
    2
 10
1109.5073103212799
 20
880.78214109915007
 11
1109.5073103212799
 21
892.8239512523196
  0
LINE
  8
_0-0_計極細
  6
CONTINUOUS
 62
    2
 10
1110.0090564249313
 20
881.65118649609258
 11
1110.0090564249313
 21
893.69299664926484
  0
ARC
  8
_0-0_計極細
  6
CONTINUOUS
 62
    2
 10
1097.139052715761
 20
862.37013510318593
 40
1.0034861863992508
 50
329.9999999999776
 51
89.999999999999545
  0
ARC
  8
_0-0_計極細
  6
CONTINUOUS
 62
    2
 10
1095.1112841368276
 20
857.85445629574531
 40
0.501740082747087
 50
269.99999999999977
 51
329.999999999995
  0
ARC
  8
_0-0_計極細
  6
CONTINUOUS
 62
    2
 10
1108.0020840521329
 20
874.66281830818116
 40
27.094072844634088
 50
230.22103899999877
 51
235.21980799999864
  0
ARC
  8
_0-0_計極細
  6
CONTINUOUS
 62
    2
 10
1091.6351145908602
 20
852.83703740555939
 40
1.0034861863992508
 50
330.00000000000011
 51
89.999999999999545
  0
ARC
  8
_0-0_計極細
  6
CONTINUOUS
 62
    2
 10
1099.8910217782104
 20
855.09487680927987
 40
0.501740082747087
 50
149.9999999999884
 51
210.00000000005619
  0
LINE
  8
_0-0_計極細
  6
CONTINUOUS
 62
    2
 10
1105.9951177002395
 20
862.58498507993863
 11
1105.9951177002395
 21
866.67096995477732
  0
LINE
  8
_0-0_計極細
  6
CONTINUOUS
 62
    2
 10
1106.4968577829868
 20
861.71593968299385
 11
1106.4968577829868
 21
867.54000933081579
  0
ARC
  8
_0-0_計極細
  6
CONTINUOUS
 62
    2
 10
1100.6152222617266
 20
867.38756001427646
 40
0.501740082747087
 50
269.99999999999977
 51
330.00000000003996
  0
ARC
  8
_0-0_計極細
  6
CONTINUOUS
 62
    2
 10
1105.3949599031121
 20
864.62797450690402
 40
0.501740082747087
 50
150.00000000009922
 51
209.99999999985545
  0
ARC
  8
_0-0_計極細
  6
CONTINUOUS
 62
    2
 10
1102.7878297331818
 20
859.1088155339711
 40
1.0034861863992508
 50
29.999999999999559
 51
150.00000000000043
  0
ARC
  8
_0-0_計極細
  6
CONTINUOUS
 62
    2
 10
1105.3949599031121
 20
884.69766210945897
 40
0.501740082747087
 50
150.00000000009922
 51
209.99999999985545
  0
ARC
  8
_0-0_計極細
  6
CONTINUOUS
 62
    2
 10
1108.2917678580816
 20
880.68372338476775
 40
1.0034861863992508
 50
210.00000000005113
 51
330.00000000002603
  0
ARC
  8
_0-0_計極細
  6
CONTINUOUS
 62
    2
 10
1100.6152222617266
 20
881.9380766020862
 40
0.501740082747087
 50
29.99999999995967
 51
89.999999999999901
  0
ARC
  8
_0-0_計極細
  6
CONTINUOUS
 62
    2
 10
1102.6429908406608
 20
877.42239779464853
 40
1.0034861863992508
 50
269.99999999999977
 51
30.000000000002665
  0
LINE
  8
_0-0_計極細
  6
CONTINUOUS
 62
    2
 10
1109.5073103212799
 20
856.50168536404362
 11
1109.5073103212799
 21
868.54349551721543
  0
LINE
  8
_0-0_計極細
  6
CONTINUOUS
 62
    2
 10
1110.0090564249313
 20
855.63263996710054
 11
1110.0090564249313
 21
867.67445012027065
  0
ARC
  8
_0-0_計極細
  6
CONTINUOUS
 62
    2
 10
1108.2917678580816
 20
880.68372338476775
 40
1.0034861863992508
 50
253.22134500003193
 51
330.00000000002603
  0
LINE
  8
_0-0_計極細
  6
CONTINUOUS
 62
    2
 10
1107.1110262262282
 20
914.76405107963092
 11
1098.1529370052276
 21
899.24817869726974
  0
ARC
  8
_0-0_計極細
  6
CONTINUOUS
 62
    2
 10
1108.0020840521329
 20
874.66281830818116
 40
37.630656728658437
 50
93.595995000000485
 51
105.50677600000017
  0
LINE
  8
_0-0_計極細
  6
CONTINUOUS
 62
    2
 10
1100.5575781165235
 20
915.45495595807506
 11
1093.9525609548391
 21
904.01473055653469
  0
LINE
  8
_0-0_計極細
  6
CONTINUOUS
 62
    2
 10
1111.7874993246432
 20
915.83955331165089
 11
1099.456499079738
 21
894.48163285890951
  0
ARC
  8
_0-0_計極細
  6
CONTINUOUS
 62
    2
 10
1099.8910217782104
 20
894.23075980708415
 40
0.501740082747087
 50
149.9999999999884
 51
210.00000000001123
  0
ARC
  8
_0-0_計極細
  6
CONTINUOUS
 62
    2
 10
1108.0020840521329
 20
874.66281830818116
 40
27.094072844634088
 50
110.2210389999981
 51
115.21980799999808
  0
ARC
  8
_0-0_計極細
  6
CONTINUOUS
 62
    2
 10
1097.2838916082828
 20
899.74992480092305
 40
1.0034861863992508
 50
210.00000000000267
 51
330.00000000002257
  0
ARC
  8
_0-0_計極細
  6
CONTINUOUS
 62
    2
 10
1094.3870836533106
 20
903.76385750470854
 40
0.501740082747087
 50
149.99999999999537
 51
209.9999999999593
  0
ARC
  8
_0-0_計極細
  6
CONTINUOUS
 62
    2
 10
1108.0020840521329
 20
874.66281830818116
 40
37.630656728658437
 50
113.77152300000098
 51
116.31964599999986
  0
ARC
  8
_0-0_計極細
  6
CONTINUOUS
 62
    2
 10
1093.7704466389869
 20
912.7306529544511
 40
1.0034861863992508
 50
330.00000000002257
 51
110.49822999994124
  0
ARC
  8
_0-0_計極細
  6
CONTINUOUS
 62
    2
 10
1091.7799534833839
 20
909.28302249854642
 40
1.0034861863992508
 50
209.9999999999992
 51
330.00000000000011
  0
LINE
  8
_0-0_計極細
  6
CONTINUOUS
 62
    2
 10
1094.6394860150276
 20
912.22891287170376
 11
1092.6489988803287
 21
908.7812824158018
  0
ARC
  8
_0-0_計極細
  6
CONTINUOUS
 62
    2
 10
1108.0020840521329
 20
874.66281830818116
 40
27.094072844634088
 50
124.78019199999984
 51
129.77896100000024
  0
ARC
  8
_0-0_計極細
  6
CONTINUOUS
 62
    2
 10
1089.6073460119287
 20
901.00427801824344
 40
0.501740082747087
 50
30.000000000063526
 51
89.999999999999915
  0
ARC
  8
_0-0_計極細
  6
CONTINUOUS
 62
    2
 10
1091.6351145908602
 20
896.4885992108043
 40
1.0034861863992508
 50
269.99999999999977
 51
29.999999999999204
  0
ARC
  8
_0-0_計極細
  6
CONTINUOUS
 62
    2
 10
1095.1112841368276
 20
891.47118032061871
 40
0.501740082747087
 50
29.99999999995967
 51
89.999999999999901
  0
LINE
  8
_0-0_計極細
  6
CONTINUOUS
 62
    2
 10
1106.4968577829868
 20
894.63408217544929
 11
1106.4968577829868
 21
901.71504586253423
  0
LINE
  8
_0-0_計極細
  6
CONTINUOUS
 62
    2
 10
1105.9951177002395
 20
893.76504279941082
 11
1105.9951177002395
 21
901.68245470335421
  0
ARC
  8
_0-0_計極細
  6
CONTINUOUS
 62
    2
 10
1106.2419868501902
 20
915.26579718328458
 40
1.0034861863992508
 50
329.99999999997414
 51
92.482164000031602
  0
ARC
  8
_0-0_計極細
  6
CONTINUOUS
 62
    2
 10
1108.0020840521329
 20
874.66281830818116
 40
27.094072844634088
 50
84.624317999999832
 51
99.709017000000401
  0
ARC
  8
_0-0_計極細
  6
CONTINUOUS
 62
    2
 10
1100.992100814995
 20
915.20408290624971
 40
0.501740082747087
 50
99.810008999948636
 51
149.99999999993648
  0
ARC
  8
_0-0_計極細
  6
CONTINUOUS
 62
    2
 10
1102.7878297331818
 20
890.21682108239156
 40
1.0034861863992508
 50
209.9999999999992
 51
330.00000000000011
  0
ARC
  8
_0-0_計極細
  6
CONTINUOUS
 62
    2
 10
1108.0020840521329
 20
874.66281830818116
 40
27.094072844634088
 50
84.624317999999832
 51
89.999999999999915
  0
ARC
  8
_0-0_計極細
  6
CONTINUOUS
 62
    2
 10
1108.0020840521329
 20
874.66281830818116
 40
27.094072844634088
 50
20.290983000001571
 51
35.37568200000068
  0
LINE
  8
_0-0_計極細
  6
CONTINUOUS
 62
    2
 10
1134.9844209403554
 20
905.84358649445403
 11
1118.4305987109374
 21
877.17153076372733
  0
LINE
  8
_0-0_計極細
  6
CONTINUOUS
 62
    2
 10
1129.7965682901668
 20
908.89977382770803
 11
1112.2024601025214
 21
878.42588398104726
  0
ARC
  8
_0-0_計極細
  6
CONTINUOUS
 62
    2
 10
1108.0020840521329
 20
874.66281830818116
 40
27.094072844634088
 50
303.71622000000156
 51
316.68065099999922
  0
ARC
  8
_0-0_計極細
  6
CONTINUOUS
 62
    2
 10
1124.0793757283582
 20
871.40149271806376
 40
1.0034861863992508
 50
89.999999999999915
 51
210.00000000002515
  0
ARC
  8
_0-0_計極細
  6
CONTINUOUS
 62
    2
 10
1117.9960760124659
 20
871.9032388217156
 40
0.501740082747087
 50
30.0000000001085
 51
89.999999999999915
  0
ARC
  8
_0-0_計極細
  6
CONTINUOUS
 62
    2
 10
1124.0793757283582
 20
877.92414389830162
 40
1.0034861863992508
 50
149.99999999997448
 51
269.99999999999977
  0
ARC
  8
_0-0_計極細
  6
CONTINUOUS
 62
    2
 10
1117.9960760124659
 20
877.42239779464853
 40
0.501740082747087
 50
269.99999999999977
 51
329.99999999989114
  0
ARC
  8
_0-0_計極細
  6
CONTINUOUS
 62
    2
 10
1108.0020840521329
 20
874.66281830818116
 40
27.094072844634088
 50
324.62431799999973
 51
339.7090169999999
  0
ARC
  8
_0-0_計極細
  6
CONTINUOUS
 62
    2
 10
1108.0020840521329
 20
874.66281830818116
 40
27.094072844634088
 50
350.22103899999934
 51
355.21980800000068
  0
ARC
  8
_0-0_計極細
  6
CONTINUOUS
 62
    2
 10
1108.0020840521329
 20
874.66281830818116
 40
27.094072844634088
 50
4.7801919999998796
 51
9.778961000001221
  0
ARC
  8
_0-0_計極細
  6
CONTINUOUS
 62
    2
 10
1135.0872519781578
 20
871.40149271806376
 40
1.0034861863992508
 50
89.999999999999915
 51
210.00000000002515
  0
ARC
  8
_0-0_計極細
  6
CONTINUOUS
 62
    2
 10
1129.0039522622646
 20
871.9032388217156
 40
0.501740082747087
 50
30.000000000056566
 51
89.999999999999915
  0
ARC
  8
_0-0_計極細
  6
CONTINUOUS
 62
    2
 10
1135.0872519781578
 20
877.92414389830162
 40
1.0034861863992508
 50
149.99999999997448
 51
269.99999999999977
  0
ARC
  8
_0-0_計極細
  6
CONTINUOUS
 62
    2
 10
1129.0039522622646
 20
877.42239779464853
 40
0.501740082747087
 50
269.99999999999977
 51
329.9999999999431
  0
ARC
  8
_0-0_計極細
  6
CONTINUOUS
 62
    2
 10
1108.0020840521329
 20
874.66281830818116
 40
27.094072844634088
 50
43.319349000001104
 51
56.28377999999919
  0
ARC
  8
_0-0_計極細
  6
CONTINUOUS
 62
    2
 10
1108.0020840521329
 20
874.66281830818116
 40
37.630656728658437
 50
62.674774000000312
 51
71.927081999999317
  0
ARC
  8
_0-0_計極細
  6
CONTINUOUS
 62
    2
 10
1108.0020840521329
 20
874.66281830818116
 40
27.094072844634088
 50
63.716220000000746
 51
76.680650999998889
  0
ARC
  8
_0-0_計極細
  6
CONTINUOUS
 62
    2
 10
1121.9487761116225
 20
913.36971784018397
 40
0.501740082747087
 50
70.185127999891137
 51
149.99999999993648
  0
ARC
  8
_0-0_計極細
  6
CONTINUOUS
 62
    2
 10
1116.7250328462724
 20
914.35677297663096
 40
1.0034861863992508
 50
329.99999999999665
 51
77.605965999942228
  0
ARC
  8
_0-0_計極細
  6
CONTINUOUS
 62
    2
 10
1108.0020840521329
 20
874.66281830818116
 40
37.630656728658437
 50
48.072918000001373
 51
57.325226000001372
  0
ARC
  8
_0-0_計極細
  6
CONTINUOUS
 62
    2
 10
1130.6656076662048
 20
908.39802772405619
 40
1.0034861863992508
 50
56.106549999971008
 51
149.99999999999699
  0
ARC
  8
_0-0_計極細
  6
CONTINUOUS
 62
    2
 10
1134.5498982418831
 20
906.09445352537432
 40
0.501740082747087
 50
330.00000000009186
 51
49.814871999965682
  0
ARC
  8
_0-0_計極細
  6
CONTINUOUS
 62
    2
 10
1125.8858760457288
 20
911.15761323142658
 40
1.0034861863992508
 50
330.00000000000011
 51
63.893449999974756
  0
ARC
  8
_0-0_計極細
  6
CONTINUOUS
 62
    2
 10
1138.0165848623528
 20
847.26154684473022
 40
1.0034861863992508
 50
210.00000000002515
 51
317.6059660000256
  0
ARC
  8
_0-0_計極細
  6
CONTINUOUS
 62
    2
 10
1141.334958528073
 20
850.54531234806916
 40
0.501740082747087
 50
324.11293799996702
 51
29.999999999959307
  0
ARC
  8
_0-0_計極細
  6
CONTINUOUS
 62
    2
 10
1108.0020840521329
 20
874.66281830818116
 40
37.630656728658437
 50
14.493223999999607
 51
26.404005000000534
  0
LINE
  8
_0-0_計極細
  6
CONTINUOUS
 62
    2
 10
1147.0513683722211
 20
888.61175616526634
 11
1140.4463512105358
 21
877.17153076372733
  0
ARC
  8
_0-0_計極細
  6
CONTINUOUS
 62
    2
 10
1148.0856213835623
 20
867.95386226215942
 40
1.0034861863992508
 50
209.99999999997672
 51
350.4982300000064
  0
ARC
  8
_0-0_計極細
  6
CONTINUOUS
 62
    2
 10
1148.0856213835623
 20
881.37177435420472
 40
1.0034861863992508
 50
9.5017699999932326
 51
150.00000000000043
  0
ARC
  8
_0-0_計極細
  6
CONTINUOUS
 62
    2
 10
1108.0020840521329
 20
874.66281830818116
 40
37.630656728658437
 50
3.6803540000001762
 51
6.228477000000372
  0
ARC
  8
_0-0_計極細
  6
CONTINUOUS
 62
    2
 10
1108.0020840521329
 20
874.66281830818116
 40
37.630656728658437
 50
353.77152300000063
 51
356.31964600000015
  0
ARC
  8
_0-0_計極細
  6
CONTINUOUS
 62
    2
 10
1108.0020840521329
 20
874.66281830818116
 40
37.630656728658437
 50
333.59599499999973
 51
345.50677600000074
  0
ARC
  8
_0-0_計極細
  6
CONTINUOUS
 62
    2
 10
1144.0453472200652
 20
855.8856203357027
 40
1.0034861863992508
 50
209.99999999997672
 51
332.48216400001218
  0
ARC
  8
_0-0_計極細
  6
CONTINUOUS
 62
    2
 10
1146.0951282279566
 20
871.40149271806376
 40
1.0034861863992508
 50
89.999999999999915
 51
210.00000000002515
  0
ARC
  8
_0-0_計極細
  6
CONTINUOUS
 62
    2
 10
1140.0118285120634
 20
871.9032388217156
 40
0.501740082747087
 50
30.000000000004636
 51
89.999999999999915
  0
LINE
  8
_0-0_計極細
  6
CONTINUOUS
 62
    2
 10
1147.2165759866175
 20
867.45212217941287
 11
1145.2260888519186
 21
870.89975263531733
  0
LINE
  8
_0-0_計極細
  6
CONTINUOUS
 62
    2
 10
1147.0513683722211
 20
860.71388045109859
 11
1140.4463512105358
 21
872.15410585263544
  0
ARC
  8
_0-0_計極細
  6
CONTINUOUS
 62
    2
 10
1146.0951282279566
 20
877.92414389830162
 40
1.0034861863992508
 50
149.99999999997448
 51
269.99999999999977
  0
ARC
  8
_0-0_計極細
  6
CONTINUOUS
 62
    2
 10
1140.0118285120634
 20
877.42239779464853
 40
0.501740082747087
 50
269.99999999999977
 51
329.999999999995
  0
LINE
  8
_0-0_計極細
  6
CONTINUOUS
 62
    2
 10
1147.2165759866175
 20
881.87351443695115
 11
1145.2260888519186
 21
878.42588398104726
  0
ARC
  8
_0-0_計極細
  6
CONTINUOUS
 62
    2
 10
1138.0165848623528
 20
902.0640897716338
 40
1.0034861863992508
 50
42.394033999974049
 51
149.99999999997448
  0
ARC
  8
_0-0_計極細
  6
CONTINUOUS
 62
    2
 10
1141.334958528073
 20
898.78032426829441
 40
0.501740082747087
 50
330.00000000003996
 51
35.887062000032259
  0
ARC
  8
_0-0_計極細
  6
CONTINUOUS
 62
    2
 10
1144.0453472200652
 20
893.44001628066144
 40
1.0034861863992508
 50
27.517836000010465
 51
150.00000000000043
  0
LINE
  8
_0-0_計極細
  6
CONTINUOUS
 62
    2
 10
1109.5073103212799
 20
847.61058961646359
 11
1109.5073103212799
 21
849.47730126655676
  0
LINE
  8
_0-0_計極細
  6
CONTINUOUS
 62
    2
 10
1110.0090564249313
 20
847.64318016839206
 11
1110.0090564249313
 21
848.60825123499853
  0
LINE
  8
_0-0_計極細
  6
CONTINUOUS
 62
    2
 10
1109.5073103212799
 20
899.84833282240459
 11
1109.5073103212799
 21
901.71504699989907
  0
LINE
  8
_0-0_計極細
  6
CONTINUOUS
 62
    2
 10
1110.0090564249313
 20
900.71738263720727
 11
1110.0090564249313
 21
901.68245644797071
  0
ARC
  8
_0-0_計極細
  6
CONTINUOUS
 62
    2
 10
993.37896486923091
 20
903.66817363449445
 40
54.312365187078846
 50
327.72737804884252
 51
41.725734002915857
  0
ARC
  8
_0-0_計極細
  6
CONTINUOUS
 62
    2
 10
1085.2230286342829
 20
845.66817363467044
 40
54.312365187078846
 50
147.72737804884292
 51
222.9897847706886
  0
LINE
  8
_0-1_計細線
  6
CONTINUOUS
 62
    3
 10
604.49999999999955
 20
936.15638321366566
 11
604.49999999999955
 21
813.15638321366566
  0
LINE
  8
_0-1_計細線
  6
CONTINUOUS
 62
    3
 10
1036.9030874974299
 20
936.15638321366566
 11
604.49999999999955
 21
936.15638321366566
  0
LINE
  8
_0-1_計細線
  6
CONTINUOUS
 62
    3
 10
604.49999999999955
 20
813.15638321366566
 11
1041.7165176751714
 21
813.15638321366566
  0
ARC
  8
_0-1_計細線
  6
CONTINUOUS
 62
    3
 10
604.49999999999955
 20
936.15638321366532
 40
2
 50
89.999999999999915
 51
179.99999999999983
  0
LINE
  8
_0-1_計細線
  6
CONTINUOUS
 62
    3
 10
602.49999999999955
 20
813.15638321366566
 11
602.49999999999955
 21
936.15638321366532
  0
ARC
  8
_0-1_計細線
  6
CONTINUOUS
 62
    3
 10
604.49999999999955
 20
813.15638321366532
 40
2
 50
179.99999999998698
 51
269.99999999999977
  0
LINE
  8
_0-1_計細線
  6
CONTINUOUS
 62
    3
 10
604.49999999999955
 20
938.15638321366521
 11
1035.3360430830176
 21
938.15638321366521
  0
LINE
  8
_0-1_計細線
  6
CONTINUOUS
 62
    3
 10
1043.2853446954764
 20
811.15638321366669
 11
604.49999999999955
 21
811.15638321366532
  0
CIRCLE
  8
_0-1_計細線
  6
CONTINUOUS
 62
    3
 10
1171.9999999999998
 20
930.65638321366578
 40
12.499999999999998
  0
CIRCLE
  8
_0-1_計細線
  6
CONTINUOUS
 62
    3
 10
1172.0000000000005
 20
818.65638321366578
 40
12.499999999999998
  0
LINE
  8
_0-5_寸法線
  6
CONTINUOUS
 62
    7
 10
602.49999999999955
 20
958.65638321366566
 11
602.49999999999977
 21
1012.6563832136657
  0
LINE
  8
_0-5_寸法線
  6
CONTINUOUS
 62
    7
 10
602.49999999999977
 20
1006.6563832136657
 11
614.09110991546856
 21
1009.762211754896
  0
LINE
  8
_0-5_寸法線
  6
CONTINUOUS
 62
    7
 10
602.49999999999977
 20
1006.6563832136657
 11
614.09110991546856
 21
1003.5505546724355
  0
LINE
  8
_0-5_寸法線
  6
CONTINUOUS
 62
    7
 10
1179.5000000000005
 20
958.65638321366566
 11
1179.5000000000009
 21
1012.6563832136657
  0
LINE
  8
_0-5_寸法線
  6
CONTINUOUS
 62
    7
 10
1179.5000000000009
 20
1006.6563832136657
 11
1167.908890084532
 21
1003.5505546724355
  0
LINE
  8
_0-5_寸法線
  6
CONTINUOUS
 62
    7
 10
1179.5000000000009
 20
1006.6563832136657
 11
1167.908890084532
 21
1009.762211754896
  0
LINE
  8
_0-5_寸法線
  6
CONTINUOUS
 62
    7
 10
602.49999999999977
 20
1006.6563832136657
 11
1179.5000000000009
 21
1006.6563832136657
  0
TEXT
  8
_0-5_寸法線
 62
    7
 10
877.50000000000023
 20
1006.6563832136657
 40
18
 41
1
 50
0
  1
577
  0
LINE
  8
_0-5_寸法線
  6
CONTINUOUS
 62
    7
 10
1188
 20
958.65638321366566
 11
1188.0000000000009
 21
1054.6563832136658
  0
LINE
  8
_0-5_寸法線
  6
CONTINUOUS
 62
    7
 10
1188.0000000000009
 20
1048.6563832136658
 11
1199.5911099154698
 21
1051.762211754896
  0
LINE
  8
_0-5_寸法線
  6
CONTINUOUS
 62
    7
 10
1188.0000000000009
 20
1048.6563832136658
 11
1199.5911099154698
 21
1045.5505546724355
  0
LINE
  8
_0-5_寸法線
  6
CONTINUOUS
 62
    7
 10
1185.5000000000002
 20
958.65638321366566
 11
1185.5000000000018
 21
1054.6563832136658
  0
LINE
  8
_0-5_寸法線
  6
CONTINUOUS
 62
    7
 10
1236.0000000000009
 20
1048.6563832136658
 11
1185.5000000000018
 21
1048.6563832136658
  0
TEXT
  8
_0-5_寸法線
 62
    7
 10
1207.5947399154156
 20
1048.6563832136649
 40
18
 41
1
 50
0
  1
2.5
  0
LINE
  8
_0-5_寸法線
  6
CONTINUOUS
 62
    7
 10
1185.5000000000018
 20
1048.6563832136658
 11
1173.9088900845327
 21
1045.5505546724355
  0
LINE
  8
_0-5_寸法線
  6
CONTINUOUS
 62
    7
 10
1185.5000000000018
 20
1048.6563832136658
 11
1173.9088900845327
 21
1051.762211754896
  0
LINE
  8
_0-5_寸法線
  6
CONTINUOUS
 62
    7
 10
596.50000000000023
 20
958.65638321366566
 11
596.50000000000205
 21
1054.6563832136658
  0
LINE
  8
_0-5_寸法線
  6
CONTINUOUS
 62
    7
 10
596.50000000000193
 20
1048.6563832136658
 11
608.09110991547072
 21
1051.762211754896
  0
LINE
  8
_0-5_寸法線
  6
CONTINUOUS
 62
    7
 10
596.50000000000193
 20
1048.6563832136658
 11
608.09110991547072
 21
1045.5505546724355
  0
LINE
  8
_0-5_寸法線
  6
CONTINUOUS
 62
    7
 10
1185.5000000000018
 20
1048.6563832136658
 11
596.50000000000193
 21
1048.6563832136658
  0
TEXT
  8
_0-5_寸法線
 62
    7
 10
877.50000000000136
 20
1048.6563832136649
 40
18
 41
1
 50
0
  1
589
  0
LINE
  8
_0-5_寸法線
  6
CONTINUOUS
 62
    7
 10
594.00000000000011
 20
958.65638321366566
 11
594.00000000000114
 21
1054.6563832136658
  0
LINE
  8
_0-5_寸法線
  6
CONTINUOUS
 62
    7
 10
594.00000000000114
 20
1048.6563832136658
 11
582.40889008453235
 21
1045.5505546724355
  0
LINE
  8
_0-5_寸法線
  6
CONTINUOUS
 62
    7
 10
594.00000000000114
 20
1048.6563832136658
 11
582.40889008453235
 21
1051.762211754896
  0
LINE
  8
_0-5_寸法線
  6
CONTINUOUS
 62
    7
 10
596.50000000000193
 20
1048.6563832136658
 11
546.00000000000114
 21
1048.6563832136658
  0
TEXT
  8
_0-5_寸法線
 62
    7
 10
549.26306245913634
 20
1048.6563832136658
 40
18
 41
1
 50
0
  1
2.5
  0
LINE
  8
_0-5_寸法線
  6
CONTINUOUS
 62
    7
 10
594
 20
958.65638321366566
 11
594
 21
1096.6563832136658
  0
LINE
  8
_0-5_寸法線
  6
CONTINUOUS
 62
    7
 10
594
 20
1090.6563832136658
 11
605.59110991546879
 21
1093.762211754896
  0
LINE
  8
_0-5_寸法線
  6
CONTINUOUS
 62
    7
 10
594
 20
1090.6563832136658
 11
605.59110991546879
 21
1087.5505546724355
  0
LINE
  8
_0-5_寸法線
  6
CONTINUOUS
 62
    7
 10
1188
 20
958.65638321366566
 11
1188
 21
1096.6563832136658
  0
LINE
  8
_0-5_寸法線
  6
CONTINUOUS
 62
    7
 10
1188
 20
1090.6563832136658
 11
1176.4088900845311
 21
1087.5505546724355
  0
LINE
  8
_0-5_寸法線
  6
CONTINUOUS
 62
    7
 10
1188
 20
1090.6563832136658
 11
1176.4088900845311
 21
1093.762211754896
  0
LINE
  8
_0-5_寸法線
  6
CONTINUOUS
 62
    7
 10
594
 20
1090.6563832136658
 11
1188
 21
1090.6563832136658
  0
TEXT
  8
_0-5_寸法線
 62
    7
 10
877.5
 20
1090.6563832136658
 40
18
 41
1
 50
0
  1
594
  0
LINE
  8
_0-5_寸法線
  6
CONTINUOUS
 62
    7
 10
594
 20
790.65638321366566
 11
594
 21
736.65638321366578
  0
LINE
  8
_0-5_寸法線
  6
CONTINUOUS
 62
    7
 10
594
 20
742.65638321366578
 11
605.59110991546879
 21
745.76221175489604
  0
LINE
  8
_0-5_寸法線
  6
CONTINUOUS
 62
    7
 10
594
 20
742.65638321366578
 11
605.59110991546879
 21
739.55055467243551
  0
LINE
  8
_0-5_寸法線
  6
CONTINUOUS
 62
    7
 10
1108
 20
790.65638321366566
 11
1108
 21
736.65638321366578
  0
LINE
  8
_0-5_寸法線
  6
CONTINUOUS
 62
    7
 10
1108
 20
742.65638321366578
 11
1096.4088900845309
 21
739.55055467243562
  0
LINE
  8
_0-5_寸法線
  6
CONTINUOUS
 62
    7
 10
1108
 20
742.65638321366578
 11
1096.4088900845309
 21
745.76221175489604
  0
LINE
  8
_0-5_寸法線
  6
CONTINUOUS
 62
    7
 10
594
 20
742.65638321366578
 11
1108
 21
742.65638321366578
  0
TEXT
  8
_0-5_寸法線
 62
    7
 10
837.49999999999989
 20
742.65638321366578
 40
18
 41
1
 50
0
  1
514
  0
LINE
  8
_0-5_寸法線
  6
CONTINUOUS
 62
    7
 10
1108
 20
742.65638321366578
 11
1119.5911099154689
 21
745.76221175489593
  0
LINE
  8
_0-5_寸法線
  6
CONTINUOUS
 62
    7
 10
1108
 20
742.65638321366578
 11
1119.5911099154689
 21
739.55055467243551
  0
LINE
  8
_0-5_寸法線
  6
CONTINUOUS
 62
    7
 10
1188
 20
790.65638321366566
 11
1188
 21
736.65638321366578
  0
LINE
  8
_0-5_寸法線
  6
CONTINUOUS
 62
    7
 10
1188
 20
742.65638321366578
 11
1176.4088900845311
 21
739.55055467243562
  0
LINE
  8
_0-5_寸法線
  6
CONTINUOUS
 62
    7
 10
1188
 20
742.65638321366578
 11
1176.4088900845311
 21
745.76221175489604
  0
LINE
  8
_0-5_寸法線
  6
CONTINUOUS
 62
    7
 10
1108
 20
742.65638321366578
 11
1188
 21
742.65638321366578
  0
TEXT
  8
_0-5_寸法線
 62
    7
 10
1139
 20
742.65638321366578
 40
18
 41
1
 50
0
  1
80
  0
LINE
  8
_0-0_計極細
  6
CENTER2
 62
    2
 10
1153
 20
604.15638321366532
 11
1153
 21
555.03030850860659
  0
LINE
  8
_0-1_計細線
  6
DASHED2
 62
    3
 10
1159.9999998469184
 20
597.15638321366578
 11
1159.5
 21
597.65638306058418
  0
LINE
  8
_0-1_計細線
  6
DASHED2
 62
    3
 10
1160.9999998469193
 20
596.15638321366532
 11
1159.9999998469184
 21
597.15638321366578
  0
LINE
  8
_0-1_計細線
  6
DASHED2
 62
    3
 10
1160.9999998469193
 20
592.15638397907105
 11
1160.9999998469193
 21
596.15638321366532
  0
LINE
  8
_0-1_計細線
  6
DASHED2
 62
    3
 10
1160.9999998469193
 20
586.15638321366532
 11
1160.9999998469193
 21
592.15638397907105
  0
LINE
  8
_0-1_計細線
  6
DASHED2
 62
    3
 10
1159.5
 20
597.65638306058418
 11
1158.9999998469193
 21
598.15638321366532
  0
ARC
  8
_0-1_計細線
  6
DASHED2
 62
    3
 10
1157.9999998469193
 20
566.15638321366532
 40
3
 50
269.99999999999977
 51
359.99999999999966
  0
LINE
  8
_0-1_計細線
  6
DASHED2
 62
    3
 10
1160.9999998469193
 20
580.15638321366532
 11
1160.9999998469193
 21
566.15638321366532
  0
LINE
  8
_0-1_計細線
  6
DASHED2
 62
    3
 10
1148.0000001530807
 20
563.15638321366532
 11
1157.9999998469193
 21
563.15638321366532
  0
ARC
  8
_0-1_計細線
  6
DASHED2
 62
    3
 10
1148.0000001530807
 20
566.15638321366532
 40
3
 50
179.99999999999983
 51
269.99999999999977
  0
LINE
  8
_0-1_計細線
  6
DASHED2
 62
    3
 10
1145.0000001530807
 20
580.15638321366532
 11
1145.0000001530807
 21
566.15638321366532
  0
LINE
  8
_0-1_計細線
  6
DASHED2
 62
    3
 10
1160.9999998469193
 20
586.15638321366532
 11
1158.9999998469193
 21
584.15638321366532
  0
LINE
  8
_0-1_計細線
  6
DASHED2
 62
    3
 10
1158.9999998469193
 20
584.15638321366532
 11
1158.9999998469193
 21
582.15638321366532
  0
LINE
  8
_0-1_計細線
  6
DASHED2
 62
    3
 10
1158.9999998469193
 20
582.15638321366532
 11
1160.9999998469193
 21
580.15638321366532
  0
LINE
  8
_0-1_計細線
  6
DASHED2
 62
    3
 10
1145.0000001530807
 20
586.15638321366532
 11
1147.0000001530807
 21
584.15638321366532
  0
LINE
  8
_0-1_計細線
  6
DASHED2
 62
    3
 10
1147.0000001530807
 20
584.15638321366532
 11
1147.0000001530807
 21
582.15638321366532
  0
LINE
  8
_0-1_計細線
  6
DASHED2
 62
    3
 10
1147.0000001530807
 20
582.15638321366532
 11
1145.0000001530807
 21
580.15638321366532
  0
LINE
  8
_0-1_計細線
  6
DASHED2
 62
    3
 10
1158.9999998469193
 20
598.15638321366532
 11
1147.0000001530807
 21
598.15638321366532
  0
LINE
  8
_0-1_計細線
  6
DASHED2
 62
    3
 10
1145.0000001530807
 20
586.15638321366532
 11
1145.0000001530807
 21
596.15638321366532
  0
LINE
  8
_0-1_計細線
  6
DASHED2
 62
    3
 10
1147.0000001530807
 20
598.15638321366532
 11
1145.0000001530807
 21
596.15638321366532
  0
LINE
  8
_0-5_寸法線
  6
CONTINUOUS
 62
    7
 10
594
 20
634.65638321366578
 11
594
 21
688.65638321366578
  0
LINE
  8
_0-5_寸法線
  6
CONTINUOUS
 62
    7
 10
594
 20
682.65638321366578
 11
605.59110991546879
 21
685.76221175489604
  0
LINE
  8
_0-5_寸法線
  6
CONTINUOUS
 62
    7
 10
594
 20
682.65638321366578
 11
605.59110991546879
 21
679.55055467243551
  0
LINE
  8
_0-5_寸法線
  6
CONTINUOUS
 62
    7
 10
629
 20
634.65638321366578
 11
629
 21
688.65638321366578
  0
LINE
  8
_0-5_寸法線
  6
CONTINUOUS
 62
    7
 10
629
 20
682.65638321366578
 11
617.40889008453121
 21
679.55055467243562
  0
LINE
  8
_0-5_寸法線
  6
CONTINUOUS
 62
    7
 10
629
 20
682.65638321366578
 11
617.40889008453121
 21
685.76221175489604
  0
LINE
  8
_0-5_寸法線
  6
CONTINUOUS
 62
    7
 10
594
 20
682.65638321366578
 11
629
 21
682.65638321366578
  0
TEXT
  8
_0-5_寸法線
 62
    7
 10
602.5
 20
682.65638321366578
 40
18
 41
1
 50
0
  1
35
  0
LINE
  8
_0-5_寸法線
  6
CONTINUOUS
 62
    7
 10
629
 20
682.65638321366578
 11
640.59110991546879
 21
685.76221175489593
  0
LINE
  8
_0-5_寸法線
  6
CONTINUOUS
 62
    7
 10
629
 20
682.65638321366578
 11
640.59110991546879
 21
679.55055467243551
  0
LINE
  8
_0-5_寸法線
  6
CONTINUOUS
 62
    7
 10
1153
 20
634.65638321366578
 11
1153
 21
688.65638321366578
  0
LINE
  8
_0-5_寸法線
  6
CONTINUOUS
 62
    7
 10
1153
 20
682.65638321366578
 11
1141.4088900845309
 21
679.55055467243562
  0
LINE
  8
_0-5_寸法線
  6
CONTINUOUS
 62
    7
 10
1153
 20
682.65638321366578
 11
1141.4088900845309
 21
685.76221175489604
  0
LINE
  8
_0-5_寸法線
  6
CONTINUOUS
 62
    7
 10
629
 20
682.65638321366578
 11
1153
 21
682.65638321366578
  0
TEXT
  8
_0-5_寸法線
 62
    7
 10
877.5
 20
682.65638321366578
 40
18
 41
1
 50
0
  1
524
  0
LINE
  8
_0-5_寸法線
  6
CONTINUOUS
 62
    7
 10
1153
 20
682.65638321366578
 11
1164.5911099154689
 21
685.76221175489593
  0
LINE
  8
_0-5_寸法線
  6
CONTINUOUS
 62
    7
 10
1153
 20
682.65638321366578
 11
1164.5911099154689
 21
679.55055467243551
  0
LINE
  8
_0-5_寸法線
  6
CONTINUOUS
 62
    7
 10
1188
 20
634.65638321366578
 11
1188
 21
688.65638321366578
  0
LINE
  8
_0-5_寸法線
  6
CONTINUOUS
 62
    7
 10
1188
 20
682.65638321366578
 11
1176.4088900845311
 21
679.55055467243562
  0
LINE
  8
_0-5_寸法線
  6
CONTINUOUS
 62
    7
 10
1188
 20
682.65638321366578
 11
1176.4088900845311
 21
685.76221175489604
  0
LINE
  8
_0-5_寸法線
  6
CONTINUOUS
 62
    7
 10
1153
 20
682.65638321366578
 11
1188
 21
682.65638321366578
  0
TEXT
  8
_0-5_寸法線
 62
    7
 10
1161.5
 20
682.65638321366578
 40
18
 41
1
 50
0
  1
35
  0
LINE
  8
_0-1_計細線
  6
CONTINUOUS
 62
    3
 10
1159.5
 20
605.15638321366578
 11
1184.5
 21
605.15638321366578
  0
LINE
  8
_0-1_計細線
  6
CONTINUOUS
 62
    3
 10
1159.5
 20
597.15638321366578
 11
1159.5
 21
605.15638321366578
  0
LINE
  8
_0-1_計細線
  6
CONTINUOUS
 62
    3
 10
1184.5
 20
605.15638321366578
 11
1184.5
 21
597.15638321366578
  0
LINE
  8
_0-1_計細線
  6
CONTINUOUS
 62
    3
 10
1159.5
 20
597.15638321366578
 11
1184.5
 21
597.15638321366578
  0
LINE
  8
_0-1_計細線
  6
CONTINUOUS
 62
    3
 10
1161.6784464540551
 20
588.76415094338927
 11
1160
 21
597.15638321366578
  0
ARC
  8
_0-1_計細線
  6
CONTINUOUS
 62
    3
 10
1163.6396078054377
 20
589.15638321366578
 40
2
 50
191.30993247401983
 51
269.99999999999977
  0
LINE
  8
_0-1_計細線
  6
CONTINUOUS
 62
    3
 10
1184
 20
597.15638321366578
 11
1182.3215535459449
 21
588.76415094338927
  0
LINE
  8
_0-1_計細線
  6
CONTINUOUS
 62
    3
 10
1180.3603921945632
 20
587.15638321366578
 11
1163.6396078054377
 21
587.15638321366578
  0
ARC
  8
_0-1_計細線
  6
CONTINUOUS
 62
    3
 10
1180.3603921945632
 20
589.15638321366578
 40
2
 50
269.99999999999977
 51
348.69006752597431
  0
LINE
  8
_0-1_計細線
  6
CONTINUOUS
 62
    3
 10
622.5
 20
605.15638321366578
 11
597.5
 21
605.15638321366578
  0
LINE
  8
_0-1_計細線
  6
CONTINUOUS
 62
    3
 10
622.5
 20
597.15638321366578
 11
622.5
 21
605.15638321366578
  0
LINE
  8
_0-1_計細線
  6
CONTINUOUS
 62
    3
 10
597.5
 20
605.15638321366578
 11
597.5
 21
597.15638321366578
  0
LINE
  8
_0-1_計細線
  6
CONTINUOUS
 62
    3
 10
622.5
 20
597.15638321366578
 11
597.5
 21
597.15638321366578
  0
LINE
  8
_0-1_計細線
  6
CONTINUOUS
 62
    3
 10
620.32155354594488
 20
588.76415094338927
 11
622
 21
597.15638321366578
  0
ARC
  8
_0-1_計細線
  6
CONTINUOUS
 62
    3
 10
618.36039219456234
 20
589.15638321366578
 40
2
 50
269.99999999999977
 51
348.69006752597943
  0
LINE
  8
_0-1_計細線
  6
CONTINUOUS
 62
    3
 10
598
 20
597.15638321366578
 11
599.67844645405512
 21
588.76415094338927
  0
LINE
  8
_0-1_計細線
  6
CONTINUOUS
 62
    3
 10
601.63960780543675
 20
587.15638321366578
 11
618.36039219456234
 21
587.15638321366578
  0
ARC
  8
_0-1_計細線
  6
CONTINUOUS
 62
    3
 10
601.63960780543675
 20
589.15638321366578
 40
2
 50
191.30993247402495
 51
269.99999999999977
  0
LINE
  8
_0-1_計細線
  6
CONTINUOUS
 62
    3
 10
1179.5000000000018
 20
605.15638321366578
 11
1179.5000000000018
 21
622.15638321366578
  0
LINE
  8
_0-1_計細線
  6
CONTINUOUS
 62
    3
 10
1177.5000000000018
 20
607.15638321366578
 11
1177.5000000000018
 21
622.15638321366578
  0
LINE
  8
_0-1_計細線
  6
CONTINUOUS
 62
    3
 10
1179.5000000000018
 20
605.15638321366578
 11
602.49999999999818
 21
605.15638321366578
  0
LINE
  8
_0-1_計細線
  6
CONTINUOUS
 62
    3
 10
1177.5000000000018
 20
607.15638321366578
 11
604.49999999999818
 21
607.15638321366578
  0
LINE
  8
_0-1_計細線
  6
CONTINUOUS
 62
    3
 10
604.49999999999818
 20
607.15638321366578
 11
604.49999999999818
 21
622.15638321366578
  0
LINE
  8
_0-1_計細線
  6
CONTINUOUS
 62
    3
 10
602.49999999999818
 20
605.15638321366578
 11
602.49999999999818
 21
622.15638321366578
  0
LINE
  8
_0-1_計細線
  6
CONTINUOUS
 62
    3
 10
1179.5000000000018
 20
622.15638321366578
 11
602.49999999999818
 21
622.15638321366578
  0
LINE
  8
_0-0_計極細
  6
CENTER2
 62
    2
 10
629
 20
604.15638321366532
 11
629
 21
555.03030850860659
  0
ARC
  8
_0-1_計細線
  6
DASHED2
 62
    3
 10
633.99999984691931
 20
566.15638321366532
 40
3
 50
269.99999999999977
 51
359.99999999999966
  0
LINE
  8
_0-1_計細線
  6
DASHED2
 62
    3
 10
636.99999984691931
 20
580.15638321366532
 11
636.99999984691931
 21
566.15638321366532
  0
LINE
  8
_0-1_計細線
  6
DASHED2
 62
    3
 10
624.00000015308069
 20
563.15638321366532
 11
633.99999984691931
 21
563.15638321366532
  0
ARC
  8
_0-1_計細線
  6
DASHED2
 62
    3
 10
624.00000015308069
 20
566.15638321366532
 40
3
 50
179.99999999999983
 51
269.99999999999977
  0
LINE
  8
_0-1_計細線
  6
DASHED2
 62
    3
 10
621.00000015308069
 20
580.15638321366532
 11
621.00000015308069
 21
566.15638321366532
  0
LINE
  8
_0-1_計細線
  6
DASHED2
 62
    3
 10
636.99999984691931
 20
586.15638321366532
 11
634.99999984691931
 21
584.15638321366532
  0
LINE
  8
_0-1_計細線
  6
DASHED2
 62
    3
 10
634.99999984691931
 20
584.15638321366532
 11
634.99999984691931
 21
582.15638321366532
  0
LINE
  8
_0-1_計細線
  6
DASHED2
 62
    3
 10
634.99999984691931
 20
582.15638321366532
 11
636.99999984691931
 21
580.15638321366532
  0
LINE
  8
_0-1_計細線
  6
DASHED2
 62
    3
 10
621.00000015308069
 20
586.15638321366532
 11
623.00000015308069
 21
584.15638321366532
  0
LINE
  8
_0-1_計細線
  6
DASHED2
 62
    3
 10
623.00000015308069
 20
584.15638321366532
 11
623.00000015308069
 21
582.15638321366532
  0
LINE
  8
_0-1_計細線
  6
DASHED2
 62
    3
 10
623.00000015308069
 20
582.15638321366532
 11
621.00000015308069
 21
580.15638321366532
  0
LINE
  8
_0-1_計細線
  6
DASHED2
 62
    3
 10
636.99999984691931
 20
586.15638321366532
 11
636.99999984691931
 21
596.15638321366532
  0
LINE
  8
_0-1_計細線
  6
DASHED2
 62
    3
 10
636.99999984691931
 20
596.15638321366532
 11
634.99999984691931
 21
598.15638321366532
  0
LINE
  8
_0-1_計細線
  6
DASHED2
 62
    3
 10
634.99999984691931
 20
598.15638321366532
 11
623.00000015308069
 21
598.15638321366532
  0
LINE
  8
_0-1_計細線
  6
DASHED2
 62
    3
 10
621.00000015308069
 20
586.15638321366532
 11
621.00000015308069
 21
596.15638321366532
  0
LINE
  8
_0-1_計細線
  6
DASHED2
 62
    3
 10
623.00000015308069
 20
598.15638321366532
 11
621.00000015308069
 21
596.15638321366532
  0
LINE
  8
_0-1_計細線
  6
DASHED2
 62
    3
 10
599.49999999999886
 20
602.15638321366578
 11
599.49999999999886
 21
605.15638321366578
  0
LINE
  8
_0-1_計細線
  6
DASHED2
 62
    3
 10
602.49999999999818
 20
605.15638321366578
 11
602.49999999999818
 21
602.15638321366578
  0
LINE
  8
_0-1_計細線
  6
CONTINUOUS
 62
    3
 10
597.50000018892979
 20
602.15638321366578
 11
610.00000066576695
 21
602.15638321366578
  0
LINE
  8
_0-1_計細線
  6
CONTINUOUS
 62
    3
 10
610.00000066576695
 20
602.15638321366578
 11
609.99999999999886
 21
605.15638321366578
  0
LINE
  8
_0-1_計細線
  6
CONTINUOUS
 62
    3
 10
597.50000018892979
 20
602.15638321366578
 11
597.49999999999818
 21
605.15638321366578
  0
LINE
  8
_0-1_計細線
  6
CONTINUOUS
 62
    3
 10
597.49999999999818
 20
605.15638321366578
 11
609.99999999999886
 21
605.15638321366578
  0
LINE
  8
_0-0_計極細
  6
CENTER1
 62
    2
 10
1108
 20
956.65638321366578
 11
1108
 21
435.15636649366206
  0
ARC
  8
_0-1_計細線
  6
CONTINUOUS
 62
    3
 10
1167.4998738399745
 20
585.65638321366578
 40
1.5
 50
89.999999999999915
 51
179.99999999999983
  0
LINE
  8
_0-1_計細線
  6
CONTINUOUS
 62
    3
 10
1185.5
 20
587.15638321366578
 11
1167.4998738399745
 21
587.15638321366578
  0
LINE
  8
_0-1_計細線
  6
CONTINUOUS
 62
    3
 10
1186.5
 20
586.15638321366578
 11
1167.4998738399745
 21
586.15638321366578
  0
LINE
  8
_0-1_計細線
  6
CONTINUOUS
 62
    3
 10
1166.9998738399745
 20
584.65639993366949
 11
1166.9998738399745
 21
585.65638321366578
  0
ARC
  8
_0-1_計細線
  6
CONTINUOUS
 62
    3
 10
1167.4998738399745
 20
585.65638321366578
 40
0.5
 50
89.999999999999915
 51
179.99999999999983
  0
LINE
  8
_0-1_計細線
  6
CONTINUOUS
 62
    3
 10
1166.9998738399745
 20
584.65639993366949
 11
1166.9998738399745
 21
583.65638321366532
  0
ARC
  8
_0-1_計細線
  6
CONTINUOUS
 62
    3
 10
1165.4998738399745
 20
583.65638321366532
 40
1.5
 50
269.99999999999977
 51
359.99999999999966
  0
LINE
  8
_0-1_計細線
  6
CONTINUOUS
 62
    3
 10
1165.9998738399727
 20
585.15636649366161
 11
1165.9998738399727
 21
583.65638321366532
  0
ARC
  8
_0-1_計細線
  6
CONTINUOUS
 62
    3
 10
1165.4998738399727
 20
583.65638321366532
 40
0.5
 50
269.99999999999977
 51
359.99999999999966
  0
LINE
  8
_0-1_計細線
  6
CONTINUOUS
 62
    3
 10
1165.9998738399745
 20
585.65638321366578
 11
1165.9998738399745
 21
585.15636649366161
  0
LINE
  8
_0-1_計細線
  6
CONTINUOUS
 62
    3
 10
1165.4014438569925
 20
583.15638321366532
 11
1165.4998738399745
 21
583.15638321366532
  0
LINE
  8
_0-1_計細線
  6
CONTINUOUS
 62
    3
 10
1165.4998738399745
 20
582.15638321366532
 11
1165.4014438569925
 21
582.15638321366532
  0
LINE
  8
_0-1_計細線
  6
CONTINUOUS
 62
    3
 10
1165.4014438569925
 20
582.15638321366532
 11
1164.8999999999996
 21
582.15638321366532
  0
LINE
  8
_0-1_計細線
  6
CONTINUOUS
 62
    3
 10
1165.4998738399727
 20
583.15638321366532
 11
1164.8999999999996
 21
583.15638321366532
  0
ARC
  8
_0-1_計細線
  6
CONTINUOUS
 62
    3
 10
1048.5001261600255
 20
585.65638321366578
 40
1.5
 50
0
 51
89.999999999999915
  0
LINE
  8
_0-1_計細線
  6
CONTINUOUS
 62
    3
 10
1049.0001261600255
 20
584.65639993366949
 11
1049.0001261600255
 21
585.65638321366578
  0
ARC
  8
_0-1_計細線
  6
CONTINUOUS
 62
    3
 10
1048.5001261600255
 20
585.65638321366578
 40
0.5
 50
0
 51
89.999999999999915
  0
LINE
  8
_0-1_計細線
  6
CONTINUOUS
 62
    3
 10
1049.0001261600255
 20
584.65639993366949
 11
1049.0001261600255
 21
583.65638321366532
  0
ARC
  8
_0-1_計細線
  6
CONTINUOUS
 62
    3
 10
1050.5001261600255
 20
583.65638321366532
 40
1.5
 50
179.99999999999983
 51
269.99999999999977
  0
LINE
  8
_0-1_計細線
  6
CONTINUOUS
 62
    3
 10
1050.0001261600273
 20
585.15636649366161
 11
1050.0001261600273
 21
583.65638321366532
  0
ARC
  8
_0-1_計細線
  6
CONTINUOUS
 62
    3
 10
1050.5001261600273
 20
583.65638321366532
 40
0.5
 50
179.99999999999983
 51
269.99999999999977
  0
LINE
  8
_0-1_計細線
  6
CONTINUOUS
 62
    3
 10
1050.0001261600255
 20
585.65638321366578
 11
1050.0001261600255
 21
585.15636649366161
  0
LINE
  8
_0-1_計細線
  6
CONTINUOUS
 62
    3
 10
1050.5985561430075
 20
583.15638321366532
 11
1050.5001261600255
 21
583.15638321366532
  0
LINE
  8
_0-1_計細線
  6
CONTINUOUS
 62
    3
 10
1050.5001261600255
 20
582.15638321366532
 11
1050.5985561430075
 21
582.15638321366532
  0
LINE
  8
_0-1_計細線
  6
CONTINUOUS
 62
    3
 10
1050.5985561430075
 20
582.15638321366532
 11
1051.1000000000004
 21
582.15638321366532
  0
LINE
  8
_0-1_計細線
  6
CONTINUOUS
 62
    3
 10
1050.5001261600273
 20
583.15638321366532
 11
1051.1000000000004
 21
583.15638321366532
  0
LINE
  8
_0-1_計細線
  6
CONTINUOUS
 62
    3
 10
596.5
 20
587.15638321366578
 11
1048.5001261600255
 21
587.15638321366578
  0
LINE
  8
_0-1_計細線
  6
CONTINUOUS
 62
    3
 10
595.49999999999977
 20
586.15638321366578
 11
1048.5001261600255
 21
586.15638321366578
  0
LINE
  8
_0-1_計細線
  6
CONTINUOUS
 62
    3
 10
1186.750000000002
 20
622.65638321366578
 11
595.26106216253493
 21
622.65638321366578
  0
LINE
  8
_0-1_計細線
  6
CONTINUOUS
 62
    3
 10
594.5
 20
612.65638321366578
 11
595.49999999999977
 21
612.65638321366578
  0
ARC
  8
_0-1_計細線
  6
CONTINUOUS
 62
    3
 10
595.24999999999977
 20
621.40638321366578
 40
1.25
 50
0
 51
180.00000000002049
  0
ARC
  8
_0-1_計細線
  6
CONTINUOUS
 62
    3
 10
595.25
 20
621.40638321366578
 40
0.25
 50
0
 51
89.999999999999915
  0
LINE
  8
_0-1_計細線
  6
CONTINUOUS
 62
    3
 10
595.25
 20
621.65638321366578
 11
595.26106216253493
 21
621.65638321366578
  0
LINE
  8
_0-1_計細線
  6
CONTINUOUS
 62
    3
 10
595.49999999999977
 20
617.72275618887625
 11
595.01325518736394
 21
621.37334228364307
  0
ARC
  8
_0-1_計細線
  6
CONTINUOUS
 62
    3
 10
595.26106216253493
 20
621.40638321366578
 40
0.25
 50
89.999999999999915
 51
187.59464336857042
  0
LINE
  8
_0-1_計細線
  6
CONTINUOUS
 62
    3
 10
594.5
 20
617.52363726324484
 11
594.5
 21
612.65638321366578
  0
LINE
  8
_0-1_計細線
  6
CONTINUOUS
 62
    3
 10
594.48245580136495
 20
617.78796470342695
 11
593.99999999999955
 21
621.40638321366578
  0
ARC
  8
_0-1_計細線
  6
CONTINUOUS
 62
    3
 10
592.49999999999977
 20
617.52363726324484
 40
2
 50
0
 51
7.5946433685940278
  0
LINE
  8
_0-1_計細線
  6
CONTINUOUS
 62
    3
 10
596.5
 20
621.40638321366578
 11
596.5
 21
587.15638321366578
  0
LINE
  8
_0-1_計細線
  6
CONTINUOUS
 62
    3
 10
595.49999999999977
 20
621.40638321366578
 11
595.49999999999977
 21
586.15638321366578
  0
LINE
  8
_0-1_計細線
  6
CONTINUOUS
 62
    3
 10
1187.5
 20
612.65638321366578
 11
1186.5000000000002
 21
612.65638321366578
  0
LINE
  8
_0-1_計細線
  6
CONTINUOUS
 62
    3
 10
1185.5
 20
621.40638321366578
 11
1185.5
 21
587.15638321366578
  0
ARC
  8
_0-1_計細線
  6
CONTINUOUS
 62
    3
 10
1186.75
 20
621.40638321366578
 40
1.25
 50
359.9999999999788
 51
179.99999999999946
  0
LINE
  8
_0-1_計細線
  6
CONTINUOUS
 62
    3
 10
1186.5000000000002
 20
621.40638321366578
 11
1186.5000000000002
 21
586.15638321366578
  0
ARC
  8
_0-1_計細線
  6
CONTINUOUS
 62
    3
 10
1186.75
 20
621.40638321366578
 40
0.25
 50
89.999999999999915
 51
179.99999999999983
  0
LINE
  8
_0-1_計細線
  6
CONTINUOUS
 62
    3
 10
1186.75
 20
621.65638321366578
 11
1186.7389378374651
 21
621.65638321366578
  0
LINE
  8
_0-1_計細線
  6
CONTINUOUS
 62
    3
 10
1186.5000000000002
 20
617.72275618887625
 11
1186.9867448126361
 21
621.37334228364307
  0
ARC
  8
_0-1_計細線
  6
CONTINUOUS
 62
    3
 10
1186.7389378374651
 20
621.40638321366578
 40
0.25
 50
352.4053566314289
 51
89.999999999999545
  0
LINE
  8
_0-1_計細線
  6
CONTINUOUS
 62
    3
 10
1187.5
 20
617.52363726324484
 11
1187.5
 21
612.65638321366578
  0
LINE
  8
_0-1_計細線
  6
CONTINUOUS
 62
    3
 10
1187.5175441986351
 20
617.78796470342695
 11
1188.0000000000005
 21
621.40638321366578
  0
ARC
  8
_0-1_計細線
  6
CONTINUOUS
 62
    3
 10
1189.5000000000002
 20
617.52363726324484
 40
2
 50
172.40535663140597
 51
179.99999999999983
  0
LINE
  8
_0-0_計極細
  6
CONTINUOUS
 62
    2
 10
1108.5
 20
586.15638321366578
 11
1108
 21
586.15638321366578
  0
LINE
  8
_0-0_計極細
  6
CONTINUOUS
 62
    2
 10
1135
 20
563.65638321366532
 11
1157.9789999999994
 21
563.65638321366532
  0
LINE
  8
_0-0_計極細
  6
CONTINUOUS
 62
    2
 10
1146.25
 20
558.45638321366505
 11
1135
 21
558.45638321366505
  0
LINE
  8
_0-0_計極細
  6
CONTINUOUS
 62
    2
 10
1157.9789999999994
 20
584.86344721366504
 11
1164.8999999999996
 21
585.84920422833511
  0
LINE
  8
_0-0_計極細
  6
CONTINUOUS
 62
    2
 10
1135
 20
563.36071921366511
 11
1135
 21
564.83847221366523
  0
LINE
  8
_0-0_計極細
  6
CONTINUOUS
 62
    2
 10
1135
 20
564.45638321366505
 11
1156.5
 21
564.45638321366505
  0
LINE
  8
_0-0_計極細
  6
CONTINUOUS
 62
    2
 10
1151.5
 20
577.96422621366537
 11
1151.5
 21
578.86344721366504
  0
LINE
  8
_0-0_計極細
  6
CONTINUOUS
 62
    2
 10
1151.5
 20
571.86422621366501
 11
1151.5
 21
573.36422621366501
  0
LINE
  8
_0-0_計極細
  6
CONTINUOUS
 62
    2
 10
1147.75
 20
576.26955721366539
 11
1147.75
 21
574.96955721366521
  0
LINE
  8
_0-0_計極細
  6
CONTINUOUS
 62
    2
 10
1147.75
 20
573.96955721366521
 11
1147.75
 21
573.46955721366521
  0
LINE
  8
_0-0_計極細
  6
CONTINUOUS
 62
    2
 10
1151.3500000000004
 20
576.26955721366539
 11
1151.3500000000004
 21
573.46955721366521
  0
LINE
  8
_0-0_計極細
  6
CONTINUOUS
 62
    2
 10
1147.25
 20
576.76955721366539
 11
1147.75
 21
577.26955721366539
  0
LINE
  8
_0-0_計極細
  6
CONTINUOUS
 62
    2
 10
1147.75
 20
576.26955721366539
 11
1147.25
 21
576.76955721366539
  0
LINE
  8
_0-0_計極細
  6
CONTINUOUS
 62
    2
 10
1147.75
 20
573.96955721366521
 11
1147.25
 21
574.46955721366521
  0
LINE
  8
_0-0_計極細
  6
CONTINUOUS
 62
    2
 10
1147.25
 20
574.46955721366521
 11
1147.75
 21
574.96955721366521
  0
LINE
  8
_0-0_計極細
  6
CONTINUOUS
 62
    2
 10
1151.3500000000004
 20
576.26955721366539
 11
1152.1499999999996
 21
577.76955721366539
  0
LINE
  8
_0-0_計極細
  6
CONTINUOUS
 62
    2
 10
1147.75
 20
577.76955721366539
 11
1147.75
 21
577.26955721366539
  0
LINE
  8
_0-0_計極細
  6
CONTINUOUS
 62
    2
 10
1108.2000000000007
 20
578.86344721366549
 11
1151.8000000000011
 21
578.86344721366504
  0
LINE
  8
_0-0_計極細
  6
CONTINUOUS
 62
    2
 10
1108.2000000000007
 20
579.86344721366549
 11
1151.2000000000007
 21
579.86344721366504
  0
ARC
  8
_0-0_計極細
  6
CONTINUOUS
 62
    2
 10
1153.9500000000007
 20
583.86344721366504
 40
0.5
 50
24.054549000092944
 51
89.999999999999929
  0
ARC
  8
_0-0_計極細
  6
CONTINUOUS
 62
    2
 10
1154.25
 20
582.56344721366531
 40
0.1999999999999886
 50
269.99999999999977
 51
359.99999999999966
  0
ARC
  8
_0-0_計極細
  6
CONTINUOUS
 62
    2
 10
1153.9500000000007
 20
583.86344721366504
 40
0.5
 50
0
 51
24.054549000092944
  0
ARC
  8
_0-0_計極細
  6
CONTINUOUS
 62
    2
 10
1151.8000000000011
 20
579.36344721366504
 40
0.5
 50
269.99999999999977
 51
359.99999999999966
  0
LINE
  8
_0-0_計極細
  6
CONTINUOUS
 62
    2
 10
1151.2000000000007
 20
578.86344721366504
 11
1151.2000000000007
 21
579.86344721366504
  0
LINE
  8
_0-0_計極細
  6
CONTINUOUS
 62
    2
 10
1152.3000000000011
 20
579.36344721366504
 11
1152.3000000000011
 21
582.36344721366504
  0
LINE
  8
_0-0_計極細
  6
CONTINUOUS
 62
    2
 10
1152.3000000000011
 20
582.36344721366504
 11
1154.25
 21
582.36344721366504
  0
LINE
  8
_0-0_計極細
  6
CONTINUOUS
 62
    2
 10
1154.4500000000007
 20
582.56344721366531
 11
1154.4500000000007
 21
583.86344721366504
  0
LINE
  8
_0-0_計極細
  6
CONTINUOUS
 62
    2
 10
1139.2863130000005
 20
565.66344721366522
 11
1139.2863130000005
 21
567.36344721366504
  0
LINE
  8
_0-0_計極細
  6
CONTINUOUS
 62
    2
 10
1142.7863130000005
 20
565.66344721366522
 11
1142.7863130000005
 21
567.36344721366504
  0
LINE
  8
_0-0_計極細
  6
CONTINUOUS
 62
    2
 10
1137.7863130000005
 20
565.66344721366522
 11
1137.7863130000005
 21
567.36344721366504
  0
LINE
  8
_0-0_計極細
  6
CONTINUOUS
 62
    2
 10
1137.7863130000005
 20
565.66344721366522
 11
1142.7863130000005
 21
565.66344721366522
  0
LINE
  8
_0-0_計極細
  6
CONTINUOUS
 62
    2
 10
1151
 20
567.36344721366504
 11
1156.5
 21
567.36344721366504
  0
LINE
  8
_0-0_計極細
  6
CONTINUOUS
 62
    2
 10
1150.1698159999996
 20
565.36344721366504
 11
1151
 21
565.36344721366504
  0
LINE
  8
_0-0_計極細
  6
CONTINUOUS
 62
    2
 10
1151
 20
570.06344721366531
 11
1152.3000000000011
 21
570.06344721366531
  0
LINE
  8
_0-0_計極細
  6
CONTINUOUS
 62
    2
 10
1151
 20
569.36344721366504
 11
1153
 21
569.36344721366504
  0
LINE
  8
_0-0_計極細
  6
CONTINUOUS
 62
    2
 10
1148.75
 20
567.46422621366537
 11
1148.75
 21
571.36344721366504
  0
LINE
  8
_0-0_計極細
  6
CONTINUOUS
 62
    2
 10
1151
 20
565.36344721366504
 11
1151
 21
571.36344721366504
  0
LINE
  8
_0-0_計極細
  6
CONTINUOUS
 62
    2
 10
1157.9789999999994
 20
568.84244721366531
 11
1156.5
 21
567.36344721366504
  0
LINE
  8
_0-0_計極細
  6
CONTINUOUS
 62
    2
 10
1153
 20
569.36344721366504
 11
1153
 21
580.61344721366504
  0
ARC
  8
_0-0_計極細
  6
CONTINUOUS
 62
    2
 10
1154.0500000000011
 20
580.61344721366504
 40
1.0500000000000114
 50
89.999999999999915
 51
179.99999999999983
  0
LINE
  8
_0-0_計極細
  6
CONTINUOUS
 62
    2
 10
1155.2412240000012
 20
581.66344721366522
 11
1154.0500000000011
 21
581.66344721366522
  0
ARC
  8
_0-0_計極細
  6
CONTINUOUS
 62
    2
 10
1155.2412240000012
 20
583.36344721366504
 40
1.6999999999999886
 50
269.99999999999977
 51
356.64911199999773
  0
ARC
  8
_0-0_計極細
  6
CONTINUOUS
 62
    2
 10
1155.2412240000012
 20
583.36344721366504
 40
1
 50
269.99999999999977
 51
356.64911199999977
  0
ARC
  8
_0-0_計極細
  6
CONTINUOUS
 62
    2
 10
1157.9789999999994
 20
583.11344721366504
 40
1.7499999999999998
 50
89.999999999999915
 51
175.8490099999841
  0
ARC
  8
_0-0_計極細
  6
CONTINUOUS
 62
    2
 10
1154.0500000000011
 20
580.61344721366504
 40
1.7499999999999998
 50
89.999999999999915
 51
179.99999999999983
  0
LINE
  8
_0-0_計極細
  6
CONTINUOUS
 62
    2
 10
1154.5
 20
582.36344721366504
 11
1154.5
 21
584.86344721366504
  0
LINE
  8
_0-0_計極細
  6
CONTINUOUS
 62
    2
 10
1152.3000000000011
 20
570.06344721366531
 11
1152.3000000000011
 21
580.61344721366504
  0
LINE
  8
_0-0_計極細
  6
CONTINUOUS
 62
    2
 10
1155.2412240000012
 20
582.36344721366504
 11
1154.0500000000011
 21
582.36344721366504
  0
LINE
  8
_0-0_計極細
  6
CONTINUOUS
 62
    2
 10
1148.25
 20
571.36344721366504
 11
1152.3000000000011
 21
571.36344721366504
  0
LINE
  8
_0-0_計極細
  6
CONTINUOUS
 62
    2
 10
1135.5571610000006
 20
567.36344721366504
 11
1145.4983069999998
 21
567.36344721366504
  0
ARC
  8
_0-0_計極細
  6
CONTINUOUS
 62
    2
 10
1146.25
 20
557.45638321366505
 40
1
 50
89.999999999999915
 51
179.99999999999983
  0
ARC
  8
_0-0_計極細
  6
CONTINUOUS
 62
    2
 10
1146.25
 20
557.45638321366505
 40
1
 50
0
 51
89.999999999999915
  0
LINE
  8
_0-0_計極細
  6
CONTINUOUS
 62
    2
 10
1164.8999999999996
 20
583.45638321366505
 11
1157.9789999999994
 21
582.65638321366532
  0
LINE
  8
_0-0_計極細
  6
CONTINUOUS
 62
    2
 10
1157.9789999999994
 20
563.65638321366532
 11
1156.5
 21
564.45638321366505
  0
LINE
  8
_0-0_計極細
  6
CONTINUOUS
 62
    2
 10
1156.5
 20
564.45638321366505
 11
1156.5
 21
567.36344721366504
  0
LINE
  8
_0-1_計細線
  6
CONTINUOUS
 62
    3
 10
1164.8999999999996
 20
570.01162421366553
 11
1164.8999999999996
 21
585.83496121366534
  0
LINE
  8
_0-1_計細線
  6
CONTINUOUS
 62
    3
 10
1161
 20
569.45638321366505
 11
1164.8999999999996
 21
569.45638321366505
  0
LINE
  8
_0-1_計細線
  6
CONTINUOUS
 62
    3
 10
1164.8999999999996
 20
569.45638321366505
 11
1164.8999999999996
 21
570.01162421366553
  0
ARC
  8
_0-1_計細線
  6
CONTINUOUS
 62
    3
 10
1163.5
 20
557.12625621366533
 40
5
 50
119.99999999999989
 51
179.99999999999983
  0
LINE
  8
_0-1_計細線
  6
CONTINUOUS
 62
    3
 10
1161
 20
561.45638321366505
 11
1161
 21
569.45638321366505
  0
LINE
  8
_0-0_計極細
  6
CONTINUOUS
 62
    2
 10
1157.9789999999994
 20
584.15638266741416
 11
1164.8999999999996
 21
585.14214021366524
  0
LINE
  8
_0-0_計極細
  6
CONTINUOUS
 62
    2
 10
1157.9789999999994
 20
568.84244721366531
 11
1157.9789999999994
 21
584.16344721366522
  0
ARC
  8
_0-0_計極細
  6
CONTINUOUS
 62
    2
 10
1157.9789999999994
 20
583.11344721366504
 40
1.0500000000000114
 50
89.999999999999915
 51
175.84900999999113
  0
ARC
  8
_0-0_計極細
  6
CONTINUOUS
 62
    2
 10
1141
 20
564.83847221366523
 40
6
 50
55.166292356146954
 51
179.99999999999983
  0
ARC
  8
_0-0_計極細
  6
CONTINUOUS
 62
    2
 10
1142.5
 20
567.46422621366537
 40
3
 50
0
 51
50.029499419945331
  0
LINE
  8
_0-0_計極細
  6
CONTINUOUS
 62
    2
 10
1145.5
 20
564.46422621366537
 11
1145.5
 21
567.46422621366537
  0
LINE
  8
_0-0_計極細
  6
CONTINUOUS
 62
    2
 10
1148.5
 20
564.46422621366537
 11
1145.5
 21
564.46422621366537
  0
ARC
  8
_0-0_計極細
  6
CONTINUOUS
 62
    2
 10
1148.5
 20
566.46422621366537
 40
2
 50
269.99999999999977
 51
359.99999999999966
  0
LINE
  8
_0-0_計極細
  6
CONTINUOUS
 62
    2
 10
1150.5
 20
566.46422621366537
 11
1150.5
 21
567.46422621366537
  0
LINE
  8
_0-0_計極細
  6
CONTINUOUS
 62
    2
 10
1150.5
 20
567.46422621366537
 11
1148.25
 21
567.46422621366537
  0
LINE
  8
_0-0_計極細
  6
CONTINUOUS
 62
    2
 10
1151.5
 20
571.86422621366501
 11
1148.25
 21
571.86422621366501
  0
LINE
  8
_0-0_計極細
  6
CONTINUOUS
 62
    2
 10
1148.25
 20
567.46422621366537
 11
1148.25
 21
571.86422621366546
  0
ARC
  8
_0-0_計極細
  6
CONTINUOUS
 62
    2
 10
1135.25
 20
499.65636649366155
 40
10
 50
269.99999999999977
 51
359.99999999999966
  0
LINE
  8
_0-0_計極細
  6
CONTINUOUS
 62
    2
 10
1145.25
 20
499.65636649366155
 11
1145.25
 21
557.45638321366505
  0
LINE
  8
_0-0_計極細
  6
CONTINUOUS
 62
    2
 10
1147.25
 20
499.65636649366155
 11
1147.25
 21
557.45638321366505
  0
LINE
  8
_0-0_計極細
  6
CONTINUOUS
 62
    2
 10
1108.9310340000011
 20
487.65636649366155
 11
1135.25
 21
487.65636649366155
  0
ARC
  8
_0-0_計極細
  6
CONTINUOUS
 62
    2
 10
1109.4965640000009
 20
478.15636649366161
 40
0.5
 50
180.3951370000056
 51
269.99999999999977
  0
LINE
  8
_0-0_計極細
  6
CONTINUOUS
 62
    2
 10
1108.9965749999992
 20
478.15291849366167
 11
1108.9311049999997
 21
487.64608349366154
  0
LINE
  8
_0-0_計極細
  6
CONTINUOUS
 62
    2
 10
1146.25
 20
450.15636649366155
 11
1146
 21
475.15636649366161
  0
LINE
  8
_0-0_計極細
  6
CONTINUOUS
 62
    2
 10
1156
 20
536.57793349366148
 11
1156
 21
563.65638321366532
  0
ARC
  8
_0-0_計極細
  6
CONTINUOUS
 62
    2
 10
1155
 20
536.57793349366148
 40
1
 50
277.18075600005386
 51
359.99999999999966
  0
ARC
  8
_0-0_計極細
  6
CONTINUOUS
 62
    2
 10
1135.25
 20
499.65636649366155
 40
12
 50
269.99999999999977
 51
359.99999999999966
  0
LINE
  8
_0-0_計極細
  6
CONTINUOUS
 62
    2
 10
1133
 20
477.65636649366161
 11
1133
 21
487.65636649366155
  0
LINE
  8
_0-0_計極細
  6
CONTINUOUS
 62
    2
 10
1135.25
 20
487.65636649366155
 11
1133
 21
487.65636649366155
  0
LINE
  8
_0-0_計極細
  6
CONTINUOUS
 62
    2
 10
1147.25
 20
499.65636649366155
 11
1147.25
 21
526.65636649366161
  0
ARC
  8
_0-0_計極細
  6
CONTINUOUS
 62
    2
 10
1148
 20
485.65636649366161
 40
8
 50
269.99999999999977
 51
359.99999999999636
  0
LINE
  8
_0-0_計極細
  6
CONTINUOUS
 62
    2
 10
1136
 20
475.15636649366161
 11
1146
 21
475.15636649366161
  0
LINE
  8
_0-0_計極細
  6
CONTINUOUS
 62
    2
 10
1133.5
 20
445.15636649366161
 11
1133
 21
477.65636649366161
  0
LINE
  8
_0-0_計極細
  6
CONTINUOUS
 62
    2
 10
1156
 20
485.65636649366115
 11
1156
 21
536.57793349366148
  0
LINE
  8
_0-0_計極細
  6
CONTINUOUS
 62
    2
 10
1148
 20
477.65636649366161
 11
1133
 21
477.65636649366161
  0
LINE
  8
_0-0_計極細
  6
CONTINUOUS
 62
    2
 10
1135.5833333333339
 20
450.15636649366155
 11
1136
 21
475.15636649366161
  0
LINE
  8
_0-1_計細線
  6
CONTINUOUS
 62
    3
 10
1135.5
 20
445.15636649366161
 11
1135.5833333333339
 21
450.15636649366155
  0
ARC
  8
_0-1_計細線
  6
CONTINUOUS
 62
    3
 10
1150.5
 20
483.15636649366115
 40
8
 50
269.99999999999977
 51
359.99999999999966
  0
LINE
  8
_0-1_計細線
  6
CONTINUOUS
 62
    3
 10
1158.5
 20
483.15636649366115
 11
1158.5
 21
557.12625621366533
  0
LINE
  8
_0-1_計細線
  6
CONTINUOUS
 62
    3
 10
1149.1000000000004
 20
450.15636649366155
 11
1149.5
 21
475.15636649366161
  0
LINE
  8
_0-1_計細線
  6
CONTINUOUS
 62
    3
 10
1135.5833330000005
 20
450.15636649366155
 11
1149.1000000000004
 21
450.15636649366155
  0
LINE
  8
_0-1_計細線
  6
CONTINUOUS
 62
    3
 10
1132.5564009999998
 20
445.15636649366161
 11
1135.5
 21
445.15636649366161
  0
ARC
  8
_0-0_計極細
  6
CONTINUOUS
 62
    2
 10
1133.999984
 20
505.86420949366129
 40
1
 50
179.99999999999983
 51
270.00045836628669
  0
ARC
  8
_0-0_計極細
  6
CONTINUOUS
 62
    2
 10
1134
 20
505.86420949366129
 40
1
 50
269.99954163381682
 51
359.99999999999966
  0
LINE
  8
_0-0_計極細
  6
CONTINUOUS
 62
    2
 10
1132.999984
 20
505.86420949366129
 11
1132.999984
 21
563.65638321366532
  0
LINE
  8
_0-0_計極細
  6
CONTINUOUS
 62
    2
 10
1135
 20
505.86420949366129
 11
1135
 21
564.83847221366523
  0
LINE
  8
_0-0_計極細
  6
CONTINUOUS
 62
    2
 10
1155.1250000037853
 20
535.58577675248898
 11
1147.25
 21
535.58577675248898
  0
LINE
  8
_0-1_計細線
  6
CONTINUOUS
 62
    3
 10
1149.5
 20
475.15636649366161
 11
1150.5
 21
475.15636649366115
  0
LINE
  8
_0-0_計極細
  6
CONTINUOUS
 62
    2
 10
1081
 20
563.65638321366532
 11
1058.0210000000006
 21
563.65638321366532
  0
LINE
  8
_0-0_計極細
  6
CONTINUOUS
 62
    2
 10
1069.75
 20
558.45638321366505
 11
1081
 21
558.45638321366505
  0
LINE
  8
_0-0_計極細
  6
CONTINUOUS
 62
    2
 10
1058.0210000000006
 20
584.86344721366504
 11
1051.1000000000004
 21
585.84920422833511
  0
LINE
  8
_0-0_計極細
  6
CONTINUOUS
 62
    2
 10
1081
 20
563.36071921366511
 11
1081
 21
564.83847221366523
  0
LINE
  8
_0-0_計極細
  6
CONTINUOUS
 62
    2
 10
1081
 20
564.45638321366505
 11
1059.5
 21
564.45638321366505
  0
LINE
  8
_0-0_計極細
  6
CONTINUOUS
 62
    2
 10
1064.5
 20
577.96422621366537
 11
1064.5
 21
578.86344721366504
  0
LINE
  8
_0-0_計極細
  6
CONTINUOUS
 62
    2
 10
1064.5
 20
571.86422621366501
 11
1064.5
 21
573.36422621366501
  0
LINE
  8
_0-0_計極細
  6
CONTINUOUS
 62
    2
 10
1068.25
 20
576.26955721366539
 11
1068.25
 21
574.96955721366521
  0
LINE
  8
_0-0_計極細
  6
CONTINUOUS
 62
    2
 10
1068.25
 20
573.96955721366521
 11
1068.25
 21
573.46955721366521
  0
LINE
  8
_0-0_計極細
  6
CONTINUOUS
 62
    2
 10
1064.6499999999996
 20
576.26955721366539
 11
1064.6499999999996
 21
573.46955721366521
  0
LINE
  8
_0-0_計極細
  6
CONTINUOUS
 62
    2
 10
1068.75
 20
576.76955721366539
 11
1068.25
 21
577.26955721366539
  0
LINE
  8
_0-0_計極細
  6
CONTINUOUS
 62
    2
 10
1068.25
 20
576.26955721366539
 11
1068.75
 21
576.76955721366539
  0
LINE
  8
_0-0_計極細
  6
CONTINUOUS
 62
    2
 10
1068.25
 20
573.96955721366521
 11
1068.75
 21
574.46955721366521
  0
LINE
  8
_0-0_計極細
  6
CONTINUOUS
 62
    2
 10
1068.75
 20
574.46955721366521
 11
1068.25
 21
574.96955721366521
  0
LINE
  8
_0-0_計極細
  6
CONTINUOUS
 62
    2
 10
1064.6499999999996
 20
576.26955721366539
 11
1063.8500000000004
 21
577.76955721366539
  0
LINE
  8
_0-0_計極細
  6
CONTINUOUS
 62
    2
 10
1068.25
 20
577.76955721366539
 11
1068.25
 21
577.26955721366539
  0
LINE
  8
_0-0_計極細
  6
CONTINUOUS
 62
    2
 10
1107.7999999999993
 20
578.86344721366549
 11
1064.1999999999989
 21
578.86344721366504
  0
LINE
  8
_0-0_計極細
  6
CONTINUOUS
 62
    2
 10
1107.7999999999993
 20
579.86344721366549
 11
1064.7999999999993
 21
579.86344721366504
  0
ARC
  8
_0-0_計極細
  6
CONTINUOUS
 62
    2
 10
1062.0499999999993
 20
583.86344721366504
 40
0.5
 50
89.999999999999915
 51
155.94545099990708
  0
ARC
  8
_0-0_計極細
  6
CONTINUOUS
 62
    2
 10
1061.75
 20
582.56344721366531
 40
0.1999999999999886
 50
179.99999999999983
 51
269.99999999999977
  0
ARC
  8
_0-0_計極細
  6
CONTINUOUS
 62
    2
 10
1062.0499999999993
 20
583.86344721366504
 40
0.5
 50
155.94545099990708
 51
179.99999999999983
  0
ARC
  8
_0-0_計極細
  6
CONTINUOUS
 62
    2
 10
1064.1999999999989
 20
579.36344721366504
 40
0.5
 50
179.99999999999983
 51
269.99999999999977
  0
LINE
  8
_0-0_計極細
  6
CONTINUOUS
 62
    2
 10
1064.7999999999993
 20
578.86344721366504
 11
1064.7999999999993
 21
579.86344721366504
  0
LINE
  8
_0-0_計極細
  6
CONTINUOUS
 62
    2
 10
1063.6999999999989
 20
579.36344721366504
 11
1063.6999999999989
 21
582.36344721366504
  0
LINE
  8
_0-0_計極細
  6
CONTINUOUS
 62
    2
 10
1063.6999999999989
 20
582.36344721366504
 11
1061.75
 21
582.36344721366504
  0
LINE
  8
_0-0_計極細
  6
CONTINUOUS
 62
    2
 10
1061.5499999999993
 20
582.56344721366531
 11
1061.5499999999993
 21
583.86344721366504
  0
LINE
  8
_0-0_計極細
  6
CONTINUOUS
 62
    2
 10
1076.7136869999995
 20
565.66344721366522
 11
1076.7136869999995
 21
567.36344721366504
  0
LINE
  8
_0-0_計極細
  6
CONTINUOUS
 62
    2
 10
1073.2136869999995
 20
565.66344721366522
 11
1073.2136869999995
 21
567.36344721366504
  0
LINE
  8
_0-0_計極細
  6
CONTINUOUS
 62
    2
 10
1078.2136869999995
 20
565.66344721366522
 11
1078.2136869999995
 21
567.36344721366504
  0
LINE
  8
_0-0_計極細
  6
CONTINUOUS
 62
    2
 10
1078.2136869999995
 20
565.66344721366522
 11
1073.2136869999995
 21
565.66344721366522
  0
LINE
  8
_0-0_計極細
  6
CONTINUOUS
 62
    2
 10
1065
 20
567.36344721366504
 11
1059.5
 21
567.36344721366504
  0
LINE
  8
_0-0_計極細
  6
CONTINUOUS
 62
    2
 10
1065.8301840000004
 20
565.36344721366504
 11
1065
 21
565.36344721366504
  0
LINE
  8
_0-0_計極細
  6
CONTINUOUS
 62
    2
 10
1065
 20
570.06344721366531
 11
1063.6999999999989
 21
570.06344721366531
  0
LINE
  8
_0-0_計極細
  6
CONTINUOUS
 62
    2
 10
1065
 20
569.36344721366504
 11
1063
 21
569.36344721366504
  0
LINE
  8
_0-0_計極細
  6
CONTINUOUS
 62
    2
 10
1067.25
 20
567.46422621366537
 11
1067.25
 21
571.36344721366504
  0
LINE
  8
_0-0_計極細
  6
CONTINUOUS
 62
    2
 10
1065
 20
565.36344721366504
 11
1065
 21
571.36344721366504
  0
LINE
  8
_0-0_計極細
  6
CONTINUOUS
 62
    2
 10
1058.0210000000006
 20
568.84244721366531
 11
1059.5
 21
567.36344721366504
  0
LINE
  8
_0-0_計極細
  6
CONTINUOUS
 62
    2
 10
1063
 20
569.36344721366504
 11
1063
 21
580.61344721366504
  0
ARC
  8
_0-0_計極細
  6
CONTINUOUS
 62
    2
 10
1061.9499999999989
 20
580.61344721366504
 40
1.0500000000000114
 50
0
 51
89.999999999999915
  0
LINE
  8
_0-0_計極細
  6
CONTINUOUS
 62
    2
 10
1060.7587759999988
 20
581.66344721366522
 11
1061.9499999999989
 21
581.66344721366522
  0
ARC
  8
_0-0_計極細
  6
CONTINUOUS
 62
    2
 10
1060.7587759999988
 20
583.36344721366504
 40
1.6999999999999886
 50
183.35088800000156
 51
269.99999999999977
  0
ARC
  8
_0-0_計極細
  6
CONTINUOUS
 62
    2
 10
1060.7587759999988
 20
583.36344721366504
 40
1
 50
183.35088799999946
 51
269.99999999999977
  0
ARC
  8
_0-0_計極細
  6
CONTINUOUS
 62
    2
 10
1058.0210000000006
 20
583.11344721366504
 40
1.7499999999999998
 50
4.1509900000159075
 51
89.999999999999915
  0
ARC
  8
_0-0_計極細
  6
CONTINUOUS
 62
    2
 10
1061.9499999999989
 20
580.61344721366504
 40
1.7499999999999998
 50
0
 51
89.999999999999915
  0
LINE
  8
_0-0_計極細
  6
CONTINUOUS
 62
    2
 10
1061.5
 20
582.36344721366504
 11
1061.5
 21
584.86344721366504
  0
LINE
  8
_0-0_計極細
  6
CONTINUOUS
 62
    2
 10
1063.6999999999989
 20
570.06344721366531
 11
1063.6999999999989
 21
580.61344721366504
  0
LINE
  8
_0-0_計極細
  6
CONTINUOUS
 62
    2
 10
1060.7587759999988
 20
582.36344721366504
 11
1061.9499999999989
 21
582.36344721366504
  0
LINE
  8
_0-0_計極細
  6
CONTINUOUS
 62
    2
 10
1067.75
 20
571.36344721366504
 11
1063.6999999999989
 21
571.36344721366504
  0
LINE
  8
_0-0_計極細
  6
CONTINUOUS
 62
    2
 10
1080.4428389999994
 20
567.36344721366504
 11
1070.5016930000002
 21
567.36344721366504
  0
ARC
  8
_0-0_計極細
  6
CONTINUOUS
 62
    2
 10
1069.75
 20
557.45638321366505
 40
1
 50
0
 51
89.999999999999915
  0
ARC
  8
_0-0_計極細
  6
CONTINUOUS
 62
    2
 10
1069.75
 20
557.45638321366505
 40
1
 50
89.999999999999915
 51
179.99999999999983
  0
LINE
  8
_0-0_計極細
  6
CONTINUOUS
 62
    2
 10
1051.1000000000004
 20
583.45638321366505
 11
1058.0210000000006
 21
582.65638321366532
  0
LINE
  8
_0-0_計極細
  6
CONTINUOUS
 62
    2
 10
1058.0210000000006
 20
563.65638321366532
 11
1059.5
 21
564.45638321366505
  0
LINE
  8
_0-0_計極細
  6
CONTINUOUS
 62
    2
 10
1059.5
 20
564.45638321366505
 11
1059.5
 21
567.36344721366504
  0
LINE
  8
_0-1_計細線
  6
CONTINUOUS
 62
    3
 10
1051.1000000000004
 20
570.01162421366553
 11
1051.1000000000004
 21
585.83496121366534
  0
LINE
  8
_0-1_計細線
  6
CONTINUOUS
 62
    3
 10
1055
 20
569.45638321366505
 11
1051.1000000000004
 21
569.45638321366505
  0
LINE
  8
_0-1_計細線
  6
CONTINUOUS
 62
    3
 10
1051.1000000000004
 20
569.45638321366505
 11
1051.1000000000004
 21
570.01162421366553
  0
ARC
  8
_0-1_計細線
  6
CONTINUOUS
 62
    3
 10
1052.5
 20
557.12625621366533
 40
5
 50
0
 51
60.000000000000107
  0
LINE
  8
_0-1_計細線
  6
CONTINUOUS
 62
    3
 10
1055
 20
561.45638321366505
 11
1055
 21
569.45638321366505
  0
LINE
  8
_0-0_計極細
  6
CONTINUOUS
 62
    2
 10
1058.0210000000006
 20
584.15638266741416
 11
1051.1000000000004
 21
585.14214021366524
  0
LINE
  8
_0-0_計極細
  6
CONTINUOUS
 62
    2
 10
1058.0210000000006
 20
568.84244721366531
 11
1058.0210000000006
 21
584.16344721366522
  0
ARC
  8
_0-0_計極細
  6
CONTINUOUS
 62
    2
 10
1058.0210000000006
 20
583.11344721366504
 40
1.0500000000000114
 50
4.150990000008882
 51
89.999999999999915
  0
ARC
  8
_0-0_計極細
  6
CONTINUOUS
 62
    2
 10
1075
 20
564.83847221366523
 40
6
 50
0
 51
124.83370764385305
  0
ARC
  8
_0-0_計極細
  6
CONTINUOUS
 62
    2
 10
1073.5
 20
567.46422621366537
 40
3
 50
129.97050058005468
 51
179.99999999999983
  0
LINE
  8
_0-0_計極細
  6
CONTINUOUS
 62
    2
 10
1070.5
 20
564.46422621366537
 11
1070.5
 21
567.46422621366537
  0
LINE
  8
_0-0_計極細
  6
CONTINUOUS
 62
    2
 10
1067.5
 20
564.46422621366537
 11
1070.5
 21
564.46422621366537
  0
ARC
  8
_0-0_計極細
  6
CONTINUOUS
 62
    2
 10
1067.5
 20
566.46422621366537
 40
2
 50
179.99999999999983
 51
269.99999999999977
  0
LINE
  8
_0-0_計極細
  6
CONTINUOUS
 62
    2
 10
1065.5
 20
566.46422621366537
 11
1065.5
 21
567.46422621366537
  0
LINE
  8
_0-0_計極細
  6
CONTINUOUS
 62
    2
 10
1065.5
 20
567.46422621366537
 11
1067.75
 21
567.46422621366537
  0
LINE
  8
_0-0_計極細
  6
CONTINUOUS
 62
    2
 10
1064.5
 20
571.86422621366501
 11
1067.75
 21
571.86422621366501
  0
LINE
  8
_0-0_計極細
  6
CONTINUOUS
 62
    2
 10
1067.75
 20
567.46422621366537
 11
1067.75
 21
571.86422621366546
  0
ARC
  8
_0-0_計極細
  6
CONTINUOUS
 62
    2
 10
1080.75
 20
499.65636649366155
 40
10
 50
179.99999999999983
 51
269.99999999999977
  0
LINE
  8
_0-0_計極細
  6
CONTINUOUS
 62
    2
 10
1070.75
 20
499.65636649366155
 11
1070.75
 21
557.45638321366505
  0
LINE
  8
_0-0_計極細
  6
CONTINUOUS
 62
    2
 10
1068.75
 20
499.65636649366155
 11
1068.75
 21
557.45638321366505
  0
LINE
  8
_0-0_計極細
  6
CONTINUOUS
 62
    2
 10
1107.0689659999989
 20
487.65636649366155
 11
1080.75
 21
487.65636649366155
  0
ARC
  8
_0-0_計極細
  6
CONTINUOUS
 62
    2
 10
1106.5034359999991
 20
478.15636649366161
 40
0.5
 50
269.99999999999977
 51
359.60486299999366
  0
LINE
  8
_0-0_計極細
  6
CONTINUOUS
 62
    2
 10
1107.0034250000008
 20
478.15291849366167
 11
1107.0688950000003
 21
487.64608349366154
  0
LINE
  8
_0-0_計極細
  6
CONTINUOUS
 62
    2
 10
1069.75
 20
450.15636649366155
 11
1070
 21
475.15636649366161
  0
LINE
  8
_0-0_計極細
  6
CONTINUOUS
 62
    2
 10
1060
 20
536.57793349366148
 11
1060
 21
563.65638321366532
  0
ARC
  8
_0-0_計極細
  6
CONTINUOUS
 62
    2
 10
1061
 20
536.57793349366148
 40
1
 50
179.99999999999983
 51
262.81924399994546
  0
ARC
  8
_0-0_計極細
  6
CONTINUOUS
 62
    2
 10
1080.75
 20
499.65636649366155
 40
12
 50
179.99999999999983
 51
269.99999999999977
  0
LINE
  8
_0-0_計極細
  6
CONTINUOUS
 62
    2
 10
1083
 20
477.65636649366161
 11
1083
 21
487.65636649366155
  0
LINE
  8
_0-0_計極細
  6
CONTINUOUS
 62
    2
 10
1080.75
 20
487.65636649366155
 11
1083
 21
487.65636649366155
  0
LINE
  8
_0-0_計極細
  6
CONTINUOUS
 62
    2
 10
1068.75
 20
499.65636649366155
 11
1068.75
 21
526.65636649366161
  0
LINE
  8
_0-0_計極細
  6
CONTINUOUS
 62
    2
 10
1082.9984210000002
 20
477.55369349366174
 11
1083
 21
477.65636649366161
  0
ARC
  8
_0-0_計極細
  6
CONTINUOUS
 62
    2
 10
1068
 20
485.65636649366161
 40
8
 50
180.0000000000029
 51
269.99999999999977
  0
LINE
  8
_0-0_計極細
  6
CONTINUOUS
 62
    2
 10
1080
 20
475.15636649366161
 11
1070
 21
475.15636649366161
  0
LINE
  8
_0-0_計極細
  6
CONTINUOUS
 62
    2
 10
1082.5
 20
445.15636649366161
 11
1083
 21
477.65636649366161
  0
LINE
  8
_0-0_計極細
  6
CONTINUOUS
 62
    2
 10
1060
 20
485.65636649366115
 11
1060
 21
536.57793349366148
  0
LINE
  8
_0-0_計極細
  6
CONTINUOUS
 62
    2
 10
1068
 20
477.65636649366161
 11
1083
 21
477.65636649366161
  0
LINE
  8
_0-0_計極細
  6
CONTINUOUS
 62
    2
 10
1080.4166666666661
 20
450.15636649366155
 11
1080
 21
475.15636649366161
  0
LINE
  8
_0-1_計細線
  6
CONTINUOUS
 62
    3
 10
1080.5
 20
445.15636649366161
 11
1080.4166666666661
 21
450.15636649366155
  0
ARC
  8
_0-1_計細線
  6
CONTINUOUS
 62
    3
 10
1065.5
 20
483.15636649366115
 40
8
 50
179.99999999999983
 51
269.99999999999977
  0
LINE
  8
_0-1_計細線
  6
CONTINUOUS
 62
    3
 10
1057.5
 20
483.15636649366115
 11
1057.5
 21
557.12625621366533
  0
LINE
  8
_0-1_計細線
  6
CONTINUOUS
 62
    3
 10
1066.8999999999996
 20
450.15636649366155
 11
1066.5
 21
475.15636649366161
  0
LINE
  8
_0-1_計細線
  6
CONTINUOUS
 62
    3
 10
1080.4166669999995
 20
450.15636649366155
 11
1066.8999999999996
 21
450.15636649366155
  0
LINE
  8
_0-1_計細線
  6
CONTINUOUS
 62
    3
 10
1083.4435990000002
 20
445.15636649366161
 11
1080.5
 21
445.15636649366161
  0
ARC
  8
_0-0_計極細
  6
CONTINUOUS
 62
    2
 10
1082.000016
 20
505.86420949366129
 40
1
 50
269.99954163371257
 51
359.99999999999966
  0
ARC
  8
_0-0_計極細
  6
CONTINUOUS
 62
    2
 10
1082
 20
505.86420949366129
 40
1
 50
179.99999999999983
 51
270.0004583661825
  0
LINE
  8
_0-0_計極細
  6
CONTINUOUS
 62
    2
 10
1083.000016
 20
505.86420949366129
 11
1083.000016
 21
563.65638321366532
  0
LINE
  8
_0-0_計極細
  6
CONTINUOUS
 62
    2
 10
1081
 20
505.86420949366129
 11
1081
 21
564.83847221366523
  0
LINE
  8
_0-0_計極細
  6
CONTINUOUS
 62
    2
 10
1060.8749999962147
 20
535.58577675248898
 11
1068.75
 21
535.58577675248898
  0
LINE
  8
_0-1_計細線
  6
CONTINUOUS
 62
    3
 10
1066.5
 20
475.15636649366161
 11
1065.5
 21
475.15636649366115
  0
LINE
  8
_0-0_計極細
  6
CONTINUOUS
 62
    2
 10
1108.2000000000007
 20
579.86344721366549
 11
1107.7999999999993
 21
579.86344721366549
  0
LINE
  8
_0-0_計極細
  6
CONTINUOUS
 62
    2
 10
1108.2000000000007
 20
578.86344721366549
 11
1107.7999999999993
 21
578.86344721366549
  0
LINE
  8
_0-0_計極細
  6
CONTINUOUS
 62
    2
 10
1151.5
 20
577.96422621366537
 11
1064.5
 21
577.96422621366537
  0
LINE
  8
_0-0_計極細
  6
CONTINUOUS
 62
    2
 10
1151.5
 20
573.36422621366501
 11
1064.5
 21
573.36422621366501
  0
LINE
  8
_0-0_計極細
  6
CONTINUOUS
 62
    2
 10
1064.6499999999996
 20
573.46955721366521
 11
1151.3500000000004
 21
573.46955721366521
  0
LINE
  8
_0-0_計極細
  6
CONTINUOUS
 62
    2
 10
1068.75
 20
574.46955721366521
 11
1147.25
 21
574.46955721366521
  0
LINE
  8
_0-0_計極細
  6
CONTINUOUS
 62
    2
 10
1068.75
 20
576.76955721366539
 11
1147.25
 21
576.76955721366539
  0
LINE
  8
_0-0_計極細
  6
CONTINUOUS
 62
    2
 10
1063.8500000000004
 20
577.76955721366539
 11
1152.1499999999996
 21
577.76955721366539
  0
LINE
  8
_0-0_計極細
  6
CONTINUOUS
 62
    2
 10
1062.0499999999993
 20
584.36344721366504
 11
1153.9500000000007
 21
584.36344721366504
  0
LINE
  8
_0-0_計極細
  6
CONTINUOUS
 62
    2
 10
1058.0210000000006
 20
584.86344721366504
 11
1157.9789999999994
 21
584.86344721366504
  0
LINE
  8
_0-0_計極細
  6
CONTINUOUS
 62
    2
 10
1083.000016
 20
563.65638321366532
 11
1132.999984
 21
563.65638321366532
  0
LINE
  8
_0-0_計極細
  6
CONTINUOUS
 62
    2
 10
1148.25
 20
571.86422621366546
 11
1067.75
 21
571.86422621366546
  0
LINE
  8
_0-0_計極細
  6
CONTINUOUS
 62
    2
 10
1080.75
 20
489.65636649366161
 11
1135.25
 21
489.65636649366161
  0
LINE
  8
_0-0_計極細
  6
CONTINUOUS
 62
    2
 10
1107.0689659999989
 20
487.65636649366155
 11
1108.9310340000011
 21
487.65636649366155
  0
LINE
  8
_0-0_計極細
  6
CONTINUOUS
 62
    2
 10
1133
 20
477.65636649366161
 11
1083
 21
477.65636649366161
  0
LINE
  8
_0-1_計細線
  6
CONTINUOUS
 62
    3
 10
1083.4435990000002
 20
445.15636649366161
 11
1132.5564009999998
 21
445.15636649366161
  0
LINE
  8
_0-0_計極細
  6
CONTINUOUS
 62
    2
 10
1134
 20
504.86420949366124
 11
1082
 21
504.86420949366124
  0
LINE
  8
_0-0_計極細
  6
CONTINUOUS
 62
    2
 10
1133
 20
487.60087007812854
 11
1133.0554964155326
 21
487.65636649366155
  0
LINE
  8
_0-1_計細線
  6
CONTINUOUS
 62
    3
 10
1051.1000000000004
 20
585.84920422833511
 11
1164.8999999999996
 21
585.84920422833511
  0
LINE
  8
_0-5_寸法線
  6
CONTINUOUS
 62
    7
 10
1070.1980041002803
 20
544.80116861939405
 11
1066.0615080700131
 21
527.28290955658804
  0
LINE
  8
_0-5_寸法線
  6
CONTINUOUS
 62
    7
 10
1070.1980041002803
 20
544.80116861939405
 11
1057.8565639240123
 21
531.69815925606076
  0
LINE
  8
_0-5_寸法線
  6
CONTINUOUS
 62
    7
 10
1070.1980041002803
 20
544.80116861939405
 11
1029.4055255395742
 21
468.99571457961514
  0
LINE
  8
_0-5_寸法線
  6
CONTINUOUS
 62
    7
 10
1029.4055255395742
 20
468.99571457961514
 11
871.00552553957414
 21
468.99571457961514
  0
TEXT
  8
_0-5_寸法線
 62
    7
 10
871.00552553957425
 20
468.99571457961514
 40
18
 41
0.7999999999999997
 50
0
  1
縦引き排水トラップ一式
  0
LINE
  8
_0-5_寸法線
  6
CONTINUOUS
 62
    7
 10
582
 20
946.65638321366566
 11
528
 21
946.65638321366566
  0
LINE
  8
_0-5_寸法線
  6
CONTINUOUS
 62
    7
 10
534
 20
946.65638321366566
 11
530.89417145876973
 21
958.24749312913445
  0
LINE
  8
_0-5_寸法線
  6
CONTINUOUS
 62
    7
 10
534
 20
946.65638321366566
 11
537.10582854123027
 21
958.24749312913445
  0
LINE
  8
_0-5_寸法線
  6
CONTINUOUS
 62
    7
 10
582
 20
944.15638321366578
 11
528
 21
944.15638321366578
  0
LINE
  8
_0-5_寸法線
  6
CONTINUOUS
 62
    7
 10
534
 20
991.83447712114707
 11
534
 21
944.15638321366578
  0
TEXT
  8
_0-5_寸法線
 62
    7
 10
534
 20
960.72399978018291
 40
18
 41
1
 50
90
  1
2.5
  0
LINE
  8
_0-5_寸法線
  6
CONTINUOUS
 62
    7
 10
534
 20
944.15638321366578
 11
537.10582854123015
 21
932.56527329819687
  0
LINE
  8
_0-5_寸法線
  6
CONTINUOUS
 62
    7
 10
534
 20
944.15638321366578
 11
530.89417145876973
 21
932.56527329819687
  0
LINE
  8
_0-5_寸法線
  6
CONTINUOUS
 62
    7
 10
582
 20
805.15638321366578
 11
528
 21
805.15638321366578
  0
LINE
  8
_0-5_寸法線
  6
CONTINUOUS
 62
    7
 10
534
 20
805.15638321366578
 11
530.89417145876973
 21
816.74749312913457
  0
LINE
  8
_0-5_寸法線
  6
CONTINUOUS
 62
    7
 10
534
 20
805.15638321366578
 11
537.10582854123027
 21
816.74749312913457
  0
LINE
  8
_0-5_寸法線
  6
CONTINUOUS
 62
    7
 10
534
 20
944.15638321366578
 11
534
 21
805.15638321366578
  0
TEXT
  8
_0-5_寸法線
 62
    7
 10
534
 20
861.15638321366566
 40
18
 41
1
 50
90
  1
139
  0
LINE
  8
_0-5_寸法線
  6
CONTINUOUS
 62
    7
 10
582
 20
802.65638321366566
 11
528
 21
802.65638321366566
  0
LINE
  8
_0-5_寸法線
  6
CONTINUOUS
 62
    7
 10
534
 20
802.65638321366566
 11
537.10582854123015
 21
791.06527329819687
  0
LINE
  8
_0-5_寸法線
  6
CONTINUOUS
 62
    7
 10
534
 20
802.65638321366566
 11
530.89417145876973
 21
791.06527329819687
  0
LINE
  8
_0-5_寸法線
  6
CONTINUOUS
 62
    7
 10
534
 20
805.15638321366578
 11
534
 21
757.47828930618448
  0
TEXT
  8
_0-5_寸法線
 62
    7
 10
534
 20
762.60831515421933
 40
18
 41
1
 50
90
  1
2.5
  0
LINE
  8
_0-5_寸法線
  6
CONTINUOUS
 62
    7
 10
582
 20
946.65638321366566
 11
486
 21
946.65638321366566
  0
LINE
  8
_0-5_寸法線
  6
CONTINUOUS
 62
    7
 10
492
 20
946.65638321366566
 11
495.10582854123027
 21
935.06527329819687
  0
LINE
  8
_0-5_寸法線
  6
CONTINUOUS
 62
    7
 10
492
 20
946.65638321366566
 11
488.89417145876973
 21
935.06527329819687
  0
LINE
  8
_0-5_寸法線
  6
CONTINUOUS
 62
    7
 10
582
 20
802.65638321366566
 11
486
 21
802.65638321366566
  0
LINE
  8
_0-5_寸法線
  6
CONTINUOUS
 62
    7
 10
492
 20
802.65638321366566
 11
488.89417145876973
 21
814.24749312913445
  0
LINE
  8
_0-5_寸法線
  6
CONTINUOUS
 62
    7
 10
492
 20
802.65638321366566
 11
495.10582854123027
 21
814.24749312913445
  0
LINE
  8
_0-5_寸法線
  6
CONTINUOUS
 62
    7
 10
492
 20
946.65638321366566
 11
492
 21
802.65638321366566
  0
TEXT
  8
_0-5_寸法線
 62
    7
 10
492
 20
861.15638321366566
 40
18
 41
1
 50
90
  1
144
  0
LINE
  8
_0-5_寸法線
  6
CONTINUOUS
 62
    7
 10
1200.0000000000002
 20
622.65638321366555
 11
1254.0000000000002
 21
622.65638321366475
  0
LINE
  8
_0-5_寸法線
  6
CONTINUOUS
 62
    7
 10
1248.0000000000002
 20
622.65638321366487
 11
1244.89417145877
 21
634.24749312913355
  0
LINE
  8
_0-5_寸法線
  6
CONTINUOUS
 62
    7
 10
1248.0000000000002
 20
622.65638321366487
 11
1251.1058285412305
 21
634.24749312913355
  0
LINE
  8
_0-5_寸法線
  6
CONTINUOUS
 62
    7
 10
1198.5000000000002
 20
586.156383213666
 11
1254.0000000000002
 21
586.15638321366521
  0
LINE
  8
_0-5_寸法線
  6
CONTINUOUS
 62
    7
 10
1248.0000000000002
 20
670.65638321366487
 11
1248.0000000000002
 21
586.15638321366532
  0
TEXT
  8
_0-5_寸法線
 62
    7
 10
1248.0000000000002
 20
635.59749340923418
 40
18
 41
1
 50
90
  1
36.5
  0
LINE
  8
_0-5_寸法線
  6
CONTINUOUS
 62
    7
 10
1248.0000000000002
 20
586.15638321366532
 11
1251.1058285412305
 21
574.56527329819642
  0
LINE
  8
_0-5_寸法線
  6
CONTINUOUS
 62
    7
 10
1248.0000000000002
 20
586.15638321366532
 11
1244.89417145877
 21
574.56527329819642
  0
LINE
  8
_0-5_寸法線
  6
CONTINUOUS
 62
    7
 10
1147.5
 20
445.15636649366138
 11
1254.0000000000002
 21
445.15636649366013
  0
LINE
  8
_0-5_寸法線
  6
CONTINUOUS
 62
    7
 10
1248.0000000000002
 20
445.15636649366024
 11
1244.89417145877
 21
456.74747640912904
  0
LINE
  8
_0-5_寸法線
  6
CONTINUOUS
 62
    7
 10
1248.0000000000002
 20
445.15636649366024
 11
1251.1058285412305
 21
456.74747640912909
  0
LINE
  8
_0-5_寸法線
  6
CONTINUOUS
 62
    7
 10
1248.0000000000002
 20
586.15638321366532
 11
1248.0000000000002
 21
445.15636649366024
  0
TEXT
  8
_0-5_寸法線
 62
    7
 10
1248.0000000000007
 20
502.156374853665
 40
18
 41
1
 50
90
  1
141
  0
LINE
  8
_0-5_寸法線
  6
CONTINUOUS
 62
    7
 10
1200.0000000000002
 20
622.65638321366578
 11
1296.0000000000002
 21
622.65638321366578
  0
LINE
  8
_0-5_寸法線
  6
CONTINUOUS
 62
    7
 10
1290.0000000000002
 20
622.65638321366578
 11
1293.1058285412305
 21
611.06527329819698
  0
LINE
  8
_0-5_寸法線
  6
CONTINUOUS
 62
    7
 10
1290.0000000000002
 20
622.65638321366578
 11
1286.89417145877
 21
611.06527329819698
  0
LINE
  8
_0-5_寸法線
  6
CONTINUOUS
 62
    7
 10
1147.5
 20
445.15636649366161
 11
1296.0000000000002
 21
445.15636649366161
  0
LINE
  8
_0-5_寸法線
  6
CONTINUOUS
 62
    7
 10
1290.0000000000002
 20
445.15636649366161
 11
1286.89417145877
 21
456.7474764091304
  0
LINE
  8
_0-5_寸法線
  6
CONTINUOUS
 62
    7
 10
1290.0000000000002
 20
445.15636649366161
 11
1293.1058285412305
 21
456.74747640913046
  0
LINE
  8
_0-5_寸法線
  6
CONTINUOUS
 62
    7
 10
1290.0000000000002
 20
622.65638321366578
 11
1290.0000000000002
 21
445.15636649366161
  0
TEXT
  8
_0-5_寸法線
 62
    7
 10
1290.0000000000007
 20
511.40637485366233
 40
18
 41
1
 50
90
  1
177.5
  0
LINE
  8
_0-1_計細線
  6
CONTINUOUS
 62
    3
 10
1327.9999832799951
 20
816.15650937369162
 11
1326.4999999999984
 21
816.15650937369162
  0
ARC
  8
_0-1_計細線
  6
CONTINUOUS
 62
    3
 10
1327.9999832799951
 20
818.15650937369173
 40
2
 50
269.99999999999977
 51
359.99999999999966
  0
LINE
  8
_0-1_計細線
  6
CONTINUOUS
 62
    3
 10
1329.9999832799951
 20
818.15650937369173
 11
1329.9999832799951
 21
823.65638321366566
  0
LINE
  8
_0-1_計細線
  6
CONTINUOUS
 62
    3
 10
1327.9999832799951
 20
933.15625705363937
 11
1326.4999999999991
 21
933.15625705363937
  0
ARC
  8
_0-1_計細線
  6
CONTINUOUS
 62
    3
 10
1327.9999832799951
 20
931.15625705363937
 40
2
 50
0
 51
89.999999999999915
  0
LINE
  8
_0-1_計細線
  6
CONTINUOUS
 62
    3
 10
1329.9999832799951
 20
919.65638321366566
 11
1329.9999832799951
 21
931.15625705363937
  0
LINE
  8
_0-1_計細線
  6
CONTINUOUS
 62
    3
 10
1329.9999832799951
 20
818.91760721366552
 11
1329.9999832799951
 21
919.65638321366566
  0
ARC
  8
_0-1_計細線
  6
CONTINUOUS
 62
    3
 10
1291.2499999999991
 20
945.40638313712589
 40
1.25
 50
89.999999999999915
 51
179.99999999999983
  0
LINE
  8
_0-1_計細線
  6
CONTINUOUS
 62
    3
 10
1295.1327459504203
 20
946.15638313712532
 11
1299.9999999999993
 21
946.15638313712532
  0
LINE
  8
_0-1_計細線
  6
CONTINUOUS
 62
    3
 10
1294.8684185102379
 20
946.17392733576025
 11
1291.2499999999991
 21
946.65638313712589
  0
ARC
  8
_0-1_計細線
  6
CONTINUOUS
 62
    3
 10
1295.1327459504203
 20
948.15638313712543
 40
2
 50
262.40535663140565
 51
269.99999999999977
  0
LINE
  8
_0-1_計細線
  6
CONTINUOUS
 62
    3
 10
1290.0000000000002
 20
945.40638313712589
 11
1289.9999999999993
 21
803.90638329020567
  0
LINE
  8
_0-1_計細線
  6
CONTINUOUS
 62
    3
 10
1299.9999999999993
 20
803.15638329020601
 11
1299.9999999999993
 21
946.15638313712532
  0
ARC
  8
_0-1_計細線
  6
CONTINUOUS
 62
    3
 10
1291.2499999999991
 20
803.90638329020567
 40
1.25
 50
179.99999999999983
 51
269.99999999999977
  0
LINE
  8
_0-1_計細線
  6
CONTINUOUS
 62
    3
 10
1295.1327459504203
 20
803.15638329020601
 11
1299.9999999999993
 21
803.15638329020601
  0
LINE
  8
_0-1_計細線
  6
CONTINUOUS
 62
    3
 10
1294.8684185102379
 20
803.1388390915713
 11
1291.2499999999991
 21
802.65638329020567
  0
ARC
  8
_0-1_計細線
  6
CONTINUOUS
 62
    3
 10
1295.1327459504203
 20
801.15638329020612
 40
2
 50
89.999999999999915
 51
97.594643368594035
  0
LINE
  8
_0-1_計細線
  6
CONTINUOUS
 62
    3
 10
1326.4999999999991
 20
945.15638313712543
 11
1326.4999999999991
 21
804.15638329020612
  0
LINE
  8
_0-1_計細線
  6
CONTINUOUS
 62
    3
 10
1326.4999999999991
 20
945.15638313712543
 11
1299.9999999999993
 21
945.15638313712543
  0
LINE
  8
_0-1_計細線
  6
CONTINUOUS
 62
    3
 10
1326.4999999999991
 20
804.15638329020612
 11
1299.9999999999993
 21
804.15638329020612
  0
LINE
  8
_0-0_計極細
  6
CONTINUOUS
 62
    2
 10
1316.4999191800007
 20
945.15638313712589
 11
1316.4999191800007
 21
946.35638313712514
  0
LINE
  8
_0-0_計極細
  6
CONTINUOUS
 62
    2
 10
1326.4999999999991
 20
945.15638313712589
 11
1326.4999999999991
 21
946.35638313712514
  0
LINE
  8
_0-0_計極細
  6
CONTINUOUS
 62
    2
 10
1328.4999999999993
 20
945.15638313712543
 11
1328.4999999999993
 21
946.35638313712514
  0
LINE
  8
_0-0_計極細
  6
CONTINUOUS
 62
    2
 10
1330.4999999999993
 20
945.15638313712543
 11
1330.4999999999993
 21
946.35638313712514
  0
LINE
  8
_0-0_計極細
  6
CONTINUOUS
 62
    2
 10
1332.4999999999991
 20
945.15638313712543
 11
1332.4999999999991
 21
946.35638313712514
  0
LINE
  8
_0-0_計極細
  6
CONTINUOUS
 62
    2
 10
1346.4999999999993
 20
945.15638313712543
 11
1346.4999999999993
 21
946.35638313712514
  0
LINE
  8
_0-1_計細線
  6
CONTINUOUS
 62
    3
 10
1314.4999191800009
 20
946.35638313712514
 11
1349.4999999999993
 21
946.35638313712514
  0
LINE
  8
_0-1_計細線
  6
CONTINUOUS
 62
    3
 10
1349.4999999999993
 20
946.35638313712514
 11
1349.4999999999993
 21
945.15638313712543
  0
LINE
  8
_0-1_計細線
  6
CONTINUOUS
 62
    3
 10
1314.4999191800009
 20
945.15638313712589
 11
1314.4999191800009
 21
946.35638313712514
  0
LINE
  8
_0-1_計細線
  6
CONTINUOUS
 62
    3
 10
1349.4999999999993
 20
945.15638313712543
 11
1314.4999191800009
 21
945.15638313712543
  0
LINE
  8
_0-0_計極細
  6
CONTINUOUS
 62
    2
 10
1316.4999191800007
 20
802.95638329020676
 11
1316.4999191800007
 21
804.15638329020612
  0
LINE
  8
_0-0_計極細
  6
CONTINUOUS
 62
    2
 10
1326.4999999999991
 20
802.95638329020676
 11
1326.4999999999991
 21
804.15638329020612
  0
LINE
  8
_0-0_計極細
  6
CONTINUOUS
 62
    2
 10
1328.4999999999993
 20
802.95638329020619
 11
1328.4999999999993
 21
804.15638329020612
  0
LINE
  8
_0-0_計極細
  6
CONTINUOUS
 62
    2
 10
1330.4999999999993
 20
802.95638329020619
 11
1330.4999999999993
 21
804.15638329020612
  0
LINE
  8
_0-0_計極細
  6
CONTINUOUS
 62
    2
 10
1332.4999999999991
 20
802.95638329020619
 11
1332.4999999999991
 21
804.15638329020612
  0
LINE
  8
_0-0_計極細
  6
CONTINUOUS
 62
    2
 10
1346.4999999999993
 20
802.95638329020619
 11
1346.4999999999993
 21
804.15638329020612
  0
LINE
  8
_0-1_計細線
  6
CONTINUOUS
 62
    3
 10
1314.4999191800009
 20
804.15638329020612
 11
1349.4999999999993
 21
804.15638329020612
  0
LINE
  8
_0-1_計細線
  6
CONTINUOUS
 62
    3
 10
1349.4999999999993
 20
804.15638329020612
 11
1349.4999999999993
 21
802.95638329020619
  0
LINE
  8
_0-1_計細線
  6
CONTINUOUS
 62
    3
 10
1314.4999191800009
 20
802.95638329020676
 11
1314.4999191800009
 21
804.15638329020612
  0
LINE
  8
_0-1_計細線
  6
CONTINUOUS
 62
    3
 10
1349.4999999999993
 20
802.95638329020619
 11
1314.4999191800009
 21
802.95638329020619
  0
LINE
  8
_0-0_計極細
  6
CENTER2
 62
    2
 10
1278.5732650110047
 20
874.65638321366566
 11
1343.3110110804976
 21
874.65638321366566
  0
LINE
  8
_0-5_寸法線
  6
CONTINUOUS
 62
    7
 10
1289.9999999999993
 20
958.65638321366566
 11
1289.9999999999993
 21
1012.6563832136657
  0
LINE
  8
_0-5_寸法線
  6
CONTINUOUS
 62
    7
 10
1289.9999999999993
 20
1006.6563832136657
 11
1278.4088900845304
 21
1003.5505546724355
  0
LINE
  8
_0-5_寸法線
  6
CONTINUOUS
 62
    7
 10
1289.9999999999993
 20
1006.6563832136657
 11
1278.4088900845304
 21
1009.762211754896
  0
LINE
  8
_0-5_寸法線
  6
CONTINUOUS
 62
    7
 10
1326.4999999999991
 20
956.15638321366578
 11
1326.4999999999991
 21
1012.6563832136657
  0
CIRCLE
  8
_0-5_寸法線
  6
CONTINUOUS
 62
    1
 10
1326.4999999999991
 20
1006.6563832136657
 40
1.8000000000000003
  0
LINE
  8
_0-5_寸法線
  6
CONTINUOUS
 62
    7
 10
1241.9999999999993
 20
1006.6563832136657
 11
1326.4999999999991
 21
1006.6563832136657
  0
TEXT
  8
_0-5_寸法線
 62
    7
 10
1242.5355965932069
 20
1006.6563832136657
 40
18
 41
1
 50
0
  1
36.5
  0
LINE
  8
_0-5_寸法線
  6
CONTINUOUS
 62
    7
 10
1349.4999999999993
 20
957.35638321366548
 11
1349.4999999999993
 21
1012.6563832136657
  0
LINE
  8
_0-5_寸法線
  6
CONTINUOUS
 62
    7
 10
1349.4999999999993
 20
1006.6563832136657
 11
1361.0911099154682
 21
1009.7622117548958
  0
LINE
  8
_0-5_寸法線
  6
CONTINUOUS
 62
    7
 10
1349.4999999999993
 20
1006.6563832136657
 11
1361.0911099154682
 21
1003.5505546724355
  0
LINE
  8
_0-5_寸法線
  6
CONTINUOUS
 62
    7
 10
1326.4999999999991
 20
1006.6563832136657
 11
1380.3926776822141
 21
1006.6563832136657
  0
TEXT
  8
_0-5_寸法線
 62
    7
 10
1362.3926776822141
 20
1006.6563832136657
 40
18
 41
1
 50
0
  1
23
  0
LINE
  8
_0-5_寸法線
  6
CONTINUOUS
 62
    7
 10
1289.9999999999993
 20
958.65638321366566
 11
1289.9999999999993
 21
1054.6563832136658
  0
LINE
  8
_0-5_寸法線
  6
CONTINUOUS
 62
    7
 10
1289.9999999999993
 20
1048.6563832136658
 11
1301.5911099154682
 21
1051.762211754896
  0
LINE
  8
_0-5_寸法線
  6
CONTINUOUS
 62
    7
 10
1289.9999999999993
 20
1048.6563832136658
 11
1301.5911099154682
 21
1045.5505546724355
  0
LINE
  8
_0-5_寸法線
  6
CONTINUOUS
 62
    7
 10
1349.4999999999993
 20
957.35638321366548
 11
1349.4999999999993
 21
1054.6563832136658
  0
LINE
  8
_0-5_寸法線
  6
CONTINUOUS
 62
    7
 10
1349.4999999999993
 20
1048.6563832136658
 11
1337.9088900845304
 21
1045.5505546724355
  0
LINE
  8
_0-5_寸法線
  6
CONTINUOUS
 62
    7
 10
1349.4999999999993
 20
1048.6563832136658
 11
1337.9088900845304
 21
1051.762211754896
  0
LINE
  8
_0-5_寸法線
  6
CONTINUOUS
 62
    7
 10
1289.9999999999993
 20
1048.6563832136658
 11
1349.4999999999993
 21
1048.6563832136658
  0
TEXT
  8
_0-5_寸法線
 62
    7
 10
1301.7499999999991
 20
1048.6563832136658
 40
18
 41
1
 50
0
  1
59.5
  0
LINE
  8
_0-5_寸法線
  6
CONTINUOUS
 62
    7
 10
598.80473547777456
 20
894.53164512714136
 11
590.67247873235499
 21
903.35583915416612
  0
LINE
  8
_0-5_寸法線
  6
CONTINUOUS
 62
    7
 10
598.80473547777456
 20
894.53164512714136
 11
596.17409155965618
 21
906.23974969517758
  0
LINE
  8
_0-5_寸法線
  6
CONTINUOUS
 62
    7
 10
598.80473547777456
 20
894.53164512714136
 11
532.66448184082674
 21
1020.7068723525922
  0
LINE
  8
_0-5_寸法線
  6
CONTINUOUS
 62
    7
 10
532.66448184082674
 20
1020.7068723525922
 11
475.06448184082683
 21
1020.7068723525922
  0
TEXT
  8
_0-5_寸法線
 62
    7
 10
475.06448184082672
 20
1020.7068723525922
 40
18
 41
0.8000000000000001
 50
0
  1
取っ手部
  0
LINE
  8
_0-5_寸法線
  6
CONTINUOUS
 62
    7
 10
629
 20
563.15638321366532
 11
635
 21
552.76407836825194
  0
LINE
  8
_0-5_寸法線
  6
CONTINUOUS
 62
    7
 10
629
 20
563.15638321366532
 11
628.99999999999989
 21
551.15638321366532
  0
LINE
  8
_0-5_寸法線
  6
CONTINUOUS
 62
    7
 10
629
 20
563.15638321366532
 11
637.40036321379841
 21
531.80580089773548
  0
LINE
  8
_0-5_寸法線
  6
CONTINUOUS
 62
    7
 10
637.40036321379841
 20
531.80580089773548
 11
695.00036321379844
 21
531.80580089773548
  0
TEXT
  8
_0-5_寸法線
 62
    7
 10
637.40036321379841
 20
531.80580089773548
 40
18
 41
0.8000000000000001
 50
0
  1
アンカー
  0
LINE
  8
_0-7_枠細線
  6
CONTINUOUS
 62
    5
 10
1709.87249338531
 20
1110
 11
1067.87249338531
 21
1110
  0
LINE
  8
_0-7_枠細線
  6
CONTINUOUS
 62
    5
 10
1097.87249338531
 20
1111.7308007660963
 11
1088.87249338531
 21
1129.7308007660963
  0
LINE
  8
_0-7_枠細線
  6
CONTINUOUS
 62
    5
 10
1079.87249338531
 20
1111.7308007660963
 11
1097.87249338531
 21
1111.7308007660963
  0
LINE
  8
_0-7_枠細線
  6
CONTINUOUS
 62
    5
 10
1088.87249338531
 20
1129.7308007660963
 11
1079.87249338531
 21
1111.7308007660963
  0
TEXT
  8
_0-7_枠細線
 62
    5
 10
1082.7106749070879
 20
1111.36239807164
 40
15
 41
0.8
 50
0
  1
１
  0
LINE
  8
_0-7_枠細線
  6
CONTINUOUS
 62
    5
 10
1529.8724933853096
 20
1110.0000000000002
 11
1529.8724933853096
 21
1151.9999999999991
  0
LINE
  8
_0-7_枠細線
  6
CONTINUOUS
 62
    5
 10
1409.8724933853096
 20
1110.0000000000002
 11
1409.8724933853096
 21
1151.9999999999991
  0
LINE
  8
_0-7_枠細線
  6
CONTINUOUS
 62
    5
 10
1109.87249338531
 20
1110
 11
1109.87249338531
 21
1151.9999999999991
  0
LINE
  8
_0-7_枠細線
  6
CONTINUOUS
 62
    5
 10
1067.87249338531
 20
1110
 11
1067.87249338531
 21
1151.9999999999991
  0
TEXT
  8
_0-7_枠細線
 62
    5
 10
1126.4929378297543
 20
1113
 40
15
 41
1
 50
0
  1
排水穴位置変更
  0
TEXT
  8
_0-7_枠細線
 62
    5
 10
1415.87249338531
 20
1113
 40
15
 41
0.7199999999999999
 50
0
  1
２０２１．１１．０１
  0
LINE
  8
_0-7_枠細線
  6
CONTINUOUS
 62
    5
 10
1174.4110280476689
 20
760.09555717010335
 11
1165.4110280476689
 21
778.09555717010323
  0
LINE
  8
_0-7_枠細線
  6
CONTINUOUS
 62
    5
 10
1156.4110280476689
 20
760.09555717010335
 11
1174.4110280476689
 21
760.09555717010335
  0
LINE
  8
_0-7_枠細線
  6
CONTINUOUS
 62
    5
 10
1165.4110280476689
 20
778.09555717010323
 11
1156.4110280476689
 21
760.09555717010335
  0
TEXT
  8
_0-7_枠細線
 62
    5
 10
1159.2492095694474
 20
759.7271544756469
 40
15
 41
0.8
 50
0
  1
１
  0
LINE
  8
_0-5_寸法線
  6
CONTINUOUS
 62
    7
 10
637.72536874690832
 20
846.52753997987975
 11
643.6856234792466
 21
836.11238930763125
  0
LINE
  8
_0-5_寸法線
  6
CONTINUOUS
 62
    7
 10
637.72536874690832
 20
846.52753997987975
 11
637.67952542201544
 21
834.52762754730065
  0
LINE
  8
_0-5_寸法線
  6
CONTINUOUS
 62
    7
 10
637.72536874690832
 20
846.52753997987975
 11
658.36226524159997
 21
768.31564274290668
  0
LINE
  8
_0-5_寸法線
  6
CONTINUOUS
 62
    7
 10
658.36226524159997
 20
768.31564274290668
 11
701.5622652415999
 21
768.31564274290668
  0
TEXT
  8
_0-5_寸法線
 62
    7
 10
658.36226524159997
 20
768.31564274290668
 40
18
 41
0.8000000000000001
 50
0
  1
上フタ
  0
LINE
  8
_0-5_寸法線
  6
CONTINUOUS
 62
    7
 10
737.61848805327077
 20
803.92851473039855
 11
743.61848807411752
 21
793.53620989702119
  0
LINE
  8
_0-5_寸法線
  6
CONTINUOUS
 62
    7
 10
737.61848805327077
 20
803.92851473039855
 11
737.61848807734259
 21
791.92851473039855
  0
LINE
  8
_0-5_寸法線
  6
CONTINUOUS
 62
    7
 10
737.61848805327077
 20
803.92851473039855
 11
747.16092841903992
 21
768.31564274290668
  0
LINE
  8
_0-5_寸法線
  6
CONTINUOUS
 62
    7
 10
747.16092841903992
 20
768.31564274290668
 11
833.56092841903978
 21
768.31564274290668
  0
TEXT
  8
_0-5_寸法線
 62
    7
 10
747.16092841903992
 20
768.31564274290668
 40
18
 41
0.8000000000000001
 50
0
  1
排水ユニット
  0
LINE
  8
_1-5_寸法3
  6
CONTINUOUS
 62
    7
 10
591.67344412829971
 20
236.82761635521976
 11
537.67344412830016
 21
236.82761635522002
  0
LINE
  8
_1-5_寸法3
  6
CONTINUOUS
 62
    7
 10
543.67344412830016
 20
236.82761635522002
 11
546.77927266953043
 21
225.23650643975122
  0
LINE
  8
_1-5_寸法3
  6
CONTINUOUS
 62
    7
 10
543.67344412830016
 20
236.82761635522002
 11
540.56761558706989
 21
225.23650643975122
  0
LINE
  8
_1-5_寸法3
  6
CONTINUOUS
 62
    7
 10
594.67344412830016
 20
163.82761635521956
 11
537.67344412830016
 21
163.82761635521956
  0
LINE
  8
_1-5_寸法3
  6
CONTINUOUS
 62
    7
 10
543.67344412830016
 20
163.82761635521956
 11
540.56761558706989
 21
175.41872627068835
  0
LINE
  8
_1-5_寸法3
  6
CONTINUOUS
 62
    7
 10
543.67344412830016
 20
163.82761635521956
 11
546.77927266953043
 21
175.41872627068835
  0
LINE
  8
_1-5_寸法3
  6
CONTINUOUS
 62
    7
 10
543.67344412830016
 20
236.82761635522002
 11
543.67344412830016
 21
163.82761635521956
  0
TEXT
  8
_1-5_寸法3
 62
    7
 10
543.67344412830016
 20
182.32761635521979
 40
18
 41
1
 50
90
  1
36.5
  0
LINE
  8
_1-5_寸法3
  6
CONTINUOUS
 62
    7
 10
903.67344412830005
 20
236.82761635521967
 11
957.67344412830005
 21
236.82761635521933
  0
LINE
  8
_1-5_寸法3
  6
CONTINUOUS
 62
    7
 10
951.67344412830005
 20
236.82761635521933
 11
954.77927266953043
 21
225.23650643975054
  0
LINE
  8
_1-5_寸法3
  6
CONTINUOUS
 62
    7
 10
951.67344412830005
 20
236.82761635521933
 11
948.56761558706989
 21
225.23650643975054
  0
LINE
  8
_1-5_寸法3
  6
CONTINUOUS
 62
    7
 10
903.67344412830005
 20
216.82761635521962
 11
957.67344412830005
 21
216.82761635521911
  0
LINE
  8
_1-5_寸法3
  6
CONTINUOUS
 62
    7
 10
951.67344412830005
 20
216.82761635521911
 11
948.56761558706989
 21
228.4187262706879
  0
LINE
  8
_1-5_寸法3
  6
CONTINUOUS
 62
    7
 10
951.67344412830005
 20
216.82761635521911
 11
954.77927266953043
 21
228.4187262706879
  0
LINE
  8
_1-5_寸法3
  6
CONTINUOUS
 62
    7
 10
951.67344412830005
 20
236.82761635521933
 11
951.67344412830005
 21
216.82761635521911
  0
TEXT
  8
_1-5_寸法3
 62
    7
 10
951.67344412830005
 20
217.82761635521888
 40
18
 41
1
 50
90
  1
10
  0
TEXT
  8
_0-7_枠細線
 62
    5
 10
690.00799095438424
 20
108.3297074818463
 40
30
 41
0.8
 50
0
  1
断面詳細図
  0
LINE
  8
_1-2_極細3
  6
CENTER1
 62
    2
 10
747.67344412830016
 20
252.52373454026133
 11
747.67344412830016
 21
153.64608398056851
  0
LINE
  8
_1-2_極細3
  6
CONTINUOUS
 62
    2
 10
890.67344397521936
 20
216.82761635521604
 11
888.67344397521981
 21
216.82761635521604
  0
LINE
  8
_1-2_極細3
  6
CONTINUOUS
 62
    2
 10
886.67344397521924
 20
234.32761635521581
 11
886.67344397521924
 21
165.82761635521604
  0
ARC
  8
_1-2_極細3
  6
CONTINUOUS
 62
    2
 10
889.1734439752197
 20
234.32761635521581
 40
2.5
 50
359.99999999998403
 51
179.99999999999946
  0
LINE
  8
_1-2_極細3
  6
CONTINUOUS
 62
    2
 10
888.67344397521981
 20
234.32761635521615
 11
888.67344397521981
 21
163.82761635521581
  0
ARC
  8
_1-2_極細3
  6
CONTINUOUS
 62
    2
 10
889.17344397521936
 20
234.32761635521581
 40
0.5
 50
89.999999999999915
 51
179.99999999996092
  0
LINE
  8
_1-2_極細3
  6
CONTINUOUS
 62
    2
 10
889.17344397521936
 20
234.82761635521604
 11
889.15131965014939
 21
234.82761635521604
  0
LINE
  8
_1-2_極細3
  6
CONTINUOUS
 62
    2
 10
888.67344397521981
 20
226.96036230563698
 11
889.64693360049137
 21
234.26153449517039
  0
ARC
  8
_1-2_極細3
  6
CONTINUOUS
 62
    2
 10
889.15131965014939
 20
234.32761635521581
 40
0.5
 50
352.4053566314289
 51
89.999999999999545
  0
LINE
  8
_1-2_極細3
  6
CONTINUOUS
 62
    2
 10
888.67344397521981
 20
163.82761635521581
 11
606.67344428138085
 21
163.82761635521581
  0
LINE
  8
_1-2_極細3
  6
CONTINUOUS
 62
    2
 10
886.67344397521924
 20
165.82761635521604
 11
608.67344428138131
 21
165.82761635521604
  0
LINE
  8
_1-2_極細3
  6
CONTINUOUS
 62
    2
 10
890.67344397521936
 20
226.56212445437382
 11
890.67344397521936
 21
216.82761635521604
  0
LINE
  8
_1-2_極細3
  6
CONTINUOUS
 62
    2
 10
890.70853237248946
 20
227.09077933473782
 11
891.67344397522015
 21
234.32761635521581
  0
ARC
  8
_1-2_極細3
  6
CONTINUOUS
 62
    2
 10
894.67344397521981
 20
226.56212445437382
 40
4
 50
172.40535663140921
 51
179.99999999999983
  0
LINE
  8
_1-2_極細3
  6
CONTINUOUS
 62
    2
 10
604.67344428138085
 20
216.82761635521604
 11
606.67344428138085
 21
216.82761635521604
  0
LINE
  8
_1-2_極細3
  6
CONTINUOUS
 62
    2
 10
608.67344428138131
 20
234.32761635521581
 11
608.67344428138131
 21
165.82761635521604
  0
ARC
  8
_1-2_極細3
  6
CONTINUOUS
 62
    2
 10
606.1734442813804
 20
234.32761635521581
 40
2.5
 50
0
 51
180.00000000001526
  0
LINE
  8
_1-2_極細3
  6
CONTINUOUS
 62
    2
 10
606.67344428138085
 20
234.32761635521615
 11
606.67344428138085
 21
163.82761635521581
  0
ARC
  8
_1-2_極細3
  6
CONTINUOUS
 62
    2
 10
606.17344428138085
 20
234.32761635521581
 40
0.5
 50
0.0000000000390826
 51
89.999999999999915
  0
LINE
  8
_1-2_極細3
  6
CONTINUOUS
 62
    2
 10
606.17344428138085
 20
234.82761635521604
 11
606.19556860645116
 21
234.82761635521604
  0
LINE
  8
_1-2_極細3
  6
CONTINUOUS
 62
    2
 10
606.67344428138085
 20
226.96036230563698
 11
605.69995465610918
 21
234.26153449517039
  0
ARC
  8
_1-2_極細3
  6
CONTINUOUS
 62
    2
 10
606.19556860645116
 20
234.32761635521581
 40
0.5
 50
89.999999999999915
 51
187.59464336857042
  0
LINE
  8
_1-2_極細3
  6
CONTINUOUS
 62
    2
 10
604.67344428138085
 20
226.56212445437382
 11
604.67344428138085
 21
216.82761635521604
  0
LINE
  8
_1-2_極細3
  6
CONTINUOUS
 62
    2
 10
604.63835588411121
 20
227.09077933473782
 11
603.67344428138085
 21
234.32761635521581
  0
ARC
  8
_1-2_極細3
  6
CONTINUOUS
 62
    2
 10
600.67344428138085
 20
226.56212445437382
 40
4
 50
0
 51
7.5946433685907992
  0
TEXT
  8
_0-7_枠細線
 62
    5
 10
827.94675465338639
 20
110.43419802074038
 40
24
 41
0.6
 50
0
  1
Ｓ＝１：３
  0
LINE
  8
_1-3_細線3
  6
CONTINUOUS
 62
    4
 10
624.67344428138131
 20
205.82761635521956
 11
624.67344428138131
 21
235.82761635521956
  0
LINE
  8
_1-3_細線3
  6
CONTINUOUS
 62
    4
 10
870.67344428138165
 20
205.82761635522024
 11
624.67344428138131
 21
205.82761635521956
  0
LINE
  8
_1-3_細線3
  6
CONTINUOUS
 62
    4
 10
870.67344428138165
 20
235.82761635522024
 11
870.67344428138165
 21
205.82761635522024
  0
LINE
  8
_1-3_細線3
  6
CONTINUOUS
 62
    4
 10
874.67344428138108
 20
235.82761635522024
 11
620.67344428138131
 21
235.82761635521956
  0
LINE
  8
_1-3_細線3
  6
CONTINUOUS
 62
    4
 10
874.67344428138108
 20
201.82761635521911
 11
874.67344428138108
 21
235.82761635522024
  0
LINE
  8
_1-3_細線3
  6
CONTINUOUS
 62
    4
 10
620.67344428138131
 20
201.82761635521911
 11
874.67344428138108
 21
201.82761635521911
  0
LINE
  8
_1-3_細線3
  6
CONTINUOUS
 62
    4
 10
620.67344428138131
 20
235.82761635521956
 11
620.67344428138131
 21
201.82761635521911
  0
LINE
  8
_1-5_寸法3
  6
CONTINUOUS
 62
    7
 10
738.48461189677084
 20
209.54106767145763
 11
701.10287639225999
 21
240.90806814605946
  0
LINE
  8
_1-5_寸法3
  6
CONTINUOUS
 62
    7
 10
705.69914305097382
 20
237.05134248794025
 11
702.59331450974355
 21
248.6424524034091
  0
LINE
  8
_1-5_寸法3
  6
CONTINUOUS
 62
    7
 10
705.69914305097382
 20
237.05134248794025
 11
708.80497159220408
 21
248.6424524034091
  0
LINE
  8
_1-5_寸法3
  6
CONTINUOUS
 62
    7
 10
738.48461189677084
 20
243.54106767145842
 11
701.10287639225999
 21
274.90806814606032
  0
LINE
  8
_1-5_寸法3
  6
CONTINUOUS
 62
    7
 10
705.69914305097382
 20
271.05134248794104
 11
708.80497159220408
 21
259.46023257247225
  0
LINE
  8
_1-5_寸法3
  6
CONTINUOUS
 62
    7
 10
705.69914305097382
 20
271.05134248794104
 11
702.59331450974355
 21
259.46023257247214
  0
LINE
  8
_1-5_寸法3
  6
CONTINUOUS
 62
    7
 10
705.69914305097382
 20
237.05134248794025
 11
705.69914305097382
 21
271.05134248794104
  0
TEXT
  8
_1-5_寸法3
 62
    7
 10
705.69914305097382
 20
245.05134248794047
 40
18
 41
1
 50
90
  1
17
  0
LINE
  8
_1-5_寸法3
  6
CONTINUOUS
 62
    7
 10
813.12680852858216
 20
201.82761635521911
 11
816.23263706981231
 21
190.23650643975031
  0
LINE
  8
_1-5_寸法3
  6
CONTINUOUS
 62
    7
 10
813.12680852858216
 20
201.82761635521911
 11
810.02097998735201
 21
190.23650643975031
  0
LINE
  8
_1-5_寸法3
  6
CONTINUOUS
 62
    7
 10
813.12680852858216
 20
205.8276163552199
 11
810.02097998735201
 21
217.41872627068869
  0
LINE
  8
_1-5_寸法3
  6
CONTINUOUS
 62
    7
 10
813.12680852858216
 20
205.8276163552199
 11
816.23263706981243
 21
217.41872627068869
  0
LINE
  8
_1-5_寸法3
  6
CONTINUOUS
 62
    7
 10
813.12680852858216
 20
171.82761635521911
 11
813.12680852858216
 21
235.8276163552199
  0
TEXT
  8
_1-5_寸法3
 62
    7
 10
813.12680852858216
 20
177.71069995212838
 40
18
 41
1
 50
90
  1
2
  0
ARC
  8
_1-3_細線3
  6
CONTINUOUS
 62
    4
 10
876.39422851742552
 20
169.82761635521956
 40
3.9999999999999991
 50
269.99999999999977
 51
348.69006752598227
  0
LINE
  8
_1-3_細線3
  6
CONTINUOUS
 62
    4
 10
876.39422851742552
 20
165.82761635521979
 11
842.95265973917344
 21
165.82761635521979
  0
LINE
  8
_1-3_細線3
  6
CONTINUOUS
 62
    4
 10
883.6734441283005
 20
185.82761635522002
 11
880.31655122018935
 21
169.043151814667
  0
ARC
  8
_1-3_細線3
  6
CONTINUOUS
 62
    4
 10
842.95265973917344
 20
169.82761635521956
 40
3.9999999999999991
 50
191.30993247401983
 51
269.99999999999977
  0
LINE
  8
_1-3_細線3
  6
CONTINUOUS
 62
    4
 10
839.03033703641063
 20
169.043151814667
 11
835.6734441283005
 21
185.82761635522002
  0
LINE
  8
_1-3_細線3
  6
CONTINUOUS
 62
    4
 10
834.67344412830039
 20
201.82761635522047
 11
884.67344412829993
 21
201.82761635521979
  0
LINE
  8
_1-3_細線3
  6
CONTINUOUS
 62
    4
 10
834.67344412830039
 20
185.82761635522002
 11
834.67344412830039
 21
201.82761635522047
  0
LINE
  8
_1-3_細線3
  6
CONTINUOUS
 62
    4
 10
834.67344412830039
 20
185.82761635522002
 11
884.67344412829993
 21
185.82761635522002
  0
LINE
  8
_1-3_細線3
  6
CONTINUOUS
 62
    4
 10
884.67344412829993
 20
201.82761635521979
 11
884.67344412829993
 21
185.82761635522002
  0
ARC
  8
_1-3_細線3
  6
CONTINUOUS
 62
    4
 10
652.3942285174262
 20
169.82761635521922
 40
3.9999999999999991
 50
269.99999999999977
 51
348.6900675259746
  0
LINE
  8
_1-3_細線3
  6
CONTINUOUS
 62
    4
 10
652.3942285174262
 20
165.82761635521911
 11
618.95265973917367
 21
165.82761635521911
  0
LINE
  8
_1-3_細線3
  6
CONTINUOUS
 62
    4
 10
659.67344412830016
 20
185.82761635521933
 11
656.31655122018901
 21
169.04315181466632
  0
ARC
  8
_1-3_細線3
  6
CONTINUOUS
 62
    4
 10
618.95265973917367
 20
169.82761635521922
 40
3.9999999999999991
 50
191.30993247402466
 51
269.99999999999977
  0
LINE
  8
_1-3_細線3
  6
CONTINUOUS
 62
    4
 10
615.03033703641086
 20
169.04315181466632
 11
611.67344412830016
 21
185.82761635521933
  0
LINE
  8
_1-3_細線3
  6
CONTINUOUS
 62
    4
 10
660.67344412830062
 20
201.82761635521979
 11
610.67344412830062
 21
201.82761635521979
  0
LINE
  8
_1-3_細線3
  6
CONTINUOUS
 62
    4
 10
660.67344412830062
 20
185.82761635521933
 11
660.67344412830062
 21
201.82761635522013
  0
LINE
  8
_1-3_細線3
  6
CONTINUOUS
 62
    4
 10
610.67344412830062
 20
185.82761635521933
 11
660.67344412830062
 21
185.82761635521933
  0
LINE
  8
_1-3_細線3
  6
CONTINUOUS
 62
    4
 10
610.67344412830062
 20
201.82761635521979
 11
610.67344412830062
 21
185.82761635521933
  0
LINE
  8
_1-5_寸法3
  6
CONTINUOUS
 62
    7
 10
603.6734442813804
 20
248.82761635521592
 11
603.6734442813804
 21
302.82761635521592
  0
LINE
  8
_1-5_寸法3
  6
CONTINUOUS
 62
    7
 10
603.6734442813804
 20
296.82761635521592
 11
592.08233436591161
 21
293.72178781398566
  0
LINE
  8
_1-5_寸法3
  6
CONTINUOUS
 62
    7
 10
603.6734442813804
 20
296.82761635521592
 11
592.08233436591161
 21
299.93344489644619
  0
LINE
  8
_1-5_寸法3
  6
CONTINUOUS
 62
    7
 10
608.67344428138176
 20
248.82761635521592
 11
608.67344428138176
 21
302.82761635521592
  0
CIRCLE
  8
_1-5_寸法3
  6
CONTINUOUS
 62
    1
 10
608.67344428138176
 20
296.82761635521592
 40
1.7999999999999996
  0
LINE
  8
_1-5_寸法3
  6
CONTINUOUS
 62
    7
 10
566.73675563324832
 20
296.82761635521592
 11
608.67344428138176
 21
296.82761635521592
  0
TEXT
  8
_1-5_寸法3
 62
    7
 10
566.73675563324832
 20
296.82761635521592
 40
18
 41
1
 50
0
  1
2.5
  0
LINE
  8
_1-5_寸法3
  6
CONTINUOUS
 62
    7
 10
620.67344428138131
 20
248.82761635521592
 11
620.67344428138176
 21
302.82761635521592
  0
LINE
  8
_1-5_寸法3
  6
CONTINUOUS
 62
    7
 10
608.67344428138176
 20
296.82761635521592
 11
620.67344428138176
 21
296.82761635521592
  0
TEXT
  8
_1-5_寸法3
 62
    7
 10
610.17344428138176
 20
296.82761635521592
 40
18
 41
1
 50
0
  1
6
  0
LINE
  8
_1-5_寸法3
  6
CONTINUOUS
 62
    7
 10
620.67344428138176
 20
296.82761635521592
 11
632.26455419685044
 21
299.93344489644619
  0
LINE
  8
_1-5_寸法3
  6
CONTINUOUS
 62
    7
 10
620.67344428138176
 20
296.82761635521592
 11
632.26455419685044
 21
293.72178781398566
  0
LINE
  8
_1-5_寸法3
  6
CONTINUOUS
 62
    7
 10
874.67344428138108
 20
248.82761635521592
 11
874.67344428138108
 21
302.82761635521592
  0
LINE
  8
_1-5_寸法3
  6
CONTINUOUS
 62
    7
 10
874.67344428138108
 20
296.82761635521592
 11
863.08233436591229
 21
293.72178781398566
  0
LINE
  8
_1-5_寸法3
  6
CONTINUOUS
 62
    7
 10
874.67344428138108
 20
296.82761635521592
 11
863.08233436591229
 21
299.93344489644619
  0
LINE
  8
_1-5_寸法3
  6
CONTINUOUS
 62
    7
 10
620.67344428138176
 20
296.82761635521592
 11
874.67344428138108
 21
296.82761635521592
  0
TEXT
  8
_1-5_寸法3
 62
    7
 10
734.17344428138176
 20
296.82761635521592
 40
18
 41
1
 50
0
  1
127
  0
LINE
  8
_1-5_寸法3
  6
CONTINUOUS
 62
    7
 10
886.67344397521924
 20
248.82761635521592
 11
886.67344397521924
 21
302.82761635521592
  0
CIRCLE
  8
_1-5_寸法3
  6
CONTINUOUS
 62
    1
 10
886.67344397521924
 20
296.82761635521592
 40
1.7999999999999996
  0
LINE
  8
_1-5_寸法3
  6
CONTINUOUS
 62
    7
 10
874.67344428138108
 20
296.82761635521592
 11
886.67344397521924
 21
296.82761635521592
  0
TEXT
  8
_1-5_寸法3
 62
    7
 10
876.1734441283005
 20
296.82761635521592
 40
18
 41
1
 50
0
  1
6
  0
LINE
  8
_1-5_寸法3
  6
CONTINUOUS
 62
    7
 10
891.67344397521981
 20
248.82761635521592
 11
891.67344397521981
 21
302.82761635521592
  0
LINE
  8
_1-5_寸法3
  6
CONTINUOUS
 62
    7
 10
891.67344397521981
 20
296.82761635521592
 11
903.2645538906886
 21
299.93344489644608
  0
LINE
  8
_1-5_寸法3
  6
CONTINUOUS
 62
    7
 10
891.67344397521981
 20
296.82761635521592
 11
903.2645538906886
 21
293.7217878139856
  0
LINE
  8
_1-5_寸法3
  6
CONTINUOUS
 62
    7
 10
886.67344397521924
 20
296.82761635521592
 11
934.42582361496113
 21
296.82761635521592
  0
TEXT
  8
_1-5_寸法3
 62
    7
 10
907.42582361496113
 20
296.82761635521592
 40
18
 41
1
 50
0
  1
2.5
  0
LINE
  8
_1-5_寸法3
  6
CONTINUOUS
 62
    7
 10
603.67344412830016
 20
248.82761635521967
 11
603.67344412830016
 21
344.82761635521592
  0
LINE
  8
_1-5_寸法3
  6
CONTINUOUS
 62
    7
 10
603.67344412830016
 20
338.82761635521592
 11
615.26455404376895
 21
341.93344489644619
  0
LINE
  8
_1-5_寸法3
  6
CONTINUOUS
 62
    7
 10
603.67344412830016
 20
338.82761635521592
 11
615.26455404376895
 21
335.72178781398566
  0
LINE
  8
_1-5_寸法3
  6
CONTINUOUS
 62
    7
 10
891.67344412830005
 20
248.82761635521967
 11
891.67344412830005
 21
344.82761635521592
  0
LINE
  8
_1-5_寸法3
  6
CONTINUOUS
 62
    7
 10
891.67344412830005
 20
338.82761635521592
 11
880.08233421283126
 21
335.72178781398566
  0
LINE
  8
_1-5_寸法3
  6
CONTINUOUS
 62
    7
 10
891.67344412830005
 20
338.82761635521592
 11
880.08233421283126
 21
341.93344489644619
  0
LINE
  8
_1-5_寸法3
  6
CONTINUOUS
 62
    7
 10
603.67344412830016
 20
338.82761635521592
 11
891.67344412830005
 21
338.82761635521592
  0
TEXT
  8
_1-5_寸法3
 62
    7
 10
734.17344412830016
 20
338.82761635521592
 40
18
 41
1
 50
0
  1
144
  0
LINE
  8
_1-3_細線3
  6
CONTINUOUS
 62
    4
 10
707.68084614701547
 20
195.82761635521979
 11
707.68084614701547
 21
201.82761635521945
  0
LINE
  8
_1-3_細線3
  6
CONTINUOUS
 62
    4
 10
787.68084614701525
 20
195.82761635522013
 11
707.68084614701547
 21
195.82761635521979
  0
LINE
  8
_1-3_細線3
  6
CONTINUOUS
 62
    4
 10
787.68084614701525
 20
201.82761635521945
 11
787.68084614701525
 21
195.82761635522013
  0
ARC
  8
_1-3_細線3
  6
CONTINUOUS
 62
    4
 10
764.3942285174262
 20
169.82761635521888
 40
3.9999999999999991
 50
269.99999999999977
 51
348.69006752597846
  0
LINE
  8
_1-3_細線3
  6
CONTINUOUS
 62
    4
 10
764.3942285174262
 20
165.82761635521911
 11
730.95265973917412
 21
165.82761635521911
  0
LINE
  8
_1-3_細線3
  6
CONTINUOUS
 62
    4
 10
771.67344412829971
 20
185.82761635521933
 11
768.31655122018856
 21
169.04315181466632
  0
ARC
  8
_1-3_細線3
  6
CONTINUOUS
 62
    4
 10
730.95265973917412
 20
169.82761635521888
 40
3.9999999999999991
 50
191.30993247401696
 51
269.99999999999977
  0
LINE
  8
_1-3_細線3
  6
CONTINUOUS
 62
    4
 10
727.03033703641029
 20
169.04315181466632
 11
723.67344412829982
 21
185.82761635521933
  0
LINE
  8
_1-3_細線3
  6
CONTINUOUS
 62
    4
 10
722.67344412830005
 20
185.82761635521933
 11
772.6734441283005
 21
185.82761635521933
  0
LINE
  8
_1-3_細線3
  6
CONTINUOUS
 62
    4
 10
722.67344412830005
 20
195.82761635521979
 11
722.67344412830005
 21
185.82761635521933
  0
LINE
  8
_1-3_細線3
  6
CONTINUOUS
 62
    4
 10
772.6734441283005
 20
185.82761635521933
 11
772.6734441283005
 21
195.82761635522013
  0
ARC
  8
_0-1_計細線
  6
DASHED2
 62
    3
 10
796.99999999999909
 20
874.65638321366566
 40
12.499999999999998
 50
53.13010235415598
 51
216.86989764584365
  0
ARC
  8
_0-1_計細線
  6
DASHED2
 62
    3
 10
796.99999999999909
 20
874.65638321366566
 40
12.499999999999998
 50
216.86989764584365
 51
53.130102354155625
  0
ARC
  8
_0-1_計細線
  6
DASHED2
 62
    3
 10
984.99999999999977
 20
874.65638321366566
 40
12.499999999999998
 50
53.13010235415598
 51
216.86989764584365
  0
ARC
  8
_0-1_計細線
  6
DASHED2
 62
    3
 10
984.99999999999977
 20
874.65638321366566
 40
12.499999999999998
 50
216.86989764584365
 51
53.130102354155625
  0
LINE
  8
_0-1_計細線
  6
CONTINUOUS
 62
    3
 10
809.49999999999909
 20
605.15638321366578
 11
784.49999999999898
 21
605.15638321366578
  0
LINE
  8
_0-1_計細線
  6
CONTINUOUS
 62
    3
 10
809.49999999999909
 20
597.15638321366578
 11
809.49999999999909
 21
605.15638321366578
  0
LINE
  8
_0-1_計細線
  6
CONTINUOUS
 62
    3
 10
784.49999999999898
 20
605.15638321366578
 11
784.49999999999898
 21
597.15638321366578
  0
LINE
  8
_0-1_計細線
  6
CONTINUOUS
 62
    3
 10
809.49999999999909
 20
597.15638321366578
 11
784.49999999999898
 21
597.15638321366578
  0
LINE
  8
_0-1_計細線
  6
CONTINUOUS
 62
    3
 10
807.32155354594397
 20
588.76415094338927
 11
808.99999999999909
 21
597.15638321366578
  0
ARC
  8
_0-1_計細線
  6
CONTINUOUS
 62
    3
 10
805.36039219456143
 20
589.15638321366578
 40
2
 50
269.99999999999977
 51
348.69006752597943
  0
LINE
  8
_0-1_計細線
  6
CONTINUOUS
 62
    3
 10
784.99999999999909
 20
597.15638321366578
 11
786.6784464540541
 21
588.76415094338927
  0
LINE
  8
_0-1_計細線
  6
CONTINUOUS
 62
    3
 10
788.63960780543584
 20
587.15638321366578
 11
805.36039219456143
 21
587.15638321366578
  0
ARC
  8
_0-1_計細線
  6
CONTINUOUS
 62
    3
 10
788.63960780543584
 20
589.15638321366578
 40
2
 50
191.30993247402495
 51
269.99999999999977
  0
LINE
  8
_0-1_計細線
  6
CONTINUOUS
 62
    3
 10
972.49999999999977
 20
605.15638321366578
 11
997.49999999999966
 21
605.15638321366578
  0
LINE
  8
_0-1_計細線
  6
CONTINUOUS
 62
    3
 10
972.49999999999977
 20
597.15638321366578
 11
972.49999999999977
 21
605.15638321366578
  0
LINE
  8
_0-1_計細線
  6
CONTINUOUS
 62
    3
 10
997.49999999999966
 20
605.15638321366578
 11
997.49999999999966
 21
597.15638321366578
  0
LINE
  8
_0-1_計細線
  6
CONTINUOUS
 62
    3
 10
972.49999999999977
 20
597.15638321366578
 11
997.49999999999966
 21
597.15638321366578
  0
LINE
  8
_0-1_計細線
  6
CONTINUOUS
 62
    3
 10
974.67844645405489
 20
588.76415094338927
 11
972.99999999999977
 21
597.15638321366578
  0
ARC
  8
_0-1_計細線
  6
CONTINUOUS
 62
    3
 10
976.63960780543744
 20
589.15638321366578
 40
2
 50
191.30993247401983
 51
269.99999999999977
  0
LINE
  8
_0-1_計細線
  6
CONTINUOUS
 62
    3
 10
996.99999999999977
 20
597.15638321366578
 11
995.32155354594454
 21
588.76415094338927
  0
LINE
  8
_0-1_計細線
  6
CONTINUOUS
 62
    3
 10
993.36039219456302
 20
587.15638321366578
 11
976.63960780543744
 21
587.15638321366578
  0
ARC
  8
_0-1_計細線
  6
CONTINUOUS
 62
    3
 10
993.36039219456302
 20
589.15638321366578
 40
2
 50
269.99999999999977
 51
348.69006752597431
  0
ENDSEC
  0
EOF
