  0
SECTION
  2
HEADER
  9
$ACADVER
  1
AC1009
  9
$INSBASE
 10
0
 20
0
 30
0
  9
$EXTMIN
 10
0
 20
0
  9
$EXTMAX
 10
1782
 20
1260
  9
$LIMMIN
 10
0
 20
0
  9
$LIMMAX
 10
1782
 20
1260
  9
$LTSCALE
 40
6
  0
ENDSEC
  0
SECTION
  2
TABLES
  0
TABLE
  2
LTYPE
 70
     9
  0
LTYPE
  2
CONTINUOUS
 70
    64
  3
実線
 72
    65
 73
     0
 40
0.0
  0
LTYPE
  2
DASHED1
 70
    64
  3
--  --  --  --  --  --  --  --  
 72
    65
 73
     2
 40
2.5
 49
1.25
 49
-1.25
  0
LTYPE
  2
DASHED2
 70
    64
  3
----    ----    ----    ----    
 72
    65
 73
     2
 40
5.0
 49
2.5
 49
-2.5
  0
LTYPE
  2
DASHED3
 70
    64
  3
------  ------  ------  ------  
 72
    65
 73
     2
 40
5.0
 49
3.75
 49
-1.25
  0
LTYPE
  2
CENTER1
 70
    64
  3
----- - ----- - ----- - ----- - 
 72
    65
 73
     4
 40
10.0
 49
6.25
 49
-1.25
 49
1.25
 49
-1.25
  0
LTYPE
  2
CENTER2
 70
    64
  3
----------  --  ----------  --  
 72
    65
 73
     4
 40
20.0
 49
12.5
 49
-2.5
 49
2.5
 49
-2.5
  0
LTYPE
  2
PHANTOM1
 70
    64
  3
--- - - --- - - --- - - --- - - 
 72
    65
 73
     6
 40
10.0
 49
3.25
 49
-1.25
 49
1.25
 49
-1.25
 49
1.25
 49
-1.25
  0
LTYPE
  2
PHANTOM2
 70
    64
  3
--------  -  -  --------  -  -  
 72
    65
 73
     6
 40
20.0
 49
10.0
 49
-2.5
 49
1.25
 49
-2.5
 49
1.25
 49
-2.5
  0
LTYPE
  2
DOT
 70
    64
  3
-   -   -   -   -   -   -   -   
 72
    65
 73
     2
 40
2.5
 49
0.625
 49
-1.875
  0
LTYPE
  2
DUMMY
 70
    64
  3
ダミー
 72
    65
 73
     0
 40
0.0
  0
LTYPE
  2
RAND1
 70
    64
  3
ランダム線1
 72
    65
 73
     4
 40
10.0
 49
1.0
 49
-2.0
 49
3.0
 49
-4.0
  0
LTYPE
  2
RAND2
 70
    64
  3
ランダム線2
 72
    65
 73
     4
 40
14.0
 49
2.0
 49
-3.0
 49
4.0
 49
-5.0
  0
LTYPE
  2
RAND3
 70
    64
  3
ランダム線3
 72
    65
 73
     4
 40
18.0
 49
3.0
 49
-4.0
 49
5.0
 49
-6.0
  0
LTYPE
  2
RAND4
 70
    64
  3
ランダム線4
 72
    65
 73
     4
 40
22.0
 49
4.0
 49
-5.0
 49
6.0
 49
-7.0
  0
LTYPE
  2
RAND5
 70
    64
  3
ランダム線5
 72
    65
 73
     4
 40
26.0
 49
5.0
 49
-6.0
 49
7.0
 49
-8.0
  0
LTYPE
  2
LONG1
 70
    64
  3
----------  --  ----------  --  
 72
    65
 73
     4
 40
40.0
 49
32.5
 49
-2.5
 49
2.5
 49
-2.5
  0
LTYPE
  2
LONG2
 70
    64
  3
--------  -  -  --------  -  -  
 72
    65
 73
     6
 40
40.0
 49
30.0
 49
-2.5
 49
1.25
 49
-2.5
 49
1.25
 49
-2.5
  0
LTYPE
  2
LONG3
 70
    64
  3
+++++++++++++++..+++++++++++++++
 72
    65
 73
     2
 40
40.0
 49
37.5
 49
-2.5
  0
LTYPE
  2
LONG4
 70
    64
  3
+++++++++++++++..+++++++++++++++
 72
    65
 73
     2
 40
80.0
 49
75.0
 49
-5.0
  0
LTYPE
  2
LONG5
 70
    64
  3
----------  --  ----------  --  
 72
    65
 73
     4
 40
60.0
 49
37.5
 49
-7.5
 49
7.5
 49
-7.5
  0
LTYPE
  2
dashed
 70
   64
  3
-------   -------------   ------
 72
   65
 73
    2
 40
7.5
 49
6
 49
-1.5
  0
LTYPE
  2
dashed_spaced
 70
   64
  3
----        --------        ----
 72
   65
 73
    2
 40
12
 49
6
 49
-6
  0
LTYPE
  2
long_dashed_dotted
 70
   64
  3
------------- --- --------------
 72
   65
 73
    4
 40
15.25
 49
12
 49
-1.5
 49
0.25
 49
-1.5
  0
LTYPE
  2
long_dashed_double-dotted
 70
   64
  3
----------- --- --- ------------
 72
   65
 73
    6
 40
17
 49
12
 49
-1.5
 49
0.25
 49
-1.5
 49
0.25
 49
-1.5
  0
LTYPE
  2
long_dashed_triplicate-dotted
 70
   64
  3
--------- --- --- --- ----------
 72
   65
 73
    8
 40
18.75
 49
12
 49
-1.5
 49
0.25
 49
-1.5
 49
0.25
 49
-1.5
 49
0.25
 49
-1.5
  0
LTYPE
  2
dotted
 70
   64
  3
   -       -       -       -    
 72
   65
 73
    2
 40
1.75
 49
0.25
 49
-1.5
  0
LTYPE
  2
chain
 70
   64
  3
-------------- -- --------------
 72
   65
 73
    4
 40
18.5
 49
12
 49
-1.5
 49
3.5
 49
-1.5
  0
LTYPE
  2
chain_double_dash
 70
   64
  3
------------ -- -- -------------
 72
   65
 73
    6
 40
23.5
 49
12
 49
-1.5
 49
3.5
 49
-1.5
 49
3.5
 49
-1.5
  0
LTYPE
  2
dashed_dotted
 70
   64
  3
-----------     -     ----------
 72
   65
 73
    4
 40
9.25
 49
6
 49
-1.5
 49
0.25
 49
-1.5
  0
LTYPE
  2
double-dashed_dotted
 70
   64
  3
------   -----------   -   -----
 72
   65
 73
    6
 40
16.75
 49
6
 49
-1.5
 49
6
 49
-1.5
 49
0.25
 49
-1.5
  0
LTYPE
  2
dashed_double-dotted
 70
   64
  3
---------    -    -    ---------
 72
   65
 73
    6
 40
11
 49
6
 49
-1.5
 49
0.25
 49
-1.5
 49
0.25
 49
-1.5
  0
LTYPE
  2
double-dashed_double-dotted
 70
   64
  3
-----   ---------   -   -   ----
 72
   65
 73
    8
 40
18.5
 49
6
 49
-1.5
 49
6
 49
-1.5
 49
0.25
 49
-1.5
 49
0.25
 49
-1.5
  0
LTYPE
  2
dashed_triplicate-dotted
 70
   64
  3
-------    -    -    -    ------
 72
   65
 73
    8
 40
12.75
 49
6
 49
-1.5
 49
0.25
 49
-1.5
 49
0.25
 49
-1.5
 49
0.25
 49
-1.5
  0
LTYPE
  2
double-dashed_triplicate-dotted
 70
   64
  3
-----  ---------  -  -  -  -----
 72
   65
 73
   10
 40
20.25
 49
6
 49
-1.5
 49
6
 49
-1.5
 49
0.25
 49
-1.5
 49
0.25
 49
-1.5
 49
0.25
 49
-1.5
  0
LTYPE
  2
undefined
 70
   64
  3
--------------------------------
 72
   65
 73
    0
 40
0
  0
ENDTAB
  0
TABLE
  2
STYLE
  5
3
100
AcDbSymbolTable
 70
     1
  0
STYLE
  5
10
100
AcDbSymbolTableRecord
100
AcDbTextStyleTableRecord
  2
STANDARD
 70
     0
 40
0.0
 41
1.0
 50
0.0
 71
     0
 42
0.2
  3
txt
  4
bigfont.shx
  0
STYLE
  5
26
100
AcDbSymbolTableRecord
100
AcDbTextStyleTableRecord
  2
TATEGAKI
 70
    68
 40
0.0
 41
1.0
 50
0.0
 71
     0
 42
1.0
  3
txt
  4
bigfont.shx
  0
ENDTAB
  0
TABLE
  2
LAYER
 70
   13
  0
LAYER
  2
_0-0_計極細
 70
   64
 62
    7
  6
CONTINUOUS
  0
LAYER
  2
_0-1_計細線
 70
   64
 62
    7
  6
CONTINUOUS
  0
LAYER
  2
_0-5_寸法線
 70
   64
 62
    7
  6
CONTINUOUS
  0
LAYER
  2
_0-7_枠細線
 70
   64
 62
    7
  6
CONTINUOUS
  0
LAYER
  2
_0-8_枠中線
 70
   64
 62
    7
  6
CONTINUOUS
  0
LAYER
  2
_0-a_極細1
 70
   64
 62
    7
  6
CONTINUOUS
  0
LAYER
  2
_0-d_寸法1
 70
   64
 62
    7
  6
CONTINUOUS
  0
LAYER
  2
_0-e_極細4
 70
   64
 62
    7
  6
CONTINUOUS
  0
LAYER
  2
_1-1_寸法4
 70
   64
 62
    7
  6
CONTINUOUS
  0
LAYER
  2
_1-2_極細3
 70
   64
 62
    7
  6
CONTINUOUS
  0
LAYER
  2
_1-3_細線3
 70
   64
 62
    7
  6
CONTINUOUS
  0
LAYER
  2
_1-5_寸法3
 70
   64
 62
    7
  6
CONTINUOUS
  0
LAYER
  2
ADD_LINE
 70
   64
 62
    7
  6
CONTINUOUS
  0
ENDTAB
  0
ENDSEC
  0
SECTION
  2
BLOCKS
  0
ENDSEC
  0
SECTION
  2
ENTITIES
  0
LINE
  8
_0-8_枠中線
  6
CONTINUOUS
 62
    5
 10
72
 20
72
 11
72
 21
1152
  0
LINE
  8
_0-8_枠中線
  6
CONTINUOUS
 62
    5
 10
72
 20
1152
 11
1710
 21
1152
  0
LINE
  8
_0-8_枠中線
  6
CONTINUOUS
 62
    5
 10
1710
 20
1152
 11
1710
 21
72
  0
LINE
  8
_0-8_枠中線
  6
CONTINUOUS
 62
    5
 10
1710
 20
72
 11
72
 21
72
  0
TEXT
  8
_0-7_枠細線
 62
    5
 10
1125
 20
117
 40
21
 41
1
 50
0
  1
備考
  7
TATEGAKI
  0
TEXT
  8
_0-7_枠細線
 62
    5
 10
1125
 20
165
 40
21
 41
1
 50
0
  1
品番
  7
TATEGAKI
  0
TEXT
  8
_0-7_枠細線
 62
    5
 10
1125
 20
213
 40
21
 41
1
 50
0
  1
品名
  7
TATEGAKI
  0
LINE
  8
_0-7_枠細線
  6
CONTINUOUS
 62
    5
 10
1140
 20
216
 11
1140
 21
72
  0
LINE
  8
_0-8_枠中線
  6
CONTINUOUS
 62
    5
 10
1710
 20
216
 11
1110
 21
216
  0
LINE
  8
_0-8_枠中線
  6
CONTINUOUS
 62
    5
 10
1110
 20
216
 11
1110
 21
72
  0
LINE
  8
_0-7_枠細線
  6
CONTINUOUS
 62
    5
 10
1422
 20
216
 11
1422
 21
120
  0
LINE
  8
_0-7_枠細線
  6
CONTINUOUS
 62
    5
 10
1422
 20
168
 11
1110
 21
168
  0
LINE
  8
_0-7_枠細線
  6
CONTINUOUS
 62
    5
 10
1494
 20
216
 11
1494
 21
72
  0
TEXT
  8
_0-7_枠細線
 62
    5
 10
1431
 20
192
 40
18
 41
1
 50
0
  1
縮　尺
  0
LINE
  8
_0-7_枠細線
  6
CONTINUOUS
 62
    5
 10
1422
 20
186
 11
1494
 21
186
  0
LINE
  8
_0-7_枠細線
  6
CONTINUOUS
 62
    5
 10
1494
 20
120
 11
1110
 21
120
  0
LINE
  8
_0-7_枠細線
  6
CONTINUOUS
 62
    5
 10
1710
 20
108
 11
1494
 21
108
  0
LINE
  8
_0-7_枠細線
  6
CONTINUOUS
 62
    5
 10
1494
 20
144
 11
1710
 21
144
  0
LINE
  8
_0-7_枠細線
  6
CONTINUOUS
 62
    5
 10
1710
 20
168
 11
1494
 21
168
  0
TEXT
  8
_0-7_枠細線
 62
    5
 10
1506
 20
177
 40
30
 41
0.8
 50
0
  1
株式会社シマブン
  0
TEXT
  8
_0-7_枠細線
 62
    5
 10
1503
 20
72
 40
18
 41
1
 50
0
  1
年月日
  0
TEXT
  8
_0-7_枠細線
 62
    5
 10
1503
 20
90
 40
18
 41
1
 50
0
  1
作　成
  0
TEXT
  8
_0-7_枠細線
 62
    5
 10
1507.5
 20
147
 40
18
 41
1
 50
0
  1
承 認
  0
LINE
  8
_0-7_枠細線
  6
CONTINUOUS
 62
    5
 10
1566
 20
168
 11
1566
 21
72
  0
TEXT
  8
_0-7_枠細線
 62
    5
 10
1579.5
 20
147
 40
18
 41
1
 50
0
  1
検 図
  0
LINE
  8
_0-7_枠細線
  6
CONTINUOUS
 62
    5
 10
1638
 20
168
 11
1638
 21
108
  0
TEXT
  8
_0-7_枠細線
 62
    5
 10
1651.5
 20
147
 40
18
 41
1
 50
0
  1
設 計
  0
TEXT
  8
_0-7_枠細線
 62
    5
 10
1506
 20
114
 40
24
 41
1
 50
0
  1
大野
  0
TEXT
  8
_0-7_枠細線
 62
    5
 10
1578
 20
114
 40
24
 41
1
 50
0
  1
中村
  0
TEXT
  8
_0-7_枠細線
 62
    5
 10
1152.6000000000001
 20
179.43641814137897
 40
24
 41
0.5999999999999998
 50
0
  1
フリースタイルユニット
  0
TEXT
  8
_0-7_枠細線
 62
    5
 10
1572
 20
81
 40
18
 41
0.6666666666666666
 50
0
  1
２０２０年０７月０１日
  0
TEXT
  8
_0-7_枠細線
 62
    5
 10
1650
 20
114
 40
24
 41
1
 50
0
  1
石井
  0
TEXT
  8
_0-7_枠細線
 62
    5
 10
1153.7169242964719
 20
132
 40
24
 41
0.5999999999999998
 50
0
  1
ＨＴＡＹ－１５Ｌ６００
  0
TEXT
  8
_0-7_枠細線
 62
    5
 10
1432.8
 20
141
 40
24
 41
0.6999999999999997
 50
0
  1
１：６
  0
CIRCLE
  8
_1-1_寸法4
  6
CONTINUOUS
 62
    7
 10
370.60332474753699
 20
330.05347620844134
 40
30
  0
TEXT
  8
_1-1_寸法4
 62
    7
 10
384.53003609310667
 20
353.28810518335081
 40
18
 41
0.8000000000000001
 50
0
  1
Ｃ部
  0
LINE
  8
_1-1_寸法4
  6
CONTINUOUS
 62
    7
 10
269.64408687113132
 20
339.03955105613613
 11
258.96620936725651
 21
344.51521832252888
  0
LINE
  8
_1-1_寸法4
  6
CONTINUOUS
 62
    7
 10
269.64408687113132
 20
339.03955105613613
 11
263.13460732747376
 21
349.1205567634405
  0
LINE
  8
_1-1_寸法4
  6
CONTINUOUS
 62
    7
 10
269.64408687113132
 20
339.03955105613613
 11
246.39428044370797
 21
360.08348668235931
  0
LINE
  8
_1-1_寸法4
  6
CONTINUOUS
 62
    7
 10
246.39428044370797
 20
360.08348668235931
 11
159.99428044370802
 21
360.08348668235931
  0
TEXT
  8
_1-1_寸法4
 62
    7
 10
159.99428044370794
 20
360.08348668235959
 40
18
 41
0.8000000000000001
 50
-0.0000000000001979
  1
ストレーナー
  0
LINE
  8
_1-1_寸法4
  6
CONTINUOUS
 62
    7
 10
281.14864823509311
 20
260.76427954139706
 11
273.93093126072904
 21
251.17759285214004
  0
LINE
  8
_1-1_寸法4
  6
CONTINUOUS
 62
    7
 10
281.14864823509311
 20
260.76427954139706
 11
270.1045786333392
 21
256.07082381756032
  0
LINE
  8
_1-1_寸法4
  6
CONTINUOUS
 62
    7
 10
281.14864823509311
 20
260.76427954139706
 11
213.36764567648089
 21
207.76166857533366
  0
LINE
  8
_1-1_寸法4
  6
CONTINUOUS
 62
    7
 10
213.36764567648089
 20
207.76166857533366
 11
98.167645676480618
 21
207.76166857533366
  0
TEXT
  8
_1-1_寸法4
 62
    7
 10
98.167645676480618
 20
207.76166857533391
 40
18
 41
0.8000000000000001
 50
-0.0000000000001696
  1
防臭インナー１号
  0
LINE
  8
_1-1_寸法4
  6
CONTINUOUS
 62
    7
 10
236.46196416198086
 20
194.56851343886837
 11
229.18091809017284
 21
185.02983595715173
  0
LINE
  8
_1-1_寸法4
  6
CONTINUOUS
 62
    7
 10
236.46196416198086
 20
194.56851343886837
 11
225.3870545568119
 21
189.94829945709921
  0
LINE
  8
_1-1_寸法4
  6
CONTINUOUS
 62
    7
 10
236.46196416198086
 20
194.56851343886837
 11
213.36764567648089
 21
176.7546793561516
  0
LINE
  8
_1-1_寸法4
  6
CONTINUOUS
 62
    7
 10
213.36764567648089
 20
176.7546793561516
 11
126.96764567648086
 21
176.7546793561516
  0
TEXT
  8
_1-1_寸法4
 62
    7
 10
126.96764567648094
 20
176.75467935615194
 40
18
 41
0.8000000000000001
 50
-0.0000000000002261
  1
トラップ本体
  0
LINE
  8
_1-1_寸法4
  6
CONTINUOUS
 62
    7
 10
253.73350463195698
 20
284.58248868165958
 11
246.52069710592136
 21
274.99210768858302
  0
LINE
  8
_1-1_寸法4
  6
CONTINUOUS
 62
    7
 10
253.73350463195698
 20
284.58248868165958
 11
242.69183958526426
 21
279.88337887270166
  0
LINE
  8
_1-1_寸法4
  6
CONTINUOUS
 62
    7
 10
253.73350463195698
 20
284.58248868165958
 11
213.36764567648089
 21
252.98433825784321
  0
LINE
  8
_1-1_寸法4
  6
CONTINUOUS
 62
    7
 10
213.36764567648089
 20
252.98433825784321
 11
98.167645676480618
 21
252.98433825784321
  0
TEXT
  8
_1-1_寸法4
 62
    7
 10
98.167645676480618
 20
252.98433825784346
 40
18
 41
0.8000000000000001
 50
-0.0000000000001908
  1
防臭インナー２号
  0
ARC
  8
_0-e_極細4
  6
CONTINUOUS
 62
    6
 10
238.45332474753781
 20
335.54099177835519
 40
0.75
 50
179.99999999999983
 51
269.99999999999977
  0
LINE
  8
_0-e_極細4
  6
CONTINUOUS
 62
    6
 10
239.35332474753758
 20
334.79099177835519
 11
239.35332474753758
 21
336.29099177835519
  0
ARC
  8
_0-e_極細4
  6
CONTINUOUS
 62
    6
 10
369.85332474753699
 20
335.54099177835519
 40
0.75
 50
269.99999999999977
 51
359.99999999999966
  0
LINE
  8
_0-e_極細4
  6
CONTINUOUS
 62
    6
 10
368.95332474753764
 20
334.79099177835519
 11
368.95332474753764
 21
336.29099177835519
  0
LINE
  8
_0-e_極細4
  6
CONTINUOUS
 62
    6
 10
263.65332474753808
 20
225.29213519834951
 11
263.65332474753808
 21
313.75352927835536
  0
ARC
  8
_0-e_極細4
  6
CONTINUOUS
 62
    6
 10
265.15332474753791
 20
225.29213519834951
 40
1.5
 50
179.99999999999983
 51
270.00045836621285
  0
LINE
  8
_0-e_極細4
  6
CONTINUOUS
 62
    6
 10
265.15332474753791
 20
223.79213519834943
 11
304.15332474753808
 21
223.79213519834943
  0
LINE
  8
_0-e_極細4
  6
CONTINUOUS
 62
    6
 10
245.27832474753808
 20
215.98037069834947
 11
245.27832474753808
 21
256.48037069834947
  0
LINE
  8
_0-e_極細4
  6
CONTINUOUS
 62
    6
 10
263.27832474753808
 20
197.98037069834947
 11
266.65332474753808
 21
197.98037069834947
  0
ARC
  8
_0-e_極細4
  6
CONTINUOUS
 62
    6
 10
263.27832474753808
 20
215.98037069834947
 40
18
 50
179.99999999999983
 51
269.99999999999977
  0
LINE
  8
_0-e_極細4
  6
CONTINUOUS
 62
    6
 10
232.15332474753791
 20
271.36272119834939
 11
232.15332474753791
 21
311.98039577835505
  0
LINE
  8
_0-e_極細4
  6
CONTINUOUS
 62
    6
 10
304.15332474753808
 20
197.98037069834947
 11
302.75677374753764
 21
197.98037069834947
  0
LINE
  8
_0-e_極細4
  6
CONTINUOUS
 62
    6
 10
302.75677374753764
 20
197.98037069834947
 11
263.27832474753808
 21
197.98037069834947
  0
LINE
  8
_0-e_極細4
  6
CONTINUOUS
 62
    6
 10
245.27832474753808
 20
215.98037069834947
 11
245.27832474753808
 21
302.68039577835521
  0
LINE
  8
_0-e_極細4
  6
CONTINUOUS
 62
    6
 10
248.27832474753808
 20
215.98037069834947
 11
248.27832474753808
 21
302.68039577835521
  0
LINE
  8
_0-e_極細4
  6
CONTINUOUS
 62
    6
 10
304.15332474753808
 20
200.98037069834965
 11
263.27832474753808
 21
200.98037069834965
  0
ARC
  8
_0-e_極細4
  6
CONTINUOUS
 62
    6
 10
263.27832474753808
 20
215.98037069834947
 40
15
 50
179.99999999999983
 51
269.99999999999977
  0
LINE
  8
_0-e_極細4
  6
CONTINUOUS
 62
    6
 10
243.77832474753731
 20
324.29216027835514
 11
304.15332474753808
 21
324.29216027835514
  0
LINE
  8
_0-e_極細4
  6
CONTINUOUS
 62
    6
 10
243.77832474753731
 20
317.69216027835512
 11
243.77832474753731
 21
324.29216027835514
  0
LINE
  8
_0-e_極細4
  6
CONTINUOUS
 62
    6
 10
238.90332474753791
 20
324.29216027835503
 11
243.77832474753731
 21
324.29216027835503
  0
LINE
  8
_0-e_極細4
  6
CONTINUOUS
 62
    6
 10
240.40332474753791
 20
317.69216027835512
 11
243.77832474753731
 21
317.69216027835512
  0
LINE
  8
_0-e_極細4
  6
CONTINUOUS
 62
    6
 10
240.40332474753791
 20
316.19216027835512
 11
240.40332474753791
 21
317.69216027835512
  0
ARC
  8
_0-e_極細4
  6
CONTINUOUS
 62
    6
 10
243.40332474753791
 20
316.19216027835512
 40
3
 50
179.99999999999983
 51
269.99999999999977
  0
LINE
  8
_0-e_極細4
  6
CONTINUOUS
 62
    6
 10
243.40332474753791
 20
313.19216027835523
 11
247.90332474753808
 21
313.19216027835523
  0
ARC
  8
_0-e_極細4
  6
CONTINUOUS
 62
    6
 10
229.18482474753768
 20
341.16599177835519
 40
1.5750000000000171
 50
4.1509900000022961
 51
89.999999999999915
  0
LINE
  8
_0-e_極細4
  6
CONTINUOUS
 62
    6
 10
229.18482474753768
 20
319.75949177835503
 11
229.18482474753768
 21
342.74099177835535
  0
LINE
  8
_0-e_極細4
  6
CONTINUOUS
 62
    6
 10
229.18482474753768
 20
342.73039495897888
 11
218.8033247475376
 21
344.20903127835493
  0
LINE
  8
_0-e_極細4
  6
CONTINUOUS
 62
    6
 10
224.65332474753791
 20
308.68039577835509
 11
224.65332474753791
 21
320.68039577835509
  0
ARC
  8
_0-e_極細4
  6
CONTINUOUS
 62
    6
 10
220.90332474753791
 20
302.18520527835517
 40
7.5
 50
0
 51
59.99999999999968
  0
LINE
  8
_0-e_極細4
  6
CONTINUOUS
 62
    6
 10
218.8033247475376
 20
320.68039577835509
 11
218.8033247475376
 21
321.51325727835524
  0
LINE
  8
_0-e_極細4
  6
CONTINUOUS
 62
    6
 10
224.65332474753791
 20
320.68039577835509
 11
218.8033247475376
 21
320.68039577835509
  0
LINE
  8
_0-e_極細4
  6
CONTINUOUS
 62
    6
 10
218.8033247475376
 20
321.51325727835524
 11
218.8033247475376
 21
345.24826277835518
  0
LINE
  8
_0-e_極細4
  6
CONTINUOUS
 62
    6
 10
231.40332474753791
 20
313.18039577835509
 11
231.40332474753791
 21
317.54099177835508
  0
LINE
  8
_0-e_極細4
  6
CONTINUOUS
 62
    6
 10
229.18482474753768
 20
311.98039577835505
 11
231.40332474753791
 21
313.18039577835509
  0
LINE
  8
_0-e_極細4
  6
CONTINUOUS
 62
    6
 10
218.8033247475376
 20
341.68039577835521
 11
229.18482474753768
 21
340.48039577835516
  0
ARC
  8
_0-e_極細4
  6
CONTINUOUS
 62
    6
 10
246.77832474753808
 20
302.68039577835521
 40
1.5
 50
89.999999999999915
 51
179.99999999999983
  0
ARC
  8
_0-e_極細4
  6
CONTINUOUS
 62
    6
 10
246.77832474753808
 20
302.68039577835521
 40
1.5
 50
0
 51
89.999999999999915
  0
LINE
  8
_0-e_極細4
  6
CONTINUOUS
 62
    6
 10
304.15332474753791
 20
343.79099177835519
 11
229.18482474753768
 21
343.79099177835519
  0
LINE
  8
_0-e_極細4
  6
CONTINUOUS
 62
    6
 10
243.77832474753731
 20
323.54099177835508
 11
237.70332474753781
 21
323.54099177835508
  0
LINE
  8
_0-e_極細4
  6
CONTINUOUS
 62
    6
 10
233.29148874753758
 20
340.04099177835519
 11
235.07832474753781
 21
340.04099177835519
  0
LINE
  8
_0-e_極細4
  6
CONTINUOUS
 62
    6
 10
237.70332474753781
 20
321.59099177835515
 11
237.70332474753781
 21
337.41599177835519
  0
LINE
  8
_0-e_極細4
  6
CONTINUOUS
 62
    6
 10
234.40332474753731
 20
340.04099177835519
 11
234.40332474753731
 21
343.79099177835519
  0
ARC
  8
_0-e_極細4
  6
CONTINUOUS
 62
    6
 10
235.07832474753781
 20
337.41599177835519
 40
2.6249999999999991
 50
0
 51
89.999999999999915
  0
ARC
  8
_0-e_極細4
  6
CONTINUOUS
 62
    6
 10
229.18482474753768
 20
341.16599177835519
 40
2.6249999999999991
 50
4.1509899999971065
 51
89.999999999999915
  0
ARC
  8
_0-e_極細4
  6
CONTINUOUS
 62
    6
 10
233.29148874753758
 20
341.54099177835519
 40
1.5
 50
183.35088799999644
 51
269.99999999999977
  0
ARC
  8
_0-e_極細4
  6
CONTINUOUS
 62
    6
 10
233.29148874753758
 20
341.54099177835519
 40
2.5499999999999829
 50
183.35088800000051
 51
269.99999999999977
  0
LINE
  8
_0-e_極細4
  6
CONTINUOUS
 62
    6
 10
233.29148874753758
 20
338.99099177835535
 11
235.07832474753781
 21
338.99099177835535
  0
ARC
  8
_0-e_極細4
  6
CONTINUOUS
 62
    6
 10
235.07832474753781
 20
337.41599177835519
 40
1.5750000000000171
 50
0
 51
89.999999999999915
  0
LINE
  8
_0-e_極細4
  6
CONTINUOUS
 62
    6
 10
236.65332474753791
 20
320.54099177835508
 11
236.65332474753731
 21
337.41599177835519
  0
LINE
  8
_0-e_極細4
  6
CONTINUOUS
 62
    6
 10
229.18482474753768
 20
319.75949177835503
 11
231.40332474753791
 21
317.54099177835508
  0
LINE
  8
_0-e_極細4
  6
CONTINUOUS
 62
    6
 10
239.65332474753791
 20
314.54099177835508
 11
239.65332474753791
 21
323.54099177835508
  0
LINE
  8
_0-e_極細4
  6
CONTINUOUS
 62
    6
 10
239.65332474753791
 20
320.54099177835508
 11
236.65332474753791
 21
320.54099177835508
  0
LINE
  8
_0-e_極細4
  6
CONTINUOUS
 62
    6
 10
239.65332474753791
 20
321.59099177835515
 11
237.70332474753781
 21
321.59099177835515
  0
LINE
  8
_0-e_極細4
  6
CONTINUOUS
 62
    6
 10
240.89860074753761
 20
314.54099177835508
 11
239.65332474753791
 21
314.54099177835508
  0
LINE
  8
_0-e_極細4
  6
CONTINUOUS
 62
    6
 10
239.65332474753791
 20
317.54099177835508
 11
231.40332474753791
 21
317.54099177835508
  0
LINE
  8
_0-e_極細4
  6
CONTINUOUS
 62
    6
 10
259.47385524753793
 20
314.99099177835535
 11
251.9738552475379
 21
314.99099177835535
  0
LINE
  8
_0-e_極細4
  6
CONTINUOUS
 62
    6
 10
259.47385524753793
 20
314.99099177835535
 11
259.47385524753793
 21
317.54099177835508
  0
LINE
  8
_0-e_極細4
  6
CONTINUOUS
 62
    6
 10
251.9738552475379
 20
314.99099177835535
 11
251.9738552475379
 21
317.54099177835508
  0
LINE
  8
_0-e_極細4
  6
CONTINUOUS
 62
    6
 10
234.47832474753758
 20
340.34099177835515
 11
234.47832474753758
 21
342.29099177835519
  0
LINE
  8
_0-e_極細4
  6
CONTINUOUS
 62
    6
 10
304.15332474753791
 20
343.04099177835519
 11
235.22832474753758
 21
343.04099177835519
  0
LINE
  8
_0-e_極細4
  6
CONTINUOUS
 62
    6
 10
237.70332474753764
 20
340.04099177835519
 11
234.77832474753731
 21
340.04099177835519
  0
LINE
  8
_0-e_極細4
  6
CONTINUOUS
 62
    6
 10
237.70332474753781
 20
335.54099177835519
 11
237.70332474753764
 21
340.04099177835519
  0
ARC
  8
_0-e_極細4
  6
CONTINUOUS
 62
    6
 10
235.22832474753758
 20
342.29099177835519
 40
0.75
 50
155.9454510000069
 51
179.99999999999983
  0
ARC
  8
_0-e_極細4
  6
CONTINUOUS
 62
    6
 10
234.77832474753731
 20
340.34099177835515
 40
0.2999999999999829
 50
179.99999999999983
 51
269.99999999999977
  0
ARC
  8
_0-e_極細4
  6
CONTINUOUS
 62
    6
 10
235.22832474753758
 20
342.29099177835519
 40
0.75
 50
89.999999999999915
 51
155.9454510000069
  0
LINE
  8
_0-e_極細4
  6
CONTINUOUS
 62
    6
 10
303.85332474753761
 20
336.29099177835519
 11
239.35332474753758
 21
336.29099177835519
  0
LINE
  8
_0-e_極細4
  6
CONTINUOUS
 62
    6
 10
303.85332474753761
 20
334.79099177835519
 11
238.45332474753781
 21
334.79099177835519
  0
LINE
  8
_0-e_極細4
  6
CONTINUOUS
 62
    6
 10
304.15332474753808
 20
333.15015677835527
 11
237.9283247475376
 21
333.15015677835504
  0
LINE
  8
_0-e_極細4
  6
CONTINUOUS
 62
    6
 10
244.52832474753791
 20
333.15015677835504
 11
244.52832474753791
 21
332.40015677835504
  0
LINE
  8
_0-e_極細4
  6
CONTINUOUS
 62
    6
 10
239.12832474753753
 20
330.90015677835504
 11
237.9283247475376
 21
333.15015677835504
  0
LINE
  8
_0-e_極細4
  6
CONTINUOUS
 62
    6
 10
245.27832474753808
 20
328.20015677835534
 11
244.52832474753791
 21
328.95015677835534
  0
LINE
  8
_0-e_極細4
  6
CONTINUOUS
 62
    6
 10
244.52832474753791
 20
327.45015677835499
 11
245.27832474753808
 21
328.20015677835534
  0
LINE
  8
_0-e_極細4
  6
CONTINUOUS
 62
    6
 10
244.52832474753791
 20
330.90015677835504
 11
245.27832474753808
 21
331.65015677835504
  0
LINE
  8
_0-e_極細4
  6
CONTINUOUS
 62
    6
 10
245.27832474753808
 20
331.65015677835504
 11
244.52832474753791
 21
332.40015677835504
  0
LINE
  8
_0-e_極細4
  6
CONTINUOUS
 62
    6
 10
304.15332474753808
 20
331.65015677835527
 11
245.27832474753808
 21
331.65015677835504
  0
LINE
  8
_0-e_極細4
  6
CONTINUOUS
 62
    6
 10
304.15332474753808
 20
328.20015677835534
 11
245.27832474753808
 21
328.20015677835534
  0
LINE
  8
_0-e_極細4
  6
CONTINUOUS
 62
    6
 10
304.15332474753808
 20
326.70015677835534
 11
239.12832474753753
 21
326.70015677835534
  0
LINE
  8
_0-e_極細4
  6
CONTINUOUS
 62
    6
 10
239.12832474753753
 20
330.90015677835504
 11
239.12832474753753
 21
326.70015677835534
  0
LINE
  8
_0-e_極細4
  6
CONTINUOUS
 62
    6
 10
244.52832474753791
 20
327.45015677835499
 11
244.52832474753791
 21
326.70015677835534
  0
LINE
  8
_0-e_極細4
  6
CONTINUOUS
 62
    6
 10
244.52832474753791
 20
330.90015677835504
 11
244.52832474753791
 21
328.95015677835534
  0
LINE
  8
_0-e_極細4
  6
CONTINUOUS
 62
    6
 10
238.90332474753791
 20
324.29216027835503
 11
238.90332474753791
 21
326.54216027835503
  0
LINE
  8
_0-e_極細4
  6
CONTINUOUS
 62
    6
 10
238.90332474753791
 20
326.54216027835503
 11
304.15332474753808
 21
326.54216027835514
  0
LINE
  8
_0-e_極細4
  6
CONTINUOUS
 62
    6
 10
238.90332474753791
 20
333.44216027835512
 11
304.15332474753808
 21
333.44216027835512
  0
LINE
  8
_0-e_極細4
  6
CONTINUOUS
 62
    6
 10
238.90332474753791
 20
333.44216027835512
 11
238.90332474753791
 21
334.79099177835519
  0
LINE
  8
_0-e_極細4
  6
CONTINUOUS
 62
    6
 10
263.65332474753808
 20
313.18039577835509
 11
231.40332474753791
 21
313.18039577835509
  0
LINE
  8
_0-e_極細4
  6
CONTINUOUS
 62
    6
 10
263.65332474753808
 20
311.53689977835518
 11
263.65332474753808
 21
313.75352927835536
  0
LINE
  8
_0-e_極細4
  6
CONTINUOUS
 62
    6
 10
229.18482474753768
 20
343.79099177835519
 11
218.8033247475376
 21
345.26962730036041
  0
LINE
  8
_0-e_極細4
  6
CONTINUOUS
 62
    6
 10
246.77832474753808
 20
304.18039577835509
 11
263.65332474753808
 21
304.18039577835509
  0
LINE
  8
_0-e_極細4
  6
CONTINUOUS
 62
    6
 10
263.65332474753808
 20
311.98039577835505
 11
229.18482474753768
 21
311.98039577835505
  0
LINE
  8
_0-e_極細4
  6
CONTINUOUS
 62
    6
 10
218.8033247475376
 20
344.23039577835516
 11
218.8033247475376
 21
345.26962730036041
  0
LINE
  8
_0-e_極細4
  6
CONTINUOUS
 62
    6
 10
374.84082475321333
 20
269.87448608659088
 11
363.028324747537
 21
269.87448608659088
  0
LINE
  8
_0-e_極細4
  6
CONTINUOUS
 62
    6
 10
344.65332474753791
 20
225.29213519834951
 11
344.65332474753791
 21
313.75352927835536
  0
ARC
  8
_0-e_極細4
  6
CONTINUOUS
 62
    6
 10
343.15332474753791
 20
225.29213519834951
 40
1.5
 50
269.99954163374298
 51
359.99999999999966
  0
LINE
  8
_0-e_極細4
  6
CONTINUOUS
 62
    6
 10
343.15332474753791
 20
223.79213519834943
 11
304.15332474753791
 21
223.79213519834943
  0
LINE
  8
_0-e_極細4
  6
CONTINUOUS
 62
    6
 10
363.028324747537
 20
215.98037069834947
 11
363.028324747537
 21
256.48037069834947
  0
LINE
  8
_0-e_極細4
  6
CONTINUOUS
 62
    6
 10
345.028324747537
 20
197.98037069834947
 11
341.653324747537
 21
197.98037069834947
  0
ARC
  8
_0-e_極細4
  6
CONTINUOUS
 62
    6
 10
345.028324747537
 20
215.98037069834947
 40
18
 50
269.99999999999977
 51
359.99999999999966
  0
LINE
  8
_0-e_極細4
  6
CONTINUOUS
 62
    6
 10
304.15332474753791
 20
197.98037069834947
 11
305.54987574753761
 21
197.98037069834947
  0
LINE
  8
_0-e_極細4
  6
CONTINUOUS
 62
    6
 10
305.54987574753761
 20
197.98037069834947
 11
345.028324747537
 21
197.98037069834947
  0
LINE
  8
_0-e_極細4
  6
CONTINUOUS
 62
    6
 10
363.028324747537
 20
215.98037069834947
 11
363.028324747537
 21
302.68039577835521
  0
LINE
  8
_0-e_極細4
  6
CONTINUOUS
 62
    6
 10
360.02832474753791
 20
215.98037069834947
 11
360.02832474753791
 21
302.68039577835521
  0
LINE
  8
_0-e_極細4
  6
CONTINUOUS
 62
    6
 10
304.15332474753791
 20
200.98037069834965
 11
345.028324747537
 21
200.98037069834965
  0
ARC
  8
_0-e_極細4
  6
CONTINUOUS
 62
    6
 10
345.028324747537
 20
215.98037069834947
 40
15
 50
269.99999999999977
 51
359.99999999999966
  0
LINE
  8
_0-e_極細4
  6
CONTINUOUS
 62
    6
 10
364.52832474753791
 20
324.29216027835514
 11
304.15332474753791
 21
324.29216027835514
  0
LINE
  8
_0-e_極細4
  6
CONTINUOUS
 62
    6
 10
364.52832474753791
 20
317.69216027835512
 11
364.52832474753791
 21
324.29216027835514
  0
LINE
  8
_0-e_極細4
  6
CONTINUOUS
 62
    6
 10
369.40332474753791
 20
324.29216027835503
 11
364.52832474753791
 21
324.29216027835503
  0
LINE
  8
_0-e_極細4
  6
CONTINUOUS
 62
    6
 10
367.90332474753791
 20
317.69216027835512
 11
364.52832474753791
 21
317.69216027835512
  0
LINE
  8
_0-e_極細4
  6
CONTINUOUS
 62
    6
 10
367.90332474753791
 20
316.19216027835512
 11
367.90332474753791
 21
317.69216027835512
  0
ARC
  8
_0-e_極細4
  6
CONTINUOUS
 62
    6
 10
364.90332474753791
 20
316.19216027835512
 40
3
 50
269.99999999999977
 51
359.99999999999966
  0
LINE
  8
_0-e_極細4
  6
CONTINUOUS
 62
    6
 10
364.90332474753791
 20
313.19216027835523
 11
360.40332474753791
 21
313.19216027835523
  0
ARC
  8
_0-e_極細4
  6
CONTINUOUS
 62
    6
 10
379.12182474753774
 20
341.16599177835519
 40
1.5750000000000171
 50
89.999999999999915
 51
175.84900999999832
  0
LINE
  8
_0-e_極細4
  6
CONTINUOUS
 62
    6
 10
379.12182474753774
 20
319.75949177835503
 11
379.12182474753774
 21
342.74099177835535
  0
LINE
  8
_0-e_極細4
  6
CONTINUOUS
 62
    6
 10
379.12182474753774
 20
342.73039495897888
 11
389.50332474753753
 21
344.20903127835493
  0
LINE
  8
_0-e_極細4
  6
CONTINUOUS
 62
    6
 10
383.653324747537
 20
308.68039577835509
 11
383.653324747537
 21
320.68039577835509
  0
ARC
  8
_0-e_極細4
  6
CONTINUOUS
 62
    6
 10
387.403324747537
 20
302.18520527835517
 40
7.5
 50
120.00000000000033
 51
179.99999999999983
  0
LINE
  8
_0-e_極細4
  6
CONTINUOUS
 62
    6
 10
389.50332474753753
 20
320.68039577835509
 11
389.50332474753753
 21
321.51325727835524
  0
LINE
  8
_0-e_極細4
  6
CONTINUOUS
 62
    6
 10
383.653324747537
 20
320.68039577835509
 11
389.50332474753753
 21
320.68039577835509
  0
LINE
  8
_0-e_極細4
  6
CONTINUOUS
 62
    6
 10
389.50332474753753
 20
321.51325727835524
 11
389.50332474753753
 21
345.24826277835518
  0
LINE
  8
_0-e_極細4
  6
CONTINUOUS
 62
    6
 10
376.90332474753791
 20
313.18039577835509
 11
376.90332474753791
 21
317.54099177835508
  0
LINE
  8
_0-e_極細4
  6
CONTINUOUS
 62
    6
 10
379.12182474753712
 20
311.98039577835505
 11
376.90332474753791
 21
313.18039577835509
  0
LINE
  8
_0-e_極細4
  6
CONTINUOUS
 62
    6
 10
389.50332474753753
 20
341.68039577835521
 11
379.12182474753774
 21
340.48039577835516
  0
ARC
  8
_0-e_極細4
  6
CONTINUOUS
 62
    6
 10
361.52832474753791
 20
302.68039577835521
 40
1.5
 50
0
 51
89.999999999999915
  0
ARC
  8
_0-e_極細4
  6
CONTINUOUS
 62
    6
 10
361.52832474753791
 20
302.68039577835521
 40
1.5
 50
89.999999999999915
 51
179.99999999999983
  0
LINE
  8
_0-e_極細4
  6
CONTINUOUS
 62
    6
 10
304.15332474753791
 20
343.79099177835519
 11
379.12182474753774
 21
343.79099177835519
  0
LINE
  8
_0-e_極細4
  6
CONTINUOUS
 62
    6
 10
364.52832474753791
 20
323.54099177835508
 11
370.60332474753699
 21
323.54099177835508
  0
LINE
  8
_0-e_極細4
  6
CONTINUOUS
 62
    6
 10
375.01516074753721
 20
340.04099177835519
 11
373.22832474753699
 21
340.04099177835519
  0
LINE
  8
_0-e_極細4
  6
CONTINUOUS
 62
    6
 10
370.60332474753699
 20
321.59099177835515
 11
370.60332474753699
 21
337.41599177835519
  0
LINE
  8
_0-e_極細4
  6
CONTINUOUS
 62
    6
 10
373.90332474753791
 20
340.04099177835519
 11
373.90332474753791
 21
343.79099177835519
  0
ARC
  8
_0-e_極細4
  6
CONTINUOUS
 62
    6
 10
373.22832474753699
 20
337.41599177835519
 40
2.6249999999999991
 50
89.999999999999915
 51
179.99999999999983
  0
ARC
  8
_0-e_極細4
  6
CONTINUOUS
 62
    6
 10
379.12182474753774
 20
341.16599177835519
 40
2.6249999999999991
 50
89.999999999999915
 51
175.84901000000326
  0
ARC
  8
_0-e_極細4
  6
CONTINUOUS
 62
    6
 10
375.01516074753721
 20
341.54099177835519
 40
1.5
 50
269.99999999999977
 51
356.64911200000336
  0
ARC
  8
_0-e_極細4
  6
CONTINUOUS
 62
    6
 10
375.01516074753721
 20
341.54099177835519
 40
2.5499999999999829
 50
269.99999999999977
 51
356.64911199999926
  0
LINE
  8
_0-e_極細4
  6
CONTINUOUS
 62
    6
 10
375.01516074753721
 20
338.99099177835535
 11
373.22832474753699
 21
338.99099177835535
  0
ARC
  8
_0-e_極細4
  6
CONTINUOUS
 62
    6
 10
373.22832474753699
 20
337.41599177835519
 40
1.5750000000000171
 50
89.999999999999915
 51
179.99999999999983
  0
LINE
  8
_0-e_極細4
  6
CONTINUOUS
 62
    6
 10
371.65332474753791
 20
320.54099177835508
 11
371.65332474753791
 21
337.41599177835519
  0
LINE
  8
_0-e_極細4
  6
CONTINUOUS
 62
    6
 10
379.12182474753774
 20
319.75949177835503
 11
376.90332474753791
 21
317.54099177835508
  0
LINE
  8
_0-e_極細4
  6
CONTINUOUS
 62
    6
 10
368.653324747537
 20
314.54099177835508
 11
368.653324747537
 21
323.54099177835508
  0
LINE
  8
_0-e_極細4
  6
CONTINUOUS
 62
    6
 10
368.653324747537
 20
320.54099177835508
 11
371.65332474753791
 21
320.54099177835508
  0
LINE
  8
_0-e_極細4
  6
CONTINUOUS
 62
    6
 10
368.653324747537
 20
321.59099177835515
 11
370.60332474753699
 21
321.59099177835515
  0
LINE
  8
_0-e_極細4
  6
CONTINUOUS
 62
    6
 10
367.40804874753752
 20
314.54099177835508
 11
368.653324747537
 21
314.54099177835508
  0
LINE
  8
_0-e_極細4
  6
CONTINUOUS
 62
    6
 10
368.653324747537
 20
317.54099177835508
 11
376.90332474753791
 21
317.54099177835508
  0
LINE
  8
_0-e_極細4
  6
CONTINUOUS
 62
    6
 10
348.83279424753732
 20
314.99099177835535
 11
356.33279424753732
 21
314.99099177835535
  0
LINE
  8
_0-e_極細4
  6
CONTINUOUS
 62
    6
 10
348.83279424753732
 20
314.99099177835535
 11
348.83279424753732
 21
317.54099177835508
  0
LINE
  8
_0-e_極細4
  6
CONTINUOUS
 62
    6
 10
356.33279424753732
 20
314.99099177835535
 11
356.33279424753732
 21
317.54099177835508
  0
LINE
  8
_0-e_極細4
  6
CONTINUOUS
 62
    6
 10
373.82832474753764
 20
340.34099177835515
 11
373.82832474753764
 21
342.29099177835519
  0
LINE
  8
_0-e_極細4
  6
CONTINUOUS
 62
    6
 10
304.15332474753791
 20
343.04099177835519
 11
373.07832474753764
 21
343.04099177835519
  0
LINE
  8
_0-e_極細4
  6
CONTINUOUS
 62
    6
 10
370.60332474753699
 20
340.04099177835519
 11
373.52832474753791
 21
340.04099177835519
  0
LINE
  8
_0-e_極細4
  6
CONTINUOUS
 62
    6
 10
370.60332474753699
 20
335.54099177835519
 11
370.60332474753699
 21
340.04099177835519
  0
ARC
  8
_0-e_極細4
  6
CONTINUOUS
 62
    6
 10
373.07832474753764
 20
342.29099177835519
 40
0.75
 50
0
 51
24.054549000003728
  0
ARC
  8
_0-e_極細4
  6
CONTINUOUS
 62
    6
 10
373.52832474753791
 20
340.34099177835515
 40
0.2999999999999829
 50
269.99999999999977
 51
359.99999999999966
  0
ARC
  8
_0-e_極細4
  6
CONTINUOUS
 62
    6
 10
373.07832474753764
 20
342.29099177835519
 40
0.75
 50
24.054549000003728
 51
89.999999999999915
  0
LINE
  8
_0-e_極細4
  6
CONTINUOUS
 62
    6
 10
304.45332474753764
 20
336.29099177835519
 11
368.95332474753764
 21
336.29099177835519
  0
LINE
  8
_0-e_極細4
  6
CONTINUOUS
 62
    6
 10
304.45332474753764
 20
334.79099177835519
 11
369.85332474753699
 21
334.79099177835519
  0
LINE
  8
_0-e_極細4
  6
CONTINUOUS
 62
    6
 10
304.15332474753791
 20
333.15015677835527
 11
370.37832474753753
 21
333.15015677835504
  0
LINE
  8
_0-e_極細4
  6
CONTINUOUS
 62
    6
 10
363.77832474753791
 20
333.15015677835504
 11
363.77832474753791
 21
332.40015677835504
  0
LINE
  8
_0-e_極細4
  6
CONTINUOUS
 62
    6
 10
369.17832474753754
 20
330.90015677835504
 11
370.37832474753753
 21
333.15015677835504
  0
LINE
  8
_0-e_極細4
  6
CONTINUOUS
 62
    6
 10
363.028324747537
 20
328.20015677835534
 11
363.77832474753791
 21
328.95015677835534
  0
LINE
  8
_0-e_極細4
  6
CONTINUOUS
 62
    6
 10
363.77832474753791
 20
327.45015677835499
 11
363.028324747537
 21
328.20015677835534
  0
LINE
  8
_0-e_極細4
  6
CONTINUOUS
 62
    6
 10
363.77832474753791
 20
330.90015677835504
 11
363.028324747537
 21
331.65015677835504
  0
LINE
  8
_0-e_極細4
  6
CONTINUOUS
 62
    6
 10
363.028324747537
 20
331.65015677835504
 11
363.77832474753791
 21
332.40015677835504
  0
LINE
  8
_0-e_極細4
  6
CONTINUOUS
 62
    6
 10
304.15332474753791
 20
331.65015677835527
 11
363.028324747537
 21
331.65015677835504
  0
LINE
  8
_0-e_極細4
  6
CONTINUOUS
 62
    6
 10
304.15332474753791
 20
328.20015677835534
 11
363.028324747537
 21
328.20015677835534
  0
LINE
  8
_0-e_極細4
  6
CONTINUOUS
 62
    6
 10
304.15332474753791
 20
326.70015677835534
 11
369.17832474753754
 21
326.70015677835534
  0
LINE
  8
_0-e_極細4
  6
CONTINUOUS
 62
    6
 10
369.17832474753754
 20
330.90015677835504
 11
369.17832474753754
 21
326.70015677835534
  0
LINE
  8
_0-e_極細4
  6
CONTINUOUS
 62
    6
 10
363.77832474753791
 20
327.45015677835499
 11
363.77832474753791
 21
326.70015677835534
  0
LINE
  8
_0-e_極細4
  6
CONTINUOUS
 62
    6
 10
363.77832474753791
 20
330.90015677835504
 11
363.77832474753791
 21
328.95015677835534
  0
LINE
  8
_0-e_極細4
  6
CONTINUOUS
 62
    6
 10
369.40332474753791
 20
324.29216027835503
 11
369.40332474753791
 21
326.54216027835503
  0
LINE
  8
_0-e_極細4
  6
CONTINUOUS
 62
    6
 10
369.40332474753791
 20
326.54216027835503
 11
304.15332474753791
 21
326.54216027835514
  0
LINE
  8
_0-e_極細4
  6
CONTINUOUS
 62
    6
 10
369.40332474753791
 20
333.44216027835512
 11
304.15332474753791
 21
333.44216027835512
  0
LINE
  8
_0-e_極細4
  6
CONTINUOUS
 62
    6
 10
369.40332474753791
 20
333.44216027835512
 11
369.40332474753791
 21
334.79099177835519
  0
LINE
  8
_0-e_極細4
  6
CONTINUOUS
 62
    6
 10
344.65332474753791
 20
313.18039577835509
 11
376.90332474753791
 21
313.18039577835509
  0
LINE
  8
_0-e_極細4
  6
CONTINUOUS
 62
    6
 10
344.65332474753791
 20
311.53689977835518
 11
344.65332474753791
 21
313.75352927835536
  0
LINE
  8
_0-e_極細4
  6
CONTINUOUS
 62
    6
 10
379.12182474753774
 20
343.79099177835519
 11
389.50332474753753
 21
345.26962730036041
  0
LINE
  8
_0-e_極細4
  6
CONTINUOUS
 62
    6
 10
361.52832474753791
 20
304.18039577835509
 11
344.65332474753791
 21
304.18039577835509
  0
LINE
  8
_0-e_極細4
  6
CONTINUOUS
 62
    6
 10
344.65332474753791
 20
311.98039577835505
 11
379.12182474753712
 21
311.98039577835505
  0
LINE
  8
_0-e_極細4
  6
CONTINUOUS
 62
    6
 10
389.50332474753753
 20
344.23039577835516
 11
389.50332474753753
 21
345.26962730036041
  0
LINE
  8
_0-e_極細4
  6
CONTINUOUS
 62
    6
 10
218.8033247475376
 20
345.26962730036041
 11
389.50332474753753
 21
345.26962730036041
  0
LINE
  8
_0-e_極細4
  6
CONTINUOUS
 62
    6
 10
379.12182474753774
 20
340.84119236521065
 11
382.24316621957109
 21
340.84119236521065
  0
LINE
  8
_0-e_極細4
  6
CONTINUOUS
 62
    6
 10
379.12182474753774
 20
341.74119236521074
 11
389.50332474753753
 21
341.74119236521074
  0
LINE
  8
_0-e_極細4
  6
CONTINUOUS
 62
    6
 10
379.12182474753774
 20
342.64119236521049
 11
389.50332474753753
 21
342.64119236521049
  0
LINE
  8
_0-e_極細4
  6
CONTINUOUS
 62
    6
 10
384.81443026688953
 20
343.5411923652108
 11
389.50332474753753
 21
343.5411923652108
  0
LINE
  8
_0-e_極細4
  6
CONTINUOUS
 62
    6
 10
226.06348327550387
 20
340.84119236521065
 11
229.18482474753768
 21
340.84119236521065
  0
LINE
  8
_0-e_極細4
  6
CONTINUOUS
 62
    6
 10
218.8033247475376
 20
341.74119236521074
 11
229.18482474753768
 21
341.74119236521074
  0
LINE
  8
_0-e_極細4
  6
CONTINUOUS
 62
    6
 10
218.8033247475376
 20
342.64119236521049
 11
229.18482474753768
 21
342.64119236521049
  0
LINE
  8
_0-e_極細4
  6
CONTINUOUS
 62
    6
 10
218.8033247475376
 20
343.5411923652108
 11
223.49221922818555
 21
343.5411923652108
  0
ARC
  8
_0-e_極細4
  6
CONTINUOUS
 62
    6
 10
353.65332474753791
 20
313.75352927835536
 40
9
 50
155.11305268293253
 51
179.99999999999983
  0
ARC
  8
_0-e_極細4
  6
CONTINUOUS
 62
    6
 10
353.65332474753791
 20
313.75352927835536
 40
9
 50
55.166292356157882
 51
155.11305268293253
  0
ARC
  8
_0-e_極細4
  6
CONTINUOUS
 62
    6
 10
355.90332474753791
 20
317.69216027835512
 40
4.5
 50
358.07490068720455
 51
50.029499419969419
  0
LINE
  8
_0-e_極細4
  6
CONTINUOUS
 62
    6
 10
345.48906557654749
 20
317.54099177835508
 11
360.40332474753791
 21
317.54099177835508
  0
LINE
  8
_0-e_極細4
  6
CONTINUOUS
 62
    6
 10
360.40332474753791
 20
313.19216027835523
 11
360.40332474753791
 21
317.54099177835508
  0
LINE
  8
_0-e_極細4
  6
CONTINUOUS
 62
    6
 10
359.51956190303986
 20
317.54099177835508
 11
359.51956190303986
 21
320.37037401798932
  0
LINE
  8
_0-e_極細4
  6
CONTINUOUS
 62
    6
 10
358.61956190303931
 20
317.54099177835508
 11
358.61956190303931
 21
321.2592929647036
  0
LINE
  8
_0-e_極細4
  6
CONTINUOUS
 62
    6
 10
357.71956190303985
 20
317.54099177835508
 11
357.71956190303985
 21
321.78258373048152
  0
LINE
  8
_0-e_極細4
  6
CONTINUOUS
 62
    6
 10
356.81956190303993
 20
317.54099177835508
 11
356.81956190303993
 21
322.17819201790246
  0
LINE
  8
_0-e_極細4
  6
CONTINUOUS
 62
    6
 10
355.91956190303995
 20
317.54099177835508
 11
355.91956190303995
 21
322.46353324821757
  0
LINE
  8
_0-e_極細4
  6
CONTINUOUS
 62
    6
 10
355.0195619030394
 20
317.54099177835508
 11
355.0195619030394
 21
322.64922464380709
  0
LINE
  8
_0-e_極細4
  6
CONTINUOUS
 62
    6
 10
354.11956190303931
 20
317.54099177835508
 11
354.11956190303931
 21
322.74144466040195
  0
LINE
  8
_0-e_極細4
  6
CONTINUOUS
 62
    6
 10
353.21956190303985
 20
317.54099177835508
 11
353.21956190303985
 21
322.74307041206907
  0
LINE
  8
_0-e_極細4
  6
CONTINUOUS
 62
    6
 10
352.3195619030393
 20
317.54099177835508
 11
352.3195619030393
 21
322.65415154169364
  0
LINE
  8
_0-e_極細4
  6
CONTINUOUS
 62
    6
 10
351.41956190303938
 20
317.54099177835508
 11
351.41956190303938
 21
322.47191809479034
  0
LINE
  8
_0-e_極細4
  6
CONTINUOUS
 62
    6
 10
350.5195619030394
 20
317.54099177835508
 11
350.5195619030394
 21
322.19032549697079
  0
LINE
  8
_0-e_極細4
  6
CONTINUOUS
 62
    6
 10
349.61956190303931
 20
317.54099177835508
 11
349.61956190303931
 21
321.79894768353142
  0
LINE
  8
_0-e_極細4
  6
CONTINUOUS
 62
    6
 10
348.71956190303968
 20
317.54099177835508
 11
348.71956190303968
 21
321.28067908384276
  0
LINE
  8
_0-e_極細4
  6
CONTINUOUS
 62
    6
 10
347.8195619030393
 20
317.54099177835508
 11
347.8195619030393
 21
320.60679208333784
  0
LINE
  8
_0-e_極細4
  6
CONTINUOUS
 62
    6
 10
346.91956190303938
 20
317.54099177835508
 11
346.91956190303938
 21
319.72483047273988
  0
LINE
  8
_0-e_極細4
  6
CONTINUOUS
 62
    6
 10
346.0195619030394
 20
317.54099177835508
 11
346.0195619030394
 21
318.52067358432726
  0
ARC
  8
_0-e_極細4
  6
CONTINUOUS
 62
    6
 10
252.40332474753808
 20
317.69216027835512
 40
4.5
 50
129.97050058004356
 51
181.92509931279466
  0
LINE
  8
_0-e_極細4
  6
CONTINUOUS
 62
    6
 10
247.90332474753808
 20
313.19216027835523
 11
247.90332474753808
 21
317.54099177835508
  0
ARC
  8
_0-e_極細4
  6
CONTINUOUS
 62
    6
 10
254.65332474753808
 20
313.75352927835536
 40
9
 50
24.886947317067449
 51
124.83370764384925
  0
LINE
  8
_0-e_極細4
  6
CONTINUOUS
 62
    6
 10
262.8175839185285
 20
317.54099177835508
 11
247.90332474753808
 21
317.54099177835508
  0
ARC
  8
_0-e_極細4
  6
CONTINUOUS
 62
    6
 10
254.65332474753808
 20
313.75352927835536
 40
9
 50
0
 51
24.886947317067449
  0
LINE
  8
_0-e_極細4
  6
CONTINUOUS
 62
    6
 10
262.31956190303993
 20
317.54099177835508
 11
262.31956190303993
 21
318.46827294854529
  0
LINE
  8
_0-e_極細4
  6
CONTINUOUS
 62
    6
 10
261.41956190303995
 20
317.54099177835508
 11
261.41956190303995
 21
319.68800775211366
  0
LINE
  8
_0-e_極細4
  6
CONTINUOUS
 62
    6
 10
260.51956190303986
 20
317.54099177835508
 11
260.51956190303986
 21
320.57901546143444
  0
LINE
  8
_0-e_極細4
  6
CONTINUOUS
 62
    6
 10
259.61956190304022
 20
317.54099177835508
 11
259.61956190304022
 21
321.25929296470395
  0
LINE
  8
_0-e_極細4
  6
CONTINUOUS
 62
    6
 10
258.71956190303985
 20
317.54099177835508
 11
258.71956190303985
 21
321.78258373048209
  0
LINE
  8
_0-e_極細4
  6
CONTINUOUS
 62
    6
 10
257.81956190303993
 20
317.54099177835508
 11
257.81956190303993
 21
322.17819201790257
  0
LINE
  8
_0-e_極細4
  6
CONTINUOUS
 62
    6
 10
256.91956190303995
 20
317.54099177835508
 11
256.91956190303995
 21
322.46353324821769
  0
LINE
  8
_0-e_極細4
  6
CONTINUOUS
 62
    6
 10
256.0195619030394
 20
317.54099177835508
 11
256.0195619030394
 21
322.64922464380754
  0
LINE
  8
_0-e_極細4
  6
CONTINUOUS
 62
    6
 10
255.11956190304022
 20
317.54099177835508
 11
255.11956190304022
 21
322.74144466040195
  0
LINE
  8
_0-e_極細4
  6
CONTINUOUS
 62
    6
 10
254.21956190303968
 20
317.54099177835508
 11
254.21956190303968
 21
322.74307041206896
  0
LINE
  8
_0-e_極細4
  6
CONTINUOUS
 62
    6
 10
253.3195619030399
 20
317.54099177835508
 11
253.3195619030399
 21
322.65415154169364
  0
LINE
  8
_0-e_極細4
  6
CONTINUOUS
 62
    6
 10
252.41956190303935
 20
317.54099177835508
 11
252.41956190303935
 21
322.47191809479034
  0
LINE
  8
_0-e_極細4
  6
CONTINUOUS
 62
    6
 10
251.5195619030394
 20
317.54099177835508
 11
251.5195619030394
 21
322.19032549697079
  0
LINE
  8
_0-e_極細4
  6
CONTINUOUS
 62
    6
 10
250.61956190303928
 20
317.54099177835508
 11
250.61956190303928
 21
321.79894768353131
  0
LINE
  8
_0-e_極細4
  6
CONTINUOUS
 62
    6
 10
249.71956190303968
 20
317.54099177835508
 11
249.71956190303968
 21
321.28067908384276
  0
LINE
  8
_0-e_極細4
  6
CONTINUOUS
 62
    6
 10
248.8195619030393
 20
317.54099177835508
 11
248.8195619030393
 21
320.41367527452792
  0
LINE
  8
_0-e_極細4
  6
CONTINUOUS
 62
    6
 10
247.91956190303935
 20
317.54099177835508
 11
247.91956190303935
 21
318.07409057866641
  0
LINE
  8
_0-e_極細4
  6
CONTINUOUS
 62
    6
 10
355.91956190303995
 20
314.99099177835535
 11
355.91956190303995
 21
317.54099177835508
  0
LINE
  8
_0-e_極細4
  6
CONTINUOUS
 62
    6
 10
355.01956190303986
 20
314.99099177835535
 11
355.01956190303986
 21
317.54099177835508
  0
LINE
  8
_0-e_極細4
  6
CONTINUOUS
 62
    6
 10
354.11956190303931
 20
314.99099177835535
 11
354.11956190303931
 21
317.54099177835508
  0
LINE
  8
_0-e_極細4
  6
CONTINUOUS
 62
    6
 10
353.21956190303985
 20
314.99099177835535
 11
353.21956190303985
 21
317.54099177835508
  0
LINE
  8
_0-e_極細4
  6
CONTINUOUS
 62
    6
 10
352.31956190303993
 20
314.99099177835535
 11
352.31956190303993
 21
317.54099177835508
  0
LINE
  8
_0-e_極細4
  6
CONTINUOUS
 62
    6
 10
351.41956190303995
 20
314.99099177835535
 11
351.41956190303995
 21
317.54099177835508
  0
LINE
  8
_0-e_極細4
  6
CONTINUOUS
 62
    6
 10
350.5195619030394
 20
314.99099177835535
 11
350.5195619030394
 21
317.54099177835508
  0
LINE
  8
_0-e_極細4
  6
CONTINUOUS
 62
    6
 10
349.61956190303931
 20
314.99099177835535
 11
349.61956190303931
 21
317.54099177835508
  0
LINE
  8
_0-e_極細4
  6
CONTINUOUS
 62
    6
 10
258.71956190303985
 20
314.99099177835535
 11
258.71956190303985
 21
317.54099177835508
  0
LINE
  8
_0-e_極細4
  6
CONTINUOUS
 62
    6
 10
257.81956190303993
 20
314.99099177835535
 11
257.81956190303993
 21
317.54099177835508
  0
LINE
  8
_0-e_極細4
  6
CONTINUOUS
 62
    6
 10
256.91956190303995
 20
314.99099177835535
 11
256.91956190303995
 21
317.54099177835508
  0
LINE
  8
_0-e_極細4
  6
CONTINUOUS
 62
    6
 10
256.01956190303986
 20
314.99099177835535
 11
256.01956190303986
 21
317.54099177835508
  0
LINE
  8
_0-e_極細4
  6
CONTINUOUS
 62
    6
 10
255.11956190304022
 20
314.99099177835535
 11
255.11956190304022
 21
317.54099177835508
  0
LINE
  8
_0-e_極細4
  6
CONTINUOUS
 62
    6
 10
254.21956190303985
 20
314.99099177835535
 11
254.21956190303985
 21
317.54099177835508
  0
LINE
  8
_0-e_極細4
  6
CONTINUOUS
 62
    6
 10
253.3195619030399
 20
314.99099177835535
 11
253.3195619030399
 21
317.54099177835508
  0
LINE
  8
_0-e_極細4
  6
CONTINUOUS
 62
    6
 10
252.41956190303995
 20
314.99099177835535
 11
252.41956190303995
 21
317.54099177835508
  0
LINE
  8
_0-e_極細4
  6
CONTINUOUS
 62
    6
 10
243.41956190303995
 20
317.69216027835512
 11
243.41956190303995
 21
323.54099177835508
  0
LINE
  8
_0-e_極細4
  6
CONTINUOUS
 62
    6
 10
242.51956190303983
 20
317.69216027835512
 11
242.51956190303983
 21
323.54099177835508
  0
LINE
  8
_0-e_極細4
  6
CONTINUOUS
 62
    6
 10
241.61956190303962
 20
317.69216027835512
 11
241.61956190303962
 21
323.54099177835508
  0
LINE
  8
_0-e_極細4
  6
CONTINUOUS
 62
    6
 10
240.71956190303985
 20
314.54099177835508
 11
240.71956190303985
 21
314.85148246676408
  0
LINE
  8
_0-e_極細4
  6
CONTINUOUS
 62
    6
 10
240.71956190303985
 20
317.69216027835512
 11
240.71956190303985
 21
323.54099177835508
  0
LINE
  8
_0-e_極細4
  6
CONTINUOUS
 62
    6
 10
239.8195619030399
 20
314.54099177835508
 11
239.8195619030399
 21
323.54099177835508
  0
LINE
  8
_0-e_極細4
  6
CONTINUOUS
 62
    6
 10
368.51956190303986
 20
314.54099177835508
 11
368.51956190303986
 21
323.54099177835508
  0
LINE
  8
_0-e_極細4
  6
CONTINUOUS
 62
    6
 10
367.61956190303931
 20
314.54099177835508
 11
367.61956190303931
 21
314.91856076710076
  0
LINE
  8
_0-e_極細4
  6
CONTINUOUS
 62
    6
 10
367.61956190303931
 20
317.69216027835512
 11
367.61956190303931
 21
323.54099177835508
  0
LINE
  8
_0-e_極細4
  6
CONTINUOUS
 62
    6
 10
366.71956190303985
 20
317.69216027835512
 11
366.71956190303985
 21
323.54099177835508
  0
LINE
  8
_0-e_極細4
  6
CONTINUOUS
 62
    6
 10
365.81956190303993
 20
317.69216027835512
 11
365.81956190303993
 21
323.54099177835508
  0
LINE
  8
_0-e_極細4
  6
CONTINUOUS
 62
    6
 10
364.91956190303995
 20
317.69216027835512
 11
364.91956190303995
 21
323.54099177835508
  0
LINE
  8
_0-e_極細4
  6
CONTINUOUS
 62
    6
 10
378.41956190303995
 20
319.0572289338578
 11
378.41956190303995
 21
342.57576193594764
  0
LINE
  8
_0-e_極細4
  6
CONTINUOUS
 62
    6
 10
377.51956190303986
 20
318.1572289338576
 11
377.51956190303986
 21
341.06091381352189
  0
LINE
  8
_0-e_極細4
  6
CONTINUOUS
 62
    6
 10
376.61956190303931
 20
317.54099177835508
 11
376.61956190303931
 21
339.55897337979695
  0
LINE
  8
_0-e_極細4
  6
CONTINUOUS
 62
    6
 10
375.71956190303985
 20
317.54099177835508
 11
375.71956190303985
 21
339.0902125120549
  0
LINE
  8
_0-e_極細4
  6
CONTINUOUS
 62
    6
 10
374.81956190303993
 20
317.54099177835508
 11
374.81956190303993
 21
338.99099177835535
  0
LINE
  8
_0-e_極細4
  6
CONTINUOUS
 62
    6
 10
373.91956190303995
 20
317.54099177835508
 11
373.91956190303995
 21
338.99099177835535
  0
LINE
  8
_0-e_極細4
  6
CONTINUOUS
 62
    6
 10
373.01956190303986
 20
317.54099177835508
 11
373.01956190303986
 21
338.97709493790501
  0
LINE
  8
_0-e_極細4
  6
CONTINUOUS
 62
    6
 10
372.11956190303931
 20
317.54099177835508
 11
372.11956190303931
 21
338.53459356391659
  0
LINE
  8
_0-e_極細4
  6
CONTINUOUS
 62
    6
 10
371.21956190303985
 20
317.54099177835508
 11
371.21956190303985
 21
320.54099177835508
  0
LINE
  8
_0-e_極細4
  6
CONTINUOUS
 62
    6
 10
370.3195619030393
 20
317.54099177835508
 11
370.3195619030393
 21
320.54099177835508
  0
LINE
  8
_0-e_極細4
  6
CONTINUOUS
 62
    6
 10
369.41956190303938
 20
317.54099177835508
 11
369.41956190303938
 21
320.54099177835508
  0
LINE
  8
_0-e_極細4
  6
CONTINUOUS
 62
    6
 10
238.91956190303995
 20
317.54099177835508
 11
238.91956190303995
 21
320.54099177835508
  0
LINE
  8
_0-e_極細4
  6
CONTINUOUS
 62
    6
 10
238.01956190303991
 20
317.54099177835508
 11
238.01956190303991
 21
320.54099177835508
  0
LINE
  8
_0-e_極細4
  6
CONTINUOUS
 62
    6
 10
237.11956190303962
 20
317.54099177835508
 11
237.11956190303962
 21
320.54099177835508
  0
LINE
  8
_0-e_極細4
  6
CONTINUOUS
 62
    6
 10
236.21956190303985
 20
317.54099177835508
 11
236.21956190303985
 21
338.50144226313159
  0
LINE
  8
_0-e_極細4
  6
CONTINUOUS
 62
    6
 10
235.3195619030399
 20
317.54099177835508
 11
235.3195619030399
 21
338.97240741526093
  0
LINE
  8
_0-e_極細4
  6
CONTINUOUS
 62
    6
 10
234.41956190303995
 20
317.54099177835508
 11
234.41956190303995
 21
338.99099177835535
  0
LINE
  8
_0-e_極細4
  6
CONTINUOUS
 62
    6
 10
233.51956190303957
 20
317.54099177835508
 11
233.51956190303957
 21
338.99099177835535
  0
LINE
  8
_0-e_極細4
  6
CONTINUOUS
 62
    6
 10
232.61956190303962
 20
317.54099177835508
 11
232.61956190303962
 21
339.08111082277162
  0
LINE
  8
_0-e_極細4
  6
CONTINUOUS
 62
    6
 10
231.71956190303985
 20
317.54099177835508
 11
231.71956190303985
 21
339.53312076767065
  0
LINE
  8
_0-e_極細4
  6
CONTINUOUS
 62
    6
 10
230.8195619030399
 20
318.12475462285317
 11
230.8195619030399
 21
340.91483071644666
  0
LINE
  8
_0-e_極細4
  6
CONTINUOUS
 62
    6
 10
229.91956190303935
 20
319.02475462285315
 11
229.91956190303935
 21
342.55911284715182
  0
LINE
  8
_0-e_極細4
  6
CONTINUOUS
 62
    6
 10
363.77832474753791
 20
327.34119236521065
 11
369.17832474753754
 21
327.34119236521065
  0
LINE
  8
_0-e_極細4
  6
CONTINUOUS
 62
    6
 10
363.06936033439246
 20
328.24119236521074
 11
369.17832474753754
 21
328.24119236521074
  0
LINE
  8
_0-e_極細4
  6
CONTINUOUS
 62
    6
 10
363.77832474753791
 20
329.14119236521049
 11
369.17832474753754
 21
329.14119236521049
  0
LINE
  8
_0-e_極細4
  6
CONTINUOUS
 62
    6
 10
363.77832474753791
 20
330.0411923652108
 11
369.17832474753754
 21
330.0411923652108
  0
LINE
  8
_0-e_極細4
  6
CONTINUOUS
 62
    6
 10
363.73728916068097
 20
330.94119236521067
 11
369.20021039386023
 21
330.94119236521067
  0
LINE
  8
_0-e_極細4
  6
CONTINUOUS
 62
    6
 10
363.219360334393
 20
331.84119236521065
 11
369.68021039386042
 21
331.84119236521065
  0
LINE
  8
_0-e_極細4
  6
CONTINUOUS
 62
    6
 10
363.77832474753791
 20
332.74119236521051
 11
370.16021039386101
 21
332.74119236521051
  0
LINE
  8
_0-e_極細4
  6
CONTINUOUS
 62
    6
 10
239.12832474753753
 20
327.34119236521065
 11
244.52832474753791
 21
327.34119236521065
  0
LINE
  8
_0-e_極細4
  6
CONTINUOUS
 62
    6
 10
239.12832474753753
 20
328.24119236521074
 11
245.23728916068217
 21
328.24119236521074
  0
LINE
  8
_0-e_極細4
  6
CONTINUOUS
 62
    6
 10
239.12832474753753
 20
329.14119236521049
 11
244.52832474753791
 21
329.14119236521049
  0
LINE
  8
_0-e_極細4
  6
CONTINUOUS
 62
    6
 10
239.12832474753753
 20
330.0411923652108
 11
244.52832474753791
 21
330.0411923652108
  0
LINE
  8
_0-e_極細4
  6
CONTINUOUS
 62
    6
 10
239.10643910121456
 20
330.94119236521067
 11
244.56936033439305
 21
330.94119236521067
  0
LINE
  8
_0-e_極細4
  6
CONTINUOUS
 62
    6
 10
238.62643910121483
 20
331.84119236521065
 11
245.08728916068205
 21
331.84119236521065
  0
LINE
  8
_0-e_極細4
  6
CONTINUOUS
 62
    6
 10
238.14643910121467
 20
332.74119236521051
 11
244.52832474753791
 21
332.74119236521051
  0
LINE
  8
_0-e_極細4
  6
CONTINUOUS
 62
    6
 10
380.0992367475373
 20
173.7611797783531
 11
433.73189274753713
 21
175.0836277783539
  0
LINE
  8
_0-e_極細4
  6
CONTINUOUS
 62
    6
 10
433.73189274753713
 20
175.0836277783539
 11
433.73189274753713
 21
255.8999557783537
  0
LINE
  8
_0-e_極細4
  6
CONTINUOUS
 62
    6
 10
379.903324747537
 20
257.22723448136082
 11
433.73189274753713
 21
255.8999557783537
  0
LINE
  8
_0-e_極細4
  6
CONTINUOUS
 62
    6
 10
379.903324747537
 20
257.22723448136082
 11
379.903324747537
 21
302.18520527835517
  0
LINE
  8
_0-e_極細4
  6
CONTINUOUS
 62
    6
 10
228.40332474753791
 20
185.7611797783531
 11
228.40332474753791
 21
302.18520527835517
  0
LINE
  8
_0-e_極細4
  6
CONTINUOUS
 62
    6
 10
240.40332474753791
 20
173.7611797783531
 11
380.0992367475373
 21
173.7611797783531
  0
ARC
  8
_0-e_極細4
  6
CONTINUOUS
 62
    6
 10
240.40332474753791
 20
185.7611797783531
 40
12
 50
179.99999999999983
 51
269.99999999999977
  0
LINE
  8
_0-e_極細4
  6
CONTINUOUS
 62
    6
 10
241.15332474753791
 20
176.69995577835488
 11
380.0992367475373
 21
176.69995577835488
  0
LINE
  8
_0-e_極細4
  6
CONTINUOUS
 62
    6
 10
232.15332474753791
 20
185.69995577835488
 11
232.15332474753791
 21
271.36272119834939
  0
ARC
  8
_0-e_極細4
  6
CONTINUOUS
 62
    6
 10
241.15332474753791
 20
185.69995577835488
 40
9
 50
179.99999999999983
 51
269.99999999999977
  0
LINE
  8
_0-e_極細4
  6
CENTER2
 62
    6
 10
304.15332474753791
 20
361.86471675678069
 11
304.15332474753791
 21
144.53367423578294
  0
LINE
  8
_0-e_極細4
  6
CONTINUOUS
 62
    6
 10
376.15332474753791
 20
271.36272119834939
 11
376.15332474753791
 21
311.98039577835505
  0
ARC
  8
_0-e_極細4
  6
CONTINUOUS
 62
    6
 10
374.65332474753791
 20
271.36272119834939
 40
1.5
 50
277.18075599996018
 51
359.99999999999966
  0
LINE
  8
_0-e_極細4
  6
CONTINUOUS
 62
    6
 10
301.54286376771483
 20
173.7611797783531
 11
304.15332474753791
 21
176.37164075817583
  0
LINE
  8
_0-e_極細4
  6
CONTINUOUS
 62
    6
 10
298.36088325237563
 20
173.7611797783531
 11
301.29965925237678
 21
176.69995577835479
  0
LINE
  8
_0-e_極細4
  6
CONTINUOUS
 62
    6
 10
295.17890273703563
 20
173.7611797783531
 11
298.11767873703741
 21
176.69995577835488
  0
LINE
  8
_0-e_極細4
  6
CONTINUOUS
 62
    6
 10
291.9969222216962
 20
173.7611797783531
 11
294.93569822169798
 21
176.69995577835488
  0
LINE
  8
_0-e_極細4
  6
CONTINUOUS
 62
    6
 10
288.81494170635665
 20
173.7611797783531
 11
291.75371770635843
 21
176.69995577835488
  0
LINE
  8
_0-e_極細4
  6
CONTINUOUS
 62
    6
 10
285.63296119101756
 20
173.76117977835301
 11
288.57173719101951
 21
176.69995577835488
  0
LINE
  8
_0-e_極細4
  6
CONTINUOUS
 62
    6
 10
282.45098067567773
 20
173.7611797783531
 11
285.38975667567951
 21
176.69995577835488
  0
LINE
  8
_0-e_極細4
  6
CONTINUOUS
 62
    6
 10
279.26900016033835
 20
173.7611797783531
 11
282.20777616034013
 21
176.69995577835488
  0
LINE
  8
_0-e_極細4
  6
CONTINUOUS
 62
    6
 10
276.08701964499892
 20
173.7611797783531
 11
279.0257956450007
 21
176.69995577835488
  0
LINE
  8
_0-e_極細4
  6
CONTINUOUS
 62
    6
 10
272.90503912965937
 20
173.7611797783531
 11
275.84381512966115
 21
176.69995577835488
  0
LINE
  8
_0-e_極細4
  6
CONTINUOUS
 62
    6
 10
269.72305861432028
 20
173.76117977835301
 11
272.66183461432223
 21
176.69995577835488
  0
LINE
  8
_0-e_極細4
  6
CONTINUOUS
 62
    6
 10
266.54107809898045
 20
173.7611797783531
 11
269.47985409898223
 21
176.69995577835488
  0
LINE
  8
_0-e_極細4
  6
CONTINUOUS
 62
    6
 10
263.35909758364107
 20
173.76117977835301
 11
266.29787358364285
 21
176.69995577835488
  0
LINE
  8
_0-e_極細4
  6
CONTINUOUS
 62
    6
 10
260.17711706830164
 20
173.76117977835301
 11
263.11589306830342
 21
176.69995577835488
  0
LINE
  8
_0-e_極細4
  6
CONTINUOUS
 62
    6
 10
256.99513655296209
 20
173.7611797783531
 11
259.93391255296387
 21
176.69995577835488
  0
LINE
  8
_0-e_極細4
  6
CONTINUOUS
 62
    6
 10
253.813156037623
 20
173.7611797783531
 11
256.75193203762495
 21
176.69995577835488
  0
LINE
  8
_0-e_極細4
  6
CONTINUOUS
 62
    6
 10
250.63117552228317
 20
173.76117977835301
 11
253.56995152228495
 21
176.69995577835488
  0
LINE
  8
_0-e_極細4
  6
CONTINUOUS
 62
    6
 10
247.44919500694377
 20
173.76117977835301
 11
250.38797100694555
 21
176.69995577835488
  0
LINE
  8
_0-e_極細4
  6
CONTINUOUS
 62
    6
 10
244.26721449160436
 20
173.76117977835301
 11
247.20599049160614
 21
176.69995577835488
  0
LINE
  8
_0-e_極細4
  6
CONTINUOUS
 62
    6
 10
241.08523397626487
 20
173.7611797783531
 11
244.02400997626657
 21
176.69995577835488
  0
LINE
  8
_0-e_極細4
  6
CONTINUOUS
 62
    6
 10
238.1220844698797
 20
173.9800107873069
 11
240.84723598527589
 21
176.70516230270351
  0
LINE
  8
_0-e_極細4
  6
CONTINUOUS
 62
    6
 10
235.6869650351166
 20
174.72687186788363
 11
238.16917892485566
 21
177.20908575762252
  0
LINE
  8
_0-e_極細4
  6
CONTINUOUS
 62
    6
 10
233.63215835201248
 20
175.85404570011892
 11
236.05878906980502
 21
178.28067641791137
  0
LINE
  8
_0-e_極細4
  6
CONTINUOUS
 62
    6
 10
231.89506814605929
 20
177.29893600950555
 11
234.37519562147622
 21
179.77906348492189
  0
LINE
  8
_0-e_極細4
  6
CONTINUOUS
 62
    6
 10
230.45896105064421
 20
179.04480942942945
 11
233.09871973519768
 21
181.68456811398318
  0
LINE
  8
_0-e_極細4
  6
CONTINUOUS
 62
    6
 10
229.34161720433514
 20
181.10944609845996
 11
232.30215567946377
 21
184.06998457358858
  0
LINE
  8
_0-e_極細4
  6
CONTINUOUS
 62
    6
 10
228.60744735896219
 20
183.55725676842633
 11
232.15332474753791
 21
187.10313415700222
  0
LINE
  8
_0-e_極細4
  6
CONTINUOUS
 62
    6
 10
228.40332474753791
 20
186.53511467234171
 11
232.15332474753791
 21
190.28511467234171
  0
LINE
  8
_0-e_極細4
  6
CONTINUOUS
 62
    6
 10
228.40332474753791
 20
189.71709518768111
 11
232.15332474753791
 21
193.46709518768111
  0
LINE
  8
_0-e_極細4
  6
CONTINUOUS
 62
    6
 10
228.40332474753791
 20
192.89907570302051
 11
232.15332474753791
 21
196.64907570302051
  0
LINE
  8
_0-e_極細4
  6
CONTINUOUS
 62
    6
 10
228.40332474753791
 20
196.08105621836017
 11
232.15332474753791
 21
199.83105621836
  0
LINE
  8
_0-e_極細4
  6
CONTINUOUS
 62
    6
 10
228.40332474753791
 20
199.26303673369949
 11
232.15332474753791
 21
203.01303673369949
  0
LINE
  8
_0-e_極細4
  6
CONTINUOUS
 62
    6
 10
228.40332474753791
 20
202.44501724903907
 11
232.15332474753791
 21
206.19501724903907
  0
LINE
  8
_0-e_極細4
  6
CONTINUOUS
 62
    6
 10
228.40332474753791
 20
205.62699776437847
 11
232.15332474753791
 21
209.37699776437839
  0
LINE
  8
_0-e_極細4
  6
CONTINUOUS
 62
    6
 10
228.40332474753791
 20
208.80897827971796
 11
232.15332474753791
 21
212.55897827971796
  0
LINE
  8
_0-e_極細4
  6
CONTINUOUS
 62
    6
 10
228.40332474753791
 20
211.99095879505745
 11
232.15332474753791
 21
215.74095879505728
  0
LINE
  8
_0-e_極細4
  6
CONTINUOUS
 62
    6
 10
228.40332474753791
 20
215.17293931039677
 11
232.15332474753791
 21
218.92293931039677
  0
LINE
  8
_0-e_極細4
  6
CONTINUOUS
 62
    6
 10
228.40332474753791
 20
218.35491982573635
 11
232.15332474753791
 21
222.10491982573635
  0
LINE
  8
_0-e_極細4
  6
CONTINUOUS
 62
    6
 10
228.40332474753791
 20
221.53690034107575
 11
232.15332474753791
 21
225.28690034107575
  0
LINE
  8
_0-e_極細4
  6
CONTINUOUS
 62
    6
 10
228.40332474753791
 20
224.71888085641524
 11
232.15332474753791
 21
228.46888085641524
  0
LINE
  8
_0-e_極細4
  6
CONTINUOUS
 62
    6
 10
228.40332474753791
 20
227.90086137175473
 11
232.15332474753791
 21
231.65086137175473
  0
LINE
  8
_0-e_極細4
  6
CONTINUOUS
 62
    6
 10
228.40332474753791
 20
231.08284188709405
 11
232.15332474753791
 21
234.83284188709405
  0
LINE
  8
_0-e_極細4
  6
CONTINUOUS
 62
    6
 10
228.40332474753791
 20
234.26482240243362
 11
232.15332474753791
 21
238.01482240243362
  0
LINE
  8
_0-e_極細4
  6
CONTINUOUS
 62
    6
 10
228.40332474753791
 20
237.44680291777303
 11
232.15332474753791
 21
241.19680291777311
  0
LINE
  8
_0-e_極細4
  6
CONTINUOUS
 62
    6
 10
228.40332474753791
 20
240.62878343311252
 11
232.15332474753791
 21
244.37878343311252
  0
LINE
  8
_0-e_極細4
  6
CONTINUOUS
 62
    6
 10
228.40332474753791
 20
243.81076394845218
 11
232.15332474753791
 21
247.56076394845195
  0
LINE
  8
_0-e_極細4
  6
CONTINUOUS
 62
    6
 10
228.40332474753791
 20
246.99274446379144
 11
232.15332474753791
 21
250.74274446379144
  0
LINE
  8
_0-e_極細4
  6
CONTINUOUS
 62
    6
 10
228.40332474753791
 20
250.1747249791309
 11
232.15332474753791
 21
253.9247249791309
  0
LINE
  8
_0-e_極細4
  6
CONTINUOUS
 62
    6
 10
228.40332474753791
 20
253.35670549447048
 11
232.15332474753791
 21
257.10670549447036
  0
LINE
  8
_0-e_極細4
  6
CONTINUOUS
 62
    6
 10
228.40332474753791
 20
256.53868600980991
 11
232.15332474753791
 21
260.28868600980979
  0
LINE
  8
_0-e_極細4
  6
CONTINUOUS
 62
    6
 10
228.40332474753791
 20
259.72066652514957
 11
232.15332474753791
 21
263.47066652514923
  0
LINE
  8
_0-e_極細4
  6
CONTINUOUS
 62
    6
 10
228.40332474753791
 20
262.90264704048889
 11
232.15332474753791
 21
266.65264704048877
  0
LINE
  8
_0-e_極細4
  6
CONTINUOUS
 62
    6
 10
228.40332474753791
 20
266.08462755582832
 11
232.15332474753791
 21
269.83462755582821
  0
LINE
  8
_0-e_極細4
  6
CONTINUOUS
 62
    6
 10
228.40332474753791
 20
269.26660807116775
 11
232.15332474753791
 21
273.01660807116764
  0
LINE
  8
_0-e_極細4
  6
CONTINUOUS
 62
    6
 10
228.40332474753791
 20
272.44858858650719
 11
232.15332474753791
 21
276.19858858650707
  0
LINE
  8
_0-e_極細4
  6
CONTINUOUS
 62
    6
 10
228.40332474753791
 20
275.63056910184685
 11
232.15332474753791
 21
279.38056910184685
  0
LINE
  8
_0-e_極細4
  6
CONTINUOUS
 62
    6
 10
228.40332474753791
 20
278.81254961718616
 11
232.15332474753791
 21
282.56254961718616
  0
LINE
  8
_0-e_極細4
  6
CONTINUOUS
 62
    6
 10
228.40332474753791
 20
281.9945301325256
 11
232.15332474753791
 21
285.74453013252548
  0
LINE
  8
_0-e_極細4
  6
CONTINUOUS
 62
    6
 10
228.40332474753791
 20
285.17651064786514
 11
232.15332474753791
 21
288.92651064786503
  0
LINE
  8
_0-e_極細4
  6
CONTINUOUS
 62
    6
 10
228.40332474753791
 20
288.35849116320469
 11
232.15332474753791
 21
292.10849116320435
  0
LINE
  8
_0-e_極細4
  6
CONTINUOUS
 62
    6
 10
228.40332474753791
 20
291.54047167854412
 11
232.15332474753791
 21
295.29047167854378
  0
LINE
  8
_0-e_極細4
  6
CONTINUOUS
 62
    6
 10
228.40332474753791
 20
294.72245219388356
 11
232.15332474753791
 21
298.47245219388344
  0
LINE
  8
_0-e_極細4
  6
CONTINUOUS
 62
    6
 10
228.40332474753791
 20
297.90443270922287
 11
232.15332474753791
 21
301.65443270922287
  0
LINE
  8
_0-e_極細4
  6
CONTINUOUS
 62
    6
 10
228.40332474753791
 20
301.08641322456242
 11
232.15332474753791
 21
304.83641322456231
  0
LINE
  8
_0-e_極細4
  6
CONTINUOUS
 62
    6
 10
228.17128512102371
 20
304.03635411338746
 11
232.15332474753791
 21
308.01839373990163
  0
LINE
  8
_0-e_極細4
  6
CONTINUOUS
 62
    6
 10
227.20498394304067
 20
306.25203345074408
 11
232.15332474753791
 21
311.2003742552414
  0
LINE
  8
_0-e_極細4
  6
CONTINUOUS
 62
    6
 10
225.71186387371546
 20
307.94089389675844
 11
229.75136575531218
 21
311.98039577835516
  0
LINE
  8
_0-e_極細4
  6
CONTINUOUS
 62
    6
 10
230.41886620629802
 20
312.64789622934097
 11
231.40332474753791
 21
313.63235477058072
  0
LINE
  8
_0-e_極細4
  6
CONTINUOUS
 62
    6
 10
224.65332474753791
 20
310.06433528592015
 11
231.40332474753791
 21
316.81433528592015
  0
LINE
  8
_0-e_極細4
  6
CONTINUOUS
 62
    6
 10
224.65332474753791
 20
313.2463158012597
 11
230.17566273608551
 21
318.76865378980733
  0
LINE
  8
_0-e_極細4
  6
CONTINUOUS
 62
    6
 10
224.65332474753791
 20
316.42829631659902
 11
229.18482474753768
 21
320.95979631659907
  0
LINE
  8
_0-e_極細4
  6
CONTINUOUS
 62
    6
 10
224.65332474753791
 20
319.61027683193868
 11
229.18482474753768
 21
324.14177683193839
  0
LINE
  8
_0-e_極細4
  6
CONTINUOUS
 62
    6
 10
222.541463178615
 20
320.68039577835521
 11
229.18482474753768
 21
327.32375734727793
  0
LINE
  8
_0-e_極細4
  6
CONTINUOUS
 62
    6
 10
219.35948266327551
 20
320.68039577835509
 11
229.18482474753768
 21
330.50573786261759
  0
LINE
  8
_0-e_極細4
  6
CONTINUOUS
 62
    6
 10
218.8033247475376
 20
323.30621837795672
 11
229.18482474753768
 21
333.68771837795703
  0
LINE
  8
_0-e_極細4
  6
CONTINUOUS
 62
    6
 10
218.8033247475376
 20
326.4881988932965
 11
229.18482474753768
 21
336.86969889329634
  0
LINE
  8
_0-e_極細4
  6
CONTINUOUS
 62
    6
 10
218.8033247475376
 20
329.67017940863582
 11
229.18482474753768
 21
340.05167940863578
  0
LINE
  8
_0-e_極細4
  6
CONTINUOUS
 62
    6
 10
218.8033247475376
 20
332.85215992397525
 11
226.71683599584284
 21
340.76567117228024
  0
LINE
  8
_0-e_極細4
  6
CONTINUOUS
 62
    6
 10
218.8033247475376
 20
336.0341404393148
 11
223.86455168724746
 21
341.09536737902465
  0
LINE
  8
_0-e_極細4
  6
CONTINUOUS
 62
    6
 10
218.8033247475376
 20
339.216120954654
 11
221.0122673786525
 21
341.42506358576861
  0
LINE
  8
_0-e_極細4
  6
CONTINUOUS
 62
    6
 10
380.02679274753768
 20
176.69906777835439
 11
433.73189274753713
 21
178.02330206734234
  0
LINE
  8
_0-e_極細4
  6
CONTINUOUS
 62
    6
 10
363.028324747537
 20
254.70366714636472
 11
433.73189274753713
 21
252.96029348998476
  0
LINE
  8
_0-e_極細4
  6
CONTINUOUS
 62
    6
 10
433.31626453797594
 20
175.07337941969564
 11
433.73189274753713
 21
175.48900762925729
  0
LINE
  8
_0-e_極細4
  6
CONTINUOUS
 62
    6
 10
430.05384076061455
 20
174.99293615767402
 11
433.06783259741587
 21
178.00692799447518
  0
LINE
  8
_0-e_極細4
  6
CONTINUOUS
 62
    6
 10
426.7914169832535
 20
174.91249289565241
 11
429.80540882005482
 21
177.92648473245356
  0
LINE
  8
_0-e_極細4
  6
CONTINUOUS
 62
    6
 10
423.52899320589188
 20
174.83204963363062
 11
426.5429850426932
 21
177.84604147043211
  0
LINE
  8
_0-e_極細4
  6
CONTINUOUS
 62
    6
 10
420.26656942853083
 20
174.751606371609
 11
423.28056126533352
 21
177.76559820841049
  0
LINE
  8
_0-e_極細4
  6
CONTINUOUS
 62
    6
 10
417.00414565117057
 20
174.67116310958738
 11
420.0181374879719
 21
177.68515494638913
  0
LINE
  8
_0-e_極細4
  6
CONTINUOUS
 62
    6
 10
413.74172187380913
 20
174.59071984756559
 11
416.75571371061108
 21
177.6047116843676
  0
LINE
  8
_0-e_極細4
  6
CONTINUOUS
 62
    6
 10
410.47929809644751
 20
174.51027658554389
 11
413.49328993324946
 21
177.52426842234598
  0
LINE
  8
_0-e_極細4
  6
CONTINUOUS
 62
    6
 10
407.21687431908651
 20
174.42983332352227
 11
410.23086615588841
 21
177.44382516032454
  0
LINE
  8
_0-e_極細4
  6
CONTINUOUS
 62
    6
 10
403.95445054172546
 20
174.34939006150066
 11
406.96844237852815
 21
177.36338189830309
  0
LINE
  8
_0-e_極細4
  6
CONTINUOUS
 62
    6
 10
400.69202676436385
 20
174.26894679947904
 11
403.7060186011667
 21
177.28293863628164
  0
LINE
  8
_0-e_極細4
  6
CONTINUOUS
 62
    6
 10
397.42960298700359
 20
174.18850353745734
 11
400.44359482380571
 21
177.20249537426011
  0
LINE
  8
_0-e_極細4
  6
CONTINUOUS
 62
    6
 10
394.16717920964214
 20
174.10806027543572
 11
397.18117104644466
 21
177.12205211223849
  0
LINE
  8
_0-e_極細4
  6
CONTINUOUS
 62
    6
 10
390.90475543228115
 20
174.02761701341393
 11
393.91874726908441
 21
177.04160885021696
  0
LINE
  8
_0-e_極細4
  6
CONTINUOUS
 62
    6
 10
387.64233165491953
 20
173.94717375139231
 11
390.65632349172296
 21
176.96116558819551
  0
LINE
  8
_0-e_極細4
  6
CONTINUOUS
 62
    6
 10
384.37990787755848
 20
173.86673048937052
 11
387.39389971436196
 21
176.88072232617407
  0
LINE
  8
_0-e_極細4
  6
CONTINUOUS
 62
    6
 10
381.11748410019732
 20
173.78628722734874
 11
384.13147593700137
 21
176.80027906415245
  0
LINE
  8
_0-e_極細4
  6
CONTINUOUS
 62
    6
 10
377.91039613586202
 20
173.76117977835301
 11
380.86905215963975
 21
176.71983580213083
  0
LINE
  8
_0-e_極細4
  6
CONTINUOUS
 62
    6
 10
374.72841562052258
 20
173.7611797783531
 11
377.66719162052436
 21
176.69995577835479
  0
LINE
  8
_0-e_極細4
  6
CONTINUOUS
 62
    6
 10
371.54643510518304
 20
173.7611797783531
 11
374.48521110518482
 21
176.69995577835479
  0
LINE
  8
_0-e_極細4
  6
CONTINUOUS
 62
    6
 10
368.36445458984394
 20
173.76117977835301
 11
371.30323058984573
 21
176.69995577835479
  0
LINE
  8
_0-e_極細4
  6
CONTINUOUS
 62
    6
 10
365.18247407450411
 20
173.7611797783531
 11
368.12125007450589
 21
176.69995577835479
  0
LINE
  8
_0-e_極細4
  6
CONTINUOUS
 62
    6
 10
362.00049355916474
 20
173.7611797783531
 11
364.93926955916652
 21
176.69995577835479
  0
LINE
  8
_0-e_極細4
  6
CONTINUOUS
 62
    6
 10
358.81851304382531
 20
173.7611797783531
 11
361.75728904382709
 21
176.69995577835488
  0
LINE
  8
_0-e_極細4
  6
CONTINUOUS
 62
    6
 10
355.63653252848576
 20
173.7611797783531
 11
358.57530852848754
 21
176.69995577835479
  0
LINE
  8
_0-e_極細4
  6
CONTINUOUS
 62
    6
 10
352.45455201314667
 20
173.7611797783531
 11
355.39332801314845
 21
176.69995577835479
  0
LINE
  8
_0-e_極細4
  6
CONTINUOUS
 62
    6
 10
349.27257149780684
 20
173.7611797783531
 11
352.21134749780862
 21
176.69995577835488
  0
LINE
  8
_0-e_極細4
  6
CONTINUOUS
 62
    6
 10
346.09059098246746
 20
173.7611797783531
 11
349.02936698246862
 21
176.69995577835479
  0
LINE
  8
_0-e_極細4
  6
CONTINUOUS
 62
    6
 10
342.90861046712803
 20
173.7611797783531
 11
345.84738646712924
 21
176.69995577835479
  0
LINE
  8
_0-e_極細4
  6
CONTINUOUS
 62
    6
 10
339.72662995178848
 20
173.76117977835301
 11
342.66540595179026
 21
176.69995577835488
  0
LINE
  8
_0-e_極細4
  6
CONTINUOUS
 62
    6
 10
336.54464943644939
 20
173.7611797783531
 11
339.48342543645117
 21
176.69995577835479
  0
LINE
  8
_0-e_極細4
  6
CONTINUOUS
 62
    6
 10
333.36266892110939
 20
173.76117977835301
 11
336.30144492111134
 21
176.69995577835479
  0
LINE
  8
_0-e_極細4
  6
CONTINUOUS
 62
    6
 10
330.18068840577018
 20
173.76117977835301
 11
333.11946440577196
 21
176.69995577835479
  0
LINE
  8
_0-e_極細4
  6
CONTINUOUS
 62
    6
 10
326.99870789043075
 20
173.7611797783531
 11
329.93748389043253
 21
176.69995577835479
  0
LINE
  8
_0-e_極細4
  6
CONTINUOUS
 62
    6
 10
323.8167273750912
 20
173.7611797783531
 11
326.75550337509299
 21
176.69995577835488
  0
LINE
  8
_0-e_極細4
  6
CONTINUOUS
 62
    6
 10
320.6347468597512
 20
173.76117977835301
 11
323.57352285975298
 21
176.69995577835479
  0
LINE
  8
_0-e_極細4
  6
CONTINUOUS
 62
    6
 10
317.45276634441211
 20
173.7611797783531
 11
320.39154234441406
 21
176.69995577835479
  0
LINE
  8
_0-e_極細4
  6
CONTINUOUS
 62
    6
 10
314.27078582907291
 20
173.7611797783531
 11
317.20956182907469
 21
176.69995577835488
  0
LINE
  8
_0-e_極細4
  6
CONTINUOUS
 62
    6
 10
311.08880531373291
 20
173.7611797783531
 11
314.02758131373469
 21
176.69995577835488
  0
LINE
  8
_0-e_極細4
  6
CONTINUOUS
 62
    6
 10
307.90682479839347
 20
173.7611797783531
 11
310.84560079839525
 21
176.69995577835479
  0
LINE
  8
_0-e_極細4
  6
CONTINUOUS
 62
    6
 10
304.72484428305393
 20
173.7611797783531
 11
307.66362028305571
 21
176.69995577835488
  0
LINE
  8
_0-e_極細4
  6
CONTINUOUS
 62
    6
 10
304.15332474753791
 20
176.37164075817583
 11
304.48163976771679
 21
176.69995577835488
  0
LINE
  8
_0-e_極細4
  6
CONTINUOUS
 62
    6
 10
431.70367647969215
 20
253.01030424489895
 11
433.73189274753713
 21
255.03852051274393
  0
LINE
  8
_0-e_極細4
  6
CONTINUOUS
 62
    6
 10
428.59826760255748
 20
253.08687588310372
 11
431.46718945244049
 21
255.95579773298672
  0
LINE
  8
_0-e_極細4
  6
CONTINUOUS
 62
    6
 10
425.49285872542282
 20
253.16344752130848
 11
428.36178060128259
 21
256.03236939716817
  0
LINE
  8
_0-e_極細4
  6
CONTINUOUS
 62
    6
 10
422.38744984828895
 20
253.24001915951325
 11
425.25637175012503
 21
256.1089410613497
  0
LINE
  8
_0-e_極細4
  6
CONTINUOUS
 62
    6
 10
419.28204097115389
 20
253.31659079771802
 11
422.15096289896769
 21
256.18551272553134
  0
LINE
  8
_0-e_極細4
  6
CONTINUOUS
 62
    6
 10
416.17663209401928
 20
253.39316243592293
 11
419.04555404780899
 21
256.26208438971298
  0
LINE
  8
_0-e_極細4
  6
CONTINUOUS
 62
    6
 10
413.07122321688405
 20
253.4697340741277
 11
415.94014519665109
 21
256.33865605389462
  0
LINE
  8
_0-e_極細4
  6
CONTINUOUS
 62
    6
 10
409.96581433974939
 20
253.54630571233247
 11
412.83473634549313
 21
256.41522771807615
  0
LINE
  8
_0-e_極細4
  6
CONTINUOUS
 62
    6
 10
406.86040546261552
 20
253.62287735053735
 11
409.72932749433562
 21
256.4917993822578
  0
LINE
  8
_0-e_極細4
  6
CONTINUOUS
 62
    6
 10
403.75499658548046
 20
253.69944898874212
 11
406.62391864317829
 21
256.56837104643932
  0
LINE
  8
_0-e_極細4
  6
CONTINUOUS
 62
    6
 10
400.64958770834585
 20
253.77602062694689
 11
403.51850979201959
 21
256.64494271062085
  0
LINE
  8
_0-e_極細4
  6
CONTINUOUS
 62
    6
 10
397.54417883121062
 20
253.85259226515174
 11
400.41310094086168
 21
256.7215143748025
  0
LINE
  8
_0-e_極細4
  6
CONTINUOUS
 62
    6
 10
394.43876995407732
 20
253.92916390335677
 11
397.30769208970372
 21
256.79808603898402
  0
LINE
  8
_0-e_極細4
  6
CONTINUOUS
 62
    6
 10
391.33336107694208
 20
254.00573554156153
 11
394.20228323854622
 21
256.87465770316567
  0
LINE
  8
_0-e_極細4
  6
CONTINUOUS
 62
    6
 10
388.22795219980702
 20
254.0823071797663
 11
391.09687438738888
 21
256.9512293673472
  0
LINE
  8
_0-e_極細4
  6
CONTINUOUS
 62
    6
 10
385.12254332267241
 20
254.15887881797107
 11
387.99146553623018
 21
257.02780103152872
  0
LINE
  8
_0-e_極細4
  6
CONTINUOUS
 62
    6
 10
382.01713444553775
 20
254.23545045617593
 11
384.88605668507228
 21
257.10437269571037
  0
LINE
  8
_0-e_極細4
  6
CONTINUOUS
 62
    6
 10
378.91172556840297
 20
254.31202209438061
 11
381.78064783391432
 21
257.1809443598919
  0
LINE
  8
_0-e_極細4
  6
CONTINUOUS
 62
    6
 10
375.80631669126865
 20
254.38859373258546
 11
379.903324747537
 21
258.4856017888543
  0
LINE
  8
_0-e_極細4
  6
CONTINUOUS
 62
    6
 10
372.70090781413359
 20
254.46516537079023
 11
379.903324747537
 21
261.66758230419373
  0
LINE
  8
_0-e_極細4
  6
CONTINUOUS
 62
    6
 10
369.59549893699898
 20
254.54173700899514
 11
379.903324747537
 21
264.84956281953328
  0
LINE
  8
_0-e_極細4
  6
CONTINUOUS
 62
    6
 10
366.49009005986477
 20
254.61830864719991
 11
379.903324747537
 21
268.03154333487271
  0
LINE
  8
_0-e_極細4
  6
CONTINUOUS
 62
    6
 10
363.38468118272954
 20
254.69488028540468
 11
379.903324747537
 21
271.21352385021214
  0
LINE
  8
_0-e_極細4
  6
CONTINUOUS
 62
    6
 10
363.028324747537
 20
257.52050436555157
 11
379.903324747537
 21
274.39550436555157
  0
LINE
  8
_0-e_極細4
  6
CONTINUOUS
 62
    6
 10
363.028324747537
 20
260.70248488089101
 11
372.20032595323732
 21
269.87448608659088
  0
LINE
  8
_0-e_極細4
  6
CONTINUOUS
 62
    6
 10
376.15332474753791
 20
273.82748488089135
 11
379.903324747537
 21
277.57748488089135
  0
LINE
  8
_0-e_極細4
  6
CONTINUOUS
 62
    6
 10
363.028324747537
 20
263.88446539623055
 11
369.01834543789732
 21
269.87448608659088
  0
LINE
  8
_0-e_極細4
  6
CONTINUOUS
 62
    6
 10
376.15332474753791
 20
277.00946539623078
 11
379.903324747537
 21
280.75946539623055
  0
LINE
  8
_0-e_極細4
  6
CONTINUOUS
 62
    6
 10
363.028324747537
 20
267.06644591156999
 11
365.83636492255823
 21
269.87448608659088
  0
LINE
  8
_0-e_極細4
  6
CONTINUOUS
 62
    6
 10
376.15332474753791
 20
280.19144591157021
 11
379.903324747537
 21
283.94144591156999
  0
LINE
  8
_0-e_極細4
  6
CONTINUOUS
 62
    6
 10
376.15332474753791
 20
283.37342642690999
 11
379.903324747537
 21
287.12342642690942
  0
LINE
  8
_0-e_極細4
  6
CONTINUOUS
 62
    6
 10
376.15332474753791
 20
286.55540694224919
 11
379.903324747537
 21
290.30540694224885
  0
LINE
  8
_0-e_極細4
  6
CONTINUOUS
 62
    6
 10
376.15332474753791
 20
289.73738745758862
 11
379.903324747537
 21
293.48738745758862
  0
LINE
  8
_0-e_極細4
  6
CONTINUOUS
 62
    6
 10
376.15332474753791
 20
292.91936797292817
 11
379.903324747537
 21
296.66936797292794
  0
LINE
  8
_0-e_極細4
  6
CONTINUOUS
 62
    6
 10
376.15332474753791
 20
296.10134848826749
 11
379.903324747537
 21
299.85134848826726
  0
LINE
  8
_0-e_極細4
  6
CONTINUOUS
 62
    6
 10
376.15332474753791
 20
299.28332900360726
 11
377.7992874988737
 21
300.92929175494305
  0
LINE
  8
_0-e_極細4
  6
CONTINUOUS
 62
    6
 10
377.7992874988737
 20
300.92929175494305
 11
379.95784001909738
 21
303.08784427516696
  0
LINE
  8
_0-e_極細4
  6
CONTINUOUS
 62
    6
 10
376.15332474753791
 20
302.46530951894658
 11
383.653324747537
 21
309.96530951894658
  0
LINE
  8
_0-e_極細4
  6
CONTINUOUS
 62
    6
 10
376.15332474753791
 20
305.64729003428602
 11
383.653324747537
 21
313.1472900342859
  0
LINE
  8
_0-e_極細4
  6
CONTINUOUS
 62
    6
 10
376.15332474753791
 20
308.82927054962556
 11
383.653324747537
 21
316.32927054962533
  0
LINE
  8
_0-e_極細4
  6
CONTINUOUS
 62
    6
 10
388.00444997626687
 20
320.68039577835521
 11
389.50332474753816
 21
322.17927054962558
  0
LINE
  8
_0-e_極細4
  6
CONTINUOUS
 62
    6
 10
377.17533660848744
 20
313.03326292591441
 11
383.653324747537
 21
319.51125106496477
  0
LINE
  8
_0-e_極細4
  6
CONTINUOUS
 62
    6
 10
384.82246946092778
 20
320.68039577835509
 11
389.50332474753816
 21
325.36125106496502
  0
LINE
  8
_0-e_極細4
  6
CONTINUOUS
 62
    6
 10
376.90332474753791
 20
315.94323158030454
 11
389.50332474753816
 21
328.54323158030468
  0
LINE
  8
_0-e_極細4
  6
CONTINUOUS
 62
    6
 10
379.12182474753774
 20
321.34371209564381
 11
389.50332474753816
 21
331.72521209564411
  0
LINE
  8
_0-e_極細4
  6
CONTINUOUS
 62
    6
 10
379.12182474753774
 20
324.52569261098358
 11
389.50332474753816
 21
334.90719261098343
  0
LINE
  8
_0-e_極細4
  6
CONTINUOUS
 62
    6
 10
379.12182474753774
 20
327.7076731263229
 11
389.50332474753816
 21
338.08917312632286
  0
LINE
  8
_0-e_極細4
  6
CONTINUOUS
 62
    6
 10
379.12182474753774
 20
330.88965364166222
 11
389.50332474753816
 21
341.27115364166229
  0
LINE
  8
_0-e_極細4
  6
CONTINUOUS
 62
    6
 10
379.12182474753774
 20
334.07163415700188
 11
386.36819612172224
 21
341.31800553118683
  0
LINE
  8
_0-e_極細4
  6
CONTINUOUS
 62
    6
 10
379.12182474753774
 20
337.25361467234109
 11
382.77033839477247
 21
340.9021283195757
  0
LINE
  8
_0-e_極細4
  6
CONTINUOUS
 62
    6
 10
379.12182474753774
 20
340.43559518768052
 11
379.1724806678219
 21
340.48625110796456
  0
TEXT
  8
_0-7_枠細線
 62
    5
 10
232.83991709637235
 20
88.8719810972716
 40
30
 41
0.8
 50
0
  1
排水部詳細図
  0
TEXT
  8
_0-7_枠細線
 62
    5
 10
399.07080928579228
 20
89.603051593355246
 40
24
 41
0.6
 50
0
  1
Ｓ＝１：４
  0
LINE
  8
_0-a_極細1
  6
CONTINUOUS
 62
    7
 10
389.23160407922023
 20
520.87868347016661
 11
403.63160263922134
 21
520.87868347016661
  0
LINE
  8
_0-a_極細1
  6
CONTINUOUS
 62
    7
 10
389.23160407922023
 20
521.67868339016673
 11
403.63160263922134
 21
521.67868339016673
  0
LINE
  8
_0-a_極細1
  6
CONTINUOUS
 62
    7
 10
389.10269715967479
 20
522.47868331016673
 11
403.63160263922134
 21
522.47868331016673
  0
LINE
  8
_0-a_極細1
  6
CONTINUOUS
 62
    7
 10
388.30269723967467
 20
523.27868323016685
 11
403.63160263922134
 21
523.27868323016685
  0
LINE
  8
_0-a_極細1
  6
CONTINUOUS
 62
    7
 10
387.50269731967506
 20
524.07868315016685
 11
403.63160263922134
 21
524.07868315016685
  0
LINE
  8
_0-a_極細1
  6
CONTINUOUS
 62
    7
 10
387.76051115876544
 20
524.87868307016697
 11
403.63160263922134
 21
524.87868307016697
  0
LINE
  8
_0-a_極細1
  6
CONTINUOUS
 62
    7
 10
388.56051107876556
 20
525.67868299016709
 11
403.63160263922134
 21
525.67868299016709
  0
LINE
  8
_0-a_極細1
  6
CONTINUOUS
 62
    7
 10
389.23160407922023
 20
526.47868291016675
 11
403.63160263922134
 21
526.47868291016675
  0
LINE
  8
_0-a_極細1
  6
CONTINUOUS
 62
    7
 10
389.23160407922023
 20
527.27868283016687
 11
403.63160263922134
 21
527.27868283016687
  0
LINE
  8
_0-a_極細1
  6
CONTINUOUS
 62
    7
 10
389.23160407922023
 20
528.07868275016699
 11
403.63160263922134
 21
528.07868275016699
  0
LINE
  8
_0-a_極細1
  6
CONTINUOUS
 62
    7
 10
389.23160407922023
 20
528.878682670167
 11
403.63160263922134
 21
528.878682670167
  0
LINE
  8
_0-a_極細1
  6
CONTINUOUS
 62
    7
 10
389.23160407922023
 20
529.67868259016711
 11
403.63160263922134
 21
529.67868259016711
  0
LINE
  8
_0-a_極細1
  6
CONTINUOUS
 62
    7
 10
389.23160407922023
 20
530.47868251016723
 11
403.63160263922134
 21
530.47868251016723
  0
LINE
  8
_0-a_極細1
  6
CONTINUOUS
 62
    7
 10
389.23160407922023
 20
531.27868243016701
 11
403.63160263922134
 21
531.27868243016701
  0
LINE
  8
_0-a_極細1
  6
CONTINUOUS
 62
    7
 10
388.70269719967473
 20
532.0786823501669
 11
403.91368630831261
 21
532.0786823501669
  0
LINE
  8
_0-a_極細1
  6
CONTINUOUS
 62
    7
 10
387.90269727967461
 20
532.87868227016702
 11
404.34035293231216
 21
532.87868227016702
  0
LINE
  8
_0-a_極細1
  6
CONTINUOUS
 62
    7
 10
387.36051119876652
 20
533.67868219016714
 11
404.76701955631222
 21
533.67868219016714
  0
LINE
  8
_0-a_極細1
  6
CONTINUOUS
 62
    7
 10
388.16051111876601
 20
534.47868211016726
 11
405.19368618031228
 21
534.47868211016726
  0
LINE
  8
_0-a_極細1
  6
CONTINUOUS
 62
    7
 10
388.96051103876613
 20
535.27868203016737
 11
405.62035280431235
 21
535.27868203016737
  0
LINE
  8
_0-a_極細1
  6
CONTINUOUS
 62
    7
 10
389.23160407922023
 20
536.07868195016727
 11
406.04701942831241
 21
536.07868195016727
  0
LINE
  8
_0-a_極細1
  6
CONTINUOUS
 62
    7
 10
389.23160407922023
 20
536.87868187016738
 11
406.4736860523119
 21
536.87868187016738
  0
LINE
  8
_0-a_極細1
  6
CONTINUOUS
 62
    7
 10
429.66386879267753
 20
501.35760724652221
 11
429.66386879267753
 21
563.09738266122258
  0
LINE
  8
_0-a_極細1
  6
CONTINUOUS
 62
    7
 10
428.86386887267741
 20
500.5576073265222
 11
428.86386887267741
 21
562.92433647106384
  0
LINE
  8
_0-a_極細1
  6
CONTINUOUS
 62
    7
 10
428.0638689526773
 20
499.75760740652208
 11
428.0638689526773
 21
562.57198344927247
  0
LINE
  8
_0-a_極細1
  6
CONTINUOUS
 62
    7
 10
427.26386903267718
 20
498.95760748652219
 11
427.26386903267718
 21
561.9788703947786
  0
LINE
  8
_0-a_極細1
  6
CONTINUOUS
 62
    7
 10
426.46386911267768
 20
498.15760756652242
 11
426.46386911267768
 21
560.94278739500669
  0
LINE
  8
_0-a_極細1
  6
CONTINUOUS
 62
    7
 10
425.66386919267757
 20
497.35760764652241
 11
425.66386919267757
 21
557.82459734667316
  0
LINE
  8
_0-a_極細1
  6
CONTINUOUS
 62
    7
 10
424.86386927267745
 20
496.55760772652218
 11
424.86386927267745
 21
556.16755626762949
  0
LINE
  8
_0-a_極細1
  6
CONTINUOUS
 62
    7
 10
424.06386935267733
 20
495.92533903306526
 11
424.06386935267733
 21
555.17678780988399
  0
LINE
  8
_0-a_極細1
  6
CONTINUOUS
 62
    7
 10
423.26386943267778
 20
495.92533903306526
 11
423.26386943267778
 21
554.47588560433883
  0
LINE
  8
_0-a_極細1
  6
CONTINUOUS
 62
    7
 10
422.46386951267709
 20
495.92533903306526
 11
422.46386951267709
 21
553.96175416405595
  0
LINE
  8
_0-a_極細1
  6
CONTINUOUS
 62
    7
 10
421.66386959267754
 20
495.92533903306526
 11
421.66386959267754
 21
553.58876702943098
  0
LINE
  8
_0-a_極細1
  6
CONTINUOUS
 62
    7
 10
420.86386967267742
 20
495.92533903306526
 11
420.86386967267742
 21
553.33292340742537
  0
LINE
  8
_0-a_極細1
  6
CONTINUOUS
 62
    7
 10
420.06386975267731
 20
495.92533903306526
 11
420.06386975267731
 21
553.18087895589974
  0
LINE
  8
_0-a_極細1
  6
CONTINUOUS
 62
    7
 10
419.26386983267719
 20
495.92533903306526
 11
419.26386983267719
 21
553.12566707771862
  0
LINE
  8
_0-a_極細1
  6
CONTINUOUS
 62
    7
 10
418.46386991267707
 20
495.92533903306526
 11
418.46386991267707
 21
553.12533331306554
  0
LINE
  8
_0-a_極細1
  6
CONTINUOUS
 62
    7
 10
417.66386999267695
 20
495.92533903306526
 11
417.66386999267695
 21
553.12533331306554
  0
LINE
  8
_0-a_極細1
  6
CONTINUOUS
 62
    7
 10
416.86387007267734
 20
495.92533903306526
 11
416.86387007267734
 21
553.12533331306554
  0
LINE
  8
_0-a_極細1
  6
CONTINUOUS
 62
    7
 10
416.06387015267774
 20
495.92533903306526
 11
416.06387015267774
 21
553.12533331306554
  0
LINE
  8
_0-a_極細1
  6
CONTINUOUS
 62
    7
 10
415.26387023267762
 20
495.92533903306526
 11
415.26387023267762
 21
553.12533331306554
  0
LINE
  8
_0-a_極細1
  6
CONTINUOUS
 62
    7
 10
414.4638703126775
 20
495.92533903306526
 11
414.4638703126775
 21
553.12533331306554
  0
LINE
  8
_0-a_極細1
  6
CONTINUOUS
 62
    7
 10
413.66387039267738
 20
495.92533903306526
 11
413.66387039267738
 21
553.05456917415086
  0
LINE
  8
_0-a_極細1
  6
CONTINUOUS
 62
    7
 10
412.86387047267726
 20
495.92533903306526
 11
412.86387047267726
 21
552.82177001668197
  0
LINE
  8
_0-a_極細1
  6
CONTINUOUS
 62
    7
 10
412.06387055267714
 20
495.92533903306526
 11
412.06387055267714
 21
552.39431720847301
  0
LINE
  8
_0-a_極細1
  6
CONTINUOUS
 62
    7
 10
411.26387063267703
 20
495.92533903306526
 11
411.26387063267703
 21
551.68313670808345
  0
LINE
  8
_0-a_極細1
  6
CONTINUOUS
 62
    7
 10
410.46387071267691
 20
495.92533903306526
 11
410.46387071267691
 21
550.30268931583487
  0
LINE
  8
_0-a_極細1
  6
CONTINUOUS
 62
    7
 10
409.66387079267679
 20
495.92533903306526
 11
409.66387079267679
 21
503.92533823306508
  0
LINE
  8
_0-a_極細1
  6
CONTINUOUS
 62
    7
 10
408.86387087267667
 20
495.92533903306526
 11
408.86387087267667
 21
503.92533823306508
  0
LINE
  8
_0-a_極細1
  6
CONTINUOUS
 62
    7
 10
408.06387095267655
 20
495.92533903306526
 11
408.06387095267655
 21
503.92533823306508
  0
LINE
  8
_0-a_極細1
  6
CONTINUOUS
 62
    7
 10
407.26387103267695
 20
495.92533903306526
 11
407.26387103267695
 21
503.92533823306508
  0
LINE
  8
_0-a_極細1
  6
CONTINUOUS
 62
    7
 10
406.46387111267683
 20
495.92533903306526
 11
406.46387111267683
 21
503.92533823306508
  0
LINE
  8
_0-a_極細1
  6
CONTINUOUS
 62
    7
 10
405.66387119267671
 20
495.92533903306526
 11
405.66387119267671
 21
503.92533823306508
  0
LINE
  8
_0-a_極細1
  6
CONTINUOUS
 62
    7
 10
404.86387127267659
 20
495.92533903306526
 11
404.86387127267659
 21
503.92533823306508
  0
LINE
  8
_0-a_極細1
  6
CONTINUOUS
 62
    7
 10
404.0638713526771
 20
495.92533903306526
 11
404.0638713526771
 21
503.92533823306508
  0
LINE
  8
_0-a_極細1
  6
CONTINUOUS
 62
    7
 10
403.26387143267635
 20
495.92533903306526
 11
403.26387143267635
 21
503.92533823306508
  0
LINE
  8
_0-a_極細1
  6
CONTINUOUS
 62
    7
 10
402.46387151267686
 20
495.92533903306526
 11
402.46387151267686
 21
503.92533823306508
  0
LINE
  8
_0-a_極細1
  6
CONTINUOUS
 62
    7
 10
401.66387159267782
 20
487.92533983306515
 11
401.66387159267782
 21
511.92533743306512
  0
LINE
  8
_0-a_極細1
  6
CONTINUOUS
 62
    7
 10
400.86387167267821
 20
487.92533983306515
 11
400.86387167267821
 21
511.92533743306512
  0
LINE
  8
_0-a_極細1
  6
CONTINUOUS
 62
    7
 10
400.0638717526781
 20
487.92533983306515
 11
400.0638717526781
 21
490.69886477178289
  0
LINE
  8
_0-a_極細1
  6
CONTINUOUS
 62
    7
 10
400.0638717526781
 20
496.3284549927539
 11
400.0638717526781
 21
511.92533743306512
  0
LINE
  8
_0-a_極細1
  6
CONTINUOUS
 62
    7
 10
399.26387183267798
 20
487.92533983306515
 11
399.26387183267798
 21
488.5143770998601
  0
LINE
  8
_0-a_極細1
  6
CONTINUOUS
 62
    7
 10
399.26387183267798
 20
496.3284549927539
 11
399.26387183267798
 21
511.92533743306512
  0
LINE
  8
_0-a_極細1
  6
CONTINUOUS
 62
    7
 10
398.46387191267786
 20
496.3284549927539
 11
398.46387191267786
 21
511.92533743306512
  0
LINE
  8
_0-a_極細1
  6
CONTINUOUS
 62
    7
 10
397.66387199267774
 20
496.3284549927539
 11
397.66387199267774
 21
511.92533743306512
  0
LINE
  8
_0-a_極細1
  6
CONTINUOUS
 62
    7
 10
396.86387207267762
 20
496.3284549927539
 11
396.86387207267762
 21
511.92533743306512
  0
LINE
  8
_0-a_極細1
  6
CONTINUOUS
 62
    7
 10
396.0638721526775
 20
496.3284549927539
 11
396.0638721526775
 21
511.92533743306512
  0
LINE
  8
_0-a_極細1
  6
CONTINUOUS
 62
    7
 10
395.26387223267739
 20
496.3284549927539
 11
395.26387223267739
 21
511.92533743306512
  0
LINE
  8
_0-a_極細1
  6
CONTINUOUS
 62
    7
 10
394.46387231267727
 20
496.3284549927539
 11
394.46387231267727
 21
511.92533743306512
  0
LINE
  8
_0-a_極細1
  6
CONTINUOUS
 62
    7
 10
393.66387239267715
 20
496.3284549927539
 11
393.66387239267715
 21
511.92533743306512
  0
LINE
  8
_0-a_極細1
  6
CONTINUOUS
 62
    7
 10
392.86387247267754
 20
496.3284549927539
 11
392.86387247267754
 21
511.92533743306512
  0
LINE
  8
_0-a_極細1
  6
CONTINUOUS
 62
    7
 10
392.06387255267742
 20
496.3284549927539
 11
392.06387255267742
 21
511.92533743306512
  0
LINE
  8
_0-a_極細1
  6
CONTINUOUS
 62
    7
 10
391.26387263267731
 20
496.3284549927539
 11
391.26387263267731
 21
511.92533743306512
  0
LINE
  8
_0-a_極細1
  6
CONTINUOUS
 62
    7
 10
380.23160497922061
 20
484.32845619275417
 11
380.23160497922061
 21
495.92533903306526
  0
ARC
  8
_0-a_極細1
  6
CONTINUOUS
 62
    7
 10
368.23160617922099
 20
496.3284549927539
 40
11.999998799999998
 50
358.07490068720404
 51
50.029499419963209
  0
LINE
  8
_0-a_極細1
  6
CONTINUOUS
 62
    7
 10
430.14759998762111
 20
557.6786797901666
 11
435.17919185369817
 21
557.6786797901666
  0
LINE
  8
_0-a_極細1
  6
CONTINUOUS
 62
    7
 10
430.14759998762111
 20
558.47867971016672
 11
442.10019116159845
 21
558.47867971016672
  0
LINE
  8
_0-a_極細1
  6
CONTINUOUS
 62
    7
 10
430.14759998762111
 20
559.27867963016672
 11
449.02119046949815
 21
559.27867963016672
  0
LINE
  8
_0-a_極細1
  6
CONTINUOUS
 62
    7
 10
430.14759998762111
 20
560.07867955016684
 11
455.94218977739843
 21
560.07867955016684
  0
LINE
  8
_0-a_極細1
  6
CONTINUOUS
 62
    7
 10
430.14759998762111
 20
560.87867947016684
 11
457.83159721922061
 21
560.87867947016684
  0
LINE
  8
_0-a_極細1
  6
CONTINUOUS
 62
    7
 10
430.14759998762111
 20
561.67867939016696
 11
457.83159721922061
 21
561.67867939016696
  0
LINE
  8
_0-a_極細1
  6
CONTINUOUS
 62
    7
 10
430.14759998762111
 20
562.47867931016708
 11
457.83159721922061
 21
562.47867931016708
  0
LINE
  8
_0-a_極細1
  6
CONTINUOUS
 62
    7
 10
431.42264870207509
 20
563.2786792301672
 11
457.83159721922061
 21
563.2786792301672
  0
LINE
  8
_0-a_極細1
  6
CONTINUOUS
 62
    7
 10
437.03944511147517
 20
564.07867915016686
 11
457.83159721922061
 21
564.07867915016686
  0
LINE
  8
_0-a_極細1
  6
CONTINUOUS
 62
    7
 10
442.65624152087508
 20
564.87867907016698
 11
457.83159721922061
 21
564.87867907016698
  0
LINE
  8
_0-a_極細1
  6
CONTINUOUS
 62
    7
 10
448.27303793027465
 20
565.6786789901671
 11
457.83159721922061
 21
565.6786789901671
  0
LINE
  8
_0-a_極細1
  6
CONTINUOUS
 62
    7
 10
453.88983433967456
 20
566.4786789101671
 11
457.83159721922061
 21
566.4786789101671
  0
LINE
  8
_0-a_極細1
  6
CONTINUOUS
 62
    7
 10
457.83159721922061
 20
567.09707591589085
 11
457.83159721922061
 21
569.86835969744368
  0
LINE
  8
_0-a_極細1
  6
CONTINUOUS
 62
    7
 10
430.14759998762111
 20
565.92533203306539
 11
457.83159721922061
 21
569.86835969744368
  0
LINE
  8
_0-a_極細1
  6
CONTINUOUS
 62
    7
 10
404.23160257922024
 20
538.32845079275398
 11
404.23160257922024
 21
541.92533443306525
  0
LINE
  8
_0-a_極細1
  6
CONTINUOUS
 62
    7
 10
404.23160257922024
 20
513.92845323275367
 11
404.23160257922024
 21
519.92845263275331
  0
LINE
  8
_0-a_極細1
  6
CONTINUOUS
 62
    7
 10
389.23160407922074
 20
531.5497754706214
 11
389.23160407922074
 21
526.34977599062131
  0
LINE
  8
_0-a_極細1
  6
CONTINUOUS
 62
    7
 10
389.23160407922074
 20
522.34977639062129
 11
389.23160407922074
 21
520.34977659062133
  0
LINE
  8
_0-a_極細1
  6
CONTINUOUS
 62
    7
 10
403.63160263922134
 20
531.5497754706214
 11
403.63160263922134
 21
520.34977659062133
  0
LINE
  8
_0-a_極細1
  6
CONTINUOUS
 62
    7
 10
387.23160427922045
 20
533.54977527062147
 11
389.23160407922074
 21
535.54977507062131
  0
LINE
  8
_0-a_極細1
  6
CONTINUOUS
 62
    7
 10
389.23160407922074
 20
531.5497754706214
 11
387.23160427922045
 21
533.54977527062147
  0
LINE
  8
_0-a_極細1
  6
CONTINUOUS
 62
    7
 10
389.23160407922074
 20
522.34977639062129
 11
387.23160427922045
 21
524.34977619062158
  0
LINE
  8
_0-a_極細1
  6
CONTINUOUS
 62
    7
 10
387.23160427922045
 20
524.34977619062158
 11
389.23160407922074
 21
526.34977599062131
  0
LINE
  8
_0-a_極細1
  6
CONTINUOUS
 62
    7
 10
403.63160263922134
 20
531.5497754706214
 11
406.83160231922062
 21
537.54977487062092
  0
LINE
  8
_0-a_極細1
  6
CONTINUOUS
 62
    7
 10
389.23160407922074
 20
537.54977487062092
 11
389.23160407922074
 21
535.54977507062131
  0
ARC
  8
_0-a_極細1
  6
CONTINUOUS
 62
    7
 10
414.03160159922118
 20
561.92533243306548
 40
1.9999998000000003
 50
24.054548999997504
 51
89.999999999999929
  0
ARC
  8
_0-a_極細1
  6
CONTINUOUS
 62
    7
 10
415.23160147922135
 20
556.72533295306539
 40
0.7999999199999545
 50
269.99999999999977
 51
359.99999999999966
  0
ARC
  8
_0-a_極細1
  6
CONTINUOUS
 62
    7
 10
414.03160159922118
 20
561.92533243306548
 40
1.9999998000000003
 50
0
 51
24.054548999997504
  0
LINE
  8
_0-a_極細1
  6
CONTINUOUS
 62
    7
 10
407.43160225922071
 20
543.92533423306531
 11
407.4316022592219
 21
555.92533303306573
  0
LINE
  8
_0-a_極細1
  6
CONTINUOUS
 62
    7
 10
407.4316022592219
 20
555.92533303306573
 11
415.23160147922135
 21
555.92533303306573
  0
LINE
  8
_0-a_極細1
  6
CONTINUOUS
 62
    7
 10
416.03160139922147
 20
556.72533295306539
 11
416.03160139922147
 21
561.92533243306548
  0
LINE
  8
_0-a_極細1
  6
CONTINUOUS
 62
    7
 10
402.23160277922057
 20
495.92533903306526
 11
424.23160057921996
 21
495.92533903306526
  0
LINE
  8
_0-a_極細1
  6
CONTINUOUS
 62
    7
 10
398.91086711129446
 20
487.92533983306515
 11
402.23160277922057
 21
487.92533983306515
  0
LINE
  8
_0-a_極細1
  6
CONTINUOUS
 62
    7
 10
402.23160277922057
 20
506.72533795306549
 11
407.43160225922071
 21
506.72533795306549
  0
LINE
  8
_0-a_極細1
  6
CONTINUOUS
 62
    7
 10
402.23160277922057
 20
503.92533823306508
 11
410.23160197922061
 21
503.92533823306508
  0
LINE
  8
_0-a_極細1
  6
CONTINUOUS
 62
    7
 10
402.23160277922057
 20
487.92533983306515
 11
402.23160277922057
 21
511.92533743306512
  0
LINE
  8
_0-a_極細1
  6
CONTINUOUS
 62
    7
 10
430.14759998762111
 20
501.84133844146527
 11
424.23160057921996
 21
495.92533903306526
  0
LINE
  8
_0-a_極細1
  6
CONTINUOUS
 62
    7
 10
410.23160197922061
 20
503.92533823306508
 11
410.23160197922113
 21
548.92533373306514
  0
ARC
  8
_0-a_極細1
  6
CONTINUOUS
 62
    7
 10
414.43160155922124
 20
548.92533373306514
 40
4.1999995800000463
 50
89.999999999999915
 51
179.99999999999983
  0
LINE
  8
_0-a_極細1
  6
CONTINUOUS
 62
    7
 10
419.19649708273209
 20
553.12533331306554
 11
414.43160155922124
 21
553.12533331306554
  0
ARC
  8
_0-a_極細1
  6
CONTINUOUS
 62
    7
 10
419.19649708273209
 20
559.92533263306518
 40
6.7999993199999533
 50
269.99999999999977
 51
356.64911199999875
  0
ARC
  8
_0-a_極細1
  6
CONTINUOUS
 62
    7
 10
419.19649708273209
 20
559.92533263306518
 40
3.9999996000000007
 50
269.99999999999977
 51
356.64911200000222
  0
ARC
  8
_0-a_極細1
  6
CONTINUOUS
 62
    7
 10
430.14759998762111
 20
558.92533273306526
 40
6.9999993000000007
 50
89.999999999999915
 51
175.84900999999789
  0
ARC
  8
_0-a_極細1
  6
CONTINUOUS
 62
    7
 10
414.43160155922124
 20
548.92533373306514
 40
6.9999993000000007
 50
89.999999999999915
 51
179.99999999999983
  0
LINE
  8
_0-a_極細1
  6
CONTINUOUS
 62
    7
 10
416.2316013792215
 20
555.92533303306573
 11
416.2316013792215
 21
565.92533203306539
  0
LINE
  8
_0-a_極細1
  6
CONTINUOUS
 62
    7
 10
407.43160225922071
 20
506.72533795306549
 11
407.43160225922071
 21
548.92533373306514
  0
LINE
  8
_0-a_極細1
  6
CONTINUOUS
 62
    7
 10
419.19649708273209
 20
555.92533303306573
 11
414.43160155922124
 21
555.92533303306573
  0
LINE
  8
_0-a_極細1
  6
CONTINUOUS
 62
    7
 10
391.23160387922104
 20
511.92533743306512
 11
407.43160225922071
 21
511.92533743306512
  0
LINE
  8
_0-a_極細1
  6
CONTINUOUS
 62
    7
 10
457.83159721922061
 20
560.29707659589099
 11
430.14759998762111
 21
557.09707691589108
  0
LINE
  8
_0-a_極細1
  6
CONTINUOUS
 62
    7
 10
430.14759998761951
 20
481.09708451589091
 11
424.23160057921996
 21
484.29708419589087
  0
LINE
  8
_0-a_極細1
  6
CONTINUOUS
 62
    7
 10
424.23160057921996
 20
484.29708419589087
 11
424.23160057921996
 21
495.92533903306526
  0
LINE
  8
_0-a_極細1
  6
CONTINUOUS
 62
    7
 10
457.83159721922061
 20
506.51804597379487
 11
457.83159721922061
 21
569.81138764445996
  0
LINE
  8
_0-a_極細1
  6
CONTINUOUS
 62
    7
 10
442.23159877922041
 20
504.29708219589088
 11
457.83159721922061
 21
504.29708219589088
  0
LINE
  8
_0-a_極細1
  6
CONTINUOUS
 62
    7
 10
457.83159721922061
 20
504.29708219589088
 11
457.83159721922061
 21
506.51804597379487
  0
LINE
  8
_0-a_極細1
  6
CONTINUOUS
 62
    7
 10
442.23159877922041
 20
472.2970853958908
 11
442.23159877922041
 21
504.29708219589088
  0
LINE
  8
_0-a_極細1
  6
CONTINUOUS
 62
    7
 10
430.14759998762111
 20
563.09707413088779
 11
457.83159721922061
 21
567.04010392158807
  0
LINE
  8
_0-a_極細1
  6
CONTINUOUS
 62
    7
 10
430.14759998762111
 20
501.84133844146527
 11
430.14759998762111
 21
563.12533231306566
  0
ARC
  8
_0-a_極細1
  6
CONTINUOUS
 62
    7
 10
430.14759998762111
 20
558.92533273306526
 40
4.1999995800000463
 50
89.999999999999915
 51
175.84900999999908
  0
LINE
  8
_0-a_極細1
  6
CONTINUOUS
 62
    7
 10
392.23160377922068
 20
484.32845619275417
 11
380.23160497922061
 21
484.32845619275417
  0
ARC
  8
_0-a_極細1
  6
CONTINUOUS
 62
    7
 10
392.23160377922068
 20
492.32845539275399
 40
7.9999992000000013
 50
269.99999999999977
 51
359.99999999999966
  0
LINE
  8
_0-a_極細1
  6
CONTINUOUS
 62
    7
 10
400.23160297922084
 20
492.32845539275399
 11
400.23160297922084
 21
496.3284549927539
  0
LINE
  8
_0-a_極細1
  6
CONTINUOUS
 62
    7
 10
400.23160297922084
 20
496.3284549927539
 11
391.23160387922104
 21
496.3284549927539
  0
LINE
  8
_0-a_極細1
  6
CONTINUOUS
 62
    7
 10
404.23160257922024
 20
513.92845323275367
 11
391.23160387922104
 21
513.92845323275367
  0
LINE
  8
_0-a_極細1
  6
CONTINUOUS
 62
    7
 10
391.23160387922104
 20
496.3284549927539
 11
391.23160387922104
 21
513.92845323275378
  0
LINE
  8
_0-a_極細1
  6
CONTINUOUS
 62
    7
 10
403.03160269922125
 20
541.92533443306525
 11
403.03160269922125
 21
545.92533403306516
  0
ARC
  8
_0-a_極細1
  6
CONTINUOUS
 62
    7
 10
405.43160245922041
 20
543.92533423306531
 40
1.9999998000000003
 50
269.99999999999977
 51
359.99999999999966
  0
CIRCLE
  8
_0-a_極細1
  6
CONTINUOUS
 62
    7
 10
408.33232159360909
 20
531.58989507383012
 40
74.460807766258981
  0
ARC
  8
_0-a_極細1
  6
CONTINUOUS
 62
    7
 10
452.23159777922035
 20
454.97657912794205
 40
19.999998000000001
 50
120.00000000000027
 51
161.13978923390175
  0
LINE
  8
_0-a_極細1
  6
CONTINUOUS
 62
    7
 10
422.23160077922017
 20
458.43784840851663
 11
422.23160077922017
 21
481.09708451589091
  0
LINE
  8
_0-a_極細1
  6
CONTINUOUS
 62
    7
 10
440.64852570325172
 20
471.28094545365047
 11
442.23159877922041
 21
472.86401852961984
  0
LINE
  8
_0-a_極細1
  6
CONTINUOUS
 62
    7
 10
422.23160077922017
 20
458.52087421342674
 11
442.23159877922041
 21
478.52087221342663
  0
LINE
  8
_0-a_極細1
  6
CONTINUOUS
 62
    7
 10
422.23160077922017
 20
461.34930105533022
 11
442.23159877922041
 21
481.34929905533022
  0
LINE
  8
_0-a_極細1
  6
CONTINUOUS
 62
    7
 10
422.23160077922017
 20
464.17772789723381
 11
442.23159877922041
 21
484.17772589723376
  0
LINE
  8
_0-a_極細1
  6
CONTINUOUS
 62
    7
 10
422.23160077922017
 20
467.00615473913734
 11
442.23159877922041
 21
487.00615273913718
  0
LINE
  8
_0-a_極細1
  6
CONTINUOUS
 62
    7
 10
422.23160077922017
 20
469.83458158104077
 11
442.23159877922041
 21
489.83457958104054
  0
LINE
  8
_0-a_極細1
  6
CONTINUOUS
 62
    7
 10
456.69410139407046
 20
504.29708219589088
 11
457.83159721922061
 21
505.43457802104064
  0
LINE
  8
_0-a_極細1
  6
CONTINUOUS
 62
    7
 10
422.23160077922017
 20
472.6630084229439
 11
442.23159877922041
 21
492.66300642294414
  0
LINE
  8
_0-a_極細1
  6
CONTINUOUS
 62
    7
 10
453.86567455216715
 20
504.29708219589088
 11
457.83159721922118
 21
508.2630048629444
  0
LINE
  8
_0-a_極細1
  6
CONTINUOUS
 62
    7
 10
422.23160077922017
 20
475.49143526484761
 11
427.83725003026382
 21
481.09708451589091
  0
LINE
  8
_0-a_極細1
  6
CONTINUOUS
 62
    7
 10
428.64825484197314
 20
481.90808932760001
 11
442.23159877922041
 21
495.49143326484784
  0
LINE
  8
_0-a_極細1
  6
CONTINUOUS
 62
    7
 10
451.03724771026396
 20
504.29708219589111
 11
457.83159721922061
 21
511.09143170484776
  0
LINE
  8
_0-a_極細1
  6
CONTINUOUS
 62
    7
 10
422.23160077922017
 20
478.31986210675086
 11
425.00882318836102
 21
481.09708451589142
  0
LINE
  8
_0-a_極細1
  6
CONTINUOUS
 62
    7
 10
426.81269393843002
 20
482.90095526596019
 11
442.23159877922041
 21
498.31986010675109
  0
LINE
  8
_0-a_極細1
  6
CONTINUOUS
 62
    7
 10
448.2088208683607
 20
504.29708219589088
 11
457.83159721922061
 21
513.91985854675136
  0
LINE
  8
_0-a_極細1
  6
CONTINUOUS
 62
    7
 10
424.97713303488672
 20
483.89382120432037
 11
442.23159877922041
 21
501.1482869486548
  0
LINE
  8
_0-a_極細1
  6
CONTINUOUS
 62
    7
 10
445.38039402645688
 20
504.29708219589088
 11
457.83159721922061
 21
516.74828538865449
  0
LINE
  8
_0-a_極細1
  6
CONTINUOUS
 62
    7
 10
424.23160057922047
 20
485.976715590558
 11
442.23159877922041
 21
503.97671379055811
  0
LINE
  8
_0-a_極細1
  6
CONTINUOUS
 62
    7
 10
442.55196718455358
 20
504.29708219589088
 11
457.83159721922061
 21
519.5767122305582
  0
LINE
  8
_0-a_極細1
  6
CONTINUOUS
 62
    7
 10
424.23160057922047
 20
488.80514243246131
 11
457.83159721922061
 21
522.40513907246168
  0
LINE
  8
_0-a_極細1
  6
CONTINUOUS
 62
    7
 10
424.23160057922047
 20
491.63356927436462
 11
457.83159721922118
 21
525.23356591436527
  0
LINE
  8
_0-a_極細1
  6
CONTINUOUS
 62
    7
 10
424.23160057922047
 20
494.46199611626821
 11
457.83159721922118
 21
528.06199275626886
  0
LINE
  8
_0-a_極細1
  6
CONTINUOUS
 62
    7
 10
430.14759998762111
 20
503.2064223665725
 11
457.83159721922061
 21
530.89041959817223
  0
LINE
  8
_0-a_極細1
  6
CONTINUOUS
 62
    7
 10
430.14759998762111
 20
506.03484920847569
 11
457.83159721922061
 21
533.71884644007537
  0
LINE
  8
_0-a_極細1
  6
CONTINUOUS
 62
    7
 10
430.14759998762111
 20
508.86327605037934
 11
457.83159721922061
 21
536.54727328197907
  0
LINE
  8
_0-a_極細1
  6
CONTINUOUS
 62
    7
 10
430.14759998762111
 20
511.69170289228299
 11
457.83159721922061
 21
539.37570012388232
  0
LINE
  8
_0-a_極細1
  6
CONTINUOUS
 62
    7
 10
430.14759998762111
 20
514.52012973418641
 11
457.83159721922118
 21
542.20412696578603
  0
LINE
  8
_0-a_極細1
  6
CONTINUOUS
 62
    7
 10
430.14759998762111
 20
517.34855657608978
 11
457.83159721922118
 21
545.03255380768951
  0
LINE
  8
_0-a_極細1
  6
CONTINUOUS
 62
    7
 10
430.14759998762111
 20
520.17698341799337
 11
457.83159721922118
 21
547.8609806495931
  0
LINE
  8
_0-a_極細1
  6
CONTINUOUS
 62
    7
 10
430.14759998762111
 20
523.00541025989696
 11
457.83159721922061
 21
550.6894074914967
  0
LINE
  8
_0-a_極細1
  6
CONTINUOUS
 62
    7
 10
430.14759998762111
 20
525.83383710180033
 11
457.83159721922061
 21
553.51783433339995
  0
LINE
  8
_0-a_極細1
  6
CONTINUOUS
 62
    7
 10
430.14759998762111
 20
528.66226394370369
 11
457.83159721922061
 21
556.34626117530343
  0
LINE
  8
_0-a_極細1
  6
CONTINUOUS
 62
    7
 10
430.14759998762111
 20
531.49069078560717
 11
457.83159721922118
 21
559.1746880172069
  0
LINE
  8
_0-a_極細1
  6
CONTINUOUS
 62
    7
 10
430.14759998762111
 20
534.31911762751042
 11
455.90258385216617
 21
560.07410149205589
  0
LINE
  8
_0-a_極細1
  6
CONTINUOUS
 62
    7
 10
430.14759998762111
 20
537.14754446941413
 11
452.70448841468715
 21
559.70443289647949
  0
LINE
  8
_0-a_極細1
  6
CONTINUOUS
 62
    7
 10
430.14759998762111
 20
539.97597131131738
 11
449.50639297720642
 21
559.33476430090332
  0
LINE
  8
_0-a_極細1
  6
CONTINUOUS
 62
    7
 10
430.14759998762111
 20
542.80439815322109
 11
446.30829753972739
 21
558.9650957053268
  0
LINE
  8
_0-a_極細1
  6
CONTINUOUS
 62
    7
 10
430.14759998762111
 20
545.63282499512479
 11
443.11020210224666
 21
558.59542710975029
  0
LINE
  8
_0-a_極細1
  6
CONTINUOUS
 62
    7
 10
430.14759998762111
 20
548.4612518370277
 11
439.91210666476712
 21
558.225758514174
  0
LINE
  8
_0-a_極細1
  6
CONTINUOUS
 62
    7
 10
430.14759998762111
 20
551.2896786789313
 11
436.71401122728753
 21
557.85608991859772
  0
LINE
  8
_0-a_極細1
  6
CONTINUOUS
 62
    7
 10
430.14759998762111
 20
554.118105520835
 11
433.51591578980788
 21
557.4864213230212
  0
LINE
  8
_0-a_極細1
  6
CONTINUOUS
 62
    7
 10
430.14759998762111
 20
556.94653236273825
 11
430.31782035232777
 21
557.11675272744503
  0
LINE
  8
_0-a_極細1
  6
CONTINUOUS
 62
    7
 10
425.72899587751806
 20
459.1898424698208
 11
442.23159877922041
 21
475.69244537152326
  0
LINE
  8
_0-a_極細1
  6
CONTINUOUS
 62
    7
 10
429.59791918489088
 20
460.23033893529032
 11
435.92723145351192
 21
466.55965120391079
  0
LINE
  8
_0-a_極細1
  6
CONTINUOUS
 62
    7
 10
353.60675192856252
 20
481.09708451589091
 11
430.14759998761951
 21
481.09708451589091
  0
LINE
  8
_0-a_極細1
  6
CONTINUOUS
 62
    7
 10
350.81882811192878
 20
484.29708419589087
 11
424.23160057921996
 21
484.29708419589087
  0
LINE
  8
_0-a_極細1
  6
CONTINUOUS
 62
    7
 10
342.96833046991054
 20
495.92533903306526
 11
380.23160497922061
 21
495.92533903306526
  0
LINE
  8
_0-a_極細1
  6
CONTINUOUS
 62
    7
 10
344.46393317443432
 20
569.86835969744368
 11
457.83159721922061
 21
569.86835969744368
  0
LINE
  8
_0-a_極細1
  6
CONTINUOUS
 62
    7
 10
342.26046932638292
 20
565.92533203306584
 11
430.14759998762111
 21
565.92533203306539
  0
LINE
  8
_0-a_極細1
  6
CONTINUOUS
 62
    7
 10
341.25899308722751
 20
563.92533223306555
 11
414.03160159922118
 21
563.92533223306509
  0
LINE
  8
_0-a_極細1
  6
CONTINUOUS
 62
    7
 10
335.26449636902856
 20
545.92533403306561
 11
403.03160269922125
 21
545.92533403306516
  0
LINE
  8
_0-a_極細1
  6
CONTINUOUS
 62
    7
 10
334.59230134371097
 20
541.92533443306525
 11
405.43160245922041
 21
541.92533443306525
  0
LINE
  8
_0-a_極細1
  6
CONTINUOUS
 62
    7
 10
404.23160257922024
 20
538.32845079275398
 11
334.17705367536382
 21
538.32845079275398
  0
LINE
  8
_0-a_極細1
  6
CONTINUOUS
 62
    7
 10
334.11041292769278
 20
537.54977487062149
 11
406.83160231922062
 21
537.54977487062092
  0
LINE
  8
_0-a_極細1
  6
CONTINUOUS
 62
    7
 10
333.89731126367082
 20
533.54977527062158
 11
387.23160427922045
 21
533.54977527062147
  0
LINE
  8
_0-a_極細1
  6
CONTINUOUS
 62
    7
 10
334.22434245667137
 20
524.34977619062158
 11
387.23160427922045
 21
524.34977619062158
  0
LINE
  8
_0-a_極細1
  6
CONTINUOUS
 62
    7
 10
334.72477014888813
 20
520.34977659062133
 11
403.63160263922134
 21
520.34977659062133
  0
LINE
  8
_0-a_極細1
  6
CONTINUOUS
 62
    7
 10
404.23160257922024
 20
519.92845263275331
 11
334.7903427420901
 21
519.92845263275331
  0
LINE
  8
_0-a_極細1
  6
CONTINUOUS
 62
    7
 10
391.23160387922104
 20
513.92845323275378
 11
335.99640129602761
 21
513.92845323275378
  0
LINE
  8
_0-a_極細1
  6
CONTINUOUS
 62
    7
 10
368.86387487267791
 20
489.12533971306561
 11
368.86387487267791
 21
495.92533903306526
  0
LINE
  8
_0-a_極細1
  6
CONTINUOUS
 62
    7
 10
368.06387495267779
 20
489.12533971306561
 11
368.06387495267779
 21
495.92533903306526
  0
LINE
  8
_0-a_極細1
  6
CONTINUOUS
 62
    7
 10
367.26387503267767
 20
489.12533971306561
 11
367.26387503267767
 21
495.92533903306526
  0
LINE
  8
_0-a_極細1
  6
CONTINUOUS
 62
    7
 10
366.46387511267756
 20
489.12533971306561
 11
366.46387511267756
 21
495.92533903306526
  0
LINE
  8
_0-a_極細1
  6
CONTINUOUS
 62
    7
 10
365.66387519267744
 20
489.12533971306561
 11
365.66387519267744
 21
495.92533903306526
  0
LINE
  8
_0-a_極細1
  6
CONTINUOUS
 62
    7
 10
364.86387527267732
 20
489.12533971306561
 11
364.86387527267732
 21
495.92533903306526
  0
LINE
  8
_0-a_極細1
  6
CONTINUOUS
 62
    7
 10
364.06387535267771
 20
489.12533971306561
 11
364.06387535267771
 21
495.92533903306526
  0
LINE
  8
_0-a_極細1
  6
CONTINUOUS
 62
    7
 10
363.26387543267759
 20
489.12533971306561
 11
363.26387543267759
 21
495.92533903306526
  0
LINE
  8
_0-a_極細1
  6
CONTINUOUS
 62
    7
 10
362.46387551267748
 20
489.12533971306561
 11
362.46387551267748
 21
495.92533903306526
  0
LINE
  8
_0-a_極細1
  6
CONTINUOUS
 62
    7
 10
361.66387559267736
 20
489.12533971306561
 11
361.66387559267736
 21
495.92533903306526
  0
LINE
  8
_0-a_極細1
  6
CONTINUOUS
 62
    7
 10
360.86387567267775
 20
489.12533971306561
 11
360.86387567267775
 21
495.92533903306526
  0
LINE
  8
_0-a_極細1
  6
CONTINUOUS
 62
    7
 10
360.06387575267712
 20
489.12533971306561
 11
360.06387575267712
 21
495.92533903306526
  0
LINE
  8
_0-a_極細1
  6
CONTINUOUS
 62
    7
 10
359.26387583267751
 20
489.12533971306561
 11
359.26387583267751
 21
495.92533903306526
  0
LINE
  8
_0-a_極細1
  6
CONTINUOUS
 62
    7
 10
358.46387591267739
 20
489.12533971306561
 11
358.46387591267739
 21
495.92533903306526
  0
LINE
  8
_0-a_極細1
  6
CONTINUOUS
 62
    7
 10
357.66387599267728
 20
489.12533971306561
 11
357.66387599267728
 21
495.92533903306526
  0
LINE
  8
_0-a_極細1
  6
CONTINUOUS
 62
    7
 10
356.86387607267716
 20
489.12533971306561
 11
356.86387607267716
 21
495.92533903306526
  0
LINE
  8
_0-a_極細1
  6
CONTINUOUS
 62
    7
 10
356.06387615267704
 20
489.12533971306561
 11
356.06387615267704
 21
495.92533903306526
  0
LINE
  8
_0-a_極細1
  6
CONTINUOUS
 62
    7
 10
355.26387623267692
 20
489.12533971306561
 11
355.26387623267692
 21
495.92533903306526
  0
LINE
  8
_0-a_極細1
  6
CONTINUOUS
 62
    7
 10
354.46387631267731
 20
489.12533971306561
 11
354.46387631267731
 21
495.92533903306526
  0
LINE
  8
_0-a_極細1
  6
CONTINUOUS
 62
    7
 10
353.6638763926772
 20
489.12533971306561
 11
353.6638763926772
 21
495.92533903306526
  0
LINE
  8
_0-a_極細1
  6
CONTINUOUS
 62
    7
 10
352.86387647267708
 20
489.12533971306561
 11
352.86387647267708
 21
495.92533903306526
  0
LINE
  8
_0-a_極細1
  6
CONTINUOUS
 62
    7
 10
352.06387655267696
 20
489.12533971306561
 11
352.06387655267696
 21
495.92533903306526
  0
LINE
  8
_0-a_極細1
  6
CONTINUOUS
 62
    7
 10
351.26387663267684
 20
489.12533971306561
 11
351.26387663267684
 21
495.92533903306526
  0
LINE
  8
_0-a_極細1
  6
CONTINUOUS
 62
    7
 10
350.46387671267672
 20
489.12533971306561
 11
350.46387671267672
 21
495.92533903306526
  0
LINE
  8
_0-a_極細1
  6
CONTINUOUS
 62
    7
 10
349.66387679267723
 20
489.12533971306561
 11
349.66387679267723
 21
495.92533903306526
  0
LINE
  8
_0-a_極細1
  6
CONTINUOUS
 62
    7
 10
369.37685806469551
 20
489.12533971306561
 11
369.37685806469551
 21
495.92533903306526
  0
LINE
  8
_0-a_極細1
  6
CONTINUOUS
 62
    7
 10
349.37686006469528
 20
489.12533971306561
 11
349.37686006469528
 21
495.92533903306526
  0
LINE
  8
_0-a_極細1
  6
CONTINUOUS
 62
    7
 10
349.37686006469528
 20
489.12533971306561
 11
369.37685806469551
 21
489.12533971306561
  0
ARC
  8
_0-a_極細1
  6
CONTINUOUS
 62
    7
 10
362.23160677922067
 20
485.82544004305555
 40
23.999997599999997
 50
55.166292356154678
 51
148.68484545273051
  0
LINE
  8
_0-a_極細1
  6
CONTINUOUS
 62
    7
 10
380.17975023483177
 20
495.92533903306526
 11
380.17975023483177
 21
497.44282693531892
  0
LINE
  8
_0-a_極細1
  6
CONTINUOUS
 62
    7
 10
378.97975023483184
 20
495.92533903306526
 11
378.97975023483184
 21
501.66487425662746
  0
LINE
  8
_0-a_極細1
  6
CONTINUOUS
 62
    7
 10
377.77975023483174
 20
495.92533903306526
 11
377.77975023483174
 21
503.59708046758101
  0
LINE
  8
_0-a_極細1
  6
CONTINUOUS
 62
    7
 10
376.57975023483181
 20
495.92533903306526
 11
376.57975023483181
 21
504.94869060593601
  0
LINE
  8
_0-a_極細1
  6
CONTINUOUS
 62
    7
 10
375.37975023483182
 20
495.92533903306526
 11
375.37975023483182
 21
505.90344314273347
  0
LINE
  8
_0-a_極細1
  6
CONTINUOUS
 62
    7
 10
374.17975023483177
 20
495.92533903306526
 11
374.17975023483177
 21
506.63990022736357
  0
LINE
  8
_0-a_極細1
  6
CONTINUOUS
 62
    7
 10
372.97975023483184
 20
495.92533903306526
 11
372.97975023483184
 21
507.28417479274685
  0
LINE
  8
_0-a_極細1
  6
CONTINUOUS
 62
    7
 10
371.77975023483174
 20
495.92533903306526
 11
371.77975023483174
 21
507.84436011991414
  0
LINE
  8
_0-a_極細1
  6
CONTINUOUS
 62
    7
 10
370.57975023483181
 20
495.92533903306526
 11
370.57975023483181
 21
508.32673746441651
  0
LINE
  8
_0-a_極細1
  6
CONTINUOUS
 62
    7
 10
369.37975023483182
 20
495.92533903306526
 11
369.37975023483182
 21
508.73622200129557
  0
LINE
  8
_0-a_極細1
  6
CONTINUOUS
 62
    7
 10
368.17975023483177
 20
495.92533903306526
 11
368.17975023483177
 21
509.07666526306241
  0
LINE
  8
_0-a_極細1
  6
CONTINUOUS
 62
    7
 10
366.97975023483184
 20
495.92533903306526
 11
366.97975023483184
 21
509.35106476430258
  0
LINE
  8
_0-a_極細1
  6
CONTINUOUS
 62
    7
 10
365.77975023483174
 20
495.92533903306526
 11
365.77975023483174
 21
509.5617110816666
  0
LINE
  8
_0-a_極細1
  6
CONTINUOUS
 62
    7
 10
364.57975023483181
 20
495.92533903306526
 11
364.57975023483181
 21
509.71029103928083
  0
LINE
  8
_0-a_極細1
  6
CONTINUOUS
 62
    7
 10
363.37975023483182
 20
495.92533903306526
 11
363.37975023483182
 21
509.79795871351121
  0
LINE
  8
_0-a_極細1
  6
CONTINUOUS
 62
    7
 10
362.17975023483177
 20
495.92533903306526
 11
362.17975023483177
 21
509.82538162004289
  0
LINE
  8
_0-a_極細1
  6
CONTINUOUS
 62
    7
 10
360.97975023483184
 20
495.92533903306526
 11
360.97975023483184
 21
509.79276655212357
  0
LINE
  8
_0-a_極細1
  6
CONTINUOUS
 62
    7
 10
359.77975023483123
 20
495.92533903306526
 11
359.77975023483123
 21
509.6998674557862
  0
LINE
  8
_0-a_極細1
  6
CONTINUOUS
 62
    7
 10
358.57975023483129
 20
495.92533903306526
 11
358.57975023483129
 21
509.54597605258141
  0
LINE
  8
_0-a_極細1
  6
CONTINUOUS
 62
    7
 10
357.37975023483119
 20
495.92533903306526
 11
357.37975023483119
 21
509.3298943628792
  0
LINE
  8
_0-a_極細1
  6
CONTINUOUS
 62
    7
 10
356.17975023483126
 20
495.92533903306526
 11
356.17975023483126
 21
509.0498865847095
  0
LINE
  8
_0-a_極細1
  6
CONTINUOUS
 62
    7
 10
354.97975023483127
 20
495.92533903306526
 11
354.97975023483127
 21
508.70360564826979
  0
LINE
  8
_0-a_極細1
  6
CONTINUOUS
 62
    7
 10
353.77975023483123
 20
495.92533903306526
 11
353.77975023483123
 21
508.28798677652003
  0
LINE
  8
_0-a_極細1
  6
CONTINUOUS
 62
    7
 10
352.57975023483129
 20
495.92533903306526
 11
352.57975023483129
 21
507.79909586193429
  0
LINE
  8
_0-a_極細1
  6
CONTINUOUS
 62
    7
 10
351.37975023483119
 20
495.92533903306526
 11
351.37975023483119
 21
507.23191323085553
  0
LINE
  8
_0-a_極細1
  6
CONTINUOUS
 62
    7
 10
350.17975023483126
 20
495.92533903306526
 11
350.17975023483126
 21
506.58002119116509
  0
LINE
  8
_0-a_極細1
  6
CONTINUOUS
 62
    7
 10
348.97975023483127
 20
495.92533903306526
 11
348.97975023483127
 21
505.83514226290208
  0
LINE
  8
_0-a_極細1
  6
CONTINUOUS
 62
    7
 10
347.77975023483123
 20
495.92533903306526
 11
347.77975023483123
 21
504.98643498644003
  0
LINE
  8
_0-a_極細1
  6
CONTINUOUS
 62
    7
 10
346.57975023483129
 20
495.92533903306526
 11
346.57975023483129
 21
504.0193750631073
  0
LINE
  8
_0-a_極細1
  6
CONTINUOUS
 62
    7
 10
345.37975023483119
 20
495.92533903306526
 11
345.37975023483119
 21
502.91388104296345
  0
LINE
  8
_0-a_極細1
  6
CONTINUOUS
 62
    7
 10
344.17975023483126
 20
495.92533903306526
 11
344.17975023483126
 21
501.64095015499299
  0
LINE
  8
_0-a_極細1
  6
CONTINUOUS
 62
    7
 10
342.97975023483127
 20
495.92533903306526
 11
342.97975023483127
 21
500.15603334529754
  0
LINE
  8
_0-a_極細1
  6
CONTINUOUS
 62
    7
 10
341.77975023483123
 20
498.19577674831362
 11
341.77975023483123
 21
498.38416006890702
  0
LINE
  8
_0-d_寸法1
  6
CONTINUOUS
 62
    7
 10
449.85798274189335
 20
562.3011610817257
 11
454.75628141620052
 21
573.25591667449373
  0
LINE
  8
_0-d_寸法1
  6
CONTINUOUS
 62
    7
 10
449.85798274189335
 20
562.3011610817257
 11
459.57741162555101
 21
569.3391083801589
  0
LINE
  8
_0-d_寸法1
  6
CONTINUOUS
 62
    7
 10
449.85798274189335
 20
562.3011610817257
 11
474.40750805666084
 21
592.5187385647547
  0
LINE
  8
_0-d_寸法1
  6
CONTINUOUS
 62
    7
 10
474.40750805666084
 20
592.5187385647547
 11
532.00750805666075
 21
592.5187385647547
  0
TEXT
  8
_0-d_寸法1
 62
    7
 10
474.40750805666084
 20
592.5187385647547
 40
18
 41
0.7999999999999998
 50
0
  1
パッキン
  0
LINE
  8
_0-d_寸法1
  6
CONTINUOUS
 62
    7
 10
398.21372397310938
 20
525.76569105445583
 11
406.69896288487456
 21
517.28036721795638
  0
LINE
  8
_0-d_寸法1
  6
CONTINUOUS
 62
    7
 10
398.21372397310938
 20
525.76569105445583
 11
401.3194945096285
 21
514.17456559682705
  0
LINE
  8
_0-d_寸法1
  6
CONTINUOUS
 62
    7
 10
398.21372397310938
 20
525.76569105445583
 11
443.10010216622868
 21
448.01930495996442
  0
LINE
  8
_0-d_寸法1
  6
CONTINUOUS
 62
    7
 10
443.10010216622868
 20
448.01930495996442
 11
587.10010216622845
 21
448.01930495996442
  0
TEXT
  8
_0-d_寸法1
 62
    7
 10
443.10010216622868
 20
448.01930495996442
 40
18
 41
0.7999999999999998
 50
0
  1
防臭インナーパッキン
  0
LINE
  8
_0-d_寸法1
  6
CONTINUOUS
 62
    7
 10
449.03358591451365
 20
509.99803637618481
 11
457.51926098503736
 21
501.51314871649885
  0
LINE
  8
_0-d_寸法1
  6
CONTINUOUS
 62
    7
 10
449.03358591451365
 20
509.99803637618481
 11
452.13995226400448
 21
498.40707057937777
  0
LINE
  8
_0-d_寸法1
  6
CONTINUOUS
 62
    7
 10
449.03358591451365
 20
509.99803637618481
 11
471.44126153685465
 21
471.19096212625749
  0
LINE
  8
_0-d_寸法1
  6
CONTINUOUS
 62
    7
 10
471.44126153685465
 20
471.19096212625749
 11
572.24126153685461
 21
471.19096212625749
  0
TEXT
  8
_0-d_寸法1
 62
    7
 10
471.44126153685465
 20
471.19096212625749
 40
18
 41
0.7999999999999998
 50
0
  1
ロックフランジ
  0
TEXT
  8
_0-7_枠細線
 62
    5
 10
346.34337832151141
 20
394.78450372963607
 40
30
 41
0.8
 50
0
  1
Ｃ部拡大図
  0
LINE
  8
_0-1_計細線
  6
CONTINUOUS
 62
    3
 10
596.5
 20
944.15638321366578
 11
596.5
 21
805.15638321366578
  0
LINE
  8
_0-1_計細線
  6
CONTINUOUS
 62
    3
 10
596.5
 20
805.15638321366578
 11
1185.5
 21
805.15638321366578
  0
LINE
  8
_0-1_計細線
  6
CONTINUOUS
 62
    3
 10
1185.5
 20
805.15638321366578
 11
1185.5
 21
944.15638321366578
  0
LINE
  8
_0-1_計細線
  6
CONTINUOUS
 62
    3
 10
1185.5
 20
944.15638321366578
 11
596.5
 21
944.15638321366578
  0
LINE
  8
_0-1_計細線
  6
CONTINUOUS
 62
    3
 10
594
 20
802.65638321366566
 11
594
 21
946.65638321366566
  0
LINE
  8
_0-1_計細線
  6
CONTINUOUS
 62
    3
 10
594
 20
946.65638321366566
 11
1188
 21
946.65638321366566
  0
LINE
  8
_0-1_計細線
  6
CONTINUOUS
 62
    3
 10
1188
 20
946.65638321366566
 11
1188
 21
802.65638321366566
  0
LINE
  8
_0-1_計細線
  6
CONTINUOUS
 62
    3
 10
1188
 20
802.65638321366566
 11
594
 21
802.65638321366566
  0
LINE
  8
_0-0_計極細
  6
CENTER2
 62
    2
 10
586.45149030505672
 20
874.65638321366566
 11
1200.6024337012832
 21
874.65638321366566
  0
ARC
  8
_0-1_計細線
  6
DASHED2
 62
    3
 10
609.99999999999909
 20
930.65638321366578
 40
12.499999999999998
 50
233.13010235415936
 51
36.869897645840759
  0
ARC
  8
_0-1_計細線
  6
CONTINUOUS
 62
    3
 10
609.99999999999909
 20
930.65638321366578
 40
12.499999999999998
 50
36.8698976458411
 51
233.13010235415564
  0
ARC
  8
_0-1_計細線
  6
DASHED2
 62
    3
 10
609.99999999999932
 20
818.65638321366578
 40
12.499999999999998
 50
323.11949922673051
 51
126.86989764584366
  0
ARC
  8
_0-1_計細線
  6
CONTINUOUS
 62
    3
 10
609.99999999999932
 20
818.65638321366578
 40
12.499999999999998
 50
126.86989764584402
 51
323.11949922673051
  0
LINE
  8
_0-1_計細線
  6
CONTINUOUS
 62
    3
 10
602.49999999999955
 20
894.65638321366578
 11
599.50000000000068
 21
894.65638321366657
  0
ARC
  8
_0-1_計細線
  6
CONTINUOUS
 62
    3
 10
599.50000000000068
 20
892.65638321366669
 40
2
 50
89.999999999999915
 51
180.00000000002569
  0
LINE
  8
_0-1_計細線
  6
CONTINUOUS
 62
    3
 10
597.50000000000068
 20
892.65638321366566
 11
597.50000000000068
 21
856.65638321366566
  0
LINE
  8
_0-1_計細線
  6
CONTINUOUS
 62
    3
 10
599.50000000000068
 20
854.65638321366669
 11
602.49999999999955
 21
854.65638321366578
  0
ARC
  8
_0-1_計細線
  6
CONTINUOUS
 62
    3
 10
599.50000000000068
 20
856.65638321366669
 40
2
 50
180.00000000002569
 51
269.99999999999977
  0
LINE
  8
_0-1_計細線
  6
CONTINUOUS
 62
    3
 10
599.50000000000068
 20
859.65638321366566
 11
602.49999999999955
 21
859.65638321366566
  0
LINE
  8
_0-1_計細線
  6
CONTINUOUS
 62
    3
 10
599.50000000000068
 20
889.65638321366566
 11
599.50000000000068
 21
859.65638321366566
  0
LINE
  8
_0-1_計細線
  6
CONTINUOUS
 62
    3
 10
602.49999999999955
 20
889.65638321366566
 11
599.50000000000068
 21
889.65638321366566
  0
LINE
  8
_0-1_計細線
  6
DASHED2
 62
    3
 10
602.49999999999955
 20
894.65638321366578
 11
610.00000000000068
 21
894.65638321366578
  0
LINE
  8
_0-1_計細線
  6
DASHED2
 62
    3
 10
610.00000000000068
 20
854.65638321366578
 11
602.49999999999955
 21
854.65638321366578
  0
LINE
  8
_0-1_計細線
  6
DASHED2
 62
    3
 10
610.00000000000068
 20
894.65638321366578
 11
610.00000000000068
 21
854.65638321366578
  0
ARC
  8
_0-1_計細線
  6
CONTINUOUS
 62
    3
 10
1146.6168456737496
 20
888.86262319618663
 40
0.501740082747087
 50
330.00000000003996
 51
20.189990999990084
  0
ARC
  8
_0-1_計細線
  6
CONTINUOUS
 62
    3
 10
1146.6168456737496
 20
860.46301342017739
 40
0.501740082747087
 50
339.81000900000919
 51
29.999999999959307
  0
LINE
  8
_0-1_計細線
  6
CONTINUOUS
 62
    3
 10
1109.3056521475482
 20
876.92065771190119
 11
1108.0020840521329
 21
879.1784971156203
  0
LINE
  8
_0-1_計細線
  6
CONTINUOUS
 62
    3
 10
1109.3056521475482
 20
876.92065771190119
 11
1089.1657607918014
 21
911.80396943320784
  0
LINE
  8
_0-1_計細線
  6
CONTINUOUS
 62
    3
 10
1109.3056521475482
 20
876.92065771190119
 11
1111.9127823174749
 21
876.92065771190119
  0
LINE
  8
_0-1_計細線
  6
CONTINUOUS
 62
    3
 10
1105.3949599031121
 20
874.66281830818116
 11
1085.2550685473616
 21
909.54613002949009
  0
ARC
  8
_0-1_計細線
  6
CONTINUOUS
 62
    3
 10
1076.3973116885572
 20
848.32135859812115
 40
0.501740082747087
 50
219.81000899998574
 51
269.99999999999977
  0
LINE
  8
_0-1_計細線
  6
CONTINUOUS
 62
    3
 10
1109.3056521475482
 20
872.40497890446204
 11
1089.1657607918014
 21
837.52166718315493
  0
LINE
  8
_0-1_計細線
  6
CONTINUOUS
 62
    3
 10
1105.3949599031121
 20
874.66281830818116
 11
1085.2550685473616
 21
839.77950658687405
  0
ARC
  8
_0-1_計細線
  6
CONTINUOUS
 62
    3
 10
1108.0020840521329
 20
874.66281830818116
 40
46.4111412917104
 50
89.999999999999915
 51
269.99999999999977
  0
ARC
  8
_0-1_計細線
  6
CONTINUOUS
 62
    3
 10
1108.0020840521329
 20
874.66281830818116
 40
57.198598227560829
 50
89.999999999999915
 51
269.99999999999977
  0
CIRCLE
  8
_0-1_計細線
  6
CONTINUOUS
 62
    3
 10
1108.0020840521329
 20
874.66281830818116
 40
58.202084413960065
  0
LINE
  8
_0-1_計細線
  6
CONTINUOUS
 62
    3
 10
1109.3056521475482
 20
876.92065771190119
 11
1149.5854288381388
 21
876.92065771190119
  0
LINE
  8
_0-1_計細線
  6
CONTINUOUS
 62
    3
 10
1109.3056521475482
 20
872.40497890446204
 11
1149.5854288381388
 21
872.40497890446204
  0
ARC
  8
_0-1_計細線
  6
CONTINUOUS
 62
    3
 10
1108.0020840521329
 20
874.66281830818116
 40
46.4111412917104
 50
269.99999999999977
 51
89.999999999999545
  0
ARC
  8
_0-1_計細線
  6
CONTINUOUS
 62
    3
 10
1108.0020840521329
 20
874.66281830818116
 40
57.198598227560829
 50
269.99999999999977
 51
89.999999999999545
  0
ARC
  8
_0-1_計細線
  6
CONTINUOUS
 62
    3
 10
1108.0020840521329
 20
874.66281830818116
 40
41.644595453350369
 50
89.999999999999915
 51
116.89207624474167
  0
ARC
  8
_0-1_計細線
  6
CONTINUOUS
 62
    3
 10
1108.0020840521329
 20
874.66281830818116
 40
41.644595453350369
 50
123.10791868694014
 51
236.89208131305782
  0
ARC
  8
_0-1_計細線
  6
CONTINUOUS
 62
    3
 10
1108.0020840521329
 20
874.66281830818116
 40
41.644595453350369
 50
243.10792375525659
 51
269.99999999999977
  0
ARC
  8
_0-1_計細線
  6
CONTINUOUS
 62
    3
 10
1108.0020840521329
 20
874.66281830818116
 40
41.644595453350369
 50
269.99999999999977
 51
356.8920785890931
  0
ARC
  8
_0-1_計細線
  6
CONTINUOUS
 62
    3
 10
1108.0020840521329
 20
874.66281830818116
 40
41.644595453350369
 50
3.1079214109077964
 51
89.999999999999915
  0
ARC
  8
_0-0_計極細
  6
CONTINUOUS
 62
    2
 10
1108.0020840521329
 20
874.66281830818116
 40
50.153133796808191
 50
269.99999999999977
 51
89.999999999999545
  0
ARC
  8
_0-0_計極細
  6
CONTINUOUS
 62
    2
 10
1108.0020840521329
 20
874.66281830818116
 40
50.153133796808191
 50
89.999999999999915
 51
269.99999999999977
  0
ARC
  8
_0-0_計極細
  6
CONTINUOUS
 62
    2
 10
1094.3870830076257
 20
845.5617760785899
 40
0.501740082747087
 50
149.99997568607938
 51
210.00002243784951
  0
ARC
  8
_0-0_計極細
  6
CONTINUOUS
 62
    2
 10
1108.2917678580816
 20
868.64191323159491
 40
1.0034861863992508
 50
29.999999999951111
 51
149.99999999997101
  0
ARC
  8
_0-0_計極細
  6
CONTINUOUS
 62
    2
 10
1108.2917678580816
 20
868.64191323159491
 40
1.0034861863992508
 50
29.999999999951111
 51
106.77865499997519
  0
ARC
  8
_0-0_計極細
  6
CONTINUOUS
 62
    2
 10
1102.6429908406608
 20
871.90323882171469
 40
1.0034861863992508
 50
329.99999999995163
 51
89.999999999999545
  0
ARC
  8
_0-0_計極細
  6
CONTINUOUS
 62
    2
 10
1067.5068677520949
 20
881.94157910727426
 40
0.501740082747087
 50
89.993779916795503
 51
169.8086801233749
  0
ARC
  8
_0-0_計極細
  6
CONTINUOUS
 62
    2
 10
1067.5053020466621
 20
867.39105577451983
 40
0.501740082747087
 50
190.17882981053808
 51
269.99383436904543
  0
ARC
  8
_0-0_計極細
  6
CONTINUOUS
 62
    2
 10
1067.4535697560559
 20
877.42590470481537
 40
1.0034861863992508
 50
176.10042624738318
 51
269.99385985774035
  0
ARC
  8
_0-0_計極細
  6
CONTINUOUS
 62
    2
 10
1108.0020840521329
 20
874.66281830818116
 40
37.630656728658437
 50
317.45760300000074
 51
327.38710799999916
  0
ARC
  8
_0-0_計極細
  6
CONTINUOUS
 62
    2
 10
1108.0020840521329
 20
874.66281830818116
 40
37.630656728658437
 50
32.612892000001082
 51
42.54239699999939
  0
LINE
  8
_0-0_計極細
  6
CONTINUOUS
 62
    2
 10
1143.1763018231204
 20
855.38388025295581
 11
1134.2182126021198
 21
870.89975263531733
  0
LINE
  8
_0-0_計極細
  6
CONTINUOUS
 62
    2
 10
1141.7694752056414
 20
850.79618539989497
 11
1129.4384749607361
 21
872.15410585263544
  0
LINE
  8
_0-0_計極細
  6
CONTINUOUS
 62
    2
 10
1137.1475394654099
 20
846.75980074107747
 11
1123.2103363523211
 21
870.89975263531733
  0
LINE
  8
_0-0_計極細
  6
CONTINUOUS
 62
    2
 10
1143.1763018231204
 20
893.94175636340788
 11
1134.2182126021198
 21
878.42588398104726
  0
LINE
  8
_0-0_計極細
  6
CONTINUOUS
 62
    2
 10
1141.7694752056414
 20
898.52945121646826
 11
1129.4384749607361
 21
877.17153076372733
  0
LINE
  8
_0-0_計極細
  6
CONTINUOUS
 62
    2
 10
1137.1475394654099
 20
902.56582985438172
 11
1123.2103363523211
 21
878.42588398104726
  0
LINE
  8
_0-0_計極細
  6
CONTINUOUS
 62
    2
 10
1105.9951177002395
 20
847.64318191300981
 11
1105.9951177002395
 21
855.56059381695377
  0
LINE
  8
_0-0_計極細
  6
CONTINUOUS
 62
    2
 10
1106.4968577829868
 20
847.6105907538298
 11
1106.4968577829868
 21
854.69155444091484
  0
ARC
  8
_0-0_計極細
  6
CONTINUOUS
 62
    2
 10
1108.0020840521329
 20
874.66281830818116
 40
37.630656728658437
 50
213.59599499999973
 51
225.50677599999941
  0
LINE
  8
_0-0_計極細
  6
CONTINUOUS
 62
    2
 10
1134.9844209403554
 20
843.48205012191147
 11
1118.4305987109374
 21
872.15410585263544
  0
LINE
  8
_0-0_計極細
  6
CONTINUOUS
 62
    2
 10
1129.7965682901668
 20
840.42586278865554
 11
1112.2024601025214
 21
870.89975263531733
  0
LINE
  8
_0-0_計極細
  6
CONTINUOUS
 62
    2
 10
1111.7874993246432
 20
833.48608330471177
 11
1099.456499079738
 21
854.8440037574527
  0
LINE
  8
_0-0_計極細
  6
CONTINUOUS
 62
    2
 10
1117.5940782432162
 20
835.47060372247961
 11
1103.6568751301265
 21
859.61055561671844
  0
LINE
  8
_0-0_計極細
  6
CONTINUOUS
 62
    2
 10
1121.5142594340568
 20
835.70504572435357
 11
1104.9604372046388
 21
864.37710747598385
  0
LINE
  8
_0-0_計極細
  6
CONTINUOUS
 62
    2
 10
1126.7549154217677
 20
838.66976948858871
 11
1109.1608132550273
 21
869.14365331434362
  0
LINE
  8
_0-0_計極細
  6
CONTINUOUS
 62
    2
 10
1076.3973116885572
 20
847.81961851537415
 11
1089.6073460119287
 21
847.81961851537415
  0
ARC
  8
_0-0_計極細
  6
CONTINUOUS
 62
    2
 10
1086.1311764659613
 20
843.30393970793455
 40
1.0034861863992508
 50
329.99999999997061
 51
89.999999999999545
  0
ARC
  8
_0-0_計極細
  6
CONTINUOUS
 62
    2
 10
1108.0020840521329
 20
874.66281830818116
 40
37.630656728658437
 50
233.77152299999938
 51
236.31964599999873
  0
ARC
  8
_0-0_計極細
  6
CONTINUOUS
 62
    2
 10
1082.1501961756594
 20
843.30393970793455
 40
1.0034861863992508
 50
89.999999999999915
 51
230.49822999997428
  0
LINE
  8
_0-0_計極細
  6
CONTINUOUS
 62
    2
 10
1082.1501961756594
 20
844.3074198734289
 11
1086.1311764659613
 21
844.3074198734289
  0
ARC
  8
_0-0_計極細
  6
CONTINUOUS
 62
    2
 10
1108.0020840521329
 20
874.66281830818116
 40
37.630656728658437
 50
272.61289199999942
 51
282.54239699999982
  0
ARC
  8
_0-0_計極細
  6
CONTINUOUS
 62
    2
 10
1112.2220220231147
 20
833.73695635653758
 40
0.501740082747087
 50
210.00000000000426
 51
275.88706199997517
  0
LINE
  8
_0-0_計極細
  6
CONTINUOUS
 62
    2
 10
1107.1110262262282
 20
834.56157951582827
 11
1098.1529370052276
 21
850.07745791909383
  0
LINE
  8
_0-0_計極細
  6
CONTINUOUS
 62
    2
 10
1100.5575781165235
 20
833.87068065829123
 11
1093.9525609548391
 21
845.31090605982888
  0
ARC
  8
_0-0_計極細
  6
CONTINUOUS
 62
    2
 10
1108.0020840521329
 20
874.66281830818116
 40
37.630656728658437
 50
254.49322399999932
 51
266.40400499999907
  0
ARC
  8
_0-0_計極細
  6
CONTINUOUS
 62
    2
 10
1089.6073460119287
 20
848.32135859812115
 40
0.501740082747087
 50
269.99999999999977
 51
329.99999999989114
  0
ARC
  8
_0-0_計極細
  6
CONTINUOUS
 62
    2
 10
1093.7704466389869
 20
836.59498366191292
 40
1.0034861863992508
 50
249.50177000005806
 51
29.999999999976708
  0
LINE
  8
_0-0_計極細
  6
CONTINUOUS
 62
    2
 10
1094.6394860150276
 20
837.09672374466027
 11
1092.6489988803287
 21
840.54435420056177
  0
ARC
  8
_0-0_計極細
  6
CONTINUOUS
 62
    2
 10
1097.2838916082828
 20
849.57571181544233
 40
1.0034861863992508
 50
29.999999999977071
 51
149.99999999999699
  0
ARC
  8
_0-0_計極細
  6
CONTINUOUS
 62
    2
 10
1108.0020840521329
 20
874.66281830818116
 40
27.094072844634088
 50
244.78019200000111
 51
249.77896100000117
  0
ARC
  8
_0-0_計極細
  6
CONTINUOUS
 62
    2
 10
1108.0020840521329
 20
874.66281830818116
 40
37.630656728658437
 50
243.68035399999945
 51
246.22847699999838
  0
ARC
  8
_0-0_計極細
  6
CONTINUOUS
 62
    2
 10
1091.7799534833839
 20
840.04261411781681
 40
1.0034861863992508
 50
29.999999999977071
 51
150.00000000002294
  0
ARC
  8
_0-0_計極細
  6
CONTINUOUS
 62
    2
 10
1106.2419868501902
 20
834.05983943308274
 40
1.0034861863992508
 50
267.5178359999677
 51
30.000000000002665
  0
ARC
  8
_0-0_計極細
  6
CONTINUOUS
 62
    2
 10
1100.992100814995
 20
834.12155371011704
 40
0.501740082747087
 50
210.00000000010814
 51
260.18999100005101
  0
ARC
  8
_0-0_計極細
  6
CONTINUOUS
 62
    2
 10
1108.0020840521329
 20
874.66281830818116
 40
27.094072844634088
 50
260.29098299999907
 51
275.37568199999987
  0
ARC
  8
_0-0_計極細
  6
CONTINUOUS
 62
    2
 10
1108.0020840521329
 20
874.66281830818116
 40
37.630656728658437
 50
288.07291800000053
 51
297.3252259999997
  0
ARC
  8
_0-0_計極細
  6
CONTINUOUS
 62
    2
 10
1108.0020840521329
 20
874.66281830818116
 40
27.094072844634088
 50
283.31934900000118
 51
296.2837799999993
  0
ARC
  8
_0-0_計極細
  6
CONTINUOUS
 62
    2
 10
1121.9487761116225
 20
835.95591877617971
 40
0.501740082747087
 50
210.00000000010814
 51
289.81487200010849
  0
ARC
  8
_0-0_計極細
  6
CONTINUOUS
 62
    2
 10
1116.7250328462724
 20
834.96886363973317
 40
1.0034861863992508
 50
282.39403400005705
 51
30.000000000002665
  0
ARC
  8
_0-0_計極細
  6
CONTINUOUS
 62
    2
 10
1108.0020840521329
 20
874.66281830818116
 40
37.630656728658437
 50
302.67477399999865
 51
311.92708199999919
  0
ARC
  8
_0-0_計極細
  6
CONTINUOUS
 62
    2
 10
1130.6656076662048
 20
840.9276088923084
 40
1.0034861863992508
 50
210.00000000002515
 51
303.89345000001418
  0
ARC
  8
_0-0_計極細
  6
CONTINUOUS
 62
    2
 10
1134.5498982418831
 20
843.23117707008578
 40
0.501740082747087
 50
310.18512800003361
 51
29.999999999907399
  0
ARC
  8
_0-0_計極細
  6
CONTINUOUS
 62
    2
 10
1125.8858760457288
 20
838.16802338493608
 40
1.0034861863992508
 50
296.10655000002453
 51
29.999999999999204
  0
LINE
  8
_0-0_計極細
  6
CONTINUOUS
 62
    2
 10
1073.71892410705
 20
853.84052359195994
 11
1091.6351145908602
 21
853.84052359195994
  0
ARC
  8
_0-0_計極細
  6
CONTINUOUS
 62
    2
 10
1086.1311764659613
 20
906.02169690842948
 40
1.0034861863992508
 50
269.99999999999977
 51
30.000000000051159
  0
LINE
  8
_0-0_計極細
  6
CONTINUOUS
 62
    2
 10
1076.3973116885572
 20
901.50601810098988
 11
1089.6073460119287
 21
901.50601810098988
  0
LINE
  8
_0-0_計極細
  6
CONTINUOUS
 62
    2
 10
1073.71892410705
 20
895.48511302440329
 11
1091.6351145908602
 21
895.48511302440329
  0
LINE
  8
_0-0_計極細
  6
CONTINUOUS
 62
    2
 10
1070.4492836470208
 20
891.9729204033647
 11
1095.1112841368276
 21
891.9729204033647
  0
LINE
  8
_0-0_計極細
  6
CONTINUOUS
 62
    2
 10
1069.2646404686766
 20
885.95201532677947
 11
1097.139052715761
 21
885.95201532677947
  0
LINE
  8
_0-0_計極細
  6
CONTINUOUS
 62
    2
 10
1067.5075838237963
 20
882.43982270573906
 11
1100.6152222617266
 21
882.43982270573906
  0
LINE
  8
_0-0_計極細
  6
CONTINUOUS
 62
    2
 10
1067.4547744653692
 20
876.41891762915384
 11
1102.6429908406608
 21
876.41891762915384
  0
LINE
  8
_0-0_計極細
  6
CONTINUOUS
 62
    2
 10
1070.4492836470208
 20
857.35271621299933
 11
1095.1112841368276
 21
857.35271621299933
  0
LINE
  8
_0-0_計極細
  6
CONTINUOUS
 62
    2
 10
1069.2646404686766
 20
863.37362128958512
 11
1097.139052715761
 21
863.37362128958512
  0
LINE
  8
_0-0_計極細
  6
CONTINUOUS
 62
    2
 10
1067.5075838237963
 20
866.88581391062507
 11
1100.6152222617266
 21
866.88581391062507
  0
LINE
  8
_0-0_計極細
  6
CONTINUOUS
 62
    2
 10
1067.4547744653692
 20
872.90671898720893
 11
1102.6429908406608
 21
872.90671898720893
  0
ARC
  8
_0-0_計極細
  6
CONTINUOUS
 62
    2
 10
1108.0020840521329
 20
874.66281830818116
 40
27.094072844634088
 50
140.2909829999995
 51
155.37568200000004
  0
ARC
  8
_0-0_計極細
  6
CONTINUOUS
 62
    2
 10
1108.0020840521329
 20
874.66281830818116
 40
37.630656728658437
 50
152.61289200000007
 51
162.54239699999968
  0
ARC
  8
_0-0_計極細
  6
CONTINUOUS
 62
    2
 10
1069.2646404686766
 20
886.95550151318002
 40
1.0034861863992508
 50
162.39403400002107
 51
269.99999999999977
  0
ARC
  8
_0-0_計極細
  6
CONTINUOUS
 62
    2
 10
1073.71892410705
 20
852.83703740555939
 40
1.0034861863992508
 50
89.999999999999915
 51
212.4821639999854
  0
ARC
  8
_0-0_計極細
  6
CONTINUOUS
 62
    2
 10
1108.0020840521329
 20
874.66281830818116
 40
37.630656728658437
 50
168.07291799999925
 51
177.32522600000016
  0
ARC
  8
_0-0_計極細
  6
CONTINUOUS
 62
    2
 10
1108.0020840521329
 20
874.66281830818116
 40
37.630656728658437
 50
182.67477399999882
 51
191.9270819999997
  0
ARC
  8
_0-0_計極細
  6
CONTINUOUS
 62
    2
 10
1108.0020840521329
 20
874.66281830818116
 40
37.630656728658437
 50
197.4576029999993
 51
207.38710799999896
  0
ARC
  8
_0-0_計極細
  6
CONTINUOUS
 62
    2
 10
1067.4547744653692
 20
871.9032388217156
 40
1.0034861863992508
 50
89.999999999999915
 51
183.89344999999844
  0
ARC
  8
_0-0_計極細
  6
CONTINUOUS
 62
    2
 10
1069.2646404686766
 20
862.37013510318593
 40
1.0034861863992508
 50
89.999999999999915
 51
197.60596600000332
  0
ARC
  8
_0-0_計極細
  6
CONTINUOUS
 62
    2
 10
1070.4492836470208
 20
857.85445629574531
 40
0.501740082747087
 50
204.11293800002809
 51
269.99999999999977
  0
ARC
  8
_0-0_計極細
  6
CONTINUOUS
 62
    2
 10
1108.0020840521329
 20
874.66281830818116
 40
27.094072844634088
 50
163.31934899999951
 51
176.28377999999955
  0
ARC
  8
_0-0_計極細
  6
CONTINUOUS
 62
    2
 10
1108.0020840521329
 20
874.66281830818116
 40
27.094072844634088
 50
183.71621999999911
 51
196.68065099999922
  0
ARC
  8
_0-0_計極細
  6
CONTINUOUS
 62
    2
 10
1108.0020840521329
 20
874.66281830818116
 40
27.094072844634088
 50
204.62431799999874
 51
219.70901699999865
  0
ARC
  8
_0-0_計極細
  6
CONTINUOUS
 62
    2
 10
1070.4492836470208
 20
891.47118032061871
 40
0.501740082747087
 50
89.999999999999915
 51
155.88706199997156
  0
ARC
  8
_0-0_計極細
  6
CONTINUOUS
 62
    2
 10
1073.71892410705
 20
896.4885992108043
 40
1.0034861863992508
 50
147.5178360000142
 51
269.99999999999977
  0
ARC
  8
_0-0_計極細
  6
CONTINUOUS
 62
    2
 10
1108.0020840521329
 20
874.66281830818116
 40
37.630656728658437
 50
123.68035400000058
 51
126.22847700000025
  0
ARC
  8
_0-0_計極細
  6
CONTINUOUS
 62
    2
 10
1108.0020840521329
 20
874.66281830818116
 40
37.630656728658437
 50
134.49322399999971
 51
146.40400499999933
  0
ARC
  8
_0-0_計極細
  6
CONTINUOUS
 62
    2
 10
1076.3973116885572
 20
901.00427801824344
 40
0.501740082747087
 50
89.999999999999915
 51
140.18999100005377
  0
ARC
  8
_0-0_計極細
  6
CONTINUOUS
 62
    2
 10
1082.1501961756594
 20
906.02169690842948
 40
1.0034861863992508
 50
129.50177000002535
 51
269.99999999999977
  0
LINE
  8
_0-0_計極細
  6
CONTINUOUS
 62
    2
 10
1082.1501961756594
 20
905.01821674293512
 11
1086.1311764659613
 21
905.01821674293512
  0
ARC
  8
_0-0_計極細
  6
CONTINUOUS
 62
    2
 10
1108.0020840521329
 20
874.66281830818116
 40
37.630656728658437
 50
77.457603000000148
 51
87.387108000000282
  0
ARC
  8
_0-0_計極細
  6
CONTINUOUS
 62
    2
 10
1108.0020840521329
 20
874.66281830818116
 40
37.630656728658437
 50
77.457603000000148
 51
87.387108000000282
  0
ARC
  8
_0-0_計極細
  6
CONTINUOUS
 62
    2
 10
1113.0715054994662
 20
871.40149271806376
 40
1.0034861863992508
 50
89.999999999999915
 51
209.9999999999992
  0
ARC
  8
_0-0_計極細
  6
CONTINUOUS
 62
    2
 10
1113.0715054994662
 20
877.92414389830162
 40
1.0034861863992508
 50
150.00000000000043
 51
269.99999999999977
  0
ARC
  8
_0-0_計極細
  6
CONTINUOUS
 62
    2
 10
1112.2220220231147
 20
915.58868025982372
 40
0.501740082747087
 50
84.112938000024442
 51
150.00000000004033
  0
LINE
  8
_0-0_計極細
  6
CONTINUOUS
 62
    2
 10
1117.5940782432162
 20
913.85502687297731
 11
1103.6568751301265
 21
889.71508099964558
  0
LINE
  8
_0-0_計極細
  6
CONTINUOUS
 62
    2
 10
1121.5142594340568
 20
913.62058487110608
 11
1104.9604372046388
 21
884.94852914038017
  0
LINE
  8
_0-0_計極細
  6
CONTINUOUS
 62
    2
 10
1126.7549154217677
 20
910.65586712777531
 11
1109.1608132550273
 21
880.1819833020204
  0
LINE
  8
_0-0_計極細
  6
CONTINUOUS
 62
    2
 10
1105.9951177002395
 20
882.6546666615867
 11
1105.9951177002395
 21
886.7406515364255
  0
LINE
  8
_0-0_計極細
  6
CONTINUOUS
 62
    2
 10
1106.4968577829868
 20
881.78562728554778
 11
1106.4968577829868
 21
887.60969693336847
  0
ARC
  8
_0-0_計極細
  6
CONTINUOUS
 62
    2
 10
1097.139052715761
 20
886.95550151318002
 40
1.0034861863992508
 50
269.99999999999977
 51
29.999999999999204
  0
LINE
  8
_0-0_計極細
  6
CONTINUOUS
 62
    2
 10
1109.5073103212799
 20
880.78214109915007
 11
1109.5073103212799
 21
892.8239512523196
  0
LINE
  8
_0-0_計極細
  6
CONTINUOUS
 62
    2
 10
1110.0090564249313
 20
881.65118649609258
 11
1110.0090564249313
 21
893.69299664926484
  0
ARC
  8
_0-0_計極細
  6
CONTINUOUS
 62
    2
 10
1097.139052715761
 20
862.37013510318593
 40
1.0034861863992508
 50
329.9999999999776
 51
89.999999999999545
  0
ARC
  8
_0-0_計極細
  6
CONTINUOUS
 62
    2
 10
1095.1112841368276
 20
857.85445629574531
 40
0.501740082747087
 50
269.99999999999977
 51
329.999999999995
  0
ARC
  8
_0-0_計極細
  6
CONTINUOUS
 62
    2
 10
1108.0020840521329
 20
874.66281830818116
 40
27.094072844634088
 50
230.22103899999877
 51
235.21980799999864
  0
ARC
  8
_0-0_計極細
  6
CONTINUOUS
 62
    2
 10
1091.6351145908602
 20
852.83703740555939
 40
1.0034861863992508
 50
330.00000000000011
 51
89.999999999999545
  0
ARC
  8
_0-0_計極細
  6
CONTINUOUS
 62
    2
 10
1099.8910217782104
 20
855.09487680927987
 40
0.501740082747087
 50
149.9999999999884
 51
210.00000000005619
  0
LINE
  8
_0-0_計極細
  6
CONTINUOUS
 62
    2
 10
1105.9951177002395
 20
862.58498507993863
 11
1105.9951177002395
 21
866.67096995477732
  0
LINE
  8
_0-0_計極細
  6
CONTINUOUS
 62
    2
 10
1106.4968577829868
 20
861.71593968299385
 11
1106.4968577829868
 21
867.54000933081579
  0
ARC
  8
_0-0_計極細
  6
CONTINUOUS
 62
    2
 10
1100.6152222617266
 20
867.38756001427646
 40
0.501740082747087
 50
269.99999999999977
 51
330.00000000003996
  0
ARC
  8
_0-0_計極細
  6
CONTINUOUS
 62
    2
 10
1105.3949599031121
 20
864.62797450690402
 40
0.501740082747087
 50
150.00000000009922
 51
209.99999999985545
  0
ARC
  8
_0-0_計極細
  6
CONTINUOUS
 62
    2
 10
1102.7878297331818
 20
859.1088155339711
 40
1.0034861863992508
 50
29.999999999999559
 51
150.00000000000043
  0
ARC
  8
_0-0_計極細
  6
CONTINUOUS
 62
    2
 10
1105.3949599031121
 20
884.69766210945897
 40
0.501740082747087
 50
150.00000000009922
 51
209.99999999985545
  0
ARC
  8
_0-0_計極細
  6
CONTINUOUS
 62
    2
 10
1108.2917678580816
 20
880.68372338476775
 40
1.0034861863992508
 50
210.00000000005113
 51
330.00000000002603
  0
ARC
  8
_0-0_計極細
  6
CONTINUOUS
 62
    2
 10
1100.6152222617266
 20
881.9380766020862
 40
0.501740082747087
 50
29.99999999995967
 51
89.999999999999901
  0
ARC
  8
_0-0_計極細
  6
CONTINUOUS
 62
    2
 10
1102.6429908406608
 20
877.42239779464853
 40
1.0034861863992508
 50
269.99999999999977
 51
30.000000000002665
  0
LINE
  8
_0-0_計極細
  6
CONTINUOUS
 62
    2
 10
1109.5073103212799
 20
856.50168536404362
 11
1109.5073103212799
 21
868.54349551721543
  0
LINE
  8
_0-0_計極細
  6
CONTINUOUS
 62
    2
 10
1110.0090564249313
 20
855.63263996710054
 11
1110.0090564249313
 21
867.67445012027065
  0
ARC
  8
_0-0_計極細
  6
CONTINUOUS
 62
    2
 10
1108.2917678580816
 20
880.68372338476775
 40
1.0034861863992508
 50
253.22134500003193
 51
330.00000000002603
  0
LINE
  8
_0-0_計極細
  6
CONTINUOUS
 62
    2
 10
1107.1110262262282
 20
914.76405107963092
 11
1098.1529370052276
 21
899.24817869726974
  0
ARC
  8
_0-0_計極細
  6
CONTINUOUS
 62
    2
 10
1108.0020840521329
 20
874.66281830818116
 40
37.630656728658437
 50
93.595995000000485
 51
105.50677600000017
  0
LINE
  8
_0-0_計極細
  6
CONTINUOUS
 62
    2
 10
1100.5575781165235
 20
915.45495595807506
 11
1093.9525609548391
 21
904.01473055653469
  0
LINE
  8
_0-0_計極細
  6
CONTINUOUS
 62
    2
 10
1111.7874993246432
 20
915.83955331165089
 11
1099.456499079738
 21
894.48163285890951
  0
ARC
  8
_0-0_計極細
  6
CONTINUOUS
 62
    2
 10
1099.8910217782104
 20
894.23075980708415
 40
0.501740082747087
 50
149.9999999999884
 51
210.00000000001123
  0
ARC
  8
_0-0_計極細
  6
CONTINUOUS
 62
    2
 10
1108.0020840521329
 20
874.66281830818116
 40
27.094072844634088
 50
110.2210389999981
 51
115.21980799999808
  0
ARC
  8
_0-0_計極細
  6
CONTINUOUS
 62
    2
 10
1097.2838916082828
 20
899.74992480092305
 40
1.0034861863992508
 50
210.00000000000267
 51
330.00000000002257
  0
ARC
  8
_0-0_計極細
  6
CONTINUOUS
 62
    2
 10
1094.3870836533106
 20
903.76385750470854
 40
0.501740082747087
 50
149.99999999999537
 51
209.9999999999593
  0
ARC
  8
_0-0_計極細
  6
CONTINUOUS
 62
    2
 10
1108.0020840521329
 20
874.66281830818116
 40
37.630656728658437
 50
113.77152300000098
 51
116.31964599999986
  0
ARC
  8
_0-0_計極細
  6
CONTINUOUS
 62
    2
 10
1093.7704466389869
 20
912.7306529544511
 40
1.0034861863992508
 50
330.00000000002257
 51
110.49822999994124
  0
ARC
  8
_0-0_計極細
  6
CONTINUOUS
 62
    2
 10
1091.7799534833839
 20
909.28302249854642
 40
1.0034861863992508
 50
209.9999999999992
 51
330.00000000000011
  0
LINE
  8
_0-0_計極細
  6
CONTINUOUS
 62
    2
 10
1094.6394860150276
 20
912.22891287170376
 11
1092.6489988803287
 21
908.7812824158018
  0
ARC
  8
_0-0_計極細
  6
CONTINUOUS
 62
    2
 10
1108.0020840521329
 20
874.66281830818116
 40
27.094072844634088
 50
124.78019199999984
 51
129.77896100000024
  0
ARC
  8
_0-0_計極細
  6
CONTINUOUS
 62
    2
 10
1089.6073460119287
 20
901.00427801824344
 40
0.501740082747087
 50
30.000000000063526
 51
89.999999999999915
  0
ARC
  8
_0-0_計極細
  6
CONTINUOUS
 62
    2
 10
1091.6351145908602
 20
896.4885992108043
 40
1.0034861863992508
 50
269.99999999999977
 51
29.999999999999204
  0
ARC
  8
_0-0_計極細
  6
CONTINUOUS
 62
    2
 10
1095.1112841368276
 20
891.47118032061871
 40
0.501740082747087
 50
29.99999999995967
 51
89.999999999999901
  0
LINE
  8
_0-0_計極細
  6
CONTINUOUS
 62
    2
 10
1106.4968577829868
 20
894.63408217544929
 11
1106.4968577829868
 21
901.71504586253423
  0
LINE
  8
_0-0_計極細
  6
CONTINUOUS
 62
    2
 10
1105.9951177002395
 20
893.76504279941082
 11
1105.9951177002395
 21
901.68245470335421
  0
ARC
  8
_0-0_計極細
  6
CONTINUOUS
 62
    2
 10
1106.2419868501902
 20
915.26579718328458
 40
1.0034861863992508
 50
329.99999999997414
 51
92.482164000031602
  0
ARC
  8
_0-0_計極細
  6
CONTINUOUS
 62
    2
 10
1108.0020840521329
 20
874.66281830818116
 40
27.094072844634088
 50
84.624317999999832
 51
99.709017000000401
  0
ARC
  8
_0-0_計極細
  6
CONTINUOUS
 62
    2
 10
1100.992100814995
 20
915.20408290624971
 40
0.501740082747087
 50
99.810008999948636
 51
149.99999999993648
  0
ARC
  8
_0-0_計極細
  6
CONTINUOUS
 62
    2
 10
1102.7878297331818
 20
890.21682108239156
 40
1.0034861863992508
 50
209.9999999999992
 51
330.00000000000011
  0
ARC
  8
_0-0_計極細
  6
CONTINUOUS
 62
    2
 10
1108.0020840521329
 20
874.66281830818116
 40
27.094072844634088
 50
84.624317999999832
 51
89.999999999999915
  0
ARC
  8
_0-0_計極細
  6
CONTINUOUS
 62
    2
 10
1108.0020840521329
 20
874.66281830818116
 40
27.094072844634088
 50
20.290983000001571
 51
35.37568200000068
  0
LINE
  8
_0-0_計極細
  6
CONTINUOUS
 62
    2
 10
1134.9844209403554
 20
905.84358649445403
 11
1118.4305987109374
 21
877.17153076372733
  0
LINE
  8
_0-0_計極細
  6
CONTINUOUS
 62
    2
 10
1129.7965682901668
 20
908.89977382770803
 11
1112.2024601025214
 21
878.42588398104726
  0
ARC
  8
_0-0_計極細
  6
CONTINUOUS
 62
    2
 10
1108.0020840521329
 20
874.66281830818116
 40
27.094072844634088
 50
303.71622000000156
 51
316.68065099999922
  0
ARC
  8
_0-0_計極細
  6
CONTINUOUS
 62
    2
 10
1124.0793757283582
 20
871.40149271806376
 40
1.0034861863992508
 50
89.999999999999915
 51
210.00000000002515
  0
ARC
  8
_0-0_計極細
  6
CONTINUOUS
 62
    2
 10
1117.9960760124659
 20
871.9032388217156
 40
0.501740082747087
 50
30.0000000001085
 51
89.999999999999915
  0
ARC
  8
_0-0_計極細
  6
CONTINUOUS
 62
    2
 10
1124.0793757283582
 20
877.92414389830162
 40
1.0034861863992508
 50
149.99999999997448
 51
269.99999999999977
  0
ARC
  8
_0-0_計極細
  6
CONTINUOUS
 62
    2
 10
1117.9960760124659
 20
877.42239779464853
 40
0.501740082747087
 50
269.99999999999977
 51
329.99999999989114
  0
ARC
  8
_0-0_計極細
  6
CONTINUOUS
 62
    2
 10
1108.0020840521329
 20
874.66281830818116
 40
27.094072844634088
 50
324.62431799999973
 51
339.7090169999999
  0
ARC
  8
_0-0_計極細
  6
CONTINUOUS
 62
    2
 10
1108.0020840521329
 20
874.66281830818116
 40
27.094072844634088
 50
350.22103899999934
 51
355.21980800000068
  0
ARC
  8
_0-0_計極細
  6
CONTINUOUS
 62
    2
 10
1108.0020840521329
 20
874.66281830818116
 40
27.094072844634088
 50
4.7801919999998796
 51
9.778961000001221
  0
ARC
  8
_0-0_計極細
  6
CONTINUOUS
 62
    2
 10
1135.0872519781578
 20
871.40149271806376
 40
1.0034861863992508
 50
89.999999999999915
 51
210.00000000002515
  0
ARC
  8
_0-0_計極細
  6
CONTINUOUS
 62
    2
 10
1129.0039522622646
 20
871.9032388217156
 40
0.501740082747087
 50
30.000000000056566
 51
89.999999999999915
  0
ARC
  8
_0-0_計極細
  6
CONTINUOUS
 62
    2
 10
1135.0872519781578
 20
877.92414389830162
 40
1.0034861863992508
 50
149.99999999997448
 51
269.99999999999977
  0
ARC
  8
_0-0_計極細
  6
CONTINUOUS
 62
    2
 10
1129.0039522622646
 20
877.42239779464853
 40
0.501740082747087
 50
269.99999999999977
 51
329.9999999999431
  0
ARC
  8
_0-0_計極細
  6
CONTINUOUS
 62
    2
 10
1108.0020840521329
 20
874.66281830818116
 40
27.094072844634088
 50
43.319349000001104
 51
56.28377999999919
  0
ARC
  8
_0-0_計極細
  6
CONTINUOUS
 62
    2
 10
1108.0020840521329
 20
874.66281830818116
 40
37.630656728658437
 50
62.674774000000312
 51
71.927081999999317
  0
ARC
  8
_0-0_計極細
  6
CONTINUOUS
 62
    2
 10
1108.0020840521329
 20
874.66281830818116
 40
27.094072844634088
 50
63.716220000000746
 51
76.680650999998889
  0
ARC
  8
_0-0_計極細
  6
CONTINUOUS
 62
    2
 10
1121.9487761116225
 20
913.36971784018397
 40
0.501740082747087
 50
70.185127999891137
 51
149.99999999993648
  0
ARC
  8
_0-0_計極細
  6
CONTINUOUS
 62
    2
 10
1116.7250328462724
 20
914.35677297663096
 40
1.0034861863992508
 50
329.99999999999665
 51
77.605965999942228
  0
ARC
  8
_0-0_計極細
  6
CONTINUOUS
 62
    2
 10
1108.0020840521329
 20
874.66281830818116
 40
37.630656728658437
 50
48.072918000001373
 51
57.325226000001372
  0
ARC
  8
_0-0_計極細
  6
CONTINUOUS
 62
    2
 10
1130.6656076662048
 20
908.39802772405619
 40
1.0034861863992508
 50
56.106549999971008
 51
149.99999999999699
  0
ARC
  8
_0-0_計極細
  6
CONTINUOUS
 62
    2
 10
1134.5498982418831
 20
906.09445352537432
 40
0.501740082747087
 50
330.00000000009186
 51
49.814871999965682
  0
ARC
  8
_0-0_計極細
  6
CONTINUOUS
 62
    2
 10
1125.8858760457288
 20
911.15761323142658
 40
1.0034861863992508
 50
330.00000000000011
 51
63.893449999974756
  0
ARC
  8
_0-0_計極細
  6
CONTINUOUS
 62
    2
 10
1138.0165848623528
 20
847.26154684473022
 40
1.0034861863992508
 50
210.00000000002515
 51
317.6059660000256
  0
ARC
  8
_0-0_計極細
  6
CONTINUOUS
 62
    2
 10
1141.334958528073
 20
850.54531234806916
 40
0.501740082747087
 50
324.11293799996702
 51
29.999999999959307
  0
ARC
  8
_0-0_計極細
  6
CONTINUOUS
 62
    2
 10
1108.0020840521329
 20
874.66281830818116
 40
37.630656728658437
 50
14.493223999999607
 51
26.404005000000534
  0
LINE
  8
_0-0_計極細
  6
CONTINUOUS
 62
    2
 10
1147.0513683722211
 20
888.61175616526634
 11
1140.4463512105358
 21
877.17153076372733
  0
ARC
  8
_0-0_計極細
  6
CONTINUOUS
 62
    2
 10
1148.0856213835623
 20
867.95386226215942
 40
1.0034861863992508
 50
209.99999999997672
 51
350.4982300000064
  0
ARC
  8
_0-0_計極細
  6
CONTINUOUS
 62
    2
 10
1148.0856213835623
 20
881.37177435420472
 40
1.0034861863992508
 50
9.5017699999932326
 51
150.00000000000043
  0
ARC
  8
_0-0_計極細
  6
CONTINUOUS
 62
    2
 10
1108.0020840521329
 20
874.66281830818116
 40
37.630656728658437
 50
3.6803540000001762
 51
6.228477000000372
  0
ARC
  8
_0-0_計極細
  6
CONTINUOUS
 62
    2
 10
1108.0020840521329
 20
874.66281830818116
 40
37.630656728658437
 50
353.77152300000063
 51
356.31964600000015
  0
ARC
  8
_0-0_計極細
  6
CONTINUOUS
 62
    2
 10
1108.0020840521329
 20
874.66281830818116
 40
37.630656728658437
 50
333.59599499999973
 51
345.50677600000074
  0
ARC
  8
_0-0_計極細
  6
CONTINUOUS
 62
    2
 10
1144.0453472200652
 20
855.8856203357027
 40
1.0034861863992508
 50
209.99999999997672
 51
332.48216400001218
  0
ARC
  8
_0-0_計極細
  6
CONTINUOUS
 62
    2
 10
1146.0951282279566
 20
871.40149271806376
 40
1.0034861863992508
 50
89.999999999999915
 51
210.00000000002515
  0
ARC
  8
_0-0_計極細
  6
CONTINUOUS
 62
    2
 10
1140.0118285120634
 20
871.9032388217156
 40
0.501740082747087
 50
30.000000000004636
 51
89.999999999999915
  0
LINE
  8
_0-0_計極細
  6
CONTINUOUS
 62
    2
 10
1147.2165759866175
 20
867.45212217941287
 11
1145.2260888519186
 21
870.89975263531733
  0
LINE
  8
_0-0_計極細
  6
CONTINUOUS
 62
    2
 10
1147.0513683722211
 20
860.71388045109859
 11
1140.4463512105358
 21
872.15410585263544
  0
ARC
  8
_0-0_計極細
  6
CONTINUOUS
 62
    2
 10
1146.0951282279566
 20
877.92414389830162
 40
1.0034861863992508
 50
149.99999999997448
 51
269.99999999999977
  0
ARC
  8
_0-0_計極細
  6
CONTINUOUS
 62
    2
 10
1140.0118285120634
 20
877.42239779464853
 40
0.501740082747087
 50
269.99999999999977
 51
329.999999999995
  0
LINE
  8
_0-0_計極細
  6
CONTINUOUS
 62
    2
 10
1147.2165759866175
 20
881.87351443695115
 11
1145.2260888519186
 21
878.42588398104726
  0
ARC
  8
_0-0_計極細
  6
CONTINUOUS
 62
    2
 10
1138.0165848623528
 20
902.0640897716338
 40
1.0034861863992508
 50
42.394033999974049
 51
149.99999999997448
  0
ARC
  8
_0-0_計極細
  6
CONTINUOUS
 62
    2
 10
1141.334958528073
 20
898.78032426829441
 40
0.501740082747087
 50
330.00000000003996
 51
35.887062000032259
  0
ARC
  8
_0-0_計極細
  6
CONTINUOUS
 62
    2
 10
1144.0453472200652
 20
893.44001628066144
 40
1.0034861863992508
 50
27.517836000010465
 51
150.00000000000043
  0
LINE
  8
_0-0_計極細
  6
CONTINUOUS
 62
    2
 10
1109.5073103212799
 20
847.61058961646359
 11
1109.5073103212799
 21
849.47730126655676
  0
LINE
  8
_0-0_計極細
  6
CONTINUOUS
 62
    2
 10
1110.0090564249313
 20
847.64318016839206
 11
1110.0090564249313
 21
848.60825123499853
  0
LINE
  8
_0-0_計極細
  6
CONTINUOUS
 62
    2
 10
1109.5073103212799
 20
899.84833282240459
 11
1109.5073103212799
 21
901.71504699989907
  0
LINE
  8
_0-0_計極細
  6
CONTINUOUS
 62
    2
 10
1110.0090564249313
 20
900.71738263720727
 11
1110.0090564249313
 21
901.68245644797071
  0
ARC
  8
_0-0_計極細
  6
CONTINUOUS
 62
    2
 10
993.3789648692308
 20
903.67365337689205
 40
54.312365187078846
 50
327.72737804884298
 51
41.725734002916163
  0
ARC
  8
_0-0_計極細
  6
CONTINUOUS
 62
    2
 10
1085.2230286342829
 20
845.6736533770686
 40
54.312365187078846
 50
147.72737804884292
 51
222.9897847706886
  0
LINE
  8
_0-1_計細線
  6
CONTINUOUS
 62
    3
 10
604.49999999999955
 20
936.15638321366566
 11
604.49999999999955
 21
813.15638321366566
  0
LINE
  8
_0-1_計細線
  6
CONTINUOUS
 62
    3
 10
604.49999999999955
 20
813.15638321366566
 11
1041.7206131457745
 21
813.15638321366566
  0
LINE
  8
_0-1_計細線
  6
CONTINUOUS
 62
    3
 10
1036.9071772672371
 20
936.15638321366566
 11
604.49999999999955
 21
936.15638321366566
  0
ARC
  8
_0-1_計細線
  6
CONTINUOUS
 62
    3
 10
604.49999999999955
 20
936.15638321366532
 40
2
 50
89.999999999999915
 51
179.99999999999983
  0
LINE
  8
_0-1_計細線
  6
CONTINUOUS
 62
    3
 10
602.49999999999955
 20
813.15638321366566
 11
602.49999999999955
 21
936.15638321366532
  0
ARC
  8
_0-1_計細線
  6
CONTINUOUS
 62
    3
 10
604.49999999999955
 20
813.15638321366532
 40
2
 50
179.99999999998698
 51
269.99999999999977
  0
LINE
  8
_0-1_計細線
  6
CONTINUOUS
 62
    3
 10
604.49999999999955
 20
938.15638321366521
 11
1035.3405467652794
 21
938.15638321366521
  0
LINE
  8
_0-1_計細線
  6
CONTINUOUS
 62
    3
 10
1043.2898547419918
 20
811.15638321366851
 11
604.49999999999955
 21
811.15638321366532
  0
CIRCLE
  8
_0-1_計細線
  6
CONTINUOUS
 62
    3
 10
1171.9999999999998
 20
930.65638321366578
 40
12.499999999999998
  0
CIRCLE
  8
_0-1_計細線
  6
CONTINUOUS
 62
    3
 10
1172.0000000000005
 20
818.65638321366578
 40
12.499999999999998
  0
LINE
  8
_0-5_寸法線
  6
CONTINUOUS
 62
    7
 10
602.49999999999955
 20
958.65638321366566
 11
602.49999999999977
 21
1012.6563832136657
  0
LINE
  8
_0-5_寸法線
  6
CONTINUOUS
 62
    7
 10
602.49999999999977
 20
1006.6563832136657
 11
614.09110991546856
 21
1009.762211754896
  0
LINE
  8
_0-5_寸法線
  6
CONTINUOUS
 62
    7
 10
602.49999999999977
 20
1006.6563832136657
 11
614.09110991546856
 21
1003.5505546724355
  0
LINE
  8
_0-5_寸法線
  6
CONTINUOUS
 62
    7
 10
1179.5000000000005
 20
958.65638321366566
 11
1179.5000000000005
 21
1012.6563832136657
  0
LINE
  8
_0-5_寸法線
  6
CONTINUOUS
 62
    7
 10
1179.5000000000005
 20
1006.6563832136657
 11
1167.9088900845318
 21
1003.5505546724355
  0
LINE
  8
_0-5_寸法線
  6
CONTINUOUS
 62
    7
 10
1179.5000000000005
 20
1006.6563832136657
 11
1167.9088900845318
 21
1009.762211754896
  0
LINE
  8
_0-5_寸法線
  6
CONTINUOUS
 62
    7
 10
602.49999999999977
 20
1006.6563832136657
 11
1179.5000000000005
 21
1006.6563832136657
  0
TEXT
  8
_0-5_寸法線
 62
    7
 10
877.50000000000023
 20
1006.6563832136657
 40
18
 41
1
 50
0
  1
577
  0
LINE
  8
_0-5_寸法線
  6
CONTINUOUS
 62
    7
 10
1188
 20
958.65638321366566
 11
1188.0000000000007
 21
1054.6563832136658
  0
LINE
  8
_0-5_寸法線
  6
CONTINUOUS
 62
    7
 10
1188.0000000000007
 20
1048.6563832136658
 11
1199.5911099154696
 21
1051.762211754896
  0
LINE
  8
_0-5_寸法線
  6
CONTINUOUS
 62
    7
 10
1188.0000000000007
 20
1048.6563832136658
 11
1199.5911099154696
 21
1045.5505546724355
  0
LINE
  8
_0-5_寸法線
  6
CONTINUOUS
 62
    7
 10
1185.5000000000002
 20
958.65638321366566
 11
1185.5000000000023
 21
1054.6563832136658
  0
LINE
  8
_0-5_寸法線
  6
CONTINUOUS
 62
    7
 10
1236.0000000000007
 20
1048.6563832136658
 11
1185.5000000000018
 21
1048.6563832136658
  0
TEXT
  8
_0-5_寸法線
 62
    7
 10
1207.5947399154156
 20
1048.6563832136653
 40
18
 41
1
 50
0
  1
2.5
  0
LINE
  8
_0-5_寸法線
  6
CONTINUOUS
 62
    7
 10
1185.5000000000018
 20
1048.6563832136658
 11
1173.9088900845331
 21
1045.5505546724355
  0
LINE
  8
_0-5_寸法線
  6
CONTINUOUS
 62
    7
 10
1185.5000000000018
 20
1048.6563832136658
 11
1173.9088900845331
 21
1051.762211754896
  0
LINE
  8
_0-5_寸法線
  6
CONTINUOUS
 62
    7
 10
596.50000000000023
 20
958.65638321366566
 11
596.50000000000205
 21
1054.6563832136658
  0
LINE
  8
_0-5_寸法線
  6
CONTINUOUS
 62
    7
 10
596.50000000000193
 20
1048.6563832136658
 11
608.09110991547072
 21
1051.762211754896
  0
LINE
  8
_0-5_寸法線
  6
CONTINUOUS
 62
    7
 10
596.50000000000193
 20
1048.6563832136658
 11
608.09110991547072
 21
1045.5505546724355
  0
LINE
  8
_0-5_寸法線
  6
CONTINUOUS
 62
    7
 10
1185.5000000000018
 20
1048.6563832136658
 11
596.50000000000193
 21
1048.6563832136658
  0
TEXT
  8
_0-5_寸法線
 62
    7
 10
877.50000000000159
 20
1048.6563832136653
 40
18
 41
1
 50
0
  1
589
  0
LINE
  8
_0-5_寸法線
  6
CONTINUOUS
 62
    7
 10
594.00000000000011
 20
958.65638321366566
 11
594.00000000000114
 21
1054.6563832136658
  0
LINE
  8
_0-5_寸法線
  6
CONTINUOUS
 62
    7
 10
594.00000000000114
 20
1048.6563832136658
 11
582.40889008453235
 21
1045.5505546724355
  0
LINE
  8
_0-5_寸法線
  6
CONTINUOUS
 62
    7
 10
594.00000000000114
 20
1048.6563832136658
 11
582.40889008453235
 21
1051.762211754896
  0
LINE
  8
_0-5_寸法線
  6
CONTINUOUS
 62
    7
 10
596.50000000000193
 20
1048.6563832136658
 11
546.00000000000114
 21
1048.6563832136658
  0
TEXT
  8
_0-5_寸法線
 62
    7
 10
549.26306245913634
 20
1048.6563832136658
 40
18
 41
1
 50
0
  1
2.5
  0
LINE
  8
_0-5_寸法線
  6
CONTINUOUS
 62
    7
 10
594
 20
958.65638321366566
 11
594
 21
1096.6563832136658
  0
LINE
  8
_0-5_寸法線
  6
CONTINUOUS
 62
    7
 10
594
 20
1090.6563832136658
 11
605.59110991546879
 21
1093.762211754896
  0
LINE
  8
_0-5_寸法線
  6
CONTINUOUS
 62
    7
 10
594
 20
1090.6563832136658
 11
605.59110991546879
 21
1087.5505546724355
  0
LINE
  8
_0-5_寸法線
  6
CONTINUOUS
 62
    7
 10
1188
 20
958.65638321366566
 11
1188
 21
1096.6563832136658
  0
LINE
  8
_0-5_寸法線
  6
CONTINUOUS
 62
    7
 10
1188
 20
1090.6563832136658
 11
1176.4088900845311
 21
1087.5505546724355
  0
LINE
  8
_0-5_寸法線
  6
CONTINUOUS
 62
    7
 10
1188
 20
1090.6563832136658
 11
1176.4088900845311
 21
1093.762211754896
  0
LINE
  8
_0-5_寸法線
  6
CONTINUOUS
 62
    7
 10
594
 20
1090.6563832136658
 11
1188
 21
1090.6563832136658
  0
TEXT
  8
_0-5_寸法線
 62
    7
 10
877.5
 20
1090.6563832136658
 40
18
 41
1
 50
0
  1
594
  0
LINE
  8
_0-5_寸法線
  6
CONTINUOUS
 62
    7
 10
594
 20
790.65638321366566
 11
594
 21
736.65638321366578
  0
LINE
  8
_0-5_寸法線
  6
CONTINUOUS
 62
    7
 10
594
 20
742.65638321366578
 11
605.59110991546879
 21
745.76221175489604
  0
LINE
  8
_0-5_寸法線
  6
CONTINUOUS
 62
    7
 10
594
 20
742.65638321366578
 11
605.59110991546879
 21
739.55055467243551
  0
LINE
  8
_0-5_寸法線
  6
CONTINUOUS
 62
    7
 10
1108
 20
790.65638321366566
 11
1108
 21
736.65638321366578
  0
LINE
  8
_0-5_寸法線
  6
CONTINUOUS
 62
    7
 10
1108
 20
742.65638321366578
 11
1096.4088900845309
 21
739.55055467243562
  0
LINE
  8
_0-5_寸法線
  6
CONTINUOUS
 62
    7
 10
1108
 20
742.65638321366578
 11
1096.4088900845309
 21
745.76221175489604
  0
LINE
  8
_0-5_寸法線
  6
CONTINUOUS
 62
    7
 10
594
 20
742.65638321366578
 11
1108
 21
742.65638321366578
  0
TEXT
  8
_0-5_寸法線
 62
    7
 10
837.49999999999989
 20
742.65638321366578
 40
18
 41
1
 50
0
  1
514
  0
LINE
  8
_0-5_寸法線
  6
CONTINUOUS
 62
    7
 10
1108
 20
742.65638321366578
 11
1119.5911099154689
 21
745.76221175489593
  0
LINE
  8
_0-5_寸法線
  6
CONTINUOUS
 62
    7
 10
1108
 20
742.65638321366578
 11
1119.5911099154689
 21
739.55055467243551
  0
LINE
  8
_0-5_寸法線
  6
CONTINUOUS
 62
    7
 10
1188
 20
790.65638321366566
 11
1188
 21
736.65638321366578
  0
LINE
  8
_0-5_寸法線
  6
CONTINUOUS
 62
    7
 10
1188
 20
742.65638321366578
 11
1176.4088900845311
 21
739.55055467243562
  0
LINE
  8
_0-5_寸法線
  6
CONTINUOUS
 62
    7
 10
1188
 20
742.65638321366578
 11
1176.4088900845311
 21
745.76221175489604
  0
LINE
  8
_0-5_寸法線
  6
CONTINUOUS
 62
    7
 10
1108
 20
742.65638321366578
 11
1188
 21
742.65638321366578
  0
TEXT
  8
_0-5_寸法線
 62
    7
 10
1139
 20
742.65638321366578
 40
18
 41
1
 50
0
  1
80
  0
LINE
  8
_0-0_計極細
  6
CENTER2
 62
    2
 10
1153
 20
604.15638321366578
 11
1153
 21
555.03030850860705
  0
LINE
  8
_0-1_計細線
  6
DASHED2
 62
    3
 10
1159.9999998469184
 20
597.15638321366623
 11
1159.5
 21
597.65638306058463
  0
LINE
  8
_0-1_計細線
  6
DASHED2
 62
    3
 10
1160.9999998469193
 20
596.15638321366578
 11
1159.9999998469184
 21
597.15638321366623
  0
LINE
  8
_0-1_計細線
  6
DASHED2
 62
    3
 10
1160.9999998469193
 20
592.15638397907151
 11
1160.9999998469193
 21
596.15638321366578
  0
LINE
  8
_0-1_計細線
  6
DASHED2
 62
    3
 10
1160.9999998469193
 20
586.15638321366578
 11
1160.9999998469193
 21
592.15638397907151
  0
LINE
  8
_0-1_計細線
  6
DASHED2
 62
    3
 10
1159.5
 20
597.65638306058463
 11
1158.9999998469193
 21
598.15638321366578
  0
ARC
  8
_0-1_計細線
  6
DASHED2
 62
    3
 10
1157.9999998469193
 20
566.15638321366578
 40
3
 50
269.99999999999977
 51
359.99999999999966
  0
LINE
  8
_0-1_計細線
  6
DASHED2
 62
    3
 10
1160.9999998469193
 20
580.15638321366578
 11
1160.9999998469193
 21
566.15638321366578
  0
LINE
  8
_0-1_計細線
  6
DASHED2
 62
    3
 10
1148.0000001530807
 20
563.15638321366578
 11
1157.9999998469193
 21
563.15638321366578
  0
ARC
  8
_0-1_計細線
  6
DASHED2
 62
    3
 10
1148.0000001530807
 20
566.15638321366578
 40
3
 50
179.99999999999983
 51
269.99999999999977
  0
LINE
  8
_0-1_計細線
  6
DASHED2
 62
    3
 10
1145.0000001530807
 20
580.15638321366578
 11
1145.0000001530807
 21
566.15638321366578
  0
LINE
  8
_0-1_計細線
  6
DASHED2
 62
    3
 10
1160.9999998469193
 20
586.15638321366578
 11
1158.9999998469193
 21
584.15638321366578
  0
LINE
  8
_0-1_計細線
  6
DASHED2
 62
    3
 10
1158.9999998469193
 20
584.15638321366578
 11
1158.9999998469193
 21
582.15638321366578
  0
LINE
  8
_0-1_計細線
  6
DASHED2
 62
    3
 10
1158.9999998469193
 20
582.15638321366578
 11
1160.9999998469193
 21
580.15638321366578
  0
LINE
  8
_0-1_計細線
  6
DASHED2
 62
    3
 10
1145.0000001530807
 20
586.15638321366578
 11
1147.0000001530807
 21
584.15638321366578
  0
LINE
  8
_0-1_計細線
  6
DASHED2
 62
    3
 10
1147.0000001530807
 20
584.15638321366578
 11
1147.0000001530807
 21
582.15638321366578
  0
LINE
  8
_0-1_計細線
  6
DASHED2
 62
    3
 10
1147.0000001530807
 20
582.15638321366578
 11
1145.0000001530807
 21
580.15638321366578
  0
LINE
  8
_0-1_計細線
  6
DASHED2
 62
    3
 10
1158.9999998469193
 20
598.15638321366578
 11
1147.0000001530807
 21
598.15638321366578
  0
LINE
  8
_0-1_計細線
  6
DASHED2
 62
    3
 10
1145.0000001530807
 20
586.15638321366578
 11
1145.0000001530807
 21
596.15638321366578
  0
LINE
  8
_0-1_計細線
  6
DASHED2
 62
    3
 10
1147.0000001530807
 20
598.15638321366578
 11
1145.0000001530807
 21
596.15638321366578
  0
LINE
  8
_0-5_寸法線
  6
CONTINUOUS
 62
    7
 10
594
 20
634.65638321366623
 11
594
 21
688.65638321366578
  0
LINE
  8
_0-5_寸法線
  6
CONTINUOUS
 62
    7
 10
594
 20
682.65638321366578
 11
605.59110991546879
 21
685.76221175489604
  0
LINE
  8
_0-5_寸法線
  6
CONTINUOUS
 62
    7
 10
594
 20
682.65638321366578
 11
605.59110991546879
 21
679.55055467243551
  0
LINE
  8
_0-5_寸法線
  6
CONTINUOUS
 62
    7
 10
629
 20
634.65638321366623
 11
629
 21
688.65638321366578
  0
LINE
  8
_0-5_寸法線
  6
CONTINUOUS
 62
    7
 10
629
 20
682.65638321366578
 11
617.40889008453121
 21
679.55055467243562
  0
LINE
  8
_0-5_寸法線
  6
CONTINUOUS
 62
    7
 10
629
 20
682.65638321366578
 11
617.40889008453121
 21
685.76221175489604
  0
LINE
  8
_0-5_寸法線
  6
CONTINUOUS
 62
    7
 10
594
 20
682.65638321366578
 11
629
 21
682.65638321366578
  0
TEXT
  8
_0-5_寸法線
 62
    7
 10
602.5
 20
682.65638321366578
 40
18
 41
1
 50
0
  1
35
  0
LINE
  8
_0-5_寸法線
  6
CONTINUOUS
 62
    7
 10
629
 20
682.65638321366578
 11
640.59110991546879
 21
685.76221175489593
  0
LINE
  8
_0-5_寸法線
  6
CONTINUOUS
 62
    7
 10
629
 20
682.65638321366578
 11
640.59110991546879
 21
679.55055467243551
  0
LINE
  8
_0-5_寸法線
  6
CONTINUOUS
 62
    7
 10
1153
 20
634.65638321366623
 11
1153
 21
688.65638321366578
  0
LINE
  8
_0-5_寸法線
  6
CONTINUOUS
 62
    7
 10
1153
 20
682.65638321366578
 11
1141.4088900845309
 21
679.55055467243562
  0
LINE
  8
_0-5_寸法線
  6
CONTINUOUS
 62
    7
 10
1153
 20
682.65638321366578
 11
1141.4088900845309
 21
685.76221175489604
  0
LINE
  8
_0-5_寸法線
  6
CONTINUOUS
 62
    7
 10
629
 20
682.65638321366578
 11
1153
 21
682.65638321366578
  0
TEXT
  8
_0-5_寸法線
 62
    7
 10
877.5
 20
682.65638321366578
 40
18
 41
1
 50
0
  1
524
  0
LINE
  8
_0-5_寸法線
  6
CONTINUOUS
 62
    7
 10
1153
 20
682.65638321366578
 11
1164.5911099154689
 21
685.76221175489593
  0
LINE
  8
_0-5_寸法線
  6
CONTINUOUS
 62
    7
 10
1153
 20
682.65638321366578
 11
1164.5911099154689
 21
679.55055467243551
  0
LINE
  8
_0-5_寸法線
  6
CONTINUOUS
 62
    7
 10
1188
 20
634.65638321366623
 11
1188
 21
688.65638321366578
  0
LINE
  8
_0-5_寸法線
  6
CONTINUOUS
 62
    7
 10
1188
 20
682.65638321366578
 11
1176.4088900845311
 21
679.55055467243562
  0
LINE
  8
_0-5_寸法線
  6
CONTINUOUS
 62
    7
 10
1188
 20
682.65638321366578
 11
1176.4088900845311
 21
685.76221175489604
  0
LINE
  8
_0-5_寸法線
  6
CONTINUOUS
 62
    7
 10
1153
 20
682.65638321366578
 11
1188
 21
682.65638321366578
  0
TEXT
  8
_0-5_寸法線
 62
    7
 10
1161.5
 20
682.65638321366578
 40
18
 41
1
 50
0
  1
35
  0
LINE
  8
_0-1_計細線
  6
CONTINUOUS
 62
    3
 10
1159.5
 20
605.15638321366623
 11
1184.5
 21
605.15638321366623
  0
LINE
  8
_0-1_計細線
  6
CONTINUOUS
 62
    3
 10
1159.5
 20
597.15638321366623
 11
1159.5
 21
605.15638321366623
  0
LINE
  8
_0-1_計細線
  6
CONTINUOUS
 62
    3
 10
1184.5
 20
605.15638321366623
 11
1184.5
 21
597.15638321366623
  0
LINE
  8
_0-1_計細線
  6
CONTINUOUS
 62
    3
 10
1159.5
 20
597.15638321366623
 11
1184.5
 21
597.15638321366623
  0
LINE
  8
_0-1_計細線
  6
CONTINUOUS
 62
    3
 10
1161.6784464540551
 20
588.76415094338972
 11
1160
 21
597.15638321366623
  0
ARC
  8
_0-1_計細線
  6
CONTINUOUS
 62
    3
 10
1163.6396078054377
 20
589.15638321366623
 40
2
 50
191.30993247401983
 51
269.99999999999977
  0
LINE
  8
_0-1_計細線
  6
CONTINUOUS
 62
    3
 10
1184
 20
597.15638321366623
 11
1182.3215535459449
 21
588.76415094338972
  0
LINE
  8
_0-1_計細線
  6
CONTINUOUS
 62
    3
 10
1180.3603921945632
 20
587.15638321366623
 11
1163.6396078054377
 21
587.15638321366623
  0
ARC
  8
_0-1_計細線
  6
CONTINUOUS
 62
    3
 10
1180.3603921945632
 20
589.15638321366623
 40
2
 50
269.99999999999977
 51
348.69006752597431
  0
LINE
  8
_0-1_計細線
  6
CONTINUOUS
 62
    3
 10
622.5
 20
605.15638321366623
 11
597.5
 21
605.15638321366623
  0
LINE
  8
_0-1_計細線
  6
CONTINUOUS
 62
    3
 10
622.5
 20
597.15638321366623
 11
622.5
 21
605.15638321366623
  0
LINE
  8
_0-1_計細線
  6
CONTINUOUS
 62
    3
 10
597.5
 20
605.15638321366623
 11
597.5
 21
597.15638321366623
  0
LINE
  8
_0-1_計細線
  6
CONTINUOUS
 62
    3
 10
622.5
 20
597.15638321366623
 11
597.5
 21
597.15638321366623
  0
LINE
  8
_0-1_計細線
  6
CONTINUOUS
 62
    3
 10
620.32155354594488
 20
588.76415094338972
 11
622
 21
597.15638321366623
  0
ARC
  8
_0-1_計細線
  6
CONTINUOUS
 62
    3
 10
618.36039219456234
 20
589.15638321366623
 40
2
 50
269.99999999999977
 51
348.69006752597943
  0
LINE
  8
_0-1_計細線
  6
CONTINUOUS
 62
    3
 10
598
 20
597.15638321366623
 11
599.67844645405512
 21
588.76415094338972
  0
LINE
  8
_0-1_計細線
  6
CONTINUOUS
 62
    3
 10
601.63960780543675
 20
587.15638321366623
 11
618.36039219456234
 21
587.15638321366623
  0
ARC
  8
_0-1_計細線
  6
CONTINUOUS
 62
    3
 10
601.63960780543675
 20
589.15638321366623
 40
2
 50
191.30993247402495
 51
269.99999999999977
  0
LINE
  8
_0-1_計細線
  6
CONTINUOUS
 62
    3
 10
1179.5000000000018
 20
605.15638321366623
 11
1179.5000000000018
 21
622.15638321366623
  0
LINE
  8
_0-1_計細線
  6
CONTINUOUS
 62
    3
 10
1177.5000000000018
 20
607.15638321366623
 11
1177.5000000000018
 21
622.15638321366623
  0
LINE
  8
_0-1_計細線
  6
CONTINUOUS
 62
    3
 10
1179.5000000000018
 20
605.15638321366623
 11
602.49999999999818
 21
605.15638321366623
  0
LINE
  8
_0-1_計細線
  6
CONTINUOUS
 62
    3
 10
1177.5000000000018
 20
607.15638321366623
 11
604.49999999999818
 21
607.15638321366623
  0
LINE
  8
_0-1_計細線
  6
CONTINUOUS
 62
    3
 10
604.49999999999818
 20
607.15638321366623
 11
604.49999999999818
 21
622.15638321366623
  0
LINE
  8
_0-1_計細線
  6
CONTINUOUS
 62
    3
 10
602.49999999999818
 20
605.15638321366623
 11
602.49999999999818
 21
622.15638321366623
  0
LINE
  8
_0-1_計細線
  6
CONTINUOUS
 62
    3
 10
1179.5000000000018
 20
622.15638321366623
 11
602.49999999999818
 21
622.15638321366623
  0
LINE
  8
_0-0_計極細
  6
CENTER2
 62
    2
 10
629
 20
604.15638321366578
 11
629
 21
555.03030850860705
  0
ARC
  8
_0-1_計細線
  6
DASHED2
 62
    3
 10
633.99999984691931
 20
566.15638321366578
 40
3
 50
269.99999999999977
 51
359.99999999999966
  0
LINE
  8
_0-1_計細線
  6
DASHED2
 62
    3
 10
636.99999984691931
 20
580.15638321366578
 11
636.99999984691931
 21
566.15638321366578
  0
LINE
  8
_0-1_計細線
  6
DASHED2
 62
    3
 10
624.00000015308069
 20
563.15638321366578
 11
633.99999984691931
 21
563.15638321366578
  0
ARC
  8
_0-1_計細線
  6
DASHED2
 62
    3
 10
624.00000015308069
 20
566.15638321366578
 40
3
 50
179.99999999999983
 51
269.99999999999977
  0
LINE
  8
_0-1_計細線
  6
DASHED2
 62
    3
 10
621.00000015308069
 20
580.15638321366578
 11
621.00000015308069
 21
566.15638321366578
  0
LINE
  8
_0-1_計細線
  6
DASHED2
 62
    3
 10
636.99999984691931
 20
586.15638321366578
 11
634.99999984691931
 21
584.15638321366578
  0
LINE
  8
_0-1_計細線
  6
DASHED2
 62
    3
 10
634.99999984691931
 20
584.15638321366578
 11
634.99999984691931
 21
582.15638321366578
  0
LINE
  8
_0-1_計細線
  6
DASHED2
 62
    3
 10
634.99999984691931
 20
582.15638321366578
 11
636.99999984691931
 21
580.15638321366578
  0
LINE
  8
_0-1_計細線
  6
DASHED2
 62
    3
 10
621.00000015308069
 20
586.15638321366578
 11
623.00000015308069
 21
584.15638321366578
  0
LINE
  8
_0-1_計細線
  6
DASHED2
 62
    3
 10
623.00000015308069
 20
584.15638321366578
 11
623.00000015308069
 21
582.15638321366578
  0
LINE
  8
_0-1_計細線
  6
DASHED2
 62
    3
 10
623.00000015308069
 20
582.15638321366578
 11
621.00000015308069
 21
580.15638321366578
  0
LINE
  8
_0-1_計細線
  6
DASHED2
 62
    3
 10
636.99999984691931
 20
586.15638321366578
 11
636.99999984691931
 21
596.15638321366578
  0
LINE
  8
_0-1_計細線
  6
DASHED2
 62
    3
 10
636.99999984691931
 20
596.15638321366578
 11
634.99999984691931
 21
598.15638321366578
  0
LINE
  8
_0-1_計細線
  6
DASHED2
 62
    3
 10
634.99999984691931
 20
598.15638321366578
 11
623.00000015308069
 21
598.15638321366578
  0
LINE
  8
_0-1_計細線
  6
DASHED2
 62
    3
 10
621.00000015308069
 20
586.15638321366578
 11
621.00000015308069
 21
596.15638321366578
  0
LINE
  8
_0-1_計細線
  6
DASHED2
 62
    3
 10
623.00000015308069
 20
598.15638321366578
 11
621.00000015308069
 21
596.15638321366578
  0
LINE
  8
_0-1_計細線
  6
DASHED2
 62
    3
 10
599.49999999999886
 20
602.15638321366623
 11
599.49999999999886
 21
605.15638321366623
  0
LINE
  8
_0-1_計細線
  6
DASHED2
 62
    3
 10
602.49999999999818
 20
605.15638321366623
 11
602.49999999999818
 21
602.15638321366623
  0
LINE
  8
_0-1_計細線
  6
CONTINUOUS
 62
    3
 10
597.50000018892979
 20
602.15638321366623
 11
610.00000066576695
 21
602.15638321366623
  0
LINE
  8
_0-1_計細線
  6
CONTINUOUS
 62
    3
 10
610.00000066576695
 20
602.15638321366623
 11
609.99999999999886
 21
605.15638321366623
  0
LINE
  8
_0-1_計細線
  6
CONTINUOUS
 62
    3
 10
597.50000018892979
 20
602.15638321366623
 11
597.49999999999818
 21
605.15638321366623
  0
LINE
  8
_0-1_計細線
  6
CONTINUOUS
 62
    3
 10
597.49999999999818
 20
605.15638321366623
 11
609.99999999999886
 21
605.15638321366623
  0
ARC
  8
_0-1_計細線
  6
CONTINUOUS
 62
    3
 10
1167.4998738399745
 20
585.65638321366623
 40
1.5
 50
89.999999999999915
 51
179.99999999999983
  0
LINE
  8
_0-1_計細線
  6
CONTINUOUS
 62
    3
 10
1185.5
 20
587.15638321366623
 11
1167.4998738399745
 21
587.15638321366623
  0
LINE
  8
_0-1_計細線
  6
CONTINUOUS
 62
    3
 10
1186.5
 20
586.15638321366623
 11
1167.4998738399745
 21
586.15638321366623
  0
LINE
  8
_0-1_計細線
  6
CONTINUOUS
 62
    3
 10
1166.9998738399745
 20
584.65639993366995
 11
1166.9998738399745
 21
585.65638321366623
  0
ARC
  8
_0-1_計細線
  6
CONTINUOUS
 62
    3
 10
1167.4998738399745
 20
585.65638321366623
 40
0.5
 50
89.999999999999915
 51
179.99999999999983
  0
LINE
  8
_0-1_計細線
  6
CONTINUOUS
 62
    3
 10
1166.9998738399745
 20
584.65639993366995
 11
1166.9998738399745
 21
583.65638321366578
  0
ARC
  8
_0-1_計細線
  6
CONTINUOUS
 62
    3
 10
1165.4998738399745
 20
583.65638321366578
 40
1.5
 50
269.99999999999977
 51
359.99999999999966
  0
LINE
  8
_0-1_計細線
  6
CONTINUOUS
 62
    3
 10
1165.9998738399727
 20
585.15636649366206
 11
1165.9998738399727
 21
583.65638321366578
  0
ARC
  8
_0-1_計細線
  6
CONTINUOUS
 62
    3
 10
1165.4998738399727
 20
583.65638321366578
 40
0.5
 50
269.99999999999977
 51
359.99999999999966
  0
LINE
  8
_0-1_計細線
  6
CONTINUOUS
 62
    3
 10
1165.9998738399745
 20
585.65638321366623
 11
1165.9998738399745
 21
585.15636649366206
  0
LINE
  8
_0-1_計細線
  6
CONTINUOUS
 62
    3
 10
1165.4014438569925
 20
583.15638321366578
 11
1165.4998738399745
 21
583.15638321366578
  0
LINE
  8
_0-1_計細線
  6
CONTINUOUS
 62
    3
 10
1165.4998738399745
 20
582.15638321366578
 11
1165.4014438569925
 21
582.15638321366578
  0
LINE
  8
_0-1_計細線
  6
CONTINUOUS
 62
    3
 10
1165.4014438569925
 20
582.15638321366578
 11
1164.8999999999996
 21
582.15638321366578
  0
LINE
  8
_0-1_計細線
  6
CONTINUOUS
 62
    3
 10
1165.4998738399727
 20
583.15638321366578
 11
1164.8999999999996
 21
583.15638321366578
  0
ARC
  8
_0-1_計細線
  6
CONTINUOUS
 62
    3
 10
1048.5001261600255
 20
585.65638321366623
 40
1.5
 50
0
 51
89.999999999999915
  0
LINE
  8
_0-1_計細線
  6
CONTINUOUS
 62
    3
 10
1049.0001261600255
 20
584.65639993366995
 11
1049.0001261600255
 21
585.65638321366623
  0
ARC
  8
_0-1_計細線
  6
CONTINUOUS
 62
    3
 10
1048.5001261600255
 20
585.65638321366623
 40
0.5
 50
0
 51
89.999999999999915
  0
LINE
  8
_0-1_計細線
  6
CONTINUOUS
 62
    3
 10
1049.0001261600255
 20
584.65639993366995
 11
1049.0001261600255
 21
583.65638321366578
  0
ARC
  8
_0-1_計細線
  6
CONTINUOUS
 62
    3
 10
1050.5001261600255
 20
583.65638321366578
 40
1.5
 50
179.99999999999983
 51
269.99999999999977
  0
LINE
  8
_0-1_計細線
  6
CONTINUOUS
 62
    3
 10
1050.0001261600273
 20
585.15636649366206
 11
1050.0001261600273
 21
583.65638321366578
  0
ARC
  8
_0-1_計細線
  6
CONTINUOUS
 62
    3
 10
1050.5001261600273
 20
583.65638321366578
 40
0.5
 50
179.99999999999983
 51
269.99999999999977
  0
LINE
  8
_0-1_計細線
  6
CONTINUOUS
 62
    3
 10
1050.0001261600255
 20
585.65638321366623
 11
1050.0001261600255
 21
585.15636649366206
  0
LINE
  8
_0-1_計細線
  6
CONTINUOUS
 62
    3
 10
1050.5985561430075
 20
583.15638321366578
 11
1050.5001261600255
 21
583.15638321366578
  0
LINE
  8
_0-1_計細線
  6
CONTINUOUS
 62
    3
 10
1050.5001261600255
 20
582.15638321366578
 11
1050.5985561430075
 21
582.15638321366578
  0
LINE
  8
_0-1_計細線
  6
CONTINUOUS
 62
    3
 10
1050.5985561430075
 20
582.15638321366578
 11
1051.1000000000004
 21
582.15638321366578
  0
LINE
  8
_0-1_計細線
  6
CONTINUOUS
 62
    3
 10
1050.5001261600273
 20
583.15638321366578
 11
1051.1000000000004
 21
583.15638321366578
  0
LINE
  8
_0-1_計細線
  6
CONTINUOUS
 62
    3
 10
596.5
 20
587.15638321366623
 11
1048.5001261600255
 21
587.15638321366623
  0
LINE
  8
_0-1_計細線
  6
CONTINUOUS
 62
    3
 10
595.49999999999977
 20
586.15638321366623
 11
1048.5001261600255
 21
586.15638321366623
  0
LINE
  8
_0-1_計細線
  6
CONTINUOUS
 62
    3
 10
1186.750000000002
 20
622.65638321366623
 11
595.26106216253493
 21
622.65638321366623
  0
LINE
  8
_0-1_計細線
  6
CONTINUOUS
 62
    3
 10
594.5
 20
612.65638321366623
 11
595.49999999999977
 21
612.65638321366623
  0
ARC
  8
_0-1_計細線
  6
CONTINUOUS
 62
    3
 10
595.24999999999977
 20
621.40638321366623
 40
1.25
 50
0
 51
180.00000000002049
  0
ARC
  8
_0-1_計細線
  6
CONTINUOUS
 62
    3
 10
595.25
 20
621.40638321366623
 40
0.25
 50
0
 51
89.999999999999915
  0
LINE
  8
_0-1_計細線
  6
CONTINUOUS
 62
    3
 10
595.25
 20
621.65638321366623
 11
595.26106216253493
 21
621.65638321366623
  0
LINE
  8
_0-1_計細線
  6
CONTINUOUS
 62
    3
 10
595.49999999999977
 20
617.7227561888767
 11
595.01325518736394
 21
621.37334228364352
  0
ARC
  8
_0-1_計細線
  6
CONTINUOUS
 62
    3
 10
595.26106216253493
 20
621.40638321366623
 40
0.25
 50
89.999999999999915
 51
187.59464336857042
  0
LINE
  8
_0-1_計細線
  6
CONTINUOUS
 62
    3
 10
594.5
 20
617.52363726324529
 11
594.5
 21
612.65638321366623
  0
LINE
  8
_0-1_計細線
  6
CONTINUOUS
 62
    3
 10
594.48245580136495
 20
617.78796470342741
 11
593.99999999999955
 21
621.40638321366623
  0
ARC
  8
_0-1_計細線
  6
CONTINUOUS
 62
    3
 10
592.49999999999977
 20
617.52363726324529
 40
2
 50
0
 51
7.5946433685940278
  0
LINE
  8
_0-1_計細線
  6
CONTINUOUS
 62
    3
 10
596.5
 20
621.40638321366623
 11
596.5
 21
587.15638321366623
  0
LINE
  8
_0-1_計細線
  6
CONTINUOUS
 62
    3
 10
595.49999999999977
 20
621.40638321366623
 11
595.49999999999977
 21
586.15638321366623
  0
LINE
  8
_0-1_計細線
  6
CONTINUOUS
 62
    3
 10
1187.5
 20
612.65638321366623
 11
1186.5000000000002
 21
612.65638321366623
  0
LINE
  8
_0-1_計細線
  6
CONTINUOUS
 62
    3
 10
1185.5
 20
621.40638321366623
 11
1185.5
 21
587.15638321366623
  0
ARC
  8
_0-1_計細線
  6
CONTINUOUS
 62
    3
 10
1186.75
 20
621.40638321366623
 40
1.25
 50
359.9999999999788
 51
179.99999999999946
  0
LINE
  8
_0-1_計細線
  6
CONTINUOUS
 62
    3
 10
1186.5000000000002
 20
621.40638321366623
 11
1186.5000000000002
 21
586.15638321366623
  0
ARC
  8
_0-1_計細線
  6
CONTINUOUS
 62
    3
 10
1186.75
 20
621.40638321366623
 40
0.25
 50
89.999999999999915
 51
179.99999999999983
  0
LINE
  8
_0-1_計細線
  6
CONTINUOUS
 62
    3
 10
1186.75
 20
621.65638321366623
 11
1186.7389378374651
 21
621.65638321366623
  0
LINE
  8
_0-1_計細線
  6
CONTINUOUS
 62
    3
 10
1186.5000000000002
 20
617.7227561888767
 11
1186.9867448126361
 21
621.37334228364352
  0
ARC
  8
_0-1_計細線
  6
CONTINUOUS
 62
    3
 10
1186.7389378374651
 20
621.40638321366623
 40
0.25
 50
352.4053566314289
 51
89.999999999999545
  0
LINE
  8
_0-1_計細線
  6
CONTINUOUS
 62
    3
 10
1187.5
 20
617.52363726324529
 11
1187.5
 21
612.65638321366623
  0
LINE
  8
_0-1_計細線
  6
CONTINUOUS
 62
    3
 10
1187.5175441986351
 20
617.78796470342741
 11
1188.0000000000005
 21
621.40638321366623
  0
ARC
  8
_0-1_計細線
  6
CONTINUOUS
 62
    3
 10
1189.5000000000002
 20
617.52363726324529
 40
2
 50
172.40535663140597
 51
179.99999999999983
  0
LINE
  8
_0-0_計極細
  6
CONTINUOUS
 62
    2
 10
1108.5
 20
586.15638321366623
 11
1108
 21
586.15638321366623
  0
LINE
  8
_0-0_計極細
  6
CENTER1
 62
    2
 10
1083.659180841335
 20
497.94169921366523
 11
1201.8496149637765
 21
497.94169921366523
  0
ARC
  8
_0-1_計細線
  6
CONTINUOUS
 62
    3
 10
1052.6020399999998
 20
558.00566321366659
 40
4.8979599999999994
 50
0
 51
59.999999999998458
  0
LINE
  8
_0-0_計極細
  6
CONTINUOUS
 62
    2
 10
1133.9693920000009
 20
563.65639993366995
 11
1156.9483920000007
 21
563.65639993366995
  0
LINE
  8
_0-0_計極細
  6
CONTINUOUS
 62
    2
 10
1145.2193920000009
 20
558.45639993366967
 11
1133.9693920000009
 21
558.45639993366967
  0
LINE
  8
_0-0_計極細
  6
CONTINUOUS
 62
    2
 10
1133.9693920000009
 20
563.36073593366973
 11
1133.9693920000009
 21
564.83848893366985
  0
LINE
  8
_0-0_計極細
  6
CONTINUOUS
 62
    2
 10
1133.9693920000009
 20
564.45639993366967
 11
1155.4693920000009
 21
564.45639993366967
  0
LINE
  8
_0-0_計極細
  6
CONTINUOUS
 62
    2
 10
1150.4693920000009
 20
577.96424293366999
 11
1150.4693920000009
 21
578.86346393366966
  0
LINE
  8
_0-0_計極細
  6
CONTINUOUS
 62
    2
 10
1150.4693920000009
 20
571.86424293366963
 11
1150.4693920000009
 21
573.36424293366963
  0
LINE
  8
_0-0_計極細
  6
CONTINUOUS
 62
    2
 10
1146.7193920000009
 20
576.26957393366956
 11
1146.7193920000009
 21
574.96957393366984
  0
LINE
  8
_0-0_計極細
  6
CONTINUOUS
 62
    2
 10
1146.7193920000009
 20
573.96957393366984
 11
1146.7193920000009
 21
573.46957393366984
  0
LINE
  8
_0-0_計極細
  6
CONTINUOUS
 62
    2
 10
1150.3193920000008
 20
576.26957393366956
 11
1150.3193920000008
 21
573.46957393366984
  0
LINE
  8
_0-0_計極細
  6
CONTINUOUS
 62
    2
 10
1146.2193920000009
 20
576.76957393366956
 11
1146.7193920000009
 21
577.26957393366956
  0
LINE
  8
_0-0_計極細
  6
CONTINUOUS
 62
    2
 10
1146.7193920000009
 20
576.26957393366956
 11
1146.2193920000009
 21
576.76957393366956
  0
LINE
  8
_0-0_計極細
  6
CONTINUOUS
 62
    2
 10
1146.7193920000009
 20
573.96957393366984
 11
1146.2193920000009
 21
574.46957393366984
  0
LINE
  8
_0-0_計極細
  6
CONTINUOUS
 62
    2
 10
1146.2193920000009
 20
574.46957393366984
 11
1146.7193920000009
 21
574.96957393366984
  0
LINE
  8
_0-0_計極細
  6
CONTINUOUS
 62
    2
 10
1150.3193920000008
 20
576.26957393366956
 11
1151.119392000001
 21
577.76957393366956
  0
LINE
  8
_0-0_計極細
  6
CONTINUOUS
 62
    2
 10
1146.7193920000009
 20
577.76957393366956
 11
1146.7193920000009
 21
577.26957393366956
  0
ARC
  8
_0-0_計極細
  6
CONTINUOUS
 62
    2
 10
1152.9193920000007
 20
583.86346393366966
 40
0.5
 50
24.054549000029223
 51
89.999999999999915
  0
ARC
  8
_0-0_計極細
  6
CONTINUOUS
 62
    2
 10
1153.2193920000009
 20
582.56346393366994
 40
0.1999999999999886
 50
269.99999999999977
 51
359.99999999999966
  0
ARC
  8
_0-0_計極細
  6
CONTINUOUS
 62
    2
 10
1152.9193920000007
 20
583.86346393366966
 40
0.5
 50
0
 51
24.054549000029223
  0
ARC
  8
_0-0_計極細
  6
CONTINUOUS
 62
    2
 10
1150.7693920000006
 20
579.36346393366966
 40
0.5
 50
269.99999999999977
 51
359.99999999999966
  0
LINE
  8
_0-0_計極細
  6
CONTINUOUS
 62
    2
 10
1150.1693920000007
 20
578.86346393366966
 11
1150.1693920000007
 21
579.86346393366966
  0
LINE
  8
_0-0_計極細
  6
CONTINUOUS
 62
    2
 10
1151.2693920000006
 20
579.36346393366966
 11
1151.2693920000011
 21
582.36346393366966
  0
LINE
  8
_0-0_計極細
  6
CONTINUOUS
 62
    2
 10
1151.2693920000011
 20
582.36346393366966
 11
1153.2193920000009
 21
582.36346393366966
  0
LINE
  8
_0-0_計極細
  6
CONTINUOUS
 62
    2
 10
1153.4193920000007
 20
582.56346393366994
 11
1153.4193920000007
 21
583.86346393366966
  0
LINE
  8
_0-0_計極細
  6
CONTINUOUS
 62
    2
 10
1138.2557050000009
 20
565.66346393366985
 11
1138.2557050000009
 21
567.36346393366966
  0
LINE
  8
_0-0_計極細
  6
CONTINUOUS
 62
    2
 10
1141.7557050000009
 20
565.66346393366985
 11
1141.7557050000009
 21
567.36346393366966
  0
LINE
  8
_0-0_計極細
  6
CONTINUOUS
 62
    2
 10
1136.7557050000009
 20
565.66346393366985
 11
1136.7557050000009
 21
567.36346393366966
  0
LINE
  8
_0-0_計極細
  6
CONTINUOUS
 62
    2
 10
1136.7557050000009
 20
565.66346393366985
 11
1141.7557050000009
 21
565.66346393366985
  0
LINE
  8
_0-0_計極細
  6
CONTINUOUS
 62
    2
 10
1149.9693920000009
 20
567.36346393366966
 11
1155.4693920000009
 21
567.36346393366966
  0
LINE
  8
_0-0_計極細
  6
CONTINUOUS
 62
    2
 10
1149.139208000001
 20
565.36346393366966
 11
1149.9693920000009
 21
565.36346393366966
  0
LINE
  8
_0-0_計極細
  6
CONTINUOUS
 62
    2
 10
1149.9693920000009
 20
570.06346393366994
 11
1151.2693920000006
 21
570.06346393366994
  0
LINE
  8
_0-0_計極細
  6
CONTINUOUS
 62
    2
 10
1149.9693920000009
 20
569.36346393366966
 11
1151.9693920000009
 21
569.36346393366966
  0
LINE
  8
_0-0_計極細
  6
CONTINUOUS
 62
    2
 10
1149.9693920000009
 20
565.36346393366966
 11
1149.9693920000009
 21
571.36346393366966
  0
LINE
  8
_0-0_計極細
  6
CONTINUOUS
 62
    2
 10
1156.9483920000007
 20
568.84246393366993
 11
1155.4693920000009
 21
567.36346393366966
  0
LINE
  8
_0-0_計極細
  6
CONTINUOUS
 62
    2
 10
1151.9693920000009
 20
569.36346393366966
 11
1151.9693920000009
 21
580.61346393366966
  0
ARC
  8
_0-0_計極細
  6
CONTINUOUS
 62
    2
 10
1153.0193920000006
 20
580.61346393366966
 40
1.0500000000000114
 50
89.999999999999915
 51
179.99999999999983
  0
LINE
  8
_0-0_計極細
  6
CONTINUOUS
 62
    2
 10
1154.2106160000008
 20
581.66346393366985
 11
1153.0193920000006
 21
581.66346393366985
  0
ARC
  8
_0-0_計極細
  6
CONTINUOUS
 62
    2
 10
1154.2106160000008
 20
583.36346393366966
 40
1.6999999999999886
 50
269.99999999999977
 51
356.64911199999864
  0
ARC
  8
_0-0_計極細
  6
CONTINUOUS
 62
    2
 10
1154.2106160000008
 20
583.36346393366966
 40
1
 50
269.99999999999977
 51
356.64911200000284
  0
ARC
  8
_0-0_計極細
  6
CONTINUOUS
 62
    2
 10
1156.9483920000007
 20
583.11346393366966
 40
1.7499999999999998
 50
89.999999999999915
 51
175.84901000000218
  0
ARC
  8
_0-0_計極細
  6
CONTINUOUS
 62
    2
 10
1153.0193920000006
 20
580.61346393366966
 40
1.7499999999999998
 50
89.999999999999915
 51
179.99999999999983
  0
LINE
  8
_0-0_計極細
  6
CONTINUOUS
 62
    2
 10
1153.4693920000009
 20
582.36346393366966
 11
1153.4693920000009
 21
584.86346393366966
  0
LINE
  8
_0-0_計極細
  6
CONTINUOUS
 62
    2
 10
1151.2693920000006
 20
570.06346393366994
 11
1151.2693920000006
 21
580.61346393366966
  0
LINE
  8
_0-0_計極細
  6
CONTINUOUS
 62
    2
 10
1154.2106160000008
 20
582.36346393366966
 11
1153.0193920000006
 21
582.36346393366966
  0
LINE
  8
_0-0_計極細
  6
CONTINUOUS
 62
    2
 10
1147.2193920000009
 20
571.36346393366966
 11
1151.2693920000006
 21
571.36346393366966
  0
ARC
  8
_0-0_計極細
  6
CONTINUOUS
 62
    2
 10
1145.2193920000009
 20
557.45639993366967
 40
1
 50
89.999999999999915
 51
179.99999999999983
  0
ARC
  8
_0-0_計極細
  6
CONTINUOUS
 62
    2
 10
1145.2193920000009
 20
557.45639993366967
 40
1
 50
0
 51
89.999999999999915
  0
LINE
  8
_0-0_計極細
  6
CONTINUOUS
 62
    2
 10
1156.9483920000007
 20
563.65639993366995
 11
1155.4693920000009
 21
564.45639993366967
  0
LINE
  8
_0-0_計極細
  6
CONTINUOUS
 62
    2
 10
1155.4693920000009
 20
564.45639993366967
 11
1155.4693920000009
 21
567.36346393366966
  0
LINE
  8
_0-0_計極細
  6
CONTINUOUS
 62
    2
 10
1156.9483920000007
 20
568.84246393366993
 11
1156.9483920000007
 21
584.16346393366985
  0
ARC
  8
_0-0_計極細
  6
CONTINUOUS
 62
    2
 10
1156.9483920000007
 20
583.11346393366966
 40
1.0500000000000114
 50
89.999999999999915
 51
175.84900999999832
  0
LINE
  8
_0-0_計極細
  6
CONTINUOUS
 62
    2
 10
1147.4693920000009
 20
564.46424293366999
 11
1144.4693920000009
 21
564.46424293366999
  0
ARC
  8
_0-0_計極細
  6
CONTINUOUS
 62
    2
 10
1147.4693920000009
 20
566.46424293366999
 40
2
 50
269.99999999999977
 51
359.99999999999966
  0
LINE
  8
_0-0_計極細
  6
CONTINUOUS
 62
    2
 10
1149.4693920000009
 20
566.46424293366999
 11
1149.4693920000009
 21
567.46424293366999
  0
LINE
  8
_0-0_計極細
  6
CONTINUOUS
 62
    2
 10
1149.4693920000009
 20
567.46424293366999
 11
1147.2193920000009
 21
567.46424293366999
  0
LINE
  8
_0-0_計極細
  6
CONTINUOUS
 62
    2
 10
1150.4693920000009
 20
571.86424293366963
 11
1147.2193920000009
 21
571.86424293366963
  0
LINE
  8
_0-0_計極細
  6
CONTINUOUS
 62
    2
 10
1147.2193920000009
 20
567.46424293366999
 11
1147.2193920000009
 21
571.86424293366963
  0
LINE
  8
_0-1_計細線
  6
CONTINUOUS
 62
    3
 10
1065.5
 20
469.65638321366617
 11
1158.5
 21
469.65638321366617
  0
LINE
  8
_0-1_計細線
  6
CONTINUOUS
 62
    3
 10
1057.5
 20
477.65638321366623
 11
1057.5
 21
558.00566321366659
  0
ARC
  8
_0-1_計細線
  6
CONTINUOUS
 62
    3
 10
1065.5
 20
477.65638321366623
 40
8
 50
179.99999999999983
 51
269.99999999999977
  0
ARC
  8
_0-0_計極細
  6
CONTINUOUS
 62
    2
 10
1134.2193920000009
 20
500.15638321366572
 40
10
 50
269.99999999999977
 51
359.99999999999966
  0
LINE
  8
_0-0_計極細
  6
CONTINUOUS
 62
    2
 10
1144.2193920000009
 20
500.15638321366572
 11
1144.2193920000009
 21
557.45639993366967
  0
LINE
  8
_0-0_計極細
  6
CONTINUOUS
 62
    2
 10
1146.2193920000009
 20
500.15638321366572
 11
1146.2193920000009
 21
557.45639993366967
  0
ARC
  8
_0-0_計極細
  6
CONTINUOUS
 62
    2
 10
1134.2193920000009
 20
500.15638321366572
 40
12
 50
269.99999999999977
 51
359.99999999999966
  0
LINE
  8
_0-0_計極細
  6
CONTINUOUS
 62
    2
 10
1146.2193920000009
 20
500.15638321366572
 11
1146.2193920000009
 21
527.15638321366578
  0
ARC
  8
_0-0_計極細
  6
CONTINUOUS
 62
    2
 10
1132.9693920000009
 20
506.36422621366586
 40
1
 50
269.99954163376469
 51
359.99999999999966
  0
LINE
  8
_0-0_計極細
  6
CONTINUOUS
 62
    2
 10
1133.9693920000009
 20
506.36422621366586
 11
1133.9693920000009
 21
564.83848893366985
  0
LINE
  8
_0-0_計極細
  6
CONTINUOUS
 62
    2
 10
1146.2932760000008
 20
525.44281448912852
 11
1146.2932760000008
 21
532.02407393366957
  0
ARC
  8
_0-0_計極細
  6
CONTINUOUS
 62
    2
 10
1149.2932760000008
 20
532.02407393366957
 40
3
 50
89.999999999999915
 51
179.99999999999983
  0
ARC
  8
_0-1_計細線
  6
CONTINUOUS
 62
    3
 10
1163.3979603061621
 20
558.00566321366659
 40
4.8979599999999994
 50
120.00000000000155
 51
179.99999999999983
  0
LINE
  8
_0-1_計細線
  6
CONTINUOUS
 62
    3
 10
1160.9489763061615
 20
562.24742321366557
 11
1160.9489763061615
 21
579.45639993367013
  0
LINE
  8
_0-1_計細線
  6
CONTINUOUS
 62
    3
 10
1158.5000003061618
 20
527.10160225829577
 11
1158.5000003061618
 21
558.00566321366659
  0
LINE
  8
_0-1_計細線
  6
CONTINUOUS
 62
    3
 10
1051
 20
579.45639993367013
 11
1051
 21
586.15638321366623
  0
LINE
  8
_0-1_計細線
  6
CONTINUOUS
 62
    3
 10
1051
 20
586.15638321366623
 11
1106.9693920000009
 21
586.15638321366623
  0
LINE
  8
_0-1_計細線
  6
CONTINUOUS
 62
    3
 10
1106.9693920000009
 20
586.15638321366623
 11
1165
 21
586.15638321366623
  0
LINE
  8
_0-1_計細線
  6
CONTINUOUS
 62
    3
 10
1165
 20
579.45639993367013
 11
1165
 21
586.15638321366623
  0
LINE
  8
_0-1_計細線
  6
CONTINUOUS
 62
    3
 10
1160.9489763061615
 20
579.45639993367013
 11
1165
 21
579.45639993367013
  0
LINE
  8
_0-0_計極細
  6
CONTINUOUS
 62
    2
 10
1156.9483920000007
 20
584.86346393366966
 11
1165
 21
586.01025327991647
  0
LINE
  8
_0-0_計極細
  6
CONTINUOUS
 62
    2
 10
1156.9483920000007
 20
584.15639938741879
 11
1165
 21
585.3031893520847
  0
LINE
  8
_0-0_計極細
  6
CONTINUOUS
 62
    2
 10
1165
 20
583.58708717539776
 11
1156.9483920000007
 21
582.65639993366995
  0
LINE
  8
_0-0_計極細
  6
CONTINUOUS
 62
    2
 10
1108
 20
585.15638321366623
 11
1159.0049786199011
 21
585.15638321366623
  0
LINE
  8
_0-0_計極細
  6
CONTINUOUS
 62
    2
 10
1108
 20
584.86346393366966
 11
1156.9483920000007
 21
584.86346393366966
  0
LINE
  8
_0-0_計極細
  6
CONTINUOUS
 62
    2
 10
1108
 20
584.36346393366966
 11
1152.9193920000007
 21
584.36346393366966
  0
LINE
  8
_0-0_計極細
  6
CONTINUOUS
 62
    2
 10
1108
 20
579.86346393366966
 11
1150.1693920000007
 21
579.86346393366966
  0
LINE
  8
_0-0_計極細
  6
CONTINUOUS
 62
    2
 10
1108
 20
578.86346393366966
 11
1150.7693920000006
 21
578.86346393366966
  0
LINE
  8
_0-0_計極細
  6
CONTINUOUS
 62
    2
 10
1108
 20
577.76957393367002
 11
1151.119392000001
 21
577.76957393366956
  0
LINE
  8
_0-0_計極細
  6
CONTINUOUS
 62
    2
 10
1150.4693920000009
 20
577.96424293366999
 11
1108
 21
577.96424293366999
  0
LINE
  8
_0-0_計極細
  6
CONTINUOUS
 62
    2
 10
1108
 20
573.46957393366984
 11
1150.3193920000008
 21
573.46957393366984
  0
LINE
  8
_0-0_計極細
  6
CONTINUOUS
 62
    2
 10
1150.4693920000009
 20
573.36424293366963
 11
1108
 21
573.36424293366963
  0
LINE
  8
_0-0_計極細
  6
CONTINUOUS
 62
    2
 10
1147.2193920000009
 20
571.86424293366963
 11
1108
 21
571.86424293366963
  0
LINE
  8
_0-0_計極細
  6
CONTINUOUS
 62
    2
 10
1132.9693920000009
 20
505.36422621366592
 11
1108
 21
505.36422621366592
  0
LINE
  8
_0-0_計極細
  6
CONTINUOUS
 62
    2
 10
1108
 20
490.15638321366578
 11
1134.2193920000009
 21
490.15638321366578
  0
LINE
  8
_0-0_計極細
  6
CONTINUOUS
 62
    2
 10
1108
 20
488.15638321366572
 11
1134.2193920000009
 21
488.15638321366572
  0
LINE
  8
_0-1_計細線
  6
CONTINUOUS
 62
    3
 10
1158.5
 20
469.65638321366617
 11
1195
 21
471.2270152136648
  0
LINE
  8
_0-1_計細線
  6
CONTINUOUS
 62
    3
 10
1195
 20
471.2270152136648
 11
1195
 21
526.2270152136648
  0
LINE
  8
_0-0_計極細
  6
CONTINUOUS
 62
    2
 10
1156.8277782648338
 20
471.61638321366627
 11
1195.0000000000005
 21
473.18893591766476
  0
LINE
  8
_0-0_計極細
  6
CONTINUOUS
 62
    2
 10
1146.2932760000008
 20
525.44281448912852
 11
1195
 21
524.26724036997075
  0
LINE
  8
_0-1_計細線
  6
CONTINUOUS
 62
    3
 10
1158.5000003061618
 20
527.10160225829577
 11
1195
 21
526.2270152136648
  0
LINE
  8
_0-0_計極細
  6
CONTINUOUS
 62
    2
 10
1146.7193920000009
 20
573.48763962905105
 11
1150.3193920000008
 21
573.48763962905105
  0
LINE
  8
_0-0_計極細
  6
CONTINUOUS
 62
    2
 10
1146.7193920000009
 20
574.98763962905105
 11
1150.3193920000008
 21
574.98763962905105
  0
LINE
  8
_0-0_計極細
  6
CONTINUOUS
 62
    2
 10
1146.5013263046194
 20
576.48763962905105
 11
1150.4356937042044
 21
576.48763962905105
  0
ARC
  8
_0-0_計極細
  6
CONTINUOUS
 62
    2
 10
1139.9693920000009
 20
564.83848893366985
 40
6
 50
155.11305268293131
 51
179.99999999999983
  0
ARC
  8
_0-0_計極細
  6
CONTINUOUS
 62
    2
 10
1139.9693920000009
 20
564.83848893366985
 40
6
 50
55.166292356156568
 51
155.11305268293131
  0
LINE
  8
_0-0_計極細
  6
CONTINUOUS
 62
    2
 10
1144.4693920000009
 20
564.46424293366999
 11
1144.4693920000009
 21
567.36346393366966
  0
LINE
  8
_0-0_計極細
  6
CONTINUOUS
 62
    2
 10
1134.5265525526743
 20
567.36346393366966
 11
1144.4676987876996
 21
567.36346393366966
  0
ARC
  8
_0-0_計極細
  6
CONTINUOUS
 62
    2
 10
1141.4693920000009
 20
567.46424293366999
 40
3
 50
358.07490068719903
 51
50.029499419963869
  0
LINE
  8
_0-0_計極細
  6
CONTINUOUS
 62
    2
 10
1082.0306079999991
 20
563.65639993366995
 11
1059.0516079999993
 21
563.65639993366995
  0
LINE
  8
_0-0_計極細
  6
CONTINUOUS
 62
    2
 10
1070.7806079999991
 20
558.45639993366967
 11
1082.0306079999991
 21
558.45639993366967
  0
LINE
  8
_0-0_計極細
  6
CONTINUOUS
 62
    2
 10
1082.0306079999991
 20
563.36073593366973
 11
1082.0306079999991
 21
564.83848893366985
  0
LINE
  8
_0-0_計極細
  6
CONTINUOUS
 62
    2
 10
1082.0306079999991
 20
564.45639993366967
 11
1060.5306079999991
 21
564.45639993366967
  0
LINE
  8
_0-0_計極細
  6
CONTINUOUS
 62
    2
 10
1065.5306079999991
 20
577.96424293366999
 11
1065.5306079999991
 21
578.86346393366966
  0
LINE
  8
_0-0_計極細
  6
CONTINUOUS
 62
    2
 10
1065.5306079999991
 20
571.86424293366963
 11
1065.5306079999991
 21
573.36424293366963
  0
LINE
  8
_0-0_計極細
  6
CONTINUOUS
 62
    2
 10
1069.2806079999991
 20
576.26957393366956
 11
1069.2806079999991
 21
574.96957393366984
  0
LINE
  8
_0-0_計極細
  6
CONTINUOUS
 62
    2
 10
1069.2806079999991
 20
573.96957393366984
 11
1069.2806079999991
 21
573.46957393366984
  0
LINE
  8
_0-0_計極細
  6
CONTINUOUS
 62
    2
 10
1065.6806079999992
 20
576.26957393366956
 11
1065.6806079999992
 21
573.46957393366984
  0
LINE
  8
_0-0_計極細
  6
CONTINUOUS
 62
    2
 10
1069.7806079999991
 20
576.76957393366956
 11
1069.2806079999991
 21
577.26957393366956
  0
LINE
  8
_0-0_計極細
  6
CONTINUOUS
 62
    2
 10
1069.2806079999991
 20
576.26957393366956
 11
1069.7806079999991
 21
576.76957393366956
  0
LINE
  8
_0-0_計極細
  6
CONTINUOUS
 62
    2
 10
1069.2806079999991
 20
573.96957393366984
 11
1069.7806079999991
 21
574.46957393366984
  0
LINE
  8
_0-0_計極細
  6
CONTINUOUS
 62
    2
 10
1069.7806079999991
 20
574.46957393366984
 11
1069.2806079999991
 21
574.96957393366984
  0
LINE
  8
_0-0_計極細
  6
CONTINUOUS
 62
    2
 10
1065.6806079999992
 20
576.26957393366956
 11
1064.880607999999
 21
577.76957393366956
  0
LINE
  8
_0-0_計極細
  6
CONTINUOUS
 62
    2
 10
1069.2806079999991
 20
577.76957393366956
 11
1069.2806079999991
 21
577.26957393366956
  0
ARC
  8
_0-0_計極細
  6
CONTINUOUS
 62
    2
 10
1063.0806079999993
 20
583.86346393366966
 40
0.5
 50
89.999999999999915
 51
155.94545099997077
  0
ARC
  8
_0-0_計極細
  6
CONTINUOUS
 62
    2
 10
1062.7806079999991
 20
582.56346393366994
 40
0.1999999999999886
 50
179.99999999999983
 51
269.99999999999977
  0
ARC
  8
_0-0_計極細
  6
CONTINUOUS
 62
    2
 10
1063.0806079999993
 20
583.86346393366966
 40
0.5
 50
155.94545099997077
 51
179.99999999999983
  0
ARC
  8
_0-0_計極細
  6
CONTINUOUS
 62
    2
 10
1065.2306079999994
 20
579.36346393366966
 40
0.5
 50
179.99999999999983
 51
269.99999999999977
  0
LINE
  8
_0-0_計極細
  6
CONTINUOUS
 62
    2
 10
1065.8306079999993
 20
578.86346393366966
 11
1065.8306079999993
 21
579.86346393366966
  0
LINE
  8
_0-0_計極細
  6
CONTINUOUS
 62
    2
 10
1064.7306079999994
 20
579.36346393366966
 11
1064.7306079999989
 21
582.36346393366966
  0
LINE
  8
_0-0_計極細
  6
CONTINUOUS
 62
    2
 10
1064.7306079999989
 20
582.36346393366966
 11
1062.7806079999991
 21
582.36346393366966
  0
LINE
  8
_0-0_計極細
  6
CONTINUOUS
 62
    2
 10
1062.5806079999993
 20
582.56346393366994
 11
1062.5806079999993
 21
583.86346393366966
  0
LINE
  8
_0-0_計極細
  6
CONTINUOUS
 62
    2
 10
1077.7442949999991
 20
565.66346393366985
 11
1077.7442949999991
 21
567.36346393366966
  0
LINE
  8
_0-0_計極細
  6
CONTINUOUS
 62
    2
 10
1074.2442949999991
 20
565.66346393366985
 11
1074.2442949999991
 21
567.36346393366966
  0
LINE
  8
_0-0_計極細
  6
CONTINUOUS
 62
    2
 10
1079.2442949999991
 20
565.66346393366985
 11
1079.2442949999991
 21
567.36346393366966
  0
LINE
  8
_0-0_計極細
  6
CONTINUOUS
 62
    2
 10
1079.2442949999991
 20
565.66346393366985
 11
1074.2442949999991
 21
565.66346393366985
  0
LINE
  8
_0-0_計極細
  6
CONTINUOUS
 62
    2
 10
1066.0306079999991
 20
567.36346393366966
 11
1060.5306079999991
 21
567.36346393366966
  0
LINE
  8
_0-0_計極細
  6
CONTINUOUS
 62
    2
 10
1066.860791999999
 20
565.36346393366966
 11
1066.0306079999991
 21
565.36346393366966
  0
LINE
  8
_0-0_計極細
  6
CONTINUOUS
 62
    2
 10
1066.0306079999991
 20
570.06346393366994
 11
1064.7306079999994
 21
570.06346393366994
  0
LINE
  8
_0-0_計極細
  6
CONTINUOUS
 62
    2
 10
1066.0306079999991
 20
569.36346393366966
 11
1064.0306079999991
 21
569.36346393366966
  0
LINE
  8
_0-0_計極細
  6
CONTINUOUS
 62
    2
 10
1066.0306079999991
 20
565.36346393366966
 11
1066.0306079999991
 21
571.36346393366966
  0
LINE
  8
_0-0_計極細
  6
CONTINUOUS
 62
    2
 10
1059.0516079999993
 20
568.84246393366993
 11
1060.5306079999991
 21
567.36346393366966
  0
LINE
  8
_0-0_計極細
  6
CONTINUOUS
 62
    2
 10
1064.0306079999991
 20
569.36346393366966
 11
1064.0306079999991
 21
580.61346393366966
  0
ARC
  8
_0-0_計極細
  6
CONTINUOUS
 62
    2
 10
1062.9806079999994
 20
580.61346393366966
 40
1.0500000000000114
 50
0
 51
89.999999999999915
  0
LINE
  8
_0-0_計極細
  6
CONTINUOUS
 62
    2
 10
1061.7893839999992
 20
581.66346393366985
 11
1062.9806079999994
 21
581.66346393366985
  0
ARC
  8
_0-0_計極細
  6
CONTINUOUS
 62
    2
 10
1061.7893839999992
 20
583.36346393366966
 40
1.6999999999999886
 50
183.35088800000065
 51
269.99999999999977
  0
ARC
  8
_0-0_計極細
  6
CONTINUOUS
 62
    2
 10
1061.7893839999992
 20
583.36346393366966
 40
1
 50
183.35088799999644
 51
269.99999999999977
  0
ARC
  8
_0-0_計極細
  6
CONTINUOUS
 62
    2
 10
1059.0516079999993
 20
583.11346393366966
 40
1.7499999999999998
 50
4.150989999997825
 51
89.999999999999915
  0
ARC
  8
_0-0_計極細
  6
CONTINUOUS
 62
    2
 10
1062.9806079999994
 20
580.61346393366966
 40
1.7499999999999998
 50
0
 51
89.999999999999915
  0
LINE
  8
_0-0_計極細
  6
CONTINUOUS
 62
    2
 10
1062.5306079999991
 20
582.36346393366966
 11
1062.5306079999991
 21
584.86346393366966
  0
LINE
  8
_0-0_計極細
  6
CONTINUOUS
 62
    2
 10
1064.7306079999994
 20
570.06346393366994
 11
1064.7306079999994
 21
580.61346393366966
  0
LINE
  8
_0-0_計極細
  6
CONTINUOUS
 62
    2
 10
1061.7893839999992
 20
582.36346393366966
 11
1062.9806079999994
 21
582.36346393366966
  0
LINE
  8
_0-0_計極細
  6
CONTINUOUS
 62
    2
 10
1068.7806079999991
 20
571.36346393366966
 11
1064.7306079999994
 21
571.36346393366966
  0
ARC
  8
_0-0_計極細
  6
CONTINUOUS
 62
    2
 10
1070.7806079999991
 20
557.45639993366967
 40
1
 50
0
 51
89.999999999999915
  0
ARC
  8
_0-0_計極細
  6
CONTINUOUS
 62
    2
 10
1070.7806079999991
 20
557.45639993366967
 40
1
 50
89.999999999999915
 51
179.99999999999983
  0
LINE
  8
_0-0_計極細
  6
CONTINUOUS
 62
    2
 10
1059.0516079999993
 20
563.65639993366995
 11
1060.5306079999991
 21
564.45639993366967
  0
LINE
  8
_0-0_計極細
  6
CONTINUOUS
 62
    2
 10
1060.5306079999991
 20
564.45639993366967
 11
1060.5306079999991
 21
567.36346393366966
  0
LINE
  8
_0-0_計極細
  6
CONTINUOUS
 62
    2
 10
1059.0516079999993
 20
568.84246393366993
 11
1059.0516079999993
 21
584.16346393366985
  0
ARC
  8
_0-0_計極細
  6
CONTINUOUS
 62
    2
 10
1059.0516079999993
 20
583.11346393366966
 40
1.0500000000000114
 50
4.1509900000016975
 51
89.999999999999915
  0
LINE
  8
_0-0_計極細
  6
CONTINUOUS
 62
    2
 10
1068.5306079999991
 20
564.46424293366999
 11
1071.5306079999991
 21
564.46424293366999
  0
ARC
  8
_0-0_計極細
  6
CONTINUOUS
 62
    2
 10
1068.5306079999991
 20
566.46424293366999
 40
2
 50
179.99999999999983
 51
269.99999999999977
  0
LINE
  8
_0-0_計極細
  6
CONTINUOUS
 62
    2
 10
1066.5306079999991
 20
566.46424293366999
 11
1066.5306079999991
 21
567.46424293366999
  0
LINE
  8
_0-0_計極細
  6
CONTINUOUS
 62
    2
 10
1066.5306079999991
 20
567.46424293366999
 11
1068.7806079999991
 21
567.46424293366999
  0
LINE
  8
_0-0_計極細
  6
CONTINUOUS
 62
    2
 10
1065.5306079999991
 20
571.86424293366963
 11
1068.7806079999991
 21
571.86424293366963
  0
LINE
  8
_0-0_計極細
  6
CONTINUOUS
 62
    2
 10
1068.7806079999991
 20
567.46424293366999
 11
1068.7806079999991
 21
571.86424293366963
  0
ARC
  8
_0-0_計極細
  6
CONTINUOUS
 62
    2
 10
1081.7806079999991
 20
500.15638321366572
 40
10
 50
179.99999999999983
 51
269.99999999999977
  0
LINE
  8
_0-0_計極細
  6
CONTINUOUS
 62
    2
 10
1071.7806079999991
 20
500.15638321366572
 11
1071.7806079999991
 21
557.45639993366967
  0
LINE
  8
_0-0_計極細
  6
CONTINUOUS
 62
    2
 10
1069.7806079999991
 20
500.15638321366572
 11
1069.7806079999991
 21
557.45639993366967
  0
ARC
  8
_0-0_計極細
  6
CONTINUOUS
 62
    2
 10
1081.7806079999991
 20
500.15638321366572
 40
12
 50
179.99999999999983
 51
269.99999999999977
  0
LINE
  8
_0-0_計極細
  6
CONTINUOUS
 62
    2
 10
1069.7806079999991
 20
500.15638321366572
 11
1069.7806079999991
 21
527.15638321366578
  0
ARC
  8
_0-0_計極細
  6
CONTINUOUS
 62
    2
 10
1083.0306079999991
 20
506.36422621366586
 40
1
 50
179.99999999999983
 51
270.00045836623457
  0
LINE
  8
_0-0_計極細
  6
CONTINUOUS
 62
    2
 10
1082.0306079999991
 20
506.36422621366586
 11
1082.0306079999991
 21
564.83848893366985
  0
LINE
  8
_0-0_計極細
  6
CONTINUOUS
 62
    2
 10
1059.0516079999993
 20
584.86346393366966
 11
1051
 21
586.01025327991647
  0
LINE
  8
_0-0_計極細
  6
CONTINUOUS
 62
    2
 10
1059.0516079999993
 20
584.15639938741879
 11
1051
 21
585.3031893520847
  0
LINE
  8
_0-0_計極細
  6
CONTINUOUS
 62
    2
 10
1051
 20
583.58708717539776
 11
1059.0516079999993
 21
582.65639993366995
  0
LINE
  8
_0-0_計極細
  6
CONTINUOUS
 62
    2
 10
1108
 20
585.15638321366623
 11
1056.9950213800989
 21
585.15638321366623
  0
LINE
  8
_0-0_計極細
  6
CONTINUOUS
 62
    2
 10
1108
 20
584.86346393366966
 11
1059.0516079999993
 21
584.86346393366966
  0
LINE
  8
_0-0_計極細
  6
CONTINUOUS
 62
    2
 10
1108
 20
584.36346393366966
 11
1063.0806079999993
 21
584.36346393366966
  0
LINE
  8
_0-0_計極細
  6
CONTINUOUS
 62
    2
 10
1108
 20
579.86346393366966
 11
1065.8306079999993
 21
579.86346393366966
  0
LINE
  8
_0-0_計極細
  6
CONTINUOUS
 62
    2
 10
1108
 20
578.86346393366966
 11
1065.2306079999994
 21
578.86346393366966
  0
LINE
  8
_0-0_計極細
  6
CONTINUOUS
 62
    2
 10
1108
 20
577.76957393367002
 11
1064.880607999999
 21
577.76957393366956
  0
LINE
  8
_0-0_計極細
  6
CONTINUOUS
 62
    2
 10
1065.5306079999991
 20
577.96424293366999
 11
1108
 21
577.96424293366999
  0
LINE
  8
_0-0_計極細
  6
CONTINUOUS
 62
    2
 10
1108
 20
573.46957393366984
 11
1065.6806079999992
 21
573.46957393366984
  0
LINE
  8
_0-0_計極細
  6
CONTINUOUS
 62
    2
 10
1065.5306079999991
 20
573.36424293366963
 11
1108
 21
573.36424293366963
  0
LINE
  8
_0-0_計極細
  6
CONTINUOUS
 62
    2
 10
1068.7806079999991
 20
571.86424293366963
 11
1108
 21
571.86424293366963
  0
LINE
  8
_0-0_計極細
  6
CONTINUOUS
 62
    2
 10
1083.0306079999991
 20
505.36422621366592
 11
1108
 21
505.36422621366592
  0
LINE
  8
_0-0_計極細
  6
CONTINUOUS
 62
    2
 10
1108
 20
490.15638321366578
 11
1081.7806079999991
 21
490.15638321366578
  0
LINE
  8
_0-0_計極細
  6
CONTINUOUS
 62
    2
 10
1108
 20
488.15638321366572
 11
1081.7806079999991
 21
488.15638321366572
  0
LINE
  8
_0-0_計極細
  6
CONTINUOUS
 62
    2
 10
1065.6806079999992
 20
573.48763962905105
 11
1069.2806079999991
 21
573.48763962905105
  0
LINE
  8
_0-0_計極細
  6
CONTINUOUS
 62
    2
 10
1065.6806079999992
 20
574.98763962905105
 11
1069.2806079999991
 21
574.98763962905105
  0
LINE
  8
_0-0_計極細
  6
CONTINUOUS
 62
    2
 10
1065.5643062957956
 20
576.48763962905105
 11
1069.4986736953806
 21
576.48763962905105
  0
ARC
  8
_0-0_計極細
  6
CONTINUOUS
 62
    2
 10
1076.0306079999991
 20
564.83848893366985
 40
6
 50
0
 51
24.886947317068667
  0
ARC
  8
_0-0_計極細
  6
CONTINUOUS
 62
    2
 10
1076.0306079999991
 20
564.83848893366985
 40
6
 50
24.886947317068667
 51
124.83370764384345
  0
LINE
  8
_0-0_計極細
  6
CONTINUOUS
 62
    2
 10
1071.5306079999991
 20
564.46424293366999
 11
1071.5306079999991
 21
567.36346393366966
  0
LINE
  8
_0-0_計極細
  6
CONTINUOUS
 62
    2
 10
1081.4734474473257
 20
567.36346393366966
 11
1071.5323012123008
 21
567.36346393366966
  0
ARC
  8
_0-0_計極細
  6
CONTINUOUS
 62
    2
 10
1074.5306079999991
 20
567.46424293366999
 40
3
 50
129.97050058003578
 51
181.92509931280051
  0
LINE
  8
_0-1_計細線
  6
CONTINUOUS
 62
    3
 10
1055.0510240000003
 20
579.45639993367013
 11
1051
 21
579.45639993367013
  0
LINE
  8
_0-1_計細線
  6
CONTINUOUS
 62
    3
 10
1055.0510240000003
 20
562.24742321366557
 11
1055.0510240000003
 21
579.45639993367013
  0
LINE
  8
_0-0_計極細
  6
CONTINUOUS
 62
    2
 10
1156.5400003061618
 20
535.02407393366957
 11
1149.2932760000008
 21
535.02407393366957
  0
LINE
  8
_0-0_計極細
  6
CONTINUOUS
 62
    2
 10
1156.5400003061618
 20
535.02407393366957
 11
1156.5400003061618
 21
563.65639993366995
  0
LINE
  8
_0-0_計極細
  6
CONTINUOUS
 62
    2
 10
1059.46
 20
477.61638321366627
 11
1059.46
 21
563.65639993366995
  0
LINE
  8
_0-0_計極細
  6
CONTINUOUS
 62
    2
 10
1065.46
 20
471.61638321366627
 11
1156.8277782648338
 21
471.61638321366627
  0
ARC
  8
_0-0_計極細
  6
CONTINUOUS
 62
    2
 10
1065.46
 20
477.61638321366627
 40
6
 50
179.99999999999983
 51
269.99999999999977
  0
LINE
  8
_0-0_計極細
  6
CONTINUOUS
 62
    2
 10
1051
 20
583.53832975051819
 11
1051.0437054963854
 21
583.58203524690362
  0
LINE
  8
_0-0_計極細
  6
CENTER1
 62
    2
 10
1108
 20
956.65638321366578
 11
1108
 21
463.3255881917753
  0
LINE
  8
_0-5_寸法線
  6
CONTINUOUS
 62
    7
 10
1108
 20
457.65638321366617
 11
1108
 21
403.65638321366669
  0
LINE
  8
_0-5_寸法線
  6
CONTINUOUS
 62
    7
 10
1108
 20
409.65638321366669
 11
1119.5911099154689
 21
412.76221175489695
  0
LINE
  8
_0-5_寸法線
  6
CONTINUOUS
 62
    7
 10
1108
 20
409.65638321366669
 11
1119.5911099154689
 21
406.55055467243636
  0
LINE
  8
_0-5_寸法線
  6
CONTINUOUS
 62
    7
 10
1159
 20
457.65638321366617
 11
1159
 21
403.65638321366669
  0
LINE
  8
_0-5_寸法線
  6
CONTINUOUS
 62
    7
 10
1159
 20
409.65638321366669
 11
1147.4088900845309
 21
406.55055467243642
  0
LINE
  8
_0-5_寸法線
  6
CONTINUOUS
 62
    7
 10
1159
 20
409.65638321366669
 11
1147.4088900845309
 21
412.76221175489695
  0
LINE
  8
_0-5_寸法線
  6
CONTINUOUS
 62
    7
 10
1108
 20
409.65638321366669
 11
1159
 21
409.65638321366669
  0
TEXT
  8
_0-5_寸法線
 62
    7
 10
1124.4999999999998
 20
409.65638321366617
 40
18
 41
1
 50
0
  1
51
  0
LINE
  8
_0-5_寸法線
  6
CONTINUOUS
 62
    7
 10
1159
 20
409.65638321366669
 11
1170.5911099154689
 21
412.76221175489684
  0
LINE
  8
_0-5_寸法線
  6
CONTINUOUS
 62
    7
 10
1159
 20
409.65638321366669
 11
1170.5911099154689
 21
406.55055467243636
  0
LINE
  8
_0-5_寸法線
  6
CONTINUOUS
 62
    7
 10
1195
 20
459.2270152136648
 11
1195.0000000000005
 21
403.65638321366669
  0
LINE
  8
_0-5_寸法線
  6
CONTINUOUS
 62
    7
 10
1195.0000000000005
 20
409.65638321366669
 11
1183.4088900845315
 21
406.55055467243642
  0
LINE
  8
_0-5_寸法線
  6
CONTINUOUS
 62
    7
 10
1195.0000000000005
 20
409.65638321366669
 11
1183.4088900845315
 21
412.76221175489695
  0
LINE
  8
_0-5_寸法線
  6
CONTINUOUS
 62
    7
 10
1159
 20
409.65638321366669
 11
1195.0000000000005
 21
409.65638321366669
  0
TEXT
  8
_0-5_寸法線
 62
    7
 10
1168.0000000000005
 20
409.65638321366617
 40
18
 41
1
 50
0
  1
36
  0
LINE
  8
_0-5_寸法線
  6
CONTINUOUS
 62
    7
 10
1107.9999999999998
 20
457.65638321366617
 11
1107.9999999999982
 21
361.65638321366623
  0
LINE
  8
_0-5_寸法線
  6
CONTINUOUS
 62
    7
 10
1107.9999999999982
 20
367.65638321366623
 11
1119.5911099154671
 21
370.7622117548965
  0
LINE
  8
_0-5_寸法線
  6
CONTINUOUS
 62
    7
 10
1107.9999999999982
 20
367.65638321366623
 11
1119.5911099154671
 21
364.55055467243596
  0
LINE
  8
_0-5_寸法線
  6
CONTINUOUS
 62
    7
 10
1194.9999999999998
 20
459.2270152136648
 11
1194.9999999999982
 21
361.65638321366623
  0
LINE
  8
_0-5_寸法線
  6
CONTINUOUS
 62
    7
 10
1194.9999999999982
 20
367.65638321366623
 11
1183.4088900845293
 21
364.55055467243602
  0
LINE
  8
_0-5_寸法線
  6
CONTINUOUS
 62
    7
 10
1194.9999999999982
 20
367.65638321366623
 11
1183.4088900845293
 21
370.7622117548965
  0
LINE
  8
_0-5_寸法線
  6
CONTINUOUS
 62
    7
 10
1107.9999999999982
 20
367.65638321366623
 11
1194.9999999999982
 21
367.65638321366623
  0
TEXT
  8
_0-5_寸法線
 62
    7
 10
1142.4999999999982
 20
367.65638321366623
 40
18
 41
1
 50
0
  1
87
  0
LINE
  8
_0-5_寸法線
  6
CONTINUOUS
 62
    7
 10
582
 20
946.65638321366566
 11
528
 21
946.65638321366566
  0
LINE
  8
_0-5_寸法線
  6
CONTINUOUS
 62
    7
 10
534
 20
946.65638321366566
 11
530.89417145876973
 21
958.24749312913445
  0
LINE
  8
_0-5_寸法線
  6
CONTINUOUS
 62
    7
 10
534
 20
946.65638321366566
 11
537.10582854123027
 21
958.24749312913445
  0
LINE
  8
_0-5_寸法線
  6
CONTINUOUS
 62
    7
 10
582
 20
944.15638321366578
 11
528
 21
944.15638321366578
  0
LINE
  8
_0-5_寸法線
  6
CONTINUOUS
 62
    7
 10
534
 20
991.83447712114707
 11
534
 21
944.15638321366578
  0
TEXT
  8
_0-5_寸法線
 62
    7
 10
534
 20
960.72399978018291
 40
18
 41
1
 50
90
  1
2.5
  0
LINE
  8
_0-5_寸法線
  6
CONTINUOUS
 62
    7
 10
534
 20
944.15638321366578
 11
537.10582854123015
 21
932.56527329819687
  0
LINE
  8
_0-5_寸法線
  6
CONTINUOUS
 62
    7
 10
534
 20
944.15638321366578
 11
530.89417145876973
 21
932.56527329819687
  0
LINE
  8
_0-5_寸法線
  6
CONTINUOUS
 62
    7
 10
582
 20
805.15638321366578
 11
528
 21
805.15638321366578
  0
LINE
  8
_0-5_寸法線
  6
CONTINUOUS
 62
    7
 10
534
 20
805.15638321366578
 11
530.89417145876973
 21
816.74749312913457
  0
LINE
  8
_0-5_寸法線
  6
CONTINUOUS
 62
    7
 10
534
 20
805.15638321366578
 11
537.10582854123027
 21
816.74749312913457
  0
LINE
  8
_0-5_寸法線
  6
CONTINUOUS
 62
    7
 10
534
 20
944.15638321366578
 11
534
 21
805.15638321366578
  0
TEXT
  8
_0-5_寸法線
 62
    7
 10
534
 20
861.15638321366566
 40
18
 41
1
 50
90
  1
139
  0
LINE
  8
_0-5_寸法線
  6
CONTINUOUS
 62
    7
 10
582
 20
802.65638321366566
 11
528
 21
802.65638321366566
  0
LINE
  8
_0-5_寸法線
  6
CONTINUOUS
 62
    7
 10
534
 20
802.65638321366566
 11
537.10582854123015
 21
791.06527329819687
  0
LINE
  8
_0-5_寸法線
  6
CONTINUOUS
 62
    7
 10
534
 20
802.65638321366566
 11
530.89417145876973
 21
791.06527329819687
  0
LINE
  8
_0-5_寸法線
  6
CONTINUOUS
 62
    7
 10
534
 20
805.15638321366578
 11
534
 21
757.47828930618448
  0
TEXT
  8
_0-5_寸法線
 62
    7
 10
534
 20
762.60831515421933
 40
18
 41
1
 50
90
  1
2.5
  0
LINE
  8
_0-5_寸法線
  6
CONTINUOUS
 62
    7
 10
582
 20
946.65638321366566
 11
486
 21
946.65638321366566
  0
LINE
  8
_0-5_寸法線
  6
CONTINUOUS
 62
    7
 10
492
 20
946.65638321366566
 11
495.10582854123027
 21
935.06527329819687
  0
LINE
  8
_0-5_寸法線
  6
CONTINUOUS
 62
    7
 10
492
 20
946.65638321366566
 11
488.89417145876973
 21
935.06527329819687
  0
LINE
  8
_0-5_寸法線
  6
CONTINUOUS
 62
    7
 10
582
 20
802.65638321366566
 11
486
 21
802.65638321366566
  0
LINE
  8
_0-5_寸法線
  6
CONTINUOUS
 62
    7
 10
492
 20
802.65638321366566
 11
488.89417145876973
 21
814.24749312913445
  0
LINE
  8
_0-5_寸法線
  6
CONTINUOUS
 62
    7
 10
492
 20
802.65638321366566
 11
495.10582854123027
 21
814.24749312913445
  0
LINE
  8
_0-5_寸法線
  6
CONTINUOUS
 62
    7
 10
492
 20
946.65638321366566
 11
492
 21
802.65638321366566
  0
TEXT
  8
_0-5_寸法線
 62
    7
 10
492
 20
861.15638321366566
 40
18
 41
1
 50
90
  1
144
  0
LINE
  8
_0-5_寸法線
  6
CONTINUOUS
 62
    7
 10
1206.999999923461
 20
469.65638321366578
 11
1260.9999999999982
 21
469.65638321366578
  0
LINE
  8
_0-5_寸法線
  6
CONTINUOUS
 62
    7
 10
1254.9999999999982
 20
469.65638321366578
 11
1251.8941714587679
 21
481.24749312913463
  0
LINE
  8
_0-5_寸法線
  6
CONTINUOUS
 62
    7
 10
1254.9999999999982
 20
469.65638321366578
 11
1258.1058285412284
 21
481.24749312913457
  0
LINE
  8
_0-5_寸法線
  6
CONTINUOUS
 62
    7
 10
1207
 20
497.94169921366483
 11
1260.9999999999982
 21
497.94169921366483
  0
LINE
  8
_0-5_寸法線
  6
CONTINUOUS
 62
    7
 10
1254.9999999999982
 20
497.94169921366483
 11
1258.1058285412284
 21
486.35058929819604
  0
LINE
  8
_0-5_寸法線
  6
CONTINUOUS
 62
    7
 10
1254.9999999999982
 20
497.94169921366483
 11
1251.8941714587679
 21
486.35058929819593
  0
LINE
  8
_0-5_寸法線
  6
CONTINUOUS
 62
    7
 10
1254.9999999999982
 20
469.65638321366578
 11
1254.9999999999982
 21
497.94169921366483
  0
TEXT
  8
_0-5_寸法線
 62
    7
 10
1254.9999999999982
 20
474.79904121366553
 40
18
 41
1
 50
90
  1
28
  0
LINE
  8
_0-5_寸法線
  6
CONTINUOUS
 62
    7
 10
1254.9999999999982
 20
497.94169921366483
 11
1251.8941714587679
 21
509.53280912913368
  0
LINE
  8
_0-5_寸法線
  6
CONTINUOUS
 62
    7
 10
1254.9999999999982
 20
497.94169921366483
 11
1258.1058285412284
 21
509.53280912913362
  0
LINE
  8
_0-5_寸法線
  6
CONTINUOUS
 62
    7
 10
1200
 20
586.15638321366612
 11
1260.9999999999982
 21
586.15638321366578
  0
LINE
  8
_0-5_寸法線
  6
CONTINUOUS
 62
    7
 10
1254.9999999999982
 20
586.15638321366578
 11
1258.1058285412284
 21
574.56527329819698
  0
LINE
  8
_0-5_寸法線
  6
CONTINUOUS
 62
    7
 10
1254.9999999999982
 20
586.15638321366578
 11
1251.8941714587679
 21
574.56527329819698
  0
LINE
  8
_0-5_寸法線
  6
CONTINUOUS
 62
    7
 10
1254.9999999999982
 20
497.94169921366483
 11
1254.9999999999982
 21
586.15638321366578
  0
TEXT
  8
_0-5_寸法線
 62
    7
 10
1254.9999999999982
 20
524.04904121366599
 40
18
 41
1
 50
90
  1
88.5
  0
LINE
  8
_0-5_寸法線
  6
CONTINUOUS
 62
    7
 10
1207
 20
469.65638321366566
 11
1302.9999999999982
 21
469.65638321366532
  0
LINE
  8
_0-5_寸法線
  6
CONTINUOUS
 62
    7
 10
1296.9999999999982
 20
469.65638321366532
 11
1293.8941714587679
 21
481.24749312913411
  0
LINE
  8
_0-5_寸法線
  6
CONTINUOUS
 62
    7
 10
1296.9999999999982
 20
469.65638321366532
 11
1300.1058285412284
 21
481.24749312913411
  0
LINE
  8
_0-5_寸法線
  6
CONTINUOUS
 62
    7
 10
1207
 20
526.22701521366434
 11
1302.9999999999982
 21
526.22701521366389
  0
LINE
  8
_0-5_寸法線
  6
CONTINUOUS
 62
    7
 10
1296.9999999999982
 20
526.22701521366389
 11
1300.1058285412284
 21
514.6359052981951
  0
LINE
  8
_0-5_寸法線
  6
CONTINUOUS
 62
    7
 10
1296.9999999999982
 20
526.22701521366389
 11
1293.8941714587679
 21
514.6359052981951
  0
LINE
  8
_0-5_寸法線
  6
CONTINUOUS
 62
    7
 10
1296.9999999999982
 20
469.65638321366532
 11
1296.9999999999982
 21
526.22701521366389
  0
TEXT
  8
_0-5_寸法線
 62
    7
 10
1296.9999999999982
 20
475.44169921366387
 40
18
 41
1
 50
90
  1
VU-50
  0
LINE
  8
_0-5_寸法線
  6
CONTINUOUS
 62
    7
 10
1207
 20
469.65638321366566
 11
1344.9999999999982
 21
469.65638321366532
  0
LINE
  8
_0-5_寸法線
  6
CONTINUOUS
 62
    7
 10
1338.9999999999982
 20
469.65638321366532
 11
1335.8941714587679
 21
481.24749312913411
  0
LINE
  8
_0-5_寸法線
  6
CONTINUOUS
 62
    7
 10
1338.9999999999982
 20
469.65638321366532
 11
1342.1058285412284
 21
481.24749312913411
  0
LINE
  8
_0-5_寸法線
  6
CONTINUOUS
 62
    7
 10
1200
 20
586.15638321366623
 11
1344.9999999999982
 21
586.15638321366578
  0
LINE
  8
_0-5_寸法線
  6
CONTINUOUS
 62
    7
 10
1338.9999999999982
 20
586.15638321366578
 11
1342.1058285412284
 21
574.56527329819698
  0
LINE
  8
_0-5_寸法線
  6
CONTINUOUS
 62
    7
 10
1338.9999999999982
 20
586.15638321366578
 11
1335.8941714587679
 21
574.56527329819698
  0
LINE
  8
_0-5_寸法線
  6
CONTINUOUS
 62
    7
 10
1338.9999999999982
 20
469.65638321366532
 11
1338.9999999999982
 21
586.15638321366578
  0
TEXT
  8
_0-5_寸法線
 62
    7
 10
1338.9999999999982
 20
505.40638321366623
 40
18
 41
1
 50
90
  1
116.5
  0
LINE
  8
_0-5_寸法線
  6
CONTINUOUS
 62
    7
 10
1200
 20
622.65638321366578
 11
1344.9999999999982
 21
622.65638321366532
  0
LINE
  8
_0-5_寸法線
  6
CONTINUOUS
 62
    7
 10
1338.9999999999982
 20
622.65638321366532
 11
1335.8941714587679
 21
634.24749312913411
  0
LINE
  8
_0-5_寸法線
  6
CONTINUOUS
 62
    7
 10
1338.9999999999982
 20
622.65638321366532
 11
1342.1058285412284
 21
634.24749312913411
  0
LINE
  8
_0-5_寸法線
  6
CONTINUOUS
 62
    7
 10
1338.9999999999982
 20
586.15638321366578
 11
1338.9999999999982
 21
671.07969742881232
  0
TEXT
  8
_0-5_寸法線
 62
    7
 10
1338.9999999999982
 20
635.07969742881232
 40
18
 41
1
 50
90
  1
36.5
  0
LINE
  8
_0-5_寸法線
  6
CONTINUOUS
 62
    7
 10
1206.999999923461
 20
469.65638321366566
 11
1386.9999999999982
 21
469.65638321366532
  0
LINE
  8
_0-5_寸法線
  6
CONTINUOUS
 62
    7
 10
1380.9999999999982
 20
469.65638321366532
 11
1377.8941714587679
 21
481.24749312913411
  0
LINE
  8
_0-5_寸法線
  6
CONTINUOUS
 62
    7
 10
1380.9999999999982
 20
469.65638321366532
 11
1384.1058285412284
 21
481.24749312913411
  0
LINE
  8
_0-5_寸法線
  6
CONTINUOUS
 62
    7
 10
1216.9999999234601
 20
622.65638321366578
 11
1386.9999999999982
 21
622.65638321366532
  0
LINE
  8
_0-5_寸法線
  6
CONTINUOUS
 62
    7
 10
1380.9999999999982
 20
622.65638321366532
 11
1384.1058285412284
 21
611.06527329819653
  0
LINE
  8
_0-5_寸法線
  6
CONTINUOUS
 62
    7
 10
1380.9999999999982
 20
622.65638321366532
 11
1377.8941714587679
 21
611.06527329819653
  0
LINE
  8
_0-5_寸法線
  6
CONTINUOUS
 62
    7
 10
1380.9999999999982
 20
469.65638321366532
 11
1380.9999999999982
 21
622.65638321366532
  0
TEXT
  8
_0-5_寸法線
 62
    7
 10
1380.9999999999982
 20
532.65638321366487
 40
18
 41
1
 50
90
  1
153
  0
LINE
  8
_0-1_計細線
  6
CONTINUOUS
 62
    3
 10
1334.9999832799931
 20
816.15650937369162
 11
1333.4999999999964
 21
816.15650937369162
  0
ARC
  8
_0-1_計細線
  6
CONTINUOUS
 62
    3
 10
1334.9999832799931
 20
818.15650937369173
 40
2
 50
269.99999999999977
 51
359.99999999999966
  0
LINE
  8
_0-1_計細線
  6
CONTINUOUS
 62
    3
 10
1336.9999832799931
 20
818.15650937369173
 11
1336.9999832799931
 21
823.65638321366566
  0
LINE
  8
_0-1_計細線
  6
CONTINUOUS
 62
    3
 10
1334.9999832799931
 20
933.15625705363937
 11
1333.4999999999973
 21
933.15625705363937
  0
ARC
  8
_0-1_計細線
  6
CONTINUOUS
 62
    3
 10
1334.9999832799931
 20
931.15625705363937
 40
2
 50
0
 51
89.999999999999915
  0
LINE
  8
_0-1_計細線
  6
CONTINUOUS
 62
    3
 10
1336.9999832799931
 20
919.65638321366566
 11
1336.9999832799931
 21
931.15625705363937
  0
LINE
  8
_0-1_計細線
  6
CONTINUOUS
 62
    3
 10
1336.9999832799931
 20
818.91760721366552
 11
1336.9999832799931
 21
919.65638321366566
  0
ARC
  8
_0-1_計細線
  6
CONTINUOUS
 62
    3
 10
1298.2499999999973
 20
945.40638313712589
 40
1.25
 50
89.999999999999915
 51
179.99999999999983
  0
LINE
  8
_0-1_計細線
  6
CONTINUOUS
 62
    3
 10
1302.1327459504182
 20
946.15638313712532
 11
1306.9999999999973
 21
946.15638313712532
  0
LINE
  8
_0-1_計細線
  6
CONTINUOUS
 62
    3
 10
1301.8684185102361
 20
946.17392733576025
 11
1298.2499999999973
 21
946.65638313712589
  0
ARC
  8
_0-1_計細線
  6
CONTINUOUS
 62
    3
 10
1302.1327459504182
 20
948.15638313712543
 40
2
 50
262.40535663140565
 51
269.99999999999977
  0
LINE
  8
_0-1_計細線
  6
CONTINUOUS
 62
    3
 10
1296.9999999999982
 20
945.40638313712589
 11
1296.9999999999973
 21
803.90638329020567
  0
LINE
  8
_0-1_計細線
  6
CONTINUOUS
 62
    3
 10
1306.9999999999973
 20
803.15638329020601
 11
1306.9999999999973
 21
946.15638313712532
  0
ARC
  8
_0-1_計細線
  6
CONTINUOUS
 62
    3
 10
1298.2499999999973
 20
803.90638329020567
 40
1.25
 50
179.99999999999983
 51
269.99999999999977
  0
LINE
  8
_0-1_計細線
  6
CONTINUOUS
 62
    3
 10
1302.1327459504182
 20
803.15638329020601
 11
1306.9999999999973
 21
803.15638329020601
  0
LINE
  8
_0-1_計細線
  6
CONTINUOUS
 62
    3
 10
1301.8684185102361
 20
803.1388390915713
 11
1298.2499999999973
 21
802.65638329020567
  0
ARC
  8
_0-1_計細線
  6
CONTINUOUS
 62
    3
 10
1302.1327459504182
 20
801.15638329020612
 40
2
 50
89.999999999999915
 51
97.594643368594035
  0
LINE
  8
_0-1_計細線
  6
CONTINUOUS
 62
    3
 10
1333.4999999999973
 20
945.15638313712543
 11
1333.4999999999973
 21
804.15638329020612
  0
LINE
  8
_0-1_計細線
  6
CONTINUOUS
 62
    3
 10
1333.4999999999973
 20
945.15638313712543
 11
1306.9999999999973
 21
945.15638313712543
  0
LINE
  8
_0-1_計細線
  6
CONTINUOUS
 62
    3
 10
1333.4999999999973
 20
804.15638329020612
 11
1306.9999999999973
 21
804.15638329020612
  0
LINE
  8
_0-0_計極細
  6
CONTINUOUS
 62
    2
 10
1323.4999191799989
 20
945.15638313712589
 11
1323.4999191799989
 21
946.35638313712514
  0
LINE
  8
_0-0_計極細
  6
CONTINUOUS
 62
    2
 10
1333.4999999999973
 20
945.15638313712589
 11
1333.4999999999973
 21
946.35638313712514
  0
LINE
  8
_0-0_計極細
  6
CONTINUOUS
 62
    2
 10
1335.4999999999973
 20
945.15638313712543
 11
1335.4999999999973
 21
946.35638313712514
  0
LINE
  8
_0-0_計極細
  6
CONTINUOUS
 62
    2
 10
1337.4999999999973
 20
945.15638313712543
 11
1337.4999999999973
 21
946.35638313712514
  0
LINE
  8
_0-0_計極細
  6
CONTINUOUS
 62
    2
 10
1339.4999999999973
 20
945.15638313712543
 11
1339.4999999999973
 21
946.35638313712514
  0
LINE
  8
_0-0_計極細
  6
CONTINUOUS
 62
    2
 10
1353.4999999999973
 20
945.15638313712543
 11
1353.4999999999973
 21
946.35638313712514
  0
LINE
  8
_0-1_計細線
  6
CONTINUOUS
 62
    3
 10
1321.4999191799989
 20
946.35638313712514
 11
1356.4999999999973
 21
946.35638313712514
  0
LINE
  8
_0-1_計細線
  6
CONTINUOUS
 62
    3
 10
1356.4999999999973
 20
946.35638313712514
 11
1356.4999999999973
 21
945.15638313712543
  0
LINE
  8
_0-1_計細線
  6
CONTINUOUS
 62
    3
 10
1321.4999191799989
 20
945.15638313712589
 11
1321.4999191799989
 21
946.35638313712514
  0
LINE
  8
_0-1_計細線
  6
CONTINUOUS
 62
    3
 10
1356.4999999999973
 20
945.15638313712543
 11
1321.4999191799989
 21
945.15638313712543
  0
LINE
  8
_0-0_計極細
  6
CONTINUOUS
 62
    2
 10
1323.4999191799989
 20
802.95638329020676
 11
1323.4999191799989
 21
804.15638329020612
  0
LINE
  8
_0-0_計極細
  6
CONTINUOUS
 62
    2
 10
1333.4999999999973
 20
802.95638329020676
 11
1333.4999999999973
 21
804.15638329020612
  0
LINE
  8
_0-0_計極細
  6
CONTINUOUS
 62
    2
 10
1335.4999999999973
 20
802.95638329020619
 11
1335.4999999999973
 21
804.15638329020612
  0
LINE
  8
_0-0_計極細
  6
CONTINUOUS
 62
    2
 10
1337.4999999999973
 20
802.95638329020619
 11
1337.4999999999973
 21
804.15638329020612
  0
LINE
  8
_0-0_計極細
  6
CONTINUOUS
 62
    2
 10
1339.4999999999973
 20
802.95638329020619
 11
1339.4999999999973
 21
804.15638329020612
  0
LINE
  8
_0-0_計極細
  6
CONTINUOUS
 62
    2
 10
1353.4999999999973
 20
802.95638329020619
 11
1353.4999999999973
 21
804.15638329020612
  0
LINE
  8
_0-1_計細線
  6
CONTINUOUS
 62
    3
 10
1321.4999191799989
 20
804.15638329020612
 11
1356.4999999999973
 21
804.15638329020612
  0
LINE
  8
_0-1_計細線
  6
CONTINUOUS
 62
    3
 10
1356.4999999999973
 20
804.15638329020612
 11
1356.4999999999973
 21
802.95638329020619
  0
LINE
  8
_0-1_計細線
  6
CONTINUOUS
 62
    3
 10
1321.4999191799989
 20
802.95638329020676
 11
1321.4999191799989
 21
804.15638329020612
  0
LINE
  8
_0-1_計細線
  6
CONTINUOUS
 62
    3
 10
1356.4999999999973
 20
802.95638329020619
 11
1321.4999191799989
 21
802.95638329020619
  0
LINE
  8
_0-0_計極細
  6
CENTER2
 62
    2
 10
1285.5732650110026
 20
874.65638321366566
 11
1350.3110110804955
 21
874.65638321366566
  0
LINE
  8
_0-5_寸法線
  6
CONTINUOUS
 62
    7
 10
1296.9999999999973
 20
958.65638321366566
 11
1296.9999999999973
 21
1012.6563832136657
  0
LINE
  8
_0-5_寸法線
  6
CONTINUOUS
 62
    7
 10
1296.9999999999973
 20
1006.6563832136657
 11
1285.4088900845281
 21
1003.5505546724355
  0
LINE
  8
_0-5_寸法線
  6
CONTINUOUS
 62
    7
 10
1296.9999999999973
 20
1006.6563832136657
 11
1285.4088900845281
 21
1009.762211754896
  0
LINE
  8
_0-5_寸法線
  6
CONTINUOUS
 62
    7
 10
1333.4999999999973
 20
956.15638321366578
 11
1333.4999999999973
 21
1012.6563832136657
  0
CIRCLE
  8
_0-5_寸法線
  6
CONTINUOUS
 62
    1
 10
1333.4999999999973
 20
1006.6563832136657
 40
1.7999999999999996
  0
LINE
  8
_0-5_寸法線
  6
CONTINUOUS
 62
    7
 10
1248.9999999999973
 20
1006.6563832136657
 11
1333.4999999999973
 21
1006.6563832136657
  0
TEXT
  8
_0-5_寸法線
 62
    7
 10
1249.5355965932049
 20
1006.6563832136657
 40
18
 41
1
 50
0
  1
36.5
  0
LINE
  8
_0-5_寸法線
  6
CONTINUOUS
 62
    7
 10
1356.4999999999973
 20
957.35638321366548
 11
1356.4999999999973
 21
1012.6563832136657
  0
LINE
  8
_0-5_寸法線
  6
CONTINUOUS
 62
    7
 10
1356.4999999999973
 20
1006.6563832136657
 11
1368.0911099154662
 21
1009.7622117548958
  0
LINE
  8
_0-5_寸法線
  6
CONTINUOUS
 62
    7
 10
1356.4999999999973
 20
1006.6563832136657
 11
1368.0911099154662
 21
1003.5505546724355
  0
LINE
  8
_0-5_寸法線
  6
CONTINUOUS
 62
    7
 10
1333.4999999999973
 20
1006.6563832136657
 11
1387.3926776822123
 21
1006.6563832136657
  0
TEXT
  8
_0-5_寸法線
 62
    7
 10
1369.3926776822123
 20
1006.6563832136657
 40
18
 41
1
 50
0
  1
23
  0
LINE
  8
_0-5_寸法線
  6
CONTINUOUS
 62
    7
 10
1296.9999999999973
 20
958.65638321366566
 11
1296.9999999999973
 21
1054.6563832136658
  0
LINE
  8
_0-5_寸法線
  6
CONTINUOUS
 62
    7
 10
1296.9999999999973
 20
1048.6563832136658
 11
1308.5911099154662
 21
1051.762211754896
  0
LINE
  8
_0-5_寸法線
  6
CONTINUOUS
 62
    7
 10
1296.9999999999973
 20
1048.6563832136658
 11
1308.5911099154662
 21
1045.5505546724355
  0
LINE
  8
_0-5_寸法線
  6
CONTINUOUS
 62
    7
 10
1356.4999999999973
 20
957.35638321366548
 11
1356.4999999999973
 21
1054.6563832136658
  0
LINE
  8
_0-5_寸法線
  6
CONTINUOUS
 62
    7
 10
1356.4999999999973
 20
1048.6563832136658
 11
1344.9088900845284
 21
1045.5505546724355
  0
LINE
  8
_0-5_寸法線
  6
CONTINUOUS
 62
    7
 10
1356.4999999999973
 20
1048.6563832136658
 11
1344.9088900845284
 21
1051.762211754896
  0
LINE
  8
_0-5_寸法線
  6
CONTINUOUS
 62
    7
 10
1296.9999999999973
 20
1048.6563832136658
 11
1356.4999999999973
 21
1048.6563832136658
  0
TEXT
  8
_0-5_寸法線
 62
    7
 10
1308.7499999999973
 20
1048.6563832136658
 40
18
 41
1
 50
0
  1
59.5
  0
LINE
  8
_0-5_寸法線
  6
CONTINUOUS
 62
    7
 10
598.80473547777456
 20
894.53164512714136
 11
590.67247873235499
 21
903.35583915416612
  0
LINE
  8
_0-5_寸法線
  6
CONTINUOUS
 62
    7
 10
598.80473547777456
 20
894.53164512714136
 11
596.17409155965618
 21
906.23974969517758
  0
LINE
  8
_0-5_寸法線
  6
CONTINUOUS
 62
    7
 10
598.80473547777456
 20
894.53164512714136
 11
532.66448184082674
 21
1020.7068723525922
  0
LINE
  8
_0-5_寸法線
  6
CONTINUOUS
 62
    7
 10
532.66448184082674
 20
1020.7068723525922
 11
475.06448184082683
 21
1020.7068723525922
  0
TEXT
  8
_0-5_寸法線
 62
    7
 10
475.06448184082672
 20
1020.7068723525922
 40
18
 41
0.8000000000000001
 50
0
  1
取っ手部
  0
LINE
  8
_0-5_寸法線
  6
CONTINUOUS
 62
    7
 10
629
 20
563.15638321366578
 11
634.99999999999989
 21
552.76407836825229
  0
LINE
  8
_0-5_寸法線
  6
CONTINUOUS
 62
    7
 10
629
 20
563.15638321366578
 11
628.99999999999977
 21
551.15638321366578
  0
LINE
  8
_0-5_寸法線
  6
CONTINUOUS
 62
    7
 10
629
 20
563.15638321366578
 11
637.4003632137983
 21
531.80580089773593
  0
LINE
  8
_0-5_寸法線
  6
CONTINUOUS
 62
    7
 10
637.4003632137983
 20
531.80580089773593
 11
695.00036321379821
 21
531.80580089773593
  0
TEXT
  8
_0-5_寸法線
 62
    7
 10
637.4003632137983
 20
531.80580089773593
 40
18
 41
0.8000000000000001
 50
0
  1
アンカー
  0
LINE
  8
_0-5_寸法線
  6
CONTINUOUS
 62
    7
 10
1070.1980041002803
 20
544.8011686193945
 11
1066.0615080700129
 21
527.28290955658849
  0
LINE
  8
_0-5_寸法線
  6
CONTINUOUS
 62
    7
 10
1070.1980041002803
 20
544.8011686193945
 11
1057.8565639240123
 21
531.69815925606122
  0
LINE
  8
_0-5_寸法線
  6
CONTINUOUS
 62
    7
 10
1070.1980041002803
 20
544.8011686193945
 11
1035.4537776992927
 21
480.23529886798451
  0
LINE
  8
_0-5_寸法線
  6
CONTINUOUS
 62
    7
 10
1035.4537776992927
 20
480.23529886798451
 11
877.05377769929282
 21
480.23529886798491
  0
TEXT
  8
_0-5_寸法線
 62
    7
 10
877.0537776992926
 20
480.23529886798451
 40
18
 41
0.7999999999999994
 50
0
  1
横引き排水トラップ一式
  0
LINE
  8
_0-7_枠細線
  6
CONTINUOUS
 62
    5
 10
1709.8724933853093
 20
1131
 11
1067.87249338531
 21
1131
  0
TEXT
  8
_0-7_枠細線
 62
    5
 10
1073.87249338531
 20
1134
 40
15
 41
1
 50
0
  1
記号
  0
TEXT
  8
_0-7_枠細線
 62
    5
 10
1196.12249338531
 20
1134
 40
15
 41
1
 50
0
  1
訂　 正　 記　 事
  0
TEXT
  8
_0-7_枠細線
 62
    5
 10
1417.3724933853096
 20
1134
 40
15
 41
1
 50
0
  1
訂 正 年 月 日
  0
TEXT
  8
_0-7_枠細線
 62
    5
 10
1567.3724933853093
 20
1134
 40
15
 41
1
 50
0
  1
備　　　　　考
  0
LINE
  8
_0-7_枠細線
  6
CONTINUOUS
 62
    5
 10
1709.87249338531
 20
1110
 11
1067.87249338531
 21
1110
  0
LINE
  8
_0-7_枠細線
  6
CONTINUOUS
 62
    5
 10
1097.87249338531
 20
1111.7308007660963
 11
1088.87249338531
 21
1129.7308007660963
  0
LINE
  8
_0-7_枠細線
  6
CONTINUOUS
 62
    5
 10
1079.87249338531
 20
1111.7308007660963
 11
1097.87249338531
 21
1111.7308007660963
  0
LINE
  8
_0-7_枠細線
  6
CONTINUOUS
 62
    5
 10
1088.87249338531
 20
1129.7308007660963
 11
1079.87249338531
 21
1111.7308007660963
  0
TEXT
  8
_0-7_枠細線
 62
    5
 10
1082.7106749070879
 20
1111.36239807164
 40
15
 41
0.8
 50
0
  1
１
  0
LINE
  8
_0-7_枠細線
  6
CONTINUOUS
 62
    5
 10
1529.8724933853096
 20
1110.0000000000002
 11
1529.8724933853096
 21
1151.9999999999991
  0
LINE
  8
_0-7_枠細線
  6
CONTINUOUS
 62
    5
 10
1409.8724933853096
 20
1110.0000000000002
 11
1409.8724933853096
 21
1151.9999999999991
  0
LINE
  8
_0-7_枠細線
  6
CONTINUOUS
 62
    5
 10
1109.87249338531
 20
1110
 11
1109.87249338531
 21
1151.9999999999991
  0
LINE
  8
_0-7_枠細線
  6
CONTINUOUS
 62
    5
 10
1067.87249338531
 20
1110
 11
1067.87249338531
 21
1151.9999999999991
  0
TEXT
  8
_0-7_枠細線
 62
    5
 10
1126.4929378297543
 20
1113
 40
15
 41
1
 50
0
  1
排水穴位置変更
  0
LINE
  8
_0-7_枠細線
  6
CONTINUOUS
 62
    5
 10
1174.4110283342902
 20
760.09555707773347
 11
1165.4110283342902
 21
778.09555707773347
  0
LINE
  8
_0-7_枠細線
  6
CONTINUOUS
 62
    5
 10
1156.4110283342902
 20
760.09555707773347
 11
1174.4110283342902
 21
760.09555707773347
  0
LINE
  8
_0-7_枠細線
  6
CONTINUOUS
 62
    5
 10
1165.4110283342902
 20
778.09555707773347
 11
1156.4110283342902
 21
760.09555707773347
  0
TEXT
  8
_0-7_枠細線
 62
    5
 10
1159.2492098560688
 20
759.72715438327702
 40
15
 41
0.8
 50
0
  1
１
  0
LINE
  8
_0-5_寸法線
  6
CONTINUOUS
 62
    7
 10
637.72536874690832
 20
846.52753997987975
 11
643.6856234792466
 21
836.11238930763125
  0
LINE
  8
_0-5_寸法線
  6
CONTINUOUS
 62
    7
 10
637.72536874690832
 20
846.52753997987975
 11
637.67952542201544
 21
834.52762754730065
  0
LINE
  8
_0-5_寸法線
  6
CONTINUOUS
 62
    7
 10
637.72536874690832
 20
846.52753997987975
 11
658.36226524159997
 21
768.31564274290668
  0
LINE
  8
_0-5_寸法線
  6
CONTINUOUS
 62
    7
 10
658.36226524159997
 20
768.31564274290668
 11
701.5622652415999
 21
768.31564274290668
  0
TEXT
  8
_0-5_寸法線
 62
    7
 10
658.36226524159997
 20
768.31564274290668
 40
18
 41
0.8000000000000001
 50
0
  1
上フタ
  0
LINE
  8
_0-5_寸法線
  6
CONTINUOUS
 62
    7
 10
737.61848805327077
 20
803.92851473039855
 11
743.61848807411752
 21
793.53620989702119
  0
LINE
  8
_0-5_寸法線
  6
CONTINUOUS
 62
    7
 10
737.61848805327077
 20
803.92851473039855
 11
737.61848807734259
 21
791.92851473039855
  0
LINE
  8
_0-5_寸法線
  6
CONTINUOUS
 62
    7
 10
737.61848805327077
 20
803.92851473039855
 11
747.16092841903992
 21
768.31564274290668
  0
LINE
  8
_0-5_寸法線
  6
CONTINUOUS
 62
    7
 10
747.16092841903992
 20
768.31564274290668
 11
833.56092841903978
 21
768.31564274290668
  0
TEXT
  8
_0-5_寸法線
 62
    7
 10
747.16092841903992
 20
768.31564274290668
 40
18
 41
0.8000000000000001
 50
0
  1
排水ユニット
  0
LINE
  8
_1-5_寸法3
  6
CONTINUOUS
 62
    7
 10
591.67344412829971
 20
236.82761635521976
 11
537.67344412830016
 21
236.82761635522002
  0
LINE
  8
_1-5_寸法3
  6
CONTINUOUS
 62
    7
 10
543.67344412830016
 20
236.82761635522002
 11
546.77927266953043
 21
225.23650643975122
  0
LINE
  8
_1-5_寸法3
  6
CONTINUOUS
 62
    7
 10
543.67344412830016
 20
236.82761635522002
 11
540.56761558706989
 21
225.23650643975122
  0
LINE
  8
_1-5_寸法3
  6
CONTINUOUS
 62
    7
 10
594.67344412830016
 20
163.82761635521956
 11
537.67344412830016
 21
163.82761635521956
  0
LINE
  8
_1-5_寸法3
  6
CONTINUOUS
 62
    7
 10
543.67344412830016
 20
163.82761635521956
 11
540.56761558706989
 21
175.41872627068835
  0
LINE
  8
_1-5_寸法3
  6
CONTINUOUS
 62
    7
 10
543.67344412830016
 20
163.82761635521956
 11
546.77927266953043
 21
175.41872627068835
  0
LINE
  8
_1-5_寸法3
  6
CONTINUOUS
 62
    7
 10
543.67344412830016
 20
236.82761635522002
 11
543.67344412830016
 21
163.82761635521956
  0
TEXT
  8
_1-5_寸法3
 62
    7
 10
543.67344412830016
 20
182.32761635521979
 40
18
 41
1
 50
90
  1
36.5
  0
LINE
  8
_1-5_寸法3
  6
CONTINUOUS
 62
    7
 10
903.67344412830005
 20
236.82761635521967
 11
957.67344412830005
 21
236.82761635521933
  0
LINE
  8
_1-5_寸法3
  6
CONTINUOUS
 62
    7
 10
951.67344412830005
 20
236.82761635521933
 11
954.77927266953043
 21
225.23650643975054
  0
LINE
  8
_1-5_寸法3
  6
CONTINUOUS
 62
    7
 10
951.67344412830005
 20
236.82761635521933
 11
948.56761558706989
 21
225.23650643975054
  0
LINE
  8
_1-5_寸法3
  6
CONTINUOUS
 62
    7
 10
903.67344412830005
 20
216.82761635521962
 11
957.67344412830005
 21
216.82761635521911
  0
LINE
  8
_1-5_寸法3
  6
CONTINUOUS
 62
    7
 10
951.67344412830005
 20
216.82761635521911
 11
948.56761558706989
 21
228.4187262706879
  0
LINE
  8
_1-5_寸法3
  6
CONTINUOUS
 62
    7
 10
951.67344412830005
 20
216.82761635521911
 11
954.77927266953043
 21
228.4187262706879
  0
LINE
  8
_1-5_寸法3
  6
CONTINUOUS
 62
    7
 10
951.67344412830005
 20
236.82761635521933
 11
951.67344412830005
 21
216.82761635521911
  0
TEXT
  8
_1-5_寸法3
 62
    7
 10
951.67344412830005
 20
217.82761635521888
 40
18
 41
1
 50
90
  1
10
  0
TEXT
  8
_0-7_枠細線
 62
    5
 10
690.00799095438424
 20
108.3297074818463
 40
30
 41
0.8
 50
0
  1
断面詳細図
  0
LINE
  8
_1-2_極細3
  6
CENTER1
 62
    2
 10
747.67344412830016
 20
252.52373454026133
 11
747.67344412830016
 21
153.64608398056851
  0
LINE
  8
_1-2_極細3
  6
CONTINUOUS
 62
    2
 10
890.67344397521936
 20
216.82761635521604
 11
888.67344397521981
 21
216.82761635521604
  0
LINE
  8
_1-2_極細3
  6
CONTINUOUS
 62
    2
 10
886.67344397521924
 20
234.32761635521581
 11
886.67344397521924
 21
165.82761635521604
  0
ARC
  8
_1-2_極細3
  6
CONTINUOUS
 62
    2
 10
889.1734439752197
 20
234.32761635521581
 40
2.5
 50
359.99999999998403
 51
179.99999999999946
  0
LINE
  8
_1-2_極細3
  6
CONTINUOUS
 62
    2
 10
888.67344397521981
 20
234.32761635521615
 11
888.67344397521981
 21
163.82761635521581
  0
ARC
  8
_1-2_極細3
  6
CONTINUOUS
 62
    2
 10
889.17344397521936
 20
234.32761635521581
 40
0.5
 50
89.999999999999915
 51
179.99999999996092
  0
LINE
  8
_1-2_極細3
  6
CONTINUOUS
 62
    2
 10
889.17344397521936
 20
234.82761635521604
 11
889.15131965014939
 21
234.82761635521604
  0
LINE
  8
_1-2_極細3
  6
CONTINUOUS
 62
    2
 10
888.67344397521981
 20
226.96036230563698
 11
889.64693360049137
 21
234.26153449517039
  0
ARC
  8
_1-2_極細3
  6
CONTINUOUS
 62
    2
 10
889.15131965014939
 20
234.32761635521581
 40
0.5
 50
352.4053566314289
 51
89.999999999999545
  0
LINE
  8
_1-2_極細3
  6
CONTINUOUS
 62
    2
 10
888.67344397521981
 20
163.82761635521581
 11
606.67344428138085
 21
163.82761635521581
  0
LINE
  8
_1-2_極細3
  6
CONTINUOUS
 62
    2
 10
886.67344397521924
 20
165.82761635521604
 11
608.67344428138131
 21
165.82761635521604
  0
LINE
  8
_1-2_極細3
  6
CONTINUOUS
 62
    2
 10
890.67344397521936
 20
226.56212445437382
 11
890.67344397521936
 21
216.82761635521604
  0
LINE
  8
_1-2_極細3
  6
CONTINUOUS
 62
    2
 10
890.70853237248946
 20
227.09077933473782
 11
891.67344397522015
 21
234.32761635521581
  0
ARC
  8
_1-2_極細3
  6
CONTINUOUS
 62
    2
 10
894.67344397521981
 20
226.56212445437382
 40
4
 50
172.40535663140921
 51
179.99999999999983
  0
LINE
  8
_1-2_極細3
  6
CONTINUOUS
 62
    2
 10
604.67344428138085
 20
216.82761635521604
 11
606.67344428138085
 21
216.82761635521604
  0
LINE
  8
_1-2_極細3
  6
CONTINUOUS
 62
    2
 10
608.67344428138131
 20
234.32761635521581
 11
608.67344428138131
 21
165.82761635521604
  0
ARC
  8
_1-2_極細3
  6
CONTINUOUS
 62
    2
 10
606.1734442813804
 20
234.32761635521581
 40
2.5
 50
0
 51
180.00000000001526
  0
LINE
  8
_1-2_極細3
  6
CONTINUOUS
 62
    2
 10
606.67344428138085
 20
234.32761635521615
 11
606.67344428138085
 21
163.82761635521581
  0
ARC
  8
_1-2_極細3
  6
CONTINUOUS
 62
    2
 10
606.17344428138085
 20
234.32761635521581
 40
0.5
 50
0.0000000000390826
 51
89.999999999999915
  0
LINE
  8
_1-2_極細3
  6
CONTINUOUS
 62
    2
 10
606.17344428138085
 20
234.82761635521604
 11
606.19556860645116
 21
234.82761635521604
  0
LINE
  8
_1-2_極細3
  6
CONTINUOUS
 62
    2
 10
606.67344428138085
 20
226.96036230563698
 11
605.69995465610918
 21
234.26153449517039
  0
ARC
  8
_1-2_極細3
  6
CONTINUOUS
 62
    2
 10
606.19556860645116
 20
234.32761635521581
 40
0.5
 50
89.999999999999915
 51
187.59464336857042
  0
LINE
  8
_1-2_極細3
  6
CONTINUOUS
 62
    2
 10
604.67344428138085
 20
226.56212445437382
 11
604.67344428138085
 21
216.82761635521604
  0
LINE
  8
_1-2_極細3
  6
CONTINUOUS
 62
    2
 10
604.63835588411121
 20
227.09077933473782
 11
603.67344428138085
 21
234.32761635521581
  0
ARC
  8
_1-2_極細3
  6
CONTINUOUS
 62
    2
 10
600.67344428138085
 20
226.56212445437382
 40
4
 50
0
 51
7.5946433685907992
  0
TEXT
  8
_0-7_枠細線
 62
    5
 10
827.94675465338639
 20
110.43419802074038
 40
24
 41
0.6
 50
0
  1
Ｓ＝１：３
  0
LINE
  8
_1-3_細線3
  6
CONTINUOUS
 62
    4
 10
624.67344428138131
 20
205.82761635521956
 11
624.67344428138131
 21
235.82761635521956
  0
LINE
  8
_1-3_細線3
  6
CONTINUOUS
 62
    4
 10
870.67344428138165
 20
205.82761635522024
 11
624.67344428138131
 21
205.82761635521956
  0
LINE
  8
_1-3_細線3
  6
CONTINUOUS
 62
    4
 10
870.67344428138165
 20
235.82761635522024
 11
870.67344428138165
 21
205.82761635522024
  0
LINE
  8
_1-3_細線3
  6
CONTINUOUS
 62
    4
 10
874.67344428138108
 20
235.82761635522024
 11
620.67344428138131
 21
235.82761635521956
  0
LINE
  8
_1-3_細線3
  6
CONTINUOUS
 62
    4
 10
874.67344428138108
 20
201.82761635521911
 11
874.67344428138108
 21
235.82761635522024
  0
LINE
  8
_1-3_細線3
  6
CONTINUOUS
 62
    4
 10
620.67344428138131
 20
201.82761635521911
 11
874.67344428138108
 21
201.82761635521911
  0
LINE
  8
_1-3_細線3
  6
CONTINUOUS
 62
    4
 10
620.67344428138131
 20
235.82761635521956
 11
620.67344428138131
 21
201.82761635521911
  0
LINE
  8
_1-5_寸法3
  6
CONTINUOUS
 62
    7
 10
738.48461189677084
 20
209.54106767145763
 11
701.10287639225999
 21
240.90806814605946
  0
LINE
  8
_1-5_寸法3
  6
CONTINUOUS
 62
    7
 10
705.69914305097382
 20
237.05134248794025
 11
702.59331450974355
 21
248.6424524034091
  0
LINE
  8
_1-5_寸法3
  6
CONTINUOUS
 62
    7
 10
705.69914305097382
 20
237.05134248794025
 11
708.80497159220408
 21
248.6424524034091
  0
LINE
  8
_1-5_寸法3
  6
CONTINUOUS
 62
    7
 10
738.48461189677084
 20
243.54106767145842
 11
701.10287639225999
 21
274.90806814606032
  0
LINE
  8
_1-5_寸法3
  6
CONTINUOUS
 62
    7
 10
705.69914305097382
 20
271.05134248794104
 11
708.80497159220408
 21
259.46023257247225
  0
LINE
  8
_1-5_寸法3
  6
CONTINUOUS
 62
    7
 10
705.69914305097382
 20
271.05134248794104
 11
702.59331450974355
 21
259.46023257247214
  0
LINE
  8
_1-5_寸法3
  6
CONTINUOUS
 62
    7
 10
705.69914305097382
 20
237.05134248794025
 11
705.69914305097382
 21
271.05134248794104
  0
TEXT
  8
_1-5_寸法3
 62
    7
 10
705.69914305097382
 20
245.05134248794047
 40
18
 41
1
 50
90
  1
17
  0
LINE
  8
_1-5_寸法3
  6
CONTINUOUS
 62
    7
 10
813.12680852858216
 20
201.82761635521911
 11
816.23263706981231
 21
190.23650643975031
  0
LINE
  8
_1-5_寸法3
  6
CONTINUOUS
 62
    7
 10
813.12680852858216
 20
201.82761635521911
 11
810.02097998735201
 21
190.23650643975031
  0
LINE
  8
_1-5_寸法3
  6
CONTINUOUS
 62
    7
 10
813.12680852858216
 20
205.8276163552199
 11
810.02097998735201
 21
217.41872627068869
  0
LINE
  8
_1-5_寸法3
  6
CONTINUOUS
 62
    7
 10
813.12680852858216
 20
205.8276163552199
 11
816.23263706981243
 21
217.41872627068869
  0
LINE
  8
_1-5_寸法3
  6
CONTINUOUS
 62
    7
 10
813.12680852858216
 20
171.82761635521911
 11
813.12680852858216
 21
235.8276163552199
  0
TEXT
  8
_1-5_寸法3
 62
    7
 10
813.12680852858216
 20
177.71069995212838
 40
18
 41
1
 50
90
  1
2
  0
ARC
  8
_1-3_細線3
  6
CONTINUOUS
 62
    4
 10
876.39422851742552
 20
169.82761635521956
 40
3.9999999999999991
 50
269.99999999999977
 51
348.69006752598227
  0
LINE
  8
_1-3_細線3
  6
CONTINUOUS
 62
    4
 10
876.39422851742552
 20
165.82761635521979
 11
842.95265973917344
 21
165.82761635521979
  0
LINE
  8
_1-3_細線3
  6
CONTINUOUS
 62
    4
 10
883.6734441283005
 20
185.82761635522002
 11
880.31655122018935
 21
169.043151814667
  0
ARC
  8
_1-3_細線3
  6
CONTINUOUS
 62
    4
 10
842.95265973917344
 20
169.82761635521956
 40
3.9999999999999991
 50
191.30993247401983
 51
269.99999999999977
  0
LINE
  8
_1-3_細線3
  6
CONTINUOUS
 62
    4
 10
839.03033703641063
 20
169.043151814667
 11
835.6734441283005
 21
185.82761635522002
  0
LINE
  8
_1-3_細線3
  6
CONTINUOUS
 62
    4
 10
834.67344412830039
 20
201.82761635522047
 11
884.67344412829993
 21
201.82761635521979
  0
LINE
  8
_1-3_細線3
  6
CONTINUOUS
 62
    4
 10
834.67344412830039
 20
185.82761635522002
 11
834.67344412830039
 21
201.82761635522047
  0
LINE
  8
_1-3_細線3
  6
CONTINUOUS
 62
    4
 10
834.67344412830039
 20
185.82761635522002
 11
884.67344412829993
 21
185.82761635522002
  0
LINE
  8
_1-3_細線3
  6
CONTINUOUS
 62
    4
 10
884.67344412829993
 20
201.82761635521979
 11
884.67344412829993
 21
185.82761635522002
  0
ARC
  8
_1-3_細線3
  6
CONTINUOUS
 62
    4
 10
652.3942285174262
 20
169.82761635521922
 40
3.9999999999999991
 50
269.99999999999977
 51
348.6900675259746
  0
LINE
  8
_1-3_細線3
  6
CONTINUOUS
 62
    4
 10
652.3942285174262
 20
165.82761635521911
 11
618.95265973917367
 21
165.82761635521911
  0
LINE
  8
_1-3_細線3
  6
CONTINUOUS
 62
    4
 10
659.67344412830016
 20
185.82761635521933
 11
656.31655122018901
 21
169.04315181466632
  0
ARC
  8
_1-3_細線3
  6
CONTINUOUS
 62
    4
 10
618.95265973917367
 20
169.82761635521922
 40
3.9999999999999991
 50
191.30993247402466
 51
269.99999999999977
  0
LINE
  8
_1-3_細線3
  6
CONTINUOUS
 62
    4
 10
615.03033703641086
 20
169.04315181466632
 11
611.67344412830016
 21
185.82761635521933
  0
LINE
  8
_1-3_細線3
  6
CONTINUOUS
 62
    4
 10
660.67344412830062
 20
201.82761635521979
 11
610.67344412830062
 21
201.82761635521979
  0
LINE
  8
_1-3_細線3
  6
CONTINUOUS
 62
    4
 10
660.67344412830062
 20
185.82761635521933
 11
660.67344412830062
 21
201.82761635522013
  0
LINE
  8
_1-3_細線3
  6
CONTINUOUS
 62
    4
 10
610.67344412830062
 20
185.82761635521933
 11
660.67344412830062
 21
185.82761635521933
  0
LINE
  8
_1-3_細線3
  6
CONTINUOUS
 62
    4
 10
610.67344412830062
 20
201.82761635521979
 11
610.67344412830062
 21
185.82761635521933
  0
LINE
  8
_1-5_寸法3
  6
CONTINUOUS
 62
    7
 10
603.6734442813804
 20
248.82761635521592
 11
603.6734442813804
 21
302.82761635521592
  0
LINE
  8
_1-5_寸法3
  6
CONTINUOUS
 62
    7
 10
603.6734442813804
 20
296.82761635521592
 11
592.08233436591161
 21
293.72178781398566
  0
LINE
  8
_1-5_寸法3
  6
CONTINUOUS
 62
    7
 10
603.6734442813804
 20
296.82761635521592
 11
592.08233436591161
 21
299.93344489644619
  0
LINE
  8
_1-5_寸法3
  6
CONTINUOUS
 62
    7
 10
608.67344428138176
 20
248.82761635521592
 11
608.67344428138176
 21
302.82761635521592
  0
CIRCLE
  8
_1-5_寸法3
  6
CONTINUOUS
 62
    1
 10
608.67344428138176
 20
296.82761635521592
 40
1.7999999999999996
  0
LINE
  8
_1-5_寸法3
  6
CONTINUOUS
 62
    7
 10
566.73675563324832
 20
296.82761635521592
 11
608.67344428138176
 21
296.82761635521592
  0
TEXT
  8
_1-5_寸法3
 62
    7
 10
566.73675563324832
 20
296.82761635521592
 40
18
 41
1
 50
0
  1
2.5
  0
LINE
  8
_1-5_寸法3
  6
CONTINUOUS
 62
    7
 10
620.67344428138131
 20
248.82761635521592
 11
620.67344428138176
 21
302.82761635521592
  0
LINE
  8
_1-5_寸法3
  6
CONTINUOUS
 62
    7
 10
608.67344428138176
 20
296.82761635521592
 11
620.67344428138176
 21
296.82761635521592
  0
TEXT
  8
_1-5_寸法3
 62
    7
 10
610.17344428138176
 20
296.82761635521592
 40
18
 41
1
 50
0
  1
6
  0
LINE
  8
_1-5_寸法3
  6
CONTINUOUS
 62
    7
 10
620.67344428138176
 20
296.82761635521592
 11
632.26455419685044
 21
299.93344489644619
  0
LINE
  8
_1-5_寸法3
  6
CONTINUOUS
 62
    7
 10
620.67344428138176
 20
296.82761635521592
 11
632.26455419685044
 21
293.72178781398566
  0
LINE
  8
_1-5_寸法3
  6
CONTINUOUS
 62
    7
 10
874.67344428138108
 20
248.82761635521592
 11
874.67344428138108
 21
302.82761635521592
  0
LINE
  8
_1-5_寸法3
  6
CONTINUOUS
 62
    7
 10
874.67344428138108
 20
296.82761635521592
 11
863.08233436591229
 21
293.72178781398566
  0
LINE
  8
_1-5_寸法3
  6
CONTINUOUS
 62
    7
 10
874.67344428138108
 20
296.82761635521592
 11
863.08233436591229
 21
299.93344489644619
  0
LINE
  8
_1-5_寸法3
  6
CONTINUOUS
 62
    7
 10
620.67344428138176
 20
296.82761635521592
 11
874.67344428138108
 21
296.82761635521592
  0
TEXT
  8
_1-5_寸法3
 62
    7
 10
734.17344428138176
 20
296.82761635521592
 40
18
 41
1
 50
0
  1
127
  0
LINE
  8
_1-5_寸法3
  6
CONTINUOUS
 62
    7
 10
886.67344397521924
 20
248.82761635521592
 11
886.67344397521924
 21
302.82761635521592
  0
CIRCLE
  8
_1-5_寸法3
  6
CONTINUOUS
 62
    1
 10
886.67344397521924
 20
296.82761635521592
 40
1.7999999999999996
  0
LINE
  8
_1-5_寸法3
  6
CONTINUOUS
 62
    7
 10
874.67344428138108
 20
296.82761635521592
 11
886.67344397521924
 21
296.82761635521592
  0
TEXT
  8
_1-5_寸法3
 62
    7
 10
876.1734441283005
 20
296.82761635521592
 40
18
 41
1
 50
0
  1
6
  0
LINE
  8
_1-5_寸法3
  6
CONTINUOUS
 62
    7
 10
891.67344397521981
 20
248.82761635521592
 11
891.67344397521981
 21
302.82761635521592
  0
LINE
  8
_1-5_寸法3
  6
CONTINUOUS
 62
    7
 10
891.67344397521981
 20
296.82761635521592
 11
903.2645538906886
 21
299.93344489644608
  0
LINE
  8
_1-5_寸法3
  6
CONTINUOUS
 62
    7
 10
891.67344397521981
 20
296.82761635521592
 11
903.2645538906886
 21
293.7217878139856
  0
LINE
  8
_1-5_寸法3
  6
CONTINUOUS
 62
    7
 10
886.67344397521924
 20
296.82761635521592
 11
934.42582361496113
 21
296.82761635521592
  0
TEXT
  8
_1-5_寸法3
 62
    7
 10
907.42582361496113
 20
296.82761635521592
 40
18
 41
1
 50
0
  1
2.5
  0
LINE
  8
_1-5_寸法3
  6
CONTINUOUS
 62
    7
 10
603.67344412830016
 20
248.82761635521967
 11
603.67344412830016
 21
344.82761635521592
  0
LINE
  8
_1-5_寸法3
  6
CONTINUOUS
 62
    7
 10
603.67344412830016
 20
338.82761635521592
 11
615.26455404376895
 21
341.93344489644619
  0
LINE
  8
_1-5_寸法3
  6
CONTINUOUS
 62
    7
 10
603.67344412830016
 20
338.82761635521592
 11
615.26455404376895
 21
335.72178781398566
  0
LINE
  8
_1-5_寸法3
  6
CONTINUOUS
 62
    7
 10
891.67344412830005
 20
248.82761635521967
 11
891.67344412830005
 21
344.82761635521592
  0
LINE
  8
_1-5_寸法3
  6
CONTINUOUS
 62
    7
 10
891.67344412830005
 20
338.82761635521592
 11
880.08233421283126
 21
335.72178781398566
  0
LINE
  8
_1-5_寸法3
  6
CONTINUOUS
 62
    7
 10
891.67344412830005
 20
338.82761635521592
 11
880.08233421283126
 21
341.93344489644619
  0
LINE
  8
_1-5_寸法3
  6
CONTINUOUS
 62
    7
 10
603.67344412830016
 20
338.82761635521592
 11
891.67344412830005
 21
338.82761635521592
  0
TEXT
  8
_1-5_寸法3
 62
    7
 10
734.17344412830016
 20
338.82761635521592
 40
18
 41
1
 50
0
  1
144
  0
LINE
  8
_1-3_細線3
  6
CONTINUOUS
 62
    4
 10
707.68084614701547
 20
195.82761635521979
 11
707.68084614701547
 21
201.82761635521945
  0
LINE
  8
_1-3_細線3
  6
CONTINUOUS
 62
    4
 10
787.68084614701525
 20
195.82761635522013
 11
707.68084614701547
 21
195.82761635521979
  0
LINE
  8
_1-3_細線3
  6
CONTINUOUS
 62
    4
 10
787.68084614701525
 20
201.82761635521945
 11
787.68084614701525
 21
195.82761635522013
  0
ARC
  8
_1-3_細線3
  6
CONTINUOUS
 62
    4
 10
764.3942285174262
 20
169.82761635521888
 40
3.9999999999999991
 50
269.99999999999977
 51
348.69006752597846
  0
LINE
  8
_1-3_細線3
  6
CONTINUOUS
 62
    4
 10
764.3942285174262
 20
165.82761635521911
 11
730.95265973917412
 21
165.82761635521911
  0
LINE
  8
_1-3_細線3
  6
CONTINUOUS
 62
    4
 10
771.67344412829971
 20
185.82761635521933
 11
768.31655122018856
 21
169.04315181466632
  0
ARC
  8
_1-3_細線3
  6
CONTINUOUS
 62
    4
 10
730.95265973917412
 20
169.82761635521888
 40
3.9999999999999991
 50
191.30993247401696
 51
269.99999999999977
  0
LINE
  8
_1-3_細線3
  6
CONTINUOUS
 62
    4
 10
727.03033703641029
 20
169.04315181466632
 11
723.67344412829982
 21
185.82761635521933
  0
LINE
  8
_1-3_細線3
  6
CONTINUOUS
 62
    4
 10
722.67344412830005
 20
185.82761635521933
 11
772.6734441283005
 21
185.82761635521933
  0
LINE
  8
_1-3_細線3
  6
CONTINUOUS
 62
    4
 10
722.67344412830005
 20
195.82761635521979
 11
722.67344412830005
 21
185.82761635521933
  0
LINE
  8
_1-3_細線3
  6
CONTINUOUS
 62
    4
 10
772.6734441283005
 20
185.82761635521933
 11
772.6734441283005
 21
195.82761635522013
  0
TEXT
  8
_0-7_枠細線
 62
    5
 10
1415.87249338531
 20
1113
 40
15
 41
0.7199999999999999
 50
0
  1
２０２１．１１．０１
  0
ARC
  8
_0-1_計細線
  6
DASHED2
 62
    3
 10
796.99999999999909
 20
874.65638321366566
 40
12.499999999999998
 50
53.13010235415598
 51
216.86989764584365
  0
ARC
  8
_0-1_計細線
  6
DASHED2
 62
    3
 10
796.99999999999909
 20
874.65638321366566
 40
12.499999999999998
 50
216.86989764584365
 51
53.130102354155625
  0
LINE
  8
_0-1_計細線
  6
CONTINUOUS
 62
    3
 10
809.50327736133067
 20
605.15638321366623
 11
784.50327736133067
 21
605.15638321366623
  0
LINE
  8
_0-1_計細線
  6
CONTINUOUS
 62
    3
 10
809.50327736133067
 20
597.15638321366623
 11
809.50327736133067
 21
605.15638321366623
  0
LINE
  8
_0-1_計細線
  6
CONTINUOUS
 62
    3
 10
784.50327736133067
 20
605.15638321366623
 11
784.50327736133067
 21
597.15638321366623
  0
LINE
  8
_0-1_計細線
  6
CONTINUOUS
 62
    3
 10
809.50327736133067
 20
597.15638321366623
 11
784.50327736133067
 21
597.15638321366623
  0
LINE
  8
_0-1_計細線
  6
CONTINUOUS
 62
    3
 10
807.32483090727555
 20
588.76415094338972
 11
809.00327736133056
 21
597.15638321366623
  0
ARC
  8
_0-1_計細線
  6
CONTINUOUS
 62
    3
 10
805.3636695558929
 20
589.15638321366623
 40
2
 50
269.99999999999977
 51
348.69006752597943
  0
LINE
  8
_0-1_計細線
  6
CONTINUOUS
 62
    3
 10
785.00327736133056
 20
597.15638321366623
 11
786.68172381538579
 21
588.76415094338972
  0
LINE
  8
_0-1_計細線
  6
CONTINUOUS
 62
    3
 10
788.64288516676743
 20
587.15638321366623
 11
805.3636695558929
 21
587.15638321366623
  0
ARC
  8
_0-1_計細線
  6
CONTINUOUS
 62
    3
 10
788.64288516676743
 20
589.15638321366623
 40
2
 50
191.30993247402495
 51
269.99999999999977
  0
ARC
  8
_0-1_計細線
  6
DASHED2
 62
    3
 10
984.99999999999977
 20
874.65638321366566
 40
12.499999999999998
 50
53.13010235415598
 51
216.86989764584365
  0
ARC
  8
_0-1_計細線
  6
DASHED2
 62
    3
 10
984.99999999999977
 20
874.65638321366566
 40
12.499999999999998
 50
216.86989764584365
 51
53.130102354155625
  0
LINE
  8
_0-1_計細線
  6
CONTINUOUS
 62
    3
 10
972.49672263866819
 20
605.15638321366623
 11
997.49672263866819
 21
605.15638321366623
  0
LINE
  8
_0-1_計細線
  6
CONTINUOUS
 62
    3
 10
972.49672263866819
 20
597.15638321366623
 11
972.49672263866819
 21
605.15638321366623
  0
LINE
  8
_0-1_計細線
  6
CONTINUOUS
 62
    3
 10
997.49672263866819
 20
605.15638321366623
 11
997.49672263866819
 21
597.15638321366623
  0
LINE
  8
_0-1_計細線
  6
CONTINUOUS
 62
    3
 10
972.49672263866819
 20
597.15638321366623
 11
997.49672263866819
 21
597.15638321366623
  0
LINE
  8
_0-1_計細線
  6
CONTINUOUS
 62
    3
 10
974.67516909272331
 20
588.76415094338972
 11
972.99672263866807
 21
597.15638321366623
  0
ARC
  8
_0-1_計細線
  6
CONTINUOUS
 62
    3
 10
976.63633044410574
 20
589.15638321366623
 40
2
 50
191.30993247401983
 51
269.99999999999977
  0
LINE
  8
_0-1_計細線
  6
CONTINUOUS
 62
    3
 10
996.99672263866807
 20
597.15638321366623
 11
995.31827618461307
 21
588.76415094338972
  0
LINE
  8
_0-1_計細線
  6
CONTINUOUS
 62
    3
 10
993.35711483323144
 20
587.15638321366623
 11
976.63633044410574
 21
587.15638321366623
  0
ARC
  8
_0-1_計細線
  6
CONTINUOUS
 62
    3
 10
993.35711483323144
 20
589.15638321366623
 40
2
 50
269.99999999999977
 51
348.69006752597431
  0
ENDSEC
  0
EOF
